  0
SECTION
  2
HEADER
  9
$ACADVER
  1
AC1015
  9
$ACADMAINTVER
 70
     6
  9
$DWGCODEPAGE
  3
ANSI_932
  9
$INSBASE
 10
-28.57408741326981
 20
-82.8115125315162
 30
0.0
  9
$EXTMIN
 10
100.8272202607425
 20
35.32261412575099
 30
0.0
  9
$EXTMAX
 10
1492.672265169549
 20
1170.416382980785
 30
0.0
  9
$LIMMIN
 10
-210.0
 20
-148.5
  9
$LIMMAX
 10
210.0
 20
148.5
  9
$ORTHOMODE
 70
     1
  9
$REGENMODE
 70
     1
  9
$FILLMODE
 70
     1
  9
$QTEXTMODE
 70
     0
  9
$MIRRTEXT
 70
     1
  9
$LTSCALE
 40
3.0
  9
$ATTMODE
 70
     1
  9
$TEXTSIZE
 40
12.0
  9
$TRACEWID
 40
0.05
  9
$TEXTSTYLE
  7
KANJI
  9
$CLAYER
  8
2
  9
$CELTYPE
  6
BYLAYER
  9
$CECOLOR
 62
   256
  9
$CELTSCALE
 40
1.0
  9
$DISPSILH
 70
     0
  9
$DIMSCALE
 40
4.0
  9
$DIMASZ
 40
2.0
  9
$DIMEXO
 40
0.5
  9
$DIMDLI
 40
10.0
  9
$DIMRND
 40
0.0
  9
$DIMDLE
 40
0.0
  9
$DIMEXE
 40
1.0
  9
$DIMTP
 40
0.0
  9
$DIMTM
 40
0.0
  9
$DIMTXT
 40
3.0
  9
$DIMCEN
 40
0.09
  9
$DIMTSZ
 40
0.0
  9
$DIMTOL
 70
     0
  9
$DIMLIM
 70
     0
  9
$DIMTIH
 70
     0
  9
$DIMTOH
 70
     0
  9
$DIMSE1
 70
     0
  9
$DIMSE2
 70
     0
  9
$DIMTAD
 70
     1
  9
$DIMZIN
 70
     8
  9
$DIMBLK
  1

  9
$DIMASO
 70
     0
  9
$DIMSHO
 70
     0
  9
$DIMPOST
  1

  9
$DIMAPOST
  1

  9
$DIMALT
 70
     0
  9
$DIMALTD
 70
     2
  9
$DIMALTF
 40
25.4
  9
$DIMLFAC
 40
1.0
  9
$DIMTOFL
 70
     1
  9
$DIMTVP
 40
1.0
  9
$DIMTIX
 70
     1
  9
$DIMSOXD
 70
     1
  9
$DIMSAH
 70
     0
  9
$DIMBLK1
  1

  9
$DIMBLK2
  1

  9
$DIMSTYLE
  2
STANDARD
  9
$DIMCLRD
 70
   256
  9
$DIMCLRE
 70
   256
  9
$DIMCLRT
 70
   256
  9
$DIMTFAC
 40
1.0
  9
$DIMGAP
 40
1.0
  9
$DIMJUST
 70
     0
  9
$DIMSD1
 70
     0
  9
$DIMSD2
 70
     0
  9
$DIMTOLJ
 70
     1
  9
$DIMTZIN
 70
     0
  9
$DIMALTZ
 70
     0
  9
$DIMALTTZ
 70
     0
  9
$DIMUPT
 70
     0
  9
$DIMDEC
 70
     1
  9
$DIMTDEC
 70
     4
  9
$DIMALTU
 70
     2
  9
$DIMALTTD
 70
     2
  9
$DIMTXSTY
  7
STANDARD
  9
$DIMAUNIT
 70
     0
  9
$DIMADEC
 70
     0
  9
$DIMALTRND
 40
0.0
  9
$DIMAZIN
 70
     0
  9
$DIMDSEP
 70
    46
  9
$DIMATFIT
 70
     3
  9
$DIMFRAC
 70
     0
  9
$DIMLDRBLK
  1

  9
$DIMLUNIT
 70
     2
  9
$DIMLWD
 70
    -2
  9
$DIMLWE
 70
    -2
  9
$DIMTMOVE
 70
     0
  9
$LUNITS
 70
     2
  9
$LUPREC
 70
     4
  9
$SKETCHINC
 40
0.1
  9
$FILLETRAD
 40
2.0
  9
$AUNITS
 70
     0
  9
$AUPREC
 70
     0
  9
$MENU
  1
.
  9
$ELEVATION
 40
0.0
  9
$PELEVATION
 40
0.0
  9
$THICKNESS
 40
0.0
  9
$LIMCHECK
 70
     0
  9
$CHAMFERA
 40
0.0
  9
$CHAMFERB
 40
0.0
  9
$CHAMFERC
 40
0.0
  9
$CHAMFERD
 40
0.0
  9
$SKPOLY
 70
     0
  9
$TDCREATE
 40
2457345.818211678
  9
$TDUCREATE
 40
2457345.443211678
  9
$TDUPDATE
 40
2457871.831621181
  9
$TDUUPDATE
 40
2457871.456621181
  9
$TDINDWG
 40
0.014785625
  9
$TDUSRTIMER
 40
0.0147852778
  9
$USRTIMER
 70
     1
  9
$ANGBASE
 50
0.0
  9
$ANGDIR
 70
     0
  9
$PDMODE
 70
     0
  9
$PDSIZE
 40
0.0
  9
$PLINEWID
 40
0.0
  9
$SPLFRAME
 70
     0
  9
$SPLINETYPE
 70
     6
  9
$SPLINESEGS
 70
     8
  9
$HANDSEED
  5
B61
  9
$SURFTAB1
 70
     6
  9
$SURFTAB2
 70
     6
  9
$SURFTYPE
 70
     6
  9
$SURFU
 70
     6
  9
$SURFV
 70
     6
  9
$UCSBASE
  2

  9
$UCSNAME
  2

  9
$UCSORG
 10
0.0
 20
0.0
 30
0.0
  9
$UCSXDIR
 10
1.0
 20
0.0
 30
0.0
  9
$UCSYDIR
 10
0.0
 20
1.0
 30
0.0
  9
$UCSORTHOREF
  2

  9
$UCSORTHOVIEW
 70
     0
  9
$UCSORGTOP
 10
0.0
 20
0.0
 30
0.0
  9
$UCSORGBOTTOM
 10
0.0
 20
0.0
 30
0.0
  9
$UCSORGLEFT
 10
0.0
 20
0.0
 30
0.0
  9
$UCSORGRIGHT
 10
0.0
 20
0.0
 30
0.0
  9
$UCSORGFRONT
 10
0.0
 20
0.0
 30
0.0
  9
$UCSORGBACK
 10
0.0
 20
0.0
 30
0.0
  9
$PUCSBASE
  2

  9
$PUCSNAME
  2

  9
$PUCSORG
 10
0.0
 20
0.0
 30
0.0
  9
$PUCSXDIR
 10
1.0
 20
0.0
 30
0.0
  9
$PUCSYDIR
 10
0.0
 20
1.0
 30
0.0
  9
$PUCSORTHOREF
  2

  9
$PUCSORTHOVIEW
 70
     0
  9
$PUCSORGTOP
 10
0.0
 20
0.0
 30
0.0
  9
$PUCSORGBOTTOM
 10
0.0
 20
0.0
 30
0.0
  9
$PUCSORGLEFT
 10
0.0
 20
0.0
 30
0.0
  9
$PUCSORGRIGHT
 10
0.0
 20
0.0
 30
0.0
  9
$PUCSORGFRONT
 10
0.0
 20
0.0
 30
0.0
  9
$PUCSORGBACK
 10
0.0
 20
0.0
 30
0.0
  9
$USERI1
 70
     0
  9
$USERI2
 70
     0
  9
$USERI3
 70
     0
  9
$USERI4
 70
     0
  9
$USERI5
 70
     0
  9
$USERR1
 40
0.0
  9
$USERR2
 40
0.0
  9
$USERR3
 40
0.0
  9
$USERR4
 40
0.0
  9
$USERR5
 40
0.0
  9
$WORLDVIEW
 70
     1
  9
$SHADEDGE
 70
     3
  9
$SHADEDIF
 70
    70
  9
$TILEMODE
 70
     1
  9
$MAXACTVP
 70
    16
  9
$PINSBASE
 10
0.0
 20
0.0
 30
0.0
  9
$PLIMCHECK
 70
     0
  9
$PEXTMIN
 10
1.000000000000000E+20
 20
1.000000000000000E+20
 30
1.000000000000000E+20
  9
$PEXTMAX
 10
-1.000000000000000E+20
 20
-1.000000000000000E+20
 30
-1.000000000000000E+20
  9
$PLIMMIN
 10
0.0
 20
0.0
  9
$PLIMMAX
 10
12.0
 20
9.0
  9
$UNITMODE
 70
     0
  9
$VISRETAIN
 70
     0
  9
$PLINEGEN
 70
     0
  9
$PSLTSCALE
 70
     1
  9
$TREEDEPTH
 70
  3020
  9
$CMLSTYLE
  2
STANDARD
  9
$CMLJUST
 70
     0
  9
$CMLSCALE
 40
1.0
  9
$PROXYGRAPHICS
 70
     1
  9
$MEASUREMENT
 70
     0
  9
$CELWEIGHT
370
    -1
  9
$ENDCAPS
280
     0
  9
$JOINSTYLE
280
     0
  9
$LWDISPLAY
290
     0
  9
$INSUNITS
 70
     0
  9
$HYPERLINKBASE
  1

  9
$STYLESHEET
  1

  9
$XEDIT
290
     1
  9
$CEPSNTYPE
380
     0
  9
$PSTYLEMODE
290
     1
  9
$FINGERPRINTGUID
  2
{EBC2A2BE-6A7B-4CD0-A29B-4AC117BC1E75}
  9
$VERSIONGUID
  2
{B495D273-9958-48D7-B930-5DF9B7CBA39F}
  9
$EXTNAMES
290
     1
  9
$PSVPSCALE
 40
0.0
  9
$OLESTARTUP
290
     0
  0
ENDSEC
  0
SECTION
  2
CLASSES
  0
CLASS
  1
LWPOLYLINE
  2
AcDbPolyline
  3
AutoCAD 2000
 90
        0
280
     0
281
     1
  0
CLASS
  1
XRECORD
  2
AcDbXrecord
  3
AutoCAD 2000
 90
        0
280
     0
281
     0
  0
CLASS
  1
ACDBDICTIONARYWDFLT
  2
AcDbDictionaryWithDefault
  3
ObjectDBX Classes
 90
        0
280
     0
281
     0
  0
CLASS
  1
ACDBPLACEHOLDER
  2
AcDbPlaceHolder
  3
ObjectDBX Classes
 90
        0
280
     0
281
     0
  0
CLASS
  1
LAYOUT
  2
AcDbLayout
  3
ObjectDBX Classes
 90
        0
280
     0
281
     0
  0
CLASS
  1
DICTIONARYVAR
  2
AcDbDictionaryVar
  3
ObjectDBX Classes
 90
        0
280
     0
281
     0
  0
CLASS
  1
DUMMY
  2
AcDbLongTransaction
  3
DUMMY
 90
        0
280
     0
281
     0
  0
CLASS
  1
LWPOLYLINE
  2
AcDbPolyline
  3
AutoCAD 2000
 90
        0
280
     0
281
     1
  0
CLASS
  1
HATCH
  2
AcDbHatch
  3
AutoCAD 2000
 90
        0
280
     0
281
     1
  0
CLASS
  1
XRECORD
  2
AcDbXrecord
  3
AutoCAD 2000
 90
        0
280
     0
281
     0
  0
CLASS
  1
DUMMY
  2
AcDbLongTransaction
  3
DUMMY
 90
        0
280
     0
281
     0
  0
CLASS
  1
LWPOLYLINE
  2
AcDbPolyline
  3
AutoCAD 2000
 90
        0
280
     0
281
     1
  0
CLASS
  1
HATCH
  2
AcDbHatch
  3
AutoCAD 2000
 90
        0
280
     0
281
     1
  0
CLASS
  1
XRECORD
  2
AcDbXrecord
  3
AutoCAD 2000
 90
        0
280
     0
281
     0
  0
CLASS
  1
DUMMY
  2
AcDbLongTransaction
  3
DUMMY
 90
        0
280
     0
281
     0
  0
CLASS
  1
LWPOLYLINE
  2
AcDbPolyline
  3
AutoCAD 2000
 90
        0
280
     0
281
     1
  0
CLASS
  1
HATCH
  2
AcDbHatch
  3
AutoCAD 2000
 90
        0
280
     0
281
     1
  0
CLASS
  1
XRECORD
  2
AcDbXrecord
  3
AutoCAD 2000
 90
        0
280
     0
281
     0
  0
CLASS
  1
DUMMY
  2
AcDbLongTransaction
  3
DUMMY
 90
        0
280
     0
281
     0
  0
CLASS
  1
LWPOLYLINE
  2
AcDbPolyline
  3
AutoCAD 2000
 90
        0
280
     0
281
     1
  0
CLASS
  1
HATCH
  2
AcDbHatch
  3
AutoCAD 2000
 90
        0
280
     0
281
     1
  0
CLASS
  1
XRECORD
  2
AcDbXrecord
  3
AutoCAD 2000
 90
        0
280
     0
281
     0
  0
CLASS
  1
DUMMY
  2
AcDbLongTransaction
  3
DUMMY
 90
        0
280
     0
281
     0
  0
CLASS
  1
LWPOLYLINE
  2
AcDbPolyline
  3
AutoCAD 2000
 90
        0
280
     0
281
     1
  0
CLASS
  1
HATCH
  2
AcDbHatch
  3
AutoCAD 2000
 90
        0
280
     0
281
     1
  0
CLASS
  1
XRECORD
  2
AcDbXrecord
  3
AutoCAD 2000
 90
        0
280
     0
281
     0
  0
CLASS
  1
DUMMY
  2
AcDbLongTransaction
  3
DUMMY
 90
        0
280
     0
281
     0
  0
CLASS
  1
LWPOLYLINE
  2
AcDbPolyline
  3
AutoCAD 2000
 90
        0
280
     0
281
     1
  0
CLASS
  1
HATCH
  2
AcDbHatch
  3
AutoCAD 2000
 90
        0
280
     0
281
     1
  0
CLASS
  1
XRECORD
  2
AcDbXrecord
  3
AutoCAD 2000
 90
        0
280
     0
281
     0
  0
CLASS
  1
DUMMY
  2
AcDbLongTransaction
  3
DUMMY
 90
        0
280
     0
281
     0
  0
CLASS
  1
LWPOLYLINE
  2
AcDbPolyline
  3
AutoCAD 2000
 90
        0
280
     0
281
     1
  0
CLASS
  1
HATCH
  2
AcDbHatch
  3
AutoCAD 2000
 90
        0
280
     0
281
     1
  0
CLASS
  1
XRECORD
  2
AcDbXrecord
  3
AutoCAD 2000
 90
        0
280
     0
281
     0
  0
CLASS
  1
DUMMY
  2
AcDbLongTransaction
  3
DUMMY
 90
        0
280
     0
281
     0
  0
CLASS
  1
LWPOLYLINE
  2
AcDbPolyline
  3
AutoCAD 2000
 90
        0
280
     0
281
     1
  0
CLASS
  1
HATCH
  2
AcDbHatch
  3
AutoCAD 2000
 90
        0
280
     0
281
     1
  0
CLASS
  1
XRECORD
  2
AcDbXrecord
  3
AutoCAD 2000
 90
        0
280
     0
281
     0
  0
CLASS
  1
DUMMY
  2
AcDbLongTransaction
  3
DUMMY
 90
        0
280
     0
281
     0
  0
CLASS
  1
LWPOLYLINE
  2
AcDbPolyline
  3
AutoCAD 2000
 90
        0
280
     0
281
     1
  0
CLASS
  1
HATCH
  2
AcDbHatch
  3
AutoCAD 2000
 90
        0
280
     0
281
     1
  0
CLASS
  1
XRECORD
  2
AcDbXrecord
  3
AutoCAD 2000
 90
        0
280
     0
281
     0
  0
CLASS
  1
MATERIAL
  2
AcDbMaterial
  3
ObjectDBX Classes
 90
     1153
280
     0
281
     0
  0
CLASS
  1
VISUALSTYLE
  2
AcDbVisualStyle
  3
ObjectDBX Classes
 90
     4095
280
     0
281
     0
  0
CLASS
  1
TABLESTYLE
  2
AcDbTableStyle
  3
ObjectDBX Classes
 90
     4095
280
     0
281
     0
  0
CLASS
  1
SCALE
  2
AcDbScale
  3
ObjectDBX Classes
 90
     1153
280
     0
281
     0
  0
CLASS
  1
MLEADERSTYLE
  2
AcDbMLeaderStyle
  3
ACDB_MLEADERSTYLE_CLASS
 90
     4095
280
     0
281
     0
  0
CLASS
  1
ACDBSECTIONVIEWSTYLE
  2
AcDbSectionViewStyle
  3
ObjectDBX Classes
 90
     1025
280
     0
281
     0
  0
CLASS
  1
ACDBDETAILVIEWSTYLE
  2
AcDbDetailViewStyle
  3
ObjectDBX Classes
 90
     1025
280
     0
281
     0
  0
CLASS
  1
SORTENTSTABLE
  2
AcDbSortentsTable
  3
ObjectDBX Classes
 90
        0
280
     0
281
     0
  0
ENDSEC
  0
SECTION
  2
TABLES
  0
TABLE
  2
VPORT
  5
1D
102
{ACAD_XDICTIONARY
360
B25
102
}
330
0
100
AcDbSymbolTable
 70
     1
  0
VPORT
  5
998
330
1D
100
AcDbSymbolTableRecord
100
AcDbViewportTableRecord
  2
*ACTIVE
 70
     0
 10
0.0
 20
0.0
 11
1.0
 21
1.0
 12
1636.805306452649
 22
620.940711372659
 13
0.0
 23
0.0
 14
1.0
 24
1.0
 15
0.0
 25
0.0
 16
0.0
 26
0.0
 36
1.0
 17
0.0
 27
0.0
 37
0.0
 40
1533.317991047914
 41
2.174107142857143
 42
50.0
 43
0.0
 44
0.0
 50
0.0
 51
0.0
 71
     0
 72
 20000
 73
     1
 74
     0
 75
     0
 76
     0
 77
     0
 78
     0
281
     0
 65
     1
110
0.0
120
0.0
130
0.0
111
1.0
121
0.0
131
0.0
112
0.0
122
1.0
132
0.0
 79
     0
146
0.0
1001
ACAD_NAV_VCDISPLAY
1070
     3
  0
ENDTAB
  0
TABLE
  2
LTYPE
  5
18
330
0
100
AcDbSymbolTable
 70
     2
  0
LTYPE
  5
19
330
18
100
AcDbSymbolTableRecord
100
AcDbLinetypeTableRecord
  2
BYBLOCK
 70
     0
  3

 72
    65
 73
     0
 40
0.0
  0
LTYPE
  5
1A
330
18
100
AcDbSymbolTableRecord
100
AcDbLinetypeTableRecord
  2
BYLAYER
 70
     0
  3

 72
    65
 73
     0
 40
0.0
  0
LTYPE
  5
A
330
18
100
AcDbSymbolTableRecord
100
AcDbLinetypeTableRecord
  2
CONTINUOUS
 70
     0
  3
Solid line
 72
    65
 73
     0
 40
0.0
  0
LTYPE
  5
2F
330
18
100
AcDbSymbolTableRecord
100
AcDbLinetypeTableRecord
  2
CENTER
 70
     0
  3
Center ____ _ ____ _ ____ _ ____ _ ____ _ ____
 72
    65
 73
     4
 40
2.0
 49
1.25
 74
     0
 49
-0.25
 74
     0
 49
0.25
 74
     0
 49
-0.25
 74
     0
  0
ENDTAB
  0
TABLE
  2
LAYER
  5
14
102
{ACAD_XDICTIONARY
360
9FA
102
}
330
0
100
AcDbSymbolTable
 70
     7
  0
LAYER
  5
6
102
{ACAD_XDICTIONARY
360
9EB
102
}
330
14
100
AcDbSymbolTableRecord
100
AcDbLayerTableRecord
  2
0
 70
     0
 62
     7
  6
CONTINUOUS
370
    -3
390
7
  0
LAYER
  5
2C
102
{ACAD_XDICTIONARY
360
9ED
102
}
330
14
100
AcDbSymbolTableRecord
100
AcDbLayerTableRecord
  2
1
 70
     0
 62
     9
  6
CONTINUOUS
370
    -3
390
7
  0
LAYER
  5
26
102
{ACAD_XDICTIONARY
360
9EF
102
}
330
14
100
AcDbSymbolTableRecord
100
AcDbLayerTableRecord
  2
2
 70
     0
 62
     4
  6
CONTINUOUS
370
    -3
390
7
  0
LAYER
  5
3E
102
{ACAD_XDICTIONARY
360
9F1
102
}
330
14
100
AcDbSymbolTableRecord
100
AcDbLayerTableRecord
  2
4
 70
     0
 62
     3
  6
CONTINUOUS
370
    -3
390
7
  0
LAYER
  5
2E
102
{ACAD_XDICTIONARY
360
9F3
102
}
330
14
100
AcDbSymbolTableRecord
100
AcDbLayerTableRecord
  2
L-CENTER
 70
     0
 62
     1
  6
CENTER
370
    -3
390
7
  0
LAYER
  5
45
102
{ACAD_XDICTIONARY
360
9F5
102
}
330
14
100
AcDbSymbolTableRecord
100
AcDbLayerTableRecord
  2
3
 70
     0
 62
     2
  6
CONTINUOUS
370
    -3
390
7
  0
LAYER
  5
32B
102
{ACAD_XDICTIONARY
360
32C
102
}
330
14
100
AcDbSymbolTableRecord
100
AcDbLayerTableRecord
  2
5
 70
     0
 62
     6
  6
CONTINUOUS
370
    -3
390
7
  0
ENDTAB
  0
TABLE
  2
STYLE
  5
15
330
0
100
AcDbSymbolTable
 70
     2
  0
STYLE
  5
16
330
15
100
AcDbSymbolTableRecord
100
AcDbTextStyleTableRecord
  2
STANDARD
 70
     0
 40
0.0
 41
1.0
 50
0.0
 71
     0
 42
7.2
  3
txt
  4

  0
STYLE
  5
27
330
15
100
AcDbSymbolTableRecord
100
AcDbTextStyleTableRecord
  2
KANJI
 70
     0
 40
0.0
 41
1.0
 50
0.0
 71
     0
 42
12.0
  3
TXT
  4
BIGFONT
  0
ENDTAB
  0
TABLE
  2
VIEW
  5
1B
330
0
100
AcDbSymbolTable
 70
     0
  0
ENDTAB
  0
TABLE
  2
UCS
  5
1C
330
0
100
AcDbSymbolTable
 70
     0
  0
ENDTAB
  0
TABLE
  2
APPID
  5
1F
330
0
100
AcDbSymbolTable
 70
     4
  0
APPID
  5
20
330
1F
100
AcDbSymbolTableRecord
100
AcDbRegAppTableRecord
  2
ACAD
 70
     0
  0
APPID
  5
A00
330
1F
100
AcDbSymbolTableRecord
100
AcDbRegAppTableRecord
  2
ACAD_NAV_VCDISPLAY
 70
     0
  0
APPID
  5
A0F
330
1F
100
AcDbSymbolTableRecord
100
AcDbRegAppTableRecord
  2
ACAD_MLEADERVER
 70
     0
  0
APPID
  5
B1E
330
1F
100
AcDbSymbolTableRecord
100
AcDbRegAppTableRecord
  2
ACAD_PSEXT
 70
     0
  0
ENDTAB
  0
TABLE
  2
DIMSTYLE
  5
21
330
0
100
AcDbSymbolTable
 70
     1
100
AcDbDimStyleTable
  0
DIMSTYLE
105
29
330
21
100
AcDbSymbolTableRecord
100
AcDbDimStyleTableRecord
  2
STANDARD
 70
     0
178
     0
340
16
  0
ENDTAB
  0
TABLE
  2
BLOCK_RECORD
  5
1
330
0
100
AcDbSymbolTable
 70
     0
  0
BLOCK_RECORD
  5
2
102
{ACAD_XDICTIONARY
360
B18
102
}
330
1
100
AcDbSymbolTableRecord
100
AcDbBlockTableRecord
  2
*MODEL_SPACE
340
C
  0
BLOCK_RECORD
  5
E
330
1
100
AcDbSymbolTableRecord
100
AcDbBlockTableRecord
  2
*PAPER_SPACE
340
13
  0
ENDTAB
  0
ENDSEC
  0
SECTION
  2
BLOCKS
  0
BLOCK
  5
5
330
2
100
AcDbEntity
  8
0
100
AcDbBlockBegin
  2
*MODEL_SPACE
 70
     0
 10
0.0
 20
0.0
 30
0.0
  3
*MODEL_SPACE
  1

  0
ENDBLK
  5
B
330
2
100
AcDbEntity
  8
0
100
AcDbBlockEnd
  0
BLOCK
  5
11
330
E
100
AcDbEntity
 67
     1
  8
0
100
AcDbBlockBegin
  2
*PAPER_SPACE
 70
     0
 10
0.0
 20
0.0
 30
0.0
  3
*PAPER_SPACE
  1

  0
ENDBLK
  5
12
330
E
100
AcDbEntity
 67
     1
  8
0
100
AcDbBlockEnd
  0
ENDSEC
  0
SECTION
  2
ENTITIES
  0
LINE
  5
63
330
2
100
AcDbEntity
  8
4
100
AcDbLine
 10
670.8544281241852
 20
495.322614125751
 30
0.0
 11
654.0545281241853
 21
495.322614125751
 31
0.0
  0
LINE
  5
64
330
2
100
AcDbEntity
  8
L-CENTER
 48
8.0
100
AcDbLine
 10
685.097840124185
 20
467.749130125751
 30
0.0
 11
645.5757323176917
 21
467.749130125751
 31
0.0
  0
LINE
  5
65
330
2
100
AcDbEntity
  8
4
100
AcDbLine
 10
654.0545281241853
 20
355.322614125751
 30
0.0
 11
670.8544281241852
 21
355.322614125751
 31
0.0
  0
LINE
  5
66
330
2
100
AcDbEntity
  8
L-CENTER
 48
8.0
100
AcDbLine
 10
685.097840124185
 20
382.896102125751
 30
0.0
 11
645.5757323176917
 21
382.896102125751
 31
0.0
  0
LINE
  5
67
330
2
100
AcDbEntity
  8
4
100
AcDbLine
 10
683.0545281241853
 20
87.32261412575099
 30
0.0
 11
636.0545281241853
 21
87.32261412575099
 31
0.0
  0
LINE
  5
68
330
2
100
AcDbEntity
  8
4
100
AcDbLine
 10
581.0545281241853
 20
50.32261412575099
 30
0.0
 11
686.0545281241853
 21
50.32261412575099
 31
0.0
  0
LINE
  5
6A
330
2
100
AcDbEntity
  8
L-CENTER
 48
8.0
100
AcDbLine
 10
300.6630667607401
 20
250.322614125751
 30
0.0
 11
671.4459894876304
 21
250.322614125751
 31
0.0
  0
LINE
  5
6C
330
2
100
AcDbEntity
  8
L-CENTER
 48
8.0
100
AcDbLine
 10
677.6757349761406
 20
425.322614125751
 30
0.0
 11
198.5875870532996
 21
425.322614125751
 31
0.0
  0
LINE
  5
C7
330
2
100
AcDbEntity
  8
4
100
AcDbLine
 10
301.2546241241853
 20
495.322614125751
 30
0.0
 11
318.0545281241853
 21
495.322614125751
 31
0.0
  0
LINE
  5
C8
330
2
100
AcDbEntity
  8
4
100
AcDbLine
 10
318.0545281241853
 20
355.322614125751
 30
0.0
 11
301.2546241241853
 21
355.322614125751
 31
0.0
  0
LINE
  5
C9
330
2
100
AcDbEntity
  8
L-CENTER
 48
8.0
100
AcDbLine
 10
287.0112161241855
 20
467.749130125751
 30
0.0
 11
326.5333239306788
 21
467.749130125751
 31
0.0
  0
LINE
  5
CA
330
2
100
AcDbEntity
  8
L-CENTER
 48
8.0
100
AcDbLine
 10
287.0112161241855
 20
382.896102125751
 30
0.0
 11
326.5333239306788
 21
382.896102125751
 31
0.0
  0
LINE
  5
CB
330
2
100
AcDbEntity
  8
4
100
AcDbLine
 10
313.0545281241853
 20
197.322614125751
 30
0.0
 11
311.5545281241853
 21
197.322614125751
 31
0.0
  0
LINE
  5
CC
330
2
100
AcDbEntity
  8
L-CENTER
 48
8.0
100
AcDbLine
 10
330.1427020109063
 20
180.322614125751
 30
0.0
 11
300.8148441241851
 21
180.322614125751
 31
0.0
  0
LINE
  5
CD
330
2
100
AcDbEntity
  8
4
100
AcDbLine
 10
311.5545281241853
 20
163.322614125751
 30
0.0
 11
313.0545281241853
 21
163.322614125751
 31
0.0
  0
LINE
  5
CE
330
2
100
AcDbEntity
  8
4
100
AcDbLine
 10
311.0545281241853
 20
110.322614125751
 30
0.0
 11
316.0545281241853
 21
110.322614125751
 31
0.0
  0
ARC
  5
CF
330
2
100
AcDbEntity
  8
4
100
AcDbCircle
 10
299.0545281241853
 20
99.32261412575099
 30
0.0
 40
12.0
100
AcDbArc
 50
270.0
 51
0.0
  0
ARC
  5
D0
330
2
100
AcDbEntity
  8
4
100
AcDbCircle
 10
304.0545281241853
 20
99.32261412575099
 30
0.0
 40
12.0
100
AcDbArc
 50
270.0
 51
0.0
  0
LINE
  5
D1
330
2
100
AcDbEntity
  8
L-CENTER
 48
8.0
100
AcDbLine
 10
328.8369889078226
 20
95.32261412575099
 30
0.0
 11
305.1947241241851
 21
95.32261412575099
 31
0.0
  0
LINE
  5
D2
330
2
100
AcDbEntity
  8
4
100
AcDbLine
 10
289.0545281241853
 20
87.32261412575099
 30
0.0
 11
336.0545281241853
 21
87.32261412575099
 31
0.0
  0
LINE
  5
D3
330
2
100
AcDbEntity
  8
4
100
AcDbLine
 10
391.0545281241853
 20
50.32261412575099
 30
0.0
 11
286.0545281241853
 21
50.32261412575099
 31
0.0
  0
ARC
  5
D4
330
2
100
AcDbEntity
  8
4
100
AcDbCircle
 10
812.0545281241853
 20
250.322614125751
 30
0.0
 40
500.0000679999999
100
AcDbArc
 50
162.755659
 51
197.244925
  0
LINE
  5
D5
330
2
100
AcDbEntity
  8
4
100
AcDbLine
 10
304.5545281241853
 20
162.322614125751
 30
0.0
 11
304.5545281241853
 21
198.322614125751
 31
0.0
  0
LINE
  5
D6
330
2
100
AcDbEntity
  8
4
100
AcDbLine
 10
311.5545281241853
 20
162.322614125751
 30
0.0
 11
311.5545281241853
 21
198.322614125751
 31
0.0
  0
LINE
  5
D7
330
2
100
AcDbEntity
  8
4
100
AcDbLine
 10
309.5545281241853
 20
162.322614125751
 30
0.0
 11
309.5545281241853
 21
198.322614125751
 31
0.0
  0
LINE
  5
DB
330
2
100
AcDbEntity
  8
4
100
AcDbLine
 10
311.0545281241853
 20
99.32261412575099
 30
0.0
 11
311.0545281241853
 21
110.322614125751
 31
0.0
  0
LINE
  5
DD
330
2
100
AcDbEntity
  8
4
100
AcDbLine
 10
309.0545281241853
 20
92.68936612575101
 30
0.0
 11
309.0545281241853
 21
102.822614125751
 31
0.0
  0
LINE
  5
DE
330
2
100
AcDbEntity
  8
4
100
AcDbLine
 10
311.0545281241853
 20
102.822614125751
 30
0.0
 11
309.0545281241853
 21
102.822614125751
 31
0.0
  0
ARC
  5
DF
330
2
100
AcDbEntity
  8
4
100
AcDbCircle
 10
289.0545281241853
 20
84.32261412575099
 30
0.0
 40
3.0
100
AcDbArc
 50
90.0
 51
180.0
  0
LINE
  5
E0
330
2
100
AcDbEntity
  8
4
100
AcDbLine
 10
286.0545281241853
 20
84.32261412575099
 30
0.0
 11
286.0545281241853
 21
50.32261412575099
 31
0.0
  0
LINE
  5
E1
330
2
100
AcDbEntity
  8
L-CENTER
 48
8.0
100
AcDbLine
 10
311.0545281241853
 20
102.322614125751
 30
0.0
 11
311.0545281241853
 21
35.32261412575099
 31
0.0
  0
LINE
  5
E2
330
2
100
AcDbEntity
  8
4
100
AcDbLine
 10
309.5545281241853
 20
171.322614125751
 30
0.0
 11
304.5545281241853
 21
171.322614125751
 31
0.0
  0
LINE
  5
E3
330
2
100
AcDbEntity
  8
4
100
AcDbLine
 10
311.5545281241853
 20
162.322614125751
 30
0.0
 11
304.5545281241853
 21
162.322614125751
 31
0.0
  0
LINE
  5
E8
330
2
100
AcDbEntity
  8
4
100
AcDbLine
 10
309.5545281241853
 20
189.322614125751
 30
0.0
 11
304.5545281241853
 21
189.322614125751
 31
0.0
  0
LINE
  5
E9
330
2
100
AcDbEntity
  8
4
100
AcDbLine
 10
311.5545281241853
 20
198.322614125751
 30
0.0
 11
304.5545281241853
 21
198.322614125751
 31
0.0
  0
LINE
  5
ED
330
2
100
AcDbEntity
  8
4
100
AcDbLine
 10
298.7546241241853
 20
457.9490781257509
 30
0.0
 11
298.7546241241853
 21
477.549178125751
 31
0.0
  0
LINE
  5
EE
330
2
100
AcDbEntity
  8
4
100
AcDbLine
 10
301.2546241241853
 20
458.549178125751
 30
0.0
 11
301.2546241241853
 21
476.9490781257509
 31
0.0
  0
LINE
  5
EF
330
2
100
AcDbEntity
  8
4
100
AcDbLine
 10
301.2546241241853
 20
495.322614125751
 30
0.0
 11
301.2546241241853
 21
355.322614125751
 31
0.0
  0
LINE
  5
F0
330
2
100
AcDbEntity
  8
4
100
AcDbLine
 10
291.7546241241853
 20
460.395370125751
 30
0.0
 11
291.7546241241853
 21
475.1028901257509
 31
0.0
  0
ARC
  5
F1
330
2
100
AcDbEntity
  8
4
100
AcDbCircle
 10
305.658188124185
 20
467.749130125751
 30
0.0
 40
13.90362
100
AcDbArc
 50
159.3323260000002
 51
200.6686179999998
  0
LINE
  5
F3
330
2
100
AcDbEntity
  8
4
100
AcDbLine
 10
286.0545281241853
 20
443.322614125751
 30
0.0
 11
207.0545281241853
 21
443.322614125751
 31
0.0
  0
LINE
  5
F4
330
2
100
AcDbEntity
  8
4
100
AcDbLine
 10
206.0545281241853
 20
446.822614125751
 30
0.0
 11
281.0545281241853
 21
446.822614125751
 31
0.0
  0
LINE
  5
F5
330
2
100
AcDbEntity
  8
4
100
AcDbLine
 10
286.0545281241853
 20
407.322614125751
 30
0.0
 11
207.0545281241853
 21
407.322614125751
 31
0.0
  0
LINE
  5
FA
330
2
100
AcDbEntity
  8
4
100
AcDbLine
 10
206.0545281241853
 20
442.322614125751
 30
0.0
 11
207.0545281241853
 21
443.322614125751
 31
0.0
  0
LINE
  5
FB
330
2
100
AcDbEntity
  8
4
100
AcDbLine
 10
207.0545281241853
 20
407.322614125751
 30
0.0
 11
206.0545281241853
 21
408.322614125751
 31
0.0
  0
LINE
  5
FC
330
2
100
AcDbEntity
  8
4
100
AcDbLine
 10
207.0545281241853
 20
443.322614125751
 30
0.0
 11
207.0545281241853
 21
407.322614125751
 31
0.0
  0
LINE
  5
FD
330
2
100
AcDbEntity
  8
4
100
AcDbLine
 10
206.0545281241853
 20
446.822614125751
 30
0.0
 11
206.0545281241853
 21
408.322614125751
 31
0.0
  0
LINE
  5
FE
330
2
100
AcDbEntity
  8
4
100
AcDbLine
 10
300.2546281241853
 20
456.322614125751
 30
0.0
 11
300.2546281241853
 21
394.322614125751
 31
0.0
  0
LINE
  5
FF
330
2
100
AcDbEntity
  8
4
100
AcDbLine
 10
301.2546281241853
 20
394.322614125751
 30
0.0
 11
300.2546281241853
 21
394.322614125751
 31
0.0
  0
LINE
  5
100
330
2
100
AcDbEntity
  8
4
100
AcDbLine
 10
301.2546241241853
 20
392.0960541257509
 30
0.0
 11
301.2546241241853
 21
373.696150125751
 31
0.0
  0
LINE
  5
101
330
2
100
AcDbEntity
  8
4
100
AcDbLine
 10
298.7546241241853
 20
392.6961501257509
 30
0.0
 11
298.7546241241853
 21
373.0960541257509
 31
0.0
  0
LINE
  5
102
330
2
100
AcDbEntity
  8
4
100
AcDbLine
 10
301.2546241241853
 20
373.696150125751
 30
0.0
 11
298.7546241241853
 21
373.696150125751
 31
0.0
  0
LINE
  5
103
330
2
100
AcDbEntity
  8
4
100
AcDbLine
 10
298.7546241241853
 20
392.0960541257509
 30
0.0
 11
301.2546241241853
 21
392.0960541257509
 31
0.0
  0
ARC
  5
104
330
2
100
AcDbEntity
  8
4
100
AcDbCircle
 10
295.5456401241854
 20
375.542342125751
 30
0.0
 40
3.79102
100
AcDbArc
 50
139.8117440000003
 51
220.1858760000003
  0
ARC
  5
105
330
2
100
AcDbEntity
  8
4
100
AcDbCircle
 10
295.5456401241854
 20
390.249862125751
 30
0.0
 40
3.790928
100
AcDbArc
 50
139.8117440000011
 51
220.1882559999989
  0
LINE
  5
106
330
2
100
AcDbEntity
  8
4
100
AcDbLine
 10
291.7546241241853
 20
390.249862125751
 30
0.0
 11
291.7546241241853
 21
375.542342125751
 31
0.0
  0
ARC
  5
107
330
2
100
AcDbEntity
  8
4
100
AcDbCircle
 10
305.658188124185
 20
382.896102125751
 30
0.0
 40
13.90362
100
AcDbArc
 50
159.3313820000002
 51
200.6676739999998
  0
LINE
  5
108
330
2
100
AcDbEntity
  8
4
100
AcDbLine
 10
298.7546241241853
 20
387.803570125751
 30
0.0
 11
292.6496441241852
 21
387.803570125751
 31
0.0
  0
LINE
  5
109
330
2
100
AcDbEntity
  8
4
100
AcDbLine
 10
292.6496441241852
 20
392.6961501257509
 30
0.0
 11
298.7546241241853
 21
392.6961501257509
 31
0.0
  0
LINE
  5
10A
330
2
100
AcDbEntity
  8
4
100
AcDbLine
 10
298.7546241241853
 20
377.988630125751
 30
0.0
 11
292.6496441241852
 21
377.988630125751
 31
0.0
  0
LINE
  5
10B
330
2
100
AcDbEntity
  8
4
100
AcDbLine
 10
292.6496441241852
 20
373.0960541257509
 30
0.0
 11
298.7546241241853
 21
373.0960541257509
 31
0.0
  0
LINE
  5
10C
330
2
100
AcDbEntity
  8
4
100
AcDbLine
 10
281.0545281241853
 20
446.822614125751
 30
0.0
 11
281.0545281241853
 21
443.322614125751
 31
0.0
  0
LINE
  5
10D
330
2
100
AcDbEntity
  8
4
100
AcDbLine
 10
301.2546281241853
 20
456.322614125751
 30
0.0
 11
300.2546281241853
 21
456.322614125751
 31
0.0
  0
LINE
  5
10E
330
2
100
AcDbEntity
  8
4
100
AcDbLine
 10
286.0545281241853
 20
445.322614125751
 30
0.0
 11
300.2546281241853
 21
445.322614125751
 31
0.0
  0
LINE
  5
10F
330
2
100
AcDbEntity
  8
4
100
AcDbLine
 10
300.2546281241853
 20
405.322614125751
 30
0.0
 11
286.0545281241853
 21
405.322614125751
 31
0.0
  0
LINE
  5
110
330
2
100
AcDbEntity
  8
4
100
AcDbLine
 10
286.0545281241853
 20
445.322614125751
 30
0.0
 11
286.0545281241853
 21
405.322614125751
 31
0.0
  0
LINE
  5
111
330
2
100
AcDbEntity
  8
4
100
AcDbLine
 10
298.7546241241853
 20
458.549178125751
 30
0.0
 11
301.2546241241853
 21
458.549178125751
 31
0.0
  0
ARC
  5
112
330
2
100
AcDbEntity
  8
4
100
AcDbCircle
 10
295.5456401241854
 20
460.395370125751
 30
0.0
 40
3.79102
100
AcDbArc
 50
139.8141239999997
 51
220.1882559999997
  0
LINE
  5
113
330
2
100
AcDbEntity
  8
4
100
AcDbLine
 10
292.6496441241852
 20
457.9490781257509
 30
0.0
 11
298.7546241241853
 21
457.9490781257509
 31
0.0
  0
LINE
  5
114
330
2
100
AcDbEntity
  8
4
100
AcDbLine
 10
298.7546241241853
 20
462.8416581257511
 30
0.0
 11
292.6496441241852
 21
462.8416581257511
 31
0.0
  0
LINE
  5
11B
330
2
100
AcDbEntity
  8
4
100
AcDbLine
 10
301.2546241241853
 20
476.9490781257509
 30
0.0
 11
298.7546241241853
 21
476.9490781257509
 31
0.0
  0
ARC
  5
11C
330
2
100
AcDbEntity
  8
4
100
AcDbCircle
 10
295.5456401241854
 20
475.1028901257509
 30
0.0
 40
3.79102
100
AcDbArc
 50
139.8141239999997
 51
220.1882670000003
  0
LINE
  5
11D
330
2
100
AcDbEntity
  8
4
100
AcDbLine
 10
292.6496441241852
 20
477.549178125751
 30
0.0
 11
298.7546241241853
 21
477.549178125751
 31
0.0
  0
LINE
  5
11E
330
2
100
AcDbEntity
  8
4
100
AcDbLine
 10
298.7546241241853
 20
472.6565981257509
 30
0.0
 11
292.6496441241852
 21
472.6565981257509
 31
0.0
  0
LINE
  5
11F
330
2
100
AcDbEntity
  8
4
100
AcDbLine
 10
452.5965201241852
 20
392.411482125751
 30
0.0
 11
443.6333841241853
 21
309.572126125751
 31
0.0
  0
LINE
  5
120
330
2
100
AcDbEntity
  8
4
100
AcDbLine
 10
519.5125361241853
 20
392.411482125751
 30
0.0
 11
528.4756721241852
 21
309.572126125751
 31
0.0
  0
ARC
  5
121
330
2
100
AcDbEntity
  8
4
100
AcDbCircle
 10
486.0545281241853
 20
250.322614125751
 30
0.0
 40
150.0
100
AcDbArc
 50
99.7249686749924
 51
80.27503132500743
  0
CIRCLE
  5
122
330
2
100
AcDbEntity
  8
4
100
AcDbCircle
 10
486.0545281241853
 20
250.322614125751
 30
0.0
 40
172.0
  0
ARC
  5
123
330
2
100
AcDbEntity
  8
4
100
AcDbCircle
 10
160.0545281241853
 20
250.322614125751
 30
0.0
 40
500.00002
100
AcDbArc
 50
342.755952
 51
17.244898
  0
LINE
  5
124
330
2
100
AcDbEntity
  8
L-CENTER
 48
8.0
100
AcDbLine
 10
486.0545281241853
 20
574.093122125751
 30
0.0
 11
486.0545281241853
 21
64.93115276230583
 31
0.0
  0
ARC
  5
125
330
2
100
AcDbEntity
  8
4
100
AcDbCircle
 10
486.0545281241853
 20
7.322614125750988
 30
0.0
 40
299.999952
100
AcDbArc
 50
80.90485100000004
 51
99.095489
  0
ARC
  5
126
330
2
100
AcDbEntity
  8
4
100
AcDbCircle
 10
486.0545281241853
 20
3.322614125750988
 30
0.0
 40
300.00004
100
AcDbArc
 50
81.590664
 51
98.409623
  0
ARC
  5
127
330
2
100
AcDbEntity
  8
4
100
AcDbCircle
 10
486.0545281241853
 20
497.322614125751
 30
0.0
 40
299.999944
100
AcDbArc
 50
261.590937
 51
278.409996
  0
ARC
  5
128
330
2
100
AcDbEntity
  8
4
100
AcDbCircle
 10
486.0545281241853
 20
493.322614125751
 30
0.0
 40
300.000044
100
AcDbArc
 50
260.905178
 51
279.09567
  0
LINE
  5
129
330
2
100
AcDbEntity
  8
4
100
AcDbLine
 10
417.5264521241852
 20
74.32261412575099
 30
0.0
 11
554.5826041241853
 21
74.32261412575099
 31
0.0
  0
ARC
  5
12A
330
2
100
AcDbEntity
  8
4
100
AcDbCircle
 10
486.0547721241851
 20
576.322614125751
 30
0.0
 40
499.99998
100
AcDbArc
 50
254.335962
 51
285.664911
  0
LINE
  5
12B
330
2
100
AcDbEntity
  8
4
100
AcDbLine
 10
452.5965201241852
 20
108.2337461257509
 30
0.0
 11
443.6333841241853
 21
191.073102125751
 31
0.0
  0
LINE
  5
12C
330
2
100
AcDbEntity
  8
4
100
AcDbLine
 10
313.0545281241853
 20
163.322614125751
 30
0.0
 11
313.0545281241853
 21
197.322614125751
 31
0.0
  0
LINE
  5
12D
330
2
100
AcDbEntity
  8
4
100
AcDbLine
 10
313.0545281241853
 20
160.322614125751
 30
0.0
 11
313.0545281241853
 21
200.322614125751
 31
0.0
  0
LINE
  5
12E
330
2
100
AcDbEntity
  8
4
100
AcDbLine
 10
316.0545281241853
 20
187.203718125751
 30
0.0
 11
316.0545281241853
 21
99.32261412575099
 31
0.0
  0
LINE
  5
12F
330
2
100
AcDbEntity
  8
4
100
AcDbLine
 10
414.7073601241855
 20
73.72984212575102
 30
0.0
 11
395.2354361241851
 21
65.162214125751
 31
0.0
  0
LINE
  5
130
330
2
100
AcDbEntity
  8
4
100
AcDbLine
 10
341.0545281241853
 20
92.32261412575099
 30
0.0
 11
341.0545281241853
 21
128.322614125751
 31
0.0
  0
LINE
  5
131
330
2
100
AcDbEntity
  8
4
100
AcDbLine
 10
351.0545281241853
 20
128.322614125751
 30
0.0
 11
351.0545281241853
 21
50.32261412575099
 31
0.0
  0
ARC
  5
132
330
2
100
AcDbEntity
  8
4
100
AcDbCircle
 10
336.0545281241853
 20
92.32261412575099
 30
0.0
 40
5.0
100
AcDbArc
 50
270.0
 51
0.0
  0
ARC
  5
133
330
2
100
AcDbEntity
  8
4
100
AcDbCircle
 10
486.0547721241851
 20
576.322614125751
 30
0.0
 40
500.000064
100
AcDbArc
 50
252.755191
 51
253.14234
  0
ARC
  5
134
330
2
100
AcDbEntity
  8
4
100
AcDbCircle
 10
339.3069681241855
 20
103.575298125751
 30
0.0
 40
5.00004
100
AcDbArc
 50
197.2467140000002
 51
252.7567990000003
  0
LINE
  5
135
330
2
100
AcDbEntity
  8
4
100
AcDbLine
 10
391.0545281241853
 20
58.75498612575097
 30
0.0
 11
391.0545281241853
 21
50.32261412575099
 31
0.0
  0
ARC
  5
136
330
2
100
AcDbEntity
  8
4
100
AcDbCircle
 10
398.0545281241853
 20
58.75498612575097
 30
0.0
 40
6.999996
100
AcDbArc
 50
113.7488360000001
 51
180.0
  0
LINE
  5
137
330
2
100
AcDbEntity
  8
4
100
AcDbLine
 10
316.0545281241853
 20
160.322614125751
 30
0.0
 11
313.0545281241853
 21
160.322614125751
 31
0.0
  0
LINE
  5
138
330
2
100
AcDbEntity
  8
4
100
AcDbLine
 10
341.0545281241853
 20
128.322614125751
 30
0.0
 11
351.0545281241853
 21
128.322614125751
 31
0.0
  0
ARC
  5
139
330
2
100
AcDbEntity
  8
4
100
AcDbCircle
 10
417.5264521241852
 20
67.32261412575099
 30
0.0
 40
6.999996
100
AcDbArc
 50
90.0
 51
113.7488360000001
  0
ARC
  5
13A
330
2
100
AcDbEntity
  8
4
100
AcDbCircle
 10
449.6138521241851
 20
107.910994125751
 30
0.0
 40
3.0001
100
AcDbArc
 50
255.6482580000001
 51
6.175939999999565
  0
LINE
  5
13B
330
2
100
AcDbEntity
  8
4
100
AcDbLine
 10
343.9656601241854
 20
216.864362125751
 30
0.0
 11
426.8052601241852
 21
207.901226125751
 31
0.0
  0
LINE
  5
13C
330
2
100
AcDbEntity
  8
4
100
AcDbLine
 10
343.9656601241854
 20
283.780866125751
 30
0.0
 11
426.8052601241852
 21
292.744002125751
 31
0.0
  0
ARC
  5
13D
330
2
100
AcDbEntity
  8
4
100
AcDbCircle
 10
343.6429081241854
 20
213.881698125751
 30
0.0
 40
2.99998
100
AcDbArc
 50
83.82405999999983
 51
194.3528979999996
  0
LINE
  5
13E
330
2
100
AcDbEntity
  8
4
100
AcDbLine
 10
314.5608761241851
 20
200.322614125751
 30
0.0
 11
313.0545281241853
 21
200.322614125751
 31
0.0
  0
ARC
  5
13F
330
2
100
AcDbEntity
  8
4
100
AcDbCircle
 10
343.6429081241854
 20
286.763534125751
 30
0.0
 40
2.99998
100
AcDbArc
 50
165.6471020000004
 51
276.1759400000001
  0
ARC
  5
140
330
2
100
AcDbEntity
  8
4
100
AcDbCircle
 10
733.0547721241851
 20
250.322370125751
 30
0.0
 40
300.000004
100
AcDbArc
 50
171.590893
 51
188.409621
  0
ARC
  5
141
330
2
100
AcDbEntity
  8
4
100
AcDbCircle
 10
729.0547721241851
 20
250.322370125751
 30
0.0
 40
300.000012
100
AcDbArc
 50
170.90508
 51
189.0954339999999
  0
ARC
  5
142
330
2
100
AcDbEntity
  8
4
100
AcDbCircle
 10
436.6739121241853
 20
190.3199301257509
 30
0.0
 40
7.000096000000001
100
AcDbArc
 50
6.176666000000007
 51
80.74366200000009
  0
ARC
  5
143
330
2
100
AcDbEntity
  8
4
100
AcDbCircle
 10
426.052088124185
 20
200.941754125751
 30
0.0
 40
7.000096000000001
100
AcDbArc
 50
9.256338000000442
 51
83.82333400000005
  0
ARC
  5
144
330
2
100
AcDbEntity
  8
4
100
AcDbCircle
 10
439.7386081241852
 20
204.006454125751
 30
0.0
 40
7.000103999999999
100
AcDbArc
 50
189.0943789999999
 51
260.9056210000001
  0
ARC
  5
145
330
2
100
AcDbEntity
  8
4
100
AcDbCircle
 10
443.2049201241853
 20
207.4727621257509
 30
0.0
 40
7.00006
100
AcDbArc
 50
188.409035
 51
261.5909650000001
  0
ARC
  5
146
330
2
100
AcDbEntity
  8
4
100
AcDbCircle
 10
436.6739121241853
 20
310.325298125751
 30
0.0
 40
7.000096000000001
100
AcDbArc
 50
279.2563379999999
 51
353.823334
  0
ARC
  5
147
330
2
100
AcDbEntity
  8
4
100
AcDbCircle
 10
426.0523321241853
 20
299.703474125751
 30
0.0
 40
7.000083999999999
100
AcDbArc
 50
276.1746799999997
 51
350.7436619999996
  0
ARC
  5
148
330
2
100
AcDbEntity
  8
4
100
AcDbCircle
 10
439.7386081241852
 20
296.6387781257509
 30
0.0
 40
7.000103999999999
100
AcDbArc
 50
99.0943780000002
 51
170.9056129999999
  0
ARC
  5
149
330
2
100
AcDbEntity
  8
4
100
AcDbCircle
 10
443.2049201241853
 20
293.172470125751
 30
0.0
 40
7.00006
100
AcDbArc
 50
98.40903600000007
 51
171.5909740000003
  0
LINE
  5
14A
330
2
100
AcDbEntity
  8
4
100
AcDbLine
 10
656.0545281241853
 20
187.203718125751
 30
0.0
 11
656.0545281241853
 21
99.32261412575099
 31
0.0
  0
LINE
  5
14B
330
2
100
AcDbEntity
  8
4
100
AcDbLine
 10
519.5125361241853
 20
108.2337461257509
 30
0.0
 11
528.4756721241852
 21
191.073102125751
 31
0.0
  0
ARC
  5
14C
330
2
100
AcDbEntity
  8
4
100
AcDbCircle
 10
574.0545281241853
 20
58.75498612575097
 30
0.0
 40
6.999996
100
AcDbArc
 50
0.0
 51
66.2511640000003
  0
ARC
  5
14D
330
2
100
AcDbEntity
  8
4
100
AcDbCircle
 10
554.5826041241853
 20
67.32261412575099
 30
0.0
 40
6.999996
100
AcDbArc
 50
66.2511640000003
 51
90.0
  0
LINE
  5
14E
330
2
100
AcDbEntity
  8
4
100
AcDbLine
 10
557.4016961241855
 20
73.72984212575102
 30
0.0
 11
576.873620124185
 21
65.162214125751
 31
0.0
  0
ARC
  5
14F
330
2
100
AcDbEntity
  8
4
100
AcDbCircle
 10
522.4952001241854
 20
107.910994125751
 30
0.0
 40
2.99998
100
AcDbArc
 50
173.8240599999998
 51
284.3528979999996
  0
LINE
  5
150
330
2
100
AcDbEntity
  8
4
100
AcDbLine
 10
631.0545281241853
 20
92.32261412575099
 30
0.0
 11
631.0545281241853
 21
128.322614125751
 31
0.0
  0
LINE
  5
151
330
2
100
AcDbEntity
  8
4
100
AcDbLine
 10
621.0545281241853
 20
128.322614125751
 30
0.0
 11
621.0545281241853
 21
50.32261412575099
 31
0.0
  0
LINE
  5
152
330
2
100
AcDbEntity
  8
4
100
AcDbLine
 10
581.0545281241853
 20
58.75498612575097
 30
0.0
 11
581.0545281241853
 21
50.32261412575099
 31
0.0
  0
ARC
  5
153
330
2
100
AcDbEntity
  8
4
100
AcDbCircle
 10
668.0545281241853
 20
99.32261412575099
 30
0.0
 40
12.0
100
AcDbArc
 50
180.0
 51
270.0011650000001
  0
ARC
  5
154
330
2
100
AcDbEntity
  8
4
100
AcDbCircle
 10
636.0545281241853
 20
92.32261412575099
 30
0.0
 40
5.0
100
AcDbArc
 50
180.0
 51
270.0
  0
ARC
  5
155
330
2
100
AcDbEntity
  8
4
100
AcDbCircle
 10
486.0542841241854
 20
576.322614125751
 30
0.0
 40
500.00002
100
AcDbArc
 50
286.858598
 51
287.245747
  0
ARC
  5
156
330
2
100
AcDbEntity
  8
4
100
AcDbCircle
 10
632.802088124185
 20
103.575298125751
 30
0.0
 40
4.999924
100
AcDbArc
 50
287.2440290000008
 51
342.7532860000005
  0
LINE
  5
158
330
2
100
AcDbEntity
  8
4
100
AcDbLine
 10
651.0545281241853
 20
50.32261412575099
 30
0.0
 11
651.0545281241853
 21
87.32261412575099
 31
0.0
  0
LWPOLYLINE
  5
159
330
2
100
AcDbEntity
  8
4
100
AcDbPolyline
 90
       32
 70
     0
 43
0.0
 10
641.2460081241852
 20
87.32269012575102
 10
640.5366681241853
 20
86.38750612575097
 10
639.9277961241855
 20
85.44643412575101
 10
639.4487681241853
 20
84.49775412575104
 10
639.1289561241852
 20
83.53974212575099
 10
638.997728124185
 20
82.570674125751
 10
639.0844641241852
 20
81.58883412575096
 10
639.3534761241854
 20
80.70264612575102
 10
639.745028124185
 20
79.80894612575094
 10
640.1852801241853
 20
78.91173412575097
 10
640.6003881241854
 20
78.01500612575092
 10
640.9165121241854
 20
77.12276612575101
 10
641.0598081241851
 20
76.23900212575097
 10
641.0111441241852
 20
75.53917012575107
 10
640.832000124185
 20
74.845306125751
 10
640.5502001241853
 20
74.15536612575102
 10
639.3670281241853
 20
72.08867012575092
 10
638.9527801241852
 20
71.39400212575106
 10
638.5749681241855
 20
70.69305012575091
 10
638.261408124185
 20
69.983770125751
 10
637.9284201241853
 20
68.77425812575098
 10
637.8154521241854
 20
67.54016212575095
 10
637.8843841241855
 20
66.28597412575095
 10
638.8014321241853
 20
62.447790125751
 10
639.9834481241855
 20
58.59054212575097
 10
640.2584601241851
 20
57.32152212575102
 10
640.4104561241852
 20
56.06835812575105
 10
640.4013161241851
 20
54.83553812575099
 10
640.217644124185
 20
53.68099012575101
 10
639.8811921241854
 20
52.54549012575103
 10
639.4205921241851
 20
51.42546612575097
 10
638.8644961241853
 20
50.31735012575098
  0
LINE
  5
15A
330
2
100
AcDbEntity
  8
L-CENTER
 48
8.0
100
AcDbLine
 10
661.0545281241853
 20
102.322614125751
 30
0.0
 11
661.0545281241853
 21
35.32261412575099
 31
0.0
  0
LINE
  5
15B
330
2
100
AcDbEntity
  8
4
100
AcDbLine
 10
631.0545281241853
 20
128.322614125751
 30
0.0
 11
621.0545281241853
 21
128.322614125751
 31
0.0
  0
LINE
  5
15C
330
2
100
AcDbEntity
  8
4
100
AcDbLine
 10
628.1433961241851
 20
216.864362125751
 30
0.0
 11
545.3037961241853
 21
207.901226125751
 31
0.0
  0
LINE
  5
15D
330
2
100
AcDbEntity
  8
4
100
AcDbLine
 10
628.1433961241851
 20
283.780866125751
 30
0.0
 11
545.3037961241853
 21
292.744002125751
 31
0.0
  0
ARC
  5
15E
330
2
100
AcDbEntity
  8
4
100
AcDbCircle
 10
243.0542841241854
 20
250.322370125751
 30
0.0
 40
299.999984
100
AcDbArc
 50
350.905601
 51
9.095295999999994
  0
ARC
  5
15F
330
2
100
AcDbEntity
  8
4
100
AcDbCircle
 10
239.0542841241852
 20
250.322370125751
 30
0.0
 40
300.000028
100
AcDbArc
 50
351.591322
 51
8.409483000000021
  0
ARC
  5
160
330
2
100
AcDbEntity
  8
4
100
AcDbCircle
 10
528.9041361241852
 20
207.4727621257509
 30
0.0
 40
7.00006
100
AcDbArc
 50
278.4090349999999
 51
351.5909650000002
  0
ARC
  5
161
330
2
100
AcDbEntity
  8
4
100
AcDbCircle
 10
532.3704441241853
 20
204.006454125751
 30
0.0
 40
7.000103999999999
100
AcDbArc
 50
279.0943789999999
 51
350.9056210000001
  0
ARC
  5
162
330
2
100
AcDbEntity
  8
4
100
AcDbCircle
 10
535.4351441241852
 20
190.3199301257509
 30
0.0
 40
7.000096000000001
100
AcDbArc
 50
99.2563380000004
 51
173.823334
  0
ARC
  5
163
330
2
100
AcDbEntity
  8
4
100
AcDbCircle
 10
546.0569681241855
 20
200.941754125751
 30
0.0
 40
7.000096000000001
100
AcDbArc
 50
96.17666599999995
 51
170.7436619999996
  0
ARC
  5
164
330
2
100
AcDbEntity
  8
4
100
AcDbCircle
 10
528.9041361241852
 20
293.172470125751
 30
0.0
 40
7.00006
100
AcDbArc
 50
8.409027000000155
 51
81.59096399999947
  0
ARC
  5
165
330
2
100
AcDbEntity
  8
4
100
AcDbCircle
 10
532.3704441241853
 20
296.6387781257509
 30
0.0
 40
7.000103999999999
100
AcDbArc
 50
9.094387000000209
 51
80.9056219999998
  0
ARC
  5
166
330
2
100
AcDbEntity
  8
4
100
AcDbCircle
 10
535.4351441241852
 20
310.325298125751
 30
0.0
 40
7.000096000000001
100
AcDbArc
 50
186.176666
 51
260.7436619999996
  0
ARC
  5
167
330
2
100
AcDbEntity
  8
4
100
AcDbCircle
 10
546.0567241241852
 20
299.703474125751
 30
0.0
 40
7.000083999999999
100
AcDbArc
 50
189.2563380000004
 51
263.8253199999997
  0
ARC
  5
168
330
2
100
AcDbEntity
  8
4
100
AcDbCircle
 10
628.4661481241851
 20
213.881698125751
 30
0.0
 40
3.0001
100
AcDbArc
 50
345.6482580000001
 51
96.17594000000075
  0
ARC
  5
169
330
2
100
AcDbEntity
  8
4
100
AcDbCircle
 10
628.4661481241851
 20
286.763534125751
 30
0.0
 40
2.99998
100
AcDbArc
 50
263.8240599999998
 51
14.35289799999935
  0
ARC
  5
16B
330
2
100
AcDbEntity
  8
4
100
AcDbCircle
 10
486.0545281241848
 20
385.3226141257512
 30
0.0
 40
23.0
100
AcDbArc
 50
180.0
 51
0.0
  0
LINE
  5
16C
330
2
100
AcDbEntity
  8
4
100
AcDbLine
 10
466.0545281241853
 20
515.322614125751
 30
0.0
 11
506.0545281241853
 21
515.322614125751
 31
0.0
  0
LINE
  5
16D
330
2
100
AcDbEntity
  8
4
100
AcDbLine
 10
498.5545281241853
 20
524.322614125751
 30
0.0
 11
473.5545281241853
 21
524.322614125751
 31
0.0
  0
LINE
  5
16E
330
2
100
AcDbEntity
  8
4
100
AcDbLine
 10
486.0545281241853
 20
526.322614125751
 30
0.0
 11
498.5545281241853
 21
524.322614125751
 31
0.0
  0
CIRCLE
  5
16F
330
2
100
AcDbEntity
  8
4
100
AcDbCircle
 10
486.0545281241853
 20
541.322614125751
 30
0.0
 40
15.0
  0
LINE
  5
170
330
2
100
AcDbEntity
  8
L-CENTER
 48
8.0
100
AcDbLine
 10
518.8250361241853
 20
541.322614125751
 30
0.0
 11
453.2840201241852
 21
541.322614125751
 31
0.0
  0
ARC
  5
171
330
2
100
AcDbEntity
  8
4
100
AcDbCircle
 10
486.0545281241853
 20
541.322614125751
 30
0.0
 40
24.999952
100
AcDbArc
 50
301.7709889999999
 51
240.0
  0
LINE
  5
172
330
2
100
AcDbEntity
  8
4
100
AcDbLine
 10
318.0545281241853
 20
499.322614125751
 30
0.0
 11
654.0545281241853
 21
499.322614125751
 31
0.0
  0
ARC
  5
173
330
2
100
AcDbEntity
  8
4
100
AcDbCircle
 10
486.0542841241854
 20
-75.67738587424901
 30
0.0
 40
500.000032
100
AcDbArc
 50
72.75489999999999
 51
107.245404
  0
LINE
  5
174
330
2
100
AcDbEntity
  8
4
100
AcDbLine
 10
313.0545281241853
 20
355.322614125751
 30
0.0
 11
313.0545281241853
 21
495.322614125751
 31
0.0
  0
LINE
  5
175
330
2
100
AcDbEntity
  8
4
100
AcDbLine
 10
318.0545281241853
 20
440.322614125751
 30
0.0
 11
318.0545281241853
 21
499.322614125751
 31
0.0
  0
LINE
  5
176
330
2
100
AcDbEntity
  8
4
100
AcDbLine
 10
318.0545281241853
 20
327.5496661257509
 30
0.0
 11
318.0545281241853
 21
410.322614125751
 31
0.0
  0
ARC
  5
177
330
2
100
AcDbEntity
  8
4
100
AcDbCircle
 10
339.3069681241855
 20
397.0699301257509
 30
0.0
 40
4.999924
100
AcDbArc
 50
107.2440329999999
 51
162.7532969999999
  0
ARC
  5
178
330
2
100
AcDbEntity
  8
4
100
AcDbCircle
 10
313.0545281241853
 20
440.322614125751
 30
0.0
 40
5.0
100
AcDbArc
 50
270.0
 51
0.0
  0
ARC
  5
179
330
2
100
AcDbEntity
  8
4
100
AcDbCircle
 10
313.0545281241853
 20
410.322614125751
 30
0.0
 40
5.0
100
AcDbArc
 50
0.0
 51
90.0
  0
ARC
  5
17A
330
2
100
AcDbEntity
  8
4
100
AcDbCircle
 10
461.0545281241857
 20
396.1958467628597
 30
0.0
 40
2.0
100
AcDbArc
 50
0.0
 51
99.72496867499517
  0
LINE
  5
17B
330
2
100
AcDbEntity
  8
4
100
AcDbLine
 10
463.0545281241857
 20
385.3226141257512
 30
0.0
 11
463.0545281241857
 21
396.1958467628598
 31
0.0
  0
ARC
  5
17C
330
2
100
AcDbEntity
  8
4
100
AcDbCircle
 10
449.6138521241851
 20
392.734234125751
 30
0.0
 40
3.0001
100
AcDbArc
 50
353.8240599999993
 51
104.3517419999999
  0
LINE
  5
17D
330
2
100
AcDbEntity
  8
4
100
AcDbLine
 10
363.0545281241853
 20
502.322614125751
 30
0.0
 11
413.0545281241853
 21
502.322614125751
 31
0.0
  0
LINE
  5
17E
330
2
100
AcDbEntity
  8
4
100
AcDbLine
 10
365.0545281241853
 20
512.822614125751
 30
0.0
 11
411.0545281241853
 21
512.822614125751
 31
0.0
  0
LINE
  5
17F
330
2
100
AcDbEntity
  8
4
100
AcDbLine
 10
365.0545281241853
 20
507.822614125751
 30
0.0
 11
411.0545281241853
 21
507.822614125751
 31
0.0
  0
LINE
  5
180
330
2
100
AcDbEntity
  8
4
100
AcDbLine
 10
365.0545281241853
 20
503.822614125751
 30
0.0
 11
411.0545281241853
 21
503.822614125751
 31
0.0
  0
LINE
  5
181
330
2
100
AcDbEntity
  8
4
100
AcDbLine
 10
366.0545281241853
 20
502.322614125751
 30
0.0
 11
410.0545281241853
 21
502.322614125751
 31
0.0
  0
ARC
  5
183
330
2
100
AcDbEntity
  8
4
100
AcDbCircle
 10
340.0545281241853
 20
504.322614125751
 30
0.0
 40
4.0
100
AcDbArc
 50
90.0
 51
180.0
  0
LINE
  5
184
330
2
100
AcDbEntity
  8
4
100
AcDbLine
 10
336.0545281241853
 20
499.322614125751
 30
0.0
 11
336.0545281241853
 21
504.322614125751
 31
0.0
  0
LINE
  5
185
330
2
100
AcDbEntity
  8
4
100
AcDbLine
 10
340.0545281241853
 20
508.322614125751
 30
0.0
 11
340.0545281241853
 21
518.322614125751
 31
0.0
  0
LINE
  5
186
330
2
100
AcDbEntity
  8
4
100
AcDbLine
 10
339.0545281241853
 20
521.322614125751
 30
0.0
 11
341.0545281241853
 21
520.322614125751
 31
0.0
  0
LINE
  5
187
330
2
100
AcDbEntity
  8
4
100
AcDbLine
 10
341.0545281241853
 20
520.322614125751
 30
0.0
 11
341.0545281241853
 21
518.322614125751
 31
0.0
  0
ARC
  5
188
330
2
100
AcDbEntity
  8
4
100
AcDbCircle
 10
320.0545281241853
 20
504.322614125751
 30
0.0
 40
4.0
100
AcDbArc
 50
0.0
 51
90.0
  0
ARC
  5
189
330
2
100
AcDbEntity
  8
4
100
AcDbCircle
 10
327.0545281241853
 20
499.322614125751
 30
0.0
 40
5.0
100
AcDbArc
 50
53.13010200000015
 51
126.8698979999998
  0
LINE
  5
18A
330
2
100
AcDbEntity
  8
4
100
AcDbLine
 10
324.0545281241853
 20
499.322614125751
 30
0.0
 11
324.0545281241853
 21
504.322614125751
 31
0.0
  0
LINE
  5
18B
330
2
100
AcDbEntity
  8
4
100
AcDbLine
 10
324.0545281241853
 20
499.322614125751
 30
0.0
 11
330.0545281241853
 21
499.322614125751
 31
0.0
  0
LINE
  5
18C
330
2
100
AcDbEntity
  8
4
100
AcDbLine
 10
320.0545281241853
 20
508.322614125751
 30
0.0
 11
320.0545281241853
 21
518.322614125751
 31
0.0
  0
LINE
  5
18D
330
2
100
AcDbEntity
  8
4
100
AcDbLine
 10
320.0545281241853
 20
508.322614125751
 30
0.0
 11
330.0545281241853
 21
508.322614125751
 31
0.0
  0
LINE
  5
18E
330
2
100
AcDbEntity
  8
4
100
AcDbLine
 10
321.0545281241853
 20
521.322614125751
 30
0.0
 11
319.0545281241853
 21
520.322614125751
 31
0.0
  0
LINE
  5
18F
330
2
100
AcDbEntity
  8
4
100
AcDbLine
 10
319.0545281241853
 20
520.322614125751
 30
0.0
 11
319.0545281241853
 21
518.322614125751
 31
0.0
  0
LINE
  5
190
330
2
100
AcDbEntity
  8
4
100
AcDbLine
 10
319.0545281241853
 20
520.322614125751
 30
0.0
 11
330.0545281241853
 21
520.322614125751
 31
0.0
  0
LINE
  5
191
330
2
100
AcDbEntity
  8
4
100
AcDbLine
 10
321.0545281241853
 20
521.322614125751
 30
0.0
 11
330.0545281241853
 21
521.322614125751
 31
0.0
  0
LINE
  5
192
330
2
100
AcDbEntity
  8
4
100
AcDbLine
 10
330.0545281241853
 20
518.322614125751
 30
0.0
 11
319.0545281241853
 21
518.322614125751
 31
0.0
  0
LINE
  5
193
330
2
100
AcDbEntity
  8
L-CENTER
 48
8.0
100
AcDbLine
 10
330.0545281241853
 20
526.3869093718104
 30
0.0
 11
330.0545281241853
 21
489.3792773718103
 31
0.0
  0
LINE
  5
194
330
2
100
AcDbEntity
  8
4
100
AcDbLine
 10
336.0545281241853
 20
499.322614125751
 30
0.0
 11
330.0545281241853
 21
499.322614125751
 31
0.0
  0
ARC
  5
195
330
2
100
AcDbEntity
  8
4
100
AcDbCircle
 10
333.0545281241853
 20
499.322614125751
 30
0.0
 40
5.0
100
AcDbArc
 50
53.13010200000015
 51
126.8698979999998
  0
LINE
  5
196
330
2
100
AcDbEntity
  8
4
100
AcDbLine
 10
340.0545281241853
 20
508.322614125751
 30
0.0
 11
330.0545281241853
 21
508.322614125751
 31
0.0
  0
LINE
  5
197
330
2
100
AcDbEntity
  8
4
100
AcDbLine
 10
333.0545281241853
 20
504.322614125751
 30
0.0
 11
327.0545281241853
 21
504.322614125751
 31
0.0
  0
LINE
  5
198
330
2
100
AcDbEntity
  8
4
100
AcDbLine
 10
339.0545281241853
 20
521.322614125751
 30
0.0
 11
330.0545281241853
 21
521.322614125751
 31
0.0
  0
LINE
  5
199
330
2
100
AcDbEntity
  8
4
100
AcDbLine
 10
341.0545281241853
 20
520.322614125751
 30
0.0
 11
330.0545281241853
 21
520.322614125751
 31
0.0
  0
LINE
  5
19A
330
2
100
AcDbEntity
  8
4
100
AcDbLine
 10
330.0545281241853
 20
518.322614125751
 30
0.0
 11
341.0545281241853
 21
518.322614125751
 31
0.0
  0
LINE
  5
19C
330
2
100
AcDbEntity
  8
4
100
AcDbLine
 10
399.5545281241853
 20
507.822614125751
 30
0.0
 11
399.5545281241853
 21
512.822614125751
 31
0.0
  0
LINE
  5
19D
330
2
100
AcDbEntity
  8
4
100
AcDbLine
 10
376.5545281241853
 20
507.822614125751
 30
0.0
 11
376.5545281241853
 21
512.822614125751
 31
0.0
  0
LINE
  5
19E
330
2
100
AcDbEntity
  8
L-CENTER
 48
8.0
100
AcDbLine
 10
388.0545281241853
 20
481.9061046074903
 30
0.0
 11
388.0545281241853
 21
517.9290301257511
 31
0.0
  0
LINE
  5
19F
330
2
100
AcDbEntity
  8
4
100
AcDbLine
 10
365.0545281241853
 20
503.822614125751
 30
0.0
 11
365.0545281241853
 21
512.822614125751
 31
0.0
  0
LINE
  5
1A0
330
2
100
AcDbEntity
  8
4
100
AcDbLine
 10
363.0545281241853
 20
499.322614125751
 30
0.0
 11
363.0545281241853
 21
502.322614125751
 31
0.0
  0
LINE
  5
1A1
330
2
100
AcDbEntity
  8
4
100
AcDbLine
 10
366.0545281241853
 20
503.822614125751
 30
0.0
 11
366.0545281241853
 21
502.322614125751
 31
0.0
  0
LINE
  5
1A3
330
2
100
AcDbEntity
  8
4
100
AcDbLine
 10
411.0545281241853
 20
503.822614125751
 30
0.0
 11
411.0545281241853
 21
512.822614125751
 31
0.0
  0
LINE
  5
1A4
330
2
100
AcDbEntity
  8
4
100
AcDbLine
 10
413.0545281241853
 20
499.322614125751
 30
0.0
 11
413.0545281241853
 21
502.322614125751
 31
0.0
  0
LINE
  5
1A5
330
2
100
AcDbEntity
  8
4
100
AcDbLine
 10
410.0545281241853
 20
503.822614125751
 30
0.0
 11
410.0545281241853
 21
502.322614125751
 31
0.0
  0
ARC
  5
1A6
330
2
100
AcDbEntity
  8
4
100
AcDbCircle
 10
464.0545281241852
 20
501.3226141257509
 30
0.0
 40
2.0
100
AcDbArc
 50
270.0
 51
0.0
  0
LINE
  5
1A7
330
2
100
AcDbEntity
  8
4
100
AcDbLine
 10
473.5545281241853
 20
515.322614125751
 30
0.0
 11
473.5545281241853
 21
524.322614125751
 31
0.0
  0
ARC
  5
1A8
330
2
100
AcDbEntity
  8
4
100
AcDbCircle
 10
472.1546241241854
 20
518.878278125751
 30
0.0
 40
1.399916
100
AcDbArc
 50
0.0
 51
58.23083899999887
  0
LINE
  5
1A9
330
2
100
AcDbEntity
  8
4
100
AcDbLine
 10
473.5545281241853
 20
524.322614125751
 30
0.0
 11
486.0545281241853
 21
526.322614125751
 31
0.0
  0
LINE
  5
1AA
330
2
100
AcDbEntity
  8
4
100
AcDbLine
 10
466.0545281241853
 20
501.3226141257509
 30
0.0
 11
466.0545281241853
 21
515.3226141257511
 31
0.0
  0
LINE
  5
1B3
330
2
100
AcDbEntity
  8
4
100
AcDbLine
 10
644.0545281241812
 20
484.3226141257521
 30
0.0
 11
644.0545281241912
 21
444.3226141237533
 31
0.0
  0
LINE
  5
1B4
330
2
100
AcDbEntity
  8
4
100
AcDbLine
 10
537.0545281236882
 20
484.3226141257526
 30
0.0
 11
537.0545281236878
 21
444.322614123752
 31
0.0
  0
ARC
  5
1B5
330
2
100
AcDbEntity
  8
4
100
AcDbCircle
 10
617.1381202596817
 20
466.3226141257514
 30
0.0
 40
5.0
100
AcDbArc
 50
333.4349488251167
 51
89.99999999999739
  0
LINE
  5
1B6
330
2
100
AcDbEntity
  8
4
100
AcDbLine
 10
622.9691179275501
 20
451.151793730553
 30
0.0
 11
632.8961689107095
 21
471.0058956987721
 31
0.0
  0
ARC
  5
1B7
330
2
100
AcDbEntity
  8
4
100
AcDbCircle
 10
590.0545281236846
 20
470.5676121231514
 30
0.0
 40
5.0
100
AcDbArc
 50
308.6821874535028
 51
0.0
  0
LINE
  5
1B8
330
2
100
AcDbEntity
  8
4
100
AcDbLine
 10
574.0545281236882
 20
476.822614125752
 30
0.0
 11
574.0545281236882
 21
451.822614123752
 31
0.0
  0
LINE
  5
1B9
330
2
100
AcDbEntity
  8
4
100
AcDbLine
 10
548.0545281236882
 20
476.7072295102514
 30
0.0
 11
548.0545281236882
 21
451.9379987392517
 31
0.0
  0
LINE
  5
1BA
330
2
100
AcDbEntity
  8
4
100
AcDbLine
 10
555.0545281241889
 20
476.7072295102514
 30
0.0
 11
555.0545281241889
 21
458.9379987397517
 31
0.0
  0
LINE
  5
1BB
330
2
100
AcDbEntity
  8
4
100
AcDbLine
 10
659.0545281241853
 20
355.322614125751
 30
0.0
 11
659.0545281241853
 21
495.322614125751
 31
0.0
  0
LINE
  5
1BC
330
2
100
AcDbEntity
  8
4
100
AcDbLine
 10
654.0545281241853
 20
440.322614125751
 30
0.0
 11
654.0545281241853
 21
499.322614125751
 31
0.0
  0
LINE
  5
1BD
330
2
100
AcDbEntity
  8
4
100
AcDbLine
 10
542.0545281236878
 20
439.3226141237521
 30
0.0
 11
639.0545281241912
 21
439.322614123752
 31
0.0
  0
LINE
  5
1BE
330
2
100
AcDbEntity
  8
4
100
AcDbLine
 10
575.5545281236882
 20
450.322614123752
 30
0.0
 11
590.0545281236882
 21
450.322614123752
 31
0.0
  0
ARC
  5
1BF
330
2
100
AcDbEntity
  8
4
100
AcDbCircle
 10
511.0545281241853
 20
396.1958467628596
 30
0.0
 40
2.0
100
AcDbArc
 50
80.27503132500483
 51
180.0
  0
LINE
  5
1C0
330
2
100
AcDbEntity
  8
4
100
AcDbLine
 10
509.0545281241848
 20
385.3226141257512
 30
0.0
 11
509.0545281241848
 21
396.1958467628596
 31
0.0
  0
ARC
  5
1C1
330
2
100
AcDbEntity
  8
4
100
AcDbCircle
 10
522.4952001241854
 20
392.734234125751
 30
0.0
 40
2.99998
100
AcDbArc
 50
75.64710200000069
 51
186.1759400000002
  0
ARC
  5
1C2
330
2
100
AcDbEntity
  8
4
100
AcDbCircle
 10
542.0545281236878
 20
444.322614123752
 30
0.0
 40
5.0
100
AcDbArc
 50
180.0
 51
270.0
  0
ARC
  5
1C3
330
2
100
AcDbEntity
  8
4
100
AcDbCircle
 10
575.5545281236882
 20
451.822614123752
 30
0.0
 40
1.5
100
AcDbArc
 50
180.0
 51
270.0
  0
ARC
  5
1C4
330
2
100
AcDbEntity
  8
4
100
AcDbCircle
 10
567.5545281236882
 20
451.8226141237517
 30
0.0
 40
1.5
100
AcDbArc
 50
270.0
 51
0.0
  0
ARC
  5
1C5
330
2
100
AcDbEntity
  8
4
100
AcDbCircle
 10
567.5545281236882
 20
455.8226141242516
 30
0.0
 40
1.5
100
AcDbArc
 50
0.0
 51
90.0
  0
LINE
  5
1C6
330
2
100
AcDbEntity
  8
4
100
AcDbLine
 10
569.0545281236882
 20
455.8226141242516
 30
0.0
 11
569.0545281236882
 21
451.8226141237517
 31
0.0
  0
ARC
  5
1C7
330
2
100
AcDbEntity
  8
4
100
AcDbCircle
 10
556.6699127396892
 20
458.9379987397517
 30
0.0
 40
1.6153846155
100
AcDbArc
 50
180.0
 51
270.0
  0
LINE
  5
1C8
330
2
100
AcDbEntity
  8
4
100
AcDbLine
 10
556.6699127396892
 20
457.3226141242517
 30
0.0
 11
567.5545281236882
 21
457.3226141242516
 31
0.0
  0
LINE
  5
1C9
330
2
100
AcDbEntity
  8
4
100
AcDbLine
 10
549.669912739188
 20
450.3226141237517
 30
0.0
 11
567.5545281236882
 21
450.3226141237517
 31
0.0
  0
ARC
  5
1CA
330
2
100
AcDbEntity
  8
4
100
AcDbCircle
 10
549.669912739188
 20
451.9379987392517
 30
0.0
 40
1.6153846155
100
AcDbArc
 50
180.0
 51
270.0
  0
LINE
  5
1CB
330
2
100
AcDbEntity
  8
4
100
AcDbLine
 10
654.0545281241853
 20
327.5496661257509
 30
0.0
 11
654.0545281241853
 21
410.322614125751
 31
0.0
  0
ARC
  5
1CC
330
2
100
AcDbEntity
  8
4
100
AcDbCircle
 10
621.6274771410249
 20
451.8226141237516
 30
0.0
 40
1.5
100
AcDbArc
 50
270.0
 51
333.4349488251145
  0
ARC
  5
1CD
330
2
100
AcDbEntity
  8
4
100
AcDbCircle
 10
617.155341186111
 20
451.8226141237516
 30
0.0
 40
1.5
100
AcDbArc
 50
153.4349488251146
 51
270.0
  0
LINE
  5
1CE
330
2
100
AcDbEntity
  8
4
100
AcDbLine
 10
615.8137003995853
 20
452.4934345169502
 30
0.0
 11
621.6102562147667
 21
464.0865461484228
 31
0.0
  0
ARC
  5
1CF
330
2
100
AcDbEntity
  8
4
100
AcDbCircle
 10
590.0545281236878
 20
458.0776161263544
 30
0.0
 40
5.0
100
AcDbArc
 50
0.0
 51
51.31781254652588
  0
LINE
  5
1D0
330
2
100
AcDbEntity
  8
4
100
AcDbLine
 10
595.0545281236878
 20
458.0776161263556
 30
0.0
 11
595.0545281236882
 21
455.322614123752
 31
0.0
  0
ARC
  5
1D1
330
2
100
AcDbEntity
  8
4
100
AcDbCircle
 10
595.0545281236859
 20
464.3226141247542
 30
0.0
 40
3.0
100
AcDbArc
 50
128.6821874535029
 51
231.3178125465249
  0
ARC
  5
1D2
330
2
100
AcDbEntity
  8
4
100
AcDbCircle
 10
590.0545281236882
 20
455.322614123752
 30
0.0
 40
5.0
100
AcDbArc
 50
270.0
 51
0.0
  0
LINE
  5
1D3
330
2
100
AcDbEntity
  8
4
100
AcDbLine
 10
607.0545281241857
 20
466.2072295095018
 30
0.0
 11
607.0545281241866
 21
462.4379987400017
 31
0.0
  0
ARC
  5
1D4
330
2
100
AcDbEntity
  8
4
100
AcDbCircle
 10
605.4391435086864
 20
462.4379987400017
 30
0.0
 40
1.6153846155
100
AcDbArc
 50
270.0
 51
0.0
  0
ARC
  5
1D5
330
2
100
AcDbEntity
  8
4
100
AcDbCircle
 10
605.4391435086854
 20
466.2072295095018
 30
0.0
 40
1.6153846155
100
AcDbArc
 50
0.0
 51
90.0
  0
LINE
  5
1D6
330
2
100
AcDbEntity
  8
4
100
AcDbLine
 10
617.155341186111
 20
450.3226141237516
 30
0.0
 11
621.6274771410249
 21
450.3226141237516
 31
0.0
  0
ARC
  5
1D7
330
2
100
AcDbEntity
  8
4
100
AcDbCircle
 10
601.6699127391867
 20
462.4379987400017
 30
0.0
 40
1.6153846155
100
AcDbArc
 50
180.0
 51
270.0
  0
ARC
  5
1D8
330
2
100
AcDbEntity
  8
4
100
AcDbCircle
 10
601.6699127391853
 20
466.2072295095018
 30
0.0
 40
1.6153846155
100
AcDbArc
 50
90.0
 51
180.0
  0
LINE
  5
1D9
330
2
100
AcDbEntity
  8
4
100
AcDbLine
 10
600.0545281236855
 20
466.2072295095018
 30
0.0
 11
600.0545281236864
 21
462.4379987400017
 31
0.0
  0
LINE
  5
1DA
330
2
100
AcDbEntity
  8
4
100
AcDbLine
 10
601.6699127391853
 20
467.8226141250017
 30
0.0
 11
605.4391435086854
 21
467.8226141250017
 31
0.0
  0
LINE
  5
1DB
330
2
100
AcDbEntity
  8
4
100
AcDbLine
 10
601.6699127391867
 20
460.8226141245017
 30
0.0
 11
605.4391435086864
 21
460.8226141245017
 31
0.0
  0
ARC
  5
1DC
330
2
100
AcDbEntity
  8
4
100
AcDbCircle
 10
639.0545281241912
 20
444.322614123752
 30
0.0
 40
5.0
100
AcDbArc
 50
270.0
 51
0.0
  0
ARC
  5
1DD
330
2
100
AcDbEntity
  8
4
100
AcDbCircle
 10
659.0545281241853
 20
440.322614125751
 30
0.0
 40
5.0
100
AcDbArc
 50
180.0
 51
270.0
  0
ARC
  5
1DE
330
2
100
AcDbEntity
  8
4
100
AcDbCircle
 10
659.0545281241853
 20
410.322614125751
 30
0.0
 40
5.0
100
AcDbArc
 50
90.0
 51
180.0
  0
ARC
  5
1DF
330
2
100
AcDbEntity
  8
4
100
AcDbCircle
 10
632.802088124185
 20
397.0699301257509
 30
0.0
 40
5.00004
100
AcDbArc
 50
17.24670299999975
 51
72.75679599999998
  0
LINE
  5
1E1
330
2
100
AcDbEntity
  8
4
100
AcDbLine
 10
542.0545281236887
 20
489.3226141257526
 30
0.0
 11
639.0545281241812
 21
489.3226141257509
 31
0.0
  0
LINE
  5
1E2
330
2
100
AcDbEntity
  8
4
100
AcDbLine
 10
575.5545281236882
 20
478.322614125752
 30
0.0
 11
590.0545281236841
 21
478.3226141257518
 31
0.0
  0
ARC
  5
1E3
330
2
100
AcDbEntity
  8
4
100
AcDbCircle
 10
508.0545281241853
 20
501.3226141257509
 30
0.0
 40
2.0
100
AcDbArc
 50
180.0
 51
270.0
  0
ARC
  5
1E4
330
2
100
AcDbEntity
  8
4
100
AcDbCircle
 10
499.9546721241854
 20
518.878278125751
 30
0.0
 40
1.399916
100
AcDbArc
 50
121.7691610000011
 51
180.0
  0
LINE
  5
1E5
330
2
100
AcDbEntity
  8
4
100
AcDbLine
 10
498.5545281241853
 20
515.322614125751
 30
0.0
 11
498.5545281241853
 21
524.322614125751
 31
0.0
  0
LINE
  5
1E6
330
2
100
AcDbEntity
  8
4
100
AcDbLine
 10
506.0545281241853
 20
501.3226141257509
 30
0.0
 11
506.0545281241853
 21
515.3226141257511
 31
0.0
  0
ARC
  5
1E7
330
2
100
AcDbEntity
  8
4
100
AcDbCircle
 10
542.0545281236882
 20
484.3226141257526
 30
0.0
 40
5.0
100
AcDbArc
 50
89.9999999999987
 51
180.0
  0
ARC
  5
1E8
330
2
100
AcDbEntity
  8
4
100
AcDbCircle
 10
575.5545281236882
 20
476.822614125752
 30
0.0
 40
1.5
100
AcDbArc
 50
90.0
 51
180.0
  0
ARC
  5
1E9
330
2
100
AcDbEntity
  8
4
100
AcDbCircle
 10
553.4391435086891
 20
476.7072295102514
 30
0.0
 40
1.6153846155
100
AcDbArc
 50
0.0
 51
90.0
  0
ARC
  5
1EA
330
2
100
AcDbEntity
  8
4
100
AcDbCircle
 10
549.669912739188
 20
476.7072295102514
 30
0.0
 40
1.6153846155
100
AcDbArc
 50
90.0
 51
180.0
  0
LINE
  5
1EB
330
2
100
AcDbEntity
  8
4
100
AcDbLine
 10
549.669912739188
 20
478.3226141257514
 30
0.0
 11
553.4391435086891
 21
478.3226141257514
 31
0.0
  0
LINE
  5
1EC
330
2
100
AcDbEntity
  8
4
100
AcDbLine
 10
613.554528124183
 20
478.3226141257514
 30
0.0
 11
631.554528124183
 21
478.3226141257514
 31
0.0
  0
ARC
  5
1ED
330
2
100
AcDbEntity
  8
4
100
AcDbCircle
 10
613.5545281241839
 20
472.8226141257517
 30
0.0
 40
1.5
100
AcDbArc
 50
180.0
 51
270.0
  0
LINE
  5
1EE
330
2
100
AcDbEntity
  8
4
100
AcDbLine
 10
613.5545281241839
 20
471.3226141257517
 30
0.0
 11
617.1381202596817
 21
471.3226141257514
 31
0.0
  0
ARC
  5
1EF
330
2
100
AcDbEntity
  8
4
100
AcDbCircle
 10
613.554528124183
 20
476.8226141257514
 30
0.0
 40
1.5
100
AcDbArc
 50
90.0
 51
180.0
  0
LINE
  5
1F0
330
2
100
AcDbEntity
  8
4
100
AcDbLine
 10
612.054528124183
 20
476.8226141257511
 30
0.0
 11
612.0545281241839
 21
472.8226141257513
 31
0.0
  0
ARC
  5
1F1
330
2
100
AcDbEntity
  8
4
100
AcDbCircle
 10
590.0545281236841
 20
473.3226141257518
 30
0.0
 40
5.0
100
AcDbArc
 50
0.0
 51
90.0
  0
LINE
  5
1F2
330
2
100
AcDbEntity
  8
4
100
AcDbLine
 10
595.0545281236841
 20
473.3226141257529
 30
0.0
 11
595.0545281236846
 21
470.5676121231527
 31
0.0
  0
ARC
  5
1F3
330
2
100
AcDbEntity
  8
4
100
AcDbCircle
 10
639.0545281241812
 20
484.3226141257509
 30
0.0
 40
5.0
100
AcDbArc
 50
0.0
 51
89.9999999999987
  0
ARC
  5
1F4
330
2
100
AcDbEntity
  8
4
100
AcDbCircle
 10
631.5545281241843
 20
471.6767160919707
 30
0.0
 40
1.5
100
AcDbArc
 50
333.4349488251145
 51
0.0
  0
ARC
  5
1F5
330
2
100
AcDbEntity
  8
4
100
AcDbCircle
 10
631.554528124183
 20
476.8226141257514
 30
0.0
 40
1.5
100
AcDbArc
 50
0.0
 51
90.0
  0
LINE
  5
1F6
330
2
100
AcDbEntity
  8
4
100
AcDbLine
 10
633.054528124183
 20
476.8226141257518
 30
0.0
 11
633.0545281241843
 21
471.676716091971
 31
0.0
  0
LINE
  5
1F7
330
2
100
AcDbEntity
  8
4
100
AcDbLine
 10
648.0545281241853
 20
499.322614125751
 30
0.0
 11
648.0545281241853
 21
504.322614125751
 31
0.0
  0
LINE
  5
1F8
330
2
100
AcDbEntity
  8
4
100
AcDbLine
 10
652.0545281241853
 20
508.322614125751
 30
0.0
 11
652.0545281241853
 21
518.322614125751
 31
0.0
  0
LINE
  5
1F9
330
2
100
AcDbEntity
  8
4
100
AcDbLine
 10
651.0545281241853
 20
521.322614125751
 30
0.0
 11
653.0545281241853
 21
520.322614125751
 31
0.0
  0
LINE
  5
1FA
330
2
100
AcDbEntity
  8
4
100
AcDbLine
 10
653.0545281241853
 20
520.322614125751
 30
0.0
 11
653.0545281241853
 21
518.322614125751
 31
0.0
  0
ARC
  5
1FB
330
2
100
AcDbEntity
  8
4
100
AcDbCircle
 10
632.0545281241853
 20
504.322614125751
 30
0.0
 40
4.0
100
AcDbArc
 50
0.0
 51
90.0
  0
ARC
  5
1FC
330
2
100
AcDbEntity
  8
4
100
AcDbCircle
 10
639.0545281241853
 20
499.322614125751
 30
0.0
 40
5.0
100
AcDbArc
 50
53.13010200000015
 51
126.8698979999998
  0
LINE
  5
1FD
330
2
100
AcDbEntity
  8
4
100
AcDbLine
 10
636.0545281241853
 20
499.322614125751
 30
0.0
 11
636.0545281241853
 21
504.322614125751
 31
0.0
  0
LINE
  5
1FE
330
2
100
AcDbEntity
  8
4
100
AcDbLine
 10
636.0545281241853
 20
499.322614125751
 30
0.0
 11
642.0545281241853
 21
499.322614125751
 31
0.0
  0
LINE
  5
1FF
330
2
100
AcDbEntity
  8
4
100
AcDbLine
 10
639.0545281241853
 20
504.322614125751
 30
0.0
 11
645.0545281241853
 21
504.322614125751
 31
0.0
  0
LINE
  5
200
330
2
100
AcDbEntity
  8
4
100
AcDbLine
 10
632.0545281241853
 20
508.322614125751
 30
0.0
 11
632.0545281241853
 21
518.322614125751
 31
0.0
  0
LINE
  5
201
330
2
100
AcDbEntity
  8
4
100
AcDbLine
 10
632.0545281241853
 20
508.322614125751
 30
0.0
 11
642.0545281241853
 21
508.322614125751
 31
0.0
  0
LINE
  5
202
330
2
100
AcDbEntity
  8
4
100
AcDbLine
 10
633.0545281241853
 20
521.322614125751
 30
0.0
 11
642.0545281241853
 21
521.322614125751
 31
0.0
  0
LINE
  5
203
330
2
100
AcDbEntity
  8
4
100
AcDbLine
 10
631.0545281241853
 20
520.322614125751
 30
0.0
 11
642.0545281241853
 21
520.322614125751
 31
0.0
  0
LINE
  5
204
330
2
100
AcDbEntity
  8
4
100
AcDbLine
 10
633.0545281241853
 20
521.322614125751
 30
0.0
 11
631.0545281241853
 21
520.322614125751
 31
0.0
  0
LINE
  5
205
330
2
100
AcDbEntity
  8
4
100
AcDbLine
 10
642.0545281241853
 20
518.322614125751
 30
0.0
 11
631.0545281241853
 21
518.322614125751
 31
0.0
  0
LINE
  5
206
330
2
100
AcDbEntity
  8
4
100
AcDbLine
 10
631.0545281241853
 20
520.322614125751
 30
0.0
 11
631.0545281241853
 21
518.322614125751
 31
0.0
  0
LINE
  5
207
330
2
100
AcDbEntity
  8
L-CENTER
 48
8.0
100
AcDbLine
 10
642.0545281241853
 20
526.3869093718104
 30
0.0
 11
642.0545281241853
 21
489.3792773718103
 31
0.0
  0
ARC
  5
208
330
2
100
AcDbEntity
  8
4
100
AcDbCircle
 10
652.0545281241853
 20
504.322614125751
 30
0.0
 40
4.0
100
AcDbArc
 50
90.0
 51
180.0
  0
LINE
  5
209
330
2
100
AcDbEntity
  8
4
100
AcDbLine
 10
648.0545281241853
 20
499.322614125751
 30
0.0
 11
642.0545281241853
 21
499.322614125751
 31
0.0
  0
ARC
  5
20A
330
2
100
AcDbEntity
  8
4
100
AcDbCircle
 10
645.0545281241853
 20
499.322614125751
 30
0.0
 40
5.0
100
AcDbArc
 50
53.13010200000015
 51
126.8698979999998
  0
LINE
  5
20B
330
2
100
AcDbEntity
  8
4
100
AcDbLine
 10
652.0545281241853
 20
508.322614125751
 30
0.0
 11
642.0545281241853
 21
508.322614125751
 31
0.0
  0
LINE
  5
20C
330
2
100
AcDbEntity
  8
4
100
AcDbLine
 10
642.0545281241853
 20
518.322614125751
 30
0.0
 11
653.0545281241853
 21
518.322614125751
 31
0.0
  0
LINE
  5
20D
330
2
100
AcDbEntity
  8
4
100
AcDbLine
 10
651.0545281241853
 20
521.322614125751
 30
0.0
 11
642.0545281241853
 21
521.322614125751
 31
0.0
  0
LINE
  5
20E
330
2
100
AcDbEntity
  8
4
100
AcDbLine
 10
653.0545281241853
 20
520.322614125751
 30
0.0
 11
642.0545281241853
 21
520.322614125751
 31
0.0
  0
LINE
  5
254
330
2
100
AcDbEntity
  8
4
100
AcDbLine
 10
1442.465841169549
 20
284.322614125751
 30
0.0
 11
1457.465841169549
 21
284.322614125751
 31
0.0
  0
LINE
  5
255
330
2
100
AcDbEntity
  8
4
100
AcDbLine
 10
1442.465841169549
 20
274.322614125751
 30
0.0
 11
1457.465841169549
 21
274.322614125751
 31
0.0
  0
LINE
  5
256
330
2
100
AcDbEntity
  8
L-CENTER
 48
8.0
100
AcDbLine
 10
1407.259417169549
 20
250.322614125751
 30
0.0
 11
1492.672265169549
 21
250.322614125751
 31
0.0
  0
ARC
  5
25B
330
2
100
AcDbEntity
  8
4
100
AcDbCircle
 10
1449.965841169549
 20
250.322614125751
 30
0.0
 40
29.000004
100
AcDbArc
 50
104.9882323664781
 51
75.01176900000006
  0
LINE
  5
264
330
2
100
AcDbEntity
  8
L-CENTER
 48
8.0
100
AcDbLine
 10
130.2193882607425
 20
395.9304461257509
 30
0.0
 11
130.2193882607425
 21
454.7147821257511
 31
0.0
  0
TEXT
  5
266
330
2
100
AcDbEntity
  8
3
100
AcDbText
 10
792.0030926176169
 20
38.39719627678534
 30
0.0
 40
12.31020678973231
  1
LB7-01
  7
KANJI
100
AcDbText
  0
LINE
  5
26F
330
2
100
AcDbEntity
  8
L-CENTER
 48
8.0
100
AcDbLine
 10
100.8272202607425
 20
425.322614125751
 30
0.0
 11
159.6115562607426
 21
425.322614125751
 31
0.0
  0
LINE
  5
270
330
2
100
AcDbEntity
  8
4
100
AcDbLine
 10
135.2193882607425
 20
446.822614125751
 30
0.0
 11
125.2193882607425
 21
446.822614125751
 31
0.0
  0
LINE
  5
271
330
2
100
AcDbEntity
  8
4
100
AcDbLine
 10
125.2193882607425
 20
438.822614125751
 30
0.0
 11
135.2193882607425
 21
438.822614125751
 31
0.0
  0
ARC
  5
272
330
2
100
AcDbEntity
  8
4
100
AcDbCircle
 10
130.2193882607425
 20
425.322614125751
 30
0.0
 40
17.999996
100
AcDbArc
 50
106.1276238948288
 51
73.87237499999982
  0
LINE
  5
273
330
2
100
AcDbEntity
  8
4
100
AcDbLine
 10
125.2193882607425
 20
438.822614125751
 30
0.0
 11
125.2193882607425
 21
446.822614125751
 31
0.0
  0
LINE
  5
279
330
2
100
AcDbEntity
  8
4
100
AcDbLine
 10
135.2193882607425
 20
438.822614125751
 30
0.0
 11
135.2193882607425
 21
446.822614125751
 31
0.0
  0
LINE
  5
281
330
2
100
AcDbEntity
  8
L-CENTER
 48
8.0
100
AcDbLine
 10
1449.965841169549
 20
207.616190125751
 30
0.0
 11
1449.965841169549
 21
293.029038125751
 31
0.0
  0
LINE
  5
28E
330
2
100
AcDbEntity
  8
4
100
AcDbLine
 10
1442.465841169549
 20
284.322614125751
 30
0.0
 11
1442.465841169549
 21
274.322614125751
 31
0.0
  0
LINE
  5
339
330
2
100
AcDbEntity
  8
4
100
AcDbLine
 10
1457.465841169549
 20
274.322614125751
 30
0.0
 11
1457.465841169549
 21
284.322614125751
 31
0.0
  0
LINE
  5
36B
330
2
100
AcDbEntity
  8
4
100
AcDbLine
 10
1234.938341490878
 20
303.3226141257511
 30
0.0
 11
1216.638503215063
 21
307.8975736947054
 31
0.0
  0
LINE
  5
36C
330
2
100
AcDbEntity
  8
4
100
AcDbLine
 10
1234.938341490878
 20
197.3226141257511
 30
0.0
 11
1216.638503192574
 21
192.7476545511752
 31
0.0
  0
ARC
  5
36D
330
2
100
AcDbEntity
  8
4
100
AcDbCircle
 10
1227.038585490878
 20
84.32261412575099
 30
0.0
 40
3.0
100
AcDbArc
 50
0.0
 51
90.0
  0
LINE
  5
36E
330
2
100
AcDbEntity
  8
L-CENTER
 48
8.0
100
AcDbLine
 10
1353.378406510288
 20
250.322614125751
 30
0.0
 11
968.2918647023462
 21
250.322614125751
 31
0.0
  0
LINE
  5
36F
330
2
100
AcDbEntity
  8
4
100
AcDbLine
 10
980.0385854908782
 20
50.32261412575099
 30
0.0
 11
1230.038585490878
 21
50.32261412575099
 31
0.0
  0
ARC
  5
37A
330
2
100
AcDbEntity
  8
4
100
AcDbCircle
 10
683.0545281241853
 20
84.32261412575099
 30
0.0
 40
3.0
100
AcDbArc
 50
0.0
 51
90.0
  0
LINE
  5
37B
330
2
100
AcDbEntity
  8
4
100
AcDbLine
 10
671.0545281241853
 20
50.32261412575099
 30
0.0
 11
671.0545281241853
 21
87.32261412575099
 31
0.0
  0
LINE
  5
37C
330
2
100
AcDbEntity
  8
4
100
AcDbLine
 10
686.0545281241853
 20
84.32261412575099
 30
0.0
 11
686.0545281241853
 21
50.32261412575099
 31
0.0
  0
LINE
  5
386
330
2
100
AcDbEntity
  8
4
100
AcDbLine
 10
680.3544281241852
 20
475.1028901257509
 30
0.0
 11
680.3544281241852
 21
460.395370125751
 31
0.0
  0
LINE
  5
387
330
2
100
AcDbEntity
  8
4
100
AcDbLine
 10
670.8544281241852
 20
476.9490781257509
 30
0.0
 11
670.8544281241852
 21
458.549178125751
 31
0.0
  0
LINE
  5
388
330
2
100
AcDbEntity
  8
4
100
AcDbLine
 10
673.3544281241852
 20
477.549178125751
 30
0.0
 11
673.3544281241852
 21
457.9490781257509
 31
0.0
  0
LINE
  5
389
330
2
100
AcDbEntity
  8
4
100
AcDbLine
 10
670.8544281241852
 20
495.322614125751
 30
0.0
 11
670.8544281241852
 21
355.322614125751
 31
0.0
  0
ARC
  5
38A
330
2
100
AcDbEntity
  8
4
100
AcDbCircle
 10
666.450864124185
 20
467.749130125751
 30
0.0
 40
13.90362
100
AcDbArc
 50
339.3323219999999
 51
20.66861499999984
  0
LINE
  5
38B
330
2
100
AcDbEntity
  8
4
100
AcDbLine
 10
670.8544281241852
 20
373.696150125751
 30
0.0
 11
670.8544281241852
 21
392.0960541257509
 31
0.0
  0
LINE
  5
38C
330
2
100
AcDbEntity
  8
4
100
AcDbLine
 10
673.3544281241852
 20
373.0960541257509
 30
0.0
 11
673.3544281241852
 21
392.6961501257509
 31
0.0
  0
ARC
  5
38D
330
2
100
AcDbEntity
  8
4
100
AcDbCircle
 10
676.5634161241851
 20
375.542342125751
 30
0.0
 40
3.790928
100
AcDbArc
 50
319.8117440000006
 51
40.18825599999942
  0
LINE
  5
38E
330
2
100
AcDbEntity
  8
4
100
AcDbLine
 10
673.3544281241852
 20
373.696150125751
 30
0.0
 11
670.8544281241852
 21
373.696150125751
 31
0.0
  0
LINE
  5
38F
330
2
100
AcDbEntity
  8
4
100
AcDbLine
 10
679.4594121241853
 20
373.0960541257509
 30
0.0
 11
673.3544281241852
 21
373.0960541257509
 31
0.0
  0
LINE
  5
390
330
2
100
AcDbEntity
  8
4
100
AcDbLine
 10
680.3544281241852
 20
375.542342125751
 30
0.0
 11
680.3544281241852
 21
390.249862125751
 31
0.0
  0
LINE
  5
391
330
2
100
AcDbEntity
  8
4
100
AcDbLine
 10
679.4594121241853
 20
392.6961501257509
 30
0.0
 11
673.3544281241852
 21
392.6961501257509
 31
0.0
  0
LINE
  5
392
330
2
100
AcDbEntity
  8
4
100
AcDbLine
 10
673.3544281241852
 20
387.803570125751
 30
0.0
 11
679.4594121241853
 21
387.803570125751
 31
0.0
  0
LINE
  5
393
330
2
100
AcDbEntity
  8
4
100
AcDbLine
 10
670.8544281241852
 20
392.0960541257509
 30
0.0
 11
673.3544281241852
 21
392.0960541257509
 31
0.0
  0
LINE
  5
394
330
2
100
AcDbEntity
  8
4
100
AcDbLine
 10
673.3544281241852
 20
377.988630125751
 30
0.0
 11
679.4594121241853
 21
377.988630125751
 31
0.0
  0
ARC
  5
395
330
2
100
AcDbEntity
  8
4
100
AcDbCircle
 10
676.5634161241851
 20
390.249862125751
 30
0.0
 40
3.791112
100
AcDbArc
 50
319.814124
 51
40.18587600000109
  0
ARC
  5
396
330
2
100
AcDbEntity
  8
4
100
AcDbCircle
 10
666.450864124185
 20
382.896102125751
 30
0.0
 40
13.90362
100
AcDbArc
 50
339.3313850000002
 51
20.66767800000014
  0
LINE
  5
397
330
2
100
AcDbEntity
  8
4
100
AcDbLine
 10
673.3544281241852
 20
462.8416581257511
 30
0.0
 11
679.4594121241853
 21
462.8416581257511
 31
0.0
  0
LINE
  5
398
330
2
100
AcDbEntity
  8
4
100
AcDbLine
 10
679.4594121241853
 20
457.9490781257509
 30
0.0
 11
673.3544281241852
 21
457.9490781257509
 31
0.0
  0
LINE
  5
399
330
2
100
AcDbEntity
  8
4
100
AcDbLine
 10
670.8544281241852
 20
458.549178125751
 30
0.0
 11
673.3544281241852
 21
458.549178125751
 31
0.0
  0
ARC
  5
39A
330
2
100
AcDbEntity
  8
4
100
AcDbCircle
 10
676.5634161241851
 20
460.395370125751
 30
0.0
 40
3.79102
100
AcDbArc
 50
319.8141239999997
 51
40.18825600000022
  0
ARC
  5
39C
330
2
100
AcDbEntity
  8
4
100
AcDbCircle
 10
676.5634161241851
 20
475.1028901257509
 30
0.0
 40
3.79102
100
AcDbArc
 50
319.814112
 51
40.18825600000022
  0
LINE
  5
39D
330
2
100
AcDbEntity
  8
4
100
AcDbLine
 10
673.3544281241852
 20
472.6565981257509
 30
0.0
 11
679.4594121241853
 21
472.6565981257509
 31
0.0
  0
LINE
  5
39E
330
2
100
AcDbEntity
  8
4
100
AcDbLine
 10
679.4594121241853
 20
477.549178125751
 30
0.0
 11
673.3544281241852
 21
477.549178125751
 31
0.0
  0
LINE
  5
39F
330
2
100
AcDbEntity
  8
4
100
AcDbLine
 10
673.3544281241852
 20
476.9490781257509
 30
0.0
 11
670.8544281241852
 21
476.9490781257509
 31
0.0
  0
LINE
  5
3AB
330
2
100
AcDbEntity
  8
4
100
AcDbLine
 10
1021.038585490878
 20
397.322614125751
 30
0.0
 11
991.038585490878
 21
307.3226141257509
 31
0.0
  0
LINE
  5
3AC
330
2
100
AcDbEntity
  8
4
100
AcDbLine
 10
1021.038585490878
 20
118.482614125751
 30
0.0
 11
1021.038585490878
 21
422.322614125751
 31
0.0
  0
LINE
  5
3AD
330
2
100
AcDbEntity
  8
4
100
AcDbLine
 10
1033.038585490878
 20
94.52671412575091
 30
0.0
 11
1033.038585490878
 21
424.322614125751
 31
0.0
  0
LINE
  5
3AE
330
2
100
AcDbEntity
  8
4
100
AcDbLine
 10
1034.038585490878
 20
99.32261412575099
 30
0.0
 11
1034.038585490878
 21
425.322614125751
 31
0.0
  0
LINE
  5
3AF
330
2
100
AcDbEntity
  8
4
100
AcDbLine
 10
1179.038585490878
 20
125.910850125751
 30
0.0
 11
1179.038585490878
 21
422.322614125751
 31
0.0
  0
LINE
  5
3B0
330
2
100
AcDbEntity
  8
4
100
AcDbLine
 10
1177.038585490878
 20
94.52678212575097
 30
0.0
 11
1177.038585490878
 21
424.322614125751
 31
0.0
  0
LINE
  5
3B1
330
2
100
AcDbEntity
  8
4
100
AcDbLine
 10
1176.038585490878
 20
99.32261412575099
 30
0.0
 11
1176.038585490878
 21
425.322614125751
 31
0.0
  0
LINE
  5
3B2
330
2
100
AcDbEntity
  8
4
100
AcDbLine
 10
1191.338485490878
 20
422.322614125751
 30
0.0
 11
1191.338485490878
 21
116.0226901257511
 31
0.0
  0
LINE
  5
3B3
330
2
100
AcDbEntity
  8
L-CENTER
 48
8.0
100
AcDbLine
 10
1105.038585490878
 20
570.7099225544471
 30
0.0
 11
1105.038585490878
 21
41.18047678351149
 31
0.0
  0
LINE
  5
3B4
330
2
100
AcDbEntity
  8
4
100
AcDbLine
 10
1021.038585490878
 20
390.9980588054144
 30
0.0
 11
993.3384237891823
 21
307.897573700327
 31
0.0
  0
LINE
  5
3B5
330
2
100
AcDbEntity
  8
4
100
AcDbLine
 10
1192.625112490327
 20
379.9377495588226
 30
0.0
 11
1216.638503215063
 21
307.8975736947054
 31
0.0
  0
LINE
  5
3B6
330
2
100
AcDbEntity
  8
4
100
AcDbLine
 10
1194.733297586307
 20
379.9377495588226
 30
0.0
 11
1218.938341490878
 21
307.3226141257514
 31
0.0
  0
LINE
  5
3B7
330
2
100
AcDbEntity
  8
4
100
AcDbLine
 10
983.0385854908782
 20
87.32261412575099
 30
0.0
 11
1227.038585490878
 21
87.32261412575099
 31
0.0
  0
LINE
  5
3B8
330
2
100
AcDbEntity
  8
4
100
AcDbLine
 10
1017.069997490878
 20
115.228374125751
 30
0.0
 11
991.0385854908784
 21
193.3226141257506
 31
0.0
  0
LINE
  5
3B9
330
2
100
AcDbEntity
  8
4
100
AcDbLine
 10
1018.725640820062
 20
116.5859994956816
 30
0.0
 11
993.3384237666937
 21
192.7476545567966
 31
0.0
  0
LINE
  5
3BE
330
2
100
AcDbEntity
  8
4
100
AcDbLine
 10
983.0385854908782
 20
87.32261412575099
 30
0.0
 11
1033.038585490878
 21
128.322614125751
 31
0.0
  0
ARC
  5
3BF
330
2
100
AcDbEntity
  8
4
100
AcDbCircle
 10
983.0385854908782
 20
84.32261412575099
 30
0.0
 40
3.0
100
AcDbArc
 50
90.0
 51
180.0
  0
LINE
  5
3C0
330
2
100
AcDbEntity
  8
4
100
AcDbLine
 10
980.0385854908782
 20
50.32261412575099
 30
0.0
 11
980.0385854908782
 21
84.32261412575099
 31
0.0
  0
LINE
  5
3C1
330
2
100
AcDbEntity
  8
L-CENTER
 48
8.0
100
AcDbLine
 10
1005.038585490878
 20
35.32261412575099
 30
0.0
 11
1005.038585490878
 21
102.322614125751
 31
0.0
  0
ARC
  5
3C2
330
2
100
AcDbEntity
  8
4
100
AcDbCircle
 10
1022.038585490878
 20
99.32261412575099
 30
0.0
 40
12.0
100
AcDbArc
 50
270.0011650000001
 51
0.0
  0
LINE
  5
3C7
330
2
100
AcDbEntity
  8
4
100
AcDbLine
 10
991.0385854908782
 20
293.3226141257509
 30
0.0
 11
991.0385854908782
 21
207.322614125751
 31
0.0
  0
LINE
  5
3C8
330
2
100
AcDbEntity
  8
4
100
AcDbLine
 10
975.0385854908782
 20
303.322614125751
 30
0.0
 11
975.0385854908782
 21
197.322614125751
 31
0.0
  0
LINE
  5
3C9
330
2
100
AcDbEntity
  8
4
100
AcDbLine
 10
991.0385854908782
 20
207.322614125751
 30
0.0
 11
1021.038585490878
 21
217.322614125751
 31
0.0
  0
LINE
  5
3CA
330
2
100
AcDbEntity
  8
4
100
AcDbLine
 10
993.3384237695402
 20
207.322614125751
 30
0.0
 11
1021.038585490878
 21
216.5560013661971
 31
0.0
  0
LINE
  5
3CB
330
2
100
AcDbEntity
  8
4
100
AcDbLine
 10
991.0385854908782
 20
207.322614125751
 30
0.0
 11
993.3384237695402
 21
207.322614125751
 31
0.0
  0
LINE
  5
3CC
330
2
100
AcDbEntity
  8
4
100
AcDbLine
 10
975.0385854908782
 20
197.322614125751
 30
0.0
 11
993.3384237666937
 21
192.7476545567966
 31
0.0
  0
LINE
  5
3CD
330
2
100
AcDbEntity
  8
4
100
AcDbLine
 10
993.3384237695402
 20
207.3226141257509
 30
0.0
 11
993.3384237666937
 21
192.7476545567966
 31
0.0
  0
LINE
  5
3CE
330
2
100
AcDbEntity
  8
4
100
AcDbLine
 10
991.0385854908782
 20
293.322614125751
 30
0.0
 11
1021.038585490878
 21
283.322614125751
 31
0.0
  0
LINE
  5
3CF
330
2
100
AcDbEntity
  8
4
100
AcDbLine
 10
993.3384237695402
 20
293.322614125751
 30
0.0
 11
1021.038585490878
 21
284.089226885305
 31
0.0
  0
LINE
  5
3D0
330
2
100
AcDbEntity
  8
4
100
AcDbLine
 10
975.0385854908782
 20
303.322614125751
 30
0.0
 11
993.3384237891821
 21
307.8975737003269
 31
0.0
  0
LINE
  5
3D1
330
2
100
AcDbEntity
  8
4
100
AcDbLine
 10
991.0385854908782
 20
293.322614125751
 30
0.0
 11
993.3384237863359
 21
293.3226141257509
 31
0.0
  0
LINE
  5
3D2
330
2
100
AcDbEntity
  8
4
100
AcDbLine
 10
993.3384237891823
 20
307.8975737003269
 30
0.0
 11
993.3384237863359
 21
293.3226141257508
 31
0.0
  0
LINE
  5
3D3
330
2
100
AcDbEntity
  8
4
100
AcDbLine
 10
1192.625111239742
 20
120.7074786926794
 30
0.0
 11
1216.638503192574
 21
192.7476545511751
 31
0.0
  0
LINE
  5
3D4
330
2
100
AcDbEntity
  8
4
100
AcDbLine
 10
1194.733296346521
 20
120.7074786926794
 30
0.0
 11
1218.938341490879
 21
193.3226141257512
 31
0.0
  0
LINE
  5
3D5
330
2
100
AcDbEntity
  8
4
100
AcDbLine
 10
1227.038585490878
 20
87.32261412575099
 30
0.0
 11
1177.038585490878
 21
127.518694125751
 31
0.0
  0
ARC
  5
3D6
330
2
100
AcDbEntity
  8
4
100
AcDbCircle
 10
1188.038585490878
 20
99.32261412575099
 30
0.0
 40
12.0
100
AcDbArc
 50
180.0
 51
270.0011650000001
  0
LINE
  5
3D7
330
2
100
AcDbEntity
  8
L-CENTER
 48
8.0
100
AcDbLine
 10
1205.038585490878
 20
102.322614125751
 30
0.0
 11
1205.038585490878
 21
35.32261412575099
 31
0.0
  0
LINE
  5
3D8
330
2
100
AcDbEntity
  8
L-CENTER
 48
8.0
100
AcDbLine
 10
1168.426138769787
 20
110.8925241164559
 30
0.0
 11
1203.706463745458
 21
110.8925241164559
 31
0.0
  0
LINE
  5
3D9
330
2
100
AcDbEntity
  8
4
100
AcDbLine
 10
1204.938341490878
 20
145.322614125751
 30
0.0
 11
1202.938341490878
 21
145.322614125751
 31
0.0
  0
ARC
  5
3DA
330
2
100
AcDbEntity
  8
4
100
AcDbCircle
 10
1187.059320193418
 20
110.8925241164559
 30
0.0
 40
13.77916529745958
100
AcDbArc
 50
350.1996414585433
 51
20.86406436392003
  0
LINE
  5
3DB
330
2
100
AcDbEntity
  8
4
100
AcDbLine
 10
1200.838485490878
 20
118.2537400486233
 30
0.0
 11
1200.838485490878
 21
108.385440437911
 31
0.0
  0
ARC
  5
3DC
330
2
100
AcDbEntity
  8
4
100
AcDbCircle
 10
1197.054871561819
 20
118.2537400486233
 30
0.0
 40
3.783613929059507
100
AcDbArc
 50
319.5701031551734
 51
40.42989684482659
  0
LINE
  5
3DD
330
2
100
AcDbEntity
  8
4
100
AcDbLine
 10
1193.838485490878
 20
114.012891637911
 30
0.0
 11
1193.838485490878
 21
120.7074786926794
 31
0.0
  0
LINE
  5
3DE
330
2
100
AcDbEntity
  8
4
100
AcDbLine
 10
1191.338485490878
 20
116.0226956379111
 30
0.0
 11
1191.338485490878
 21
120.7074786926794
 31
0.0
  0
LINE
  5
3DF
330
2
100
AcDbEntity
  8
4
100
AcDbLine
 10
1199.934958545026
 20
115.8000014045676
 30
0.0
 11
1193.838485490878
 21
115.8000014045676
 31
0.0
  0
LINE
  5
3E0
330
2
100
AcDbEntity
  8
4
100
AcDbLine
 10
1191.338485490878
 20
120.7074786926794
 30
0.0
 11
1199.934958545026
 21
120.7074786926794
 31
0.0
  0
LINE
  5
3E1
330
2
100
AcDbEntity
  8
4
100
AcDbLine
 10
1204.938341490878
 20
105.322614125751
 30
0.0
 11
1204.938341490878
 21
145.322614125751
 31
0.0
  0
LINE
  5
3E2
330
2
100
AcDbEntity
  8
4
100
AcDbLine
 10
1191.338485490878
 20
260.1375687019749
 30
0.0
 11
1191.338485490878
 21
240.5076595495275
 31
0.0
  0
LINE
  5
3E3
330
2
100
AcDbEntity
  8
4
100
AcDbLine
 10
1193.838485490878
 20
260.1375687019749
 30
0.0
 11
1193.838485490878
 21
240.5076595495275
 31
0.0
  0
LINE
  5
3E4
330
2
100
AcDbEntity
  8
4
100
AcDbLine
 10
1200.838485490878
 20
242.9613981935836
 30
0.0
 11
1200.838485490878
 21
257.6838300579188
 31
0.0
  0
ARC
  5
3E5
330
2
100
AcDbEntity
  8
4
100
AcDbCircle
 10
1187.059320193418
 20
250.322614125751
 30
0.0
 40
13.77916529745958
100
AcDbArc
 50
339.1359356360799
 51
20.86406436392003
  0
LINE
  5
3E6
330
2
100
AcDbEntity
  8
4
100
AcDbLine
 10
1218.938341490878
 20
207.3226141257512
 30
0.0
 11
1218.938341490878
 21
293.3226141257511
 31
0.0
  0
LINE
  5
3E7
330
2
100
AcDbEntity
  8
4
100
AcDbLine
 10
1218.938341490878
 20
207.3226141257511
 30
0.0
 11
1216.638503195421
 21
207.3226141257512
 31
0.0
  0
ARC
  5
3E8
330
2
100
AcDbEntity
  8
4
100
AcDbCircle
 10
1197.054871561819
 20
242.9613981935836
 30
0.0
 40
3.783613929059507
100
AcDbArc
 50
319.5701031551734
 51
40.42989684482659
  0
LINE
  5
3E9
330
2
100
AcDbEntity
  8
4
100
AcDbLine
 10
1191.338485490878
 20
240.5076595495275
 30
0.0
 11
1199.934958545026
 21
240.5076595495275
 31
0.0
  0
LINE
  5
3EA
330
2
100
AcDbEntity
  8
4
100
AcDbLine
 10
1199.934958545026
 20
245.4151368376392
 30
0.0
 11
1193.838485490878
 21
245.4151368376392
 31
0.0
  0
LINE
  5
3EB
330
2
100
AcDbEntity
  8
4
100
AcDbLine
 10
1216.638503212216
 20
207.3226141257509
 30
0.0
 11
1191.338485490878
 21
216.4893350395622
 31
0.0
  0
LINE
  5
3EC
330
2
100
AcDbEntity
  8
4
100
AcDbLine
 10
1218.938341490878
 20
207.3226141257509
 30
0.0
 11
1191.338485490878
 21
217.322614125751
 31
0.0
  0
LINE
  5
3ED
330
2
100
AcDbEntity
  8
4
100
AcDbLine
 10
1216.638503192574
 20
192.7476545511752
 30
0.0
 11
1216.638503195421
 21
207.3226141257513
 31
0.0
  0
LINE
  5
3EE
330
2
100
AcDbEntity
  8
4
100
AcDbLine
 10
1218.938341490878
 20
293.3226141257511
 30
0.0
 11
1216.638503212216
 21
293.3226141257511
 31
0.0
  0
LINE
  5
3EF
330
2
100
AcDbEntity
  8
4
100
AcDbLine
 10
1216.638503212216
 20
293.3226141257512
 30
0.0
 11
1216.638503215063
 21
307.8975736947054
 31
0.0
  0
LINE
  5
3F0
330
2
100
AcDbEntity
  8
4
100
AcDbLine
 10
1218.938341490878
 20
293.3226141257511
 30
0.0
 11
1191.338485490878
 21
283.322614125751
 31
0.0
  0
LINE
  5
3F1
330
2
100
AcDbEntity
  8
4
100
AcDbLine
 10
1216.638503212216
 20
293.3226141257511
 30
0.0
 11
1191.338485490878
 21
284.1558932119398
 31
0.0
  0
LINE
  5
3F2
330
2
100
AcDbEntity
  8
4
100
AcDbLine
 10
1199.934958545026
 20
255.2300914138632
 30
0.0
 11
1193.838485490878
 21
255.2300914138632
 31
0.0
  0
LINE
  5
3F3
330
2
100
AcDbEntity
  8
4
100
AcDbLine
 10
1199.934958545026
 20
260.1375687019749
 30
0.0
 11
1191.338485490878
 21
260.1375687019749
 31
0.0
  0
ARC
  5
3F4
330
2
100
AcDbEntity
  8
4
100
AcDbCircle
 10
1197.054871561819
 20
257.6838300579188
 30
0.0
 40
3.783613929059507
100
AcDbArc
 50
319.5701031551734
 51
40.42989684482659
  0
ARC
  5
3F7
330
2
100
AcDbEntity
  8
4
100
AcDbCircle
 10
1105.038585490878
 20
99.32261412575099
 30
0.0
 40
400.000032
100
AcDbArc
 50
81.15580100000001
 51
98.84427300000002
  0
CIRCLE
  5
3F8
330
2
100
AcDbEntity
  8
4
100
AcDbCircle
 10
1105.038585490878
 20
425.322614125751
 30
0.0
 40
70.0
  0
LINE
  5
3F9
330
2
100
AcDbEntity
  8
L-CENTER
 48
8.0
100
AcDbLine
 10
1184.078197809227
 20
425.322614125751
 30
0.0
 11
1025.998973172529
 21
425.322614125751
 31
0.0
  0
LINE
  5
3FA
330
2
100
AcDbEntity
  8
4
100
AcDbLine
 10
1034.217943731052
 20
487.6805016361922
 30
0.0
 11
1029.724074033004
 21
441.9005372943867
 31
0.0
  0
ARC
  5
3FB
330
2
100
AcDbEntity
  8
4
100
AcDbCircle
 10
1434.038585490878
 20
425.322614125751
 30
0.0
 40
400.000064
100
AcDbArc
 50
170.631452
 51
180.0003849998515
  0
ARC
  5
3FF
330
2
100
AcDbEntity
  8
4
100
AcDbCircle
 10
1031.714507265257
 20
441.7051516553412
 30
0.0
 40
2.0
100
AcDbArc
 50
174.3936718254994
 51
264.3936718254993
  0
LINE
  5
400
330
2
100
AcDbEntity
  8
4
100
AcDbLine
 10
1034.287828491685
 20
439.4429356014023
 30
0.0
 11
1031.519121626211
 21
439.7147184230888
 31
0.0
  0
LINE
  5
401
330
2
100
AcDbEntity
  8
4
100
AcDbLine
 10
1021.038585490878
 20
422.322614125751
 30
0.0
 11
1033.038585490878
 21
422.322614125751
 31
0.0
  0
LINE
  5
402
330
2
100
AcDbEntity
  8
4
100
AcDbLine
 10
1033.038585490878
 20
424.322614125751
 30
0.0
 11
1034.038585490878
 21
424.322614125751
 31
0.0
  0
ARC
  5
403
330
2
100
AcDbEntity
  8
4
100
AcDbCircle
 10
1036.208376963305
 20
487.4851159971466
 30
0.0
 40
2.0
100
AcDbArc
 50
84.39367182549938
 51
174.3936718254994
  0
LINE
  5
404
330
2
100
AcDbEntity
  8
4
100
AcDbLine
 10
1039.172469467823
 20
489.2037664077124
 30
0.0
 11
1036.40376260235
 21
489.475549229399
 31
0.0
  0
ARC
  5
405
330
2
100
AcDbEntity
  8
4
100
AcDbCircle
 10
1044.307869490878
 20
489.6260821257511
 30
0.0
 40
4.999968
100
AcDbArc
 50
98.84506100000107
 51
170.6310399999997
  0
CIRCLE
  5
407
330
2
100
AcDbEntity
  8
4
100
AcDbCircle
 10
1105.038585490878
 20
425.322614125751
 30
0.0
 40
47.0
  0
LINE
  5
40A
330
2
100
AcDbEntity
  8
4
100
AcDbLine
 10
1072.092537490878
 20
470.2894101257509
 30
0.0
 11
1065.152109490879
 21
477.229598125751
 31
0.0
  0
LINE
  5
40B
330
2
100
AcDbEntity
  8
L-CENTER
 48
8.0
100
AcDbLine
 10
1074.353739748492
 20
456.0074598681372
 30
0.0
 11
1050.870617490878
 21
479.490582125751
 31
0.0
  0
CIRCLE
  5
40C
330
2
100
AcDbEntity
  8
4
100
AcDbCircle
 10
1062.612069490879
 20
467.749130125751
 30
0.0
 40
8.5
  0
LINE
  5
40D
330
2
100
AcDbEntity
  8
4
100
AcDbLine
 10
1055.671885490879
 20
474.689314125751
 30
0.0
 11
1053.131357490878
 21
465.208602125751
 31
0.0
  0
LINE
  5
40E
330
2
100
AcDbEntity
  8
4
100
AcDbLine
 10
1137.984629490878
 20
470.2894101257509
 30
0.0
 11
1144.925057490878
 21
477.229598125751
 31
0.0
  0
CIRCLE
  5
40F
330
2
100
AcDbEntity
  8
4
100
AcDbCircle
 10
1147.465097490878
 20
467.749130125751
 30
0.0
 40
8.5
  0
LINE
  5
410
330
2
100
AcDbEntity
  8
L-CENTER
 48
8.0
100
AcDbLine
 10
1135.723429233264
 20
456.0074618681368
 30
0.0
 11
1159.206551490878
 21
479.4905841257507
 31
0.0
  0
LINE
  5
411
330
2
100
AcDbEntity
  8
4
100
AcDbLine
 10
1154.405285490879
 20
474.689314125751
 30
0.0
 11
1156.945809490879
 21
465.208602125751
 31
0.0
  0
ARC
  5
412
330
2
100
AcDbEntity
  8
4
100
AcDbCircle
 10
776.0385854908782
 20
425.322614125751
 30
0.0
 40
400.00002
100
AcDbArc
 50
0.0
 51
9.369116999999983
  0
LINE
  5
414
330
2
100
AcDbEntity
  8
4
100
AcDbLine
 10
1137.984629490878
 20
470.2894101257509
 30
0.0
 11
1140.524913490878
 21
460.8089421257509
 31
0.0
  0
CIRCLE
  5
415
330
2
100
AcDbEntity
  8
4
100
AcDbCircle
 10
1147.465097490878
 20
382.896102125751
 30
0.0
 40
8.5
  0
LINE
  5
416
330
2
100
AcDbEntity
  8
L-CENTER
 48
8.0
100
AcDbLine
 10
1159.206553490878
 20
371.154646125751
 30
0.0
 11
1135.723431233264
 21
394.6377683833654
 31
0.0
  0
LINE
  5
417
330
2
100
AcDbEntity
  8
4
100
AcDbLine
 10
1137.984629490878
 20
380.3558181257511
 30
0.0
 11
1140.524913490878
 21
389.836286125751
 31
0.0
  0
LINE
  5
418
330
2
100
AcDbEntity
  8
4
100
AcDbLine
 10
1137.984629490878
 20
380.3558181257511
 30
0.0
 11
1144.925057490878
 21
373.415634125751
 31
0.0
  0
LINE
  5
41A
330
2
100
AcDbEntity
  8
4
100
AcDbLine
 10
1072.092537490878
 20
380.3558181257511
 30
0.0
 11
1069.552257490878
 21
389.836286125751
 31
0.0
  0
LINE
  5
41B
330
2
100
AcDbEntity
  8
4
100
AcDbLine
 10
1055.671885490879
 20
375.955914125751
 30
0.0
 11
1053.131357490878
 21
385.436630125751
 31
0.0
  0
LINE
  5
41C
330
2
100
AcDbEntity
  8
4
100
AcDbLine
 10
1060.071785490878
 20
392.376814125751
 30
0.0
 11
1053.131357490878
 21
385.436630125751
 31
0.0
  0
LINE
  5
41D
330
2
100
AcDbEntity
  8
4
100
AcDbLine
 10
1065.152109490879
 20
373.415634125751
 30
0.0
 11
1055.671885490879
 21
375.955914125751
 31
0.0
  0
LINE
  5
41E
330
2
100
AcDbEntity
  8
L-CENTER
 48
8.0
100
AcDbLine
 10
1050.870617490878
 20
371.154646125751
 30
0.0
 11
1074.353737597984
 21
394.6377705338737
 31
0.0
  0
LINE
  5
41F
330
2
100
AcDbEntity
  8
4
100
AcDbLine
 10
1069.552257490878
 20
389.836286125751
 30
0.0
 11
1060.071785490878
 21
392.376814125751
 31
0.0
  0
LINE
  5
420
330
2
100
AcDbEntity
  8
4
100
AcDbLine
 10
1072.092537490878
 20
380.3558181257511
 30
0.0
 11
1065.152109490879
 21
373.415634125751
 31
0.0
  0
CIRCLE
  5
421
330
2
100
AcDbEntity
  8
4
100
AcDbCircle
 10
1062.612069490879
 20
382.896102125751
 30
0.0
 40
8.5
  0
LINE
  5
422
330
2
100
AcDbEntity
  8
4
100
AcDbLine
 10
1072.092537490878
 20
470.2894101257509
 30
0.0
 11
1069.552257490878
 21
460.8089421257509
 31
0.0
  0
LINE
  5
423
330
2
100
AcDbEntity
  8
4
100
AcDbLine
 10
1060.071785490878
 20
458.268414125751
 30
0.0
 11
1053.131357490878
 21
465.208602125751
 31
0.0
  0
LINE
  5
424
330
2
100
AcDbEntity
  8
4
100
AcDbLine
 10
1069.552257490878
 20
460.8089421257509
 30
0.0
 11
1060.071785490878
 21
458.268414125751
 31
0.0
  0
LINE
  5
425
330
2
100
AcDbEntity
  8
4
100
AcDbLine
 10
1200.838485490878
 20
382.3914882028787
 30
0.0
 11
1200.838485490878
 21
397.1139200672139
 31
0.0
  0
ARC
  5
426
330
2
100
AcDbEntity
  8
4
100
AcDbCircle
 10
1197.054871561819
 20
397.1139200672139
 30
0.0
 40
3.783613929059507
100
AcDbArc
 50
319.5701031551734
 51
40.42989684482659
  0
LINE
  5
427
330
2
100
AcDbEntity
  8
4
100
AcDbLine
 10
1191.338485490878
 20
399.56765871127
 30
0.0
 11
1191.338485490878
 21
379.9377495588226
 31
0.0
  0
LINE
  5
428
330
2
100
AcDbEntity
  8
4
100
AcDbLine
 10
1193.838485490878
 20
399.56765871127
 30
0.0
 11
1193.838485490878
 21
379.9377495588226
 31
0.0
  0
LINE
  5
429
330
2
100
AcDbEntity
  8
L-CENTER
 48
8.0
100
AcDbLine
 10
1168.426138769787
 20
389.7527041350461
 30
0.0
 11
1203.706463745458
 21
389.7527041350461
 31
0.0
  0
LINE
  5
42A
330
2
100
AcDbEntity
  8
4
100
AcDbLine
 10
1140.524913490878
 20
389.836286125751
 30
0.0
 11
1150.005381490878
 21
392.376814125751
 31
0.0
  0
LINE
  5
42B
330
2
100
AcDbEntity
  8
4
100
AcDbLine
 10
1150.005381490878
 20
392.376814125751
 30
0.0
 11
1156.945809490879
 21
385.436630125751
 31
0.0
  0
LINE
  5
42C
330
2
100
AcDbEntity
  8
4
100
AcDbLine
 10
1154.405285490879
 20
375.955914125751
 30
0.0
 11
1156.945809490879
 21
385.436630125751
 31
0.0
  0
LINE
  5
42D
330
2
100
AcDbEntity
  8
4
100
AcDbLine
 10
1144.925057490878
 20
373.415634125751
 30
0.0
 11
1154.405285490879
 21
375.955914125751
 31
0.0
  0
LINE
  5
42E
330
2
100
AcDbEntity
  8
4
100
AcDbLine
 10
1199.934958545026
 20
394.6601814231583
 30
0.0
 11
1193.838485490878
 21
394.6601814231583
 31
0.0
  0
LINE
  5
42F
330
2
100
AcDbEntity
  8
4
100
AcDbLine
 10
1191.338485490878
 20
379.9377495588226
 30
0.0
 11
1199.934958545026
 21
379.9377495588226
 31
0.0
  0
LINE
  5
430
330
2
100
AcDbEntity
  8
4
100
AcDbLine
 10
1199.934958545026
 20
384.8452268469343
 30
0.0
 11
1193.838485490878
 21
384.8452268469343
 31
0.0
  0
ARC
  5
431
330
2
100
AcDbEntity
  8
4
100
AcDbCircle
 10
1187.059320193418
 20
389.7527041350461
 30
0.0
 40
13.77916529745958
100
AcDbArc
 50
339.1359356360799
 51
20.86406436392003
  0
ARC
  5
432
330
2
100
AcDbEntity
  8
4
100
AcDbCircle
 10
1197.054871561819
 20
382.3914882028787
 30
0.0
 40
3.783613929059507
100
AcDbArc
 50
319.5701031551734
 51
40.42989684482659
  0
LINE
  5
433
330
2
100
AcDbEntity
  8
4
100
AcDbLine
 10
1204.938341490878
 20
395.322614125751
 30
0.0
 11
1200.838485490878
 21
395.322614125751
 31
0.0
  0
LINE
  5
434
330
2
100
AcDbEntity
  8
4
100
AcDbLine
 10
1204.938341490878
 20
355.322614125751
 30
0.0
 11
1202.938342310401
 21
355.3226141257509
 31
0.0
  0
LINE
  5
435
330
2
100
AcDbEntity
  8
4
100
AcDbLine
 10
1204.938341490878
 20
395.322614125751
 30
0.0
 11
1204.938341490878
 21
355.322614125751
 31
0.0
  0
LINE
  5
436
330
2
100
AcDbEntity
  8
4
100
AcDbLine
 10
1191.338485490878
 20
422.322614125751
 30
0.0
 11
1177.038585490878
 21
422.322614125751
 31
0.0
  0
LINE
  5
437
330
2
100
AcDbEntity
  8
4
100
AcDbLine
 10
1140.524913490878
 20
460.8089421257509
 30
0.0
 11
1150.005381490878
 21
458.268414125751
 31
0.0
  0
LINE
  5
438
330
2
100
AcDbEntity
  8
4
100
AcDbLine
 10
1150.005381490878
 20
458.268414125751
 30
0.0
 11
1156.945809490879
 21
465.208602125751
 31
0.0
  0
LINE
  5
439
330
2
100
AcDbEntity
  8
4
100
AcDbLine
 10
1176.038585490878
 20
424.322614125751
 30
0.0
 11
1177.038585490878
 21
424.322614125751
 31
0.0
  0
LINE
  5
43A
330
2
100
AcDbEntity
  8
4
100
AcDbLine
 10
1199.934958545026
 20
399.56765871127
 30
0.0
 11
1191.338485490878
 21
399.56765871127
 31
0.0
  0
LINE
  5
43B
330
2
100
AcDbEntity
  8
4
100
AcDbLine
 10
1110.038585490878
 20
521.322614125751
 30
0.0
 11
1110.038585490878
 21
561.322614125751
 31
0.0
  0
LINE
  5
43C
330
2
100
AcDbEntity
  8
4
100
AcDbLine
 10
1100.038585490878
 20
521.322614125751
 30
0.0
 11
1100.038585490878
 21
561.322614125751
 31
0.0
  0
LINE
  5
43D
330
2
100
AcDbEntity
  8
4
100
AcDbLine
 10
1092.538585490878
 20
524.3226141257511
 30
0.0
 11
1100.038585490878
 21
524.322614125751
 31
0.0
  0
LINE
  5
43E
330
2
100
AcDbEntity
  8
4
100
AcDbLine
 10
1100.038585490878
 20
525.5223261257505
 30
0.0
 11
1092.538585490878
 21
524.322614125751
 31
0.0
  0
LINE
  5
43F
330
2
100
AcDbEntity
  8
4
100
AcDbLine
 10
1096.038585490878
 20
521.322614125751
 30
0.0
 11
1094.038585490878
 21
520.322614125751
 31
0.0
  0
LINE
  5
440
330
2
100
AcDbEntity
  8
4
100
AcDbLine
 10
1085.038585490878
 20
515.322614125751
 30
0.0
 11
1095.038585490878
 21
515.322614125751
 31
0.0
  0
LINE
  5
441
330
2
100
AcDbEntity
  8
4
100
AcDbLine
 10
1105.038585490878
 20
518.322614125751
 30
0.0
 11
1094.038585490878
 21
518.322614125751
 31
0.0
  0
LINE
  5
442
330
2
100
AcDbEntity
  8
4
100
AcDbLine
 10
1094.038585490878
 20
520.322614125751
 30
0.0
 11
1105.038585490878
 21
520.322614125751
 31
0.0
  0
LINE
  5
443
330
2
100
AcDbEntity
  8
4
100
AcDbLine
 10
1065.152109490879
 20
477.229598125751
 30
0.0
 11
1055.671885490879
 21
474.689314125751
 31
0.0
  0
LINE
  5
444
330
2
100
AcDbEntity
  8
4
100
AcDbLine
 10
1092.538585490878
 20
515.322614125751
 30
0.0
 11
1092.538585490878
 21
524.322614125751
 31
0.0
  0
LINE
  5
445
330
2
100
AcDbEntity
  8
4
100
AcDbLine
 10
1094.038585490878
 20
520.322614125751
 30
0.0
 11
1094.038585490878
 21
518.322614125751
 31
0.0
  0
LINE
  5
446
330
2
100
AcDbEntity
  8
4
100
AcDbLine
 10
1082.038585490878
 20
504.322614125751
 30
0.0
 11
1082.038585490878
 21
508.322614125751
 31
0.0
  0
LINE
  5
447
330
2
100
AcDbEntity
  8
4
100
AcDbLine
 10
1083.038585490878
 20
502.322614125751
 30
0.0
 11
1083.038585490878
 21
504.322614125751
 31
0.0
  0
LINE
  5
448
330
2
100
AcDbEntity
  8
4
100
AcDbLine
 10
1085.038585490878
 20
498.8223701257509
 30
0.0
 11
1085.038585490878
 21
515.322614125751
 31
0.0
  0
LINE
  5
449
330
2
100
AcDbEntity
  8
4
100
AcDbLine
 10
1080.038585490878
 20
498.540634125751
 30
0.0
 11
1080.038585490878
 21
502.322614125751
 31
0.0
  0
LINE
  5
44A
330
2
100
AcDbEntity
  8
4
100
AcDbLine
 10
1083.038585490878
 20
502.322614125751
 30
0.0
 11
1085.038585490878
 21
502.3226141257511
 31
0.0
  0
LINE
  5
44B
330
2
100
AcDbEntity
  8
4
100
AcDbLine
 10
1080.038585490878
 20
502.322614125751
 30
0.0
 11
1085.038585490878
 21
502.3226141257509
 31
0.0
  0
LINE
  5
44C
330
2
100
AcDbEntity
  8
4
100
AcDbLine
 10
1082.038585490878
 20
504.322614125751
 30
0.0
 11
1085.038585490878
 21
504.3226141257509
 31
0.0
  0
LINE
  5
44D
330
2
100
AcDbEntity
  8
4
100
AcDbLine
 10
1082.038585490878
 20
508.322614125751
 30
0.0
 11
1085.038585490878
 21
508.3226141257509
 31
0.0
  0
LINE
  5
44E
330
2
100
AcDbEntity
  8
4
100
AcDbLine
 10
1110.038585490878
 20
524.322614125751
 30
0.0
 11
1117.538585490878
 21
524.322614125751
 31
0.0
  0
LINE
  5
44F
330
2
100
AcDbEntity
  8
4
100
AcDbLine
 10
1128.038585490878
 20
504.322614125751
 30
0.0
 11
1128.038585490878
 21
508.322614125751
 31
0.0
  0
LINE
  5
450
330
2
100
AcDbEntity
  8
4
100
AcDbLine
 10
1127.038585490878
 20
504.322614125751
 30
0.0
 11
1127.038585490878
 21
502.322614125751
 31
0.0
  0
LINE
  5
451
330
2
100
AcDbEntity
  8
4
100
AcDbLine
 10
1130.038585490878
 20
498.540634125751
 30
0.0
 11
1130.038585490878
 21
502.322614125751
 31
0.0
  0
LINE
  5
452
330
2
100
AcDbEntity
  8
4
100
AcDbLine
 10
1125.038585490878
 20
498.8223701257509
 30
0.0
 11
1125.038585490878
 21
515.3226141257509
 31
0.0
  0
LINE
  5
453
330
2
100
AcDbEntity
  8
4
100
AcDbLine
 10
1117.538585490878
 20
515.322614125751
 30
0.0
 11
1117.538585490878
 21
524.322614125751
 31
0.0
  0
ARC
  5
454
330
2
100
AcDbEntity
  8
4
100
AcDbCircle
 10
1115.038585490878
 20
504.322614125751
 30
0.0
 40
4.0
100
AcDbArc
 50
90.0
 51
180.0
  0
LINE
  5
455
330
2
100
AcDbEntity
  8
4
100
AcDbLine
 10
1111.538585490878
 20
499.322614125751
 30
0.0
 11
1105.038585490878
 21
499.322614125751
 31
0.0
  0
LINE
  5
456
330
2
100
AcDbEntity
  8
4
100
AcDbLine
 10
1109.913585490878
 20
504.322614125751
 30
0.0
 11
1105.038585490878
 21
504.322614125751
 31
0.0
  0
LINE
  5
457
330
2
100
AcDbEntity
  8
4
100
AcDbLine
 10
1111.038585490878
 20
504.322614125751
 30
0.0
 11
1111.038585490878
 21
504.0189021257511
 31
0.0
  0
LINE
  5
458
330
2
100
AcDbEntity
  8
4
100
AcDbLine
 10
1108.288585490878
 20
499.322614125751
 30
0.0
 11
1108.288585490878
 21
503.622418125751
 31
0.0
  0
LINE
  5
459
330
2
100
AcDbEntity
  8
4
100
AcDbLine
 10
1111.538585490878
 20
499.322614125751
 30
0.0
 11
1111.538585490878
 21
503.622418125751
 31
0.0
  0
ARC
  5
45A
330
2
100
AcDbEntity
  8
4
100
AcDbCircle
 10
1109.913585490878
 20
502.0867741257509
 30
0.0
 40
2.235808
100
AcDbArc
 50
43.38061500000116
 51
136.6193849999988
  0
LINE
  5
45B
330
2
100
AcDbEntity
  8
4
100
AcDbLine
 10
1115.038585490878
 20
515.322614125751
 30
0.0
 11
1125.038585490878
 21
515.3226141257509
 31
0.0
  0
LINE
  5
45C
330
2
100
AcDbEntity
  8
4
100
AcDbLine
 10
1115.038585490878
 20
508.322614125751
 30
0.0
 11
1115.038585490878
 21
518.322614125751
 31
0.0
  0
LINE
  5
45D
330
2
100
AcDbEntity
  8
4
100
AcDbLine
 10
1110.038585490878
 20
525.5223261257504
 30
0.0
 11
1117.538585490878
 21
524.322614125751
 31
0.0
  0
LINE
  5
45E
330
2
100
AcDbEntity
  8
4
100
AcDbLine
 10
1114.038585490878
 20
521.322614125751
 30
0.0
 11
1116.038585490878
 21
520.322614125751
 31
0.0
  0
LINE
  5
45F
330
2
100
AcDbEntity
  8
4
100
AcDbLine
 10
1116.038585490878
 20
520.322614125751
 30
0.0
 11
1116.038585490878
 21
518.322614125751
 31
0.0
  0
LINE
  5
460
330
2
100
AcDbEntity
  8
4
100
AcDbLine
 10
1115.038585490878
 20
508.322614125751
 30
0.0
 11
1105.038585490878
 21
508.322614125751
 31
0.0
  0
LINE
  5
461
330
2
100
AcDbEntity
  8
4
100
AcDbLine
 10
1116.038585490878
 20
520.322614125751
 30
0.0
 11
1105.038585490878
 21
520.322614125751
 31
0.0
  0
LINE
  5
462
330
2
100
AcDbEntity
  8
4
100
AcDbLine
 10
1105.038585490878
 20
518.322614125751
 30
0.0
 11
1116.038585490878
 21
518.322614125751
 31
0.0
  0
LINE
  5
463
330
2
100
AcDbEntity
  8
4
100
AcDbLine
 10
1125.038585490878
 20
504.322614125751
 30
0.0
 11
1128.038585490878
 21
504.322614125751
 31
0.0
  0
LINE
  5
464
330
2
100
AcDbEntity
  8
4
100
AcDbLine
 10
1125.038585490878
 20
502.3226141257511
 30
0.0
 11
1127.038585490878
 21
502.322614125751
 31
0.0
  0
LINE
  5
465
330
2
100
AcDbEntity
  8
4
100
AcDbLine
 10
1125.038585490878
 20
502.3226141257511
 30
0.0
 11
1127.038585490878
 21
502.322614125751
 31
0.0
  0
LINE
  5
466
330
2
100
AcDbEntity
  8
4
100
AcDbLine
 10
1125.038585490878
 20
502.3226141257509
 30
0.0
 11
1130.038585490878
 21
502.322614125751
 31
0.0
  0
LINE
  5
467
330
2
100
AcDbEntity
  8
4
100
AcDbLine
 10
1125.038585490878
 20
508.322614125751
 30
0.0
 11
1128.038585490878
 21
508.322614125751
 31
0.0
  0
ARC
  5
468
330
2
100
AcDbEntity
  8
4
100
AcDbCircle
 10
1095.038585490878
 20
504.322614125751
 30
0.0
 40
4.0
100
AcDbArc
 50
0.0
 51
90.0
  0
ARC
  5
469
330
2
100
AcDbEntity
  8
4
100
AcDbCircle
 10
1100.163585490878
 20
502.0867741257509
 30
0.0
 40
2.235808
100
AcDbArc
 50
43.38061500000116
 51
136.6193849999988
  0
LINE
  5
46A
330
2
100
AcDbEntity
  8
4
100
AcDbLine
 10
1098.538585490878
 20
499.322614125751
 30
0.0
 11
1098.538585490878
 21
503.622418125751
 31
0.0
  0
LINE
  5
46B
330
2
100
AcDbEntity
  8
4
100
AcDbLine
 10
1101.788585490878
 20
499.322614125751
 30
0.0
 11
1101.788585490878
 21
503.622418125751
 31
0.0
  0
LINE
  5
46C
330
2
100
AcDbEntity
  8
4
100
AcDbLine
 10
1099.038585490878
 20
504.322614125751
 30
0.0
 11
1099.038585490878
 21
504.0189021257511
 31
0.0
  0
LINE
  5
46D
330
2
100
AcDbEntity
  8
4
100
AcDbLine
 10
1095.038585490878
 20
508.322614125751
 30
0.0
 11
1095.038585490878
 21
518.322614125751
 31
0.0
  0
ARC
  5
46E
330
2
100
AcDbEntity
  8
4
100
AcDbCircle
 10
1105.038585490878
 20
496.4310141257511
 30
0.0
 40
7.891472
100
AcDbArc
 50
65.6797129999998
 51
114.3202870000002
  0
LINE
  5
46F
330
2
100
AcDbEntity
  8
4
100
AcDbLine
 10
1100.163585490878
 20
504.322614125751
 30
0.0
 11
1105.038585490878
 21
504.322614125751
 31
0.0
  0
LINE
  5
470
330
2
100
AcDbEntity
  8
4
100
AcDbLine
 10
1098.538585490878
 20
499.322614125751
 30
0.0
 11
1105.038585490878
 21
499.322614125751
 31
0.0
  0
LINE
  5
471
330
2
100
AcDbEntity
  8
4
100
AcDbLine
 10
1095.038585490878
 20
508.322614125751
 30
0.0
 11
1105.038585490878
 21
508.322614125751
 31
0.0
  0
LINE
  5
472
330
2
100
AcDbEntity
  8
L-CENTER
 48
4.0
100
AcDbLine
 10
1112.864757490878
 20
541.322614125751
 30
0.0
 11
1095.882089490879
 21
541.322614125751
 31
0.0
  0
LINE
  5
473
330
2
100
AcDbEntity
  8
4
100
AcDbLine
 10
1114.038585490878
 20
521.322614125751
 30
0.0
 11
1096.038585490878
 21
521.322614125751
 31
0.0
  0
ARC
  5
478
330
2
100
AcDbEntity
  8
4
100
AcDbCircle
 10
1105.038585490878
 20
561.322614125751
 30
0.0
 40
5.0
100
AcDbArc
 50
0.0
 51
180.0
  0
LINE
  5
47B
330
2
100
AcDbEntity
  8
4
100
AcDbLine
 10
1144.925057490878
 20
477.229598125751
 30
0.0
 11
1154.405285490879
 21
474.689314125751
 31
0.0
  0
ARC
  5
47C
330
2
100
AcDbEntity
  8
4
100
AcDbCircle
 10
1165.769297490879
 20
489.6260821257511
 30
0.0
 40
4.999968
100
AcDbArc
 50
9.36895799999972
 51
81.15492800000129
  0
LINE
  5
543
330
2
100
AcDbEntity
  8
4
100
AcDbLine
 10
1230.038585490878
 20
50.32261412575099
 30
0.0
 11
1230.038585490878
 21
84.32261412575099
 31
0.0
  0
LINE
  5
544
330
2
100
AcDbEntity
  8
4
100
AcDbLine
 10
1245.038585490878
 20
279.322614125751
 30
0.0
 11
1344.038585490878
 21
279.322614125751
 31
0.0
  0
LINE
  5
545
330
2
100
AcDbEntity
  8
4
100
AcDbLine
 10
1345.038585490878
 20
284.322614125751
 30
0.0
 11
1255.038585490878
 21
284.322614125751
 31
0.0
  0
LINE
  5
546
330
2
100
AcDbEntity
  8
4
100
AcDbLine
 10
1245.038585490878
 20
221.322614125751
 30
0.0
 11
1344.038585490878
 21
221.322614125751
 31
0.0
  0
LINE
  5
549
330
2
100
AcDbEntity
  8
4
100
AcDbLine
 10
1245.038585490878
 20
280.322614125751
 30
0.0
 11
1245.038585490878
 21
220.322614125751
 31
0.0
  0
LINE
  5
54A
330
2
100
AcDbEntity
  8
4
100
AcDbLine
 10
1235.938341490878
 20
292.822614125751
 30
0.0
 11
1235.938341490878
 21
207.822614125751
 31
0.0
  0
LINE
  5
54B
330
2
100
AcDbEntity
  8
4
100
AcDbLine
 10
1234.938341490878
 20
303.322614125751
 30
0.0
 11
1234.938341490878
 21
197.322614125751
 31
0.0
  0
LINE
  5
54C
330
2
100
AcDbEntity
  8
4
100
AcDbLine
 10
1235.938341490878
 20
207.822614125751
 30
0.0
 11
1234.938341490878
 21
207.822614125751
 31
0.0
  0
LINE
  5
54D
330
2
100
AcDbEntity
  8
4
100
AcDbLine
 10
1235.938341490878
 20
220.322614125751
 30
0.0
 11
1245.038585490878
 21
220.322614125751
 31
0.0
  0
LINE
  5
54E
330
2
100
AcDbEntity
  8
4
100
AcDbLine
 10
1255.038585490878
 20
284.322614125751
 30
0.0
 11
1255.038585490878
 21
279.322614125751
 31
0.0
  0
LINE
  5
54F
330
2
100
AcDbEntity
  8
4
100
AcDbLine
 10
1235.938341490878
 20
292.822614125751
 30
0.0
 11
1234.938341490878
 21
292.822614125751
 31
0.0
  0
LINE
  5
550
330
2
100
AcDbEntity
  8
4
100
AcDbLine
 10
1245.038585490878
 20
280.322614125751
 30
0.0
 11
1235.938341490878
 21
280.322614125751
 31
0.0
  0
LINE
  5
551
330
2
100
AcDbEntity
  8
4
100
AcDbLine
 10
1344.038585490878
 20
279.322614125751
 30
0.0
 11
1344.038585490878
 21
221.322614125751
 31
0.0
  0
LINE
  5
552
330
2
100
AcDbEntity
  8
4
100
AcDbLine
 10
1345.038585490878
 20
284.322614125751
 30
0.0
 11
1345.038585490878
 21
222.322614125751
 31
0.0
  0
LINE
  5
554
330
2
100
AcDbEntity
  8
4
100
AcDbLine
 10
1344.038585490878
 20
221.322614125751
 30
0.0
 11
1345.038585490878
 21
222.322614125751
 31
0.0
  0
LINE
  5
555
330
2
100
AcDbEntity
  8
4
100
AcDbLine
 10
1345.038585490878
 20
278.322614125751
 30
0.0
 11
1344.038585490878
 21
279.322614125751
 31
0.0
  0
ARC
  5
A10
330
2
100
AcDbEntity
  8
4
100
AcDbCircle
 10
672.8242318942589
 20
1040.81894400978
 30
0.0
 40
8.0
100
AcDbArc
 50
0.0
 51
90.0
  0
LINE
  5
A11
330
2
100
AcDbEntity
  8
L-CENTER
 48
8.0
100
AcDbLine
 10
679.967543894259
 20
881.3924320097801
 30
0.0
 11
657.7457158942589
 21
881.3924320097801
 31
0.0
  0
LINE
  5
A12
330
2
100
AcDbEntity
  8
L-CENTER
 48
8.0
100
AcDbLine
 10
679.9676438942593
 20
966.2454600097801
 30
0.0
 11
657.7458158942591
 21
966.2454600097801
 31
0.0
  0
LINE
  5
A13
330
2
100
AcDbEntity
  8
L-CENTER
 48
8.0
100
AcDbLine
 10
688.5913822375974
 20
923.8189440097801
 30
0.0
 11
191.2597941677627
 21
923.8189440097801
 31
0.0
  0
ARC
  5
A14
330
2
100
AcDbEntity
  8
4
100
AcDbCircle
 10
672.8242318942589
 20
806.8189440097797
 30
0.0
 40
8.0
100
AcDbArc
 50
270.0
 51
0.0
  0
LINE
  5
A15
330
2
100
AcDbEntity
  8
4
100
AcDbLine
 10
648.8242318942589
 20
852.8189440097806
 30
0.0
 11
648.8242318942589
 21
994.8189440097806
 31
0.0
  0
LINE
  5
A16
330
2
100
AcDbEntity
  8
4
100
AcDbLine
 10
653.8242318942589
 20
853.8189440097801
 30
0.0
 11
653.8242318942589
 21
993.8189440097806
 31
0.0
  0
LINE
  5
A17
330
2
100
AcDbEntity
  8
4
100
AcDbLine
 10
665.6242318942591
 20
853.8189440097801
 30
0.0
 11
665.6242318942591
 21
993.8189440097806
 31
0.0
  0
LINE
  5
A18
330
2
100
AcDbEntity
  8
L-CENTER
 48
8.0
100
AcDbLine
 10
382.8242318942589
 20
892.2369509450843
 30
0.0
 11
382.8242318942589
 21
955.4867407765503
 31
0.0
  0
LINE
  5
A19
330
2
100
AcDbEntity
  8
4
100
AcDbLine
 10
307.8242318942594
 20
853.8189440097801
 30
0.0
 11
307.8242318942589
 21
993.8189440097801
 31
0.0
  0
LINE
  5
A1A
330
2
100
AcDbEntity
  8
4
100
AcDbLine
 10
312.8242318942589
 20
852.8189440097797
 30
0.0
 11
312.8242318942589
 21
994.8189440097801
 31
0.0
  0
LINE
  5
A1B
330
2
100
AcDbEntity
  8
4
100
AcDbLine
 10
295.0242318942587
 20
954.8189440097801
 30
0.0
 11
295.0242318942587
 21
892.8189440097801
 31
0.0
  0
LINE
  5
A1C
330
2
100
AcDbEntity
  8
4
100
AcDbLine
 10
296.0242318942596
 20
853.8189440097806
 30
0.0
 11
296.0242318942587
 21
993.8189440097806
 31
0.0
  0
LINE
  5
A1D
330
2
100
AcDbEntity
  8
4
100
AcDbLine
 10
280.8242318942589
 20
806.8189440097801
 30
0.0
 11
280.8242318942589
 21
1040.81894400978
 31
0.0
  0
LINE
  5
A1E
330
2
100
AcDbEntity
  8
L-CENTER
 48
8.0
100
AcDbLine
 10
480.8242318942589
 20
785.4168111368915
 30
0.0
 11
480.8242318942589
 21
1170.416382980786
 31
0.0
  0
LINE
  5
A1F
330
2
100
AcDbEntity
  8
4
100
AcDbLine
 10
312.8242318942589
 20
852.8189440097797
 30
0.0
 11
648.8242318942589
 21
852.8189440097806
 31
0.0
  0
LINE
  5
A20
330
2
100
AcDbEntity
  8
4
100
AcDbLine
 10
306.8242318942589
 20
851.8189440097797
 30
0.0
 11
531.8242318937619
 21
851.8189440097801
 31
0.0
  0
LINE
  5
A21
330
2
100
AcDbEntity
  8
4
100
AcDbLine
 10
308.8242318942589
 20
839.8189440097797
 30
0.0
 11
652.8242318942589
 21
839.8189440097806
 31
0.0
  0
LINE
  5
A22
330
2
100
AcDbEntity
  8
L-CENTER
 48
8.0
100
AcDbLine
 10
284.1974158429389
 20
823.8189440097801
 30
0.0
 11
327.4510479455789
 21
823.8189440097801
 31
0.0
  0
LINE
  5
A23
330
2
100
AcDbEntity
  8
4
100
AcDbLine
 10
288.8242318942589
 20
798.8189440097801
 30
0.0
 11
337.8242318942589
 21
798.8189440097801
 31
0.0
  0
CIRCLE
  5
A24
330
2
100
AcDbEntity
  8
4
100
AcDbCircle
 10
305.8242318942589
 20
823.8189440097801
 30
0.0
 40
10.0
  0
LINE
  5
A25
330
2
100
AcDbEntity
  8
L-CENTER
 48
8.0
100
AcDbLine
 10
305.8242318942589
 20
802.1921279584601
 30
0.0
 11
305.8242318942589
 21
845.4457600611001
 31
0.0
  0
ARC
  5
A26
330
2
100
AcDbEntity
  8
4
100
AcDbCircle
 10
288.8242318942589
 20
806.8189440097801
 30
0.0
 40
8.0
100
AcDbArc
 50
180.0
 51
270.0
  0
LINE
  5
A27
330
2
100
AcDbEntity
  8
4
100
AcDbLine
 10
306.8242318942589
 20
851.8189440097797
 30
0.0
 11
306.8242318942589
 21
853.8189440097806
 31
0.0
  0
LINE
  5
A28
330
2
100
AcDbEntity
  8
4
100
AcDbLine
 10
308.8242318942589
 20
839.8189440097797
 30
0.0
 11
308.8242318942589
 21
851.8189440097797
 31
0.0
  0
LINE
  5
A29
330
2
100
AcDbEntity
  8
4
100
AcDbLine
 10
293.5242318942592
 20
886.29990000978
 30
0.0
 11
287.4192518942591
 21
886.29990000978
 31
0.0
  0
LINE
  5
A2A
330
2
100
AcDbEntity
  8
4
100
AcDbLine
 10
287.4192518942591
 20
891.1924800097802
 30
0.0
 11
293.5242318942592
 21
891.1924800097802
 31
0.0
  0
LINE
  5
A2B
330
2
100
AcDbEntity
  8
4
100
AcDbLine
 10
293.5242318942592
 20
876.4849600097803
 30
0.0
 11
287.4192518942591
 21
876.4849600097803
 31
0.0
  0
LINE
  5
A2C
330
2
100
AcDbEntity
  8
4
100
AcDbLine
 10
287.4192518942591
 20
871.5923840097801
 30
0.0
 11
293.5242318942592
 21
871.5923840097801
 31
0.0
  0
LINE
  5
A2D
330
2
100
AcDbEntity
  8
4
100
AcDbLine
 10
296.0242318942592
 20
890.5923840097801
 30
0.0
 11
296.0242318942592
 21
872.1924800097802
 31
0.0
  0
LINE
  5
A2E
330
2
100
AcDbEntity
  8
4
100
AcDbLine
 10
293.5242318942592
 20
891.1924800097802
 30
0.0
 11
293.5242318942592
 21
871.5923840097801
 31
0.0
  0
LINE
  5
A2F
330
2
100
AcDbEntity
  8
4
100
AcDbLine
 10
296.0242318942592
 20
872.1924800097802
 30
0.0
 11
293.5242318942592
 21
872.1924800097802
 31
0.0
  0
LINE
  5
A30
330
2
100
AcDbEntity
  8
4
100
AcDbLine
 10
293.5242318942592
 20
890.5923840097801
 30
0.0
 11
296.0242318942592
 21
890.5923840097801
 31
0.0
  0
LINE
  5
A31
330
2
100
AcDbEntity
  8
4
100
AcDbLine
 10
296.0242318942587
 20
892.8189440097801
 30
0.0
 11
295.0242318942587
 21
892.8189440097801
 31
0.0
  0
LINE
  5
A32
330
2
100
AcDbEntity
  8
4
100
AcDbLine
 10
286.5242318942592
 20
888.7461920097801
 30
0.0
 11
286.5242318942592
 21
874.0386720097802
 31
0.0
  0
LINE
  5
A33
330
2
100
AcDbEntity
  8
L-CENTER
 48
8.0
100
AcDbLine
 10
281.7808238942594
 20
881.3924320097801
 30
0.0
 11
303.9026518942592
 21
881.3924320097801
 31
0.0
  0
ARC
  5
A34
330
2
100
AcDbEntity
  8
4
100
AcDbCircle
 10
290.3152478942593
 20
888.7461920097801
 30
0.0
 40
3.790928
100
AcDbArc
 50
139.8117439999993
 51
220.1882560000007
  0
ARC
  5
A35
330
2
100
AcDbEntity
  8
4
100
AcDbCircle
 10
300.4277958942589
 20
881.3924320097801
 30
0.0
 40
13.90362
100
AcDbArc
 50
159.3313819999991
 51
200.6676740000003
  0
ARC
  5
A36
330
2
100
AcDbEntity
  8
4
100
AcDbCircle
 10
290.3152478942593
 20
874.0386720097802
 30
0.0
 40
3.79102
100
AcDbArc
 50
139.8117440000003
 51
220.1858760000027
  0
LINE
  5
A37
330
2
100
AcDbEntity
  8
4
100
AcDbLine
 10
312.8242318942589
 20
853.8189440097797
 30
0.0
 11
296.0242318942596
 21
853.8189440097806
 31
0.0
  0
LINE
  5
A38
330
2
100
AcDbEntity
  8
4
100
AcDbLine
 10
427.8242318942589
 20
793.8189440097797
 30
0.0
 11
533.8242318942589
 21
793.8189440097806
 31
0.0
  0
LINE
  5
A39
330
2
100
AcDbEntity
  8
4
100
AcDbLine
 10
437.8242318942589
 20
809.8189440097801
 30
0.0
 11
523.8242318942589
 21
809.8189440097801
 31
0.0
  0
LINE
  5
A3A
330
2
100
AcDbEntity
  8
4
100
AcDbLine
 10
333.8242318942589
 20
839.8189440097801
 30
0.0
 11
423.8242318942589
 21
809.8189440097797
 31
0.0
  0
LINE
  5
A3B
330
2
100
AcDbEntity
  8
4
100
AcDbLine
 10
340.1487872145954
 20
839.8189440097801
 30
0.0
 11
423.2492723196829
 21
812.1187823080843
 31
0.0
  0
LINE
  5
A3C
330
2
100
AcDbEntity
  8
4
100
AcDbLine
 10
345.8242318942589
 20
806.8189440097801
 30
0.0
 11
345.8242318942589
 21
835.8189440097801
 31
0.0
  0
ARC
  5
A3D
330
2
100
AcDbEntity
  8
4
100
AcDbCircle
 10
337.8242318942589
 20
806.8189440097801
 30
0.0
 40
8.0
100
AcDbArc
 50
270.0
 51
0.0
  0
LINE
  5
A3E
330
2
100
AcDbEntity
  8
4
100
AcDbLine
 10
437.8242318942589
 20
812.1187822884424
 30
0.0
 11
447.057619134705
 21
839.8189440097797
 31
0.0
  0
LINE
  5
A3F
330
2
100
AcDbEntity
  8
4
100
AcDbLine
 10
437.8242318942589
 20
809.8189440097801
 30
0.0
 11
447.8242318942589
 21
839.8189440097797
 31
0.0
  0
LINE
  5
A40
330
2
100
AcDbEntity
  8
4
100
AcDbLine
 10
437.8242318942589
 20
809.8189440097801
 30
0.0
 11
437.8242318942589
 21
812.118782305238
 31
0.0
  0
LINE
  5
A41
330
2
100
AcDbEntity
  8
4
100
AcDbLine
 10
423.2492723196829
 20
812.1187823080843
 30
0.0
 11
437.8242318942589
 21
812.118782305238
 31
0.0
  0
LINE
  5
A42
330
2
100
AcDbEntity
  8
4
100
AcDbLine
 10
427.8242318942589
 20
793.8189440097801
 30
0.0
 11
423.2492723196829
 21
812.1187823080838
 31
0.0
  0
LINE
  5
A43
330
2
100
AcDbEntity
  8
4
100
AcDbLine
 10
533.8242318937619
 20
848.8189440097801
 30
0.0
 11
636.8242318942584
 21
848.8189440097806
 31
0.0
  0
LINE
  5
A44
330
2
100
AcDbEntity
  8
4
100
AcDbLine
 10
627.8242365040737
 20
839.8189440097806
 30
0.0
 11
537.8242318942594
 21
809.8189440097806
 31
0.0
  0
LINE
  5
A45
330
2
100
AcDbEntity
  8
4
100
AcDbLine
 10
621.4996808921869
 20
839.8189440097806
 30
0.0
 11
538.3991914632134
 21
812.1187822855957
 31
0.0
  0
LINE
  5
A46
330
2
100
AcDbEntity
  8
4
100
AcDbLine
 10
523.8242318942589
 20
812.1187822884424
 30
0.0
 11
514.5908446538128
 21
839.8189440097801
 31
0.0
  0
LINE
  5
A47
330
2
100
AcDbEntity
  8
4
100
AcDbLine
 10
523.8242318942589
 20
809.8189440097801
 30
0.0
 11
513.8242318942594
 21
839.8189440097797
 31
0.0
  0
LINE
  5
A48
330
2
100
AcDbEntity
  8
4
100
AcDbLine
 10
523.8242318942589
 20
809.8189440097801
 30
0.0
 11
523.8242318942589
 21
812.1187822884424
 31
0.0
  0
LINE
  5
A49
330
2
100
AcDbEntity
  8
4
100
AcDbLine
 10
523.8242318942589
 20
812.1187822884424
 30
0.0
 11
538.3991914632134
 21
812.1187822855957
 31
0.0
  0
LINE
  5
A4A
330
2
100
AcDbEntity
  8
4
100
AcDbLine
 10
533.8242318942589
 20
793.8189440097801
 30
0.0
 11
538.3991914632134
 21
812.1187822855957
 31
0.0
  0
LINE
  5
A4B
330
2
100
AcDbEntity
  8
4
100
AcDbLine
 10
531.8242318937619
 20
852.8189440097801
 30
0.0
 11
531.8242318937619
 21
850.8189440097801
 31
0.0
  0
ARC
  5
A4C
330
2
100
AcDbEntity
  8
4
100
AcDbCircle
 10
533.8242318937619
 20
850.8189440097801
 30
0.0
 40
2.0
100
AcDbArc
 50
180.0
 51
270.0
  0
CIRCLE
  5
A4D
330
2
100
AcDbEntity
  8
4
100
AcDbCircle
 10
655.8242318942589
 20
823.8189440097797
 30
0.0
 40
10.0
  0
LINE
  5
A4E
330
2
100
AcDbEntity
  8
4
100
AcDbLine
 10
615.8242318942598
 20
806.8189440097801
 30
0.0
 11
615.8242318942598
 21
835.8189426780566
 31
0.0
  0
LINE
  5
A4F
330
2
100
AcDbEntity
  8
L-CENTER
 48
8.0
100
AcDbLine
 10
655.8242318942589
 20
802.1921279584597
 30
0.0
 11
655.8242318942589
 21
845.4457600610997
 31
0.0
  0
LINE
  5
A50
330
2
100
AcDbEntity
  8
4
100
AcDbLine
 10
623.8242318942598
 20
798.8189440097797
 30
0.0
 11
672.8242318942589
 21
798.8189440097797
 31
0.0
  0
ARC
  5
A51
330
2
100
AcDbEntity
  8
4
100
AcDbCircle
 10
623.8242318942598
 20
806.8189440097801
 30
0.0
 40
8.0
100
AcDbArc
 50
180.0
 51
270.0
  0
LINE
  5
A52
330
2
100
AcDbEntity
  8
L-CENTER
 48
8.0
100
AcDbLine
 10
634.1974158429389
 20
823.8189440097797
 30
0.0
 11
677.4510479455789
 21
823.8189440097797
 31
0.0
  0
LINE
  5
A53
330
2
100
AcDbEntity
  8
4
100
AcDbLine
 10
665.6242318942591
 20
872.1924800097802
 30
0.0
 11
665.6242318942591
 21
890.5923840097801
 31
0.0
  0
LINE
  5
A54
330
2
100
AcDbEntity
  8
4
100
AcDbLine
 10
675.1242318942591
 20
874.0386720097802
 30
0.0
 11
675.1242318942591
 21
888.7461920097801
 31
0.0
  0
LINE
  5
A55
330
2
100
AcDbEntity
  8
4
100
AcDbLine
 10
668.1242318942591
 20
871.5923840097801
 30
0.0
 11
668.1242318942591
 21
891.1924800097802
 31
0.0
  0
ARC
  5
A56
330
2
100
AcDbEntity
  8
4
100
AcDbCircle
 10
671.333219894259
 20
888.7461920097801
 30
0.0
 40
3.791112
100
AcDbArc
 50
319.814124
 51
40.18587599999998
  0
ARC
  5
A57
330
2
100
AcDbEntity
  8
4
100
AcDbCircle
 10
661.2206678942589
 20
881.3924320097801
 30
0.0
 40
13.90362
100
AcDbArc
 50
339.3313849999993
 51
20.6676779999991
  0
LINE
  5
A58
330
2
100
AcDbEntity
  8
4
100
AcDbLine
 10
668.1242318942591
 20
872.1924800097802
 30
0.0
 11
665.6242318942591
 21
872.1924800097802
 31
0.0
  0
LINE
  5
A59
330
2
100
AcDbEntity
  8
4
100
AcDbLine
 10
668.1242318942591
 20
876.4849600097803
 30
0.0
 11
674.2292158942591
 21
876.4849600097803
 31
0.0
  0
LINE
  5
A5A
330
2
100
AcDbEntity
  8
4
100
AcDbLine
 10
674.2292158942591
 20
871.5923840097801
 30
0.0
 11
668.1242318942591
 21
871.5923840097801
 31
0.0
  0
ARC
  5
A5B
330
2
100
AcDbEntity
  8
4
100
AcDbCircle
 10
671.333219894259
 20
874.0386720097802
 30
0.0
 40
3.790928
100
AcDbArc
 50
319.8117439999993
 51
40.18825600000074
  0
LINE
  5
A5C
330
2
100
AcDbEntity
  8
4
100
AcDbLine
 10
668.1242318942591
 20
886.29990000978
 30
0.0
 11
674.2292158942591
 21
886.29990000978
 31
0.0
  0
LINE
  5
A5D
330
2
100
AcDbEntity
  8
4
100
AcDbLine
 10
674.2292158942591
 20
891.1924800097802
 30
0.0
 11
668.1242318942591
 21
891.1924800097802
 31
0.0
  0
LINE
  5
A5E
330
2
100
AcDbEntity
  8
4
100
AcDbLine
 10
665.6242318942591
 20
890.5923840097801
 30
0.0
 11
668.1242318942591
 21
890.5923840097801
 31
0.0
  0
LINE
  5
A5F
330
2
100
AcDbEntity
  8
4
100
AcDbLine
 10
654.8242318942589
 20
851.8189440097806
 30
0.0
 11
654.8242318942589
 21
853.8189440097801
 31
0.0
  0
LINE
  5
A60
330
2
100
AcDbEntity
  8
4
100
AcDbLine
 10
652.8242318942589
 20
839.8189440097806
 30
0.0
 11
652.8242318942589
 21
851.8189440097806
 31
0.0
  0
LINE
  5
A61
330
2
100
AcDbEntity
  8
4
100
AcDbLine
 10
638.824231894258
 20
852.8189440097801
 30
0.0
 11
638.8242318942584
 21
850.8189440097806
 31
0.0
  0
ARC
  5
A62
330
2
100
AcDbEntity
  8
4
100
AcDbCircle
 10
636.8242318942584
 20
850.8189440097806
 30
0.0
 40
2.0
100
AcDbArc
 50
270.0
 51
0.0
  0
LINE
  5
A63
330
2
100
AcDbEntity
  8
4
100
AcDbLine
 10
638.8242318942584
 20
851.8189440097806
 30
0.0
 11
654.8242318942589
 21
851.8189440097806
 31
0.0
  0
LINE
  5
A64
330
2
100
AcDbEntity
  8
4
100
AcDbLine
 10
665.6242318942591
 20
853.8189440097801
 30
0.0
 11
648.8242318942589
 21
853.8189440097801
 31
0.0
  0
LINE
  5
A65
330
2
100
AcDbEntity
  8
4
100
AcDbLine
 10
329.6391864704819
 20
1010.21894400978
 30
0.0
 11
310.0092773180345
 21
1010.21894400978
 31
0.0
  0
LINE
  5
A66
330
2
100
AcDbEntity
  8
4
100
AcDbLine
 10
329.6391864704819
 20
1012.71894400978
 30
0.0
 11
310.0092773180345
 21
1012.71894400978
 31
0.0
  0
ARC
  5
A67
330
2
100
AcDbEntity
  8
4
100
AcDbCircle
 10
319.824231894258
 20
1005.939778712321
 30
0.0
 40
13.77916529745958
100
AcDbArc
 50
69.13593563608119
 51
110.8640643639188
  0
LINE
  5
A68
330
2
100
AcDbEntity
  8
4
100
AcDbLine
 10
312.4630159620906
 20
1019.71894400978
 30
0.0
 11
327.1854478264258
 21
1019.71894400978
 31
0.0
  0
CIRCLE
  5
A69
330
2
100
AcDbEntity
  8
4
100
AcDbCircle
 10
324.8242318942589
 20
923.8189440097801
 30
0.0
 40
11.0
  0
LINE
  5
A6A
330
2
100
AcDbEntity
  8
4
100
AcDbLine
 10
288.8242318942589
 20
1048.81894400978
 30
0.0
 11
337.8242318942589
 21
1048.81894400978
 31
0.0
  0
LINE
  5
A6B
330
2
100
AcDbEntity
  8
L-CENTER
 48
8.0
100
AcDbLine
 10
284.1974158429389
 20
1023.81894400978
 30
0.0
 11
327.4510479455789
 21
1023.81894400978
 31
0.0
  0
LINE
  5
A6C
330
2
100
AcDbEntity
  8
4
100
AcDbLine
 10
312.8242318942589
 20
994.8189440097801
 30
0.0
 11
648.8242318942589
 21
994.8189440097806
 31
0.0
  0
LINE
  5
A6D
330
2
100
AcDbEntity
  8
4
100
AcDbLine
 10
306.8242318942589
 20
995.8189440097801
 30
0.0
 11
654.8242318942589
 21
995.8189440097806
 31
0.0
  0
LINE
  5
A6E
330
2
100
AcDbEntity
  8
4
100
AcDbLine
 10
308.8242318942589
 20
997.8189440097801
 30
0.0
 11
652.8242318942589
 21
997.8189440097806
 31
0.0
  0
LINE
  5
A6F
330
2
100
AcDbEntity
  8
4
100
AcDbLine
 10
309.8242318942589
 20
1010.21894400978
 30
0.0
 11
651.8242318942584
 21
1010.21894400978
 31
0.0
  0
LINE
  5
A70
330
2
100
AcDbEntity
  8
L-CENTER
 48
8.0
100
AcDbLine
 10
305.8242318942589
 20
1045.4457600611
 30
0.0
 11
305.8242318942589
 21
1002.19212795846
 31
0.0
  0
ARC
  5
A71
330
2
100
AcDbEntity
  8
4
100
AcDbCircle
 10
288.8242318942589
 20
1040.81894400978
 30
0.0
 40
8.0
100
AcDbArc
 50
90.0
 51
180.0
  0
LINE
  5
A72
330
2
100
AcDbEntity
  8
4
100
AcDbLine
 10
270.8242318942594
 20
918.8189440097801
 30
0.0
 11
200.8242318942589
 21
918.8189440097801
 31
0.0
  0
LINE
  5
A73
330
2
100
AcDbEntity
  8
4
100
AcDbLine
 10
278.8242318942594
 20
941.8189440097801
 30
0.0
 11
201.8242318942589
 21
941.8189440097801
 31
0.0
  0
LINE
  5
A74
330
2
100
AcDbEntity
  8
4
100
AcDbLine
 10
270.8242318942594
 20
928.8189440097801
 30
0.0
 11
200.8242318942589
 21
928.8189440097801
 31
0.0
  0
LINE
  5
A75
330
2
100
AcDbEntity
  8
4
100
AcDbLine
 10
278.8242318942594
 20
905.8189440097801
 30
0.0
 11
201.8242318942589
 21
905.8189440097801
 31
0.0
  0
LINE
  5
A76
330
2
100
AcDbEntity
  8
4
100
AcDbLine
 10
201.8242318942589
 20
941.8189440097801
 30
0.0
 11
200.8242318942589
 21
940.8189440097801
 31
0.0
  0
LINE
  5
A77
330
2
100
AcDbEntity
  8
4
100
AcDbLine
 10
200.8242318942589
 20
906.8189440097801
 30
0.0
 11
201.8242318942589
 21
905.8189440097801
 31
0.0
  0
LINE
  5
A78
330
2
100
AcDbEntity
  8
4
100
AcDbLine
 10
201.8242318942594
 20
918.8189440097801
 30
0.0
 11
201.8242318942594
 21
905.8189440097797
 31
0.0
  0
LINE
  5
A79
330
2
100
AcDbEntity
  8
4
100
AcDbLine
 10
200.8242318942589
 20
940.8189440097801
 30
0.0
 11
200.8242318942589
 21
906.8189440097801
 31
0.0
  0
LINE
  5
A7A
330
2
100
AcDbEntity
  8
4
100
AcDbLine
 10
201.8242318942594
 20
941.8189440097806
 30
0.0
 11
201.8242318942594
 21
928.8189440097801
 31
0.0
  0
LINE
  5
A7B
330
2
100
AcDbEntity
  8
4
100
AcDbLine
 10
286.5242318942592
 20
958.8917000097802
 30
0.0
 11
286.5242318942592
 21
973.5992200097801
 31
0.0
  0
ARC
  5
A7C
330
2
100
AcDbEntity
  8
4
100
AcDbCircle
 10
300.4277958942589
 20
966.2454600097801
 30
0.0
 40
13.90362
100
AcDbArc
 50
159.3323259999997
 51
200.6686180000009
  0
LINE
  5
A7D
330
2
100
AcDbEntity
  8
4
100
AcDbLine
 10
293.5242318942592
 20
956.4454080097801
 30
0.0
 11
293.5242318942592
 21
976.0455080097802
 31
0.0
  0
LINE
  5
A7E
330
2
100
AcDbEntity
  8
4
100
AcDbLine
 10
296.0242318942592
 20
957.0455080097802
 30
0.0
 11
296.0242318942592
 21
975.4454080097801
 31
0.0
  0
ARC
  5
A7F
330
2
100
AcDbEntity
  8
4
100
AcDbCircle
 10
270.8242318942594
 20
923.8189440097801
 30
0.0
 40
5.0
100
AcDbArc
 50
270.0
 51
90.0
  0
LINE
  5
A80
330
2
100
AcDbEntity
  8
4
100
AcDbLine
 10
287.4192518942591
 20
956.4454080097801
 30
0.0
 11
293.5242318942592
 21
956.4454080097801
 31
0.0
  0
LINE
  5
A81
330
2
100
AcDbEntity
  8
4
100
AcDbLine
 10
293.5242318942592
 20
961.3379880097802
 30
0.0
 11
287.4192518942591
 21
961.3379880097802
 31
0.0
  0
LINE
  5
A82
330
2
100
AcDbEntity
  8
4
100
AcDbLine
 10
293.5242318942592
 20
957.0455080097802
 30
0.0
 11
296.0242318942592
 21
957.0455080097802
 31
0.0
  0
LINE
  5
A83
330
2
100
AcDbEntity
  8
4
100
AcDbLine
 10
296.0242318942587
 20
954.8189440097801
 30
0.0
 11
295.0242318942587
 21
954.8189440097801
 31
0.0
  0
ARC
  5
A84
330
2
100
AcDbEntity
  8
4
100
AcDbCircle
 10
278.8242318942594
 20
943.8189440097801
 30
0.0
 40
2.0
100
AcDbArc
 50
270.0
 51
0.0
  0
LINE
  5
A85
330
2
100
AcDbEntity
  8
L-CENTER
 48
8.0
100
AcDbLine
 10
281.7808238942594
 20
966.2454600097801
 30
0.0
 11
303.9026518942592
 21
966.2454600097801
 31
0.0
  0
ARC
  5
A86
330
2
100
AcDbEntity
  8
4
100
AcDbCircle
 10
290.3152478942593
 20
958.8917000097802
 30
0.0
 40
3.79102
100
AcDbArc
 50
139.8141239999973
 51
220.1882559999997
  0
LINE
  5
A87
330
2
100
AcDbEntity
  8
4
100
AcDbLine
 10
295.0242318942587
 20
943.8189440097801
 30
0.0
 11
280.8242318942594
 21
943.8189440097801
 31
0.0
  0
LINE
  5
A88
330
2
100
AcDbEntity
  8
4
100
AcDbLine
 10
295.0242318942587
 20
903.8189440097801
 30
0.0
 11
280.8242318942594
 21
903.8189440097801
 31
0.0
  0
LINE
  5
A89
330
2
100
AcDbEntity
  8
4
100
AcDbLine
 10
280.8242318942594
 20
943.8189440097801
 30
0.0
 11
280.8242318942594
 21
903.8189440097801
 31
0.0
  0
ARC
  5
A8A
330
2
100
AcDbEntity
  8
4
100
AcDbCircle
 10
278.8242318942594
 20
903.8189440097801
 30
0.0
 40
2.0
100
AcDbArc
 50
0.0
 51
90.0
  0
ARC
  5
A8B
330
2
100
AcDbEntity
  8
4
100
AcDbCircle
 10
312.4630159620906
 20
1015.935330080721
 30
0.0
 40
3.783613929059507
100
AcDbArc
 50
49.57010315516856
 51
130.4298968448315
  0
LINE
  5
A8C
330
2
100
AcDbEntity
  8
4
100
AcDbLine
 10
310.0092773180345
 20
1010.21894400978
 30
0.0
 11
310.0092773180345
 21
1018.815417063928
 31
0.0
  0
LINE
  5
A8D
330
2
100
AcDbEntity
  8
4
100
AcDbLine
 10
314.9167546061462
 20
1018.815417063928
 30
0.0
 11
314.9167546061462
 21
1012.71894400978
 31
0.0
  0
LINE
  5
A8E
330
2
100
AcDbEntity
  8
4
100
AcDbLine
 10
308.8242318942589
 20
995.8189440097797
 30
0.0
 11
308.8242318942589
 21
1009.21894400978
 31
0.0
  0
LINE
  5
A8F
330
2
100
AcDbEntity
  8
4
100
AcDbLine
 10
306.8242318942589
 20
993.8189440097806
 30
0.0
 11
306.8242318942589
 21
995.8189440097801
 31
0.0
  0
LINE
  5
A90
330
2
100
AcDbEntity
  8
L-CENTER
 48
8.0
100
AcDbLine
 10
319.824231894258
 20
987.3065972886891
 30
0.0
 11
319.824231894258
 21
1022.586922264361
 31
0.0
  0
ARC
  5
A91
330
2
100
AcDbEntity
  8
4
100
AcDbCircle
 10
309.8242318942589
 20
1009.21894400978
 30
0.0
 40
1.0
100
AcDbArc
 50
90.0
 51
180.0
  0
ARC
  5
A92
330
2
100
AcDbEntity
  8
4
100
AcDbCircle
 10
309.8242318942589
 20
1009.21894400978
 30
0.0
 40
1.0
100
AcDbArc
 50
90.0
 51
180.0
  0
LINE
  5
A93
330
2
100
AcDbEntity
  8
4
100
AcDbLine
 10
287.4192518942591
 20
976.0455080097802
 30
0.0
 11
293.5242318942592
 21
976.0455080097802
 31
0.0
  0
LINE
  5
A94
330
2
100
AcDbEntity
  8
4
100
AcDbLine
 10
296.0242318942592
 20
975.4454080097801
 30
0.0
 11
293.5242318942592
 21
975.4454080097801
 31
0.0
  0
LINE
  5
A95
330
2
100
AcDbEntity
  8
4
100
AcDbLine
 10
293.5242318942592
 20
971.15292800978
 30
0.0
 11
287.4192518942591
 21
971.15292800978
 31
0.0
  0
ARC
  5
A96
330
2
100
AcDbEntity
  8
4
100
AcDbCircle
 10
290.3152478942593
 20
973.5992200097801
 30
0.0
 40
3.79102
100
AcDbArc
 50
139.8141239999973
 51
220.1882670000003
  0
ARC
  5
A97
330
2
100
AcDbEntity
  8
4
100
AcDbCircle
 10
305.8242318942589
 20
1023.81894400978
 30
0.0
 40
10.0
100
AcDbArc
 50
335.7951651985423
 51
294.7402089475321
  0
LINE
  5
A98
330
2
100
AcDbEntity
  8
4
100
AcDbLine
 10
312.8242318942589
 20
993.8189440097797
 30
0.0
 11
296.0242318942587
 21
993.8189440097806
 31
0.0
  0
LINE
  5
A99
330
2
100
AcDbEntity
  8
4
100
AcDbLine
 10
488.3242318942584
 20
1162.81894400978
 30
0.0
 11
509.8242318942584
 21
1162.81894400978
 31
0.0
  0
LINE
  5
A9A
330
2
100
AcDbEntity
  8
4
100
AcDbLine
 10
452.8242318942589
 20
1163.81894400978
 30
0.0
 11
508.8242318942584
 21
1163.81894400978
 31
0.0
  0
LINE
  5
A9B
330
2
100
AcDbEntity
  8
4
100
AcDbLine
 10
510.8242318942584
 20
1063.81894400978
 30
0.0
 11
450.8242318942584
 21
1063.81894400978
 31
0.0
  0
ARC
  5
A9C
330
2
100
AcDbEntity
  8
4
100
AcDbCircle
 10
500.8242318942589
 20
923.8189440097801
 30
0.0
 40
5.0
100
AcDbArc
 50
270.0
 51
90.0
  0
LINE
  5
A9D
330
2
100
AcDbEntity
  8
4
100
AcDbLine
 10
427.8242318942589
 20
1053.818944009781
 30
0.0
 11
533.8242318942584
 21
1053.818944009781
 31
0.0
  0
LINE
  5
A9E
330
2
100
AcDbEntity
  8
4
100
AcDbLine
 10
523.8242318942584
 20
1037.818944009781
 30
0.0
 11
437.8242318942589
 21
1037.818944009781
 31
0.0
  0
LINE
  5
A9F
330
2
100
AcDbEntity
  8
4
100
AcDbLine
 10
438.3242318942589
 20
1054.81894400978
 30
0.0
 11
523.3242318942589
 21
1054.81894400978
 31
0.0
  0
LINE
  5
AA0
330
2
100
AcDbEntity
  8
4
100
AcDbLine
 10
427.8242318942589
 20
1053.818944009781
 30
0.0
 11
423.2492723253044
 21
1035.519105733965
 31
0.0
  0
ARC
  5
AA1
330
2
100
AcDbEntity
  8
4
100
AcDbCircle
 10
337.8242318942589
 20
1040.81894400978
 30
0.0
 40
8.0
100
AcDbArc
 50
0.0
 51
90.0
  0
LINE
  5
AA2
330
2
100
AcDbEntity
  8
4
100
AcDbLine
 10
347.3487832651167
 20
1010.218944009781
 30
0.0
 11
423.2492723253044
 21
1035.519105733965
 31
0.0
  0
LINE
  5
AA3
330
2
100
AcDbEntity
  8
4
100
AcDbLine
 10
341.0242276532304
 20
1010.21894400978
 30
0.0
 11
423.8242318942584
 21
1037.81894400978
 31
0.0
  0
CIRCLE
  5
AA4
330
2
100
AcDbEntity
  8
4
100
AcDbCircle
 10
382.8242318942589
 20
923.8189440097801
 30
0.0
 40
25.0
  0
CIRCLE
  5
AA5
330
2
100
AcDbEntity
  8
4
100
AcDbCircle
 10
382.8242318942589
 20
923.8189440097801
 30
0.0
 40
23.0
  0
LWPOLYLINE
  5
AA6
330
2
100
AcDbEntity
  8
4
100
AcDbPolyline
 90
        6
 70
     1
 43
0.0
 10
405.8242318942589
 20
923.8189440097801
 10
394.3242318942589
 20
943.7375282968221
 10
371.3242318942589
 20
943.7375282968221
 10
359.8242318942589
 20
923.8189440097801
 10
371.3242318942589
 20
903.9003597227381
 10
394.3242318942589
 20
903.9003597227381
  0
LINE
  5
AA7
330
2
100
AcDbEntity
  8
L-CENTER
 48
8.0
100
AcDbLine
 10
324.8242318942589
 20
904.3368858827323
 30
0.0
 11
324.8242318942589
 21
943.301002136828
 31
0.0
  0
LINE
  5
AA8
330
2
100
AcDbEntity
  8
4
100
AcDbLine
 10
355.8242318942589
 20
1036.818944009781
 30
0.0
 11
405.8242318942589
 21
1036.818944009781
 31
0.0
  0
LINE
  5
AA9
330
2
100
AcDbEntity
  8
4
100
AcDbLine
 10
345.8242318942589
 20
1040.81894400978
 30
0.0
 11
345.8242318942589
 21
1011.818945341505
 31
0.0
  0
LINE
  5
AAA
330
2
100
AcDbEntity
  8
4
100
AcDbLine
 10
355.8242318942589
 20
1036.818944009781
 30
0.0
 11
355.8242318942589
 21
1015.152278504104
 31
0.0
  0
ARC
  5
AAB
330
2
100
AcDbEntity
  8
4
100
AcDbCircle
 10
327.1854478264258
 20
1015.935330080721
 30
0.0
 40
3.783613929059507
100
AcDbArc
 50
49.57010315516856
 51
130.4298968448315
  0
LINE
  5
AAC
330
2
100
AcDbEntity
  8
4
100
AcDbLine
 10
324.7317091823702
 20
1018.815417063928
 30
0.0
 11
324.7317091823702
 21
1012.71894400978
 31
0.0
  0
LINE
  5
AAD
330
2
100
AcDbEntity
  8
4
100
AcDbLine
 10
329.6391864704819
 20
1018.815417063928
 30
0.0
 11
329.6391864704819
 21
1010.21894400978
 31
0.0
  0
ARC
  5
AAE
330
2
100
AcDbEntity
  8
4
100
AcDbCircle
 10
400.324231894258
 20
1005.939778712321
 30
0.0
 40
13.77916529745958
100
AcDbArc
 50
69.13593563608119
 51
110.8640643639188
  0
LINE
  5
AAF
330
2
100
AcDbEntity
  8
4
100
AcDbLine
 10
395.4167546061462
 20
1018.815417063928
 30
0.0
 11
395.4167546061462
 21
1012.71894400978
 31
0.0
  0
ARC
  5
AB0
330
2
100
AcDbEntity
  8
4
100
AcDbCircle
 10
407.6854478264258
 20
1015.935330080721
 30
0.0
 40
3.783613929059507
100
AcDbArc
 50
49.57010315516856
 51
130.4298968448315
  0
LINE
  5
AB1
330
2
100
AcDbEntity
  8
4
100
AcDbLine
 10
405.2317091823702
 20
1018.815417063928
 30
0.0
 11
405.2317091823702
 21
1012.71894400978
 31
0.0
  0
LINE
  5
AB2
330
2
100
AcDbEntity
  8
4
100
AcDbLine
 10
410.1391864704819
 20
1018.815417063928
 30
0.0
 11
410.1391864704819
 21
1010.21894400978
 31
0.0
  0
LINE
  5
AB3
330
2
100
AcDbEntity
  8
4
100
AcDbLine
 10
405.8242318942589
 20
1036.818944009781
 30
0.0
 11
405.8242318942589
 21
1031.818944317101
 31
0.0
  0
LINE
  5
AB4
330
2
100
AcDbEntity
  8
4
100
AcDbLine
 10
390.5092773180345
 20
1010.21894400978
 30
0.0
 11
390.5092773180345
 21
1018.815417063928
 31
0.0
  0
LINE
  5
AB5
330
2
100
AcDbEntity
  8
4
100
AcDbLine
 10
392.9630159620906
 20
1019.71894400978
 30
0.0
 11
407.6854478264258
 21
1019.71894400978
 31
0.0
  0
LINE
  5
AB6
330
2
100
AcDbEntity
  8
4
100
AcDbLine
 10
410.1391864704819
 20
1010.21894400978
 30
0.0
 11
390.5092773180345
 21
1010.21894400978
 31
0.0
  0
LINE
  5
AB7
330
2
100
AcDbEntity
  8
4
100
AcDbLine
 10
410.1391864704819
 20
1012.71894400978
 30
0.0
 11
390.5092773180345
 21
1012.71894400978
 31
0.0
  0
ARC
  5
AB8
330
2
100
AcDbEntity
  8
4
100
AcDbCircle
 10
392.9630159620906
 20
1015.935330080721
 30
0.0
 40
3.783613929059507
100
AcDbArc
 50
49.57010315516856
 51
130.4298968448315
  0
LINE
  5
AB9
330
2
100
AcDbEntity
  8
L-CENTER
 48
8.0
100
AcDbLine
 10
400.324231894258
 20
987.3065972886891
 30
0.0
 11
400.324231894258
 21
1022.586922264361
 31
0.0
  0
ARC
  5
ABA
330
2
100
AcDbEntity
  8
4
100
AcDbCircle
 10
460.8242318942589
 20
923.8189440097801
 30
0.0
 40
5.0
100
AcDbArc
 50
90.0
 51
270.0
  0
LINE
  5
ABB
330
2
100
AcDbEntity
  8
4
100
AcDbLine
 10
460.8242318942589
 20
918.8189440097801
 30
0.0
 11
500.8242318942589
 21
918.8189440097801
 31
0.0
  0
ARC
  5
ABC
330
2
100
AcDbEntity
  8
4
100
AcDbCircle
 10
480.8242318942589
 20
923.8189440097801
 30
0.0
 40
11.0
100
AcDbArc
 50
207.0356917894123
 51
332.9643082105878
  0
ARC
  5
ABD
330
2
100
AcDbEntity
  8
4
100
AcDbCircle
 10
480.8242318942589
 20
923.8189440097801
 30
0.0
 40
12.5
100
AcDbArc
 50
203.5781784782018
 51
336.4218215217981
  0
LINE
  5
ABE
330
2
100
AcDbEntity
  8
4
100
AcDbLine
 10
460.8242318942589
 20
928.8189440097801
 30
0.0
 11
500.8242318942589
 21
928.8189440097801
 31
0.0
  0
ARC
  5
ABF
330
2
100
AcDbEntity
  8
4
100
AcDbCircle
 10
480.8242318942589
 20
923.8189440097801
 30
0.0
 40
20.0
100
AcDbArc
 50
14.47751218592994
 51
165.5224878140701
  0
ARC
  5
AC0
330
2
100
AcDbEntity
  8
4
100
AcDbCircle
 10
480.8242318942589
 20
923.8189440097801
 30
0.0
 40
12.5
100
AcDbArc
 50
23.57817847820185
 51
156.4218215217982
  0
ARC
  5
AC1
330
2
100
AcDbEntity
  8
4
100
AcDbCircle
 10
480.8242318942589
 20
923.8189440097801
 30
0.0
 40
11.0
100
AcDbArc
 50
27.03569178941222
 51
152.9643082105877
  0
ARC
  5
AC2
330
2
100
AcDbEntity
  8
4
100
AcDbCircle
 10
480.8242318942589
 20
923.8189440097801
 30
0.0
 40
20.0
100
AcDbArc
 50
194.4775121859299
 51
345.5224878140701
  0
LINE
  5
AC3
330
2
100
AcDbEntity
  8
4
100
AcDbLine
 10
437.8242318942589
 20
1035.519105731118
 30
0.0
 11
446.9909528080702
 21
1010.21908800978
 31
0.0
  0
LINE
  5
AC4
330
2
100
AcDbEntity
  8
4
100
AcDbLine
 10
437.8242318942589
 20
1037.818944009781
 30
0.0
 11
437.8242318942589
 21
1035.519105731118
 31
0.0
  0
LINE
  5
AC5
330
2
100
AcDbEntity
  8
4
100
AcDbLine
 10
437.8242318942589
 20
1035.519105731118
 30
0.0
 11
423.2492723253044
 21
1035.519105733965
 31
0.0
  0
LINE
  5
AC6
330
2
100
AcDbEntity
  8
4
100
AcDbLine
 10
437.8242318942589
 20
1037.818944009781
 30
0.0
 11
447.8242318942589
 21
1010.21908800978
 31
0.0
  0
LINE
  5
AC7
330
2
100
AcDbEntity
  8
4
100
AcDbLine
 10
500.8242318942589
 20
1023.818944009781
 30
0.0
 11
500.8242318942589
 21
1010.21894400978
 31
0.0
  0
LINE
  5
AC8
330
2
100
AcDbEntity
  8
4
100
AcDbLine
 10
460.8242318942589
 20
1023.818944009781
 30
0.0
 11
460.8242318942589
 21
1010.21894400978
 31
0.0
  0
LINE
  5
AC9
330
2
100
AcDbEntity
  8
4
100
AcDbLine
 10
460.8242318942589
 20
1023.818944009781
 30
0.0
 11
500.8242318942589
 21
1023.818944009781
 31
0.0
  0
LINE
  5
ACA
330
2
100
AcDbEntity
  8
4
100
AcDbLine
 10
451.8242318942589
 20
1064.81894400978
 30
0.0
 11
451.8242318942589
 21
1162.81894400978
 31
0.0
  0
LINE
  5
ACB
330
2
100
AcDbEntity
  8
4
100
AcDbLine
 10
473.3242318942584
 20
1163.81894400978
 30
0.0
 11
473.3242318942584
 21
1081.31894400978
 31
0.0
  0
LINE
  5
ACC
330
2
100
AcDbEntity
  8
4
100
AcDbLine
 10
488.3242318942584
 20
1163.81894400978
 30
0.0
 11
488.3242318942584
 21
1081.31894400978
 31
0.0
  0
LINE
  5
ACD
330
2
100
AcDbEntity
  8
4
100
AcDbLine
 10
450.8242318942584
 20
1063.81894400978
 30
0.0
 11
450.8242318942589
 21
1063.81894400978
 31
0.0
  0
ARC
  5
ACE
330
2
100
AcDbEntity
  8
4
100
AcDbCircle
 10
450.8242318942589
 20
1064.818944009781
 30
0.0
 40
1.0
100
AcDbArc
 50
270.0
 51
0.0
  0
LINE
  5
ACF
330
2
100
AcDbEntity
  8
4
100
AcDbLine
 10
450.8242318942584
 20
1054.81894400978
 30
0.0
 11
450.8242318942584
 21
1063.81894400978
 31
0.0
  0
LINE
  5
AD0
330
2
100
AcDbEntity
  8
4
100
AcDbLine
 10
438.3242318942589
 20
1054.81894400978
 30
0.0
 11
438.3242318942589
 21
1053.81894400978
 31
0.0
  0
ARC
  5
AD1
330
2
100
AcDbEntity
  8
4
100
AcDbCircle
 10
480.8242318942584
 20
1081.318944009781
 30
0.0
 40
7.5
100
AcDbArc
 50
180.0
 51
0.0
  0
LINE
  5
AD2
330
2
100
AcDbEntity
  8
4
100
AcDbLine
 10
451.8242318942589
 20
1162.81894400978
 30
0.0
 11
473.3242318942589
 21
1162.81894400978
 31
0.0
  0
LINE
  5
AD3
330
2
100
AcDbEntity
  8
4
100
AcDbLine
 10
451.8242318942589
 20
1162.81894400978
 30
0.0
 11
452.8242318942589
 21
1163.81894400978
 31
0.0
  0
ARC
  5
AD4
330
2
100
AcDbEntity
  8
4
100
AcDbCircle
 10
623.8242318942598
 20
1040.81894400978
 30
0.0
 40
8.0
100
AcDbArc
 50
90.0
 51
180.0
  0
LINE
  5
AD5
330
2
100
AcDbEntity
  8
L-CENTER
 48
8.0
100
AcDbLine
 10
655.8242318942589
 20
1045.4457600611
 30
0.0
 11
655.8242318942589
 21
1002.19212795846
 31
0.0
  0
LINE
  5
AD6
330
2
100
AcDbEntity
  8
4
100
AcDbLine
 10
533.8242318942584
 20
1053.818944009781
 30
0.0
 11
538.3991914688349
 21
1035.519105711476
 31
0.0
  0
LINE
  5
AD7
330
2
100
AcDbEntity
  8
4
100
AcDbLine
 10
614.2996765739208
 20
1010.218944009781
 30
0.0
 11
538.3991914688349
 21
1035.519105711476
 31
0.0
  0
LINE
  5
AD8
330
2
100
AcDbEntity
  8
4
100
AcDbLine
 10
620.6242318942577
 20
1010.21894400978
 30
0.0
 11
537.8242318942584
 21
1037.818944009781
 31
0.0
  0
LINE
  5
AD9
330
2
100
AcDbEntity
  8
4
100
AcDbLine
 10
523.8242318942584
 20
1037.818944009781
 30
0.0
 11
523.8242318942584
 21
1035.519105714323
 31
0.0
  0
LINE
  5
ADA
330
2
100
AcDbEntity
  8
4
100
AcDbLine
 10
538.3991914688349
 20
1035.519105711476
 30
0.0
 11
523.8242318942584
 21
1035.519105714323
 31
0.0
  0
LINE
  5
ADB
330
2
100
AcDbEntity
  8
4
100
AcDbLine
 10
523.8242318942594
 20
1035.519105731118
 30
0.0
 11
514.657510980448
 21
1010.21908800978
 31
0.0
  0
LINE
  5
ADC
330
2
100
AcDbEntity
  8
4
100
AcDbLine
 10
523.8242318942594
 20
1037.818944009781
 30
0.0
 11
513.8242318942589
 21
1010.21908800978
 31
0.0
  0
ARC
  5
ADD
330
2
100
AcDbEntity
  8
4
100
AcDbCircle
 10
568.6854478264272
 20
1015.935330080721
 30
0.0
 40
3.783613929059507
100
AcDbArc
 50
49.57010315517471
 51
130.4298968448253
  0
ARC
  5
ADE
330
2
100
AcDbEntity
  8
4
100
AcDbCircle
 10
561.3242318942598
 20
1005.939778712321
 30
0.0
 40
13.77916529745958
100
AcDbArc
 50
69.13593563608075
 51
110.8640643639193
  0
LINE
  5
ADF
330
2
100
AcDbEntity
  8
4
100
AcDbLine
 10
556.4167546061476
 20
1018.815417063928
 30
0.0
 11
556.4167546061476
 21
1012.71894400978
 31
0.0
  0
LINE
  5
AE0
330
2
100
AcDbEntity
  8
4
100
AcDbLine
 10
566.2317091823716
 20
1018.815417063928
 30
0.0
 11
566.2317091823716
 21
1012.71894400978
 31
0.0
  0
LINE
  5
AE1
330
2
100
AcDbEntity
  8
4
100
AcDbLine
 10
571.1391864704833
 20
1010.21894400978
 30
0.0
 11
571.1391864704833
 21
1018.815417063928
 31
0.0
  0
LINE
  5
AE2
330
2
100
AcDbEntity
  8
4
100
AcDbLine
 10
568.6854478264272
 20
1019.71894400978
 30
0.0
 11
553.963015962092
 21
1019.71894400978
 31
0.0
  0
LINE
  5
AE3
330
2
100
AcDbEntity
  8
L-CENTER
 48
8.0
100
AcDbLine
 10
561.3242318942598
 20
987.3065972886891
 30
0.0
 11
561.3242318942598
 21
1022.586922264361
 31
0.0
  0
LINE
  5
AE4
330
2
100
AcDbEntity
  8
4
100
AcDbLine
 10
551.5092773180359
 20
1018.815417063928
 30
0.0
 11
551.5092773180359
 21
1010.21894400978
 31
0.0
  0
ARC
  5
AE5
330
2
100
AcDbEntity
  8
4
100
AcDbCircle
 10
553.963015962092
 20
1015.935330080721
 30
0.0
 40
3.783613929059507
100
AcDbArc
 50
49.57010315516856
 51
130.4298968448315
  0
LINE
  5
AE6
330
2
100
AcDbEntity
  8
4
100
AcDbLine
 10
551.5092773180359
 20
1012.71894400978
 30
0.0
 11
571.1391864704833
 21
1012.71894400978
 31
0.0
  0
LINE
  5
AE7
330
2
100
AcDbEntity
  8
4
100
AcDbLine
 10
551.5092773180359
 20
1010.21894400978
 30
0.0
 11
571.1391864704833
 21
1010.21894400978
 31
0.0
  0
LINE
  5
AE8
330
2
100
AcDbEntity
  8
4
100
AcDbLine
 10
675.1242318942591
 20
973.5992200097801
 30
0.0
 11
675.1242318942591
 21
958.8917000097802
 31
0.0
  0
ARC
  5
AE9
330
2
100
AcDbEntity
  8
4
100
AcDbCircle
 10
661.2206678942589
 20
966.2454600097801
 30
0.0
 40
13.90362
100
AcDbArc
 50
339.3323220000009
 51
20.6686150000007
  0
LINE
  5
AEA
330
2
100
AcDbEntity
  8
4
100
AcDbLine
 10
665.6242318942591
 20
975.4454080097801
 30
0.0
 11
665.6242318942591
 21
957.0455080097802
 31
0.0
  0
LINE
  5
AEB
330
2
100
AcDbEntity
  8
4
100
AcDbLine
 10
668.1242318942591
 20
976.0455080097802
 30
0.0
 11
668.1242318942591
 21
956.4454080097801
 31
0.0
  0
CIRCLE
  5
AEC
330
2
100
AcDbEntity
  8
4
100
AcDbCircle
 10
636.8242318942589
 20
923.8189440097801
 30
0.0
 40
11.0
  0
LINE
  5
AED
330
2
100
AcDbEntity
  8
4
100
AcDbLine
 10
668.1242318942591
 20
961.3379880097802
 30
0.0
 11
674.2292158942591
 21
961.3379880097802
 31
0.0
  0
LINE
  5
AEE
330
2
100
AcDbEntity
  8
4
100
AcDbLine
 10
674.2292158942591
 20
956.4454080097801
 30
0.0
 11
668.1242318942591
 21
956.4454080097801
 31
0.0
  0
LINE
  5
AEF
330
2
100
AcDbEntity
  8
4
100
AcDbLine
 10
665.6242318942591
 20
957.0455080097802
 30
0.0
 11
668.1242318942591
 21
957.0455080097802
 31
0.0
  0
ARC
  5
AF0
330
2
100
AcDbEntity
  8
4
100
AcDbCircle
 10
671.333219894259
 20
958.8917000097802
 30
0.0
 40
3.79102
100
AcDbArc
 50
319.8141239999973
 51
40.18825599999911
  0
LINE
  5
AF1
330
2
100
AcDbEntity
  8
L-CENTER
 48
8.0
100
AcDbLine
 10
636.8242318942589
 20
904.3368858827323
 30
0.0
 11
636.8242318942589
 21
943.301002136828
 31
0.0
  0
ARC
  5
AF2
330
2
100
AcDbEntity
  8
4
100
AcDbCircle
 10
634.463015962092
 20
1015.935330080721
 30
0.0
 40
3.783613929059507
100
AcDbArc
 50
49.57010315516856
 51
130.4298968448315
  0
LINE
  5
AF3
330
2
100
AcDbEntity
  8
4
100
AcDbLine
 10
632.0092773180359
 20
1012.71894400978
 30
0.0
 11
651.6391864704833
 21
1012.71894400978
 31
0.0
  0
LINE
  5
AF4
330
2
100
AcDbEntity
  8
4
100
AcDbLine
 10
632.0092773180359
 20
1010.21894400978
 30
0.0
 11
651.6391864704833
 21
1010.21894400978
 31
0.0
  0
LINE
  5
AF5
330
2
100
AcDbEntity
  8
4
100
AcDbLine
 10
649.1854478264272
 20
1019.71894400978
 30
0.0
 11
634.463015962092
 21
1019.71894400978
 31
0.0
  0
LINE
  5
AF6
330
2
100
AcDbEntity
  8
L-CENTER
 48
8.0
100
AcDbLine
 10
634.1974158429389
 20
1023.81894400978
 30
0.0
 11
677.4510479455789
 21
1023.81894400978
 31
0.0
  0
LINE
  5
AF7
330
2
100
AcDbEntity
  8
4
100
AcDbLine
 10
632.0092773180359
 20
1018.815417063928
 30
0.0
 11
632.0092773180359
 21
1010.21894400978
 31
0.0
  0
LINE
  5
AF8
330
2
100
AcDbEntity
  8
4
100
AcDbLine
 10
615.8242318942598
 20
1040.81894400978
 30
0.0
 11
615.8242318942598
 21
1011.81894400978
 31
0.0
  0
LINE
  5
AF9
330
2
100
AcDbEntity
  8
4
100
AcDbLine
 10
674.2292158942591
 20
976.0455080097802
 30
0.0
 11
668.1242318942591
 21
976.0455080097802
 31
0.0
  0
LINE
  5
AFA
330
2
100
AcDbEntity
  8
4
100
AcDbLine
 10
668.1242318942591
 20
975.4454080097801
 30
0.0
 11
665.6242318942591
 21
975.4454080097801
 31
0.0
  0
ARC
  5
AFB
330
2
100
AcDbEntity
  8
4
100
AcDbCircle
 10
649.1854478264272
 20
1015.935330080721
 30
0.0
 40
3.783613929059507
100
AcDbArc
 50
49.57010315517471
 51
130.4298968448253
  0
LINE
  5
AFC
330
2
100
AcDbEntity
  8
4
100
AcDbLine
 10
646.7317091823716
 20
1018.815417063928
 30
0.0
 11
646.7317091823716
 21
1012.71894400978
 31
0.0
  0
LINE
  5
AFD
330
2
100
AcDbEntity
  8
4
100
AcDbLine
 10
651.6391864704833
 20
1010.21894400978
 30
0.0
 11
651.6391864704833
 21
1018.815417063928
 31
0.0
  0
LINE
  5
AFE
330
2
100
AcDbEntity
  8
4
100
AcDbLine
 10
636.9167546061476
 20
1018.815417063928
 30
0.0
 11
636.9167546061476
 21
1012.71894400978
 31
0.0
  0
ARC
  5
AFF
330
2
100
AcDbEntity
  8
4
100
AcDbCircle
 10
641.8242318942598
 20
1005.939778712321
 30
0.0
 40
13.77916529745958
100
AcDbArc
 50
69.13593563608075
 51
110.8640643639193
  0
LINE
  5
B00
330
2
100
AcDbEntity
  8
4
100
AcDbLine
 10
652.8242318942589
 20
995.8189440097806
 30
0.0
 11
652.8242318942589
 21
1009.21894400978
 31
0.0
  0
LINE
  5
B01
330
2
100
AcDbEntity
  8
4
100
AcDbLine
 10
654.8242318942589
 20
993.8189440097806
 30
0.0
 11
654.8242318942589
 21
995.8189440097806
 31
0.0
  0
LINE
  5
B02
330
2
100
AcDbEntity
  8
L-CENTER
 48
8.0
100
AcDbLine
 10
641.8242318942598
 20
987.3065972886891
 30
0.0
 11
641.8242318942598
 21
1022.586922264361
 31
0.0
  0
ARC
  5
B03
330
2
100
AcDbEntity
  8
4
100
AcDbCircle
 10
651.8242318942584
 20
1009.21894400978
 30
0.0
 40
1.0
100
AcDbArc
 50
0.0
 51
90.0
  0
ARC
  5
B04
330
2
100
AcDbEntity
  8
4
100
AcDbCircle
 10
651.8242318942584
 20
1009.21894400978
 30
0.0
 40
1.0
100
AcDbArc
 50
0.0
 51
90.0
  0
ARC
  5
B05
330
2
100
AcDbEntity
  8
4
100
AcDbCircle
 10
655.8242318942589
 20
1023.81894400978
 30
0.0
 40
10.0
100
AcDbArc
 50
245.2597910524679
 51
204.2048348014577
  0
LINE
  5
B06
330
2
100
AcDbEntity
  8
4
100
AcDbLine
 10
665.6242318942591
 20
993.8189440097806
 30
0.0
 11
648.8242318942589
 21
993.8189440097806
 31
0.0
  0
LINE
  5
B07
330
2
100
AcDbEntity
  8
4
100
AcDbLine
 10
668.1242318942591
 20
971.15292800978
 30
0.0
 11
674.2292158942591
 21
971.15292800978
 31
0.0
  0
ARC
  5
B08
330
2
100
AcDbEntity
  8
4
100
AcDbCircle
 10
671.333219894259
 20
973.5992200097801
 30
0.0
 40
3.79102
100
AcDbArc
 50
319.814112
 51
40.18825599999911
  0
LINE
  5
B09
330
2
100
AcDbEntity
  8
4
100
AcDbLine
 10
509.8242318942584
 20
1064.81894400978
 30
0.0
 11
509.8242318942584
 21
1162.81894400978
 31
0.0
  0
LINE
  5
B0A
330
2
100
AcDbEntity
  8
4
100
AcDbLine
 10
523.3242318942589
 20
1054.81894400978
 30
0.0
 11
523.3242318942589
 21
1053.81894400978
 31
0.0
  0
ARC
  5
B0B
330
2
100
AcDbEntity
  8
4
100
AcDbCircle
 10
510.8242318942584
 20
1064.818944009781
 30
0.0
 40
1.0
100
AcDbArc
 50
180.0
 51
270.0
  0
LINE
  5
B0C
330
2
100
AcDbEntity
  8
4
100
AcDbLine
 10
510.8242318942584
 20
1063.81894400978
 30
0.0
 11
510.8242318942584
 21
1063.81894400978
 31
0.0
  0
LINE
  5
B0D
330
2
100
AcDbEntity
  8
4
100
AcDbLine
 10
510.8242318942584
 20
1054.81894400978
 30
0.0
 11
510.8242318942584
 21
1063.81894400978
 31
0.0
  0
LINE
  5
B0E
330
2
100
AcDbEntity
  8
4
100
AcDbLine
 10
509.8242318942584
 20
1162.81894400978
 30
0.0
 11
508.8242318942584
 21
1163.81894400978
 31
0.0
  0
LINE
  5
B0F
330
2
100
AcDbEntity
  8
4
100
AcDbLine
 10
623.8242318942598
 20
1048.81894400978
 30
0.0
 11
672.8242318942589
 21
1048.81894400978
 31
0.0
  0
LINE
  5
B10
330
2
100
AcDbEntity
  8
4
100
AcDbLine
 10
680.8242318942589
 20
806.8189440097797
 30
0.0
 11
680.8242318942589
 21
1040.81894400978
 31
0.0
  0
CIRCLE
  5
B1D
330
2
100
AcDbEntity
  8
L-CENTER
 48
8.0
100
AcDbCircle
 10
1105.038585490878
 20
425.322614125751
 30
0.0
 40
60.00000000000007
  0
ENDSEC
  0
SECTION
  2
OBJECTS
  0
DICTIONARY
  5
9
330
0
100
AcDbDictionary
281
     1
  3
ACAD_CIP_PREVIOUS_PRODUCT_INFO
350
9EA
  3
ACAD_COLOR
350
9CC
  3
ACAD_DETAILVIEWSTYLE
350
9E5
  3
ACAD_GROUP
350
23
  3
ACAD_LAYOUT
350
D
  3
ACAD_MATERIAL
350
99A
  3
ACAD_MLEADERSTYLE
350
9E1
  3
ACAD_MLINESTYLE
350
24
  3
ACAD_PLOTSETTINGS
350
25
  3
ACAD_PLOTSTYLENAME
350
8
  3
ACAD_SCALELIST
350
9CF
  3
ACAD_SECTIONVIEWSTYLE
350
9E3
  3
ACAD_TABLESTYLE
350
9CD
  3
ACAD_VISUALSTYLE
350
9B3
  3
ACDBHEADERROUNDTRIPXREC
350
B21
  3
AcDbVariableDictionary
350
95F
  3
DWGPROPS
350
B24
  0
DICTIONARY
  5
B25
330
1D
100
AcDbDictionary
280
     1
281
     1
  3
ACAD_XREC_ROUNDTRIP
360
B26
  0
DICTIONARY
  5
9FA
330
14
100
AcDbDictionary
280
     1
281
     1
  3
ACAD_LAYERSTATES
360
9FB
  0
DICTIONARY
  5
9EB
330
6
100
AcDbDictionary
280
     1
281
     1
  3
ADSK_XREC_LAYER_RECONCILED
360
9EC
  0
DICTIONARY
  5
9ED
330
2C
100
AcDbDictionary
280
     1
281
     1
  3
ADSK_XREC_LAYER_RECONCILED
360
9EE
  0
DICTIONARY
  5
9EF
330
26
100
AcDbDictionary
280
     1
281
     1
  3
ADSK_XREC_LAYER_RECONCILED
360
9F0
  0
DICTIONARY
  5
9F1
330
3E
100
AcDbDictionary
280
     1
281
     1
  3
ADSK_XREC_LAYER_RECONCILED
360
9F2
  0
DICTIONARY
  5
9F3
330
2E
100
AcDbDictionary
280
     1
281
     1
  3
ADSK_XREC_LAYER_RECONCILED
360
9F4
  0
DICTIONARY
  5
9F5
330
45
100
AcDbDictionary
280
     1
281
     1
  3
ADSK_XREC_LAYER_RECONCILED
360
9F6
  0
DICTIONARY
  5
32C
330
32B
100
AcDbDictionary
280
     1
281
     1
  3
ADSK_XREC_LAYER_RECONCILED
360
32E
  0
DICTIONARY
  5
B18
330
2
100
AcDbDictionary
280
     1
281
     1
  3
ACAD_SORTENTS
360
B19
  0
XRECORD
  5
9EA
102
{ACAD_REACTORS
330
9
102
}
330
9
100
AcDbXrecord
280
     1
300
ACD
300
2014
300
ACD_F_S
  0
DICTIONARY
  5
9CC
102
{ACAD_REACTORS
330
9
102
}
330
9
100
AcDbDictionary
281
     1
  0
DICTIONARY
  5
9E5
102
{ACAD_REACTORS
330
9
102
}
330
9
100
AcDbDictionary
281
     1
  3
Imperial24
350
9E6
  0
DICTIONARY
  5
23
102
{ACAD_REACTORS
330
9
102
}
330
9
100
AcDbDictionary
281
     1
  0
DICTIONARY
  5
D
102
{ACAD_REACTORS
330
9
102
}
330
9
100
AcDbDictionary
281
     1
  3
Model
350
C
  3
ﾚｲｱｳﾄ1
350
13
  0
DICTIONARY
  5
99A
102
{ACAD_REACTORS
330
9
102
}
330
9
100
AcDbDictionary
281
     1
  3
ByBlock
350
9A3
  3
ByLayer
350
99B
  3
Global
350
9AB
  0
DICTIONARY
  5
9E1
102
{ACAD_REACTORS
330
9
102
}
330
9
100
AcDbDictionary
281
     1
  3
Standard
350
9E2
  0
DICTIONARY
  5
24
102
{ACAD_REACTORS
330
9
102
}
330
9
100
AcDbDictionary
281
     1
  3
STANDARD
350
28
  0
DICTIONARY
  5
25
102
{ACAD_REACTORS
330
9
102
}
330
9
100
AcDbDictionary
281
     1
  0
ACDBDICTIONARYWDFLT
  5
8
102
{ACAD_REACTORS
330
9
102
}
330
9
100
AcDbDictionary
281
     1
  3
Normal
350
7
100
AcDbDictionaryWithDefault
340
7
  0
DICTIONARY
  5
9CF
102
{ACAD_REACTORS
330
9
102
}
330
9
100
AcDbDictionary
281
     1
  3
A0
350
9D0
  3
A1
350
9D1
  3
A2
350
9D2
  3
A3
350
9D3
  3
A4
350
9D4
  3
A5
350
9D5
  3
A6
350
9D6
  3
A7
350
9D7
  3
A8
350
9D8
  3
A9
350
9D9
  3
B0
350
9DA
  3
B1
350
9DB
  3
B2
350
9DC
  3
B3
350
9DD
  3
B4
350
9DE
  3
B5
350
9DF
  3
B6
350
9E0
  0
DICTIONARY
  5
9E3
102
{ACAD_REACTORS
330
9
102
}
330
9
100
AcDbDictionary
281
     1
  3
Imperial24
350
9E4
  0
DICTIONARY
  5
9CD
102
{ACAD_REACTORS
330
9
102
}
330
9
100
AcDbDictionary
281
     1
  3
Standard
350
9CE
  0
DICTIONARY
  5
9B3
102
{ACAD_REACTORS
330
9
102
}
330
9
100
AcDbDictionary
281
     1
  3
2dWireframe
350
9B9
  3
Basic
350
9B8
  3
Brighten
350
9BF
  3
ColorChange
350
9C3
  3
Conceptual
350
9BC
  3
Dim
350
9BE
  3
EdgeColorOff
350
9CB
  3
Facepattern
350
9C2
  3
Flat
350
9B4
  3
FlatWithEdges
350
9B5
  3
Gouraud
350
9B6
  3
GouraudWithEdges
350
9B7
  3
Hidden
350
9BB
  3
JitterOff
350
9C9
  3
Linepattern
350
9C1
  3
OverhangOff
350
9CA
  3
Realistic
350
9BD
  3
Shaded
350
9C8
  3
Shaded with edges
350
9C7
  3
Shades of Gray
350
9C4
  3
Sketchy
350
9C5
  3
Thicken
350
9C0
  3
Wireframe
350
9BA
  3
X-Ray
350
9C6
  0
DICTIONARY
  5
B21
102
{ACAD_REACTORS
330
9
102
}
330
9
100
AcDbDictionary
281
     1
  3
COLORDICT
350
B22
  3
MATERIALDICT
350
B23
  0
DICTIONARY
  5
95F
102
{ACAD_REACTORS
330
9
102
}
330
9
100
AcDbDictionary
281
     1
  3
CANNOSCALE
350
A0B
  3
CMLEADERSTYLE
350
A07
  3
CTABLESTYLE
350
A06
  3
CVIEWDETAILSTYLE
350
A08
  3
CVIEWSECTIONSTYLE
350
A09
  3
DIMASSOC
350
961
  3
HIDETEXT
350
960
  3
LAYEREVAL
350
A0D
  3
LAYERNOTIFY
350
A0E
  3
LIGHTINGUNITS
350
A0C
  3
MSLTSCALE
350
A0A
  3
XCLIPFRAME
350
B11
  0
XRECORD
  5
B24
102
{ACAD_REACTORS
330
9
102
}
330
9
100
AcDbXrecord
280
     1
  1
DWGPROPS COOKIE
  2

  3

  4

  6

  7

  8
sg-d04
  9

300
=
301
=
302
=
303
=
304
=
305
=
306
=
307
=
308
=
309
=
 40
0.0
 41
2457345.443211678
 42
2457871.456621181
  1

 90
        0
  0
XRECORD
  5
B26
102
{ACAD_REACTORS
330
B25
102
}
330
B25
100
AcDbXrecord
280
     1
102
VTR_0.000_0.000_1.000_1.000_VISUALSTYLE
340
9B9
102
VTR_0.000_0.000_1.000_1.000_GRIDDISPLAY
 70
     3
102
VTR_0.000_0.000_1.000_1.000_GRIDMAJOR
 70
     5
102
VTR_0.000_0.000_1.000_1.000_DEFAULTLIGHTING
280
     1
102
VTR_0.000_0.000_1.000_1.000_DEFAULTLIGHTINGTYPE
 70
     1
102
VTR_0.000_0.000_1.000_1.000_BRIGHTNESS
141
0.0
102
VTR_0.000_0.000_1.000_1.000_CONTRAST
142
0.0
  0
DICTIONARY
  5
9FB
102
{ACAD_REACTORS
330
9FA
102
}
330
9FA
100
AcDbDictionary
281
     1
  0
XRECORD
  5
9EC
102
{ACAD_REACTORS
330
9EB
102
}
330
9EB
100
AcDbXrecord
280
     1
290
     1
  0
XRECORD
  5
9EE
102
{ACAD_REACTORS
330
9ED
102
}
330
9ED
100
AcDbXrecord
280
     1
290
     1
  0
XRECORD
  5
9F0
102
{ACAD_REACTORS
330
9EF
102
}
330
9EF
100
AcDbXrecord
280
     1
290
     1
  0
XRECORD
  5
9F2
102
{ACAD_REACTORS
330
9F1
102
}
330
9F1
100
AcDbXrecord
280
     1
290
     1
  0
XRECORD
  5
9F4
102
{ACAD_REACTORS
330
9F3
102
}
330
9F3
100
AcDbXrecord
280
     1
290
     1
  0
XRECORD
  5
9F6
102
{ACAD_REACTORS
330
9F5
102
}
330
9F5
100
AcDbXrecord
280
     1
290
     1
  0
XRECORD
  5
32E
102
{ACAD_REACTORS
330
32C
102
}
330
32C
100
AcDbXrecord
280
     1
290
     1
  0
SORTENTSTABLE
  5
B19
102
{ACAD_REACTORS
330
B18
102
}
330
B18
100
AcDbSortentsTable
330
2
331
0
  5
F9
331
D3
  5
D4
331
D4
  5
D6
331
D5
  5
D7
331
D6
  5
D8
331
D7
  5
D9
331
DB
  5
DD
331
DD
  5
DF
331
DE
  5
E0
331
DF
  5
E1
331
E0
  5
E2
331
E1
  5
E3
331
E2
  5
E4
331
E3
  5
E5
331
E8
  5
EA
331
E9
  5
EB
331
ED
  5
EF
331
EE
  5
F0
331
EF
  5
F1
331
F0
  5
F2
331
F1
  5
F3
331
F3
  5
F5
331
F4
  5
F6
331
F5
  5
F7
331
FA
  5
FC
331
FB
  5
FD
331
FC
  5
FE
331
FD
  5
FF
331
FE
  5
100
331
FF
  5
101
331
100
  5
102
331
101
  5
103
331
102
  5
104
331
103
  5
105
331
104
  5
106
331
105
  5
107
331
106
  5
108
331
107
  5
109
331
108
  5
10A
331
109
  5
10B
331
10A
  5
10C
331
10B
  5
10D
331
10C
  5
10E
331
10D
  5
10F
331
10E
  5
110
331
10F
  5
111
331
110
  5
112
331
111
  5
113
331
112
  5
114
331
113
  5
115
331
114
  5
116
331
11B
  5
11D
331
11C
  5
11E
331
11D
  5
11F
331
11E
  5
120
331
11F
  5
121
331
120
  5
122
331
121
  5
123
331
122
  5
124
331
123
  5
125
331
124
  5
126
331
125
  5
127
331
126
  5
128
331
127
  5
129
331
128
  5
12A
331
129
  5
12B
331
12A
  5
12C
331
12B
  5
12D
331
12C
  5
12E
331
12D
  5
12F
331
12E
  5
130
331
12F
  5
131
331
130
  5
132
331
131
  5
133
331
132
  5
134
331
133
  5
135
331
134
  5
136
331
135
  5
137
331
136
  5
138
331
137
  5
139
331
138
  5
13A
331
139
  5
13B
331
13A
  5
13C
331
13B
  5
13D
331
13C
  5
13E
331
13D
  5
13F
331
13E
  5
140
331
13F
  5
141
331
140
  5
142
331
141
  5
143
331
142
  5
144
331
143
  5
145
331
144
  5
146
331
145
  5
147
331
146
  5
148
331
147
  5
149
331
148
  5
14A
331
149
  5
14B
331
14A
  5
14C
331
14B
  5
14D
331
14C
  5
14E
331
14D
  5
14F
331
14E
  5
150
331
14F
  5
151
331
150
  5
152
331
151
  5
153
331
152
  5
154
331
153
  5
155
331
154
  5
156
331
155
  5
157
331
156
  5
158
331
158
  5
15A
331
159
  5
15B
331
15A
  5
15C
331
15B
  5
15D
331
15C
  5
15E
331
15D
  5
15F
331
15E
  5
160
331
15F
  5
161
331
160
  5
162
331
161
  5
163
331
162
  5
164
331
163
  5
165
331
164
  5
166
331
165
  5
167
331
166
  5
168
331
167
  5
169
331
168
  5
16A
331
169
  5
16B
331
16B
  5
16D
331
16C
  5
16E
331
16D
  5
16F
331
16E
  5
170
331
16F
  5
171
331
170
  5
172
331
171
  5
173
331
172
  5
174
331
173
  5
175
331
174
  5
176
331
175
  5
177
331
176
  5
178
331
177
  5
179
331
178
  5
17A
331
179
  5
17B
331
17A
  5
17C
331
17B
  5
17D
331
17C
  5
17E
331
17D
  5
17F
331
17E
  5
180
331
17F
  5
181
331
180
  5
182
331
181
  5
183
331
183
  5
185
331
184
  5
186
331
185
  5
187
331
186
  5
188
331
187
  5
189
331
188
  5
18A
331
189
  5
18B
331
18A
  5
18C
331
18B
  5
18D
331
18C
  5
18E
331
18D
  5
18F
331
18E
  5
190
331
18F
  5
191
331
190
  5
192
331
191
  5
193
331
192
  5
194
331
193
  5
195
331
194
  5
196
331
195
  5
197
331
196
  5
198
331
197
  5
199
331
198
  5
19A
331
199
  5
19B
331
19A
  5
19C
331
19C
  5
19E
331
19D
  5
19F
331
19E
  5
1A0
331
19F
  5
1A1
331
1A0
  5
1A2
331
1A1
  5
1A3
331
1A3
  5
1A5
331
1A4
  5
1A6
331
1A5
  5
1A7
331
1A6
  5
1A8
331
1A7
  5
1A9
331
1A8
  5
1AA
331
1A9
  5
1AB
331
1AA
  5
1AC
331
1B3
  5
1B5
331
1B4
  5
1B6
331
1B5
  5
1B7
331
1B6
  5
1B8
331
1B7
  5
1B9
331
1B8
  5
1BA
331
1B9
  5
1BB
331
1BA
  5
1BC
331
1BB
  5
1BD
331
1BC
  5
1BE
331
1BD
  5
1BF
331
1BE
  5
1C0
331
1BF
  5
1C1
331
1C0
  5
1C2
331
1C1
  5
1C3
331
1C2
  5
1C4
331
1C3
  5
1C5
331
1C4
  5
1C6
331
1C5
  5
1C7
331
1C6
  5
1C8
331
1C7
  5
1C9
331
1C8
  5
1CA
331
1C9
  5
1CB
331
1CA
  5
1CC
331
1CB
  5
1CD
331
1CC
  5
1CE
331
1CD
  5
1CF
331
1CE
  5
1D0
331
1CF
  5
1D1
331
1D0
  5
1D2
331
1D1
  5
1D3
331
1D2
  5
1D4
331
1D3
  5
1D5
331
1D4
  5
1D6
331
1D5
  5
1D7
331
1D6
  5
1D8
331
1D7
  5
1D9
331
1D8
  5
1DA
331
1D9
  5
1DB
331
1DA
  5
1DC
331
1DB
  5
1DD
331
1DC
  5
1DE
331
1DD
  5
1DF
331
1DE
  5
1E0
331
1DF
  5
1E1
331
1E1
  5
1E3
331
1E2
  5
1E4
331
1E3
  5
1E5
331
1E4
  5
1E6
331
1E5
  5
1E7
331
1E6
  5
1E8
331
1E7
  5
1E9
331
1E8
  5
1EA
331
1E9
  5
1EB
331
1EA
  5
1EC
331
1EB
  5
1ED
331
1EC
  5
1EE
331
1ED
  5
1EF
331
1EE
  5
1F0
331
1EF
  5
1F1
331
1F0
  5
1F2
331
1F1
  5
1F3
331
1F2
  5
1F4
331
1F3
  5
1F5
331
1F4
  5
1F6
331
1F5
  5
1F7
331
1F6
  5
1F8
331
1F7
  5
1F9
331
1F8
  5
1FA
331
1F9
  5
1FB
331
1FA
  5
1FC
331
1FB
  5
1FD
331
1FC
  5
1FE
331
1FD
  5
1FF
331
1FE
  5
200
331
1FF
  5
201
331
200
  5
202
331
201
  5
203
331
202
  5
204
331
203
  5
205
331
204
  5
206
331
205
  5
207
331
206
  5
208
331
207
  5
209
331
208
  5
20A
331
209
  5
20B
331
20A
  5
20C
331
20B
  5
20D
331
20C
  5
20E
331
20D
  5
20F
331
20E
  5
210
331
254
  5
256
331
255
  5
257
331
256
  5
258
331
25B
  5
25D
331
264
  5
266
331
266
  5
268
331
26F
  5
271
331
270
  5
272
331
271
  5
273
331
272
  5
274
331
273
  5
275
331
279
  5
27B
331
281
  5
283
331
28E
  5
290
331
339
  5
33B
331
36B
  5
36D
331
36C
  5
36E
331
36D
  5
36F
331
36E
  5
370
331
36F
  5
371
331
37A
  5
37C
331
37B
  5
37D
331
37C
  5
37E
331
386
  5
388
331
387
  5
389
331
388
  5
38A
331
389
  5
38B
331
38A
  5
38C
331
38B
  5
38D
331
38C
  5
38E
331
38D
  5
38F
331
38E
  5
390
331
38F
  5
391
331
390
  5
392
331
391
  5
393
331
392
  5
394
331
393
  5
395
331
394
  5
396
331
395
  5
397
331
396
  5
398
331
397
  5
399
331
398
  5
39A
331
399
  5
39B
331
39A
  5
39C
331
39C
  5
39E
331
39D
  5
39F
331
39E
  5
3A0
331
39F
  5
3A1
331
3AB
  5
3AD
331
3AC
  5
3AE
331
3AD
  5
3AF
331
3AE
  5
3B0
331
3AF
  5
3B1
331
3B0
  5
3B2
331
3B1
  5
3B3
331
3B2
  5
3B4
331
3B3
  5
3B5
331
3B4
  5
3B6
331
3B5
  5
3B7
331
3B6
  5
3B8
331
3B7
  5
3B9
331
3B8
  5
3BA
331
3B9
  5
3BB
331
3BE
  5
3C0
331
3BF
  5
3C1
331
3C0
  5
3C2
331
3C1
  5
3C3
331
3C2
  5
3C4
331
3C7
  5
3C9
331
3C8
  5
3CA
331
3C9
  5
3CB
331
3CA
  5
3CC
331
3CB
  5
3CD
331
3CC
  5
3CE
331
3CD
  5
3CF
331
3CE
  5
3D0
331
3CF
  5
3D1
331
3D0
  5
3D2
331
3D1
  5
3D3
331
3D2
  5
3D4
331
3D3
  5
3D5
331
3D4
  5
3D6
331
3D5
  5
3D7
331
3D6
  5
3D8
331
3D7
  5
3D9
331
3D8
  5
3DA
331
3D9
  5
3DB
331
3DA
  5
3DC
331
3DB
  5
3DD
331
3DC
  5
3DE
331
3DD
  5
3DF
331
3DE
  5
3E0
331
3DF
  5
3E1
331
3E0
  5
3E2
331
3E1
  5
3E3
331
3E2
  5
3E4
331
3E3
  5
3E5
331
3E4
  5
3E6
331
3E5
  5
3E7
331
3E6
  5
3E8
331
3E7
  5
3E9
331
3E8
  5
3EA
331
3E9
  5
3EB
331
3EA
  5
3EC
331
3EB
  5
3ED
331
3EC
  5
3EE
331
3ED
  5
3EF
331
3EE
  5
3F0
331
3EF
  5
3F1
331
3F0
  5
3F2
331
3F1
  5
3F3
331
3F2
  5
3F4
331
3F3
  5
3F5
331
3F4
  5
3F6
331
3F7
  5
3F9
331
3F8
  5
3FA
331
3F9
  5
3FB
331
3FA
  5
3FC
331
3FB
  5
3FD
331
3FF
  5
401
331
400
  5
402
331
401
  5
403
331
402
  5
404
331
403
  5
405
331
404
  5
406
331
405
  5
407
331
407
  5
409
331
40A
  5
40C
331
40B
  5
40D
331
40C
  5
40E
331
40D
  5
40F
331
40E
  5
410
331
40F
  5
411
331
410
  5
412
331
411
  5
413
331
412
  5
414
331
414
  5
416
331
415
  5
417
331
416
  5
418
331
417
  5
419
331
418
  5
41A
331
41A
  5
41C
331
41B
  5
41D
331
41C
  5
41E
331
41D
  5
41F
331
41E
  5
420
331
41F
  5
421
331
420
  5
422
331
421
  5
423
331
422
  5
424
331
423
  5
425
331
424
  5
426
331
425
  5
427
331
426
  5
428
331
427
  5
429
331
428
  5
42A
331
429
  5
42B
331
42A
  5
42C
331
42B
  5
42D
331
42C
  5
42E
331
42D
  5
42F
331
42E
  5
430
331
42F
  5
431
331
430
  5
432
331
431
  5
433
331
432
  5
434
331
433
  5
435
331
434
  5
436
331
435
  5
437
331
436
  5
438
331
437
  5
439
331
438
  5
43A
331
439
  5
43B
331
43A
  5
43C
331
43B
  5
43D
331
43C
  5
43E
331
43D
  5
43F
331
43E
  5
440
331
43F
  5
441
331
440
  5
442
331
441
  5
443
331
442
  5
444
331
443
  5
445
331
444
  5
446
331
445
  5
447
331
446
  5
448
331
447
  5
449
331
448
  5
44A
331
449
  5
44B
331
44A
  5
44C
331
44B
  5
44D
331
44C
  5
44E
331
44D
  5
44F
331
44E
  5
450
331
44F
  5
451
331
450
  5
452
331
451
  5
453
331
452
  5
454
331
453
  5
455
331
454
  5
456
331
455
  5
457
331
456
  5
458
331
457
  5
459
331
458
  5
45A
331
459
  5
45B
331
45A
  5
45C
331
45B
  5
45D
331
45C
  5
45E
331
45D
  5
45F
331
45E
  5
460
331
45F
  5
461
331
460
  5
462
331
461
  5
463
331
462
  5
464
331
463
  5
465
331
464
  5
466
331
465
  5
467
331
466
  5
468
331
467
  5
469
331
468
  5
46A
331
469
  5
46B
331
46A
  5
46C
331
46B
  5
46D
331
46C
  5
46E
331
46D
  5
46F
331
46E
  5
470
331
46F
  5
471
331
470
  5
472
331
471
  5
473
331
472
  5
474
331
473
  5
475
331
478
  5
47A
331
47B
  5
47D
331
47C
  5
47E
331
543
  5
545
331
544
  5
546
331
545
  5
547
331
546
  5
548
331
549
  5
54B
331
54A
  5
54C
331
54B
  5
54D
331
54C
  5
54E
331
54D
  5
54F
331
54E
  5
550
331
54F
  5
551
331
550
  5
552
331
551
  5
553
331
552
  5
554
331
554
  5
556
331
555
  5
557
331
A10
  5
A12
331
A11
  5
A13
331
A12
  5
A14
331
A13
  5
A15
331
A14
  5
A16
331
A15
  5
A17
331
A16
  5
A18
331
A17
  5
A19
331
A18
  5
A1A
331
A19
  5
A1B
331
A1A
  5
A1C
331
A1B
  5
A1D
331
A1C
  5
A1E
331
A1D
  5
A1F
331
A1E
  5
A20
331
A1F
  5
A21
331
A20
  5
A22
331
A21
  5
A23
331
A22
  5
A24
331
A23
  5
A25
331
A24
  5
A26
331
A25
  5
A27
331
A26
  5
A28
331
A27
  5
A29
331
A28
  5
A2A
331
A29
  5
A2B
331
A2A
  5
A2C
331
A2B
  5
A2D
331
A2C
  5
A2E
331
A2D
  5
A2F
331
A2E
  5
A30
331
A2F
  5
A31
331
A30
  5
A32
331
A31
  5
A33
331
A32
  5
A34
331
A33
  5
A35
331
A34
  5
A36
331
A35
  5
A37
331
A36
  5
A38
331
A37
  5
A39
331
A38
  5
A3A
331
A39
  5
A3B
331
A3A
  5
A3C
331
A3B
  5
A3D
331
A3C
  5
A3E
331
A3D
  5
A3F
331
A3E
  5
A40
331
A3F
  5
A41
331
A40
  5
A42
331
A41
  5
A43
331
A42
  5
A44
331
A43
  5
A45
331
A44
  5
A46
331
A45
  5
A47
331
A46
  5
A48
331
A47
  5
A49
331
A48
  5
A4A
331
A49
  5
A4B
331
A4A
  5
A4C
331
A4B
  5
A4D
331
A4C
  5
A4E
331
A4D
  5
A4F
331
A4E
  5
A50
331
A4F
  5
A51
331
A50
  5
A52
331
A51
  5
A53
331
A52
  5
A54
331
A53
  5
A55
331
A54
  5
A56
331
A55
  5
A57
331
A56
  5
A58
331
A57
  5
A59
331
A58
  5
A5A
331
A59
  5
A5B
331
A5A
  5
A5C
331
A5B
  5
A5D
331
A5C
  5
A5E
331
A5D
  5
A5F
331
A5E
  5
A60
331
A5F
  5
A61
331
A60
  5
A62
331
A61
  5
A63
331
A62
  5
A64
331
A63
  5
A65
331
A64
  5
A66
331
A65
  5
A67
331
A66
  5
A68
331
A67
  5
A69
331
A68
  5
A6A
331
A69
  5
A6B
331
A6A
  5
A6C
331
A6B
  5
A6D
331
A6C
  5
A6E
331
A6D
  5
A6F
331
A6E
  5
A70
331
A6F
  5
A71
331
A70
  5
A72
331
A71
  5
A73
331
A72
  5
A74
331
A73
  5
A75
331
A74
  5
A76
331
A75
  5
A77
331
A76
  5
A78
331
A77
  5
A79
331
A78
  5
A7A
331
A79
  5
A7B
331
A7A
  5
A7C
331
A7B
  5
A7D
331
A7C
  5
A7E
331
A7D
  5
A7F
331
A7E
  5
A80
331
A7F
  5
A81
331
A80
  5
A82
331
A81
  5
A83
331
A82
  5
A84
331
A83
  5
A85
331
A84
  5
A86
331
A85
  5
A87
331
A86
  5
A88
331
A87
  5
A89
331
A88
  5
A8A
331
A89
  5
A8B
331
A8A
  5
A8C
331
A8B
  5
A8D
331
A8C
  5
A8E
331
A8D
  5
A8F
331
A8E
  5
A90
331
A8F
  5
A91
331
A90
  5
A92
331
A91
  5
A93
331
A92
  5
A94
331
A93
  5
A95
331
A94
  5
A96
331
A95
  5
A97
331
A96
  5
A98
331
A97
  5
A99
331
A98
  5
A9A
331
A99
  5
A9B
331
A9A
  5
A9C
331
A9B
  5
A9D
331
A9C
  5
A9E
331
A9D
  5
A9F
331
A9E
  5
AA0
331
A9F
  5
AA1
331
AA0
  5
AA2
331
AA1
  5
AA3
331
AA2
  5
AA4
331
AA3
  5
AA5
331
AA4
  5
AA6
331
AA5
  5
AA7
331
AA6
  5
AA8
331
AA7
  5
AA9
331
AA8
  5
AAA
331
AA9
  5
AAB
331
AAA
  5
AAC
331
AAB
  5
AAD
331
AAC
  5
AAE
331
AAD
  5
AAF
331
AAE
  5
AB0
331
AAF
  5
AB1
331
AB0
  5
AB2
331
AB1
  5
AB3
331
AB2
  5
AB4
331
AB3
  5
AB5
331
AB4
  5
AB6
331
AB5
  5
AB7
331
AB6
  5
AB8
331
AB7
  5
AB9
331
AB8
  5
ABA
331
AB9
  5
ABB
331
ABA
  5
ABC
331
ABB
  5
ABD
331
ABC
  5
ABE
331
ABD
  5
ABF
331
ABE
  5
AC0
331
ABF
  5
AC1
331
AC0
  5
AC2
331
AC1
  5
AC3
331
AC2
  5
AC4
331
AC3
  5
AC5
331
AC4
  5
AC6
331
AC5
  5
AC7
331
AC6
  5
AC8
331
AC7
  5
AC9
331
AC8
  5
ACA
331
AC9
  5
ACB
331
ACA
  5
ACC
331
ACB
  5
ACD
331
ACC
  5
ACE
331
ACD
  5
ACF
331
ACE
  5
AD0
331
ACF
  5
AD1
331
AD0
  5
AD2
331
AD1
  5
AD3
331
AD2
  5
AD4
331
AD3
  5
AD5
331
AD4
  5
AD6
331
AD5
  5
AD7
331
AD6
  5
AD8
331
AD7
  5
AD9
331
AD8
  5
ADA
331
AD9
  5
ADB
331
ADA
  5
ADC
331
ADB
  5
ADD
331
ADC
  5
ADE
331
ADD
  5
ADF
331
ADE
  5
AE0
331
ADF
  5
AE1
331
AE0
  5
AE2
331
AE1
  5
AE3
331
AE2
  5
AE4
331
AE3
  5
AE5
331
AE4
  5
AE6
331
AE5
  5
AE7
331
AE6
  5
AE8
331
AE7
  5
AE9
331
AE8
  5
AEA
331
AE9
  5
AEB
331
AEA
  5
AEC
331
AEB
  5
AED
331
AEC
  5
AEE
331
AED
  5
AEF
331
AEE
  5
AF0
331
AEF
  5
AF1
331
AF0
  5
AF2
331
AF1
  5
AF3
331
AF2
  5
AF4
331
AF3
  5
AF5
331
AF4
  5
AF6
331
AF5
  5
AF7
331
AF6
  5
AF8
331
AF7
  5
AF9
331
AF8
  5
AFA
331
AF9
  5
AFB
331
AFA
  5
AFC
331
AFB
  5
AFD
331
AFC
  5
AFE
331
AFD
  5
AFF
331
AFE
  5
B00
331
AFF
  5
B01
331
B00
  5
B02
331
B01
  5
B03
331
B02
  5
B04
331
B03
  5
B05
331
B04
  5
B06
331
B05
  5
B07
331
B06
  5
B08
331
B07
  5
B09
331
B08
  5
B0A
331
B09
  5
B0B
331
B0A
  5
B0C
331
B0B
  5
B0D
331
B0C
  5
B0E
331
B0D
  5
B0F
331
B0E
  5
B10
331
B0F
  5
B12
331
B10
  5
B13
  0
ACDBDETAILVIEWSTYLE
  5
9E6
102
{ACAD_REACTORS
330
9E5
102
}
102
{ACAD_XDICTIONARY
360
A03
102
}
330
9E5
100
AcDbModelDocViewStyle
 70
     0
  3
Imperial24
290
     0
100
AcDbDetailViewStyle
 70
     0
 71
     0
 90
        3
 71
     1
340
16
 40
0.24
340
0
 40
0.24
300

 40
0.36
280
     3
 71
     2
340
A
 90
       25
 71
     3
340
16
 40
0.24
 90
        1
 40
0.75
 90
        1
300
%<\AcVar ViewType \f "%tc1">% %<\AcVar ViewDetailId>%\PSCALE %<\AcVar ViewScale \f "%sn">%
 71
     4
340
A
 90
       25
340
A
 90
       25
280
     0
  0
LAYOUT
  5
C
102
{ACAD_REACTORS
330
D
102
}
330
D
100
AcDbPlotSettings
  1

  2
Bullzip PDF Printer.pc3
  4
A3
  6

 40
0.2
 41
0.0
 42
0.0
 43
0.0
 44
420.2
 45
297.1
 46
25.0
 47
12.0
 48
89.99999984133319
 49
20.0
140
1617.999996341333
141
1109.999997456667
142
1.0
143
4.0
 70
 11936
 72
     1
 73
     0
 74
     4
  7
monochrome.ctb
 75
     0
147
1.0
148
-89.99999984133319
149
-20.0
100
AcDbLayout
  1
Model
 70
     1
 71
     0
 10
0.0
 20
0.0
 11
12.0
 21
9.0
 12
0.0
 22
0.0
 32
0.0
 14
100.8272202607425
 24
35.32261412575099
 34
0.0
 15
1492.672265169549
 25
1170.416382980785
 35
0.0
146
0.0
 13
0.0
 23
0.0
 33
0.0
 16
1.0
 26
0.0
 36
0.0
 17
0.0
 27
1.0
 37
0.0
 76
     0
330
2
331
998
1001
ACAD_PSEXT
1000
Bullzip PDF Printer.pc3
1000
Bullzip PDF Printer
1000
BULLZIP
1000
Bullzip PDF Printer 10.1.0.1871
1070
     0
  0
LAYOUT
  5
13
102
{ACAD_REACTORS
330
D
102
}
330
D
100
AcDbPlotSettings
  1

  2
SR-LP8300F
  4

  6

 40
0.0
 41
0.0
 42
0.0
 43
0.0
 44
0.0
 45
0.0
 46
0.0
 47
0.0
 48
0.0
 49
0.0
140
0.0
141
0.0
142
1.0
143
1.0
 70
   688
 72
     0
 73
     0
 74
     5
  7
monochrome.ctb
 75
    16
147
1.0
148
0.0
149
0.0
100
AcDbLayout
  1
ﾚｲｱｳﾄ1
 70
     1
 71
     1
 10
0.0
 20
0.0
 11
12.0
 21
9.0
 12
0.0
 22
0.0
 32
0.0
 14
1.000000000000000E+20
 24
1.000000000000000E+20
 34
1.000000000000000E+20
 15
-1.000000000000000E+20
 25
-1.000000000000000E+20
 35
-1.000000000000000E+20
146
0.0
 13
0.0
 23
0.0
 33
0.0
 16
1.0
 26
0.0
 36
0.0
 17
0.0
 27
1.0
 37
0.0
 76
     0
330
E
  0
MATERIAL
  5
9A3
102
{ACAD_REACTORS
330
99A
102
}
102
{ACAD_XDICTIONARY
360
B28
102
}
330
99A
100
AcDbMaterial
  1
ByBlock
 72
     0
 73
     2
 43
0.0208333333333333
 43
0.0
 43
0.0
 43
0.0
 43
0.0
 43
0.0208333333333333
 43
0.0
 43
0.0
 43
0.0
 43
0.0
 43
1.0
 43
0.0
 43
0.0
 43
0.0
 43
0.0
 43
1.0
 77
     0
 78
     2
 47
0.0208333333333333
 47
0.0
 47
0.0
 47
0.0
 47
0.0
 47
0.0208333333333333
 47
0.0
 47
0.0
 47
0.0
 47
0.0
 47
1.0
 47
0.0
 47
0.0
 47
0.0
 47
0.0
 47
1.0
171
     0
172
     2
 49
0.0208333333333333
 49
0.0
 49
0.0
 49
0.0
 49
0.0
 49
0.0208333333333333
 49
0.0
 49
0.0
 49
0.0
 49
0.0
 49
1.0
 49
0.0
 49
0.0
 49
0.0
 49
0.0
 49
1.0
175
     0
176
     2
142
0.0208333333333333
142
0.0
142
0.0
142
0.0
142
0.0
142
0.0208333333333333
142
0.0
142
0.0
142
0.0
142
0.0
142
1.0
142
0.0
142
0.0
142
0.0
142
0.0
142
1.0
179
     0
270
     2
144
0.0208333333333333
144
0.0
144
0.0
144
0.0
144
0.0
144
0.0208333333333333
144
0.0
144
0.0
144
0.0
144
0.0
144
1.0
144
0.0
144
0.0
144
0.0
144
0.0
144
1.0
274
     2
147
0.0208333333333333
147
0.0
147
0.0
147
0.0
147
0.0
147
0.0208333333333333
147
0.0
147
0.0
147
0.0
147
0.0
147
1.0
147
0.0
147
0.0
147
0.0
147
0.0
147
1.0
  0
MATERIAL
  5
99B
102
{ACAD_REACTORS
330
99A
102
}
102
{ACAD_XDICTIONARY
360
B2A
102
}
330
99A
100
AcDbMaterial
  1
ByLayer
 72
     0
 73
     2
 43
0.0208333333333333
 43
0.0
 43
0.0
 43
0.0
 43
0.0
 43
0.0208333333333333
 43
0.0
 43
0.0
 43
0.0
 43
0.0
 43
1.0
 43
0.0
 43
0.0
 43
0.0
 43
0.0
 43
1.0
 77
     0
 78
     2
 47
0.0208333333333333
 47
0.0
 47
0.0
 47
0.0
 47
0.0
 47
0.0208333333333333
 47
0.0
 47
0.0
 47
0.0
 47
0.0
 47
1.0
 47
0.0
 47
0.0
 47
0.0
 47
0.0
 47
1.0
171
     0
172
     2
 49
0.0208333333333333
 49
0.0
 49
0.0
 49
0.0
 49
0.0
 49
0.0208333333333333
 49
0.0
 49
0.0
 49
0.0
 49
0.0
 49
1.0
 49
0.0
 49
0.0
 49
0.0
 49
0.0
 49
1.0
175
     0
176
     2
142
0.0208333333333333
142
0.0
142
0.0
142
0.0
142
0.0
142
0.0208333333333333
142
0.0
142
0.0
142
0.0
142
0.0
142
1.0
142
0.0
142
0.0
142
0.0
142
0.0
142
1.0
179
     0
270
     2
144
0.0208333333333333
144
0.0
144
0.0
144
0.0
144
0.0
144
0.0208333333333333
144
0.0
144
0.0
144
0.0
144
0.0
144
1.0
144
0.0
144
0.0
144
0.0
144
0.0
144
1.0
274
     2
147
0.0208333333333333
147
0.0
147
0.0
147
0.0
147
0.0
147
0.0208333333333333
147
0.0
147
0.0
147
0.0
147
0.0
147
1.0
147
0.0
147
0.0
147
0.0
147
0.0
147
1.0
  0
MATERIAL
  5
9AB
102
{ACAD_REACTORS
330
99A
102
}
102
{ACAD_XDICTIONARY
360
B2C
102
}
330
99A
100
AcDbMaterial
  1
Global
 72
     0
 73
     2
 43
0.0208333333333333
 43
0.0
 43
0.0
 43
0.0
 43
0.0
 43
0.0208333333333333
 43
0.0
 43
0.0
 43
0.0
 43
0.0
 43
1.0
 43
0.0
 43
0.0
 43
0.0
 43
0.0
 43
1.0
 77
     0
 78
     2
 47
0.0208333333333333
 47
0.0
 47
0.0
 47
0.0
 47
0.0
 47
0.0208333333333333
 47
0.0
 47
0.0
 47
0.0
 47
0.0
 47
1.0
 47
0.0
 47
0.0
 47
0.0
 47
0.0
 47
1.0
171
     0
172
     2
 49
0.0208333333333333
 49
0.0
 49
0.0
 49
0.0
 49
0.0
 49
0.0208333333333333
 49
0.0
 49
0.0
 49
0.0
 49
0.0
 49
1.0
 49
0.0
 49
0.0
 49
0.0
 49
0.0
 49
1.0
175
     0
176
     2
142
0.0208333333333333
142
0.0
142
0.0
142
0.0
142
0.0
142
0.0208333333333333
142
0.0
142
0.0
142
0.0
142
0.0
142
1.0
142
0.0
142
0.0
142
0.0
142
0.0
142
1.0
179
     0
270
     2
144
0.0208333333333333
144
0.0
144
0.0
144
0.0
144
0.0
144
0.0208333333333333
144
0.0
144
0.0
144
0.0
144
0.0
144
1.0
144
0.0
144
0.0
144
0.0
144
0.0
144
1.0
274
     2
147
0.0208333333333333
147
0.0
147
0.0
147
0.0
147
0.0
147
0.0208333333333333
147
0.0
147
0.0
147
0.0
147
0.0
147
1.0
147
0.0
147
0.0
147
0.0
147
0.0
147
1.0
1001
ACAD
1070
    -1
1070
     3
1070
     0
1000

1071
        0
  0
MLEADERSTYLE
  5
9E2
102
{ACAD_REACTORS
330
9E1
102
}
102
{ACAD_XDICTIONARY
360
B2E
102
}
330
9E1
100
AcDbMLeaderStyle
170
     2
171
     1
172
     0
 90
        2
 40
0.0
 41
0.0
173
     1
 91
-1056964608
340
19
 92
       -2
290
     1
 42
0.09
291
     1
 43
0.36
  3
Standard
341
0
 44
0.18
300

342
16
174
     1
178
     6
175
     1
176
     0
 93
-1056964608
 45
0.18
292
     0
297
     0
 46
0.18
343
0
 94
-1056964608
 47
1.0
 49
1.0
140
1.0
293
     1
141
0.0
294
     1
177
     0
142
1.0
295
     1
296
     0
143
0.125
1001
ACAD_MLEADERVER
1070
     2
  0
MLINESTYLE
  5
28
102
{ACAD_REACTORS
330
24
102
}
330
24
100
AcDbMlineStyle
  2
STANDARD
 70
     0
  3

 62
     0
 51
90.0
 52
90.0
 71
     2
 49
0.5
 62
   256
  6
BYLAYER
 49
-0.5
 62
   256
  6
BYLAYER
  0
ACDBPLACEHOLDER
  5
7
102
{ACAD_REACTORS
330
8
102
}
330
8
  0
SCALE
  5
9D0
102
{ACAD_REACTORS
330
9CF
102
}
330
9CF
100
AcDbScale
 70
     0
300
1:1
140
1.0
141
1.0
290
     1
  0
SCALE
  5
9D1
102
{ACAD_REACTORS
330
9CF
102
}
330
9CF
100
AcDbScale
 70
     0
300
1/128" = 1'-0"
140
0.0078125
141
12.0
290
     0
  0
SCALE
  5
9D2
102
{ACAD_REACTORS
330
9CF
102
}
330
9CF
100
AcDbScale
 70
     0
300
1/64" = 1'-0"
140
0.015625
141
12.0
290
     0
  0
SCALE
  5
9D3
102
{ACAD_REACTORS
330
9CF
102
}
330
9CF
100
AcDbScale
 70
     0
300
1/32" = 1'-0"
140
0.03125
141
12.0
290
     0
  0
SCALE
  5
9D4
102
{ACAD_REACTORS
330
9CF
102
}
330
9CF
100
AcDbScale
 70
     0
300
1/16" = 1'-0"
140
0.0625
141
12.0
290
     0
  0
SCALE
  5
9D5
102
{ACAD_REACTORS
330
9CF
102
}
330
9CF
100
AcDbScale
 70
     0
300
3/32" = 1'-0"
140
0.09375
141
12.0
290
     0
  0
SCALE
  5
9D6
102
{ACAD_REACTORS
330
9CF
102
}
330
9CF
100
AcDbScale
 70
     0
300
1/8" = 1'-0"
140
0.125
141
12.0
290
     0
  0
SCALE
  5
9D7
102
{ACAD_REACTORS
330
9CF
102
}
330
9CF
100
AcDbScale
 70
     0
300
3/16" = 1'-0"
140
0.1875
141
12.0
290
     0
  0
SCALE
  5
9D8
102
{ACAD_REACTORS
330
9CF
102
}
330
9CF
100
AcDbScale
 70
     0
300
1/4" = 1'-0"
140
0.25
141
12.0
290
     0
  0
SCALE
  5
9D9
102
{ACAD_REACTORS
330
9CF
102
}
330
9CF
100
AcDbScale
 70
     0
300
3/8" = 1'-0"
140
0.375
141
12.0
290
     0
  0
SCALE
  5
9DA
102
{ACAD_REACTORS
330
9CF
102
}
330
9CF
100
AcDbScale
 70
     0
300
1/2" = 1'-0"
140
0.5
141
12.0
290
     0
  0
SCALE
  5
9DB
102
{ACAD_REACTORS
330
9CF
102
}
330
9CF
100
AcDbScale
 70
     0
300
3/4" = 1'-0"
140
0.75
141
12.0
290
     0
  0
SCALE
  5
9DC
102
{ACAD_REACTORS
330
9CF
102
}
330
9CF
100
AcDbScale
 70
     0
300
1" = 1'-0"
140
1.0
141
12.0
290
     0
  0
SCALE
  5
9DD
102
{ACAD_REACTORS
330
9CF
102
}
330
9CF
100
AcDbScale
 70
     0
300
1-1/2" = 1'-0"
140
1.5
141
12.0
290
     0
  0
SCALE
  5
9DE
102
{ACAD_REACTORS
330
9CF
102
}
330
9CF
100
AcDbScale
 70
     0
300
3" = 1'-0"
140
3.0
141
12.0
290
     0
  0
SCALE
  5
9DF
102
{ACAD_REACTORS
330
9CF
102
}
330
9CF
100
AcDbScale
 70
     0
300
6" = 1'-0"
140
6.0
141
12.0
290
     0
  0
SCALE
  5
9E0
102
{ACAD_REACTORS
330
9CF
102
}
330
9CF
100
AcDbScale
 70
     0
300
1'-0" = 1'-0"
140
12.0
141
12.0
290
     0
  0
ACDBSECTIONVIEWSTYLE
  5
9E4
102
{ACAD_REACTORS
330
9E3
102
}
102
{ACAD_XDICTIONARY
360
A01
102
}
330
9E3
100
AcDbModelDocViewStyle
 70
     0
  3
Imperial24
290
     0
100
AcDbSectionViewStyle
 70
     0
 71
     0
 90
       78
 71
     1
340
16
 40
0.24
340
0
340
0
 40
0.24
300
I, O, Q, S, X, Z
 40
0.48
 90
        3
 40
0.18
 90
        1
 71
     2
340
A
 90
       25
340
A
 90
       50
 40
0.24
 40
0.0
 40
0.24
 71
     3
340
16
 40
0.24
 90
        1
 40
0.75
 90
        1
300
%<\AcVar ViewType \f "%tc1">% %<\AcVar ViewSectionStartId>%-%<\AcVar ViewSectionEndId>%\PSCALE %<\AcVar ViewScale \f "%sn">%
 71
     4
300
ANSI31
 40
1.0
 90
        0
290
     0
290
     0
 90
        6
 40
0.0
 40
1.570796326794897
 40
0.2617993877991494
 40
1.308996938995747
 40
-0.2617993877991494
 40
1.832595714594046
  0
TABLESTYLE
  5
9CE
102
{ACAD_REACTORS
330
9CD
102
}
330
9CD
100
AcDbTableStyle
  3
Standard
 70
     0
 71
     0
 40
0.06
 41
0.06
280
     0
281
     0
  7
STANDARD
140
0.18
170
     2
 62
     0
 63
   257
283
     0
274
    -2
284
     1
 64
     0
275
    -2
285
     1
 65
     0
276
    -2
286
     1
 66
     0
277
    -2
287
     1
 67
     0
278
    -2
288
     1
 68
     0
279
    -2
289
     1
 69
     0
  7
STANDARD
140
0.25
170
     5
 62
     0
 63
   257
283
     0
274
    -2
284
     1
 64
     0
275
    -2
285
     1
 65
     0
276
    -2
286
     1
 66
     0
277
    -2
287
     1
 67
     0
278
    -2
288
     1
 68
     0
279
    -2
289
     1
 69
     0
  7
STANDARD
140
0.18
170
     5
 62
     0
 63
   257
283
     0
274
    -2
284
     1
 64
     0
275
    -2
285
     1
 65
     0
276
    -2
286
     1
 66
     0
277
    -2
287
     1
 67
     0
278
    -2
288
     1
 68
     0
279
    -2
289
     1
 69
     0
  0
VISUALSTYLE
  5
9B9
102
{ACAD_REACTORS
330
9B3
102
}
102
{ACAD_XDICTIONARY
360
B31
102
}
330
9B3
100
AcDbVisualStyle
  2
2dWireframe
 70
     4
 71
     0
 72
     2
 73
     0
 90
        0
 40
0.6
 41
30.0
 62
     5
 63
     7
 74
     1
 91
        4
 64
     7
 65
   257
 75
     1
175
     1
 42
1.0
 92
        0
 66
   257
 43
1.0
 76
     1
 77
     6
 78
     2
 67
     7
 79
     5
170
     0
171
     0
290
     0
174
     0
 93
        1
 44
0.0
173
     0
291
     0
 45
0.0
1001
ACAD
1000
AcDbSavedByObjectVersion
1070
     0
  0
VISUALSTYLE
  5
9B8
102
{ACAD_REACTORS
330
9B3
102
}
102
{ACAD_XDICTIONARY
360
B33
102
}
330
9B3
100
AcDbVisualStyle
  2
Basic
 70
     7
 71
     1
 72
     0
 73
     1
 90
        0
 40
0.6
 41
30.0
 62
     5
 63
     7
 74
     0
 91
        4
 64
     7
 65
   257
 75
     1
175
     1
 42
1.0
 92
        8
 66
     7
 43
1.0
 76
     1
 77
     6
 78
     2
 67
     7
 79
     5
170
     0
171
     0
290
     0
174
     0
 93
        1
 44
0.0
173
     0
291
     1
 45
0.0
1001
ACAD
1000
AcDbSavedByObjectVersion
1070
     0
  0
VISUALSTYLE
  5
9BF
102
{ACAD_REACTORS
330
9B3
102
}
102
{ACAD_XDICTIONARY
360
B35
102
}
330
9B3
100
AcDbVisualStyle
  2
Brighten
 70
    12
 71
     2
 72
     2
 73
     0
 90
        0
 40
0.6
 41
30.0
 62
     5
 63
     7
 74
     1
 91
        4
 64
     7
 65
   257
 75
     1
175
     1
 42
1.0
 92
        8
 66
     7
 43
1.0
 76
     1
 77
     6
 78
     2
 67
     7
 79
     5
170
     0
171
     0
290
     0
174
     0
 93
        1
 44
50.0
173
     0
291
     1
 45
0.0
1001
ACAD
1000
AcDbSavedByObjectVersion
1070
     0
  0
VISUALSTYLE
  5
9C3
102
{ACAD_REACTORS
330
9B3
102
}
102
{ACAD_XDICTIONARY
360
B37
102
}
330
9B3
100
AcDbVisualStyle
  2
ColorChange
 70
    16
 71
     2
 72
     2
 73
     3
 90
        0
 40
0.6
 41
30.0
 62
     5
 63
     8
 74
     1
 91
        4
 64
     7
 65
   257
 75
     1
175
     1
 42
1.0
 92
        8
 66
     8
 43
1.0
 76
     1
 77
     6
 78
     2
 67
     7
 79
     5
170
     0
171
     0
290
     0
174
     0
 93
        1
 44
0.0
173
     0
291
     1
 45
0.0
1001
ACAD
1000
AcDbSavedByObjectVersion
1070
     0
  0
VISUALSTYLE
  5
9BC
102
{ACAD_REACTORS
330
9B3
102
}
102
{ACAD_XDICTIONARY
360
B39
102
}
330
9B3
100
AcDbVisualStyle
  2
Conceptual
 70
     9
 71
     3
 72
     2
 73
     0
 90
        0
 40
0.6
 41
30.0
 62
     5
 63
     7
 74
     2
 91
        2
 64
     7
 65
   257
 75
     1
175
     1
 42
179.0
 92
        8
 66
     7
 43
1.0
 76
     1
 77
     6
 78
     2
 67
     7
 79
     3
170
     0
171
     0
290
     0
174
     0
 93
        1
 44
0.0
173
     0
291
     0
 45
0.0
1001
ACAD
1000
AcDbSavedByObjectVersion
1070
     0
  0
VISUALSTYLE
  5
9BE
102
{ACAD_REACTORS
330
9B3
102
}
102
{ACAD_XDICTIONARY
360
B3B
102
}
330
9B3
100
AcDbVisualStyle
  2
Dim
 70
    11
 71
     2
 72
     2
 73
     0
 90
        0
 40
0.6
 41
30.0
 62
     5
 63
     7
 74
     1
 91
        4
 64
     7
 65
   257
 75
     1
175
     1
 42
1.0
 92
        8
 66
     7
 43
1.0
 76
     1
 77
     6
 78
     2
 67
     7
 79
     5
170
     0
171
     0
290
     0
174
     0
 93
        1
 44
-50.0
173
     0
291
     1
 45
0.0
1001
ACAD
1000
AcDbSavedByObjectVersion
1070
     0
  0
VISUALSTYLE
  5
9CB
102
{ACAD_REACTORS
330
9B3
102
}
102
{ACAD_XDICTIONARY
360
B3D
102
}
330
9B3
100
AcDbVisualStyle
  2
EdgeColorOff
 70
    22
 71
     2
 72
     2
 73
     0
 90
        0
 40
0.6
 41
30.0
 62
     5
 63
     7
 74
     1
 91
        4
 64
     7
 65
   257
 75
     1
175
     1
 42
1.0
 92
        8
 66
     7
 43
1.0
 76
     1
 77
     6
 78
     2
 67
     7
 79
     5
170
     0
171
     0
290
     0
174
     0
 93
        1
 44
0.0
173
     0
291
     1
 45
0.0
1001
ACAD
1000
AcDbSavedByObjectVersion
1070
     0
  0
VISUALSTYLE
  5
9C2
102
{ACAD_REACTORS
330
9B3
102
}
102
{ACAD_XDICTIONARY
360
B3F
102
}
330
9B3
100
AcDbVisualStyle
  2
Facepattern
 70
    15
 71
     2
 72
     2
 73
     0
 90
        0
 40
0.6
 41
30.0
 62
     5
 63
     7
 74
     1
 91
        4
 64
     7
 65
   257
 75
     1
175
     1
 42
1.0
 92
        8
 66
     7
 43
1.0
 76
     1
 77
     6
 78
     2
 67
     7
 79
     5
170
     0
171
     0
290
     0
174
     0
 93
        1
 44
0.0
173
     0
291
     1
 45
0.0
1001
ACAD
1000
AcDbSavedByObjectVersion
1070
     0
  0
VISUALSTYLE
  5
9B4
102
{ACAD_REACTORS
330
9B3
102
}
102
{ACAD_XDICTIONARY
360
B41
102
}
330
9B3
100
AcDbVisualStyle
  2
Flat
 70
     0
 71
     2
 72
     1
 73
     1
 90
        2
 40
0.6
 41
30.0
 62
     5
 63
     7
 74
     0
 91
        0
 64
     7
 65
   257
 75
     1
175
     1
 42
1.0
 92
        8
 66
     7
 43
1.0
 76
     1
 77
     6
 78
     2
 67
     7
 79
     5
170
     0
171
     0
290
     0
174
     0
 93
       13
 44
0.0
173
     0
291
     1
 45
0.0
1001
ACAD
1000
AcDbSavedByObjectVersion
1070
     0
  0
VISUALSTYLE
  5
9B5
102
{ACAD_REACTORS
330
9B3
102
}
102
{ACAD_XDICTIONARY
360
B43
102
}
330
9B3
100
AcDbVisualStyle
  2
FlatWithEdges
 70
     1
 71
     2
 72
     1
 73
     1
 90
        2
 40
0.6
 41
30.0
 62
     5
 63
     7
 74
     1
 91
        0
 64
     7
 65
   257
 75
     1
175
     1
 42
1.0
 92
        0
 66
   257
 43
1.0
 76
     1
 77
     6
 78
     2
 67
     7
 79
     5
170
     0
171
     0
290
     0
174
     0
 93
       13
 44
0.0
173
     0
291
     1
 45
0.0
1001
ACAD
1000
AcDbSavedByObjectVersion
1070
     0
  0
VISUALSTYLE
  5
9B6
102
{ACAD_REACTORS
330
9B3
102
}
102
{ACAD_XDICTIONARY
360
B45
102
}
330
9B3
100
AcDbVisualStyle
  2
Gouraud
 70
     2
 71
     2
 72
     2
 73
     1
 90
        2
 40
0.6
 41
30.0
 62
     5
 63
     7
 74
     0
 91
        0
 64
     7
 65
   257
 75
     1
175
     1
 42
1.0
 92
        0
 66
     7
 43
1.0
 76
     1
 77
     6
 78
     2
 67
     7
 79
     5
170
     0
171
     0
290
     0
174
     0
 93
       13
 44
0.0
173
     0
291
     1
 45
0.0
1001
ACAD
1000
AcDbSavedByObjectVersion
1070
     0
  0
VISUALSTYLE
  5
9B7
102
{ACAD_REACTORS
330
9B3
102
}
102
{ACAD_XDICTIONARY
360
B47
102
}
330
9B3
100
AcDbVisualStyle
  2
GouraudWithEdges
 70
     3
 71
     2
 72
     2
 73
     1
 90
        2
 40
0.6
 41
30.0
 62
     5
 63
     7
 74
     1
 91
        0
 64
     7
 65
   257
 75
     1
175
     1
 42
1.0
 92
        0
 66
   257
 43
1.0
 76
     1
 77
     6
 78
     2
 67
     7
 79
     5
170
     0
171
     0
290
     0
174
     0
 93
       13
 44
0.0
173
     0
291
     1
 45
0.0
1001
ACAD
1000
AcDbSavedByObjectVersion
1070
     0
  0
VISUALSTYLE
  5
9BB
102
{ACAD_REACTORS
330
9B3
102
}
102
{ACAD_XDICTIONARY
360
B49
102
}
330
9B3
100
AcDbVisualStyle
  2
Hidden
 70
     6
 71
     1
 72
     2
 73
     2
 90
        0
 40
0.6
 41
30.0
 62
     5
 63
     7
 74
     2
 91
        2
 64
     7
 65
   257
 75
     2
175
     1
 42
40.0
 92
        0
 66
   257
 43
1.0
 76
     1
 77
     6
 78
     2
 67
     7
 79
     3
170
     0
171
     0
290
     0
174
     0
 93
        1
 44
0.0
173
     0
291
     0
 45
0.0
1001
ACAD
1000
AcDbSavedByObjectVersion
1070
     0
  0
VISUALSTYLE
  5
9C9
102
{ACAD_REACTORS
330
9B3
102
}
102
{ACAD_XDICTIONARY
360
B4B
102
}
330
9B3
100
AcDbVisualStyle
  2
JitterOff
 70
    20
 71
     2
 72
     2
 73
     0
 90
        0
 40
0.6
 41
30.0
 62
     5
 63
     7
 74
     1
 91
        4
 64
     7
 65
   257
 75
     1
175
     1
 42
1.0
 92
       10
 66
     7
 43
1.0
 76
     1
 77
     6
 78
     2
 67
     7
 79
     5
170
     0
171
     0
290
     0
174
     0
 93
        1
 44
0.0
173
     0
291
     1
 45
0.0
1001
ACAD
1000
AcDbSavedByObjectVersion
1070
     0
  0
VISUALSTYLE
  5
9C1
102
{ACAD_REACTORS
330
9B3
102
}
102
{ACAD_XDICTIONARY
360
B4D
102
}
330
9B3
100
AcDbVisualStyle
  2
Linepattern
 70
    14
 71
     2
 72
     2
 73
     0
 90
        0
 40
0.6
 41
30.0
 62
     5
 63
     7
 74
     1
 91
        4
 64
     7
 65
   257
 75
     7
175
     7
 42
1.0
 92
        8
 66
     7
 43
1.0
 76
     1
 77
     6
 78
     2
 67
     7
 79
     5
170
     0
171
     0
290
     0
174
     0
 93
        1
 44
0.0
173
     0
291
     1
 45
0.0
1001
ACAD
1000
AcDbSavedByObjectVersion
1070
     0
  0
VISUALSTYLE
  5
9CA
102
{ACAD_REACTORS
330
9B3
102
}
102
{ACAD_XDICTIONARY
360
B4F
102
}
330
9B3
100
AcDbVisualStyle
  2
OverhangOff
 70
    21
 71
     2
 72
     2
 73
     0
 90
        0
 40
0.6
 41
30.0
 62
     5
 63
     7
 74
     1
 91
        4
 64
     7
 65
   257
 75
     1
175
     1
 42
1.0
 92
        9
 66
     7
 43
1.0
 76
     1
 77
     6
 78
     2
 67
     7
 79
     5
170
     0
171
     0
290
     0
174
     0
 93
        1
 44
0.0
173
     0
291
     1
 45
0.0
1001
ACAD
1000
AcDbSavedByObjectVersion
1070
     0
  0
VISUALSTYLE
  5
9BD
102
{ACAD_REACTORS
330
9B3
102
}
102
{ACAD_XDICTIONARY
360
B51
102
}
330
9B3
100
AcDbVisualStyle
  2
Realistic
 70
     8
 71
     2
 72
     3
 73
     0
 90
        2
 40
0.6
 41
30.0
 62
     5
 63
     7
 74
     0
 91
        0
 64
     7
 65
   257
 75
     1
175
     1
 42
1.0
 92
        8
 66
   257
 43
1.0
 76
     1
 77
     6
 78
     2
 67
     7
 79
     3
170
     0
171
     0
290
     0
174
     0
 93
       13
 44
0.0
173
     0
291
     0
 45
0.0
1001
ACAD
1000
AcDbSavedByObjectVersion
1070
     0
  0
VISUALSTYLE
  5
9C8
102
{ACAD_REACTORS
330
9B3
102
}
102
{ACAD_XDICTIONARY
360
B53
102
}
330
9B3
100
AcDbVisualStyle
  2
Shaded
 70
    27
 71
     2
 72
     2
 73
     1
 90
        2
 40
0.6
 41
30.0
 62
     5
 63
     7
 74
     0
 91
        4
 64
     7
 65
   257
 75
     1
175
     1
 42
1.0
 92
        8
 66
   257
 43
1.0
 76
     1
 77
     6
 78
     2
 67
     8
 79
     3
170
     0
171
     0
290
     0
174
     0
 93
        5
 44
0.0
173
     0
291
     0
 45
0.0
1001
ACAD
1000
AcDbSavedByObjectVersion
1070
     0
  0
VISUALSTYLE
  5
9C7
102
{ACAD_REACTORS
330
9B3
102
}
102
{ACAD_XDICTIONARY
360
B55
102
}
330
9B3
100
AcDbVisualStyle
  2
Shaded with edges
 70
    26
 71
     2
 72
     2
 73
     1
 90
        2
 40
0.6
 41
30.0
 62
     5
 63
     7
 74
     1
 91
       10
 64
     7
 65
   257
 75
     2
175
     1
 42
1.0
 92
        8
 66
   257
 43
1.0
 76
     1
 77
     6
 78
     2
 67
     7
 79
     3
170
     0
171
     0
290
     0
174
     0
 93
        5
 44
0.0
173
     0
291
     0
 45
0.0
1001
ACAD
1000
AcDbSavedByObjectVersion
1070
     0
  0
VISUALSTYLE
  5
9C4
102
{ACAD_REACTORS
330
9B3
102
}
102
{ACAD_XDICTIONARY
360
B57
102
}
330
9B3
100
AcDbVisualStyle
  2
Shades of Gray
 70
    23
 71
     2
 72
     2
 73
     3
 90
        0
 40
0.6
 41
30.0
 62
     5
 63
     7
 74
     2
 91
        2
 64
     7
 65
     7
 75
     1
175
     1
 42
40.0
 92
        8
 66
     7
 43
1.0
 76
     1
 77
     6
 78
     2
 67
     7
 79
     3
170
     0
171
     0
290
     0
174
     0
 93
        1
 44
0.0
173
     0
291
     0
 45
0.0
1001
ACAD
1000
AcDbSavedByObjectVersion
1070
     0
  0
VISUALSTYLE
  5
9C5
102
{ACAD_REACTORS
330
9B3
102
}
102
{ACAD_XDICTIONARY
360
B59
102
}
330
9B3
100
AcDbVisualStyle
  2
Sketchy
 70
    24
 71
     1
 72
     2
 73
     2
 90
        0
 40
0.6
 41
30.0
 62
     5
 63
     7
 74
     2
 91
        2
 64
     7
 65
     7
 75
     1
175
     1
 42
40.0
 92
       11
 66
     7
 43
1.0
 76
     1
 77
     6
 78
     2
 67
     7
 79
     6
170
     0
171
     0
290
     0
174
     0
 93
        1
 44
0.0
173
     0
291
     0
 45
0.0
1001
ACAD
1000
AcDbSavedByObjectVersion
1070
     0
  0
VISUALSTYLE
  5
9C0
102
{ACAD_REACTORS
330
9B3
102
}
102
{ACAD_XDICTIONARY
360
B5B
102
}
330
9B3
100
AcDbVisualStyle
  2
Thicken
 70
    13
 71
     2
 72
     2
 73
     0
 90
        0
 40
0.6
 41
30.0
 62
     5
 63
     7
 74
     1
 91
        4
 64
     7
 65
   257
 75
     1
175
     1
 42
1.0
 92
       12
 66
     7
 43
1.0
 76
     1
 77
     6
 78
     2
 67
     7
 79
     5
170
     0
171
     0
290
     0
174
     0
 93
        1
 44
0.0
173
     0
291
     1
 45
0.0
1001
ACAD
1000
AcDbSavedByObjectVersion
1070
     0
  0
VISUALSTYLE
  5
9BA
102
{ACAD_REACTORS
330
9B3
102
}
102
{ACAD_XDICTIONARY
360
B5D
102
}
330
9B3
100
AcDbVisualStyle
  2
Wireframe
 70
     5
 71
     0
 72
     2
 73
     0
 90
        0
 40
0.6
 41
30.0
 62
     5
 63
     7
 74
     1
 91
        4
 64
     7
 65
   257
 75
     1
175
     1
 42
1.0
 92
        0
 66
   257
 43
1.0
 76
     1
 77
     6
 78
     2
 67
     7
 79
     3
170
     0
171
     0
290
     0
174
     0
 93
        1
 44
0.0
173
     0
291
     0
 45
0.0
1001
ACAD
1000
AcDbSavedByObjectVersion
1070
     0
  0
VISUALSTYLE
  5
9C6
102
{ACAD_REACTORS
330
9B3
102
}
102
{ACAD_XDICTIONARY
360
B5F
102
}
330
9B3
100
AcDbVisualStyle
  2
X-Ray
 70
    25
 71
     2
 72
     2
 73
     1
 90
        1
 40
0.5
 41
30.0
 62
     5
 63
     7
 74
     1
 91
        0
 64
     7
 65
   257
 75
     1
175
     1
 42
1.0
 92
        8
 66
     7
 43
1.0
 76
     1
 77
     6
 78
     2
 67
     7
 79
     3
170
     0
171
     0
290
     0
174
     0
 93
       13
 44
0.0
173
     0
291
     0
 45
0.0
1001
ACAD
1000
AcDbSavedByObjectVersion
1070
     0
  0
XRECORD
  5
B22
102
{ACAD_REACTORS
330
B21
102
}
330
B21
100
AcDbXrecord
280
     1
340
9CC
  0
XRECORD
  5
B23
102
{ACAD_REACTORS
330
B21
102
}
330
B21
100
AcDbXrecord
280
     1
340
99A
  0
DICTIONARYVAR
  5
A0B
102
{ACAD_REACTORS
330
95F
102
}
330
95F
100
DictionaryVariables
280
     0
  1
1:1
  0
DICTIONARYVAR
  5
A07
102
{ACAD_REACTORS
330
95F
102
}
330
95F
100
DictionaryVariables
280
     0
  1
Standard
  0
DICTIONARYVAR
  5
A06
102
{ACAD_REACTORS
330
95F
102
}
330
95F
100
DictionaryVariables
280
     0
  1
Standard
  0
DICTIONARYVAR
  5
A08
102
{ACAD_REACTORS
330
95F
102
}
330
95F
100
DictionaryVariables
280
     0
  1
Imperial24
  0
DICTIONARYVAR
  5
A09
102
{ACAD_REACTORS
330
95F
102
}
330
95F
100
DictionaryVariables
280
     0
  1
Imperial24
  0
DICTIONARYVAR
  5
961
102
{ACAD_REACTORS
330
95F
102
}
330
95F
100
DictionaryVariables
280
     0
  1
0
  0
DICTIONARYVAR
  5
960
102
{ACAD_REACTORS
330
95F
102
}
330
95F
100
DictionaryVariables
280
     0
  1
1
  0
DICTIONARYVAR
  5
A0D
102
{ACAD_REACTORS
330
95F
102
}
330
95F
100
DictionaryVariables
280
     0
  1
1
  0
DICTIONARYVAR
  5
A0E
102
{ACAD_REACTORS
330
95F
102
}
330
95F
100
DictionaryVariables
280
     0
  1
15
  0
DICTIONARYVAR
  5
A0C
102
{ACAD_REACTORS
330
95F
102
}
330
95F
100
DictionaryVariables
280
     0
  1
0
  0
DICTIONARYVAR
  5
A0A
102
{ACAD_REACTORS
330
95F
102
}
330
95F
100
DictionaryVariables
280
     0
  1
0
  0
DICTIONARYVAR
  5
B11
102
{ACAD_REACTORS
330
95F
102
}
330
95F
100
DictionaryVariables
280
     0
  1
0
  0
DICTIONARY
  5
A03
330
9E6
100
AcDbDictionary
280
     1
281
     1
  3
ACAD_XREC_ROUNDTRIP
360
B27
  0
DICTIONARY
  5
B28
330
9A3
100
AcDbDictionary
280
     1
281
     1
  3
ACAD_XREC_ROUNDTRIP
360
B29
  0
DICTIONARY
  5
B2A
330
99B
100
AcDbDictionary
280
     1
281
     1
  3
ACAD_XREC_ROUNDTRIP
360
B2B
  0
DICTIONARY
  5
B2C
330
9AB
100
AcDbDictionary
280
     1
281
     1
  3
ACAD_XREC_ROUNDTRIP
360
B2D
  0
DICTIONARY
  5
B2E
330
9E2
100
AcDbDictionary
280
     1
281
     1
  3
ACAD_XREC_ROUNDTRIP
360
B2F
  0
DICTIONARY
  5
A01
330
9E4
100
AcDbDictionary
280
     1
281
     1
  3
ACAD_XREC_ROUNDTRIP
360
B30
  0
DICTIONARY
  5
B31
330
9B9
100
AcDbDictionary
280
     1
281
     1
  3
ACAD_XREC_ROUNDTRIP
360
B32
  0
DICTIONARY
  5
B33
330
9B8
100
AcDbDictionary
280
     1
281
     1
  3
ACAD_XREC_ROUNDTRIP
360
B34
  0
DICTIONARY
  5
B35
330
9BF
100
AcDbDictionary
280
     1
281
     1
  3
ACAD_XREC_ROUNDTRIP
360
B36
  0
DICTIONARY
  5
B37
330
9C3
100
AcDbDictionary
280
     1
281
     1
  3
ACAD_XREC_ROUNDTRIP
360
B38
  0
DICTIONARY
  5
B39
330
9BC
100
AcDbDictionary
280
     1
281
     1
  3
ACAD_XREC_ROUNDTRIP
360
B3A
  0
DICTIONARY
  5
B3B
330
9BE
100
AcDbDictionary
280
     1
281
     1
  3
ACAD_XREC_ROUNDTRIP
360
B3C
  0
DICTIONARY
  5
B3D
330
9CB
100
AcDbDictionary
280
     1
281
     1
  3
ACAD_XREC_ROUNDTRIP
360
B3E
  0
DICTIONARY
  5
B3F
330
9C2
100
AcDbDictionary
280
     1
281
     1
  3
ACAD_XREC_ROUNDTRIP
360
B40
  0
DICTIONARY
  5
B41
330
9B4
100
AcDbDictionary
280
     1
281
     1
  3
ACAD_XREC_ROUNDTRIP
360
B42
  0
DICTIONARY
  5
B43
330
9B5
100
AcDbDictionary
280
     1
281
     1
  3
ACAD_XREC_ROUNDTRIP
360
B44
  0
DICTIONARY
  5
B45
330
9B6
100
AcDbDictionary
280
     1
281
     1
  3
ACAD_XREC_ROUNDTRIP
360
B46
  0
DICTIONARY
  5
B47
330
9B7
100
AcDbDictionary
280
     1
281
     1
  3
ACAD_XREC_ROUNDTRIP
360
B48
  0
DICTIONARY
  5
B49
330
9BB
100
AcDbDictionary
280
     1
281
     1
  3
ACAD_XREC_ROUNDTRIP
360
B4A
  0
DICTIONARY
  5
B4B
330
9C9
100
AcDbDictionary
280
     1
281
     1
  3
ACAD_XREC_ROUNDTRIP
360
B4C
  0
DICTIONARY
  5
B4D
330
9C1
100
AcDbDictionary
280
     1
281
     1
  3
ACAD_XREC_ROUNDTRIP
360
B4E
  0
DICTIONARY
  5
B4F
330
9CA
100
AcDbDictionary
280
     1
281
     1
  3
ACAD_XREC_ROUNDTRIP
360
B50
  0
DICTIONARY
  5
B51
330
9BD
100
AcDbDictionary
280
     1
281
     1
  3
ACAD_XREC_ROUNDTRIP
360
B52
  0
DICTIONARY
  5
B53
330
9C8
100
AcDbDictionary
280
     1
281
     1
  3
ACAD_XREC_ROUNDTRIP
360
B54
  0
DICTIONARY
  5
B55
330
9C7
100
AcDbDictionary
280
     1
281
     1
  3
ACAD_XREC_ROUNDTRIP
360
B56
  0
DICTIONARY
  5
B57
330
9C4
100
AcDbDictionary
280
     1
281
     1
  3
ACAD_XREC_ROUNDTRIP
360
B58
  0
DICTIONARY
  5
B59
330
9C5
100
AcDbDictionary
280
     1
281
     1
  3
ACAD_XREC_ROUNDTRIP
360
B5A
  0
DICTIONARY
  5
B5B
330
9C0
100
AcDbDictionary
280
     1
281
     1
  3
ACAD_XREC_ROUNDTRIP
360
B5C
  0
DICTIONARY
  5
B5D
330
9BA
100
AcDbDictionary
280
     1
281
     1
  3
ACAD_XREC_ROUNDTRIP
360
B5E
  0
DICTIONARY
  5
B5F
330
9C6
100
AcDbDictionary
280
     1
281
     1
  3
ACAD_XREC_ROUNDTRIP
360
B60
  0
XRECORD
  5
B27
102
{ACAD_REACTORS
330
A03
102
}
330
A03
100
AcDbXrecord
280
     1
102
DISPLAYNAME
  1
Imperial24
102
FLAGS
 90
        0
  0
XRECORD
  5
B29
102
{ACAD_REACTORS
330
B28
102
}
330
B28
100
AcDbXrecord
280
     1
102
MATERIAL
148
0.0
149
0.0
149
0.0
 93
        0
 94
      127
282
     0
 72
     0
 77
     0
171
     0
175
     0
179
     0
273
     0
  0
XRECORD
  5
B2B
102
{ACAD_REACTORS
330
B2A
102
}
330
B2A
100
AcDbXrecord
280
     1
102
MATERIAL
148
0.0
149
0.0
149
0.0
 93
        0
 94
      127
282
     0
 72
     0
 77
     0
171
     0
175
     0
179
     0
273
     0
  0
XRECORD
  5
B2D
102
{ACAD_REACTORS
330
B2C
102
}
330
B2C
100
AcDbXrecord
280
     1
102
MATERIAL
148
0.0
149
0.0
149
0.0
 93
        0
 94
      127
282
     0
 72
     0
 77
     0
171
     0
175
     0
179
     0
273
     0
  0
XRECORD
  5
B2F
102
{ACAD_REACTORS
330
B2E
102
}
330
B2E
100
AcDbXrecord
280
     1
102
ACAD_ROUNDTRIP_2012_MLEADER_STYLE
298
     1
  0
XRECORD
  5
B30
102
{ACAD_REACTORS
330
A01
102
}
330
A01
100
AcDbXrecord
280
     1
102
DISPLAYNAME
  1
Imperial24
102
FLAGS
 90
        0
  0
XRECORD
  5
B32
102
{ACAD_REACTORS
330
B31
102
}
330
B31
100
AcDbXrecord
280
     1
102
RTVSPropertyOp0
 70
     1
102
RTVSPropertyOp1
 70
     1
102
RTVSPropertyOp2
 70
     1
102
RTVSPropertyOp3
 70
     1
102
RTVSPropertyOp4
 70
     1
102
RTVSPropertyOp5
 70
     1
102
RTVSPropertyOp6
 70
     1
102
RTVSPropertyOp7
 70
     1
102
RTVSPropertyOp8
 70
     1
102
RTVSPropertyOp9
 70
     1
102
RTVSPropertyOp10
 70
     1
102
RTVSPropertyOp11
 70
     1
102
RTVSPropertyOp12
 70
     1
102
RTVSPropertyOp13
 70
     1
102
RTVSPropertyOp14
 70
     1
102
RTVSPropertyOp15
 70
     1
102
RTVSPropertyOp16
 70
     1
102
RTVSPropertyOp17
 70
     1
102
RTVSPropertyOp18
 70
     1
102
RTVSPropertyOp19
 70
     1
102
RTVSPropertyOp20
 70
     1
102
RTVSPropertyOp21
 70
     1
102
RTVSPropertyOp22
 70
     1
102
RTVSPropertyOp23
 70
     1
102
RTVSPropertyOp24
 70
     1
102
RTVSPropertyOp25
 70
     1
102
RTVSPropertyOp26
 70
     1
102
RTVSPropertyOp27
 70
     1
102
RTVSPropertyOp28
 70
     1
102
RTVSPropertyOp29
 70
     1
102
RTVSPropertyOp30
 70
     1
102
RTVSPropertyOp31
 70
     1
102
RTVSPropertyOp32
 70
     1
102
RTVSPropertyOp33
 70
     1
102
RTVSPropertyOp34
 70
     1
102
RTVSPropertyOp35
 70
     1
102
RTVSPropertyOp36
 70
     1
102
RTVSPropertyOp37
 70
     1
102
RTVSPropertyOp38
 70
     1
102
RTVSPropertyOp39
 70
     1
102
RTVSPropertyOp40
 70
     1
102
RTVSPropertyOp41
 70
     1
102
RTVSPropertyOp42
 70
     1
102
RTVSPropertyOp43
 70
     1
102
RTVSPropertyOp44
 70
     1
102
RTVSPropertyOp45
 70
     1
102
RTVSPropertyOp46
 70
     1
102
RTVSPropertyOp47
 70
     1
102
RTVSPropertyOp48
 70
     1
102
RTVSPropertyOp49
 70
     1
102
RTVSPropertyOp50
 70
     1
102
RTVSPropertyOp51
 70
     0
102
RTVSPropertyOp52
 70
     0
102
RTVSPropertyOp53
 70
     1
102
RTVSPropertyOp54
 70
     1
102
RTVSPropertyOp55
 70
     1
102
RTVSPropertyOp56
 70
     1
102
RTVSPropertyOp57
 70
     1
102
RTVSPost2010Prop28
280
     1
102
RTVSPost2010PropOp28
 70
     1
102
RTVSPost2010Prop29
280
     1
102
RTVSPost2010PropOp29
 70
     1
102
RTVSPost2010Prop30
280
     0
102
RTVSPost2010PropOp30
 70
     1
102
RTVSPost2010Prop31
280
     0
102
RTVSPost2010PropOp31
 70
     1
102
RTVSPost2010Prop32
280
     0
102
RTVSPost2010PropOp32
 70
     1
102
RTVSPost2010Prop33
280
     0
102
RTVSPost2010PropOp33
 70
     1
102
RTVSPost2010Prop34
280
     0
102
RTVSPost2010PropOp34
 70
     1
102
RTVSPost2010Prop35
280
     0
102
RTVSPost2010PropOp35
 70
     1
102
RTVSPost2010Prop36
280
     0
102
RTVSPost2010PropOp36
 70
     1
102
RTVSPost2010Prop37
 90
       50
102
RTVSPost2010PropOp37
 70
     1
102
RTVSPost2010Prop38
140
0.0
102
RTVSPost2010PropOp38
 70
     1
102
RTVSPost2010Prop39
140
1.0
102
RTVSPost2010PropOp39
 70
     1
102
RTVSPost2010Prop40
 90
        0
102
RTVSPost2010PropOp40
 70
     1
102
RTVSPost2010Prop41ColorIndex
 90
       18
102
RTVSPost2010Prop41ColorRGB
 90
        0
102
RTVSPost2010PropOp41
 70
     1
102
RTVSPost2010Prop42
 90
       50
102
RTVSPost2010PropOp42
 70
     1
102
RTVSPost2010Prop43
 90
        3
102
RTVSPost2010PropOp43
 70
     1
102
RTVSPost2010Prop44ColorIndex
 90
        5
102
RTVSPost2010Prop44ColorRGB
 90
      255
102
RTVSPost2010PropOp44
 70
     1
102
RTVSPost2010Prop45
280
     0
102
RTVSPost2010PropOp45
 70
     1
102
RTVSPost2010Prop46
 90
       50
102
RTVSPost2010PropOp46
 70
     1
102
RTVSPost2010Prop47
 90
       50
102
RTVSPost2010PropOp47
 70
     1
102
RTVSPost2010Prop48
 90
       50
102
RTVSPost2010PropOp48
 70
     1
102
RTVSPost2010Prop49
280
     0
102
RTVSPost2010PropOp49
 70
     1
102
RTVSPost2010Prop50
 90
       50
102
RTVSPost2010PropOp50
 70
     1
102
RTVSPost2010Prop51ColorIndex
 90
      256
102
RTVSPost2010Prop51ColorRGB
 90
-16777216
102
RTVSPost2010PropOp51
 70
     0
102
RTVSPost2010Prop52
140
1.0
102
RTVSPost2010PropOp52
 70
     0
102
RTVSPost2010Prop53
 90
        2
102
RTVSPost2010PropOp53
 70
     1
102
RTVSPost2010Prop54
  1
strokes_ogs.tif
102
RTVSPost2010PropOp54
 70
     1
102
RTVSPost2010Prop55
280
     0
102
RTVSPost2010PropOp55
 70
     1
102
RTVSPost2010Prop56
140
1.0
102
RTVSPost2010PropOp56
 70
     1
102
RTVSPost2010Prop57
140
1.0
102
RTVSPost2010PropOp57
 70
     1
  0
XRECORD
  5
B34
102
{ACAD_REACTORS
330
B33
102
}
330
B33
100
AcDbXrecord
280
     1
102
RTVSPropertyOp0
 70
     1
102
RTVSPropertyOp1
 70
     1
102
RTVSPropertyOp2
 70
     1
102
RTVSPropertyOp3
 70
     1
102
RTVSPropertyOp4
 70
     1
102
RTVSPropertyOp5
 70
     1
102
RTVSPropertyOp6
 70
     1
102
RTVSPropertyOp7
 70
     1
102
RTVSPropertyOp8
 70
     1
102
RTVSPropertyOp9
 70
     1
102
RTVSPropertyOp10
 70
     1
102
RTVSPropertyOp11
 70
     1
102
RTVSPropertyOp12
 70
     1
102
RTVSPropertyOp13
 70
     1
102
RTVSPropertyOp14
 70
     1
102
RTVSPropertyOp15
 70
     1
102
RTVSPropertyOp16
 70
     1
102
RTVSPropertyOp17
 70
     1
102
RTVSPropertyOp18
 70
     1
102
RTVSPropertyOp19
 70
     1
102
RTVSPropertyOp20
 70
     1
102
RTVSPropertyOp21
 70
     1
102
RTVSPropertyOp22
 70
     1
102
RTVSPropertyOp23
 70
     1
102
RTVSPropertyOp24
 70
     1
102
RTVSPropertyOp25
 70
     1
102
RTVSPropertyOp26
 70
     1
102
RTVSPropertyOp27
 70
     1
102
RTVSPropertyOp28
 70
     1
102
RTVSPropertyOp29
 70
     1
102
RTVSPropertyOp30
 70
     1
102
RTVSPropertyOp31
 70
     1
102
RTVSPropertyOp32
 70
     1
102
RTVSPropertyOp33
 70
     1
102
RTVSPropertyOp34
 70
     1
102
RTVSPropertyOp35
 70
     1
102
RTVSPropertyOp36
 70
     1
102
RTVSPropertyOp37
 70
     1
102
RTVSPropertyOp38
 70
     1
102
RTVSPropertyOp39
 70
     1
102
RTVSPropertyOp40
 70
     1
102
RTVSPropertyOp41
 70
     1
102
RTVSPropertyOp42
 70
     1
102
RTVSPropertyOp43
 70
     1
102
RTVSPropertyOp44
 70
     1
102
RTVSPropertyOp45
 70
     1
102
RTVSPropertyOp46
 70
     1
102
RTVSPropertyOp47
 70
     1
102
RTVSPropertyOp48
 70
     1
102
RTVSPropertyOp49
 70
     1
102
RTVSPropertyOp50
 70
     1
102
RTVSPropertyOp51
 70
     0
102
RTVSPropertyOp52
 70
     0
102
RTVSPropertyOp53
 70
     1
102
RTVSPropertyOp54
 70
     1
102
RTVSPropertyOp55
 70
     1
102
RTVSPropertyOp56
 70
     1
102
RTVSPropertyOp57
 70
     1
102
RTVSPost2010Prop28
280
     0
102
RTVSPost2010PropOp28
 70
     1
102
RTVSPost2010Prop29
280
     1
102
RTVSPost2010PropOp29
 70
     1
102
RTVSPost2010Prop30
280
     1
102
RTVSPost2010PropOp30
 70
     1
102
RTVSPost2010Prop31
280
     0
102
RTVSPost2010PropOp31
 70
     1
102
RTVSPost2010Prop32
280
     0
102
RTVSPost2010PropOp32
 70
     1
102
RTVSPost2010Prop33
280
     0
102
RTVSPost2010PropOp33
 70
     1
102
RTVSPost2010Prop34
280
     0
102
RTVSPost2010PropOp34
 70
     1
102
RTVSPost2010Prop35
280
     0
102
RTVSPost2010PropOp35
 70
     1
102
RTVSPost2010Prop36
280
     0
102
RTVSPost2010PropOp36
 70
     1
102
RTVSPost2010Prop37
 90
       50
102
RTVSPost2010PropOp37
 70
     1
102
RTVSPost2010Prop38
140
0.0
102
RTVSPost2010PropOp38
 70
     1
102
RTVSPost2010Prop39
140
1.0
102
RTVSPost2010PropOp39
 70
     1
102
RTVSPost2010Prop40
 90
        0
102
RTVSPost2010PropOp40
 70
     1
102
RTVSPost2010Prop41ColorIndex
 90
       18
102
RTVSPost2010Prop41ColorRGB
 90
        0
102
RTVSPost2010PropOp41
 70
     1
102
RTVSPost2010Prop42
 90
       50
102
RTVSPost2010PropOp42
 70
     1
102
RTVSPost2010Prop43
 90
        3
102
RTVSPost2010PropOp43
 70
     1
102
RTVSPost2010Prop44ColorIndex
 90
        5
102
RTVSPost2010Prop44ColorRGB
 90
      255
102
RTVSPost2010PropOp44
 70
     1
102
RTVSPost2010Prop45
280
     0
102
RTVSPost2010PropOp45
 70
     1
102
RTVSPost2010Prop46
 90
       50
102
RTVSPost2010PropOp46
 70
     1
102
RTVSPost2010Prop47
 90
       50
102
RTVSPost2010PropOp47
 70
     1
102
RTVSPost2010Prop48
 90
       50
102
RTVSPost2010PropOp48
 70
     1
102
RTVSPost2010Prop49
280
     0
102
RTVSPost2010PropOp49
 70
     1
102
RTVSPost2010Prop50
 90
       50
102
RTVSPost2010PropOp50
 70
     1
102
RTVSPost2010Prop51ColorIndex
 90
      256
102
RTVSPost2010Prop51ColorRGB
 90
-16777216
102
RTVSPost2010PropOp51
 70
     0
102
RTVSPost2010Prop52
140
1.0
102
RTVSPost2010PropOp52
 70
     0
102
RTVSPost2010Prop53
 90
        2
102
RTVSPost2010PropOp53
 70
     1
102
RTVSPost2010Prop54
  1
strokes_ogs.tif
102
RTVSPost2010PropOp54
 70
     1
102
RTVSPost2010Prop55
280
     0
102
RTVSPost2010PropOp55
 70
     1
102
RTVSPost2010Prop56
140
1.0
102
RTVSPost2010PropOp56
 70
     1
102
RTVSPost2010Prop57
140
1.0
102
RTVSPost2010PropOp57
 70
     1
  0
XRECORD
  5
B36
102
{ACAD_REACTORS
330
B35
102
}
330
B35
100
AcDbXrecord
280
     1
102
RTVSPropertyOp0
 70
     1
102
RTVSPropertyOp1
 70
     1
102
RTVSPropertyOp2
 70
     1
102
RTVSPropertyOp3
 70
     1
102
RTVSPropertyOp4
 70
     1
102
RTVSPropertyOp5
 70
     1
102
RTVSPropertyOp6
 70
     1
102
RTVSPropertyOp7
 70
     1
102
RTVSPropertyOp8
 70
     1
102
RTVSPropertyOp9
 70
     1
102
RTVSPropertyOp10
 70
     1
102
RTVSPropertyOp11
 70
     1
102
RTVSPropertyOp12
 70
     1
102
RTVSPropertyOp13
 70
     1
102
RTVSPropertyOp14
 70
     1
102
RTVSPropertyOp15
 70
     1
102
RTVSPropertyOp16
 70
     1
102
RTVSPropertyOp17
 70
     1
102
RTVSPropertyOp18
 70
     1
102
RTVSPropertyOp19
 70
     1
102
RTVSPropertyOp20
 70
     1
102
RTVSPropertyOp21
 70
     1
102
RTVSPropertyOp22
 70
     1
102
RTVSPropertyOp23
 70
     1
102
RTVSPropertyOp24
 70
     1
102
RTVSPropertyOp25
 70
     1
102
RTVSPropertyOp26
 70
     1
102
RTVSPropertyOp27
 70
     1
102
RTVSPropertyOp28
 70
     1
102
RTVSPropertyOp29
 70
     1
102
RTVSPropertyOp30
 70
     1
102
RTVSPropertyOp31
 70
     1
102
RTVSPropertyOp32
 70
     1
102
RTVSPropertyOp33
 70
     1
102
RTVSPropertyOp34
 70
     1
102
RTVSPropertyOp35
 70
     1
102
RTVSPropertyOp36
 70
     1
102
RTVSPropertyOp37
 70
     1
102
RTVSPropertyOp38
 70
     1
102
RTVSPropertyOp39
 70
     1
102
RTVSPropertyOp40
 70
     1
102
RTVSPropertyOp41
 70
     1
102
RTVSPropertyOp42
 70
     1
102
RTVSPropertyOp43
 70
     1
102
RTVSPropertyOp44
 70
     1
102
RTVSPropertyOp45
 70
     1
102
RTVSPropertyOp46
 70
     1
102
RTVSPropertyOp47
 70
     1
102
RTVSPropertyOp48
 70
     1
102
RTVSPropertyOp49
 70
     1
102
RTVSPropertyOp50
 70
     1
102
RTVSPropertyOp51
 70
     0
102
RTVSPropertyOp52
 70
     0
102
RTVSPropertyOp53
 70
     1
102
RTVSPropertyOp54
 70
     1
102
RTVSPropertyOp55
 70
     1
102
RTVSPropertyOp56
 70
     1
102
RTVSPropertyOp57
 70
     1
102
RTVSPost2010Prop28
280
     0
102
RTVSPost2010PropOp28
 70
     1
102
RTVSPost2010Prop29
280
     1
102
RTVSPost2010PropOp29
 70
     1
102
RTVSPost2010Prop30
280
     1
102
RTVSPost2010PropOp30
 70
     1
102
RTVSPost2010Prop31
280
     0
102
RTVSPost2010PropOp31
 70
     1
102
RTVSPost2010Prop32
280
     0
102
RTVSPost2010PropOp32
 70
     1
102
RTVSPost2010Prop33
280
     0
102
RTVSPost2010PropOp33
 70
     1
102
RTVSPost2010Prop34
280
     0
102
RTVSPost2010PropOp34
 70
     1
102
RTVSPost2010Prop35
280
     0
102
RTVSPost2010PropOp35
 70
     1
102
RTVSPost2010Prop36
280
     0
102
RTVSPost2010PropOp36
 70
     1
102
RTVSPost2010Prop37
 90
       50
102
RTVSPost2010PropOp37
 70
     1
102
RTVSPost2010Prop38
140
0.0
102
RTVSPost2010PropOp38
 70
     1
102
RTVSPost2010Prop39
140
1.0
102
RTVSPost2010PropOp39
 70
     1
102
RTVSPost2010Prop40
 90
        0
102
RTVSPost2010PropOp40
 70
     1
102
RTVSPost2010Prop41ColorIndex
 90
       18
102
RTVSPost2010Prop41ColorRGB
 90
        0
102
RTVSPost2010PropOp41
 70
     1
102
RTVSPost2010Prop42
 90
       50
102
RTVSPost2010PropOp42
 70
     1
102
RTVSPost2010Prop43
 90
        3
102
RTVSPost2010PropOp43
 70
     1
102
RTVSPost2010Prop44ColorIndex
 90
        5
102
RTVSPost2010Prop44ColorRGB
 90
      255
102
RTVSPost2010PropOp44
 70
     1
102
RTVSPost2010Prop45
280
     0
102
RTVSPost2010PropOp45
 70
     1
102
RTVSPost2010Prop46
 90
       50
102
RTVSPost2010PropOp46
 70
     1
102
RTVSPost2010Prop47
 90
       50
102
RTVSPost2010PropOp47
 70
     1
102
RTVSPost2010Prop48
 90
       50
102
RTVSPost2010PropOp48
 70
     1
102
RTVSPost2010Prop49
280
     0
102
RTVSPost2010PropOp49
 70
     1
102
RTVSPost2010Prop50
 90
       50
102
RTVSPost2010PropOp50
 70
     1
102
RTVSPost2010Prop51ColorIndex
 90
      256
102
RTVSPost2010Prop51ColorRGB
 90
-16777216
102
RTVSPost2010PropOp51
 70
     0
102
RTVSPost2010Prop52
140
1.0
102
RTVSPost2010PropOp52
 70
     0
102
RTVSPost2010Prop53
 90
        2
102
RTVSPost2010PropOp53
 70
     1
102
RTVSPost2010Prop54
  1
strokes_ogs.tif
102
RTVSPost2010PropOp54
 70
     1
102
RTVSPost2010Prop55
280
     0
102
RTVSPost2010PropOp55
 70
     1
102
RTVSPost2010Prop56
140
1.0
102
RTVSPost2010PropOp56
 70
     1
102
RTVSPost2010Prop57
140
1.0
102
RTVSPost2010PropOp57
 70
     1
  0
XRECORD
  5
B38
102
{ACAD_REACTORS
330
B37
102
}
330
B37
100
AcDbXrecord
280
     1
102
RTVSPropertyOp0
 70
     1
102
RTVSPropertyOp1
 70
     1
102
RTVSPropertyOp2
 70
     1
102
RTVSPropertyOp3
 70
     1
102
RTVSPropertyOp4
 70
     1
102
RTVSPropertyOp5
 70
     1
102
RTVSPropertyOp6
 70
     1
102
RTVSPropertyOp7
 70
     1
102
RTVSPropertyOp8
 70
     1
102
RTVSPropertyOp9
 70
     1
102
RTVSPropertyOp10
 70
     1
102
RTVSPropertyOp11
 70
     1
102
RTVSPropertyOp12
 70
     1
102
RTVSPropertyOp13
 70
     1
102
RTVSPropertyOp14
 70
     1
102
RTVSPropertyOp15
 70
     1
102
RTVSPropertyOp16
 70
     1
102
RTVSPropertyOp17
 70
     1
102
RTVSPropertyOp18
 70
     1
102
RTVSPropertyOp19
 70
     1
102
RTVSPropertyOp20
 70
     1
102
RTVSPropertyOp21
 70
     1
102
RTVSPropertyOp22
 70
     1
102
RTVSPropertyOp23
 70
     1
102
RTVSPropertyOp24
 70
     1
102
RTVSPropertyOp25
 70
     1
102
RTVSPropertyOp26
 70
     1
102
RTVSPropertyOp27
 70
     1
102
RTVSPropertyOp28
 70
     1
102
RTVSPropertyOp29
 70
     1
102
RTVSPropertyOp30
 70
     1
102
RTVSPropertyOp31
 70
     1
102
RTVSPropertyOp32
 70
     1
102
RTVSPropertyOp33
 70
     1
102
RTVSPropertyOp34
 70
     1
102
RTVSPropertyOp35
 70
     1
102
RTVSPropertyOp36
 70
     1
102
RTVSPropertyOp37
 70
     1
102
RTVSPropertyOp38
 70
     1
102
RTVSPropertyOp39
 70
     1
102
RTVSPropertyOp40
 70
     1
102
RTVSPropertyOp41
 70
     1
102
RTVSPropertyOp42
 70
     1
102
RTVSPropertyOp43
 70
     1
102
RTVSPropertyOp44
 70
     1
102
RTVSPropertyOp45
 70
     1
102
RTVSPropertyOp46
 70
     1
102
RTVSPropertyOp47
 70
     1
102
RTVSPropertyOp48
 70
     1
102
RTVSPropertyOp49
 70
     1
102
RTVSPropertyOp50
 70
     1
102
RTVSPropertyOp51
 70
     0
102
RTVSPropertyOp52
 70
     0
102
RTVSPropertyOp53
 70
     1
102
RTVSPropertyOp54
 70
     1
102
RTVSPropertyOp55
 70
     1
102
RTVSPropertyOp56
 70
     1
102
RTVSPropertyOp57
 70
     1
102
RTVSPost2010Prop28
280
     0
102
RTVSPost2010PropOp28
 70
     1
102
RTVSPost2010Prop29
280
     1
102
RTVSPost2010PropOp29
 70
     1
102
RTVSPost2010Prop30
280
     1
102
RTVSPost2010PropOp30
 70
     1
102
RTVSPost2010Prop31
280
     0
102
RTVSPost2010PropOp31
 70
     1
102
RTVSPost2010Prop32
280
     0
102
RTVSPost2010PropOp32
 70
     1
102
RTVSPost2010Prop33
280
     0
102
RTVSPost2010PropOp33
 70
     1
102
RTVSPost2010Prop34
280
     0
102
RTVSPost2010PropOp34
 70
     1
102
RTVSPost2010Prop35
280
     0
102
RTVSPost2010PropOp35
 70
     1
102
RTVSPost2010Prop36
280
     0
102
RTVSPost2010PropOp36
 70
     1
102
RTVSPost2010Prop37
 90
       50
102
RTVSPost2010PropOp37
 70
     1
102
RTVSPost2010Prop38
140
0.0
102
RTVSPost2010PropOp38
 70
     1
102
RTVSPost2010Prop39
140
1.0
102
RTVSPost2010PropOp39
 70
     1
102
RTVSPost2010Prop40
 90
        0
102
RTVSPost2010PropOp40
 70
     1
102
RTVSPost2010Prop41ColorIndex
 90
       18
102
RTVSPost2010Prop41ColorRGB
 90
        0
102
RTVSPost2010PropOp41
 70
     1
102
RTVSPost2010Prop42
 90
       50
102
RTVSPost2010PropOp42
 70
     1
102
RTVSPost2010Prop43
 90
        3
102
RTVSPost2010PropOp43
 70
     1
102
RTVSPost2010Prop44ColorIndex
 90
        5
102
RTVSPost2010Prop44ColorRGB
 90
      255
102
RTVSPost2010PropOp44
 70
     1
102
RTVSPost2010Prop45
280
     0
102
RTVSPost2010PropOp45
 70
     1
102
RTVSPost2010Prop46
 90
       50
102
RTVSPost2010PropOp46
 70
     1
102
RTVSPost2010Prop47
 90
       50
102
RTVSPost2010PropOp47
 70
     1
102
RTVSPost2010Prop48
 90
       50
102
RTVSPost2010PropOp48
 70
     1
102
RTVSPost2010Prop49
280
     0
102
RTVSPost2010PropOp49
 70
     1
102
RTVSPost2010Prop50
 90
       50
102
RTVSPost2010PropOp50
 70
     1
102
RTVSPost2010Prop51ColorIndex
 90
      256
102
RTVSPost2010Prop51ColorRGB
 90
-16777216
102
RTVSPost2010PropOp51
 70
     0
102
RTVSPost2010Prop52
140
1.0
102
RTVSPost2010PropOp52
 70
     0
102
RTVSPost2010Prop53
 90
        2
102
RTVSPost2010PropOp53
 70
     1
102
RTVSPost2010Prop54
  1
strokes_ogs.tif
102
RTVSPost2010PropOp54
 70
     1
102
RTVSPost2010Prop55
280
     0
102
RTVSPost2010PropOp55
 70
     1
102
RTVSPost2010Prop56
140
1.0
102
RTVSPost2010PropOp56
 70
     1
102
RTVSPost2010Prop57
140
1.0
102
RTVSPost2010PropOp57
 70
     1
  0
XRECORD
  5
B3A
102
{ACAD_REACTORS
330
B39
102
}
330
B39
100
AcDbXrecord
280
     1
102
RTVSPropertyOp0
 70
     1
102
RTVSPropertyOp1
 70
     1
102
RTVSPropertyOp2
 70
     1
102
RTVSPropertyOp3
 70
     1
102
RTVSPropertyOp4
 70
     1
102
RTVSPropertyOp5
 70
     1
102
RTVSPropertyOp6
 70
     1
102
RTVSPropertyOp7
 70
     1
102
RTVSPropertyOp8
 70
     1
102
RTVSPropertyOp9
 70
     1
102
RTVSPropertyOp10
 70
     1
102
RTVSPropertyOp11
 70
     1
102
RTVSPropertyOp12
 70
     1
102
RTVSPropertyOp13
 70
     1
102
RTVSPropertyOp14
 70
     1
102
RTVSPropertyOp15
 70
     1
102
RTVSPropertyOp16
 70
     1
102
RTVSPropertyOp17
 70
     1
102
RTVSPropertyOp18
 70
     1
102
RTVSPropertyOp19
 70
     1
102
RTVSPropertyOp20
 70
     1
102
RTVSPropertyOp21
 70
     1
102
RTVSPropertyOp22
 70
     1
102
RTVSPropertyOp23
 70
     1
102
RTVSPropertyOp24
 70
     1
102
RTVSPropertyOp25
 70
     1
102
RTVSPropertyOp26
 70
     1
102
RTVSPropertyOp27
 70
     1
102
RTVSPropertyOp28
 70
     1
102
RTVSPropertyOp29
 70
     1
102
RTVSPropertyOp30
 70
     1
102
RTVSPropertyOp31
 70
     1
102
RTVSPropertyOp32
 70
     1
102
RTVSPropertyOp33
 70
     1
102
RTVSPropertyOp34
 70
     1
102
RTVSPropertyOp35
 70
     1
102
RTVSPropertyOp36
 70
     1
102
RTVSPropertyOp37
 70
     1
102
RTVSPropertyOp38
 70
     1
102
RTVSPropertyOp39
 70
     1
102
RTVSPropertyOp40
 70
     1
102
RTVSPropertyOp41
 70
     1
102
RTVSPropertyOp42
 70
     1
102
RTVSPropertyOp43
 70
     1
102
RTVSPropertyOp44
 70
     1
102
RTVSPropertyOp45
 70
     1
102
RTVSPropertyOp46
 70
     1
102
RTVSPropertyOp47
 70
     1
102
RTVSPropertyOp48
 70
     1
102
RTVSPropertyOp49
 70
     1
102
RTVSPropertyOp50
 70
     1
102
RTVSPropertyOp51
 70
     0
102
RTVSPropertyOp52
 70
     0
102
RTVSPropertyOp53
 70
     1
102
RTVSPropertyOp54
 70
     1
102
RTVSPropertyOp55
 70
     1
102
RTVSPropertyOp56
 70
     1
102
RTVSPropertyOp57
 70
     1
102
RTVSPost2010Prop28
280
     0
102
RTVSPost2010PropOp28
 70
     1
102
RTVSPost2010Prop29
280
     1
102
RTVSPost2010PropOp29
 70
     1
102
RTVSPost2010Prop30
280
     1
102
RTVSPost2010PropOp30
 70
     1
102
RTVSPost2010Prop31
280
     0
102
RTVSPost2010PropOp31
 70
     1
102
RTVSPost2010Prop32
280
     0
102
RTVSPost2010PropOp32
 70
     1
102
RTVSPost2010Prop33
280
     0
102
RTVSPost2010PropOp33
 70
     1
102
RTVSPost2010Prop34
280
     0
102
RTVSPost2010PropOp34
 70
     1
102
RTVSPost2010Prop35
280
     0
102
RTVSPost2010PropOp35
 70
     1
102
RTVSPost2010Prop36
280
     0
102
RTVSPost2010PropOp36
 70
     1
102
RTVSPost2010Prop37
 90
       50
102
RTVSPost2010PropOp37
 70
     1
102
RTVSPost2010Prop38
140
0.0
102
RTVSPost2010PropOp38
 70
     1
102
RTVSPost2010Prop39
140
1.0
102
RTVSPost2010PropOp39
 70
     1
102
RTVSPost2010Prop40
 90
        0
102
RTVSPost2010PropOp40
 70
     1
102
RTVSPost2010Prop41ColorIndex
 90
       18
102
RTVSPost2010Prop41ColorRGB
 90
        0
102
RTVSPost2010PropOp41
 70
     1
102
RTVSPost2010Prop42
 90
       50
102
RTVSPost2010PropOp42
 70
     1
102
RTVSPost2010Prop43
 90
        3
102
RTVSPost2010PropOp43
 70
     1
102
RTVSPost2010Prop44ColorIndex
 90
        5
102
RTVSPost2010Prop44ColorRGB
 90
      255
102
RTVSPost2010PropOp44
 70
     1
102
RTVSPost2010Prop45
280
     0
102
RTVSPost2010PropOp45
 70
     1
102
RTVSPost2010Prop46
 90
       50
102
RTVSPost2010PropOp46
 70
     1
102
RTVSPost2010Prop47
 90
       50
102
RTVSPost2010PropOp47
 70
     1
102
RTVSPost2010Prop48
 90
       50
102
RTVSPost2010PropOp48
 70
     1
102
RTVSPost2010Prop49
280
     0
102
RTVSPost2010PropOp49
 70
     1
102
RTVSPost2010Prop50
 90
       50
102
RTVSPost2010PropOp50
 70
     1
102
RTVSPost2010Prop51ColorIndex
 90
      256
102
RTVSPost2010Prop51ColorRGB
 90
-16777216
102
RTVSPost2010PropOp51
 70
     0
102
RTVSPost2010Prop52
140
1.0
102
RTVSPost2010PropOp52
 70
     0
102
RTVSPost2010Prop53
 90
        2
102
RTVSPost2010PropOp53
 70
     1
102
RTVSPost2010Prop54
  1
strokes_ogs.tif
102
RTVSPost2010PropOp54
 70
     1
102
RTVSPost2010Prop55
280
     0
102
RTVSPost2010PropOp55
 70
     1
102
RTVSPost2010Prop56
140
1.0
102
RTVSPost2010PropOp56
 70
     1
102
RTVSPost2010Prop57
140
1.0
102
RTVSPost2010PropOp57
 70
     1
  0
XRECORD
  5
B3C
102
{ACAD_REACTORS
330
B3B
102
}
330
B3B
100
AcDbXrecord
280
     1
102
RTVSPropertyOp0
 70
     1
102
RTVSPropertyOp1
 70
     1
102
RTVSPropertyOp2
 70
     1
102
RTVSPropertyOp3
 70
     1
102
RTVSPropertyOp4
 70
     1
102
RTVSPropertyOp5
 70
     1
102
RTVSPropertyOp6
 70
     1
102
RTVSPropertyOp7
 70
     1
102
RTVSPropertyOp8
 70
     1
102
RTVSPropertyOp9
 70
     1
102
RTVSPropertyOp10
 70
     1
102
RTVSPropertyOp11
 70
     1
102
RTVSPropertyOp12
 70
     1
102
RTVSPropertyOp13
 70
     1
102
RTVSPropertyOp14
 70
     1
102
RTVSPropertyOp15
 70
     1
102
RTVSPropertyOp16
 70
     1
102
RTVSPropertyOp17
 70
     1
102
RTVSPropertyOp18
 70
     1
102
RTVSPropertyOp19
 70
     1
102
RTVSPropertyOp20
 70
     1
102
RTVSPropertyOp21
 70
     1
102
RTVSPropertyOp22
 70
     1
102
RTVSPropertyOp23
 70
     1
102
RTVSPropertyOp24
 70
     1
102
RTVSPropertyOp25
 70
     1
102
RTVSPropertyOp26
 70
     1
102
RTVSPropertyOp27
 70
     1
102
RTVSPropertyOp28
 70
     1
102
RTVSPropertyOp29
 70
     1
102
RTVSPropertyOp30
 70
     1
102
RTVSPropertyOp31
 70
     1
102
RTVSPropertyOp32
 70
     1
102
RTVSPropertyOp33
 70
     1
102
RTVSPropertyOp34
 70
     1
102
RTVSPropertyOp35
 70
     1
102
RTVSPropertyOp36
 70
     1
102
RTVSPropertyOp37
 70
     1
102
RTVSPropertyOp38
 70
     1
102
RTVSPropertyOp39
 70
     1
102
RTVSPropertyOp40
 70
     1
102
RTVSPropertyOp41
 70
     1
102
RTVSPropertyOp42
 70
     1
102
RTVSPropertyOp43
 70
     1
102
RTVSPropertyOp44
 70
     1
102
RTVSPropertyOp45
 70
     1
102
RTVSPropertyOp46
 70
     1
102
RTVSPropertyOp47
 70
     1
102
RTVSPropertyOp48
 70
     1
102
RTVSPropertyOp49
 70
     1
102
RTVSPropertyOp50
 70
     1
102
RTVSPropertyOp51
 70
     0
102
RTVSPropertyOp52
 70
     0
102
RTVSPropertyOp53
 70
     1
102
RTVSPropertyOp54
 70
     1
102
RTVSPropertyOp55
 70
     1
102
RTVSPropertyOp56
 70
     1
102
RTVSPropertyOp57
 70
     1
102
RTVSPost2010Prop28
280
     0
102
RTVSPost2010PropOp28
 70
     1
102
RTVSPost2010Prop29
280
     1
102
RTVSPost2010PropOp29
 70
     1
102
RTVSPost2010Prop30
280
     1
102
RTVSPost2010PropOp30
 70
     1
102
RTVSPost2010Prop31
280
     0
102
RTVSPost2010PropOp31
 70
     1
102
RTVSPost2010Prop32
280
     0
102
RTVSPost2010PropOp32
 70
     1
102
RTVSPost2010Prop33
280
     0
102
RTVSPost2010PropOp33
 70
     1
102
RTVSPost2010Prop34
280
     0
102
RTVSPost2010PropOp34
 70
     1
102
RTVSPost2010Prop35
280
     0
102
RTVSPost2010PropOp35
 70
     1
102
RTVSPost2010Prop36
280
     0
102
RTVSPost2010PropOp36
 70
     1
102
RTVSPost2010Prop37
 90
       50
102
RTVSPost2010PropOp37
 70
     1
102
RTVSPost2010Prop38
140
0.0
102
RTVSPost2010PropOp38
 70
     1
102
RTVSPost2010Prop39
140
1.0
102
RTVSPost2010PropOp39
 70
     1
102
RTVSPost2010Prop40
 90
        0
102
RTVSPost2010PropOp40
 70
     1
102
RTVSPost2010Prop41ColorIndex
 90
       18
102
RTVSPost2010Prop41ColorRGB
 90
        0
102
RTVSPost2010PropOp41
 70
     1
102
RTVSPost2010Prop42
 90
       50
102
RTVSPost2010PropOp42
 70
     1
102
RTVSPost2010Prop43
 90
        3
102
RTVSPost2010PropOp43
 70
     1
102
RTVSPost2010Prop44ColorIndex
 90
        5
102
RTVSPost2010Prop44ColorRGB
 90
      255
102
RTVSPost2010PropOp44
 70
     1
102
RTVSPost2010Prop45
280
     0
102
RTVSPost2010PropOp45
 70
     1
102
RTVSPost2010Prop46
 90
       50
102
RTVSPost2010PropOp46
 70
     1
102
RTVSPost2010Prop47
 90
       50
102
RTVSPost2010PropOp47
 70
     1
102
RTVSPost2010Prop48
 90
       50
102
RTVSPost2010PropOp48
 70
     1
102
RTVSPost2010Prop49
280
     0
102
RTVSPost2010PropOp49
 70
     1
102
RTVSPost2010Prop50
 90
       50
102
RTVSPost2010PropOp50
 70
     1
102
RTVSPost2010Prop51ColorIndex
 90
      256
102
RTVSPost2010Prop51ColorRGB
 90
-16777216
102
RTVSPost2010PropOp51
 70
     0
102
RTVSPost2010Prop52
140
1.0
102
RTVSPost2010PropOp52
 70
     0
102
RTVSPost2010Prop53
 90
        2
102
RTVSPost2010PropOp53
 70
     1
102
RTVSPost2010Prop54
  1
strokes_ogs.tif
102
RTVSPost2010PropOp54
 70
     1
102
RTVSPost2010Prop55
280
     0
102
RTVSPost2010PropOp55
 70
     1
102
RTVSPost2010Prop56
140
1.0
102
RTVSPost2010PropOp56
 70
     1
102
RTVSPost2010Prop57
140
1.0
102
RTVSPost2010PropOp57
 70
     1
  0
XRECORD
  5
B3E
102
{ACAD_REACTORS
330
B3D
102
}
330
B3D
100
AcDbXrecord
280
     1
102
RTVSPropertyOp0
 70
     0
102
RTVSPropertyOp1
 70
     0
102
RTVSPropertyOp2
 70
     0
102
RTVSPropertyOp3
 70
     0
102
RTVSPropertyOp4
 70
     0
102
RTVSPropertyOp5
 70
     0
102
RTVSPropertyOp6
 70
     0
102
RTVSPropertyOp7
 70
     0
102
RTVSPropertyOp8
 70
     0
102
RTVSPropertyOp9
 70
     0
102
RTVSPropertyOp10
 70
     0
102
RTVSPropertyOp11
 70
     0
102
RTVSPropertyOp12
 70
     0
102
RTVSPropertyOp13
 70
     0
102
RTVSPropertyOp14
 70
     2
102
RTVSPropertyOp15
 70
     0
102
RTVSPropertyOp16
 70
     0
102
RTVSPropertyOp17
 70
     0
102
RTVSPropertyOp18
 70
     0
102
RTVSPropertyOp19
 70
     0
102
RTVSPropertyOp20
 70
     0
102
RTVSPropertyOp21
 70
     0
102
RTVSPropertyOp22
 70
     0
102
RTVSPropertyOp23
 70
     0
102
RTVSPropertyOp24
 70
     0
102
RTVSPropertyOp25
 70
     0
102
RTVSPropertyOp26
 70
     0
102
RTVSPropertyOp27
 70
     0
102
RTVSPropertyOp28
 70
     0
102
RTVSPropertyOp29
 70
     0
102
RTVSPropertyOp30
 70
     0
102
RTVSPropertyOp31
 70
     0
102
RTVSPropertyOp32
 70
     0
102
RTVSPropertyOp33
 70
     0
102
RTVSPropertyOp34
 70
     0
102
RTVSPropertyOp35
 70
     0
102
RTVSPropertyOp36
 70
     0
102
RTVSPropertyOp37
 70
     0
102
RTVSPropertyOp38
 70
     0
102
RTVSPropertyOp39
 70
     0
102
RTVSPropertyOp40
 70
     0
102
RTVSPropertyOp41
 70
     0
102
RTVSPropertyOp42
 70
     0
102
RTVSPropertyOp43
 70
     0
102
RTVSPropertyOp44
 70
     0
102
RTVSPropertyOp45
 70
     0
102
RTVSPropertyOp46
 70
     0
102
RTVSPropertyOp47
 70
     0
102
RTVSPropertyOp48
 70
     0
102
RTVSPropertyOp49
 70
     0
102
RTVSPropertyOp50
 70
     0
102
RTVSPropertyOp51
 70
     0
102
RTVSPropertyOp52
 70
     0
102
RTVSPropertyOp53
 70
     0
102
RTVSPropertyOp54
 70
     0
102
RTVSPropertyOp55
 70
     0
102
RTVSPropertyOp56
 70
     0
102
RTVSPropertyOp57
 70
     0
102
RTVSPost2010Prop28
280
     0
102
RTVSPost2010PropOp28
 70
     0
102
RTVSPost2010Prop29
280
     1
102
RTVSPost2010PropOp29
 70
     0
102
RTVSPost2010Prop30
280
     1
102
RTVSPost2010PropOp30
 70
     0
102
RTVSPost2010Prop31
280
     0
102
RTVSPost2010PropOp31
 70
     0
102
RTVSPost2010Prop32
280
     0
102
RTVSPost2010PropOp32
 70
     0
102
RTVSPost2010Prop33
280
     0
102
RTVSPost2010PropOp33
 70
     0
102
RTVSPost2010Prop34
280
     0
102
RTVSPost2010PropOp34
 70
     0
102
RTVSPost2010Prop35
280
     0
102
RTVSPost2010PropOp35
 70
     0
102
RTVSPost2010Prop36
280
     0
102
RTVSPost2010PropOp36
 70
     0
102
RTVSPost2010Prop37
 90
       50
102
RTVSPost2010PropOp37
 70
     0
102
RTVSPost2010Prop38
140
0.0
102
RTVSPost2010PropOp38
 70
     0
102
RTVSPost2010Prop39
140
1.0
102
RTVSPost2010PropOp39
 70
     0
102
RTVSPost2010Prop40
 90
        0
102
RTVSPost2010PropOp40
 70
     0
102
RTVSPost2010Prop41ColorIndex
 90
       18
102
RTVSPost2010Prop41ColorRGB
 90
        0
102
RTVSPost2010PropOp41
 70
     0
102
RTVSPost2010Prop42
 90
       50
102
RTVSPost2010PropOp42
 70
     0
102
RTVSPost2010Prop43
 90
        3
102
RTVSPost2010PropOp43
 70
     0
102
RTVSPost2010Prop44ColorIndex
 90
        5
102
RTVSPost2010Prop44ColorRGB
 90
      255
102
RTVSPost2010PropOp44
 70
     0
102
RTVSPost2010Prop45
280
     0
102
RTVSPost2010PropOp45
 70
     0
102
RTVSPost2010Prop46
 90
       50
102
RTVSPost2010PropOp46
 70
     0
102
RTVSPost2010Prop47
 90
       50
102
RTVSPost2010PropOp47
 70
     0
102
RTVSPost2010Prop48
 90
       50
102
RTVSPost2010PropOp48
 70
     0
102
RTVSPost2010Prop49
280
     0
102
RTVSPost2010PropOp49
 70
     0
102
RTVSPost2010Prop50
 90
       50
102
RTVSPost2010PropOp50
 70
     0
102
RTVSPost2010Prop51ColorIndex
 90
      256
102
RTVSPost2010Prop51ColorRGB
 90
-16777216
102
RTVSPost2010PropOp51
 70
     0
102
RTVSPost2010Prop52
140
1.0
102
RTVSPost2010PropOp52
 70
     0
102
RTVSPost2010Prop53
 90
        2
102
RTVSPost2010PropOp53
 70
     0
102
RTVSPost2010Prop54
  1
strokes_ogs.tif
102
RTVSPost2010PropOp54
 70
     0
102
RTVSPost2010Prop55
280
     0
102
RTVSPost2010PropOp55
 70
     0
102
RTVSPost2010Prop56
140
1.0
102
RTVSPost2010PropOp56
 70
     0
102
RTVSPost2010Prop57
140
1.0
102
RTVSPost2010PropOp57
 70
     0
  0
XRECORD
  5
B40
102
{ACAD_REACTORS
330
B3F
102
}
330
B3F
100
AcDbXrecord
280
     1
102
RTVSPropertyOp0
 70
     1
102
RTVSPropertyOp1
 70
     1
102
RTVSPropertyOp2
 70
     1
102
RTVSPropertyOp3
 70
     1
102
RTVSPropertyOp4
 70
     1
102
RTVSPropertyOp5
 70
     1
102
RTVSPropertyOp6
 70
     1
102
RTVSPropertyOp7
 70
     1
102
RTVSPropertyOp8
 70
     1
102
RTVSPropertyOp9
 70
     1
102
RTVSPropertyOp10
 70
     1
102
RTVSPropertyOp11
 70
     1
102
RTVSPropertyOp12
 70
     1
102
RTVSPropertyOp13
 70
     1
102
RTVSPropertyOp14
 70
     1
102
RTVSPropertyOp15
 70
     1
102
RTVSPropertyOp16
 70
     1
102
RTVSPropertyOp17
 70
     1
102
RTVSPropertyOp18
 70
     1
102
RTVSPropertyOp19
 70
     1
102
RTVSPropertyOp20
 70
     1
102
RTVSPropertyOp21
 70
     1
102
RTVSPropertyOp22
 70
     1
102
RTVSPropertyOp23
 70
     1
102
RTVSPropertyOp24
 70
     1
102
RTVSPropertyOp25
 70
     1
102
RTVSPropertyOp26
 70
     1
102
RTVSPropertyOp27
 70
     1
102
RTVSPropertyOp28
 70
     1
102
RTVSPropertyOp29
 70
     1
102
RTVSPropertyOp30
 70
     1
102
RTVSPropertyOp31
 70
     1
102
RTVSPropertyOp32
 70
     1
102
RTVSPropertyOp33
 70
     1
102
RTVSPropertyOp34
 70
     1
102
RTVSPropertyOp35
 70
     1
102
RTVSPropertyOp36
 70
     1
102
RTVSPropertyOp37
 70
     1
102
RTVSPropertyOp38
 70
     1
102
RTVSPropertyOp39
 70
     1
102
RTVSPropertyOp40
 70
     1
102
RTVSPropertyOp41
 70
     1
102
RTVSPropertyOp42
 70
     1
102
RTVSPropertyOp43
 70
     1
102
RTVSPropertyOp44
 70
     1
102
RTVSPropertyOp45
 70
     1
102
RTVSPropertyOp46
 70
     1
102
RTVSPropertyOp47
 70
     1
102
RTVSPropertyOp48
 70
     1
102
RTVSPropertyOp49
 70
     1
102
RTVSPropertyOp50
 70
     1
102
RTVSPropertyOp51
 70
     0
102
RTVSPropertyOp52
 70
     0
102
RTVSPropertyOp53
 70
     1
102
RTVSPropertyOp54
 70
     1
102
RTVSPropertyOp55
 70
     1
102
RTVSPropertyOp56
 70
     1
102
RTVSPropertyOp57
 70
     1
102
RTVSPost2010Prop28
280
     0
102
RTVSPost2010PropOp28
 70
     1
102
RTVSPost2010Prop29
280
     1
102
RTVSPost2010PropOp29
 70
     1
102
RTVSPost2010Prop30
280
     1
102
RTVSPost2010PropOp30
 70
     1
102
RTVSPost2010Prop31
280
     0
102
RTVSPost2010PropOp31
 70
     1
102
RTVSPost2010Prop32
280
     0
102
RTVSPost2010PropOp32
 70
     1
102
RTVSPost2010Prop33
280
     0
102
RTVSPost2010PropOp33
 70
     1
102
RTVSPost2010Prop34
280
     0
102
RTVSPost2010PropOp34
 70
     1
102
RTVSPost2010Prop35
280
     0
102
RTVSPost2010PropOp35
 70
     1
102
RTVSPost2010Prop36
280
     0
102
RTVSPost2010PropOp36
 70
     1
102
RTVSPost2010Prop37
 90
       50
102
RTVSPost2010PropOp37
 70
     1
102
RTVSPost2010Prop38
140
0.0
102
RTVSPost2010PropOp38
 70
     1
102
RTVSPost2010Prop39
140
1.0
102
RTVSPost2010PropOp39
 70
     1
102
RTVSPost2010Prop40
 90
        0
102
RTVSPost2010PropOp40
 70
     1
102
RTVSPost2010Prop41ColorIndex
 90
       18
102
RTVSPost2010Prop41ColorRGB
 90
        0
102
RTVSPost2010PropOp41
 70
     1
102
RTVSPost2010Prop42
 90
       50
102
RTVSPost2010PropOp42
 70
     1
102
RTVSPost2010Prop43
 90
        3
102
RTVSPost2010PropOp43
 70
     1
102
RTVSPost2010Prop44ColorIndex
 90
        5
102
RTVSPost2010Prop44ColorRGB
 90
      255
102
RTVSPost2010PropOp44
 70
     1
102
RTVSPost2010Prop45
280
     0
102
RTVSPost2010PropOp45
 70
     1
102
RTVSPost2010Prop46
 90
       50
102
RTVSPost2010PropOp46
 70
     1
102
RTVSPost2010Prop47
 90
       50
102
RTVSPost2010PropOp47
 70
     1
102
RTVSPost2010Prop48
 90
       50
102
RTVSPost2010PropOp48
 70
     1
102
RTVSPost2010Prop49
280
     0
102
RTVSPost2010PropOp49
 70
     1
102
RTVSPost2010Prop50
 90
       50
102
RTVSPost2010PropOp50
 70
     1
102
RTVSPost2010Prop51ColorIndex
 90
      256
102
RTVSPost2010Prop51ColorRGB
 90
-16777216
102
RTVSPost2010PropOp51
 70
     0
102
RTVSPost2010Prop52
140
1.0
102
RTVSPost2010PropOp52
 70
     0
102
RTVSPost2010Prop53
 90
        2
102
RTVSPost2010PropOp53
 70
     1
102
RTVSPost2010Prop54
  1
strokes_ogs.tif
102
RTVSPost2010PropOp54
 70
     1
102
RTVSPost2010Prop55
280
     0
102
RTVSPost2010PropOp55
 70
     1
102
RTVSPost2010Prop56
140
1.0
102
RTVSPost2010PropOp56
 70
     1
102
RTVSPost2010Prop57
140
1.0
102
RTVSPost2010PropOp57
 70
     1
  0
XRECORD
  5
B42
102
{ACAD_REACTORS
330
B41
102
}
330
B41
100
AcDbXrecord
280
     1
102
RTVSPropertyOp0
 70
     1
102
RTVSPropertyOp1
 70
     1
102
RTVSPropertyOp2
 70
     1
102
RTVSPropertyOp3
 70
     1
102
RTVSPropertyOp4
 70
     1
102
RTVSPropertyOp5
 70
     1
102
RTVSPropertyOp6
 70
     1
102
RTVSPropertyOp7
 70
     1
102
RTVSPropertyOp8
 70
     1
102
RTVSPropertyOp9
 70
     1
102
RTVSPropertyOp10
 70
     1
102
RTVSPropertyOp11
 70
     1
102
RTVSPropertyOp12
 70
     1
102
RTVSPropertyOp13
 70
     1
102
RTVSPropertyOp14
 70
     1
102
RTVSPropertyOp15
 70
     1
102
RTVSPropertyOp16
 70
     1
102
RTVSPropertyOp17
 70
     1
102
RTVSPropertyOp18
 70
     1
102
RTVSPropertyOp19
 70
     1
102
RTVSPropertyOp20
 70
     1
102
RTVSPropertyOp21
 70
     1
102
RTVSPropertyOp22
 70
     1
102
RTVSPropertyOp23
 70
     1
102
RTVSPropertyOp24
 70
     1
102
RTVSPropertyOp25
 70
     1
102
RTVSPropertyOp26
 70
     1
102
RTVSPropertyOp27
 70
     1
102
RTVSPropertyOp28
 70
     1
102
RTVSPropertyOp29
 70
     1
102
RTVSPropertyOp30
 70
     1
102
RTVSPropertyOp31
 70
     1
102
RTVSPropertyOp32
 70
     1
102
RTVSPropertyOp33
 70
     1
102
RTVSPropertyOp34
 70
     1
102
RTVSPropertyOp35
 70
     1
102
RTVSPropertyOp36
 70
     1
102
RTVSPropertyOp37
 70
     1
102
RTVSPropertyOp38
 70
     1
102
RTVSPropertyOp39
 70
     1
102
RTVSPropertyOp40
 70
     1
102
RTVSPropertyOp41
 70
     1
102
RTVSPropertyOp42
 70
     1
102
RTVSPropertyOp43
 70
     1
102
RTVSPropertyOp44
 70
     1
102
RTVSPropertyOp45
 70
     1
102
RTVSPropertyOp46
 70
     1
102
RTVSPropertyOp47
 70
     1
102
RTVSPropertyOp48
 70
     1
102
RTVSPropertyOp49
 70
     1
102
RTVSPropertyOp50
 70
     1
102
RTVSPropertyOp51
 70
     0
102
RTVSPropertyOp52
 70
     0
102
RTVSPropertyOp53
 70
     1
102
RTVSPropertyOp54
 70
     1
102
RTVSPropertyOp55
 70
     1
102
RTVSPropertyOp56
 70
     1
102
RTVSPropertyOp57
 70
     1
102
RTVSPost2010Prop28
280
     0
102
RTVSPost2010PropOp28
 70
     1
102
RTVSPost2010Prop29
280
     1
102
RTVSPost2010PropOp29
 70
     1
102
RTVSPost2010Prop30
280
     1
102
RTVSPost2010PropOp30
 70
     1
102
RTVSPost2010Prop31
280
     0
102
RTVSPost2010PropOp31
 70
     1
102
RTVSPost2010Prop32
280
     0
102
RTVSPost2010PropOp32
 70
     1
102
RTVSPost2010Prop33
280
     0
102
RTVSPost2010PropOp33
 70
     1
102
RTVSPost2010Prop34
280
     0
102
RTVSPost2010PropOp34
 70
     1
102
RTVSPost2010Prop35
280
     0
102
RTVSPost2010PropOp35
 70
     1
102
RTVSPost2010Prop36
280
     0
102
RTVSPost2010PropOp36
 70
     1
102
RTVSPost2010Prop37
 90
       50
102
RTVSPost2010PropOp37
 70
     1
102
RTVSPost2010Prop38
140
0.0
102
RTVSPost2010PropOp38
 70
     1
102
RTVSPost2010Prop39
140
1.0
102
RTVSPost2010PropOp39
 70
     1
102
RTVSPost2010Prop40
 90
        0
102
RTVSPost2010PropOp40
 70
     1
102
RTVSPost2010Prop41ColorIndex
 90
       18
102
RTVSPost2010Prop41ColorRGB
 90
        0
102
RTVSPost2010PropOp41
 70
     1
102
RTVSPost2010Prop42
 90
       50
102
RTVSPost2010PropOp42
 70
     1
102
RTVSPost2010Prop43
 90
        3
102
RTVSPost2010PropOp43
 70
     1
102
RTVSPost2010Prop44ColorIndex
 90
        5
102
RTVSPost2010Prop44ColorRGB
 90
      255
102
RTVSPost2010PropOp44
 70
     1
102
RTVSPost2010Prop45
280
     0
102
RTVSPost2010PropOp45
 70
     1
102
RTVSPost2010Prop46
 90
       50
102
RTVSPost2010PropOp46
 70
     1
102
RTVSPost2010Prop47
 90
       50
102
RTVSPost2010PropOp47
 70
     1
102
RTVSPost2010Prop48
 90
       50
102
RTVSPost2010PropOp48
 70
     1
102
RTVSPost2010Prop49
280
     0
102
RTVSPost2010PropOp49
 70
     1
102
RTVSPost2010Prop50
 90
       50
102
RTVSPost2010PropOp50
 70
     1
102
RTVSPost2010Prop51ColorIndex
 90
      256
102
RTVSPost2010Prop51ColorRGB
 90
-16777216
102
RTVSPost2010PropOp51
 70
     0
102
RTVSPost2010Prop52
140
1.0
102
RTVSPost2010PropOp52
 70
     0
102
RTVSPost2010Prop53
 90
        2
102
RTVSPost2010PropOp53
 70
     1
102
RTVSPost2010Prop54
  1
strokes_ogs.tif
102
RTVSPost2010PropOp54
 70
     1
102
RTVSPost2010Prop55
280
     0
102
RTVSPost2010PropOp55
 70
     1
102
RTVSPost2010Prop56
140
1.0
102
RTVSPost2010PropOp56
 70
     1
102
RTVSPost2010Prop57
140
1.0
102
RTVSPost2010PropOp57
 70
     1
  0
XRECORD
  5
B44
102
{ACAD_REACTORS
330
B43
102
}
330
B43
100
AcDbXrecord
280
     1
102
RTVSPropertyOp0
 70
     1
102
RTVSPropertyOp1
 70
     1
102
RTVSPropertyOp2
 70
     1
102
RTVSPropertyOp3
 70
     1
102
RTVSPropertyOp4
 70
     1
102
RTVSPropertyOp5
 70
     1
102
RTVSPropertyOp6
 70
     1
102
RTVSPropertyOp7
 70
     1
102
RTVSPropertyOp8
 70
     1
102
RTVSPropertyOp9
 70
     1
102
RTVSPropertyOp10
 70
     1
102
RTVSPropertyOp11
 70
     1
102
RTVSPropertyOp12
 70
     1
102
RTVSPropertyOp13
 70
     1
102
RTVSPropertyOp14
 70
     1
102
RTVSPropertyOp15
 70
     1
102
RTVSPropertyOp16
 70
     1
102
RTVSPropertyOp17
 70
     1
102
RTVSPropertyOp18
 70
     1
102
RTVSPropertyOp19
 70
     1
102
RTVSPropertyOp20
 70
     1
102
RTVSPropertyOp21
 70
     1
102
RTVSPropertyOp22
 70
     1
102
RTVSPropertyOp23
 70
     1
102
RTVSPropertyOp24
 70
     1
102
RTVSPropertyOp25
 70
     1
102
RTVSPropertyOp26
 70
     1
102
RTVSPropertyOp27
 70
     1
102
RTVSPropertyOp28
 70
     1
102
RTVSPropertyOp29
 70
     1
102
RTVSPropertyOp30
 70
     1
102
RTVSPropertyOp31
 70
     1
102
RTVSPropertyOp32
 70
     1
102
RTVSPropertyOp33
 70
     1
102
RTVSPropertyOp34
 70
     1
102
RTVSPropertyOp35
 70
     1
102
RTVSPropertyOp36
 70
     1
102
RTVSPropertyOp37
 70
     1
102
RTVSPropertyOp38
 70
     1
102
RTVSPropertyOp39
 70
     1
102
RTVSPropertyOp40
 70
     1
102
RTVSPropertyOp41
 70
     1
102
RTVSPropertyOp42
 70
     1
102
RTVSPropertyOp43
 70
     1
102
RTVSPropertyOp44
 70
     1
102
RTVSPropertyOp45
 70
     1
102
RTVSPropertyOp46
 70
     1
102
RTVSPropertyOp47
 70
     1
102
RTVSPropertyOp48
 70
     1
102
RTVSPropertyOp49
 70
     1
102
RTVSPropertyOp50
 70
     1
102
RTVSPropertyOp51
 70
     0
102
RTVSPropertyOp52
 70
     0
102
RTVSPropertyOp53
 70
     1
102
RTVSPropertyOp54
 70
     1
102
RTVSPropertyOp55
 70
     1
102
RTVSPropertyOp56
 70
     1
102
RTVSPropertyOp57
 70
     1
102
RTVSPost2010Prop28
280
     0
102
RTVSPost2010PropOp28
 70
     1
102
RTVSPost2010Prop29
280
     1
102
RTVSPost2010PropOp29
 70
     1
102
RTVSPost2010Prop30
280
     1
102
RTVSPost2010PropOp30
 70
     1
102
RTVSPost2010Prop31
280
     0
102
RTVSPost2010PropOp31
 70
     1
102
RTVSPost2010Prop32
280
     0
102
RTVSPost2010PropOp32
 70
     1
102
RTVSPost2010Prop33
280
     0
102
RTVSPost2010PropOp33
 70
     1
102
RTVSPost2010Prop34
280
     0
102
RTVSPost2010PropOp34
 70
     1
102
RTVSPost2010Prop35
280
     0
102
RTVSPost2010PropOp35
 70
     1
102
RTVSPost2010Prop36
280
     0
102
RTVSPost2010PropOp36
 70
     1
102
RTVSPost2010Prop37
 90
       50
102
RTVSPost2010PropOp37
 70
     1
102
RTVSPost2010Prop38
140
0.0
102
RTVSPost2010PropOp38
 70
     1
102
RTVSPost2010Prop39
140
1.0
102
RTVSPost2010PropOp39
 70
     1
102
RTVSPost2010Prop40
 90
        0
102
RTVSPost2010PropOp40
 70
     1
102
RTVSPost2010Prop41ColorIndex
 90
       18
102
RTVSPost2010Prop41ColorRGB
 90
        0
102
RTVSPost2010PropOp41
 70
     1
102
RTVSPost2010Prop42
 90
       50
102
RTVSPost2010PropOp42
 70
     1
102
RTVSPost2010Prop43
 90
        3
102
RTVSPost2010PropOp43
 70
     1
102
RTVSPost2010Prop44ColorIndex
 90
        5
102
RTVSPost2010Prop44ColorRGB
 90
      255
102
RTVSPost2010PropOp44
 70
     1
102
RTVSPost2010Prop45
280
     0
102
RTVSPost2010PropOp45
 70
     1
102
RTVSPost2010Prop46
 90
       50
102
RTVSPost2010PropOp46
 70
     1
102
RTVSPost2010Prop47
 90
       50
102
RTVSPost2010PropOp47
 70
     1
102
RTVSPost2010Prop48
 90
       50
102
RTVSPost2010PropOp48
 70
     1
102
RTVSPost2010Prop49
280
     0
102
RTVSPost2010PropOp49
 70
     1
102
RTVSPost2010Prop50
 90
       50
102
RTVSPost2010PropOp50
 70
     1
102
RTVSPost2010Prop51ColorIndex
 90
      256
102
RTVSPost2010Prop51ColorRGB
 90
-16777216
102
RTVSPost2010PropOp51
 70
     0
102
RTVSPost2010Prop52
140
1.0
102
RTVSPost2010PropOp52
 70
     0
102
RTVSPost2010Prop53
 90
        2
102
RTVSPost2010PropOp53
 70
     1
102
RTVSPost2010Prop54
  1
strokes_ogs.tif
102
RTVSPost2010PropOp54
 70
     1
102
RTVSPost2010Prop55
280
     0
102
RTVSPost2010PropOp55
 70
     1
102
RTVSPost2010Prop56
140
1.0
102
RTVSPost2010PropOp56
 70
     1
102
RTVSPost2010Prop57
140
1.0
102
RTVSPost2010PropOp57
 70
     1
  0
XRECORD
  5
B46
102
{ACAD_REACTORS
330
B45
102
}
330
B45
100
AcDbXrecord
280
     1
102
RTVSPropertyOp0
 70
     1
102
RTVSPropertyOp1
 70
     1
102
RTVSPropertyOp2
 70
     1
102
RTVSPropertyOp3
 70
     1
102
RTVSPropertyOp4
 70
     1
102
RTVSPropertyOp5
 70
     1
102
RTVSPropertyOp6
 70
     1
102
RTVSPropertyOp7
 70
     1
102
RTVSPropertyOp8
 70
     1
102
RTVSPropertyOp9
 70
     1
102
RTVSPropertyOp10
 70
     1
102
RTVSPropertyOp11
 70
     1
102
RTVSPropertyOp12
 70
     1
102
RTVSPropertyOp13
 70
     1
102
RTVSPropertyOp14
 70
     1
102
RTVSPropertyOp15
 70
     1
102
RTVSPropertyOp16
 70
     1
102
RTVSPropertyOp17
 70
     1
102
RTVSPropertyOp18
 70
     1
102
RTVSPropertyOp19
 70
     1
102
RTVSPropertyOp20
 70
     1
102
RTVSPropertyOp21
 70
     1
102
RTVSPropertyOp22
 70
     1
102
RTVSPropertyOp23
 70
     1
102
RTVSPropertyOp24
 70
     1
102
RTVSPropertyOp25
 70
     1
102
RTVSPropertyOp26
 70
     1
102
RTVSPropertyOp27
 70
     1
102
RTVSPropertyOp28
 70
     1
102
RTVSPropertyOp29
 70
     1
102
RTVSPropertyOp30
 70
     1
102
RTVSPropertyOp31
 70
     1
102
RTVSPropertyOp32
 70
     1
102
RTVSPropertyOp33
 70
     1
102
RTVSPropertyOp34
 70
     1
102
RTVSPropertyOp35
 70
     1
102
RTVSPropertyOp36
 70
     1
102
RTVSPropertyOp37
 70
     1
102
RTVSPropertyOp38
 70
     1
102
RTVSPropertyOp39
 70
     1
102
RTVSPropertyOp40
 70
     1
102
RTVSPropertyOp41
 70
     1
102
RTVSPropertyOp42
 70
     1
102
RTVSPropertyOp43
 70
     1
102
RTVSPropertyOp44
 70
     1
102
RTVSPropertyOp45
 70
     1
102
RTVSPropertyOp46
 70
     1
102
RTVSPropertyOp47
 70
     1
102
RTVSPropertyOp48
 70
     1
102
RTVSPropertyOp49
 70
     1
102
RTVSPropertyOp50
 70
     1
102
RTVSPropertyOp51
 70
     0
102
RTVSPropertyOp52
 70
     0
102
RTVSPropertyOp53
 70
     1
102
RTVSPropertyOp54
 70
     1
102
RTVSPropertyOp55
 70
     1
102
RTVSPropertyOp56
 70
     1
102
RTVSPropertyOp57
 70
     1
102
RTVSPost2010Prop28
280
     0
102
RTVSPost2010PropOp28
 70
     1
102
RTVSPost2010Prop29
280
     1
102
RTVSPost2010PropOp29
 70
     1
102
RTVSPost2010Prop30
280
     1
102
RTVSPost2010PropOp30
 70
     1
102
RTVSPost2010Prop31
280
     0
102
RTVSPost2010PropOp31
 70
     1
102
RTVSPost2010Prop32
280
     0
102
RTVSPost2010PropOp32
 70
     1
102
RTVSPost2010Prop33
280
     0
102
RTVSPost2010PropOp33
 70
     1
102
RTVSPost2010Prop34
280
     0
102
RTVSPost2010PropOp34
 70
     1
102
RTVSPost2010Prop35
280
     0
102
RTVSPost2010PropOp35
 70
     1
102
RTVSPost2010Prop36
280
     0
102
RTVSPost2010PropOp36
 70
     1
102
RTVSPost2010Prop37
 90
       50
102
RTVSPost2010PropOp37
 70
     1
102
RTVSPost2010Prop38
140
0.0
102
RTVSPost2010PropOp38
 70
     1
102
RTVSPost2010Prop39
140
1.0
102
RTVSPost2010PropOp39
 70
     1
102
RTVSPost2010Prop40
 90
        0
102
RTVSPost2010PropOp40
 70
     1
102
RTVSPost2010Prop41ColorIndex
 90
       18
102
RTVSPost2010Prop41ColorRGB
 90
        0
102
RTVSPost2010PropOp41
 70
     1
102
RTVSPost2010Prop42
 90
       50
102
RTVSPost2010PropOp42
 70
     1
102
RTVSPost2010Prop43
 90
        3
102
RTVSPost2010PropOp43
 70
     1
102
RTVSPost2010Prop44ColorIndex
 90
        5
102
RTVSPost2010Prop44ColorRGB
 90
      255
102
RTVSPost2010PropOp44
 70
     1
102
RTVSPost2010Prop45
280
     0
102
RTVSPost2010PropOp45
 70
     1
102
RTVSPost2010Prop46
 90
       50
102
RTVSPost2010PropOp46
 70
     1
102
RTVSPost2010Prop47
 90
       50
102
RTVSPost2010PropOp47
 70
     1
102
RTVSPost2010Prop48
 90
       50
102
RTVSPost2010PropOp48
 70
     1
102
RTVSPost2010Prop49
280
     0
102
RTVSPost2010PropOp49
 70
     1
102
RTVSPost2010Prop50
 90
       50
102
RTVSPost2010PropOp50
 70
     1
102
RTVSPost2010Prop51ColorIndex
 90
      256
102
RTVSPost2010Prop51ColorRGB
 90
-16777216
102
RTVSPost2010PropOp51
 70
     0
102
RTVSPost2010Prop52
140
1.0
102
RTVSPost2010PropOp52
 70
     0
102
RTVSPost2010Prop53
 90
        2
102
RTVSPost2010PropOp53
 70
     1
102
RTVSPost2010Prop54
  1
strokes_ogs.tif
102
RTVSPost2010PropOp54
 70
     1
102
RTVSPost2010Prop55
280
     0
102
RTVSPost2010PropOp55
 70
     1
102
RTVSPost2010Prop56
140
1.0
102
RTVSPost2010PropOp56
 70
     1
102
RTVSPost2010Prop57
140
1.0
102
RTVSPost2010PropOp57
 70
     1
  0
XRECORD
  5
B48
102
{ACAD_REACTORS
330
B47
102
}
330
B47
100
AcDbXrecord
280
     1
102
RTVSPropertyOp0
 70
     1
102
RTVSPropertyOp1
 70
     1
102
RTVSPropertyOp2
 70
     1
102
RTVSPropertyOp3
 70
     1
102
RTVSPropertyOp4
 70
     1
102
RTVSPropertyOp5
 70
     1
102
RTVSPropertyOp6
 70
     1
102
RTVSPropertyOp7
 70
     1
102
RTVSPropertyOp8
 70
     1
102
RTVSPropertyOp9
 70
     1
102
RTVSPropertyOp10
 70
     1
102
RTVSPropertyOp11
 70
     1
102
RTVSPropertyOp12
 70
     1
102
RTVSPropertyOp13
 70
     1
102
RTVSPropertyOp14
 70
     1
102
RTVSPropertyOp15
 70
     1
102
RTVSPropertyOp16
 70
     1
102
RTVSPropertyOp17
 70
     1
102
RTVSPropertyOp18
 70
     1
102
RTVSPropertyOp19
 70
     1
102
RTVSPropertyOp20
 70
     1
102
RTVSPropertyOp21
 70
     1
102
RTVSPropertyOp22
 70
     1
102
RTVSPropertyOp23
 70
     1
102
RTVSPropertyOp24
 70
     1
102
RTVSPropertyOp25
 70
     1
102
RTVSPropertyOp26
 70
     1
102
RTVSPropertyOp27
 70
     1
102
RTVSPropertyOp28
 70
     1
102
RTVSPropertyOp29
 70
     1
102
RTVSPropertyOp30
 70
     1
102
RTVSPropertyOp31
 70
     1
102
RTVSPropertyOp32
 70
     1
102
RTVSPropertyOp33
 70
     1
102
RTVSPropertyOp34
 70
     1
102
RTVSPropertyOp35
 70
     1
102
RTVSPropertyOp36
 70
     1
102
RTVSPropertyOp37
 70
     1
102
RTVSPropertyOp38
 70
     1
102
RTVSPropertyOp39
 70
     1
102
RTVSPropertyOp40
 70
     1
102
RTVSPropertyOp41
 70
     1
102
RTVSPropertyOp42
 70
     1
102
RTVSPropertyOp43
 70
     1
102
RTVSPropertyOp44
 70
     1
102
RTVSPropertyOp45
 70
     1
102
RTVSPropertyOp46
 70
     1
102
RTVSPropertyOp47
 70
     1
102
RTVSPropertyOp48
 70
     1
102
RTVSPropertyOp49
 70
     1
102
RTVSPropertyOp50
 70
     1
102
RTVSPropertyOp51
 70
     0
102
RTVSPropertyOp52
 70
     0
102
RTVSPropertyOp53
 70
     1
102
RTVSPropertyOp54
 70
     1
102
RTVSPropertyOp55
 70
     1
102
RTVSPropertyOp56
 70
     1
102
RTVSPropertyOp57
 70
     1
102
RTVSPost2010Prop28
280
     0
102
RTVSPost2010PropOp28
 70
     1
102
RTVSPost2010Prop29
280
     1
102
RTVSPost2010PropOp29
 70
     1
102
RTVSPost2010Prop30
280
     1
102
RTVSPost2010PropOp30
 70
     1
102
RTVSPost2010Prop31
280
     0
102
RTVSPost2010PropOp31
 70
     1
102
RTVSPost2010Prop32
280
     0
102
RTVSPost2010PropOp32
 70
     1
102
RTVSPost2010Prop33
280
     0
102
RTVSPost2010PropOp33
 70
     1
102
RTVSPost2010Prop34
280
     0
102
RTVSPost2010PropOp34
 70
     1
102
RTVSPost2010Prop35
280
     0
102
RTVSPost2010PropOp35
 70
     1
102
RTVSPost2010Prop36
280
     0
102
RTVSPost2010PropOp36
 70
     1
102
RTVSPost2010Prop37
 90
       50
102
RTVSPost2010PropOp37
 70
     1
102
RTVSPost2010Prop38
140
0.0
102
RTVSPost2010PropOp38
 70
     1
102
RTVSPost2010Prop39
140
1.0
102
RTVSPost2010PropOp39
 70
     1
102
RTVSPost2010Prop40
 90
        0
102
RTVSPost2010PropOp40
 70
     1
102
RTVSPost2010Prop41ColorIndex
 90
       18
102
RTVSPost2010Prop41ColorRGB
 90
        0
102
RTVSPost2010PropOp41
 70
     1
102
RTVSPost2010Prop42
 90
       50
102
RTVSPost2010PropOp42
 70
     1
102
RTVSPost2010Prop43
 90
        3
102
RTVSPost2010PropOp43
 70
     1
102
RTVSPost2010Prop44ColorIndex
 90
        5
102
RTVSPost2010Prop44ColorRGB
 90
      255
102
RTVSPost2010PropOp44
 70
     1
102
RTVSPost2010Prop45
280
     0
102
RTVSPost2010PropOp45
 70
     1
102
RTVSPost2010Prop46
 90
       50
102
RTVSPost2010PropOp46
 70
     1
102
RTVSPost2010Prop47
 90
       50
102
RTVSPost2010PropOp47
 70
     1
102
RTVSPost2010Prop48
 90
       50
102
RTVSPost2010PropOp48
 70
     1
102
RTVSPost2010Prop49
280
     0
102
RTVSPost2010PropOp49
 70
     1
102
RTVSPost2010Prop50
 90
       50
102
RTVSPost2010PropOp50
 70
     1
102
RTVSPost2010Prop51ColorIndex
 90
      256
102
RTVSPost2010Prop51ColorRGB
 90
-16777216
102
RTVSPost2010PropOp51
 70
     0
102
RTVSPost2010Prop52
140
1.0
102
RTVSPost2010PropOp52
 70
     0
102
RTVSPost2010Prop53
 90
        2
102
RTVSPost2010PropOp53
 70
     1
102
RTVSPost2010Prop54
  1
strokes_ogs.tif
102
RTVSPost2010PropOp54
 70
     1
102
RTVSPost2010Prop55
280
     0
102
RTVSPost2010PropOp55
 70
     1
102
RTVSPost2010Prop56
140
1.0
102
RTVSPost2010PropOp56
 70
     1
102
RTVSPost2010Prop57
140
1.0
102
RTVSPost2010PropOp57
 70
     1
  0
XRECORD
  5
B4A
102
{ACAD_REACTORS
330
B49
102
}
330
B49
100
AcDbXrecord
280
     1
102
RTVSPropertyOp0
 70
     1
102
RTVSPropertyOp1
 70
     1
102
RTVSPropertyOp2
 70
     1
102
RTVSPropertyOp3
 70
     1
102
RTVSPropertyOp4
 70
     1
102
RTVSPropertyOp5
 70
     1
102
RTVSPropertyOp6
 70
     1
102
RTVSPropertyOp7
 70
     1
102
RTVSPropertyOp8
 70
     1
102
RTVSPropertyOp9
 70
     1
102
RTVSPropertyOp10
 70
     1
102
RTVSPropertyOp11
 70
     1
102
RTVSPropertyOp12
 70
     1
102
RTVSPropertyOp13
 70
     1
102
RTVSPropertyOp14
 70
     1
102
RTVSPropertyOp15
 70
     1
102
RTVSPropertyOp16
 70
     1
102
RTVSPropertyOp17
 70
     1
102
RTVSPropertyOp18
 70
     1
102
RTVSPropertyOp19
 70
     1
102
RTVSPropertyOp20
 70
     1
102
RTVSPropertyOp21
 70
     1
102
RTVSPropertyOp22
 70
     1
102
RTVSPropertyOp23
 70
     1
102
RTVSPropertyOp24
 70
     1
102
RTVSPropertyOp25
 70
     1
102
RTVSPropertyOp26
 70
     1
102
RTVSPropertyOp27
 70
     1
102
RTVSPropertyOp28
 70
     1
102
RTVSPropertyOp29
 70
     1
102
RTVSPropertyOp30
 70
     1
102
RTVSPropertyOp31
 70
     1
102
RTVSPropertyOp32
 70
     1
102
RTVSPropertyOp33
 70
     1
102
RTVSPropertyOp34
 70
     1
102
RTVSPropertyOp35
 70
     1
102
RTVSPropertyOp36
 70
     1
102
RTVSPropertyOp37
 70
     1
102
RTVSPropertyOp38
 70
     1
102
RTVSPropertyOp39
 70
     1
102
RTVSPropertyOp40
 70
     1
102
RTVSPropertyOp41
 70
     1
102
RTVSPropertyOp42
 70
     1
102
RTVSPropertyOp43
 70
     1
102
RTVSPropertyOp44
 70
     1
102
RTVSPropertyOp45
 70
     1
102
RTVSPropertyOp46
 70
     1
102
RTVSPropertyOp47
 70
     1
102
RTVSPropertyOp48
 70
     1
102
RTVSPropertyOp49
 70
     1
102
RTVSPropertyOp50
 70
     1
102
RTVSPropertyOp51
 70
     0
102
RTVSPropertyOp52
 70
     0
102
RTVSPropertyOp53
 70
     1
102
RTVSPropertyOp54
 70
     1
102
RTVSPropertyOp55
 70
     1
102
RTVSPropertyOp56
 70
     1
102
RTVSPropertyOp57
 70
     1
102
RTVSPost2010Prop28
280
     0
102
RTVSPost2010PropOp28
 70
     1
102
RTVSPost2010Prop29
280
     1
102
RTVSPost2010PropOp29
 70
     1
102
RTVSPost2010Prop30
280
     1
102
RTVSPost2010PropOp30
 70
     1
102
RTVSPost2010Prop31
280
     0
102
RTVSPost2010PropOp31
 70
     1
102
RTVSPost2010Prop32
280
     0
102
RTVSPost2010PropOp32
 70
     1
102
RTVSPost2010Prop33
280
     0
102
RTVSPost2010PropOp33
 70
     1
102
RTVSPost2010Prop34
280
     0
102
RTVSPost2010PropOp34
 70
     1
102
RTVSPost2010Prop35
280
     0
102
RTVSPost2010PropOp35
 70
     1
102
RTVSPost2010Prop36
280
     0
102
RTVSPost2010PropOp36
 70
     1
102
RTVSPost2010Prop37
 90
       50
102
RTVSPost2010PropOp37
 70
     1
102
RTVSPost2010Prop38
140
0.0
102
RTVSPost2010PropOp38
 70
     1
102
RTVSPost2010Prop39
140
1.0
102
RTVSPost2010PropOp39
 70
     1
102
RTVSPost2010Prop40
 90
        0
102
RTVSPost2010PropOp40
 70
     1
102
RTVSPost2010Prop41ColorIndex
 90
       18
102
RTVSPost2010Prop41ColorRGB
 90
        0
102
RTVSPost2010PropOp41
 70
     1
102
RTVSPost2010Prop42
 90
       50
102
RTVSPost2010PropOp42
 70
     1
102
RTVSPost2010Prop43
 90
        3
102
RTVSPost2010PropOp43
 70
     1
102
RTVSPost2010Prop44ColorIndex
 90
        5
102
RTVSPost2010Prop44ColorRGB
 90
      255
102
RTVSPost2010PropOp44
 70
     1
102
RTVSPost2010Prop45
280
     0
102
RTVSPost2010PropOp45
 70
     1
102
RTVSPost2010Prop46
 90
       50
102
RTVSPost2010PropOp46
 70
     1
102
RTVSPost2010Prop47
 90
       50
102
RTVSPost2010PropOp47
 70
     1
102
RTVSPost2010Prop48
 90
       50
102
RTVSPost2010PropOp48
 70
     1
102
RTVSPost2010Prop49
280
     0
102
RTVSPost2010PropOp49
 70
     1
102
RTVSPost2010Prop50
 90
       50
102
RTVSPost2010PropOp50
 70
     1
102
RTVSPost2010Prop51ColorIndex
 90
      256
102
RTVSPost2010Prop51ColorRGB
 90
-16777216
102
RTVSPost2010PropOp51
 70
     0
102
RTVSPost2010Prop52
140
1.0
102
RTVSPost2010PropOp52
 70
     0
102
RTVSPost2010Prop53
 90
        2
102
RTVSPost2010PropOp53
 70
     1
102
RTVSPost2010Prop54
  1
strokes_ogs.tif
102
RTVSPost2010PropOp54
 70
     1
102
RTVSPost2010Prop55
280
     0
102
RTVSPost2010PropOp55
 70
     1
102
RTVSPost2010Prop56
140
1.0
102
RTVSPost2010PropOp56
 70
     1
102
RTVSPost2010Prop57
140
1.0
102
RTVSPost2010PropOp57
 70
     1
  0
XRECORD
  5
B4C
102
{ACAD_REACTORS
330
B4B
102
}
330
B4B
100
AcDbXrecord
280
     1
102
RTVSPropertyOp0
 70
     0
102
RTVSPropertyOp1
 70
     0
102
RTVSPropertyOp2
 70
     0
102
RTVSPropertyOp3
 70
     0
102
RTVSPropertyOp4
 70
     0
102
RTVSPropertyOp5
 70
     0
102
RTVSPropertyOp6
 70
     0
102
RTVSPropertyOp7
 70
     0
102
RTVSPropertyOp8
 70
     0
102
RTVSPropertyOp9
 70
     0
102
RTVSPropertyOp10
 70
     0
102
RTVSPropertyOp11
 70
     0
102
RTVSPropertyOp12
 70
     0
102
RTVSPropertyOp13
 70
     0
102
RTVSPropertyOp14
 70
     2
102
RTVSPropertyOp15
 70
     0
102
RTVSPropertyOp16
 70
     0
102
RTVSPropertyOp17
 70
     0
102
RTVSPropertyOp18
 70
     0
102
RTVSPropertyOp19
 70
     0
102
RTVSPropertyOp20
 70
     0
102
RTVSPropertyOp21
 70
     0
102
RTVSPropertyOp22
 70
     0
102
RTVSPropertyOp23
 70
     0
102
RTVSPropertyOp24
 70
     0
102
RTVSPropertyOp25
 70
     0
102
RTVSPropertyOp26
 70
     0
102
RTVSPropertyOp27
 70
     0
102
RTVSPropertyOp28
 70
     0
102
RTVSPropertyOp29
 70
     0
102
RTVSPropertyOp30
 70
     0
102
RTVSPropertyOp31
 70
     0
102
RTVSPropertyOp32
 70
     0
102
RTVSPropertyOp33
 70
     0
102
RTVSPropertyOp34
 70
     0
102
RTVSPropertyOp35
 70
     0
102
RTVSPropertyOp36
 70
     0
102
RTVSPropertyOp37
 70
     0
102
RTVSPropertyOp38
 70
     0
102
RTVSPropertyOp39
 70
     0
102
RTVSPropertyOp40
 70
     0
102
RTVSPropertyOp41
 70
     0
102
RTVSPropertyOp42
 70
     0
102
RTVSPropertyOp43
 70
     0
102
RTVSPropertyOp44
 70
     0
102
RTVSPropertyOp45
 70
     0
102
RTVSPropertyOp46
 70
     0
102
RTVSPropertyOp47
 70
     0
102
RTVSPropertyOp48
 70
     0
102
RTVSPropertyOp49
 70
     0
102
RTVSPropertyOp50
 70
     0
102
RTVSPropertyOp51
 70
     0
102
RTVSPropertyOp52
 70
     0
102
RTVSPropertyOp53
 70
     0
102
RTVSPropertyOp54
 70
     0
102
RTVSPropertyOp55
 70
     0
102
RTVSPropertyOp56
 70
     0
102
RTVSPropertyOp57
 70
     0
102
RTVSPost2010Prop28
280
     0
102
RTVSPost2010PropOp28
 70
     0
102
RTVSPost2010Prop29
280
     1
102
RTVSPost2010PropOp29
 70
     0
102
RTVSPost2010Prop30
280
     1
102
RTVSPost2010PropOp30
 70
     0
102
RTVSPost2010Prop31
280
     0
102
RTVSPost2010PropOp31
 70
     0
102
RTVSPost2010Prop32
280
     0
102
RTVSPost2010PropOp32
 70
     0
102
RTVSPost2010Prop33
280
     0
102
RTVSPost2010PropOp33
 70
     0
102
RTVSPost2010Prop34
280
     0
102
RTVSPost2010PropOp34
 70
     0
102
RTVSPost2010Prop35
280
     0
102
RTVSPost2010PropOp35
 70
     0
102
RTVSPost2010Prop36
280
     0
102
RTVSPost2010PropOp36
 70
     0
102
RTVSPost2010Prop37
 90
       50
102
RTVSPost2010PropOp37
 70
     0
102
RTVSPost2010Prop38
140
0.0
102
RTVSPost2010PropOp38
 70
     0
102
RTVSPost2010Prop39
140
1.0
102
RTVSPost2010PropOp39
 70
     0
102
RTVSPost2010Prop40
 90
        0
102
RTVSPost2010PropOp40
 70
     0
102
RTVSPost2010Prop41ColorIndex
 90
       18
102
RTVSPost2010Prop41ColorRGB
 90
        0
102
RTVSPost2010PropOp41
 70
     0
102
RTVSPost2010Prop42
 90
       50
102
RTVSPost2010PropOp42
 70
     0
102
RTVSPost2010Prop43
 90
        3
102
RTVSPost2010PropOp43
 70
     0
102
RTVSPost2010Prop44ColorIndex
 90
        5
102
RTVSPost2010Prop44ColorRGB
 90
      255
102
RTVSPost2010PropOp44
 70
     0
102
RTVSPost2010Prop45
280
     0
102
RTVSPost2010PropOp45
 70
     0
102
RTVSPost2010Prop46
 90
       50
102
RTVSPost2010PropOp46
 70
     0
102
RTVSPost2010Prop47
 90
       50
102
RTVSPost2010PropOp47
 70
     0
102
RTVSPost2010Prop48
 90
       50
102
RTVSPost2010PropOp48
 70
     0
102
RTVSPost2010Prop49
280
     0
102
RTVSPost2010PropOp49
 70
     0
102
RTVSPost2010Prop50
 90
       50
102
RTVSPost2010PropOp50
 70
     0
102
RTVSPost2010Prop51ColorIndex
 90
      256
102
RTVSPost2010Prop51ColorRGB
 90
-16777216
102
RTVSPost2010PropOp51
 70
     0
102
RTVSPost2010Prop52
140
1.0
102
RTVSPost2010PropOp52
 70
     0
102
RTVSPost2010Prop53
 90
        2
102
RTVSPost2010PropOp53
 70
     0
102
RTVSPost2010Prop54
  1
strokes_ogs.tif
102
RTVSPost2010PropOp54
 70
     0
102
RTVSPost2010Prop55
280
     0
102
RTVSPost2010PropOp55
 70
     0
102
RTVSPost2010Prop56
140
1.0
102
RTVSPost2010PropOp56
 70
     0
102
RTVSPost2010Prop57
140
1.0
102
RTVSPost2010PropOp57
 70
     0
  0
XRECORD
  5
B4E
102
{ACAD_REACTORS
330
B4D
102
}
330
B4D
100
AcDbXrecord
280
     1
102
RTVSPropertyOp0
 70
     1
102
RTVSPropertyOp1
 70
     1
102
RTVSPropertyOp2
 70
     1
102
RTVSPropertyOp3
 70
     1
102
RTVSPropertyOp4
 70
     1
102
RTVSPropertyOp5
 70
     1
102
RTVSPropertyOp6
 70
     1
102
RTVSPropertyOp7
 70
     1
102
RTVSPropertyOp8
 70
     1
102
RTVSPropertyOp9
 70
     1
102
RTVSPropertyOp10
 70
     1
102
RTVSPropertyOp11
 70
     1
102
RTVSPropertyOp12
 70
     1
102
RTVSPropertyOp13
 70
     1
102
RTVSPropertyOp14
 70
     1
102
RTVSPropertyOp15
 70
     1
102
RTVSPropertyOp16
 70
     1
102
RTVSPropertyOp17
 70
     1
102
RTVSPropertyOp18
 70
     1
102
RTVSPropertyOp19
 70
     1
102
RTVSPropertyOp20
 70
     1
102
RTVSPropertyOp21
 70
     1
102
RTVSPropertyOp22
 70
     1
102
RTVSPropertyOp23
 70
     1
102
RTVSPropertyOp24
 70
     1
102
RTVSPropertyOp25
 70
     1
102
RTVSPropertyOp26
 70
     1
102
RTVSPropertyOp27
 70
     1
102
RTVSPropertyOp28
 70
     1
102
RTVSPropertyOp29
 70
     1
102
RTVSPropertyOp30
 70
     1
102
RTVSPropertyOp31
 70
     1
102
RTVSPropertyOp32
 70
     1
102
RTVSPropertyOp33
 70
     1
102
RTVSPropertyOp34
 70
     1
102
RTVSPropertyOp35
 70
     1
102
RTVSPropertyOp36
 70
     1
102
RTVSPropertyOp37
 70
     1
102
RTVSPropertyOp38
 70
     1
102
RTVSPropertyOp39
 70
     1
102
RTVSPropertyOp40
 70
     1
102
RTVSPropertyOp41
 70
     1
102
RTVSPropertyOp42
 70
     1
102
RTVSPropertyOp43
 70
     1
102
RTVSPropertyOp44
 70
     1
102
RTVSPropertyOp45
 70
     1
102
RTVSPropertyOp46
 70
     1
102
RTVSPropertyOp47
 70
     1
102
RTVSPropertyOp48
 70
     1
102
RTVSPropertyOp49
 70
     1
102
RTVSPropertyOp50
 70
     1
102
RTVSPropertyOp51
 70
     0
102
RTVSPropertyOp52
 70
     0
102
RTVSPropertyOp53
 70
     1
102
RTVSPropertyOp54
 70
     1
102
RTVSPropertyOp55
 70
     1
102
RTVSPropertyOp56
 70
     1
102
RTVSPropertyOp57
 70
     1
102
RTVSPost2010Prop28
280
     0
102
RTVSPost2010PropOp28
 70
     1
102
RTVSPost2010Prop29
280
     1
102
RTVSPost2010PropOp29
 70
     1
102
RTVSPost2010Prop30
280
     1
102
RTVSPost2010PropOp30
 70
     1
102
RTVSPost2010Prop31
280
     0
102
RTVSPost2010PropOp31
 70
     1
102
RTVSPost2010Prop32
280
     0
102
RTVSPost2010PropOp32
 70
     1
102
RTVSPost2010Prop33
280
     0
102
RTVSPost2010PropOp33
 70
     1
102
RTVSPost2010Prop34
280
     0
102
RTVSPost2010PropOp34
 70
     1
102
RTVSPost2010Prop35
280
     0
102
RTVSPost2010PropOp35
 70
     1
102
RTVSPost2010Prop36
280
     0
102
RTVSPost2010PropOp36
 70
     1
102
RTVSPost2010Prop37
 90
       50
102
RTVSPost2010PropOp37
 70
     1
102
RTVSPost2010Prop38
140
0.0
102
RTVSPost2010PropOp38
 70
     1
102
RTVSPost2010Prop39
140
1.0
102
RTVSPost2010PropOp39
 70
     1
102
RTVSPost2010Prop40
 90
        0
102
RTVSPost2010PropOp40
 70
     1
102
RTVSPost2010Prop41ColorIndex
 90
       18
102
RTVSPost2010Prop41ColorRGB
 90
        0
102
RTVSPost2010PropOp41
 70
     1
102
RTVSPost2010Prop42
 90
       50
102
RTVSPost2010PropOp42
 70
     1
102
RTVSPost2010Prop43
 90
        3
102
RTVSPost2010PropOp43
 70
     1
102
RTVSPost2010Prop44ColorIndex
 90
        5
102
RTVSPost2010Prop44ColorRGB
 90
      255
102
RTVSPost2010PropOp44
 70
     1
102
RTVSPost2010Prop45
280
     0
102
RTVSPost2010PropOp45
 70
     1
102
RTVSPost2010Prop46
 90
       50
102
RTVSPost2010PropOp46
 70
     1
102
RTVSPost2010Prop47
 90
       50
102
RTVSPost2010PropOp47
 70
     1
102
RTVSPost2010Prop48
 90
       50
102
RTVSPost2010PropOp48
 70
     1
102
RTVSPost2010Prop49
280
     0
102
RTVSPost2010PropOp49
 70
     1
102
RTVSPost2010Prop50
 90
       50
102
RTVSPost2010PropOp50
 70
     1
102
RTVSPost2010Prop51ColorIndex
 90
      256
102
RTVSPost2010Prop51ColorRGB
 90
-16777216
102
RTVSPost2010PropOp51
 70
     0
102
RTVSPost2010Prop52
140
1.0
102
RTVSPost2010PropOp52
 70
     0
102
RTVSPost2010Prop53
 90
        2
102
RTVSPost2010PropOp53
 70
     1
102
RTVSPost2010Prop54
  1
strokes_ogs.tif
102
RTVSPost2010PropOp54
 70
     1
102
RTVSPost2010Prop55
280
     0
102
RTVSPost2010PropOp55
 70
     1
102
RTVSPost2010Prop56
140
1.0
102
RTVSPost2010PropOp56
 70
     1
102
RTVSPost2010Prop57
140
1.0
102
RTVSPost2010PropOp57
 70
     1
  0
XRECORD
  5
B50
102
{ACAD_REACTORS
330
B4F
102
}
330
B4F
100
AcDbXrecord
280
     1
102
RTVSPropertyOp0
 70
     0
102
RTVSPropertyOp1
 70
     0
102
RTVSPropertyOp2
 70
     0
102
RTVSPropertyOp3
 70
     0
102
RTVSPropertyOp4
 70
     0
102
RTVSPropertyOp5
 70
     0
102
RTVSPropertyOp6
 70
     0
102
RTVSPropertyOp7
 70
     0
102
RTVSPropertyOp8
 70
     0
102
RTVSPropertyOp9
 70
     0
102
RTVSPropertyOp10
 70
     0
102
RTVSPropertyOp11
 70
     0
102
RTVSPropertyOp12
 70
     0
102
RTVSPropertyOp13
 70
     0
102
RTVSPropertyOp14
 70
     2
102
RTVSPropertyOp15
 70
     0
102
RTVSPropertyOp16
 70
     0
102
RTVSPropertyOp17
 70
     0
102
RTVSPropertyOp18
 70
     0
102
RTVSPropertyOp19
 70
     0
102
RTVSPropertyOp20
 70
     0
102
RTVSPropertyOp21
 70
     0
102
RTVSPropertyOp22
 70
     0
102
RTVSPropertyOp23
 70
     0
102
RTVSPropertyOp24
 70
     0
102
RTVSPropertyOp25
 70
     0
102
RTVSPropertyOp26
 70
     0
102
RTVSPropertyOp27
 70
     0
102
RTVSPropertyOp28
 70
     0
102
RTVSPropertyOp29
 70
     0
102
RTVSPropertyOp30
 70
     0
102
RTVSPropertyOp31
 70
     0
102
RTVSPropertyOp32
 70
     0
102
RTVSPropertyOp33
 70
     0
102
RTVSPropertyOp34
 70
     0
102
RTVSPropertyOp35
 70
     0
102
RTVSPropertyOp36
 70
     0
102
RTVSPropertyOp37
 70
     0
102
RTVSPropertyOp38
 70
     0
102
RTVSPropertyOp39
 70
     0
102
RTVSPropertyOp40
 70
     0
102
RTVSPropertyOp41
 70
     0
102
RTVSPropertyOp42
 70
     0
102
RTVSPropertyOp43
 70
     0
102
RTVSPropertyOp44
 70
     0
102
RTVSPropertyOp45
 70
     0
102
RTVSPropertyOp46
 70
     0
102
RTVSPropertyOp47
 70
     0
102
RTVSPropertyOp48
 70
     0
102
RTVSPropertyOp49
 70
     0
102
RTVSPropertyOp50
 70
     0
102
RTVSPropertyOp51
 70
     0
102
RTVSPropertyOp52
 70
     0
102
RTVSPropertyOp53
 70
     0
102
RTVSPropertyOp54
 70
     0
102
RTVSPropertyOp55
 70
     0
102
RTVSPropertyOp56
 70
     0
102
RTVSPropertyOp57
 70
     0
102
RTVSPost2010Prop28
280
     0
102
RTVSPost2010PropOp28
 70
     0
102
RTVSPost2010Prop29
280
     1
102
RTVSPost2010PropOp29
 70
     0
102
RTVSPost2010Prop30
280
     1
102
RTVSPost2010PropOp30
 70
     0
102
RTVSPost2010Prop31
280
     0
102
RTVSPost2010PropOp31
 70
     0
102
RTVSPost2010Prop32
280
     0
102
RTVSPost2010PropOp32
 70
     0
102
RTVSPost2010Prop33
280
     0
102
RTVSPost2010PropOp33
 70
     0
102
RTVSPost2010Prop34
280
     0
102
RTVSPost2010PropOp34
 70
     0
102
RTVSPost2010Prop35
280
     0
102
RTVSPost2010PropOp35
 70
     0
102
RTVSPost2010Prop36
280
     0
102
RTVSPost2010PropOp36
 70
     0
102
RTVSPost2010Prop37
 90
       50
102
RTVSPost2010PropOp37
 70
     0
102
RTVSPost2010Prop38
140
0.0
102
RTVSPost2010PropOp38
 70
     0
102
RTVSPost2010Prop39
140
1.0
102
RTVSPost2010PropOp39
 70
     0
102
RTVSPost2010Prop40
 90
        0
102
RTVSPost2010PropOp40
 70
     0
102
RTVSPost2010Prop41ColorIndex
 90
       18
102
RTVSPost2010Prop41ColorRGB
 90
        0
102
RTVSPost2010PropOp41
 70
     0
102
RTVSPost2010Prop42
 90
       50
102
RTVSPost2010PropOp42
 70
     0
102
RTVSPost2010Prop43
 90
        3
102
RTVSPost2010PropOp43
 70
     0
102
RTVSPost2010Prop44ColorIndex
 90
        5
102
RTVSPost2010Prop44ColorRGB
 90
      255
102
RTVSPost2010PropOp44
 70
     0
102
RTVSPost2010Prop45
280
     0
102
RTVSPost2010PropOp45
 70
     0
102
RTVSPost2010Prop46
 90
       50
102
RTVSPost2010PropOp46
 70
     0
102
RTVSPost2010Prop47
 90
       50
102
RTVSPost2010PropOp47
 70
     0
102
RTVSPost2010Prop48
 90
       50
102
RTVSPost2010PropOp48
 70
     0
102
RTVSPost2010Prop49
280
     0
102
RTVSPost2010PropOp49
 70
     0
102
RTVSPost2010Prop50
 90
       50
102
RTVSPost2010PropOp50
 70
     0
102
RTVSPost2010Prop51ColorIndex
 90
      256
102
RTVSPost2010Prop51ColorRGB
 90
-16777216
102
RTVSPost2010PropOp51
 70
     0
102
RTVSPost2010Prop52
140
1.0
102
RTVSPost2010PropOp52
 70
     0
102
RTVSPost2010Prop53
 90
        2
102
RTVSPost2010PropOp53
 70
     0
102
RTVSPost2010Prop54
  1
strokes_ogs.tif
102
RTVSPost2010PropOp54
 70
     0
102
RTVSPost2010Prop55
280
     0
102
RTVSPost2010PropOp55
 70
     0
102
RTVSPost2010Prop56
140
1.0
102
RTVSPost2010PropOp56
 70
     0
102
RTVSPost2010Prop57
140
1.0
102
RTVSPost2010PropOp57
 70
     0
  0
XRECORD
  5
B52
102
{ACAD_REACTORS
330
B51
102
}
330
B51
100
AcDbXrecord
280
     1
102
RTVSPropertyOp0
 70
     1
102
RTVSPropertyOp1
 70
     1
102
RTVSPropertyOp2
 70
     1
102
RTVSPropertyOp3
 70
     1
102
RTVSPropertyOp4
 70
     1
102
RTVSPropertyOp5
 70
     1
102
RTVSPropertyOp6
 70
     1
102
RTVSPropertyOp7
 70
     1
102
RTVSPropertyOp8
 70
     1
102
RTVSPropertyOp9
 70
     1
102
RTVSPropertyOp10
 70
     1
102
RTVSPropertyOp11
 70
     1
102
RTVSPropertyOp12
 70
     1
102
RTVSPropertyOp13
 70
     1
102
RTVSPropertyOp14
 70
     1
102
RTVSPropertyOp15
 70
     1
102
RTVSPropertyOp16
 70
     1
102
RTVSPropertyOp17
 70
     1
102
RTVSPropertyOp18
 70
     1
102
RTVSPropertyOp19
 70
     1
102
RTVSPropertyOp20
 70
     1
102
RTVSPropertyOp21
 70
     1
102
RTVSPropertyOp22
 70
     1
102
RTVSPropertyOp23
 70
     1
102
RTVSPropertyOp24
 70
     1
102
RTVSPropertyOp25
 70
     1
102
RTVSPropertyOp26
 70
     1
102
RTVSPropertyOp27
 70
     1
102
RTVSPropertyOp28
 70
     1
102
RTVSPropertyOp29
 70
     1
102
RTVSPropertyOp30
 70
     1
102
RTVSPropertyOp31
 70
     1
102
RTVSPropertyOp32
 70
     1
102
RTVSPropertyOp33
 70
     1
102
RTVSPropertyOp34
 70
     1
102
RTVSPropertyOp35
 70
     1
102
RTVSPropertyOp36
 70
     1
102
RTVSPropertyOp37
 70
     1
102
RTVSPropertyOp38
 70
     1
102
RTVSPropertyOp39
 70
     1
102
RTVSPropertyOp40
 70
     1
102
RTVSPropertyOp41
 70
     1
102
RTVSPropertyOp42
 70
     1
102
RTVSPropertyOp43
 70
     1
102
RTVSPropertyOp44
 70
     1
102
RTVSPropertyOp45
 70
     1
102
RTVSPropertyOp46
 70
     1
102
RTVSPropertyOp47
 70
     1
102
RTVSPropertyOp48
 70
     1
102
RTVSPropertyOp49
 70
     1
102
RTVSPropertyOp50
 70
     1
102
RTVSPropertyOp51
 70
     0
102
RTVSPropertyOp52
 70
     0
102
RTVSPropertyOp53
 70
     1
102
RTVSPropertyOp54
 70
     1
102
RTVSPropertyOp55
 70
     1
102
RTVSPropertyOp56
 70
     1
102
RTVSPropertyOp57
 70
     1
102
RTVSPost2010Prop28
280
     0
102
RTVSPost2010PropOp28
 70
     1
102
RTVSPost2010Prop29
280
     1
102
RTVSPost2010PropOp29
 70
     1
102
RTVSPost2010Prop30
280
     1
102
RTVSPost2010PropOp30
 70
     1
102
RTVSPost2010Prop31
280
     0
102
RTVSPost2010PropOp31
 70
     1
102
RTVSPost2010Prop32
280
     0
102
RTVSPost2010PropOp32
 70
     1
102
RTVSPost2010Prop33
280
     0
102
RTVSPost2010PropOp33
 70
     1
102
RTVSPost2010Prop34
280
     0
102
RTVSPost2010PropOp34
 70
     1
102
RTVSPost2010Prop35
280
     0
102
RTVSPost2010PropOp35
 70
     1
102
RTVSPost2010Prop36
280
     0
102
RTVSPost2010PropOp36
 70
     1
102
RTVSPost2010Prop37
 90
       50
102
RTVSPost2010PropOp37
 70
     1
102
RTVSPost2010Prop38
140
0.0
102
RTVSPost2010PropOp38
 70
     1
102
RTVSPost2010Prop39
140
1.0
102
RTVSPost2010PropOp39
 70
     1
102
RTVSPost2010Prop40
 90
        0
102
RTVSPost2010PropOp40
 70
     1
102
RTVSPost2010Prop41ColorIndex
 90
       18
102
RTVSPost2010Prop41ColorRGB
 90
        0
102
RTVSPost2010PropOp41
 70
     1
102
RTVSPost2010Prop42
 90
       50
102
RTVSPost2010PropOp42
 70
     1
102
RTVSPost2010Prop43
 90
        3
102
RTVSPost2010PropOp43
 70
     1
102
RTVSPost2010Prop44ColorIndex
 90
        5
102
RTVSPost2010Prop44ColorRGB
 90
      255
102
RTVSPost2010PropOp44
 70
     1
102
RTVSPost2010Prop45
280
     0
102
RTVSPost2010PropOp45
 70
     1
102
RTVSPost2010Prop46
 90
       50
102
RTVSPost2010PropOp46
 70
     1
102
RTVSPost2010Prop47
 90
       50
102
RTVSPost2010PropOp47
 70
     1
102
RTVSPost2010Prop48
 90
       50
102
RTVSPost2010PropOp48
 70
     1
102
RTVSPost2010Prop49
280
     0
102
RTVSPost2010PropOp49
 70
     1
102
RTVSPost2010Prop50
 90
       50
102
RTVSPost2010PropOp50
 70
     1
102
RTVSPost2010Prop51ColorIndex
 90
      256
102
RTVSPost2010Prop51ColorRGB
 90
-16777216
102
RTVSPost2010PropOp51
 70
     0
102
RTVSPost2010Prop52
140
1.0
102
RTVSPost2010PropOp52
 70
     0
102
RTVSPost2010Prop53
 90
        2
102
RTVSPost2010PropOp53
 70
     1
102
RTVSPost2010Prop54
  1
strokes_ogs.tif
102
RTVSPost2010PropOp54
 70
     1
102
RTVSPost2010Prop55
280
     0
102
RTVSPost2010PropOp55
 70
     1
102
RTVSPost2010Prop56
140
1.0
102
RTVSPost2010PropOp56
 70
     1
102
RTVSPost2010Prop57
140
1.0
102
RTVSPost2010PropOp57
 70
     1
  0
XRECORD
  5
B54
102
{ACAD_REACTORS
330
B53
102
}
330
B53
100
AcDbXrecord
280
     1
102
RTVSPropertyOp0
 70
     1
102
RTVSPropertyOp1
 70
     1
102
RTVSPropertyOp2
 70
     1
102
RTVSPropertyOp3
 70
     1
102
RTVSPropertyOp4
 70
     1
102
RTVSPropertyOp5
 70
     1
102
RTVSPropertyOp6
 70
     1
102
RTVSPropertyOp7
 70
     1
102
RTVSPropertyOp8
 70
     1
102
RTVSPropertyOp9
 70
     1
102
RTVSPropertyOp10
 70
     1
102
RTVSPropertyOp11
 70
     1
102
RTVSPropertyOp12
 70
     1
102
RTVSPropertyOp13
 70
     1
102
RTVSPropertyOp14
 70
     1
102
RTVSPropertyOp15
 70
     1
102
RTVSPropertyOp16
 70
     1
102
RTVSPropertyOp17
 70
     1
102
RTVSPropertyOp18
 70
     1
102
RTVSPropertyOp19
 70
     1
102
RTVSPropertyOp20
 70
     1
102
RTVSPropertyOp21
 70
     1
102
RTVSPropertyOp22
 70
     1
102
RTVSPropertyOp23
 70
     1
102
RTVSPropertyOp24
 70
     1
102
RTVSPropertyOp25
 70
     1
102
RTVSPropertyOp26
 70
     1
102
RTVSPropertyOp27
 70
     1
102
RTVSPropertyOp28
 70
     1
102
RTVSPropertyOp29
 70
     1
102
RTVSPropertyOp30
 70
     1
102
RTVSPropertyOp31
 70
     1
102
RTVSPropertyOp32
 70
     1
102
RTVSPropertyOp33
 70
     1
102
RTVSPropertyOp34
 70
     1
102
RTVSPropertyOp35
 70
     1
102
RTVSPropertyOp36
 70
     1
102
RTVSPropertyOp37
 70
     1
102
RTVSPropertyOp38
 70
     1
102
RTVSPropertyOp39
 70
     1
102
RTVSPropertyOp40
 70
     1
102
RTVSPropertyOp41
 70
     1
102
RTVSPropertyOp42
 70
     1
102
RTVSPropertyOp43
 70
     1
102
RTVSPropertyOp44
 70
     1
102
RTVSPropertyOp45
 70
     1
102
RTVSPropertyOp46
 70
     1
102
RTVSPropertyOp47
 70
     1
102
RTVSPropertyOp48
 70
     1
102
RTVSPropertyOp49
 70
     1
102
RTVSPropertyOp50
 70
     1
102
RTVSPropertyOp51
 70
     0
102
RTVSPropertyOp52
 70
     0
102
RTVSPropertyOp53
 70
     1
102
RTVSPropertyOp54
 70
     1
102
RTVSPropertyOp55
 70
     1
102
RTVSPropertyOp56
 70
     1
102
RTVSPropertyOp57
 70
     1
102
RTVSPost2010Prop28
280
     0
102
RTVSPost2010PropOp28
 70
     1
102
RTVSPost2010Prop29
280
     1
102
RTVSPost2010PropOp29
 70
     1
102
RTVSPost2010Prop30
280
     1
102
RTVSPost2010PropOp30
 70
     1
102
RTVSPost2010Prop31
280
     0
102
RTVSPost2010PropOp31
 70
     1
102
RTVSPost2010Prop32
280
     0
102
RTVSPost2010PropOp32
 70
     1
102
RTVSPost2010Prop33
280
     0
102
RTVSPost2010PropOp33
 70
     1
102
RTVSPost2010Prop34
280
     0
102
RTVSPost2010PropOp34
 70
     1
102
RTVSPost2010Prop35
280
     0
102
RTVSPost2010PropOp35
 70
     1
102
RTVSPost2010Prop36
280
     0
102
RTVSPost2010PropOp36
 70
     1
102
RTVSPost2010Prop37
 90
       50
102
RTVSPost2010PropOp37
 70
     1
102
RTVSPost2010Prop38
140
0.0
102
RTVSPost2010PropOp38
 70
     1
102
RTVSPost2010Prop39
140
1.0
102
RTVSPost2010PropOp39
 70
     1
102
RTVSPost2010Prop40
 90
        0
102
RTVSPost2010PropOp40
 70
     1
102
RTVSPost2010Prop41ColorIndex
 90
       18
102
RTVSPost2010Prop41ColorRGB
 90
        0
102
RTVSPost2010PropOp41
 70
     1
102
RTVSPost2010Prop42
 90
       50
102
RTVSPost2010PropOp42
 70
     1
102
RTVSPost2010Prop43
 90
        3
102
RTVSPost2010PropOp43
 70
     1
102
RTVSPost2010Prop44ColorIndex
 90
        5
102
RTVSPost2010Prop44ColorRGB
 90
      255
102
RTVSPost2010PropOp44
 70
     1
102
RTVSPost2010Prop45
280
     0
102
RTVSPost2010PropOp45
 70
     1
102
RTVSPost2010Prop46
 90
       50
102
RTVSPost2010PropOp46
 70
     1
102
RTVSPost2010Prop47
 90
       50
102
RTVSPost2010PropOp47
 70
     1
102
RTVSPost2010Prop48
 90
       50
102
RTVSPost2010PropOp48
 70
     1
102
RTVSPost2010Prop49
280
     0
102
RTVSPost2010PropOp49
 70
     1
102
RTVSPost2010Prop50
 90
       50
102
RTVSPost2010PropOp50
 70
     1
102
RTVSPost2010Prop51ColorIndex
 90
      256
102
RTVSPost2010Prop51ColorRGB
 90
-16777216
102
RTVSPost2010PropOp51
 70
     0
102
RTVSPost2010Prop52
140
1.0
102
RTVSPost2010PropOp52
 70
     0
102
RTVSPost2010Prop53
 90
        2
102
RTVSPost2010PropOp53
 70
     1
102
RTVSPost2010Prop54
  1
strokes_ogs.tif
102
RTVSPost2010PropOp54
 70
     1
102
RTVSPost2010Prop55
280
     0
102
RTVSPost2010PropOp55
 70
     1
102
RTVSPost2010Prop56
140
1.0
102
RTVSPost2010PropOp56
 70
     1
102
RTVSPost2010Prop57
140
1.0
102
RTVSPost2010PropOp57
 70
     1
  0
XRECORD
  5
B56
102
{ACAD_REACTORS
330
B55
102
}
330
B55
100
AcDbXrecord
280
     1
102
RTVSPropertyOp0
 70
     1
102
RTVSPropertyOp1
 70
     1
102
RTVSPropertyOp2
 70
     1
102
RTVSPropertyOp3
 70
     1
102
RTVSPropertyOp4
 70
     1
102
RTVSPropertyOp5
 70
     1
102
RTVSPropertyOp6
 70
     1
102
RTVSPropertyOp7
 70
     1
102
RTVSPropertyOp8
 70
     1
102
RTVSPropertyOp9
 70
     1
102
RTVSPropertyOp10
 70
     1
102
RTVSPropertyOp11
 70
     1
102
RTVSPropertyOp12
 70
     1
102
RTVSPropertyOp13
 70
     1
102
RTVSPropertyOp14
 70
     1
102
RTVSPropertyOp15
 70
     1
102
RTVSPropertyOp16
 70
     1
102
RTVSPropertyOp17
 70
     1
102
RTVSPropertyOp18
 70
     1
102
RTVSPropertyOp19
 70
     1
102
RTVSPropertyOp20
 70
     1
102
RTVSPropertyOp21
 70
     1
102
RTVSPropertyOp22
 70
     1
102
RTVSPropertyOp23
 70
     1
102
RTVSPropertyOp24
 70
     1
102
RTVSPropertyOp25
 70
     1
102
RTVSPropertyOp26
 70
     1
102
RTVSPropertyOp27
 70
     1
102
RTVSPropertyOp28
 70
     1
102
RTVSPropertyOp29
 70
     1
102
RTVSPropertyOp30
 70
     1
102
RTVSPropertyOp31
 70
     1
102
RTVSPropertyOp32
 70
     1
102
RTVSPropertyOp33
 70
     1
102
RTVSPropertyOp34
 70
     1
102
RTVSPropertyOp35
 70
     1
102
RTVSPropertyOp36
 70
     1
102
RTVSPropertyOp37
 70
     1
102
RTVSPropertyOp38
 70
     1
102
RTVSPropertyOp39
 70
     1
102
RTVSPropertyOp40
 70
     1
102
RTVSPropertyOp41
 70
     1
102
RTVSPropertyOp42
 70
     1
102
RTVSPropertyOp43
 70
     1
102
RTVSPropertyOp44
 70
     1
102
RTVSPropertyOp45
 70
     1
102
RTVSPropertyOp46
 70
     1
102
RTVSPropertyOp47
 70
     1
102
RTVSPropertyOp48
 70
     1
102
RTVSPropertyOp49
 70
     1
102
RTVSPropertyOp50
 70
     1
102
RTVSPropertyOp51
 70
     0
102
RTVSPropertyOp52
 70
     0
102
RTVSPropertyOp53
 70
     1
102
RTVSPropertyOp54
 70
     1
102
RTVSPropertyOp55
 70
     1
102
RTVSPropertyOp56
 70
     1
102
RTVSPropertyOp57
 70
     1
102
RTVSPost2010Prop28
280
     0
102
RTVSPost2010PropOp28
 70
     1
102
RTVSPost2010Prop29
280
     1
102
RTVSPost2010PropOp29
 70
     1
102
RTVSPost2010Prop30
280
     1
102
RTVSPost2010PropOp30
 70
     1
102
RTVSPost2010Prop31
280
     0
102
RTVSPost2010PropOp31
 70
     1
102
RTVSPost2010Prop32
280
     0
102
RTVSPost2010PropOp32
 70
     1
102
RTVSPost2010Prop33
280
     0
102
RTVSPost2010PropOp33
 70
     1
102
RTVSPost2010Prop34
280
     0
102
RTVSPost2010PropOp34
 70
     1
102
RTVSPost2010Prop35
280
     0
102
RTVSPost2010PropOp35
 70
     1
102
RTVSPost2010Prop36
280
     0
102
RTVSPost2010PropOp36
 70
     1
102
RTVSPost2010Prop37
 90
       50
102
RTVSPost2010PropOp37
 70
     1
102
RTVSPost2010Prop38
140
0.0
102
RTVSPost2010PropOp38
 70
     1
102
RTVSPost2010Prop39
140
1.0
102
RTVSPost2010PropOp39
 70
     1
102
RTVSPost2010Prop40
 90
        0
102
RTVSPost2010PropOp40
 70
     1
102
RTVSPost2010Prop41ColorIndex
 90
       18
102
RTVSPost2010Prop41ColorRGB
 90
        0
102
RTVSPost2010PropOp41
 70
     1
102
RTVSPost2010Prop42
 90
       50
102
RTVSPost2010PropOp42
 70
     1
102
RTVSPost2010Prop43
 90
        3
102
RTVSPost2010PropOp43
 70
     1
102
RTVSPost2010Prop44ColorIndex
 90
        5
102
RTVSPost2010Prop44ColorRGB
 90
      255
102
RTVSPost2010PropOp44
 70
     1
102
RTVSPost2010Prop45
280
     0
102
RTVSPost2010PropOp45
 70
     1
102
RTVSPost2010Prop46
 90
       50
102
RTVSPost2010PropOp46
 70
     1
102
RTVSPost2010Prop47
 90
       50
102
RTVSPost2010PropOp47
 70
     1
102
RTVSPost2010Prop48
 90
       50
102
RTVSPost2010PropOp48
 70
     1
102
RTVSPost2010Prop49
280
     0
102
RTVSPost2010PropOp49
 70
     1
102
RTVSPost2010Prop50
 90
       50
102
RTVSPost2010PropOp50
 70
     1
102
RTVSPost2010Prop51ColorIndex
 90
      256
102
RTVSPost2010Prop51ColorRGB
 90
-16777216
102
RTVSPost2010PropOp51
 70
     0
102
RTVSPost2010Prop52
140
1.0
102
RTVSPost2010PropOp52
 70
     0
102
RTVSPost2010Prop53
 90
        2
102
RTVSPost2010PropOp53
 70
     1
102
RTVSPost2010Prop54
  1
strokes_ogs.tif
102
RTVSPost2010PropOp54
 70
     1
102
RTVSPost2010Prop55
280
     0
102
RTVSPost2010PropOp55
 70
     1
102
RTVSPost2010Prop56
140
1.0
102
RTVSPost2010PropOp56
 70
     1
102
RTVSPost2010Prop57
140
1.0
102
RTVSPost2010PropOp57
 70
     1
  0
XRECORD
  5
B58
102
{ACAD_REACTORS
330
B57
102
}
330
B57
100
AcDbXrecord
280
     1
102
RTVSPropertyOp0
 70
     1
102
RTVSPropertyOp1
 70
     1
102
RTVSPropertyOp2
 70
     1
102
RTVSPropertyOp3
 70
     1
102
RTVSPropertyOp4
 70
     1
102
RTVSPropertyOp5
 70
     1
102
RTVSPropertyOp6
 70
     1
102
RTVSPropertyOp7
 70
     1
102
RTVSPropertyOp8
 70
     1
102
RTVSPropertyOp9
 70
     1
102
RTVSPropertyOp10
 70
     1
102
RTVSPropertyOp11
 70
     1
102
RTVSPropertyOp12
 70
     1
102
RTVSPropertyOp13
 70
     1
102
RTVSPropertyOp14
 70
     1
102
RTVSPropertyOp15
 70
     1
102
RTVSPropertyOp16
 70
     1
102
RTVSPropertyOp17
 70
     1
102
RTVSPropertyOp18
 70
     1
102
RTVSPropertyOp19
 70
     1
102
RTVSPropertyOp20
 70
     1
102
RTVSPropertyOp21
 70
     1
102
RTVSPropertyOp22
 70
     1
102
RTVSPropertyOp23
 70
     1
102
RTVSPropertyOp24
 70
     1
102
RTVSPropertyOp25
 70
     1
102
RTVSPropertyOp26
 70
     1
102
RTVSPropertyOp27
 70
     1
102
RTVSPropertyOp28
 70
     1
102
RTVSPropertyOp29
 70
     1
102
RTVSPropertyOp30
 70
     1
102
RTVSPropertyOp31
 70
     1
102
RTVSPropertyOp32
 70
     1
102
RTVSPropertyOp33
 70
     1
102
RTVSPropertyOp34
 70
     1
102
RTVSPropertyOp35
 70
     1
102
RTVSPropertyOp36
 70
     1
102
RTVSPropertyOp37
 70
     1
102
RTVSPropertyOp38
 70
     1
102
RTVSPropertyOp39
 70
     1
102
RTVSPropertyOp40
 70
     1
102
RTVSPropertyOp41
 70
     1
102
RTVSPropertyOp42
 70
     1
102
RTVSPropertyOp43
 70
     1
102
RTVSPropertyOp44
 70
     1
102
RTVSPropertyOp45
 70
     1
102
RTVSPropertyOp46
 70
     1
102
RTVSPropertyOp47
 70
     1
102
RTVSPropertyOp48
 70
     1
102
RTVSPropertyOp49
 70
     1
102
RTVSPropertyOp50
 70
     1
102
RTVSPropertyOp51
 70
     0
102
RTVSPropertyOp52
 70
     0
102
RTVSPropertyOp53
 70
     1
102
RTVSPropertyOp54
 70
     1
102
RTVSPropertyOp55
 70
     1
102
RTVSPropertyOp56
 70
     1
102
RTVSPropertyOp57
 70
     1
102
RTVSPost2010Prop28
280
     0
102
RTVSPost2010PropOp28
 70
     1
102
RTVSPost2010Prop29
280
     1
102
RTVSPost2010PropOp29
 70
     1
102
RTVSPost2010Prop30
280
     1
102
RTVSPost2010PropOp30
 70
     1
102
RTVSPost2010Prop31
280
     0
102
RTVSPost2010PropOp31
 70
     1
102
RTVSPost2010Prop32
280
     0
102
RTVSPost2010PropOp32
 70
     1
102
RTVSPost2010Prop33
280
     0
102
RTVSPost2010PropOp33
 70
     1
102
RTVSPost2010Prop34
280
     0
102
RTVSPost2010PropOp34
 70
     1
102
RTVSPost2010Prop35
280
     0
102
RTVSPost2010PropOp35
 70
     1
102
RTVSPost2010Prop36
280
     0
102
RTVSPost2010PropOp36
 70
     1
102
RTVSPost2010Prop37
 90
       50
102
RTVSPost2010PropOp37
 70
     1
102
RTVSPost2010Prop38
140
0.0
102
RTVSPost2010PropOp38
 70
     1
102
RTVSPost2010Prop39
140
1.0
102
RTVSPost2010PropOp39
 70
     1
102
RTVSPost2010Prop40
 90
        0
102
RTVSPost2010PropOp40
 70
     1
102
RTVSPost2010Prop41ColorIndex
 90
       18
102
RTVSPost2010Prop41ColorRGB
 90
        0
102
RTVSPost2010PropOp41
 70
     1
102
RTVSPost2010Prop42
 90
       50
102
RTVSPost2010PropOp42
 70
     1
102
RTVSPost2010Prop43
 90
        3
102
RTVSPost2010PropOp43
 70
     1
102
RTVSPost2010Prop44ColorIndex
 90
        5
102
RTVSPost2010Prop44ColorRGB
 90
      255
102
RTVSPost2010PropOp44
 70
     1
102
RTVSPost2010Prop45
280
     0
102
RTVSPost2010PropOp45
 70
     1
102
RTVSPost2010Prop46
 90
       50
102
RTVSPost2010PropOp46
 70
     1
102
RTVSPost2010Prop47
 90
       50
102
RTVSPost2010PropOp47
 70
     1
102
RTVSPost2010Prop48
 90
       50
102
RTVSPost2010PropOp48
 70
     1
102
RTVSPost2010Prop49
280
     0
102
RTVSPost2010PropOp49
 70
     1
102
RTVSPost2010Prop50
 90
       50
102
RTVSPost2010PropOp50
 70
     1
102
RTVSPost2010Prop51ColorIndex
 90
      256
102
RTVSPost2010Prop51ColorRGB
 90
-16777216
102
RTVSPost2010PropOp51
 70
     0
102
RTVSPost2010Prop52
140
1.0
102
RTVSPost2010PropOp52
 70
     0
102
RTVSPost2010Prop53
 90
        2
102
RTVSPost2010PropOp53
 70
     1
102
RTVSPost2010Prop54
  1
strokes_ogs.tif
102
RTVSPost2010PropOp54
 70
     1
102
RTVSPost2010Prop55
280
     0
102
RTVSPost2010PropOp55
 70
     1
102
RTVSPost2010Prop56
140
1.0
102
RTVSPost2010PropOp56
 70
     1
102
RTVSPost2010Prop57
140
1.0
102
RTVSPost2010PropOp57
 70
     1
  0
XRECORD
  5
B5A
102
{ACAD_REACTORS
330
B59
102
}
330
B59
100
AcDbXrecord
280
     1
102
RTVSPropertyOp0
 70
     1
102
RTVSPropertyOp1
 70
     1
102
RTVSPropertyOp2
 70
     1
102
RTVSPropertyOp3
 70
     1
102
RTVSPropertyOp4
 70
     1
102
RTVSPropertyOp5
 70
     1
102
RTVSPropertyOp6
 70
     1
102
RTVSPropertyOp7
 70
     1
102
RTVSPropertyOp8
 70
     1
102
RTVSPropertyOp9
 70
     1
102
RTVSPropertyOp10
 70
     1
102
RTVSPropertyOp11
 70
     1
102
RTVSPropertyOp12
 70
     1
102
RTVSPropertyOp13
 70
     1
102
RTVSPropertyOp14
 70
     1
102
RTVSPropertyOp15
 70
     1
102
RTVSPropertyOp16
 70
     1
102
RTVSPropertyOp17
 70
     1
102
RTVSPropertyOp18
 70
     1
102
RTVSPropertyOp19
 70
     1
102
RTVSPropertyOp20
 70
     1
102
RTVSPropertyOp21
 70
     1
102
RTVSPropertyOp22
 70
     1
102
RTVSPropertyOp23
 70
     1
102
RTVSPropertyOp24
 70
     1
102
RTVSPropertyOp25
 70
     1
102
RTVSPropertyOp26
 70
     1
102
RTVSPropertyOp27
 70
     1
102
RTVSPropertyOp28
 70
     1
102
RTVSPropertyOp29
 70
     1
102
RTVSPropertyOp30
 70
     1
102
RTVSPropertyOp31
 70
     1
102
RTVSPropertyOp32
 70
     1
102
RTVSPropertyOp33
 70
     1
102
RTVSPropertyOp34
 70
     1
102
RTVSPropertyOp35
 70
     1
102
RTVSPropertyOp36
 70
     1
102
RTVSPropertyOp37
 70
     1
102
RTVSPropertyOp38
 70
     1
102
RTVSPropertyOp39
 70
     1
102
RTVSPropertyOp40
 70
     1
102
RTVSPropertyOp41
 70
     1
102
RTVSPropertyOp42
 70
     1
102
RTVSPropertyOp43
 70
     1
102
RTVSPropertyOp44
 70
     1
102
RTVSPropertyOp45
 70
     1
102
RTVSPropertyOp46
 70
     1
102
RTVSPropertyOp47
 70
     1
102
RTVSPropertyOp48
 70
     1
102
RTVSPropertyOp49
 70
     1
102
RTVSPropertyOp50
 70
     1
102
RTVSPropertyOp51
 70
     0
102
RTVSPropertyOp52
 70
     0
102
RTVSPropertyOp53
 70
     1
102
RTVSPropertyOp54
 70
     1
102
RTVSPropertyOp55
 70
     1
102
RTVSPropertyOp56
 70
     1
102
RTVSPropertyOp57
 70
     1
102
RTVSPost2010Prop28
280
     0
102
RTVSPost2010PropOp28
 70
     1
102
RTVSPost2010Prop29
280
     1
102
RTVSPost2010PropOp29
 70
     1
102
RTVSPost2010Prop30
280
     1
102
RTVSPost2010PropOp30
 70
     1
102
RTVSPost2010Prop31
280
     0
102
RTVSPost2010PropOp31
 70
     1
102
RTVSPost2010Prop32
280
     0
102
RTVSPost2010PropOp32
 70
     1
102
RTVSPost2010Prop33
280
     0
102
RTVSPost2010PropOp33
 70
     1
102
RTVSPost2010Prop34
280
     0
102
RTVSPost2010PropOp34
 70
     1
102
RTVSPost2010Prop35
280
     0
102
RTVSPost2010PropOp35
 70
     1
102
RTVSPost2010Prop36
280
     0
102
RTVSPost2010PropOp36
 70
     1
102
RTVSPost2010Prop37
 90
       50
102
RTVSPost2010PropOp37
 70
     1
102
RTVSPost2010Prop38
140
0.0
102
RTVSPost2010PropOp38
 70
     1
102
RTVSPost2010Prop39
140
1.0
102
RTVSPost2010PropOp39
 70
     1
102
RTVSPost2010Prop40
 90
        0
102
RTVSPost2010PropOp40
 70
     1
102
RTVSPost2010Prop41ColorIndex
 90
       18
102
RTVSPost2010Prop41ColorRGB
 90
        0
102
RTVSPost2010PropOp41
 70
     1
102
RTVSPost2010Prop42
 90
       50
102
RTVSPost2010PropOp42
 70
     1
102
RTVSPost2010Prop43
 90
        3
102
RTVSPost2010PropOp43
 70
     1
102
RTVSPost2010Prop44ColorIndex
 90
        5
102
RTVSPost2010Prop44ColorRGB
 90
      255
102
RTVSPost2010PropOp44
 70
     1
102
RTVSPost2010Prop45
280
     0
102
RTVSPost2010PropOp45
 70
     1
102
RTVSPost2010Prop46
 90
       50
102
RTVSPost2010PropOp46
 70
     1
102
RTVSPost2010Prop47
 90
       50
102
RTVSPost2010PropOp47
 70
     1
102
RTVSPost2010Prop48
 90
       50
102
RTVSPost2010PropOp48
 70
     1
102
RTVSPost2010Prop49
280
     0
102
RTVSPost2010PropOp49
 70
     1
102
RTVSPost2010Prop50
 90
       50
102
RTVSPost2010PropOp50
 70
     1
102
RTVSPost2010Prop51ColorIndex
 90
      256
102
RTVSPost2010Prop51ColorRGB
 90
-16777216
102
RTVSPost2010PropOp51
 70
     0
102
RTVSPost2010Prop52
140
1.0
102
RTVSPost2010PropOp52
 70
     0
102
RTVSPost2010Prop53
 90
        2
102
RTVSPost2010PropOp53
 70
     1
102
RTVSPost2010Prop54
  1
strokes_ogs.tif
102
RTVSPost2010PropOp54
 70
     1
102
RTVSPost2010Prop55
280
     0
102
RTVSPost2010PropOp55
 70
     1
102
RTVSPost2010Prop56
140
1.0
102
RTVSPost2010PropOp56
 70
     1
102
RTVSPost2010Prop57
140
1.0
102
RTVSPost2010PropOp57
 70
     1
  0
XRECORD
  5
B5C
102
{ACAD_REACTORS
330
B5B
102
}
330
B5B
100
AcDbXrecord
280
     1
102
RTVSPropertyOp0
 70
     1
102
RTVSPropertyOp1
 70
     1
102
RTVSPropertyOp2
 70
     1
102
RTVSPropertyOp3
 70
     1
102
RTVSPropertyOp4
 70
     1
102
RTVSPropertyOp5
 70
     1
102
RTVSPropertyOp6
 70
     1
102
RTVSPropertyOp7
 70
     1
102
RTVSPropertyOp8
 70
     1
102
RTVSPropertyOp9
 70
     1
102
RTVSPropertyOp10
 70
     1
102
RTVSPropertyOp11
 70
     1
102
RTVSPropertyOp12
 70
     1
102
RTVSPropertyOp13
 70
     1
102
RTVSPropertyOp14
 70
     1
102
RTVSPropertyOp15
 70
     1
102
RTVSPropertyOp16
 70
     1
102
RTVSPropertyOp17
 70
     1
102
RTVSPropertyOp18
 70
     1
102
RTVSPropertyOp19
 70
     1
102
RTVSPropertyOp20
 70
     1
102
RTVSPropertyOp21
 70
     1
102
RTVSPropertyOp22
 70
     1
102
RTVSPropertyOp23
 70
     1
102
RTVSPropertyOp24
 70
     1
102
RTVSPropertyOp25
 70
     1
102
RTVSPropertyOp26
 70
     1
102
RTVSPropertyOp27
 70
     1
102
RTVSPropertyOp28
 70
     1
102
RTVSPropertyOp29
 70
     1
102
RTVSPropertyOp30
 70
     1
102
RTVSPropertyOp31
 70
     1
102
RTVSPropertyOp32
 70
     1
102
RTVSPropertyOp33
 70
     1
102
RTVSPropertyOp34
 70
     1
102
RTVSPropertyOp35
 70
     1
102
RTVSPropertyOp36
 70
     1
102
RTVSPropertyOp37
 70
     1
102
RTVSPropertyOp38
 70
     1
102
RTVSPropertyOp39
 70
     1
102
RTVSPropertyOp40
 70
     1
102
RTVSPropertyOp41
 70
     1
102
RTVSPropertyOp42
 70
     1
102
RTVSPropertyOp43
 70
     1
102
RTVSPropertyOp44
 70
     1
102
RTVSPropertyOp45
 70
     1
102
RTVSPropertyOp46
 70
     1
102
RTVSPropertyOp47
 70
     1
102
RTVSPropertyOp48
 70
     1
102
RTVSPropertyOp49
 70
     1
102
RTVSPropertyOp50
 70
     1
102
RTVSPropertyOp51
 70
     0
102
RTVSPropertyOp52
 70
     0
102
RTVSPropertyOp53
 70
     1
102
RTVSPropertyOp54
 70
     1
102
RTVSPropertyOp55
 70
     1
102
RTVSPropertyOp56
 70
     1
102
RTVSPropertyOp57
 70
     1
102
RTVSPost2010Prop28
280
     0
102
RTVSPost2010PropOp28
 70
     1
102
RTVSPost2010Prop29
280
     1
102
RTVSPost2010PropOp29
 70
     1
102
RTVSPost2010Prop30
280
     1
102
RTVSPost2010PropOp30
 70
     1
102
RTVSPost2010Prop31
280
     0
102
RTVSPost2010PropOp31
 70
     1
102
RTVSPost2010Prop32
280
     0
102
RTVSPost2010PropOp32
 70
     1
102
RTVSPost2010Prop33
280
     0
102
RTVSPost2010PropOp33
 70
     1
102
RTVSPost2010Prop34
280
     0
102
RTVSPost2010PropOp34
 70
     1
102
RTVSPost2010Prop35
280
     0
102
RTVSPost2010PropOp35
 70
     1
102
RTVSPost2010Prop36
280
     0
102
RTVSPost2010PropOp36
 70
     1
102
RTVSPost2010Prop37
 90
       50
102
RTVSPost2010PropOp37
 70
     1
102
RTVSPost2010Prop38
140
0.0
102
RTVSPost2010PropOp38
 70
     1
102
RTVSPost2010Prop39
140
1.0
102
RTVSPost2010PropOp39
 70
     1
102
RTVSPost2010Prop40
 90
        0
102
RTVSPost2010PropOp40
 70
     1
102
RTVSPost2010Prop41ColorIndex
 90
       18
102
RTVSPost2010Prop41ColorRGB
 90
        0
102
RTVSPost2010PropOp41
 70
     1
102
RTVSPost2010Prop42
 90
       50
102
RTVSPost2010PropOp42
 70
     1
102
RTVSPost2010Prop43
 90
        3
102
RTVSPost2010PropOp43
 70
     1
102
RTVSPost2010Prop44ColorIndex
 90
        5
102
RTVSPost2010Prop44ColorRGB
 90
      255
102
RTVSPost2010PropOp44
 70
     1
102
RTVSPost2010Prop45
280
     0
102
RTVSPost2010PropOp45
 70
     1
102
RTVSPost2010Prop46
 90
       50
102
RTVSPost2010PropOp46
 70
     1
102
RTVSPost2010Prop47
 90
       50
102
RTVSPost2010PropOp47
 70
     1
102
RTVSPost2010Prop48
 90
       50
102
RTVSPost2010PropOp48
 70
     1
102
RTVSPost2010Prop49
280
     0
102
RTVSPost2010PropOp49
 70
     1
102
RTVSPost2010Prop50
 90
       50
102
RTVSPost2010PropOp50
 70
     1
102
RTVSPost2010Prop51ColorIndex
 90
      256
102
RTVSPost2010Prop51ColorRGB
 90
-16777216
102
RTVSPost2010PropOp51
 70
     0
102
RTVSPost2010Prop52
140
1.0
102
RTVSPost2010PropOp52
 70
     0
102
RTVSPost2010Prop53
 90
        2
102
RTVSPost2010PropOp53
 70
     1
102
RTVSPost2010Prop54
  1
strokes_ogs.tif
102
RTVSPost2010PropOp54
 70
     1
102
RTVSPost2010Prop55
280
     0
102
RTVSPost2010PropOp55
 70
     1
102
RTVSPost2010Prop56
140
1.0
102
RTVSPost2010PropOp56
 70
     1
102
RTVSPost2010Prop57
140
1.0
102
RTVSPost2010PropOp57
 70
     1
  0
XRECORD
  5
B5E
102
{ACAD_REACTORS
330
B5D
102
}
330
B5D
100
AcDbXrecord
280
     1
102
RTVSPropertyOp0
 70
     1
102
RTVSPropertyOp1
 70
     1
102
RTVSPropertyOp2
 70
     1
102
RTVSPropertyOp3
 70
     1
102
RTVSPropertyOp4
 70
     1
102
RTVSPropertyOp5
 70
     1
102
RTVSPropertyOp6
 70
     1
102
RTVSPropertyOp7
 70
     1
102
RTVSPropertyOp8
 70
     1
102
RTVSPropertyOp9
 70
     1
102
RTVSPropertyOp10
 70
     1
102
RTVSPropertyOp11
 70
     1
102
RTVSPropertyOp12
 70
     1
102
RTVSPropertyOp13
 70
     1
102
RTVSPropertyOp14
 70
     1
102
RTVSPropertyOp15
 70
     1
102
RTVSPropertyOp16
 70
     1
102
RTVSPropertyOp17
 70
     1
102
RTVSPropertyOp18
 70
     1
102
RTVSPropertyOp19
 70
     1
102
RTVSPropertyOp20
 70
     1
102
RTVSPropertyOp21
 70
     1
102
RTVSPropertyOp22
 70
     1
102
RTVSPropertyOp23
 70
     1
102
RTVSPropertyOp24
 70
     1
102
RTVSPropertyOp25
 70
     1
102
RTVSPropertyOp26
 70
     1
102
RTVSPropertyOp27
 70
     1
102
RTVSPropertyOp28
 70
     1
102
RTVSPropertyOp29
 70
     1
102
RTVSPropertyOp30
 70
     1
102
RTVSPropertyOp31
 70
     1
102
RTVSPropertyOp32
 70
     1
102
RTVSPropertyOp33
 70
     1
102
RTVSPropertyOp34
 70
     1
102
RTVSPropertyOp35
 70
     1
102
RTVSPropertyOp36
 70
     1
102
RTVSPropertyOp37
 70
     1
102
RTVSPropertyOp38
 70
     1
102
RTVSPropertyOp39
 70
     1
102
RTVSPropertyOp40
 70
     1
102
RTVSPropertyOp41
 70
     1
102
RTVSPropertyOp42
 70
     1
102
RTVSPropertyOp43
 70
     1
102
RTVSPropertyOp44
 70
     1
102
RTVSPropertyOp45
 70
     1
102
RTVSPropertyOp46
 70
     1
102
RTVSPropertyOp47
 70
     1
102
RTVSPropertyOp48
 70
     1
102
RTVSPropertyOp49
 70
     1
102
RTVSPropertyOp50
 70
     1
102
RTVSPropertyOp51
 70
     0
102
RTVSPropertyOp52
 70
     0
102
RTVSPropertyOp53
 70
     1
102
RTVSPropertyOp54
 70
     1
102
RTVSPropertyOp55
 70
     1
102
RTVSPropertyOp56
 70
     1
102
RTVSPropertyOp57
 70
     1
102
RTVSPost2010Prop28
280
     0
102
RTVSPost2010PropOp28
 70
     1
102
RTVSPost2010Prop29
280
     1
102
RTVSPost2010PropOp29
 70
     1
102
RTVSPost2010Prop30
280
     1
102
RTVSPost2010PropOp30
 70
     1
102
RTVSPost2010Prop31
280
     0
102
RTVSPost2010PropOp31
 70
     1
102
RTVSPost2010Prop32
280
     0
102
RTVSPost2010PropOp32
 70
     1
102
RTVSPost2010Prop33
280
     0
102
RTVSPost2010PropOp33
 70
     1
102
RTVSPost2010Prop34
280
     0
102
RTVSPost2010PropOp34
 70
     1
102
RTVSPost2010Prop35
280
     0
102
RTVSPost2010PropOp35
 70
     1
102
RTVSPost2010Prop36
280
     0
102
RTVSPost2010PropOp36
 70
     1
102
RTVSPost2010Prop37
 90
       50
102
RTVSPost2010PropOp37
 70
     1
102
RTVSPost2010Prop38
140
0.0
102
RTVSPost2010PropOp38
 70
     1
102
RTVSPost2010Prop39
140
1.0
102
RTVSPost2010PropOp39
 70
     1
102
RTVSPost2010Prop40
 90
        0
102
RTVSPost2010PropOp40
 70
     1
102
RTVSPost2010Prop41ColorIndex
 90
       18
102
RTVSPost2010Prop41ColorRGB
 90
        0
102
RTVSPost2010PropOp41
 70
     1
102
RTVSPost2010Prop42
 90
       50
102
RTVSPost2010PropOp42
 70
     1
102
RTVSPost2010Prop43
 90
        3
102
RTVSPost2010PropOp43
 70
     1
102
RTVSPost2010Prop44ColorIndex
 90
        5
102
RTVSPost2010Prop44ColorRGB
 90
      255
102
RTVSPost2010PropOp44
 70
     1
102
RTVSPost2010Prop45
280
     0
102
RTVSPost2010PropOp45
 70
     1
102
RTVSPost2010Prop46
 90
       50
102
RTVSPost2010PropOp46
 70
     1
102
RTVSPost2010Prop47
 90
       50
102
RTVSPost2010PropOp47
 70
     1
102
RTVSPost2010Prop48
 90
       50
102
RTVSPost2010PropOp48
 70
     1
102
RTVSPost2010Prop49
280
     0
102
RTVSPost2010PropOp49
 70
     1
102
RTVSPost2010Prop50
 90
       50
102
RTVSPost2010PropOp50
 70
     1
102
RTVSPost2010Prop51ColorIndex
 90
      256
102
RTVSPost2010Prop51ColorRGB
 90
-16777216
102
RTVSPost2010PropOp51
 70
     0
102
RTVSPost2010Prop52
140
1.0
102
RTVSPost2010PropOp52
 70
     0
102
RTVSPost2010Prop53
 90
        2
102
RTVSPost2010PropOp53
 70
     1
102
RTVSPost2010Prop54
  1
strokes_ogs.tif
102
RTVSPost2010PropOp54
 70
     1
102
RTVSPost2010Prop55
280
     0
102
RTVSPost2010PropOp55
 70
     1
102
RTVSPost2010Prop56
140
1.0
102
RTVSPost2010PropOp56
 70
     1
102
RTVSPost2010Prop57
140
1.0
102
RTVSPost2010PropOp57
 70
     1
  0
XRECORD
  5
B60
102
{ACAD_REACTORS
330
B5F
102
}
330
B5F
100
AcDbXrecord
280
     1
102
RTVSPropertyOp0
 70
     1
102
RTVSPropertyOp1
 70
     1
102
RTVSPropertyOp2
 70
     1
102
RTVSPropertyOp3
 70
     1
102
RTVSPropertyOp4
 70
     1
102
RTVSPropertyOp5
 70
     1
102
RTVSPropertyOp6
 70
     1
102
RTVSPropertyOp7
 70
     1
102
RTVSPropertyOp8
 70
     1
102
RTVSPropertyOp9
 70
     1
102
RTVSPropertyOp10
 70
     1
102
RTVSPropertyOp11
 70
     1
102
RTVSPropertyOp12
 70
     1
102
RTVSPropertyOp13
 70
     1
102
RTVSPropertyOp14
 70
     1
102
RTVSPropertyOp15
 70
     1
102
RTVSPropertyOp16
 70
     1
102
RTVSPropertyOp17
 70
     1
102
RTVSPropertyOp18
 70
     1
102
RTVSPropertyOp19
 70
     1
102
RTVSPropertyOp20
 70
     1
102
RTVSPropertyOp21
 70
     1
102
RTVSPropertyOp22
 70
     1
102
RTVSPropertyOp23
 70
     1
102
RTVSPropertyOp24
 70
     1
102
RTVSPropertyOp25
 70
     1
102
RTVSPropertyOp26
 70
     1
102
RTVSPropertyOp27
 70
     1
102
RTVSPropertyOp28
 70
     1
102
RTVSPropertyOp29
 70
     1
102
RTVSPropertyOp30
 70
     1
102
RTVSPropertyOp31
 70
     1
102
RTVSPropertyOp32
 70
     1
102
RTVSPropertyOp33
 70
     1
102
RTVSPropertyOp34
 70
     1
102
RTVSPropertyOp35
 70
     1
102
RTVSPropertyOp36
 70
     1
102
RTVSPropertyOp37
 70
     1
102
RTVSPropertyOp38
 70
     1
102
RTVSPropertyOp39
 70
     1
102
RTVSPropertyOp40
 70
     1
102
RTVSPropertyOp41
 70
     1
102
RTVSPropertyOp42
 70
     1
102
RTVSPropertyOp43
 70
     1
102
RTVSPropertyOp44
 70
     1
102
RTVSPropertyOp45
 70
     1
102
RTVSPropertyOp46
 70
     1
102
RTVSPropertyOp47
 70
     1
102
RTVSPropertyOp48
 70
     1
102
RTVSPropertyOp49
 70
     1
102
RTVSPropertyOp50
 70
     1
102
RTVSPropertyOp51
 70
     0
102
RTVSPropertyOp52
 70
     0
102
RTVSPropertyOp53
 70
     1
102
RTVSPropertyOp54
 70
     1
102
RTVSPropertyOp55
 70
     1
102
RTVSPropertyOp56
 70
     1
102
RTVSPropertyOp57
 70
     1
102
RTVSPost2010Prop28
280
     0
102
RTVSPost2010PropOp28
 70
     1
102
RTVSPost2010Prop29
280
     1
102
RTVSPost2010PropOp29
 70
     1
102
RTVSPost2010Prop30
280
     1
102
RTVSPost2010PropOp30
 70
     1
102
RTVSPost2010Prop31
280
     0
102
RTVSPost2010PropOp31
 70
     1
102
RTVSPost2010Prop32
280
     0
102
RTVSPost2010PropOp32
 70
     1
102
RTVSPost2010Prop33
280
     0
102
RTVSPost2010PropOp33
 70
     1
102
RTVSPost2010Prop34
280
     0
102
RTVSPost2010PropOp34
 70
     1
102
RTVSPost2010Prop35
280
     0
102
RTVSPost2010PropOp35
 70
     1
102
RTVSPost2010Prop36
280
     0
102
RTVSPost2010PropOp36
 70
     1
102
RTVSPost2010Prop37
 90
       50
102
RTVSPost2010PropOp37
 70
     1
102
RTVSPost2010Prop38
140
0.0
102
RTVSPost2010PropOp38
 70
     1
102
RTVSPost2010Prop39
140
1.0
102
RTVSPost2010PropOp39
 70
     1
102
RTVSPost2010Prop40
 90
        0
102
RTVSPost2010PropOp40
 70
     1
102
RTVSPost2010Prop41ColorIndex
 90
       18
102
RTVSPost2010Prop41ColorRGB
 90
        0
102
RTVSPost2010PropOp41
 70
     1
102
RTVSPost2010Prop42
 90
       50
102
RTVSPost2010PropOp42
 70
     1
102
RTVSPost2010Prop43
 90
        3
102
RTVSPost2010PropOp43
 70
     1
102
RTVSPost2010Prop44ColorIndex
 90
        5
102
RTVSPost2010Prop44ColorRGB
 90
      255
102
RTVSPost2010PropOp44
 70
     1
102
RTVSPost2010Prop45
280
     0
102
RTVSPost2010PropOp45
 70
     1
102
RTVSPost2010Prop46
 90
       50
102
RTVSPost2010PropOp46
 70
     1
102
RTVSPost2010Prop47
 90
       50
102
RTVSPost2010PropOp47
 70
     1
102
RTVSPost2010Prop48
 90
       50
102
RTVSPost2010PropOp48
 70
     1
102
RTVSPost2010Prop49
280
     0
102
RTVSPost2010PropOp49
 70
     1
102
RTVSPost2010Prop50
 90
       50
102
RTVSPost2010PropOp50
 70
     1
102
RTVSPost2010Prop51ColorIndex
 90
      256
102
RTVSPost2010Prop51ColorRGB
 90
-16777216
102
RTVSPost2010PropOp51
 70
     0
102
RTVSPost2010Prop52
140
1.0
102
RTVSPost2010PropOp52
 70
     0
102
RTVSPost2010Prop53
 90
        2
102
RTVSPost2010PropOp53
 70
     1
102
RTVSPost2010Prop54
  1
strokes_ogs.tif
102
RTVSPost2010PropOp54
 70
     1
102
RTVSPost2010Prop55
280
     0
102
RTVSPost2010PropOp55
 70
     1
102
RTVSPost2010Prop56
140
1.0
102
RTVSPost2010PropOp56
 70
     1
102
RTVSPost2010Prop57
140
1.0
102
RTVSPost2010PropOp57
 70
     1
  0
ENDSEC
  0
EOF
