  0
SECTION
  2
HEADER
  9
$ACADVER
  1
AC1015
  9
$ACADMAINTVER
 70
     6
  9
$DWGCODEPAGE
  3
ANSI_932
  9
$INSBASE
 10
1748.380966691465
 20
984.9581468130782
 30
0.0
  9
$EXTMIN
 10
79.11761013892283
 20
31.71018924927733
 30
0.0
  9
$EXTMAX
 10
1142.932519498519
 20
1088.843813844916
 30
0.0
  9
$LIMMIN
 10
0.0
 20
0.0
  9
$LIMMAX
 10
816.5000000000001
 20
565.0
  9
$ORTHOMODE
 70
     1
  9
$REGENMODE
 70
     1
  9
$FILLMODE
 70
     1
  9
$QTEXTMODE
 70
     0
  9
$MIRRTEXT
 70
     1
  9
$LTSCALE
 40
20.0
  9
$ATTMODE
 70
     1
  9
$TEXTSIZE
 40
9.0
  9
$TRACEWID
 40
0.05
  9
$TEXTSTYLE
  7
KANJI
  9
$CLAYER
  8
2
  9
$CELTYPE
  6
BYLAYER
  9
$CECOLOR
 62
   256
  9
$CELTSCALE
 40
1.0
  9
$DISPSILH
 70
     0
  9
$DIMSCALE
 40
3.0
  9
$DIMASZ
 40
2.0
  9
$DIMEXO
 40
0.5
  9
$DIMDLI
 40
0.0
  9
$DIMRND
 40
0.0
  9
$DIMDLE
 40
0.0
  9
$DIMEXE
 40
1.0
  9
$DIMTP
 40
0.0
  9
$DIMTM
 40
0.0
  9
$DIMTXT
 40
3.0
  9
$DIMCEN
 40
0.09
  9
$DIMTSZ
 40
0.0
  9
$DIMTOL
 70
     0
  9
$DIMLIM
 70
     0
  9
$DIMTIH
 70
     0
  9
$DIMTOH
 70
     0
  9
$DIMSE1
 70
     0
  9
$DIMSE2
 70
     0
  9
$DIMTAD
 70
     0
  9
$DIMZIN
 70
     8
  9
$DIMBLK
  1

  9
$DIMASO
 70
     0
  9
$DIMSHO
 70
     0
  9
$DIMPOST
  1

  9
$DIMAPOST
  1

  9
$DIMALT
 70
     0
  9
$DIMALTD
 70
     2
  9
$DIMALTF
 40
25.4
  9
$DIMLFAC
 40
1.0
  9
$DIMTOFL
 70
     1
  9
$DIMTVP
 40
1.0
  9
$DIMTIX
 70
     1
  9
$DIMSOXD
 70
     1
  9
$DIMSAH
 70
     0
  9
$DIMBLK1
  1

  9
$DIMBLK2
  1

  9
$DIMSTYLE
  2
STANDARD
  9
$DIMCLRD
 70
   256
  9
$DIMCLRE
 70
   256
  9
$DIMCLRT
 70
   256
  9
$DIMTFAC
 40
1.0
  9
$DIMGAP
 40
0.09
  9
$DIMJUST
 70
     0
  9
$DIMSD1
 70
     0
  9
$DIMSD2
 70
     0
  9
$DIMTOLJ
 70
     1
  9
$DIMTZIN
 70
     0
  9
$DIMALTZ
 70
     0
  9
$DIMALTTZ
 70
     0
  9
$DIMUPT
 70
     0
  9
$DIMDEC
 70
     1
  9
$DIMTDEC
 70
     4
  9
$DIMALTU
 70
     2
  9
$DIMALTTD
 70
     2
  9
$DIMTXSTY
  7
STANDARD
  9
$DIMAUNIT
 70
     0
  9
$DIMADEC
 70
     0
  9
$DIMALTRND
 40
0.0
  9
$DIMAZIN
 70
     0
  9
$DIMDSEP
 70
    46
  9
$DIMATFIT
 70
     3
  9
$DIMFRAC
 70
     0
  9
$DIMLDRBLK
  1

  9
$DIMLUNIT
 70
     2
  9
$DIMLWD
 70
    -2
  9
$DIMLWE
 70
    -2
  9
$DIMTMOVE
 70
     0
  9
$LUNITS
 70
     2
  9
$LUPREC
 70
     3
  9
$SKETCHINC
 40
0.1
  9
$FILLETRAD
 40
2.0
  9
$AUNITS
 70
     0
  9
$AUPREC
 70
     3
  9
$MENU
  1
C:\R13\WIN\SUPPORT\ACADFULL
  9
$ELEVATION
 40
0.0
  9
$PELEVATION
 40
0.0
  9
$THICKNESS
 40
0.0
  9
$LIMCHECK
 70
     0
  9
$CHAMFERA
 40
0.0
  9
$CHAMFERB
 40
0.0
  9
$CHAMFERC
 40
0.0
  9
$CHAMFERD
 40
0.0
  9
$SKPOLY
 70
     0
  9
$TDCREATE
 40
2457295.563286516
  9
$TDUCREATE
 40
2457295.188286516
  9
$TDUPDATE
 40
2457870.60867544
  9
$TDUUPDATE
 40
2457870.23367544
  9
$TDINDWG
 40
0.0131605093
  9
$TDUSRTIMER
 40
0.0131601157
  9
$USRTIMER
 70
     1
  9
$ANGBASE
 50
0.0
  9
$ANGDIR
 70
     0
  9
$PDMODE
 70
     0
  9
$PDSIZE
 40
0.0
  9
$PLINEWID
 40
0.0
  9
$SPLFRAME
 70
     0
  9
$SPLINETYPE
 70
     6
  9
$SPLINESEGS
 70
     8
  9
$HANDSEED
  5
67F
  9
$SURFTAB1
 70
     6
  9
$SURFTAB2
 70
     6
  9
$SURFTYPE
 70
     6
  9
$SURFU
 70
     6
  9
$SURFV
 70
     6
  9
$UCSBASE
  2

  9
$UCSNAME
  2

  9
$UCSORG
 10
0.0
 20
0.0
 30
0.0
  9
$UCSXDIR
 10
1.0
 20
0.0
 30
0.0
  9
$UCSYDIR
 10
0.0
 20
1.0
 30
0.0
  9
$UCSORTHOREF
  2

  9
$UCSORTHOVIEW
 70
     0
  9
$UCSORGTOP
 10
0.0
 20
0.0
 30
0.0
  9
$UCSORGBOTTOM
 10
0.0
 20
0.0
 30
0.0
  9
$UCSORGLEFT
 10
0.0
 20
0.0
 30
0.0
  9
$UCSORGRIGHT
 10
0.0
 20
0.0
 30
0.0
  9
$UCSORGFRONT
 10
0.0
 20
0.0
 30
0.0
  9
$UCSORGBACK
 10
0.0
 20
0.0
 30
0.0
  9
$PUCSBASE
  2

  9
$PUCSNAME
  2

  9
$PUCSORG
 10
0.0
 20
0.0
 30
0.0
  9
$PUCSXDIR
 10
1.0
 20
0.0
 30
0.0
  9
$PUCSYDIR
 10
0.0
 20
1.0
 30
0.0
  9
$PUCSORTHOREF
  2

  9
$PUCSORTHOVIEW
 70
     0
  9
$PUCSORGTOP
 10
0.0
 20
0.0
 30
0.0
  9
$PUCSORGBOTTOM
 10
0.0
 20
0.0
 30
0.0
  9
$PUCSORGLEFT
 10
0.0
 20
0.0
 30
0.0
  9
$PUCSORGRIGHT
 10
0.0
 20
0.0
 30
0.0
  9
$PUCSORGFRONT
 10
0.0
 20
0.0
 30
0.0
  9
$PUCSORGBACK
 10
0.0
 20
0.0
 30
0.0
  9
$USERI1
 70
     0
  9
$USERI2
 70
     0
  9
$USERI3
 70
     0
  9
$USERI4
 70
     0
  9
$USERI5
 70
     0
  9
$USERR1
 40
0.0
  9
$USERR2
 40
0.0
  9
$USERR3
 40
0.0
  9
$USERR4
 40
2448925.372986111
  9
$USERR5
 40
0.04166667
  9
$WORLDVIEW
 70
     1
  9
$SHADEDGE
 70
     3
  9
$SHADEDIF
 70
    70
  9
$TILEMODE
 70
     1
  9
$MAXACTVP
 70
    16
  9
$PINSBASE
 10
0.0
 20
0.0
 30
0.0
  9
$PLIMCHECK
 70
     0
  9
$PEXTMIN
 10
1.000000000000000E+20
 20
1.000000000000000E+20
 30
1.000000000000000E+20
  9
$PEXTMAX
 10
-1.000000000000000E+20
 20
-1.000000000000000E+20
 30
-1.000000000000000E+20
  9
$PLIMMIN
 10
0.0
 20
0.0
  9
$PLIMMAX
 10
12.0
 20
9.0
  9
$UNITMODE
 70
     0
  9
$VISRETAIN
 70
     0
  9
$PLINEGEN
 70
     0
  9
$PSLTSCALE
 70
     0
  9
$TREEDEPTH
 70
  3020
  9
$CMLSTYLE
  2
STANDARD
  9
$CMLJUST
 70
     0
  9
$CMLSCALE
 40
1.0
  9
$PROXYGRAPHICS
 70
     1
  9
$MEASUREMENT
 70
     0
  9
$CELWEIGHT
370
    -1
  9
$ENDCAPS
280
     0
  9
$JOINSTYLE
280
     0
  9
$LWDISPLAY
290
     0
  9
$INSUNITS
 70
     0
  9
$HYPERLINKBASE
  1

  9
$STYLESHEET
  1
monochrome.ctb
  9
$XEDIT
290
     1
  9
$CEPSNTYPE
380
     0
  9
$PSTYLEMODE
290
     1
  9
$FINGERPRINTGUID
  2
{E9E85C23-A0C0-4897-A87F-4A051C70ABBD}
  9
$VERSIONGUID
  2
{0225CC68-60BD-4201-839C-7C992A072CFC}
  9
$EXTNAMES
290
     1
  9
$PSVPSCALE
 40
0.0
  9
$OLESTARTUP
290
     0
  0
ENDSEC
  0
SECTION
  2
CLASSES
  0
CLASS
  1
LWPOLYLINE
  2
AcDbPolyline
  3
AutoCAD 2000
 90
        0
280
     0
281
     1
  0
CLASS
  1
XRECORD
  2
AcDbXrecord
  3
AutoCAD 2000
 90
        0
280
     0
281
     0
  0
CLASS
  1
ACDBDICTIONARYWDFLT
  2
AcDbDictionaryWithDefault
  3
ObjectDBX Classes
 90
        0
280
     0
281
     0
  0
CLASS
  1
ACDBPLACEHOLDER
  2
AcDbPlaceHolder
  3
ObjectDBX Classes
 90
        0
280
     0
281
     0
  0
CLASS
  1
LAYOUT
  2
AcDbLayout
  3
ObjectDBX Classes
 90
        0
280
     0
281
     0
  0
CLASS
  1
DICTIONARYVAR
  2
AcDbDictionaryVar
  3
ObjectDBX Classes
 90
        0
280
     0
281
     0
  0
CLASS
  1
DUMMY
  2
AcDbLongTransaction
  3
DUMMY
 90
        0
280
     0
281
     0
  0
CLASS
  1
LWPOLYLINE
  2
AcDbPolyline
  3
AutoCAD 2000
 90
        0
280
     0
281
     1
  0
CLASS
  1
HATCH
  2
AcDbHatch
  3
AutoCAD 2000
 90
        0
280
     0
281
     1
  0
CLASS
  1
XRECORD
  2
AcDbXrecord
  3
AutoCAD 2000
 90
        0
280
     0
281
     0
  0
CLASS
  1
DUMMY
  2
AcDbLongTransaction
  3
DUMMY
 90
        0
280
     0
281
     0
  0
CLASS
  1
LWPOLYLINE
  2
AcDbPolyline
  3
AutoCAD 2000
 90
        0
280
     0
281
     1
  0
CLASS
  1
HATCH
  2
AcDbHatch
  3
AutoCAD 2000
 90
        0
280
     0
281
     1
  0
CLASS
  1
XRECORD
  2
AcDbXrecord
  3
AutoCAD 2000
 90
        0
280
     0
281
     0
  0
CLASS
  1
DUMMY
  2
AcDbLongTransaction
  3
DUMMY
 90
        0
280
     0
281
     0
  0
CLASS
  1
LWPOLYLINE
  2
AcDbPolyline
  3
AutoCAD 2000
 90
        0
280
     0
281
     1
  0
CLASS
  1
HATCH
  2
AcDbHatch
  3
AutoCAD 2000
 90
        0
280
     0
281
     1
  0
CLASS
  1
XRECORD
  2
AcDbXrecord
  3
AutoCAD 2000
 90
        0
280
     0
281
     0
  0
CLASS
  1
DUMMY
  2
AcDbLongTransaction
  3
DUMMY
 90
        0
280
     0
281
     0
  0
CLASS
  1
LWPOLYLINE
  2
AcDbPolyline
  3
AutoCAD 2000
 90
        0
280
     0
281
     1
  0
CLASS
  1
HATCH
  2
AcDbHatch
  3
AutoCAD 2000
 90
        0
280
     0
281
     1
  0
CLASS
  1
XRECORD
  2
AcDbXrecord
  3
AutoCAD 2000
 90
        0
280
     0
281
     0
  0
CLASS
  1
MATERIAL
  2
AcDbMaterial
  3
ObjectDBX Classes
 90
     1153
280
     0
281
     0
  0
CLASS
  1
VISUALSTYLE
  2
AcDbVisualStyle
  3
ObjectDBX Classes
 90
     4095
280
     0
281
     0
  0
CLASS
  1
TABLESTYLE
  2
AcDbTableStyle
  3
ObjectDBX Classes
 90
     4095
280
     0
281
     0
  0
CLASS
  1
SCALE
  2
AcDbScale
  3
ObjectDBX Classes
 90
     1153
280
     0
281
     0
  0
CLASS
  1
MLEADERSTYLE
  2
AcDbMLeaderStyle
  3
ACDB_MLEADERSTYLE_CLASS
 90
     4095
280
     0
281
     0
  0
CLASS
  1
ACDBSECTIONVIEWSTYLE
  2
AcDbSectionViewStyle
  3
ObjectDBX Classes
 90
     1025
280
     0
281
     0
  0
CLASS
  1
ACDBDETAILVIEWSTYLE
  2
AcDbDetailViewStyle
  3
ObjectDBX Classes
 90
     1025
280
     0
281
     0
  0
CLASS
  1
SORTENTSTABLE
  2
AcDbSortentsTable
  3
ObjectDBX Classes
 90
        0
280
     0
281
     0
  0
ENDSEC
  0
SECTION
  2
TABLES
  0
TABLE
  2
VPORT
  5
2D
102
{ACAD_XDICTIONARY
360
643
102
}
330
0
100
AcDbSymbolTable
 70
     1
  0
VPORT
  5
2E
330
2D
100
AcDbSymbolTableRecord
100
AcDbViewportTableRecord
  2
*Active
 70
     0
 10
0.0
 20
0.0
 11
1.0
 21
1.0
 12
1340.033306497787
 22
546.6051765948274
 13
0.0
 23
0.0
 14
1.0
 24
1.0
 15
50.0
 25
50.0
 16
0.0
 26
0.0
 36
1.0
 17
0.0
 27
0.0
 37
0.0
 40
1271.937395494182
 41
2.174107142857143
 42
50.0
 43
0.0
 44
0.0
 50
0.0
 51
0.0
 71
     0
 72
  5000
 73
     1
 74
     0
 75
     0
 76
     0
 77
     0
 78
     0
281
     0
 65
     1
110
0.0
120
0.0
130
0.0
111
1.0
121
0.0
131
0.0
112
0.0
122
1.0
132
0.0
 79
     0
146
0.0
1001
ACAD_NAV_VCDISPLAY
1070
     3
  0
ENDTAB
  0
TABLE
  2
LTYPE
  5
28
330
0
100
AcDbSymbolTable
 70
     2
  0
LTYPE
  5
29
330
28
100
AcDbSymbolTableRecord
100
AcDbLinetypeTableRecord
  2
BYBLOCK
 70
     0
  3

 72
    65
 73
     0
 40
0.0
  0
LTYPE
  5
2A
330
28
100
AcDbSymbolTableRecord
100
AcDbLinetypeTableRecord
  2
BYLAYER
 70
     0
  3

 72
    65
 73
     0
 40
0.0
  0
LTYPE
  5
16
330
28
100
AcDbSymbolTableRecord
100
AcDbLinetypeTableRecord
  2
CONTINUOUS
 70
     0
  3
Solid line
 72
    65
 73
     0
 40
0.0
  0
LTYPE
  5
76
330
28
100
AcDbSymbolTableRecord
100
AcDbLinetypeTableRecord
  2
CENTER
 70
     0
  3
____ _ ____ _ ____ _ ____ _ ____ _ ____ _ ____
 72
    65
 73
     4
 40
2.0
 49
1.25
 74
     0
 49
-0.25
 74
     0
 49
0.25
 74
     0
 49
-0.25
 74
     0
  0
ENDTAB
  0
TABLE
  2
LAYER
  5
22
102
{ACAD_XDICTIONARY
360
23
102
}
330
0
100
AcDbSymbolTable
 70
     8
  0
LAYER
  5
7
102
{ACAD_XDICTIONARY
360
8
102
}
330
22
100
AcDbSymbolTableRecord
100
AcDbLayerTableRecord
  2
0
 70
     0
 62
     7
  6
CONTINUOUS
370
    -3
390
A
  0
LAYER
  5
3BF
102
{ACAD_XDICTIONARY
360
3C0
102
}
330
22
100
AcDbSymbolTableRecord
100
AcDbLayerTableRecord
  2
1
 70
     0
 62
     9
  6
CONTINUOUS
370
    -3
390
A
  0
LAYER
  5
4E
102
{ACAD_XDICTIONARY
360
4F
102
}
330
22
100
AcDbSymbolTableRecord
100
AcDbLayerTableRecord
  2
2
 70
     0
 62
     4
  6
CONTINUOUS
370
    -3
390
A
  0
LAYER
  5
6A
102
{ACAD_XDICTIONARY
360
6B
102
}
330
22
100
AcDbSymbolTableRecord
100
AcDbLayerTableRecord
  2
4
 70
     0
 62
     3
  6
CONTINUOUS
370
    -3
390
A
  0
LAYER
  5
73
102
{ACAD_XDICTIONARY
360
74
102
}
330
22
100
AcDbSymbolTableRecord
100
AcDbLayerTableRecord
  2
L-CENTER
 70
     0
 62
     1
  6
CENTER
370
    -3
390
A
  0
LAYER
  5
8A
102
{ACAD_XDICTIONARY
360
8B
102
}
330
22
100
AcDbSymbolTableRecord
100
AcDbLayerTableRecord
  2
3
 70
     0
 62
     2
  6
CONTINUOUS
370
    -3
390
A
  0
LAYER
  5
3B8
330
22
100
AcDbSymbolTableRecord
100
AcDbLayerTableRecord
  2
5
 70
     0
 62
     6
  6
CONTINUOUS
370
    -3
390
A
  0
LAYER
  5
61F
330
22
100
AcDbSymbolTableRecord
100
AcDbLayerTableRecord
  2
Defpoints
 70
     0
 62
     7
  6
CONTINUOUS
290
     0
370
    -3
390
A
  0
ENDTAB
  0
TABLE
  2
STYLE
  5
25
330
0
100
AcDbSymbolTable
 70
     2
  0
STYLE
  5
26
330
25
100
AcDbSymbolTableRecord
100
AcDbTextStyleTableRecord
  2
STANDARD
 70
     0
 40
0.0
 41
1.0
 50
0.0
 71
     0
 42
5.4
  3
TXT
  4

  0
STYLE
  5
51
330
25
100
AcDbSymbolTableRecord
100
AcDbTextStyleTableRecord
  2
KANJI
 70
     0
 40
0.0
 41
1.0
 50
0.0
 71
     0
 42
9.0
  3
TXT
  4
BIGFONT
  0
ENDTAB
  0
TABLE
  2
VIEW
  5
2B
330
0
100
AcDbSymbolTable
 70
     0
  0
ENDTAB
  0
TABLE
  2
UCS
  5
2C
330
0
100
AcDbSymbolTable
 70
     0
  0
ENDTAB
  0
TABLE
  2
APPID
  5
32
330
0
100
AcDbSymbolTable
 70
     5
  0
APPID
  5
33
330
32
100
AcDbSymbolTableRecord
100
AcDbRegAppTableRecord
  2
ACAD
 70
     0
  0
APPID
  5
31
330
32
100
AcDbSymbolTableRecord
100
AcDbRegAppTableRecord
  2
ACAD_NAV_VCDISPLAY
 70
     0
  0
APPID
  5
1B
330
32
100
AcDbSymbolTableRecord
100
AcDbRegAppTableRecord
  2
ACAD_PSEXT
 70
     0
  0
APPID
  5
539
330
32
100
AcDbSymbolTableRecord
100
AcDbRegAppTableRecord
  2
ACAD_EXEMPT_FROM_CAD_STANDARDS
 70
     0
  0
APPID
  5
611
330
32
100
AcDbSymbolTableRecord
100
AcDbRegAppTableRecord
  2
ACAD_MLEADERVER
 70
     0
  0
ENDTAB
  0
TABLE
  2
DIMSTYLE
  5
34
330
0
100
AcDbSymbolTable
 70
     1
100
AcDbDimStyleTable
  0
DIMSTYLE
105
35
330
34
100
AcDbSymbolTableRecord
100
AcDbDimStyleTableRecord
  2
STANDARD
 70
     0
178
     0
340
26
  0
ENDTAB
  0
TABLE
  2
BLOCK_RECORD
  5
1
330
0
100
AcDbSymbolTable
 70
     0
  0
BLOCK_RECORD
  5
2
102
{ACAD_XDICTIONARY
360
3
102
}
330
1
100
AcDbSymbolTableRecord
100
AcDbBlockTableRecord
  2
*MODEL_SPACE
340
18
  0
BLOCK_RECORD
  5
1C
330
1
100
AcDbSymbolTableRecord
100
AcDbBlockTableRecord
  2
*PAPER_SPACE
340
21
  0
ENDTAB
  0
ENDSEC
  0
SECTION
  2
BLOCKS
  0
BLOCK
  5
6
330
2
100
AcDbEntity
  8
0
100
AcDbBlockBegin
  2
*MODEL_SPACE
 70
     0
 10
0.0
 20
0.0
 30
0.0
  3
*MODEL_SPACE
  1

  0
ENDBLK
  5
17
330
2
100
AcDbEntity
  8
0
100
AcDbBlockEnd
  0
BLOCK
  5
1F
330
1C
100
AcDbEntity
 67
     1
  8
0
100
AcDbBlockBegin
  2
*PAPER_SPACE
 70
     0
 10
0.0
 20
0.0
 30
0.0
  3
*PAPER_SPACE
  1

  0
ENDBLK
  5
20
330
1C
100
AcDbEntity
 67
     1
  8
0
100
AcDbBlockEnd
  0
ENDSEC
  0
SECTION
  2
ENTITIES
  0
CIRCLE
  5
6D
330
2
100
AcDbEntity
  8
4
100
AcDbCircle
 10
919.8474051409877
 20
373.5918942124588
 30
0.0
 40
39.999999
  0
CIRCLE
  5
6E
330
2
100
AcDbEntity
  8
4
100
AcDbCircle
 10
919.8474051409877
 20
373.5918942124588
 30
0.0
 40
65.000001
  0
LINE
  5
6F
330
2
100
AcDbEntity
  8
4
100
AcDbLine
 10
854.8474041409876
 20
373.5918942124588
 30
0.0
 11
854.8474041409876
 21
84.59213821245885
 31
0.0
  0
LINE
  5
70
330
2
100
AcDbEntity
  8
4
100
AcDbLine
 10
839.8474041409876
 20
376.5918942124588
 30
0.0
 11
839.8474041409876
 21
79.59214021245884
 31
0.0
  0
LINE
  5
71
330
2
100
AcDbEntity
  8
4
100
AcDbLine
 10
853.8474051409877
 20
379.5918942124588
 30
0.0
 11
853.8474051409877
 21
81.59213521246033
 31
0.0
  0
LINE
  5
72
330
2
100
AcDbEntity
  8
L-CENTER
100
AcDbLine
 10
919.8474051409877
 20
502.6951662124588
 30
0.0
 11
919.8474051409876
 21
41.15596802128334
 31
0.0
  0
LINE
  5
77
330
2
100
AcDbEntity
  8
4
100
AcDbLine
 10
984.8474061409876
 20
373.5918942124588
 30
0.0
 11
984.8474061409876
 21
84.59213821245885
 31
0.0
  0
LINE
  5
78
330
2
100
AcDbEntity
  8
4
100
AcDbLine
 10
1002.147308140988
 20
376.5918942124588
 30
0.0
 11
1002.147308140988
 21
79.59214021245884
 31
0.0
  0
LINE
  5
79
330
2
100
AcDbEntity
  8
4
100
AcDbLine
 10
987.8474061409875
 20
377.5918962124588
 30
0.0
 11
987.8474061409875
 21
79.59214021245884
 31
0.0
  0
LINE
  5
7A
330
2
100
AcDbEntity
  8
4
100
AcDbLine
 10
985.8474051409877
 20
379.5918942124588
 30
0.0
 11
985.8474051409877
 21
81.59213521246045
 31
0.0
  0
LINE
  5
81
330
2
100
AcDbEntity
  8
4
100
AcDbLine
 10
551.3018030764867
 20
413.5918962124588
 30
0.0
 11
551.3018030764867
 21
333.5918952124589
 31
0.0
  0
LINE
  5
82
330
2
100
AcDbEntity
  8
4
100
AcDbLine
 10
550.3018010764868
 20
308.5918962124588
 30
0.0
 11
550.3018010764868
 21
438.5918952124589
 31
0.0
  0
LINE
  5
83
330
2
100
AcDbEntity
  8
4
100
AcDbLine
 10
247.3018010764868
 20
413.5918962124588
 30
0.0
 11
247.3018010764868
 21
333.5918952124589
 31
0.0
  0
LINE
  5
84
330
2
100
AcDbEntity
  8
4
100
AcDbLine
 10
248.3018030764867
 20
438.5918952124589
 30
0.0
 11
248.3018030764867
 21
308.5918962124588
 31
0.0
  0
ARC
  5
85
330
2
100
AcDbEntity
  8
4
100
AcDbCircle
 10
399.3018020764868
 20
-320.4080147875411
 30
0.0
 40
700.000008
100
AcDbArc
 50
78.94884899999995
 51
101.051229
  0
CIRCLE
  5
86
330
2
100
AcDbEntity
  8
4
100
AcDbCircle
 10
399.3018020764868
 20
225.5918952124589
 30
0.0
 40
152.000001
  0
LINE
  5
87
330
2
100
AcDbEntity
  8
L-CENTER
100
AcDbLine
 10
399.3018020764868
 20
63.98546521245879
 30
0.0
 11
399.3018020764868
 21
503.4612822124589
 31
0.0
  0
LINE
  5
94
330
2
100
AcDbEntity
  8
L-CENTER
100
AcDbLine
 10
101.8752416952346
 20
350.8342626561468
 30
0.0
 11
101.8752416952346
 21
396.3495257687707
 31
0.0
  0
ARC
  5
95
330
2
100
AcDbEntity
  8
4
100
AcDbCircle
 10
101.8752416952346
 20
373.5918942124588
 30
0.0
 40
16.000002
100
AcDbArc
 50
108.2099582779526
 51
71.79033999999857
  0
LINE
  5
9B
330
2
100
AcDbEntity
  8
L-CENTER
100
AcDbLine
 10
79.11761013892283
 20
373.5918942124588
 30
0.0
 11
124.6328732515466
 21
373.5918942124588
 31
0.0
  0
LINE
  5
A0
330
2
100
AcDbEntity
  8
4
100
AcDbLine
 10
106.8751646952346
 20
385.0918962124588
 30
0.0
 11
106.8751646952346
 21
393.0918942124588
 31
0.0
  0
LINE
  5
A1
330
2
100
AcDbEntity
  8
4
100
AcDbLine
 10
96.87524069523454
 20
393.0918942124588
 30
0.0
 11
96.87524069523454
 21
385.0918962124588
 31
0.0
  0
LINE
  5
A2
330
2
100
AcDbEntity
  8
4
100
AcDbLine
 10
106.8751646952346
 20
385.0918962124588
 30
0.0
 11
96.87524069523454
 21
385.0918962124588
 31
0.0
  0
LINE
  5
A3
330
2
100
AcDbEntity
  8
4
100
AcDbLine
 10
106.8751646952346
 20
393.0918942124588
 30
0.0
 11
96.87524069523454
 21
393.0918942124588
 31
0.0
  0
LINE
  5
D0
330
2
100
AcDbEntity
  8
L-CENTER
100
AcDbLine
 10
237.6953720764867
 20
225.5918952124589
 30
0.0
 11
560.9082320764868
 21
225.5918952124589
 31
0.0
  0
LINE
  5
D1
330
2
100
AcDbEntity
  8
4
100
AcDbLine
 10
342.8372030764867
 20
257.0911632124589
 30
0.0
 11
275.9624450764868
 21
251.1902832124589
 31
0.0
  0
LINE
  5
D2
330
2
100
AcDbEntity
  8
4
100
AcDbLine
 10
342.8372030764867
 20
194.0926272124589
 30
0.0
 11
275.9624450764868
 21
199.9935072124589
 31
0.0
  0
LINE
  5
D5
330
2
100
AcDbEntity
  8
4
100
AcDbLine
 10
489.3018020764868
 20
71.59213921245885
 30
0.0
 11
309.3018020764868
 21
71.59213921245885
 31
0.0
  0
ARC
  5
D6
330
2
100
AcDbEntity
  8
4
100
AcDbCircle
 10
399.3018020764868
 20
771.592139212459
 30
0.0
 40
700.0
100
AcDbArc
 50
261.4347188924492
 51
270.0
  0
ARC
  5
D7
330
2
100
AcDbEntity
  8
4
100
AcDbCircle
 10
399.3018020764868
 20
225.5918952124589
 30
0.0
 40
132.500001
100
AcDbArc
 50
98.81570476582621
 51
81.1842952341738
  0
ARC
  5
D8
330
2
100
AcDbEntity
  8
4
100
AcDbCircle
 10
379.3018020764869
 20
354.5502228264598
 30
0.0
 40
2.0
100
AcDbArc
 50
0.0
 51
98.81570476582553
  0
ARC
  5
D9
330
2
100
AcDbEntity
  8
4
100
AcDbCircle
 10
419.3018020764866
 20
354.5502228264598
 30
0.0
 40
2.0
100
AcDbArc
 50
81.18429523417446
 51
180.0
  0
LINE
  5
DA
330
2
100
AcDbEntity
  8
4
100
AcDbLine
 10
240.8018030764867
 20
150.5918952124589
 30
0.0
 11
240.8018030764867
 21
180.5918952124589
 31
0.0
  0
LINE
  5
DB
330
2
100
AcDbEntity
  8
4
100
AcDbLine
 10
242.3018030764867
 20
151.5918942124589
 30
0.0
 11
242.3018030764867
 21
179.5918962124589
 31
0.0
  0
LINE
  5
DC
330
2
100
AcDbEntity
  8
4
100
AcDbLine
 10
242.3018030764867
 20
147.5918952124589
 30
0.0
 11
242.3018030764867
 21
183.5918952124589
 31
0.0
  0
LINE
  5
DD
330
2
100
AcDbEntity
  8
4
100
AcDbLine
 10
233.8018010764868
 20
150.5918952124589
 30
0.0
 11
233.8018010764868
 21
180.5918952124589
 31
0.0
  0
LINE
  5
DE
330
2
100
AcDbEntity
  8
4
100
AcDbLine
 10
238.8018020764868
 20
150.5918952124589
 30
0.0
 11
238.8018020764868
 21
180.5918952124589
 31
0.0
  0
ARC
  5
DF
330
2
100
AcDbEntity
  8
4
100
AcDbCircle
 10
445.3018020764863
 20
226.1448173515337
 30
0.0
 40
200.0
100
AcDbArc
 50
180.1583302209681
 51
213.7279696977288
  0
LINE
  5
E0
330
2
100
AcDbEntity
  8
4
100
AcDbLine
 10
245.3018030764867
 20
225.5918952124589
 30
0.0
 11
245.3018030764867
 21
82.59214021245884
 31
0.0
  0
LINE
  5
E1
330
2
100
AcDbEntity
  8
4
100
AcDbLine
 10
299.3018030764867
 20
61.59214021245884
 30
0.0
 11
299.3018030764867
 21
49.59214021245884
 31
0.0
  0
LINE
  5
E2
330
2
100
AcDbEntity
  8
4
100
AcDbLine
 10
229.3018010764868
 20
49.59214021245884
 30
0.0
 11
229.3018010764868
 21
76.59214021245884
 31
0.0
  0
LINE
  5
E3
330
2
100
AcDbEntity
  8
4
100
AcDbLine
 10
289.3018020764863
 20
49.59213921245896
 30
0.0
 11
289.3018020764863
 21
78.59214021245884
 31
0.0
  0
LINE
  5
E4
330
2
100
AcDbEntity
  8
L-CENTER
100
AcDbLine
 10
253.3018010764868
 20
37.59214021245884
 30
0.0
 11
253.3018010764868
 21
91.59214021245884
 31
0.0
  0
LINE
  5
E9
330
2
100
AcDbEntity
  8
4
100
AcDbLine
 10
299.3018030764867
 20
49.59214021245884
 30
0.0
 11
229.3018010764868
 21
49.59214021245884
 31
0.0
  0
LINE
  5
EA
330
2
100
AcDbEntity
  8
4
100
AcDbLine
 10
279.3018020764863
 20
84.59213921245896
 30
0.0
 11
279.3018020764863
 21
113.9842182090541
 31
0.0
  0
LINE
  5
EB
330
2
100
AcDbEntity
  8
4
100
AcDbLine
 10
244.3018010764868
 20
155.5111692124589
 30
0.0
 11
244.3018010764868
 21
102.5921382124588
 31
0.0
  0
ARC
  5
EC
330
2
100
AcDbEntity
  8
4
100
AcDbCircle
 10
288.3018020764863
 20
78.59214021245884
 30
0.0
 40
1.0
100
AcDbArc
 50
0.0
 51
90.0
  0
ARC
  5
ED
330
2
100
AcDbEntity
  8
4
100
AcDbCircle
 10
274.3018020764863
 20
84.59213921245896
 30
0.0
 40
5.0
100
AcDbArc
 50
270.0
 51
0.0
  0
ARC
  5
EE
330
2
100
AcDbEntity
  8
4
100
AcDbCircle
 10
294.3018020764863
 20
74.45513689512404
 30
0.0
 40
5.0
100
AcDbArc
 50
81.43471889245056
 51
180.0
  0
ARC
  5
EF
330
2
100
AcDbEntity
  8
4
100
AcDbCircle
 10
242.3018030764867
 20
82.59214021245884
 30
0.0
 40
3.0
100
AcDbArc
 50
270.0005730000003
 51
0.0
  0
ARC
  5
F0
330
2
100
AcDbEntity
  8
4
100
AcDbCircle
 10
232.3018010764868
 20
76.59214021245884
 30
0.0
 40
3.0
100
AcDbArc
 50
90.0
 51
180.0
  0
LINE
  5
F1
330
2
100
AcDbEntity
  8
4
100
AcDbLine
 10
288.3018020764863
 20
79.59214021245884
 30
0.0
 11
232.3018010764868
 21
79.59214021245884
 31
0.0
  0
LINE
  5
F2
330
2
100
AcDbEntity
  8
4
100
AcDbLine
 10
309.3018020764868
 20
71.59213921245885
 30
0.0
 11
299.3018030764867
 21
61.59214021245884
 31
0.0
  0
LINE
  5
F3
330
2
100
AcDbEntity
  8
4
100
AcDbLine
 10
240.8018030764867
 20
98.59213921245885
 30
0.0
 11
240.8018030764867
 21
86.59213921245885
 31
0.0
  0
LINE
  5
F4
330
2
100
AcDbEntity
  8
4
100
AcDbLine
 10
240.8018030764867
 20
86.59213921245885
 30
0.0
 11
242.3018030764867
 21
86.59213921245885
 31
0.0
  0
LINE
  5
F5
330
2
100
AcDbEntity
  8
4
100
AcDbLine
 10
240.8018030764867
 20
98.59213921245885
 30
0.0
 11
242.3018030764867
 21
98.59213921245885
 31
0.0
  0
LINE
  5
F6
330
2
100
AcDbEntity
  8
4
100
AcDbLine
 10
242.3018030764867
 20
102.5921382124588
 30
0.0
 11
245.3018030764867
 21
102.5921382124588
 31
0.0
  0
LINE
  5
F7
330
2
100
AcDbEntity
  8
L-CENTER
100
AcDbLine
 10
239.0829590764868
 20
92.59213921245885
 30
0.0
 11
259.5539671981414
 21
92.59213921245885
 31
0.0
  0
LINE
  5
F8
330
2
100
AcDbEntity
  8
4
100
AcDbLine
 10
242.3018030764867
 20
82.59214021245884
 30
0.0
 11
245.3018030764867
 21
82.59214021245884
 31
0.0
  0
LINE
  5
F9
330
2
100
AcDbEntity
  8
4
100
AcDbLine
 10
242.3018030764867
 20
102.5921382124588
 30
0.0
 11
242.3018030764867
 21
82.59214021245884
 31
0.0
  0
ARC
  5
FA
330
2
100
AcDbEntity
  8
4
100
AcDbCircle
 10
277.3018020764863
 20
113.9842182090541
 30
0.0
 40
2.0
100
AcDbArc
 50
0.0
 51
33.7279696977266
  0
LINE
  5
FB
330
2
100
AcDbEntity
  8
4
100
AcDbLine
 10
240.8018030764867
 20
151.5918942124589
 30
0.0
 11
242.3018030764867
 21
151.5918942124589
 31
0.0
  0
LINE
  5
FC
330
2
100
AcDbEntity
  8
4
100
AcDbLine
 10
244.3018010764868
 20
147.5918952124589
 30
0.0
 11
242.3018030764867
 21
147.5918952124589
 31
0.0
  0
LINE
  5
FD
330
2
100
AcDbEntity
  8
4
100
AcDbLine
 10
240.8018030764867
 20
150.5918952124589
 30
0.0
 11
233.8018010764868
 21
150.5918952124589
 31
0.0
  0
LINE
  5
FE
330
2
100
AcDbEntity
  8
4
100
AcDbLine
 10
238.8018020764868
 20
158.0918952124589
 30
0.0
 11
233.8018010764868
 21
158.0918952124589
 31
0.0
  0
ARC
  5
FF
330
2
100
AcDbEntity
  8
4
100
AcDbCircle
 10
845.3018030764867
 20
225.5918952124589
 30
0.0
 40
600.000003
100
AcDbArc
 50
166.776438
 51
180.0003500003384
  0
LINE
  5
100
330
2
100
AcDbEntity
  8
4
100
AcDbLine
 10
240.8018030764867
 20
179.5918962124589
 30
0.0
 11
242.3018030764867
 21
179.5918962124589
 31
0.0
  0
LINE
  5
101
330
2
100
AcDbEntity
  8
4
100
AcDbLine
 10
242.3018030764867
 20
183.5918952124589
 30
0.0
 11
245.3018030764867
 21
183.5918952124589
 31
0.0
  0
LINE
  5
102
330
2
100
AcDbEntity
  8
4
100
AcDbLine
 10
238.8018020764868
 20
173.0918952124589
 30
0.0
 11
233.8018010764868
 21
173.0918952124589
 31
0.0
  0
LINE
  5
103
330
2
100
AcDbEntity
  8
4
100
AcDbLine
 10
233.8018010764868
 20
180.5918952124589
 30
0.0
 11
240.8018030764867
 21
180.5918952124589
 31
0.0
  0
LINE
  5
104
330
2
100
AcDbEntity
  8
L-CENTER
100
AcDbLine
 10
230.7880850764868
 20
165.5918952124589
 30
0.0
 11
261.2610048977322
 21
165.5918952124589
 31
0.0
  0
ARC
  5
105
330
2
100
AcDbEntity
  8
4
100
AcDbCircle
 10
275.5229930764867
 20
195.0130362124588
 30
0.0
 40
5.000033999999999
100
AcDbArc
 50
84.9576249999997
 51
193.8773009999996
  0
ARC
  5
106
330
2
100
AcDbEntity
  8
4
100
AcDbCircle
 10
275.5229930764867
 20
256.1707512124589
 30
0.0
 40
5.000037
100
AcDbArc
 50
166.1226990000004
 51
275.0430829999995
  0
LINE
  5
107
330
2
100
AcDbEntity
  8
4
100
AcDbLine
 10
248.3018030764867
 20
308.5918962124588
 30
0.0
 11
251.0703560764867
 21
308.5918962124588
 31
0.0
  0
LINE
  5
108
330
2
100
AcDbEntity
  8
4
100
AcDbLine
 10
253.3018010764868
 20
358.5918942124588
 30
0.0
 11
253.3018010764868
 21
323.2442382124589
 31
0.0
  0
LINE
  5
109
330
2
100
AcDbEntity
  8
4
100
AcDbLine
 10
247.3018010764868
 20
333.5918952124589
 30
0.0
 11
248.3018030764867
 21
333.5918952124589
 31
0.0
  0
ARC
  5
10A
330
2
100
AcDbEntity
  8
4
100
AcDbCircle
 10
248.3018030764867
 20
358.5918942124588
 30
0.0
 40
5.000010000000001
100
AcDbArc
 50
0.0
 51
48.27809700000049
  0
ARC
  5
10B
330
2
100
AcDbEntity
  8
4
100
AcDbCircle
 10
266.0793890764868
 20
361.7039562124589
 30
0.0
 40
4.999968000000001
100
AcDbArc
 50
101.0496599999997
 51
166.7759790000004
  0
LINE
  5
10C
330
2
100
AcDbEntity
  8
4
100
AcDbLine
 10
1003.195705847597
 20
109.8662878750687
 30
0.0
 11
1007.147306140987
 21
173.0918952124589
 31
0.0
  0
CIRCLE
  5
10D
330
2
100
AcDbEntity
  8
4
100
AcDbCircle
 10
919.8474051409877
 20
165.5921402124588
 30
0.0
 40
18.0
  0
LINE
  5
10E
330
2
100
AcDbEntity
  8
4
100
AcDbLine
 10
965.8474051409877
 20
188.5900623966471
 30
0.0
 11
965.8474051409877
 21
84.59214021245884
 31
0.0
  0
LINE
  5
10F
330
2
100
AcDbEntity
  8
4
100
AcDbLine
 10
873.8474051409877
 20
188.9534669815353
 30
0.0
 11
873.8474051409879
 21
84.59214021245884
 31
0.0
  0
LINE
  5
110
330
2
100
AcDbEntity
  8
4
100
AcDbLine
 10
839.8474041409876
 20
109.0918962124588
 30
0.0
 11
831.8474061409877
 21
173.0918952124589
 31
0.0
  0
LINE
  5
111
330
2
100
AcDbEntity
  8
4
100
AcDbLine
 10
556.3018030764867
 20
147.5921402124588
 30
0.0
 11
556.3018030764867
 21
183.5921402124588
 31
0.0
  0
LINE
  5
112
330
2
100
AcDbEntity
  8
4
100
AcDbLine
 10
367.8025340764867
 20
169.1272962124589
 30
0.0
 11
373.7034140764868
 21
102.2525382124588
 31
0.0
  0
LINE
  5
113
330
2
100
AcDbEntity
  8
4
100
AcDbLine
 10
430.8010700764868
 20
169.1272962124589
 30
0.0
 11
424.9001900764868
 21
102.2525382124588
 31
0.0
  0
LINE
  5
115
330
2
100
AcDbEntity
  8
4
100
AcDbLine
 10
553.3018010764868
 20
225.5918952124589
 30
0.0
 11
553.3018010764868
 21
82.59214021245884
 31
0.0
  0
ARC
  5
116
330
2
100
AcDbEntity
  8
4
100
AcDbCircle
 10
353.3018020764872
 20
226.1448173515337
 30
0.0
 40
200.0
100
AcDbArc
 50
326.2720303022711
 51
359.8416697790296
  0
ARC
  5
118
330
2
100
AcDbEntity
  8
4
100
AcDbCircle
 10
937.8474051409877
 20
82.59214021245884
 30
0.0
 40
3.0
100
AcDbArc
 50
180.0
 51
270.0
  0
LINE
  5
11A
330
2
100
AcDbEntity
  8
4
100
AcDbLine
 10
1029.847406140987
 20
49.59214021245884
 30
0.0
 11
809.8474041409876
 21
49.59214021245884
 31
0.0
  0
LINE
  5
11B
330
2
100
AcDbEntity
  8
4
100
AcDbLine
 10
1026.847406140987
 20
79.59214021245884
 30
0.0
 11
812.8474041409876
 21
79.59214021245884
 31
0.0
  0
LINE
  5
11D
330
2
100
AcDbEntity
  8
4
100
AcDbLine
 10
809.8474041409876
 20
49.59214021245884
 30
0.0
 11
809.8474041409876
 21
76.59214021245884
 31
0.0
  0
LINE
  5
11E
330
2
100
AcDbEntity
  8
L-CENTER
100
AcDbLine
 10
844.8474051409879
 20
91.59214021245884
 30
0.0
 11
844.8474051409876
 21
37.59214021245884
 31
0.0
  0
LINE
  5
123
330
2
100
AcDbEntity
  8
4
100
AcDbLine
 10
555.3018020764868
 20
79.59214021245884
 30
0.0
 11
555.3018020764868
 21
49.59214021245884
 31
0.0
  0
LINE
  5
124
330
2
100
AcDbEntity
  8
4
100
AcDbLine
 10
535.3018010764868
 20
79.59214021245884
 30
0.0
 11
535.3018010764868
 21
49.59214021245884
 31
0.0
  0
LINE
  5
125
330
2
100
AcDbEntity
  8
4
100
AcDbLine
 10
569.3018030764867
 20
49.59214021245884
 30
0.0
 11
569.3018030764867
 21
76.59214021245884
 31
0.0
  0
LINE
  5
126
330
2
100
AcDbEntity
  8
L-CENTER
100
AcDbLine
 10
545.3018030764867
 20
37.59214021245884
 30
0.0
 11
545.3018030764867
 21
91.59214021245884
 31
0.0
  0
LINE
  5
128
330
2
100
AcDbEntity
  8
4
100
AcDbLine
 10
499.3018010764868
 20
61.59214021245884
 30
0.0
 11
499.3018010764868
 21
49.59214021245884
 31
0.0
  0
LINE
  5
129
330
2
100
AcDbEntity
  8
4
100
AcDbLine
 10
509.3018020764872
 20
49.59213921245896
 30
0.0
 11
509.3018020764872
 21
78.59214021245884
 31
0.0
  0
LWPOLYLINE
  5
12A
330
2
100
AcDbEntity
  8
4
100
AcDbPolyline
 90
       37
 70
     0
 43
0.0
 10
526.3580420764868
 20
79.60810021245885
 10
527.0158670764868
 20
79.05002821245881
 10
527.6533790764868
 20
78.49362721245888
 10
528.2502650764867
 20
77.94056521245881
 10
529.5940370764868
 20
76.31808421245881
 10
529.8252860764867
 20
75.79505821245885
 10
529.9143470764868
 20
75.28371421245885
 10
529.8409010764867
 20
74.78572021245884
 10
529.6222670764868
 20
74.34280021245883
 10
529.2826310764867
 20
73.90839421245886
 10
528.8536850764867
 20
73.47846721245884
 10
527.3479430764867
 20
72.17521621245885
 10
526.8787130764867
 20
71.72286721245882
 10
526.4786480764867
 20
71.25482821245885
 10
526.1794460764868
 20
70.7670702124588
 10
525.9944570764867
 20
70.2054702124588
 10
525.9492020764867
 20
69.61858021245888
 10
526.0236170764867
 20
69.00975421245886
 10
526.7642510764867
 20
67.08512521245882
 10
527.8596380764868
 20
65.08360921245884
 10
528.7680710764868
 20
63.09562321245886
 10
528.9357080764868
 20
62.45159521245881
 10
529.0023170764867
 20
61.82246521245884
 10
528.9478400764867
 20
61.21158421245883
 10
528.7456280764868
 20
60.58739821245882
 10
528.4189310764868
 20
59.98304221245883
 10
528.0013040764868
 20
59.39416921245885
 10
526.5383690764868
 20
57.67698721245887
 10
526.0925510764868
 20
57.10657621245883
 10
525.7235720764868
 20
56.52991321245884
 10
525.4649780764868
 20
55.94264521245884
 10
525.3326690764868
 20
54.94755421245884
 10
525.5242040764867
 20
53.91882721245884
 10
525.9748160764868
 20
52.86319321245884
 10
526.6197350764867
 20
51.7873782124588
 10
527.3941910764868
 20
50.69811121245885
 10
528.2334200764867
 20
49.60211521245884
  0
TEXT
  5
12D
330
2
100
AcDbEntity
  8
3
100
AcDbText
 10
629.2031265431705
 20
31.71018924927733
 30
0.0
 40
9.369107985165574
  1
LB6-07
  7
KANJI
100
AcDbText
  0
LINE
  5
131
330
2
100
AcDbEntity
  8
4
100
AcDbLine
 10
499.3018010764868
 20
49.59214021245884
 30
0.0
 11
569.3018030764867
 21
49.59214021245884
 31
0.0
  0
LINE
  5
140
330
2
100
AcDbEntity
  8
4
100
AcDbLine
 10
519.3018020764872
 20
84.59213921245896
 30
0.0
 11
519.3018020764872
 21
113.9842182090541
 31
0.0
  0
LINE
  5
141
330
2
100
AcDbEntity
  8
4
100
AcDbLine
 10
554.3018030764867
 20
104.5921402124588
 30
0.0
 11
554.3018030764872
 21
155.6422658413926
 31
0.0
  0
ARC
  5
142
330
2
100
AcDbEntity
  8
4
100
AcDbCircle
 10
504.3018020764872
 20
74.45513689512404
 30
0.0
 40
5.0
100
AcDbArc
 50
0.0
 51
98.56528110754945
  0
ARC
  5
143
330
2
100
AcDbEntity
  8
4
100
AcDbCircle
 10
399.3018020764868
 20
771.592139212459
 30
0.0
 40
700.0
100
AcDbArc
 50
270.0
 51
278.5652811075508
  0
LINE
  5
144
330
2
100
AcDbEntity
  8
4
100
AcDbLine
 10
489.3018020764868
 20
71.59213921245885
 30
0.0
 11
499.3018010764868
 21
61.59214021245884
 31
0.0
  0
ARC
  5
145
330
2
100
AcDbEntity
  8
4
100
AcDbCircle
 10
368.7229430764868
 20
101.8130862124588
 30
0.0
 40
5.000004000000001
100
AcDbArc
 50
256.1225429999998
 51
5.042204000000212
  0
ARC
  5
146
330
2
100
AcDbEntity
  8
4
100
AcDbCircle
 10
429.8806580764868
 20
101.8130862124588
 30
0.0
 40
5.000004000000001
100
AcDbArc
 50
174.9577959999998
 51
283.8774680000002
  0
ARC
  5
147
330
2
100
AcDbEntity
  8
4
100
AcDbCircle
 10
566.3018030764867
 20
76.59214021245884
 30
0.0
 40
3.0
100
AcDbArc
 50
0.0
 51
90.0
  0
ARC
  5
148
330
2
100
AcDbEntity
  8
4
100
AcDbCircle
 10
556.3018030764867
 20
82.59214021245884
 30
0.0
 40
3.0
100
AcDbArc
 50
180.0
 51
270.0
  0
ARC
  5
149
330
2
100
AcDbEntity
  8
4
100
AcDbCircle
 10
556.3018010764868
 20
82.59214021245884
 30
0.0
 40
3.0
100
AcDbArc
 50
180.0
 51
270.0
  0
ARC
  5
14A
330
2
100
AcDbEntity
  8
4
100
AcDbCircle
 10
524.3018020764872
 20
84.59213921245896
 30
0.0
 40
5.0
100
AcDbArc
 50
180.0
 51
270.0
  0
ARC
  5
14B
330
2
100
AcDbEntity
  8
4
100
AcDbCircle
 10
510.3018020764872
 20
78.59214021245884
 30
0.0
 40
1.0
100
AcDbArc
 50
90.0
 51
180.0
  0
LINE
  5
14D
330
2
100
AcDbEntity
  8
4
100
AcDbLine
 10
510.3018020764872
 20
79.59214021245884
 30
0.0
 11
566.3018030764867
 21
79.59214021245884
 31
0.0
  0
LINE
  5
150
330
2
100
AcDbEntity
  8
4
100
AcDbLine
 10
556.3018030764867
 20
82.59214021245884
 30
0.0
 11
556.3018030764867
 21
102.5921402124588
 31
0.0
  0
LINE
  5
151
330
2
100
AcDbEntity
  8
4
100
AcDbLine
 10
554.3018030764867
 20
80.35607223495913
 30
0.0
 11
554.3018030764867
 21
80.59214021245884
 31
0.0
  0
ARC
  5
152
330
2
100
AcDbEntity
  8
4
100
AcDbCircle
 10
556.3018030764867
 20
80.59214021245884
 30
0.0
 40
2.0
100
AcDbArc
 50
90.0
 51
180.0
  0
ARC
  5
153
330
2
100
AcDbEntity
  8
4
100
AcDbCircle
 10
556.3018030764867
 20
104.5921402124588
 30
0.0
 40
2.0
100
AcDbArc
 50
180.0
 51
270.0
  0
ARC
  5
154
330
2
100
AcDbEntity
  8
4
100
AcDbCircle
 10
521.3018020764872
 20
113.9842182090541
 30
0.0
 40
2.0
100
AcDbArc
 50
146.2720303022725
 51
180.0
  0
ARC
  5
155
330
2
100
AcDbEntity
  8
4
100
AcDbCircle
 10
556.3018030764872
 20
145.5921402124588
 30
0.0
 40
2.0
100
AcDbArc
 50
90.0
 51
180.0
  0
LINE
  5
156
330
2
100
AcDbEntity
  8
4
100
AcDbLine
 10
934.8474051409877
 20
155.6422658413929
 30
0.0
 11
934.8474051409877
 21
82.59214021245884
 31
0.0
  0
LINE
  5
157
330
2
100
AcDbEntity
  8
4
100
AcDbLine
 10
904.8474051409877
 20
155.6422658413924
 30
0.0
 11
904.8474051409877
 21
82.59214021245884
 31
0.0
  0
ARC
  5
158
330
2
100
AcDbEntity
  8
4
100
AcDbCircle
 10
901.8474051409877
 20
82.59214021245884
 30
0.0
 40
3.0
100
AcDbArc
 50
270.0
 51
0.0
  0
ARC
  5
159
330
2
100
AcDbEntity
  8
4
100
AcDbCircle
 10
868.8474051409879
 20
84.59214021245884
 30
0.0
 40
5.0
100
AcDbArc
 50
270.0
 51
0.0
  0
ARC
  5
15A
330
2
100
AcDbEntity
  8
4
100
AcDbCircle
 10
849.8474061409876
 20
84.59213821245885
 30
0.0
 40
5.000000999999999
100
AcDbArc
 50
270.0
 51
0.0
  0
ARC
  5
15B
330
2
100
AcDbEntity
  8
4
100
AcDbCircle
 10
812.8474041409876
 20
76.59214021245884
 30
0.0
 40
3.0
100
AcDbArc
 50
90.0
 51
180.0
  0
CIRCLE
  5
15C
330
2
100
AcDbEntity
  8
4
100
AcDbCircle
 10
919.8474051409877
 20
92.59214021245884
 30
0.0
 40
10.0
  0
LINE
  5
15D
330
2
100
AcDbEntity
  8
L-CENTER
100
AcDbLine
 10
938.1946906644325
 20
92.59214021245884
 30
0.0
 11
901.5001196175426
 21
92.59214021245884
 31
0.0
  0
LINE
  5
15F
330
2
100
AcDbEntity
  8
4
100
AcDbLine
 10
857.2875201345131
 20
114.5921402124588
 30
0.0
 11
873.8474051409878
 21
114.5921402124588
 31
0.0
  0
LINE
  5
160
330
2
100
AcDbEntity
  8
L-CENTER
100
AcDbLine
 10
994.8474051409875
 20
37.59214021245884
 30
0.0
 11
994.8474051409876
 21
91.59214021245884
 31
0.0
  0
LINE
  5
161
330
2
100
AcDbEntity
  8
4
100
AcDbLine
 10
1029.847406140987
 20
49.59214021245884
 30
0.0
 11
1029.847406140987
 21
76.59214021245884
 31
0.0
  0
LINE
  5
166
330
2
100
AcDbEntity
  8
4
100
AcDbLine
 10
1012.147308140988
 20
96.11628787506856
 30
0.0
 11
1012.147308140988
 21
109.1162878750688
 31
0.0
  0
LINE
  5
167
330
2
100
AcDbEntity
  8
4
100
AcDbLine
 10
1004.147308140988
 20
95.36628787506879
 30
0.0
 11
1004.147308140988
 21
109.8662878750687
 31
0.0
  0
ARC
  5
168
330
2
100
AcDbEntity
  8
4
100
AcDbCircle
 10
1026.847406140987
 20
76.59214021245884
 30
0.0
 40
3.0
100
AcDbArc
 50
0.0
 51
90.0
  0
ARC
  5
169
330
2
100
AcDbEntity
  8
4
100
AcDbCircle
 10
989.8474041409877
 20
84.59213821245885
 30
0.0
 40
5.000000999999999
100
AcDbArc
 50
180.0
 51
270.0
  0
ARC
  5
16A
330
2
100
AcDbEntity
  8
4
100
AcDbCircle
 10
970.8474051409877
 20
84.59214021245884
 30
0.0
 40
5.0
100
AcDbArc
 50
180.0
 51
270.0
  0
LINE
  5
16B
330
2
100
AcDbEntity
  8
4
100
AcDbLine
 10
1004.147308140988
 20
96.11628787506856
 30
0.0
 11
1012.147308140988
 21
96.11628787506856
 31
0.0
  0
LINE
  5
16C
330
2
100
AcDbEntity
  8
2
100
AcDbLine
 10
1002.147308140988
 20
99.78786075032258
 30
0.0
 11
1004.147308140988
 21
101.7878607503226
 31
0.0
  0
LINE
  5
16D
330
2
100
AcDbEntity
  8
2
100
AcDbLine
 10
1002.147308140988
 20
102.6162878750688
 30
0.0
 11
1004.147308140988
 21
104.6162878750688
 31
0.0
  0
LINE
  5
16E
330
2
100
AcDbEntity
  8
4
100
AcDbLine
 10
1002.147308140988
 20
95.36628787506879
 30
0.0
 11
1004.147308140988
 21
95.36628787506879
 31
0.0
  0
LINE
  5
16F
330
2
100
AcDbEntity
  8
L-CENTER
100
AcDbLine
 10
1014.124285544885
 20
102.6162878750686
 30
0.0
 11
978.2919122880961
 21
102.6162878750686
 31
0.0
  0
LINE
  5
170
330
2
100
AcDbEntity
  8
4
100
AcDbLine
 10
1002.147308140988
 20
93.09192386807581
 30
0.0
 11
1002.289455885482
 21
95.36628787506879
 31
0.0
  0
LINE
  5
171
330
2
100
AcDbEntity
  8
4
100
AcDbLine
 10
1004.147308140988
 20
109.1162878750688
 30
0.0
 11
1012.147308140988
 21
109.1162878750688
 31
0.0
  0
LINE
  5
172
330
2
100
AcDbEntity
  8
4
100
AcDbLine
 10
1002.147308140988
 20
109.8662878750687
 30
0.0
 11
1004.147308140988
 21
109.8662878750687
 31
0.0
  0
LINE
  5
173
330
2
100
AcDbEntity
  8
4
100
AcDbLine
 10
982.4072901474623
 20
114.5921402124588
 30
0.0
 11
965.8474051409877
 21
114.5921402124588
 31
0.0
  0
LINE
  5
174
330
2
100
AcDbEntity
  8
L-CENTER
100
AcDbLine
 10
896.3035862984499
 20
165.5921402124588
 30
0.0
 11
943.3912239835253
 21
165.5921402124588
 31
0.0
  0
LINE
  5
175
330
2
100
AcDbEntity
  8
L-CENTER
100
AcDbLine
 10
1142.932519498519
 20
225.5918952124588
 30
0.0
 11
696.7622907834557
 21
225.5918952124589
 31
0.0
  0
LINE
  5
176
330
2
100
AcDbEntity
  8
4
100
AcDbLine
 10
821.8474041409876
 20
274.8111342124589
 30
0.0
 11
821.8474041409876
 21
176.3726562124589
 31
0.0
  0
LINE
  5
177
330
2
100
AcDbEntity
  8
4
100
AcDbLine
 10
831.8474041409876
 20
329.0918952124589
 30
0.0
 11
831.8474061409877
 21
173.0918952124589
 31
0.0
  0
ARC
  5
17A
330
2
100
AcDbEntity
  8
4
100
AcDbCircle
 10
-46.69812092351322
 20
225.5918952124589
 30
0.0
 40
600.0
100
AcDbArc
 50
0.0
 51
13.22408700000002
  0
ARC
  5
17B
330
2
100
AcDbEntity
  8
4
100
AcDbCircle
 10
151.8036848920457
 20
225.5917529770051
 30
0.0
 40
299.9981508353503
100
AcDbArc
 50
351.1049822366554
 51
8.895876299519715
  0
ARC
  5
17C
330
2
100
AcDbEntity
  8
4
100
AcDbCircle
 10
149.3018030764867
 20
225.5918952124589
 30
0.0
 40
300.000078
100
AcDbArc
 50
351.5281560000001
 51
8.472550000000014
  0
ARC
  5
17D
330
2
100
AcDbEntity
  8
4
100
AcDbCircle
 10
646.7999179247339
 20
225.591752851458
 30
0.0
 40
299.998152498557
100
AcDbArc
 50
171.1041237259299
 51
188.8960607856627
  0
ARC
  5
17E
330
2
100
AcDbEntity
  8
4
100
AcDbCircle
 10
649.3018010764868
 20
225.5918952124589
 30
0.0
 40
300.000087
100
AcDbArc
 50
171.52778
 51
188.4728329999999
  0
LINE
  5
17F
330
2
100
AcDbEntity
  8
4
100
AcDbLine
 10
455.7664010764868
 20
194.0926272124589
 30
0.0
 11
522.6411560764867
 21
199.9935072124589
 31
0.0
  0
ARC
  5
180
330
2
100
AcDbEntity
  8
4
100
AcDbCircle
 10
399.3018020764868
 20
473.0918952124589
 30
0.0
 40
299.999985
100
AcDbArc
 50
261.104534
 51
278.896406
  0
ARC
  5
181
330
2
100
AcDbEntity
  8
4
100
AcDbCircle
 10
399.3018020764868
 20
475.5918942124588
 30
0.0
 40
299.999946
100
AcDbArc
 50
261.527725
 51
278.473215
  0
ARC
  5
182
330
2
100
AcDbEntity
  8
4
100
AcDbCircle
 10
355.5430130764868
 20
181.8331062124589
 30
0.0
 40
3.000009
100
AcDbArc
 50
188.4703659999997
 51
261.5296340000003
  0
ARC
  5
183
330
2
100
AcDbEntity
  8
4
100
AcDbCircle
 10
353.3743100764867
 20
179.6644032124589
 30
0.0
 40
2.999946
100
AcDbArc
 50
188.895053
 51
261.1049469999999
  0
ARC
  5
184
330
2
100
AcDbEntity
  8
4
100
AcDbCircle
 10
360.8296340764867
 20
168.5120622124589
 30
0.0
 40
7.000010999999999
100
AcDbArc
 50
5.042272999999931
 51
82.7991420000002
  0
ARC
  5
185
330
2
100
AcDbEntity
  8
4
100
AcDbCircle
 10
443.0605910764867
 20
181.8331062124589
 30
0.0
 40
3.000009
100
AcDbArc
 50
278.4703469999997
 51
351.5296310000003
  0
ARC
  5
186
330
2
100
AcDbEntity
  8
4
100
AcDbCircle
 10
445.2292910764867
 20
179.6644032124589
 30
0.0
 40
2.999946
100
AcDbArc
 50
278.895053
 51
351.104947
  0
ARC
  5
187
330
2
100
AcDbEntity
  8
4
100
AcDbCircle
 10
437.7739700764868
 20
168.5120622124589
 30
0.0
 40
7.000010999999999
100
AcDbArc
 50
97.20086599999989
 51
174.9577280000002
  0
ARC
  5
188
330
2
100
AcDbEntity
  8
4
100
AcDbCircle
 10
342.2219690764867
 20
187.1197272124589
 30
0.0
 40
7.000010999999999
100
AcDbArc
 50
7.200857999999826
 51
84.95772700000009
  0
ARC
  5
189
330
2
100
AcDbEntity
  8
4
100
AcDbCircle
 10
456.3816350764868
 20
187.1197272124589
 30
0.0
 40
7.000010999999999
100
AcDbArc
 50
95.04228100000003
 51
172.7991429999999
  0
ARC
  5
18A
330
2
100
AcDbEntity
  8
4
100
AcDbCircle
 10
555.3018030764863
 20
185.5921402124588
 30
0.0
 40
2.0
100
AcDbArc
 50
180.0
 51
270.0
  0
LINE
  5
18B
330
2
100
AcDbEntity
  8
4
100
AcDbLine
 10
555.3018030764863
 20
183.5921402124588
 30
0.0
 11
556.3018030764867
 21
183.5921402124588
 31
0.0
  0
ARC
  5
18C
330
2
100
AcDbEntity
  8
4
100
AcDbCircle
 10
523.0806110764868
 20
195.0130362124588
 30
0.0
 40
5.000004000000001
100
AcDbArc
 50
346.1225319999996
 51
95.04220400000023
  0
LINE
  5
18D
330
2
100
AcDbEntity
  8
4
100
AcDbLine
 10
455.7664010764868
 20
257.0911632124589
 30
0.0
 11
522.6411560764867
 21
251.1902832124589
 31
0.0
  0
ARC
  5
18E
330
2
100
AcDbEntity
  8
4
100
AcDbCircle
 10
342.2219690764867
 20
264.0640632124589
 30
0.0
 40
7.000010999999999
100
AcDbArc
 50
275.0422719999998
 51
352.7991340000001
  0
ARC
  5
18F
330
2
100
AcDbEntity
  8
4
100
AcDbCircle
 10
456.3816350764868
 20
264.0640632124589
 30
0.0
 40
7.000014
100
AcDbArc
 50
187.2008649999996
 51
264.9577199999999
  0
ARC
  5
190
330
2
100
AcDbEntity
  8
4
100
AcDbCircle
 10
523.0806110764868
 20
256.1707512124589
 30
0.0
 40
5.000004000000001
100
AcDbArc
 50
264.9577959999997
 51
13.87746800000037
  0
ARC
  5
192
330
2
100
AcDbEntity
  8
4
100
AcDbCircle
 10
822.8474061409877
 20
176.3726562124589
 30
0.0
 40
1.000023
100
AcDbArc
 50
180.0
 51
255.9705240000025
  0
LINE
  5
193
330
2
100
AcDbEntity
  8
4
100
AcDbLine
 10
822.6049731409877
 20
175.4024412124588
 30
0.0
 11
831.8474061409877
 21
173.0918952124589
 31
0.0
  0
LINE
  5
194
330
2
100
AcDbEntity
  8
4
100
AcDbLine
 10
831.8474061409877
 20
193.5918942124589
 30
0.0
 11
839.8474041409876
 21
200.5918962124589
 31
0.0
  0
LINE
  5
199
330
2
100
AcDbEntity
  8
4
100
AcDbLine
 10
831.8474061409877
 20
257.5918962124589
 30
0.0
 11
839.8474041409876
 21
250.5918942124589
 31
0.0
  0
ARC
  5
19B
330
2
100
AcDbEntity
  8
4
100
AcDbCircle
 10
399.3018020764868
 20
-24.40801378754122
 30
0.0
 40
299.999985
100
AcDbArc
 50
81.52744899999996
 51
98.47292999999999
  0
ARC
  5
19C
330
2
100
AcDbEntity
  8
4
100
AcDbCircle
 10
399.3018020764868
 20
-21.90801478754111
 30
0.0
 40
299.999937
100
AcDbArc
 50
81.10415900000002
 51
98.89617400000002
  0
ARC
  5
19D
330
2
100
AcDbEntity
  8
4
100
AcDbCircle
 10
355.5430130764868
 20
269.3506842124589
 30
0.0
 40
3.000009
100
AcDbArc
 50
98.47036899999989
 51
171.5296530000003
  0
ARC
  5
19E
330
2
100
AcDbEntity
  8
4
100
AcDbCircle
 10
353.3743100764867
 20
271.5193842124588
 30
0.0
 40
2.999946
100
AcDbArc
 50
98.89505300000005
 51
171.104947000001
  0
ARC
  5
19F
330
2
100
AcDbEntity
  8
4
100
AcDbCircle
 10
443.0605910764867
 20
269.3506842124589
 30
0.0
 40
3.000009
100
AcDbArc
 50
8.470349999999579
 51
81.52965000000026
  0
ARC
  5
1A0
330
2
100
AcDbEntity
  8
4
100
AcDbCircle
 10
445.2292910764867
 20
271.5193842124588
 30
0.0
 40
2.999946
100
AcDbArc
 50
8.895052999998969
 51
81.10494699999997
  0
LINE
  5
1A1
330
2
100
AcDbEntity
  8
4
100
AcDbLine
 10
550.3018010764868
 20
308.5918962124588
 30
0.0
 11
547.5332480764868
 21
308.5918962124588
 31
0.0
  0
LINE
  5
1A2
330
2
100
AcDbEntity
  8
4
100
AcDbLine
 10
545.3018030764867
 20
358.5918942124588
 30
0.0
 11
545.3018030764867
 21
323.2442382124589
 31
0.0
  0
LINE
  5
1A3
330
2
100
AcDbEntity
  8
4
100
AcDbLine
 10
551.3018030764867
 20
333.5918952124589
 30
0.0
 11
550.3018010764868
 21
333.5918952124589
 31
0.0
  0
ARC
  5
1A5
330
2
100
AcDbEntity
  8
4
100
AcDbCircle
 10
550.3018010764868
 20
358.5918942124588
 30
0.0
 40
5.000025
100
AcDbArc
 50
131.7222959999999
 51
180.0
  0
ARC
  5
1A6
330
2
100
AcDbEntity
  8
4
100
AcDbCircle
 10
532.5242150764867
 20
361.7039562124589
 30
0.0
 40
4.999965
100
AcDbArc
 50
13.2240239999997
 51
78.95068900000003
  0
LINE
  5
1A9
330
2
100
AcDbEntity
  8
4
100
AcDbLine
 10
839.8474041409876
 20
342.0918942124588
 30
0.0
 11
831.8474061409877
 21
278.0918952124589
 31
0.0
  0
ARC
  5
1AB
330
2
100
AcDbEntity
  8
4
100
AcDbCircle
 10
822.8474061409877
 20
274.8111342124589
 30
0.0
 40
1.000023
100
AcDbArc
 50
104.0294759999975
 51
180.0
  0
LINE
  5
1AC
330
2
100
AcDbEntity
  8
4
100
AcDbLine
 10
822.6049731409877
 20
275.7813492124587
 30
0.0
 11
831.8474061409877
 21
278.0918952124589
 31
0.0
  0
LINE
  5
1AD
330
2
100
AcDbEntity
  8
4
100
AcDbLine
 10
832.8474041409876
 20
330.0918952124589
 30
0.0
 11
837.4646219224504
 21
330.0918952124589
 31
0.0
  0
ARC
  5
1AE
330
2
100
AcDbEntity
  8
4
100
AcDbCircle
 10
832.8474041409876
 20
329.0918952124589
 30
0.0
 40
1.0
100
AcDbArc
 50
90.0
 51
180.0
  0
ARC
  5
1AF
330
2
100
AcDbEntity
  8
4
100
AcDbCircle
 10
837.4646219224504
 20
331.0918952124589
 30
0.0
 40
1.0
100
AcDbArc
 50
270.0
 51
352.8749836511015
  0
LINE
  5
1B1
330
2
100
AcDbEntity
  8
4
100
AcDbLine
 10
1018.147307140988
 20
274.7935542124587
 30
0.0
 11
1018.147307140988
 21
176.3902332124588
 31
0.0
  0
LINE
  5
1B3
330
2
100
AcDbEntity
  8
4
100
AcDbLine
 10
1007.147306140987
 20
278.0918952124589
 30
0.0
 11
1007.147306140987
 21
232.091895212459
 31
0.0
  0
LINE
  5
1B4
330
2
100
AcDbEntity
  8
4
100
AcDbLine
 10
1007.147306140988
 20
219.0918952124589
 30
0.0
 11
1007.147306140987
 21
173.0918952124589
 31
0.0
  0
LINE
  5
1B5
330
2
100
AcDbEntity
  8
4
100
AcDbLine
 10
1138.847405140988
 20
249.5918952124589
 30
0.0
 11
1138.847405140988
 21
201.5918952124589
 31
0.0
  0
LINE
  5
1B6
330
2
100
AcDbEntity
  8
4
100
AcDbLine
 10
1139.847404140988
 20
253.0918962124589
 30
0.0
 11
1139.847404140988
 21
202.5918942124589
 31
0.0
  0
LINE
  5
1B7
330
2
100
AcDbEntity
  8
4
100
AcDbLine
 10
1039.847405140988
 20
250.5918942124589
 30
0.0
 11
1039.847405140988
 21
200.5918962124589
 31
0.0
  0
LINE
  5
1B8
330
2
100
AcDbEntity
  8
4
100
AcDbLine
 10
1019.147306140987
 20
225.5918952124589
 30
0.0
 11
1019.147306140987
 21
189.5918952124589
 31
0.0
  0
LINE
  5
1B9
330
2
100
AcDbEntity
  8
4
100
AcDbLine
 10
1039.847405140988
 20
201.5918952124589
 30
0.0
 11
1138.847405140988
 21
201.5918952124589
 31
0.0
  0
ARC
  5
1BA
330
2
100
AcDbEntity
  8
4
100
AcDbCircle
 10
1017.147308140988
 20
176.3902332124588
 30
0.0
 40
0.99999
100
AcDbArc
 50
282.8080120000009
 51
0.0
  0
LINE
  5
1BB
330
2
100
AcDbEntity
  8
4
100
AcDbLine
 10
1017.368987140987
 20
175.4148942124589
 30
0.0
 11
1007.147306140987
 21
173.0918952124589
 31
0.0
  0
LINE
  5
1BC
330
2
100
AcDbEntity
  8
4
100
AcDbLine
 10
1019.147306140987
 20
200.5918962124589
 30
0.0
 11
1039.847405140988
 21
200.5918962124589
 31
0.0
  0
LINE
  5
1BD
330
2
100
AcDbEntity
  8
4
100
AcDbLine
 10
1019.147306140987
 20
189.5918952124589
 30
0.0
 11
1018.147307140988
 21
189.5918952124589
 31
0.0
  0
LINE
  5
1BE
330
2
100
AcDbEntity
  8
4
100
AcDbLine
 10
1002.147308140988
 20
200.5918962124589
 30
0.0
 11
1007.147306140987
 21
193.5918942124589
 31
0.0
  0
LINE
  5
1BF
330
2
100
AcDbEntity
  8
4
100
AcDbLine
 10
1138.847405140988
 20
201.5918952124589
 30
0.0
 11
1139.847404140988
 21
202.5918942124589
 31
0.0
  0
LINE
  5
1C0
330
2
100
AcDbEntity
  8
4
100
AcDbLine
 10
1039.847405140988
 20
249.5918952124589
 30
0.0
 11
1138.847405140988
 21
249.5918952124589
 31
0.0
  0
LINE
  5
1C1
330
2
100
AcDbEntity
  8
4
100
AcDbLine
 10
1139.847404140988
 20
253.0918962124589
 30
0.0
 11
1049.847404140988
 21
253.0918962124589
 31
0.0
  0
LINE
  5
1C2
330
2
100
AcDbEntity
  8
4
100
AcDbLine
 10
1019.147306140987
 20
225.5918952124589
 30
0.0
 11
1019.147306140987
 21
261.5918952124589
 31
0.0
  0
LINE
  5
1C3
330
2
100
AcDbEntity
  8
4
100
AcDbLine
 10
1004.147308140988
 20
232.091895212459
 30
0.0
 11
1012.147308140988
 21
232.091895212459
 31
0.0
  0
LINE
  5
1C4
330
2
100
AcDbEntity
  8
4
100
AcDbLine
 10
1002.147308140988
 20
232.841895212459
 30
0.0
 11
1004.147308140988
 21
232.841895212459
 31
0.0
  0
LINE
  5
1C5
330
2
100
AcDbEntity
  8
4
100
AcDbLine
 10
1004.147308140988
 20
219.0918952124589
 30
0.0
 11
1012.147308140988
 21
219.0918952124589
 31
0.0
  0
LINE
  5
1C6
330
2
100
AcDbEntity
  8
2
100
AcDbLine
 10
1002.147308140988
 20
225.591895212459
 30
0.0
 11
1004.147308140988
 21
227.591895212459
 31
0.0
  0
LINE
  5
1C7
330
2
100
AcDbEntity
  8
2
100
AcDbLine
 10
1002.147308140988
 20
222.7634680877128
 30
0.0
 11
1004.147308140988
 21
224.7634680877128
 31
0.0
  0
LINE
  5
1C8
330
2
100
AcDbEntity
  8
4
100
AcDbLine
 10
1002.147308140988
 20
218.341895212459
 30
0.0
 11
1004.147308140988
 21
218.341895212459
 31
0.0
  0
LINE
  5
1C9
330
2
100
AcDbEntity
  8
4
100
AcDbLine
 10
1012.147308140988
 20
219.0918952124589
 30
0.0
 11
1012.147308140988
 21
232.091895212459
 31
0.0
  0
LINE
  5
1CA
330
2
100
AcDbEntity
  8
4
100
AcDbLine
 10
1004.147308140988
 20
218.341895212459
 30
0.0
 11
1004.147308140988
 21
232.841895212459
 31
0.0
  0
LINE
  5
1CB
330
2
100
AcDbEntity
  8
4
100
AcDbLine
 10
1039.847405140988
 20
250.5918942124589
 30
0.0
 11
1019.147306140987
 21
250.5918942124589
 31
0.0
  0
LINE
  5
1CC
330
2
100
AcDbEntity
  8
4
100
AcDbLine
 10
1019.147306140987
 20
261.5918952124589
 30
0.0
 11
1018.147307140988
 21
261.5918952124589
 31
0.0
  0
LINE
  5
1CD
330
2
100
AcDbEntity
  8
4
100
AcDbLine
 10
1002.147308140988
 20
250.5918942124589
 30
0.0
 11
1007.147306140987
 21
257.5918962124589
 31
0.0
  0
LINE
  5
1CE
330
2
100
AcDbEntity
  8
4
100
AcDbLine
 10
1049.847404140988
 20
253.0918962124589
 30
0.0
 11
1049.847404140988
 21
249.5918952124589
 31
0.0
  0
LINE
  5
1D2
330
2
100
AcDbEntity
  8
4
100
AcDbLine
 10
1139.847404140988
 20
248.5918962124589
 30
0.0
 11
1138.847405140988
 21
249.5918952124589
 31
0.0
  0
LINE
  5
1D3
330
2
100
AcDbEntity
  8
4
100
AcDbLine
 10
1003.195705847596
 20
341.317502549849
 30
0.0
 11
1007.147306140987
 21
278.0918952124589
 31
0.0
  0
ARC
  5
1D6
330
2
100
AcDbEntity
  8
4
100
AcDbCircle
 10
1017.147308140988
 20
274.7935542124587
 30
0.0
 40
0.99999
100
AcDbArc
 50
0.0
 51
77.19198799999913
  0
LINE
  5
1D7
330
2
100
AcDbEntity
  8
4
100
AcDbLine
 10
1017.368987140987
 20
275.7688962124589
 30
0.0
 11
1007.147306140987
 21
278.0918952124589
 31
0.0
  0
LINE
  5
1DA
330
2
100
AcDbEntity
  8
2
100
AcDbLine
 10
1002.147308140988
 20
345.7390754251028
 30
0.0
 11
1004.147308140988
 21
347.7390754251028
 31
0.0
  0
LINE
  5
1DB
330
2
100
AcDbEntity
  8
4
100
AcDbLine
 10
1012.147308140988
 20
342.067502549849
 30
0.0
 11
1012.147308140988
 21
355.067502549849
 31
0.0
  0
LINE
  5
1DC
330
2
100
AcDbEntity
  8
4
100
AcDbLine
 10
1004.147308140988
 20
341.317502549849
 30
0.0
 11
1004.147308140988
 21
355.817502549849
 31
0.0
  0
LINE
  5
1DD
330
2
100
AcDbEntity
  8
4
100
AcDbLine
 10
1004.147308140988
 20
342.067502549849
 30
0.0
 11
1012.147308140988
 21
342.067502549849
 31
0.0
  0
LINE
  5
1DE
330
2
100
AcDbEntity
  8
4
100
AcDbLine
 10
1002.147308140988
 20
341.317502549849
 30
0.0
 11
1004.147308140988
 21
341.317502549849
 31
0.0
  0
LINE
  5
1DF
330
2
100
AcDbEntity
  8
2
100
AcDbLine
 10
1002.147308140988
 20
348.567502549849
 30
0.0
 11
1004.147308140988
 21
350.567502549849
 31
0.0
  0
LINE
  5
1E0
330
2
100
AcDbEntity
  8
4
100
AcDbLine
 10
1004.147308140988
 20
355.067502549849
 30
0.0
 11
1012.147308140988
 21
355.067502549849
 31
0.0
  0
LINE
  5
1E1
330
2
100
AcDbEntity
  8
4
100
AcDbLine
 10
1002.147308140988
 20
355.817502549849
 30
0.0
 11
1004.147308140988
 21
355.817502549849
 31
0.0
  0
LINE
  5
1E2
330
2
100
AcDbEntity
  8
4
100
AcDbLine
 10
1002.147308140988
 20
358.0918665568418
 30
0.0
 11
1002.289455885482
 21
355.817502549849
 31
0.0
  0
LINE
  5
1E3
330
2
100
AcDbEntity
  8
L-CENTER
100
AcDbLine
 10
1015.95297437706
 20
348.567502549849
 30
0.0
 11
978.2919122880961
 21
348.567502549849
 31
0.0
  0
LINE
  5
1E4
330
2
100
AcDbEntity
  8
4
100
AcDbLine
 10
545.3018020764866
 20
855.629962215043
 30
0.0
 11
545.3018020764866
 21
798.1797966503138
 31
0.0
  0
LINE
  5
1E5
330
2
100
AcDbEntity
  8
4
100
AcDbLine
 10
253.3018020764867
 20
855.6299622150432
 30
0.0
 11
253.3018020764867
 21
798.1797966503138
 31
0.0
  0
LINE
  5
1E6
330
2
100
AcDbEntity
  8
4
100
AcDbLine
 10
553.3018020764869
 20
929.1797966503138
 30
0.0
 11
553.3018020764868
 21
797.1797966503138
 31
0.0
  0
LINE
  5
1E7
330
2
100
AcDbEntity
  8
4
100
AcDbLine
 10
551.3018030764867
 20
903.1797986503138
 30
0.0
 11
551.3018030764867
 21
823.1797976503137
 31
0.0
  0
LINE
  5
1E8
330
2
100
AcDbEntity
  8
4
100
AcDbLine
 10
247.3018010764868
 20
903.1797986503138
 30
0.0
 11
247.3018010764868
 21
823.1797976503137
 31
0.0
  0
LINE
  5
1E9
330
2
100
AcDbEntity
  8
4
100
AcDbLine
 10
248.3018020764868
 20
928.1797966503143
 30
0.0
 11
248.3018020764867
 21
798.1797966503136
 31
0.0
  0
LINE
  5
1EA
330
2
100
AcDbEntity
  8
4
100
AcDbLine
 10
550.3018020764865
 20
928.1797966503138
 30
0.0
 11
550.3018020764866
 21
798.1797966503138
 31
0.0
  0
LINE
  5
1EB
330
2
100
AcDbEntity
  8
4
100
AcDbLine
 10
245.3018020764868
 20
929.1797966503141
 30
0.0
 11
245.3018020764868
 21
797.1797966503138
 31
0.0
  0
LINE
  5
1EC
330
2
100
AcDbEntity
  8
4
100
AcDbLine
 10
569.3018020764868
 20
761.1797966503138
 30
0.0
 11
569.3018020764868
 21
965.1797966503138
 31
0.0
  0
LINE
  5
1ED
330
2
100
AcDbEntity
  8
L-CENTER
100
AcDbLine
 10
399.3018020764868
 20
1088.843813844916
 30
0.0
 11
399.3018020764868
 21
635.3481925683329
 31
0.0
  0
LINE
  5
1EE
330
2
100
AcDbEntity
  8
4
100
AcDbLine
 10
229.3018020764868
 20
761.179796650314
 30
0.0
 11
229.3018020764868
 21
965.1797966503138
 31
0.0
  0
LINE
  5
1EF
330
2
100
AcDbEntity
  8
4
100
AcDbLine
 10
553.3018020764868
 20
797.1797966503138
 30
0.0
 11
245.3018020764868
 21
797.1797966503138
 31
0.0
  0
LINE
  5
1F0
330
2
100
AcDbEntity
  8
4
100
AcDbLine
 10
550.3018020764866
 20
798.1797966503138
 30
0.0
 11
248.3018020764867
 21
798.1797966503138
 31
0.0
  0
LINE
  5
1F1
330
2
100
AcDbEntity
  8
4
100
AcDbLine
 10
347.3018020764867
 20
774.0389162852568
 30
0.0
 11
270.0261816750875
 21
783.1797966503138
 31
0.0
  0
LINE
  5
1F2
330
2
100
AcDbEntity
  8
4
100
AcDbLine
 10
347.3018020764867
 20
774.0053742807863
 30
0.0
 11
269.1816652797564
 21
783.1797966503138
 31
0.0
  0
LINE
  5
1F3
330
2
100
AcDbEntity
  8
4
100
AcDbLine
 10
347.3219477376671
 20
773.0992140055916
 30
0.0
 11
266.6772865798886
 21
783.1797966503138
 31
0.0
  0
LINE
  5
1F4
330
2
100
AcDbEntity
  8
4
100
AcDbLine
 10
247.3018020764868
 20
783.1797966503138
 30
0.0
 11
551.3018020764869
 21
783.1797966503138
 31
0.0
  0
LINE
  5
1F5
330
2
100
AcDbEntity
  8
4
100
AcDbLine
 10
253.3018010764868
 20
442.5918942124588
 30
0.0
 11
545.3018030764867
 21
442.5918942124588
 31
0.0
  0
LINE
  5
1F6
330
2
100
AcDbEntity
  8
L-CENTER
100
AcDbLine
 10
558.4454984145459
 20
373.5918942124588
 30
0.0
 11
146.6401062991384
 21
373.5918942124588
 31
0.0
  0
LINE
  5
1FA
330
2
100
AcDbEntity
  8
4
100
AcDbLine
 10
253.3018010764868
 20
388.5918942124588
 30
0.0
 11
253.3018010764868
 21
442.5918942124588
 31
0.0
  0
ARC
  5
1FB
330
2
100
AcDbEntity
  8
4
100
AcDbCircle
 10
248.3018030764867
 20
388.5918942124588
 30
0.0
 40
4.999998
100
AcDbArc
 50
309.5433219999999
 51
0.0
  0
LINE
  5
1FC
330
2
100
AcDbEntity
  8
4
100
AcDbLine
 10
247.3018010764868
 20
413.5918962124588
 30
0.0
 11
248.3018030764867
 21
413.5918962124588
 31
0.0
  0
LINE
  5
1FD
330
2
100
AcDbEntity
  8
L-CENTER
100
AcDbLine
 10
261.3018010764868
 20
469.129300212459
 30
0.0
 11
261.3018010764868
 21
433.5434172124587
 31
0.0
  0
LINE
  5
1FE
330
2
100
AcDbEntity
  8
4
100
AcDbLine
 10
271.3018030764867
 20
451.5918942124588
 30
0.0
 11
271.3018030764867
 21
461.5918962124588
 31
0.0
  0
LINE
  5
1FF
330
2
100
AcDbEntity
  8
L-CENTER
100
AcDbLine
 10
304.3018010764868
 20
455.2726122124589
 30
0.0
 11
304.3018010764868
 21
427.3875968488221
 31
0.0
  0
LINE
  5
200
330
2
100
AcDbEntity
  8
4
100
AcDbLine
 10
251.3018020764868
 20
451.5918942124588
 30
0.0
 11
251.3018020764868
 21
461.5918962124588
 31
0.0
  0
ARC
  5
201
330
2
100
AcDbEntity
  8
4
100
AcDbCircle
 10
251.3018020764868
 20
447.5918952124589
 30
0.0
 40
3.999999
100
AcDbArc
 50
0.0
 51
90.0
  0
LINE
  5
202
330
2
100
AcDbEntity
  8
4
100
AcDbLine
 10
253.3018010764868
 20
438.5918952124589
 30
0.0
 11
248.3018030764867
 21
438.5918952124589
 31
0.0
  0
LINE
  5
203
330
2
100
AcDbEntity
  8
4
100
AcDbLine
 10
251.3018020764868
 20
451.5918942124588
 30
0.0
 11
261.3018010764868
 21
451.5918942124588
 31
0.0
  0
LINE
  5
204
330
2
100
AcDbEntity
  8
4
100
AcDbLine
 10
323.3018030764867
 20
444.5918952124589
 30
0.0
 11
323.3018030764867
 21
442.5918942124588
 31
0.0
  0
LINE
  5
205
330
2
100
AcDbEntity
  8
4
100
AcDbLine
 10
310.5518030764867
 20
448.0918962124588
 30
0.0
 11
310.5518030764867
 21
452.0918952124589
 31
0.0
  0
LINE
  5
206
330
2
100
AcDbEntity
  8
4
100
AcDbLine
 10
315.8018030764867
 20
444.5918952124589
 30
0.0
 11
315.8018030764867
 21
446.0918952124589
 31
0.0
  0
LINE
  5
207
330
2
100
AcDbEntity
  8
4
100
AcDbLine
 10
316.8018020764868
 20
446.0918952124589
 30
0.0
 11
316.8018020764868
 21
452.0918952124589
 31
0.0
  0
LINE
  5
208
330
2
100
AcDbEntity
  8
4
100
AcDbLine
 10
298.0518020764868
 20
448.0918962124588
 30
0.0
 11
298.0518020764868
 21
452.0918952124589
 31
0.0
  0
LINE
  5
209
330
2
100
AcDbEntity
  8
4
100
AcDbLine
 10
291.8018030764867
 20
446.0918952124589
 30
0.0
 11
291.8018030764867
 21
452.0918952124589
 31
0.0
  0
LINE
  5
20A
330
2
100
AcDbEntity
  8
4
100
AcDbLine
 10
292.8018020764868
 20
444.5918952124589
 30
0.0
 11
292.8018020764868
 21
446.0918952124589
 31
0.0
  0
LINE
  5
20B
330
2
100
AcDbEntity
  8
4
100
AcDbLine
 10
285.3018020764868
 20
444.5918952124589
 30
0.0
 11
285.3018020764868
 21
442.5918942124588
 31
0.0
  0
ARC
  5
20C
330
2
100
AcDbEntity
  8
4
100
AcDbCircle
 10
271.3018030764867
 20
447.5918952124589
 30
0.0
 40
3.999999
100
AcDbArc
 50
90.0
 51
180.0
  0
LINE
  5
20D
330
2
100
AcDbEntity
  8
4
100
AcDbLine
 10
267.3018010764868
 20
442.5918942124588
 30
0.0
 11
267.3018010764868
 21
447.5918952124589
 31
0.0
  0
ARC
  5
20E
330
2
100
AcDbEntity
  8
4
100
AcDbCircle
 10
264.3018010764868
 20
442.5918942124588
 30
0.0
 40
5.000000999999999
100
AcDbArc
 50
53.13010199999971
 51
126.8698980000008
  0
LINE
  5
20F
330
2
100
AcDbEntity
  8
4
100
AcDbLine
 10
271.3018030764867
 20
451.5918942124588
 30
0.0
 11
261.3018010764868
 21
451.5918942124588
 31
0.0
  0
LINE
  5
210
330
2
100
AcDbEntity
  8
4
100
AcDbLine
 10
255.3018010764868
 20
442.5918942124588
 30
0.0
 11
255.3018010764868
 21
447.5918952124589
 31
0.0
  0
ARC
  5
211
330
2
100
AcDbEntity
  8
4
100
AcDbCircle
 10
258.3018010764868
 20
442.5918942124588
 30
0.0
 40
5.000000999999999
100
AcDbArc
 50
53.13010199999971
 51
126.8698980000006
  0
LINE
  5
212
330
2
100
AcDbEntity
  8
4
100
AcDbLine
 10
258.3018010764868
 20
447.5918952124589
 30
0.0
 11
264.3018010764868
 21
447.5918952124589
 31
0.0
  0
LINE
  5
213
330
2
100
AcDbEntity
  8
4
100
AcDbLine
 10
291.8018030764867
 20
452.0918952124589
 30
0.0
 11
316.8018020764868
 21
452.0918952124589
 31
0.0
  0
LINE
  5
214
330
2
100
AcDbEntity
  8
4
100
AcDbLine
 10
291.8018030764867
 20
446.0918952124589
 30
0.0
 11
316.8018020764868
 21
446.0918952124589
 31
0.0
  0
LINE
  5
215
330
2
100
AcDbEntity
  8
4
100
AcDbLine
 10
291.8018030764867
 20
448.0918962124588
 30
0.0
 11
316.8018020764868
 21
448.0918962124588
 31
0.0
  0
LINE
  5
216
330
2
100
AcDbEntity
  8
4
100
AcDbLine
 10
288.3018020764868
 20
444.5918952124589
 30
0.0
 11
320.3018030764867
 21
444.5918952124589
 31
0.0
  0
LINE
  5
217
330
2
100
AcDbEntity
  8
4
100
AcDbLine
 10
285.3018020764868
 20
444.5918952124589
 30
0.0
 11
323.3018030764867
 21
444.5918952124589
 31
0.0
  0
LINE
  5
218
330
2
100
AcDbEntity
  8
4
100
AcDbLine
 10
250.3018030764867
 20
463.5918942124588
 30
0.0
 11
261.3018010764868
 21
463.5918942124588
 31
0.0
  0
LINE
  5
219
330
2
100
AcDbEntity
  8
4
100
AcDbLine
 10
261.3018010764868
 20
461.5918962124588
 30
0.0
 11
250.3018030764867
 21
461.5918962124588
 31
0.0
  0
LINE
  5
21A
330
2
100
AcDbEntity
  8
4
100
AcDbLine
 10
252.3018010764868
 20
464.5918962124588
 30
0.0
 11
261.3018010764868
 21
464.5918962124588
 31
0.0
  0
LINE
  5
21B
330
2
100
AcDbEntity
  8
4
100
AcDbLine
 10
252.3018010764868
 20
464.5918962124588
 30
0.0
 11
250.3018030764867
 21
463.5918942124588
 31
0.0
  0
LINE
  5
21C
330
2
100
AcDbEntity
  8
4
100
AcDbLine
 10
250.3018030764867
 20
463.5918942124588
 30
0.0
 11
250.3018030764867
 21
461.5918962124588
 31
0.0
  0
LINE
  5
21D
330
2
100
AcDbEntity
  8
4
100
AcDbLine
 10
272.3018020764868
 20
463.5918942124588
 30
0.0
 11
272.3018020764868
 21
461.5918962124588
 31
0.0
  0
LINE
  5
21E
330
2
100
AcDbEntity
  8
4
100
AcDbLine
 10
270.3018010764868
 20
464.5918962124588
 30
0.0
 11
272.3018020764868
 21
463.5918942124588
 31
0.0
  0
LINE
  5
21F
330
2
100
AcDbEntity
  8
4
100
AcDbLine
 10
261.3018010764868
 20
461.5918962124588
 30
0.0
 11
272.3018020764868
 21
461.5918962124588
 31
0.0
  0
LINE
  5
220
330
2
100
AcDbEntity
  8
4
100
AcDbLine
 10
270.3018010764868
 20
464.5918962124588
 30
0.0
 11
261.3018010764868
 21
464.5918962124588
 31
0.0
  0
LINE
  5
221
330
2
100
AcDbEntity
  8
4
100
AcDbLine
 10
272.3018020764868
 20
463.5918942124588
 30
0.0
 11
261.3018010764868
 21
463.5918942124588
 31
0.0
  0
LINE
  5
226
330
2
100
AcDbEntity
  8
4
100
AcDbLine
 10
289.3018020764868
 20
756.1797966503138
 30
0.0
 11
289.3018020764867
 21
780.3517322132388
 31
0.0
  0
LINE
  5
227
330
2
100
AcDbEntity
  8
L-CENTER
100
AcDbLine
 10
253.3018020764868
 20
807.6717462399986
 30
0.0
 11
253.3018020764868
 21
768.6878470606297
 31
0.0
  0
ARC
  5
228
330
2
100
AcDbEntity
  8
4
100
AcDbCircle
 10
253.3018020764868
 20
788.1797966503138
 30
0.0
 40
10.0
100
AcDbArc
 50
126.8698976458441
 51
329.9999999999985
  0
ARC
  5
229
330
2
100
AcDbEntity
  8
4
100
AcDbCircle
 10
237.3018020764868
 20
761.179796650314
 30
0.0
 40
8.0
100
AcDbArc
 50
180.0
 51
269.9999999999998
  0
LINE
  5
22A
330
2
100
AcDbEntity
  8
4
100
AcDbLine
 10
237.3018020764868
 20
753.179796650314
 30
0.0
 11
286.3018020764868
 21
753.1797966503138
 31
0.0
  0
ARC
  5
22B
330
2
100
AcDbEntity
  8
4
100
AcDbCircle
 10
286.3018020764868
 20
756.1797966503138
 30
0.0
 40
3.0
100
AcDbArc
 50
270.0
 51
0.0
  0
LINE
  5
22C
330
2
100
AcDbEntity
  8
L-CENTER
100
AcDbLine
 10
233.8098524868024
 20
788.1797966503138
 30
0.0
 11
272.7937516661711
 21
788.1797966503141
 31
0.0
  0
LINE
  5
22D
330
2
100
AcDbEntity
  8
4
100
AcDbLine
 10
247.3018020764867
 20
797.1797966503138
 30
0.0
 11
247.3018020764868
 21
783.1797966503138
 31
0.0
  0
LINE
  5
22E
330
2
100
AcDbEntity
  8
4
100
AcDbLine
 10
247.3018010764868
 20
823.1797976503137
 30
0.0
 11
248.3018030764868
 21
823.1797976503137
 31
0.0
  0
LINE
  5
230
330
2
100
AcDbEntity
  8
4
100
AcDbLine
 10
939.8474061409876
 20
444.5918952124589
 30
0.0
 11
919.8474051409877
 21
444.5918952124589
 31
0.0
  0
ARC
  5
231
330
2
100
AcDbEntity
  8
4
100
AcDbCircle
 10
919.8474051409877
 20
-157.4080127875411
 30
0.0
 40
599.999967
100
AcDbArc
 50
84.518608
 51
95.481789
  0
LINE
  5
232
330
2
100
AcDbEntity
  8
L-CENTER
100
AcDbLine
 10
993.9017269171155
 20
373.5918942124588
 30
0.0
 11
845.7930833648599
 21
373.5918942124588
 31
0.0
  0
LINE
  5
234
330
2
100
AcDbEntity
  8
4
100
AcDbLine
 10
914.8474041409876
 20
466.5918942124588
 30
0.0
 11
914.8474041409876
 21
490.5918942124588
 31
0.0
  0
LINE
  5
235
330
2
100
AcDbEntity
  8
4
100
AcDbLine
 10
924.8474061409876
 20
466.5918942124588
 30
0.0
 11
924.8474061409876
 21
490.5918942124588
 31
0.0
  0
CIRCLE
  5
237
330
2
100
AcDbEntity
  8
4
100
AcDbCircle
 10
399.3018020764868
 20
470.5918962124588
 30
0.0
 40
15.0
  0
ARC
  5
238
330
2
100
AcDbEntity
  8
4
100
AcDbCircle
 10
399.3018020764868
 20
470.5918962124588
 30
0.0
 40
24.999954
100
AcDbArc
 50
301.770988
 51
240.0
  0
LINE
  5
23D
330
2
100
AcDbEntity
  8
4
100
AcDbLine
 10
545.3018030764867
 20
388.5918942124588
 30
0.0
 11
545.3018030764867
 21
442.5918942124588
 31
0.0
  0
ARC
  5
241
330
2
100
AcDbEntity
  8
4
100
AcDbCircle
 10
550.3018010764868
 20
388.5918942124588
 30
0.0
 40
5.000013
100
AcDbArc
 50
180.0
 51
230.4562709999995
  0
LINE
  5
244
330
2
100
AcDbEntity
  8
4
100
AcDbLine
 10
551.3018030764867
 20
413.5918962124588
 30
0.0
 11
550.3018010764868
 21
413.5918962124588
 31
0.0
  0
LINE
  5
245
330
2
100
AcDbEntity
  8
4
100
AcDbLine
 10
399.3018020764868
 20
455.5918962124588
 30
0.0
 11
411.8018030764867
 21
453.5918952124589
 31
0.0
  0
LINE
  5
246
330
2
100
AcDbEntity
  8
4
100
AcDbLine
 10
386.8018010764868
 20
453.5918952124589
 30
0.0
 11
399.3018020764868
 21
455.5918962124588
 31
0.0
  0
LINE
  5
247
330
2
100
AcDbEntity
  8
4
100
AcDbLine
 10
411.8018030764867
 20
453.5918952124589
 30
0.0
 11
386.8018010764868
 21
453.5918952124589
 31
0.0
  0
LINE
  5
248
330
2
100
AcDbEntity
  8
4
100
AcDbLine
 10
419.3018030764867
 20
442.5918942124588
 30
0.0
 11
419.3018030764867
 21
444.5918952124589
 31
0.0
  0
ARC
  5
249
330
2
100
AcDbEntity
  8
4
100
AcDbCircle
 10
413.2019480764867
 20
448.1475582124588
 30
0.0
 40
1.399914
100
AcDbArc
 50
121.7691820000002
 51
180.0
  0
LINE
  5
24A
330
2
100
AcDbEntity
  8
4
100
AcDbLine
 10
419.3018030764867
 20
444.5918952124589
 30
0.0
 11
399.3018020764868
 21
444.5918952124589
 31
0.0
  0
ARC
  5
24B
330
2
100
AcDbEntity
  8
4
100
AcDbCircle
 10
385.4018990764868
 20
448.1475582124588
 30
0.0
 40
1.399917
100
AcDbArc
 50
0.0
 51
58.23078299999851
  0
LINE
  5
24C
330
2
100
AcDbEntity
  8
4
100
AcDbLine
 10
379.3018010764868
 20
442.5918942124588
 30
0.0
 11
379.3018010764868
 21
444.5918952124589
 31
0.0
  0
LINE
  5
24D
330
2
100
AcDbEntity
  8
4
100
AcDbLine
 10
386.8018010764868
 20
444.5918952124589
 30
0.0
 11
411.8018030764867
 21
444.5918952124589
 31
0.0
  0
LINE
  5
24E
330
2
100
AcDbEntity
  8
4
100
AcDbLine
 10
379.3018010764868
 20
444.5918952124589
 30
0.0
 11
399.3018020764868
 21
444.5918952124589
 31
0.0
  0
LINE
  5
24F
330
2
100
AcDbEntity
  8
4
100
AcDbLine
 10
411.8018030764867
 20
444.5918952124589
 30
0.0
 11
411.8018030764867
 21
453.5918952124589
 31
0.0
  0
LINE
  5
250
330
2
100
AcDbEntity
  8
4
100
AcDbLine
 10
386.8018010764868
 20
444.5918952124589
 30
0.0
 11
386.8018010764868
 21
453.5918952124589
 31
0.0
  0
LINE
  5
251
330
2
100
AcDbEntity
  8
L-CENTER
100
AcDbLine
 10
432.1711880764868
 20
470.5918962124588
 30
0.0
 11
366.4324160764867
 21
470.5918962124588
 31
0.0
  0
LINE
  5
252
330
2
100
AcDbEntity
  8
L-CENTER
100
AcDbLine
 10
537.3018030764867
 20
469.1293002124589
 30
0.0
 11
537.3018030764867
 21
433.5434172124587
 31
0.0
  0
LINE
  5
253
330
2
100
AcDbEntity
  8
4
100
AcDbLine
 10
547.3018020764868
 20
451.5918942124588
 30
0.0
 11
547.3018020764868
 21
461.5918962124588
 31
0.0
  0
LINE
  5
254
330
2
100
AcDbEntity
  8
4
100
AcDbLine
 10
527.3018010764868
 20
451.5918942124588
 30
0.0
 11
527.3018010764868
 21
461.5918962124588
 31
0.0
  0
LINE
  5
255
330
2
100
AcDbEntity
  8
4
100
AcDbLine
 10
545.3018030764867
 20
438.5918952124589
 30
0.0
 11
550.3018010764868
 21
438.5918952124589
 31
0.0
  0
LINE
  5
256
330
2
100
AcDbEntity
  8
4
100
AcDbLine
 10
543.3018030764867
 20
442.5918942124588
 30
0.0
 11
537.3018030764867
 21
442.5918942124588
 31
0.0
  0
ARC
  5
257
330
2
100
AcDbEntity
  8
4
100
AcDbCircle
 10
540.3018030764867
 20
442.5918942124588
 30
0.0
 40
5.000000999999999
100
AcDbArc
 50
53.13010199999971
 51
126.8698980000003
  0
LINE
  5
258
330
2
100
AcDbEntity
  8
4
100
AcDbLine
 10
540.3018030764867
 20
447.5918952124589
 30
0.0
 11
534.3018030764867
 21
447.5918952124589
 31
0.0
  0
LINE
  5
259
330
2
100
AcDbEntity
  8
4
100
AcDbLine
 10
543.3018030764867
 20
442.5918942124588
 30
0.0
 11
543.3018030764867
 21
447.5918952124589
 31
0.0
  0
ARC
  5
25A
330
2
100
AcDbEntity
  8
4
100
AcDbCircle
 10
547.3018020764868
 20
447.5918952124589
 30
0.0
 40
3.999999
100
AcDbArc
 50
90.0
 51
180.0
  0
LINE
  5
25B
330
2
100
AcDbEntity
  8
4
100
AcDbLine
 10
547.3018020764868
 20
451.5918942124588
 30
0.0
 11
537.3018030764867
 21
451.5918942124588
 31
0.0
  0
ARC
  5
25C
330
2
100
AcDbEntity
  8
4
100
AcDbCircle
 10
527.3018010764868
 20
447.5918952124589
 30
0.0
 40
3.999999
100
AcDbArc
 50
0.0
 51
90.0
  0
LINE
  5
25D
330
2
100
AcDbEntity
  8
4
100
AcDbLine
 10
531.3018030764867
 20
442.5918942124588
 30
0.0
 11
531.3018030764867
 21
447.5918952124589
 31
0.0
  0
ARC
  5
25E
330
2
100
AcDbEntity
  8
4
100
AcDbCircle
 10
534.3018030764867
 20
442.5918942124588
 30
0.0
 40
5.000000999999999
100
AcDbArc
 50
53.13010199999971
 51
126.8698980000003
  0
LINE
  5
25F
330
2
100
AcDbEntity
  8
4
100
AcDbLine
 10
531.3018030764867
 20
442.5918942124588
 30
0.0
 11
537.3018030764867
 21
442.5918942124588
 31
0.0
  0
LINE
  5
260
330
2
100
AcDbEntity
  8
4
100
AcDbLine
 10
527.3018010764868
 20
451.5918942124588
 30
0.0
 11
537.3018030764867
 21
451.5918942124588
 31
0.0
  0
LINE
  5
263
330
2
100
AcDbEntity
  8
4
100
AcDbLine
 10
548.3018010764868
 20
463.5918942124588
 30
0.0
 11
548.3018010764868
 21
461.5918962124588
 31
0.0
  0
LINE
  5
264
330
2
100
AcDbEntity
  8
4
100
AcDbLine
 10
546.3018030764867
 20
464.5918962124588
 30
0.0
 11
548.3018010764868
 21
463.5918942124588
 31
0.0
  0
LINE
  5
265
330
2
100
AcDbEntity
  8
4
100
AcDbLine
 10
537.3018030764867
 20
461.5918962124588
 30
0.0
 11
548.3018010764868
 21
461.5918962124588
 31
0.0
  0
LINE
  5
266
330
2
100
AcDbEntity
  8
4
100
AcDbLine
 10
548.3018010764868
 20
463.5918942124588
 30
0.0
 11
537.3018030764867
 21
463.5918942124588
 31
0.0
  0
LINE
  5
267
330
2
100
AcDbEntity
  8
4
100
AcDbLine
 10
546.3018030764867
 20
464.5918962124588
 30
0.0
 11
537.3018030764867
 21
464.5918962124588
 31
0.0
  0
LINE
  5
268
330
2
100
AcDbEntity
  8
4
100
AcDbLine
 10
526.3018020764868
 20
463.5918942124588
 30
0.0
 11
526.3018020764868
 21
461.5918962124588
 31
0.0
  0
LINE
  5
269
330
2
100
AcDbEntity
  8
4
100
AcDbLine
 10
528.3018030764867
 20
464.5918962124588
 30
0.0
 11
526.3018020764868
 21
463.5918942124588
 31
0.0
  0
LINE
  5
26A
330
2
100
AcDbEntity
  8
4
100
AcDbLine
 10
526.3018020764868
 20
463.5918942124588
 30
0.0
 11
537.3018030764867
 21
463.5918942124588
 31
0.0
  0
LINE
  5
26B
330
2
100
AcDbEntity
  8
4
100
AcDbLine
 10
528.3018030764867
 20
464.5918962124588
 30
0.0
 11
537.3018030764867
 21
464.5918962124588
 31
0.0
  0
LINE
  5
26C
330
2
100
AcDbEntity
  8
4
100
AcDbLine
 10
537.3018030764867
 20
461.5918962124588
 30
0.0
 11
526.3018020764868
 21
461.5918962124588
 31
0.0
  0
ARC
  5
26F
330
2
100
AcDbEntity
  8
4
100
AcDbCircle
 10
1454.847404140988
 20
373.5918942124588
 30
0.0
 40
599.9999849999999
100
AcDbArc
 50
174.089006
 51
180.0003960000607
  0
LINE
  5
275
330
2
100
AcDbEntity
  8
4
100
AcDbLine
 10
853.8474051409877
 20
377.5918962124588
 30
0.0
 11
840.8474061409876
 21
377.5918962124588
 31
0.0
  0
ARC
  5
276
330
2
100
AcDbEntity
  8
4
100
AcDbCircle
 10
840.8474061409876
 20
376.5918942124588
 30
0.0
 40
0.999999
100
AcDbArc
 50
90.0
 51
180.0
  0
LINE
  5
27B
330
2
100
AcDbEntity
  8
4
100
AcDbLine
 10
854.8774341409877
 20
379.5918942124588
 30
0.0
 11
853.8474051409877
 21
379.5918942124588
 31
0.0
  0
LINE
  5
27C
330
2
100
AcDbEntity
  8
4
100
AcDbLine
 10
929.8474041409876
 20
453.5918952124589
 30
0.0
 11
929.8474041409876
 21
463.5918942124588
 31
0.0
  0
LINE
  5
27D
330
2
100
AcDbEntity
  8
4
100
AcDbLine
 10
929.8474041409876
 20
453.9917982124589
 30
0.0
 11
932.3474061409876
 21
453.5918952124589
 31
0.0
  0
LINE
  5
27E
330
2
100
AcDbEntity
  8
4
100
AcDbLine
 10
909.8474061409876
 20
453.9917982124589
 30
0.0
 11
907.3474041409876
 21
453.5918952124589
 31
0.0
  0
LINE
  5
27F
330
2
100
AcDbEntity
  8
4
100
AcDbLine
 10
909.8474061409876
 20
453.5918952124589
 30
0.0
 11
909.8474061409876
 21
463.5918942124588
 31
0.0
  0
ARC
  5
280
330
2
100
AcDbEntity
  8
4
100
AcDbCircle
 10
909.8474061409876
 20
449.5918962124588
 30
0.0
 40
3.999999
100
AcDbArc
 50
0.0
 51
90.0
  0
ARC
  5
281
330
2
100
AcDbEntity
  8
4
100
AcDbCircle
 10
929.8474041409876
 20
449.5918962124588
 30
0.0
 40
3.999999
100
AcDbArc
 50
90.0
 51
180.0
  0
LINE
  5
282
330
2
100
AcDbEntity
  8
4
100
AcDbLine
 10
924.8474061409876
 20
453.5918952124589
 30
0.0
 11
932.3474061409876
 21
453.5918952124589
 31
0.0
  0
LINE
  5
283
330
2
100
AcDbEntity
  8
4
100
AcDbLine
 10
929.8474041409876
 20
453.5918952124589
 30
0.0
 11
919.8474051409877
 21
453.5918952124589
 31
0.0
  0
LINE
  5
284
330
2
100
AcDbEntity
  8
4
100
AcDbLine
 10
909.8474061409876
 20
453.5918952124589
 30
0.0
 11
919.8474051409877
 21
453.5918952124589
 31
0.0
  0
LINE
  5
285
330
2
100
AcDbEntity
  8
4
100
AcDbLine
 10
907.3474041409876
 20
453.5918952124589
 30
0.0
 11
914.8474041409876
 21
453.5918952124589
 31
0.0
  0
LINE
  5
286
330
2
100
AcDbEntity
  8
4
100
AcDbLine
 10
926.3474061409876
 20
444.5918952124589
 30
0.0
 11
926.3474061409876
 21
448.8916992124589
 31
0.0
  0
LINE
  5
287
330
2
100
AcDbEntity
  8
4
100
AcDbLine
 10
925.8474051409877
 20
449.5918962124588
 30
0.0
 11
925.8474051409877
 21
449.288185212459
 31
0.0
  0
LINE
  5
288
330
2
100
AcDbEntity
  8
4
100
AcDbLine
 10
914.9724051409877
 20
449.5918962124588
 30
0.0
 11
919.8474051409877
 21
449.5918962124588
 31
0.0
  0
LINE
  5
289
330
2
100
AcDbEntity
  8
4
100
AcDbLine
 10
913.3474041409876
 20
444.5918952124589
 30
0.0
 11
919.8474051409877
 21
444.5918952124589
 31
0.0
  0
ARC
  5
28A
330
2
100
AcDbEntity
  8
4
100
AcDbCircle
 10
919.8474051409877
 20
441.7002942124589
 30
0.0
 40
7.89147
100
AcDbArc
 50
65.67971299999984
 51
114.3202870000002
  0
LINE
  5
28B
330
2
100
AcDbEntity
  8
4
100
AcDbLine
 10
916.5974061409876
 20
444.5918952124589
 30
0.0
 11
916.5974061409876
 21
448.8916992124589
 31
0.0
  0
LINE
  5
28C
330
2
100
AcDbEntity
  8
4
100
AcDbLine
 10
913.3474041409876
 20
444.5918952124589
 30
0.0
 11
913.3474041409876
 21
448.8916992124589
 31
0.0
  0
ARC
  5
28D
330
2
100
AcDbEntity
  8
4
100
AcDbCircle
 10
914.9724051409877
 20
447.356056212459
 30
0.0
 40
2.235807
100
AcDbArc
 50
43.38059600000052
 51
136.6194039999995
  0
LINE
  5
28E
330
2
100
AcDbEntity
  8
4
100
AcDbLine
 10
913.8474051409877
 20
449.5918962124588
 30
0.0
 11
913.8474051409877
 21
449.288185212459
 31
0.0
  0
LINE
  5
28F
330
2
100
AcDbEntity
  8
4
100
AcDbLine
 10
923.0974041409876
 20
444.5918952124589
 30
0.0
 11
923.0974041409876
 21
448.8916992124589
 31
0.0
  0
LINE
  5
290
330
2
100
AcDbEntity
  8
4
100
AcDbLine
 10
924.7224051409877
 20
449.5918962124588
 30
0.0
 11
919.8474051409877
 21
449.5918962124588
 31
0.0
  0
LINE
  5
291
330
2
100
AcDbEntity
  8
4
100
AcDbLine
 10
926.3474061409876
 20
444.5918952124589
 30
0.0
 11
919.8474051409877
 21
444.5918952124589
 31
0.0
  0
ARC
  5
292
330
2
100
AcDbEntity
  8
4
100
AcDbCircle
 10
924.7224051409877
 20
447.356056212459
 30
0.0
 40
2.235807
100
AcDbArc
 50
43.38059600000052
 51
136.6194039999995
  0
LINE
  5
293
330
2
100
AcDbEntity
  8
4
100
AcDbLine
 10
899.8474041409876
 20
442.2583992124589
 30
0.0
 11
899.8474041409876
 21
444.5918952124589
 31
0.0
  0
LINE
  5
294
330
2
100
AcDbEntity
  8
4
100
AcDbLine
 10
899.8474041409876
 20
444.5918952124589
 30
0.0
 11
919.8474051409877
 21
444.5918952124589
 31
0.0
  0
LINE
  5
295
330
2
100
AcDbEntity
  8
4
100
AcDbLine
 10
935.8474041409876
 20
444.5918952124589
 30
0.0
 11
903.8474061409876
 21
444.5918952124589
 31
0.0
  0
LINE
  5
296
330
2
100
AcDbEntity
  8
4
100
AcDbLine
 10
907.3474041409876
 20
444.5918952124589
 30
0.0
 11
932.3474061409876
 21
444.5918952124589
 31
0.0
  0
LINE
  5
297
330
2
100
AcDbEntity
  8
4
100
AcDbLine
 10
907.3474041409876
 20
444.5918952124589
 30
0.0
 11
932.3474061409876
 21
444.5918952124589
 31
0.0
  0
LINE
  5
298
330
2
100
AcDbEntity
  8
4
100
AcDbLine
 10
907.3474041409876
 20
444.5918952124589
 30
0.0
 11
907.3474041409876
 21
453.5918952124589
 31
0.0
  0
LINE
  5
299
330
2
100
AcDbEntity
  8
4
100
AcDbLine
 10
932.3474061409876
 20
444.5918952124589
 30
0.0
 11
932.3474061409876
 21
453.5918952124589
 31
0.0
  0
ARC
  5
29A
330
2
100
AcDbEntity
  8
4
100
AcDbCircle
 10
863.0114661409876
 20
434.8711902124589
 30
0.0
 40
4.99995
100
AcDbArc
 50
95.48343199999938
 51
174.0892479999996
  0
LINE
  5
29B
330
2
100
AcDbEntity
  8
4
100
AcDbLine
 10
930.8474061409876
 20
465.5918952124589
 30
0.0
 11
930.8474061409876
 21
463.5918942124588
 31
0.0
  0
LINE
  5
29C
330
2
100
AcDbEntity
  8
4
100
AcDbLine
 10
928.8474051409877
 20
466.5918942124588
 30
0.0
 11
930.8474061409876
 21
465.5918952124589
 31
0.0
  0
LINE
  5
29D
330
2
100
AcDbEntity
  8
4
100
AcDbLine
 10
919.8474051409877
 20
463.5918942124588
 30
0.0
 11
930.8474061409876
 21
463.5918942124588
 31
0.0
  0
LINE
  5
29E
330
2
100
AcDbEntity
  8
4
100
AcDbLine
 10
930.8474061409876
 20
465.5918952124589
 30
0.0
 11
919.8474051409877
 21
465.5918952124589
 31
0.0
  0
LINE
  5
29F
330
2
100
AcDbEntity
  8
4
100
AcDbLine
 10
908.8474041409876
 20
465.5918952124589
 30
0.0
 11
908.8474041409876
 21
463.5918942124588
 31
0.0
  0
LINE
  5
2A0
330
2
100
AcDbEntity
  8
4
100
AcDbLine
 10
910.8474051409877
 20
466.5918942124588
 30
0.0
 11
908.8474041409876
 21
465.5918952124589
 31
0.0
  0
LINE
  5
2A1
330
2
100
AcDbEntity
  8
4
100
AcDbLine
 10
908.8474041409876
 20
465.5918952124589
 30
0.0
 11
919.8474051409877
 21
465.5918952124589
 31
0.0
  0
LINE
  5
2A2
330
2
100
AcDbEntity
  8
4
100
AcDbLine
 10
919.8474051409877
 20
463.5918942124588
 30
0.0
 11
908.8474041409876
 21
463.5918942124588
 31
0.0
  0
LINE
  5
2A3
330
2
100
AcDbEntity
  8
4
100
AcDbLine
 10
928.8474051409877
 20
466.5918942124588
 30
0.0
 11
910.8474051409877
 21
466.5918942124588
 31
0.0
  0
LINE
  5
2A4
330
2
100
AcDbEntity
  8
L-CENTER
100
AcDbLine
 10
930.5483545416103
 20
470.5918962124588
 30
0.0
 11
909.1464557403651
 21
470.5918962124588
 31
0.0
  0
ARC
  5
2B7
330
2
100
AcDbEntity
  8
4
100
AcDbCircle
 10
919.8474051409877
 20
490.5918942124588
 30
0.0
 40
5.000000999999999
100
AcDbArc
 50
0.0
 51
180.0
  0
ARC
  5
2BF
330
2
100
AcDbEntity
  8
4
100
AcDbCircle
 10
384.8474061409876
 20
373.5918942124588
 30
0.0
 40
600.000051
100
AcDbArc
 50
0.000047004096946
 51
5.911343999999923
  0
ARC
  5
2C0
330
2
100
AcDbEntity
  8
4
100
AcDbCircle
 10
1001.147306140987
 20
376.5918942124588
 30
0.0
 40
0.999999
100
AcDbArc
 50
0.0
 51
90.0
  0
LINE
  5
2C1
330
2
100
AcDbEntity
  8
4
100
AcDbLine
 10
984.8173761409877
 20
379.5918942124588
 30
0.0
 11
985.8474051409877
 21
379.5918942124588
 31
0.0
  0
LINE
  5
2C2
330
2
100
AcDbEntity
  8
4
100
AcDbLine
 10
1001.147306140987
 20
377.5918962124588
 30
0.0
 11
985.8474051409877
 21
377.5918962124588
 31
0.0
  0
ARC
  5
2C3
330
2
100
AcDbEntity
  8
4
100
AcDbCircle
 10
976.6833411409876
 20
434.8711902124589
 30
0.0
 40
4.99995
100
AcDbArc
 50
5.910752000000456
 51
84.51656800000063
  0
LINE
  5
2C4
330
2
100
AcDbEntity
  8
4
100
AcDbLine
 10
939.8474061409876
 20
442.2583992124589
 30
0.0
 11
939.8474061409876
 21
444.5918952124589
 31
0.0
  0
LINE
  5
2CA
330
2
100
AcDbEntity
  8
L-CENTER
100
AcDbLine
 10
545.3018020764868
 20
807.6717462399986
 30
0.0
 11
545.3018020764868
 21
768.6878470606297
 31
0.0
  0
ARC
  5
2CB
330
2
100
AcDbEntity
  8
4
100
AcDbCircle
 10
545.3018020764868
 20
788.1797966503138
 30
0.0
 40
10.0
100
AcDbArc
 50
210.0000000000013
 51
53.13010235415651
  0
LINE
  5
2CC
330
2
100
AcDbEntity
  8
4
100
AcDbLine
 10
509.3018020764868
 20
756.1797966503137
 30
0.0
 11
509.3018020764868
 21
780.3517322132391
 31
0.0
  0
LINE
  5
2CD
330
2
100
AcDbEntity
  8
4
100
AcDbLine
 10
451.3018020764868
 20
774.0389162852568
 30
0.0
 11
528.5774224778868
 21
783.1797966503138
 31
0.0
  0
LINE
  5
2CE
330
2
100
AcDbEntity
  8
4
100
AcDbLine
 10
451.3018020764868
 20
774.0053742807861
 30
0.0
 11
529.4219388732163
 21
783.1797966503138
 31
0.0
  0
LINE
  5
2CF
330
2
100
AcDbEntity
  8
4
100
AcDbLine
 10
451.2816564153064
 20
773.0992140055916
 30
0.0
 11
531.9263175730839
 21
783.1797966503138
 31
0.0
  0
LINE
  5
2D0
330
2
100
AcDbEntity
  8
4
100
AcDbLine
 10
350.0825784828913
 20
765.1797966503138
 30
0.0
 11
448.5210256700822
 21
765.1797966503138
 31
0.0
  0
LINE
  5
2D1
330
2
100
AcDbEntity
  8
4
100
AcDbLine
 10
451.4694259314634
 20
773.8502920702203
 30
0.0
 11
347.13417822151
 21
773.8502920702206
 31
0.0
  0
ARC
  5
2D2
330
2
100
AcDbEntity
  8
4
100
AcDbCircle
 10
350.0825784828913
 20
766.1797966503138
 30
0.0
 40
1.0
100
AcDbArc
 50
194.0362434679265
 51
270.0
  0
LINE
  5
2D3
330
2
100
AcDbEntity
  8
4
100
AcDbLine
 10
349.1124359827455
 20
765.9372610252774
 30
0.0
 11
347.1341782215101
 21
773.8502920702203
 31
0.0
  0
LINE
  5
2D4
330
2
100
AcDbEntity
  8
4
100
AcDbLine
 10
449.491168170228
 20
765.9372610252774
 30
0.0
 11
451.4694259314634
 21
773.8502920702203
 31
0.0
  0
ARC
  5
2D5
330
2
100
AcDbEntity
  8
4
100
AcDbCircle
 10
448.5210256700822
 20
766.1797966503138
 30
0.0
 40
1.0
100
AcDbArc
 50
270.0
 51
345.9637565320735
  0
ARC
  5
2D6
330
2
100
AcDbEntity
  8
4
100
AcDbCircle
 10
561.3018020764868
 20
761.1797966503138
 30
0.0
 40
8.0
100
AcDbArc
 50
270.0
 51
0.0
  0
ARC
  5
2D7
330
2
100
AcDbEntity
  8
4
100
AcDbCircle
 10
512.3018020764868
 20
756.1797966503137
 30
0.0
 40
3.0
100
AcDbArc
 50
180.0
 51
270.0
  0
LINE
  5
2D8
330
2
100
AcDbEntity
  8
4
100
AcDbLine
 10
512.3018020764868
 20
753.1797966503137
 30
0.0
 11
561.3018020764868
 21
753.1797966503138
 31
0.0
  0
LINE
  5
2D9
330
2
100
AcDbEntity
  8
4
100
AcDbLine
 10
551.3018020764868
 20
797.1797966503138
 30
0.0
 11
551.3018020764869
 21
783.1797966503138
 31
0.0
  0
LINE
  5
2DA
330
2
100
AcDbEntity
  8
L-CENTER
100
AcDbLine
 10
564.7937516661711
 20
788.1797966503141
 30
0.0
 11
525.8098524868024
 21
788.1797966503138
 31
0.0
  0
LINE
  5
2DC
330
2
100
AcDbEntity
  8
4
100
AcDbLine
 10
335.5518020764868
 20
947.4797966503136
 30
0.0
 11
321.0518020764868
 21
947.4797966503136
 31
0.0
  0
LINE
  5
2DD
330
2
100
AcDbEntity
  8
4
100
AcDbLine
 10
334.8018020764868
 20
955.4797966503136
 30
0.0
 11
321.8018020764868
 21
955.4797966503136
 31
0.0
  0
LINE
  5
2DE
330
2
100
AcDbEntity
  8
4
100
AcDbLine
 10
550.3018020764872
 20
945.4797966503136
 30
0.0
 11
248.3018020764868
 21
945.4797966503136
 31
0.0
  0
LINE
  5
2DF
330
2
100
AcDbEntity
  8
4
100
AcDbLine
 10
551.3018020764868
 20
931.1797966503138
 30
0.0
 11
247.3018020764868
 21
931.1797966503141
 31
0.0
  0
LINE
  5
2E0
330
2
100
AcDbEntity
  8
4
100
AcDbLine
 10
553.3018020764868
 20
929.1797966503138
 30
0.0
 11
245.3018020764868
 21
929.1797966503141
 31
0.0
  0
LINE
  5
2E1
330
2
100
AcDbEntity
  8
4
100
AcDbLine
 10
550.3018020764866
 20
928.1797966503138
 30
0.0
 11
248.3018020764868
 21
928.1797966503141
 31
0.0
  0
LINE
  5
2E2
330
2
100
AcDbEntity
  8
L-CENTER
100
AcDbLine
 10
578.5656911670466
 20
863.1797966503138
 30
0.0
 11
140.7862294359057
 21
863.1797966503138
 31
0.0
  0
LINE
  5
2E3
330
2
100
AcDbEntity
  8
L-CENTER
100
AcDbLine
 10
328.3018020764867
 20
959.1065164150634
 30
0.0
 11
328.3018020764867
 21
921.6244007974221
 31
0.0
  0
LINE
  5
2E4
330
2
100
AcDbEntity
  8
L-CENTER
100
AcDbLine
 10
257.3018020764868
 20
959.1065164150634
 30
0.0
 11
257.3018020764868
 21
921.6244007974221
 31
0.0
  0
LINE
  5
2E5
330
2
100
AcDbEntity
  8
4
100
AcDbLine
 10
247.301802076487
 20
944.4797966503136
 30
0.0
 11
247.3018020764867
 21
929.1797966503138
 31
0.0
  0
ARC
  5
2E7
330
2
100
AcDbEntity
  8
4
100
AcDbCircle
 10
253.3018020764868
 20
938.1797966503138
 30
0.0
 40
10.0
100
AcDbArc
 50
104.4775121859296
 51
233.130102354156
  0
LINE
  5
2E8
330
2
100
AcDbEntity
  8
L-CENTER
100
AcDbLine
 10
253.3018020764868
 20
918.6878470606291
 30
0.0
 11
253.3018020764868
 21
957.6717462399981
 31
0.0
  0
LINE
  5
2E9
330
2
100
AcDbEntity
  8
L-CENTER
100
AcDbLine
 10
304.3018020764868
 20
889.7848987484988
 30
0.0
 11
304.3018020764868
 21
836.5746945521289
 31
0.0
  0
LINE
  5
2EA
330
2
100
AcDbEntity
  8
4
100
AcDbLine
 10
253.3018020764868
 20
928.1797966503141
 30
0.0
 11
253.3018020764867
 21
870.7296310855845
 31
0.0
  0
LWPOLYLINE
  5
2F0
330
2
100
AcDbEntity
  8
4
100
AcDbPolyline
 90
        6
 70
     1
 43
0.0
 10
316.8018020764868
 20
863.1797966503138
 10
310.5518020764868
 20
874.0051141976194
 10
298.0518020764868
 20
874.0051141976194
 10
291.8018020764868
 20
863.1797966503138
 10
298.0518020764868
 20
852.3544791030083
 10
310.5518020764868
 20
852.3544791030083
  0
CIRCLE
  5
2F1
330
2
100
AcDbEntity
  8
4
100
AcDbCircle
 10
304.3018020764868
 20
863.1797966503138
 30
0.0
 40
12.5
  0
CIRCLE
  5
2F2
330
2
100
AcDbEntity
  8
4
100
AcDbCircle
 10
261.3018020764868
 20
863.1797966503138
 30
0.0
 40
11.0
  0
LINE
  5
2F3
330
2
100
AcDbEntity
  8
L-CENTER
100
AcDbLine
 10
261.3018020764868
 20
880.0147054924039
 30
0.0
 11
261.3018020764868
 21
846.3448878082238
 31
0.0
  0
CIRCLE
  5
2F4
330
2
100
AcDbEntity
  8
4
100
AcDbCircle
 10
304.3018020764868
 20
863.1797966503138
 30
0.0
 40
19.0
  0
LINE
  5
2FD
330
2
100
AcDbEntity
  8
4
100
AcDbLine
 10
247.3018010764868
 20
903.1797986503138
 30
0.0
 11
248.3018030764868
 21
903.1797986503138
 31
0.0
  0
LINE
  5
2FE
330
2
100
AcDbEntity
  8
L-CENTER
100
AcDbLine
 10
233.8098524868024
 20
938.1797966503138
 30
0.0
 11
272.7937516661711
 21
938.1797966503134
 31
0.0
  0
ARC
  5
2FF
330
2
100
AcDbEntity
  8
4
100
AcDbCircle
 10
237.3018020764868
 20
965.1797966503138
 30
0.0
 40
8.0
100
AcDbArc
 50
89.9999999999998
 51
180.0
  0
LINE
  5
300
330
2
100
AcDbEntity
  8
4
100
AcDbLine
 10
289.3018020764868
 20
949.479796650314
 30
0.0
 11
289.3018020764868
 21
970.1797966503134
 31
0.0
  0
LINE
  5
301
330
2
100
AcDbEntity
  8
4
100
AcDbLine
 10
321.8018020764868
 20
947.4797966503136
 30
0.0
 11
321.8018020764868
 21
955.4797966503136
 31
0.0
  0
LINE
  5
302
330
2
100
AcDbEntity
  8
4
100
AcDbLine
 10
321.0518020764868
 20
945.4797966503136
 30
0.0
 11
321.0518020764868
 21
947.4797966503136
 31
0.0
  0
LINE
  5
303
330
2
100
AcDbEntity
  8
4
100
AcDbLine
 10
250.8018020764868
 20
947.4797966503136
 30
0.0
 11
250.8018020764868
 21
955.4797966503136
 31
0.0
  0
LINE
  5
304
330
2
100
AcDbEntity
  8
4
100
AcDbLine
 10
250.0518020764868
 20
945.4797966503136
 30
0.0
 11
250.0518020764868
 21
947.4797966503136
 31
0.0
  0
LINE
  5
305
330
2
100
AcDbEntity
  8
4
100
AcDbLine
 10
263.8018020764868
 20
947.4797966503136
 30
0.0
 11
263.8018020764868
 21
955.4797966503136
 31
0.0
  0
LINE
  5
306
330
2
100
AcDbEntity
  8
4
100
AcDbLine
 10
264.5518020764868
 20
945.4797966503136
 30
0.0
 11
264.5518020764868
 21
947.4797966503136
 31
0.0
  0
LINE
  5
307
330
2
100
AcDbEntity
  8
4
100
AcDbLine
 10
263.8018020764868
 20
955.4797966503136
 30
0.0
 11
250.8018020764868
 21
955.4797966503136
 31
0.0
  0
LINE
  5
308
330
2
100
AcDbEntity
  8
4
100
AcDbLine
 10
264.5518020764868
 20
947.4797966503136
 30
0.0
 11
250.0518020764868
 21
947.4797966503136
 31
0.0
  0
LINE
  5
309
330
2
100
AcDbEntity
  8
4
100
AcDbLine
 10
318.3018020764868
 20
949.479796650314
 30
0.0
 11
318.3018020764868
 21
948.6219727978166
 31
0.0
  0
ARC
  5
30A
330
2
100
AcDbEntity
  8
4
100
AcDbCircle
 10
281.3018020764872
 20
948.479796650314
 30
0.0
 40
1.0
100
AcDbArc
 50
90.0
 51
180.0
  0
LINE
  5
30B
330
2
100
AcDbEntity
  8
4
100
AcDbLine
 10
280.3018020764868
 20
948.479796650314
 30
0.0
 11
280.3018020764868
 21
945.7024948338319
 31
0.0
  0
ARC
  5
30C
330
2
100
AcDbEntity
  8
4
100
AcDbCircle
 10
279.3018020764872
 20
945.7024948338319
 30
0.0
 40
1.0
100
AcDbArc
 50
347.1324401033268
 51
0.0
  0
ARC
  5
30D
330
2
100
AcDbEntity
  8
4
100
AcDbCircle
 10
248.3018020764872
 20
944.4797966503136
 30
0.0
 40
1.0
100
AcDbArc
 50
90.0
 51
180.0
  0
LINE
  5
30E
330
2
100
AcDbEntity
  8
4
100
AcDbLine
 10
281.3018020764868
 20
949.479796650314
 30
0.0
 11
318.3018020764868
 21
949.479796650314
 31
0.0
  0
LINE
  5
30F
330
2
100
AcDbEntity
  8
4
100
AcDbLine
 10
287.076426610675
 20
945.4797966503136
 30
0.0
 11
321.8018020764868
 21
948.9741740556781
 31
0.0
  0
LINE
  5
310
330
2
100
AcDbEntity
  8
4
100
AcDbLine
 10
307.0518020764858
 20
945.4797966503136
 30
0.0
 11
321.0518020764868
 21
946.8886016817605
 31
0.0
  0
LINE
  5
311
330
2
100
AcDbEntity
  8
4
100
AcDbLine
 10
237.3018020764868
 20
973.1797966503138
 30
0.0
 11
286.3018020764868
 21
973.1797966503134
 31
0.0
  0
ARC
  5
312
330
2
100
AcDbEntity
  8
4
100
AcDbCircle
 10
286.3018020764868
 20
970.1797966503134
 30
0.0
 40
3.0
100
AcDbArc
 50
0.0
 51
90.0
  0
LINE
  5
313
330
2
100
AcDbEntity
  8
4
100
AcDbLine
 10
405.3018020764863
 20
1083.179796650314
 30
0.0
 11
405.3018020764863
 21
999.1797966503138
 31
0.0
  0
LINE
  5
314
330
2
100
AcDbEntity
  8
4
100
AcDbLine
 10
393.3018020764863
 20
1083.179796650314
 30
0.0
 11
393.3018020764863
 21
999.1797966503138
 31
0.0
  0
LINE
  5
315
330
2
100
AcDbEntity
  8
4
100
AcDbLine
 10
423.3018020764868
 20
984.1797966503138
 30
0.0
 11
423.3018020764868
 21
1082.179796650314
 31
0.0
  0
LINE
  5
316
330
2
100
AcDbEntity
  8
4
100
AcDbLine
 10
375.3018020764863
 20
984.1797966503138
 30
0.0
 11
375.3018020764863
 21
1082.179796650314
 31
0.0
  0
LINE
  5
317
330
2
100
AcDbEntity
  8
L-CENTER
100
AcDbLine
 10
541.3018020764868
 20
959.1065164150634
 30
0.0
 11
541.3018020764868
 21
921.6244007974221
 31
0.0
  0
LINE
  5
318
330
2
100
AcDbEntity
  8
L-CENTER
100
AcDbLine
 10
470.3018020764868
 20
959.1065164150634
 30
0.0
 11
470.3018020764868
 21
921.6244007974221
 31
0.0
  0
LINE
  5
319
330
2
100
AcDbEntity
  8
4
100
AcDbLine
 10
551.3018020764868
 20
944.4797966503136
 30
0.0
 11
551.3018020764868
 21
929.1797966503138
 31
0.0
  0
ARC
  5
31A
330
2
100
AcDbEntity
  8
4
100
AcDbCircle
 10
545.3018020764868
 20
938.1797966503138
 30
0.0
 40
10.0
100
AcDbArc
 50
306.869897645844
 51
75.52248781407022
  0
LINE
  5
31B
330
2
100
AcDbEntity
  8
L-CENTER
100
AcDbLine
 10
545.3018020764868
 20
918.6878470606291
 30
0.0
 11
545.3018020764868
 21
957.6717462399981
 31
0.0
  0
LINE
  5
31D
330
2
100
AcDbEntity
  8
4
100
AcDbLine
 10
545.3018020764866
 20
928.1797966503138
 30
0.0
 11
545.3018020764866
 21
870.7296310855847
 31
0.0
  0
ARC
  5
31E
330
2
100
AcDbEntity
  8
4
100
AcDbCircle
 10
419.3018020764868
 20
863.1797966503138
 30
0.0
 40
5.0
100
AcDbArc
 50
270.0
 51
90.0
  0
ARC
  5
31F
330
2
100
AcDbEntity
  8
4
100
AcDbCircle
 10
379.3018020764868
 20
863.1797966503138
 30
0.0
 40
5.0
100
AcDbArc
 50
90.0
 51
270.0
  0
ARC
  5
320
330
2
100
AcDbEntity
  8
4
100
AcDbCircle
 10
399.3018020764868
 20
863.1797966503138
 30
0.0
 40
20.0
100
AcDbArc
 50
194.47751218593
 51
345.5224878140701
  0
LINE
  5
321
330
2
100
AcDbEntity
  8
4
100
AcDbLine
 10
379.3018020764868
 20
858.1797966503138
 30
0.0
 11
419.3018020764868
 21
858.1797966503138
 31
0.0
  0
ARC
  5
322
330
2
100
AcDbEntity
  8
4
100
AcDbCircle
 10
399.3018020764868
 20
863.1797966503138
 30
0.0
 40
12.5
100
AcDbArc
 50
203.5781784782018
 51
336.4218215217971
  0
ARC
  5
323
330
2
100
AcDbEntity
  8
4
100
AcDbCircle
 10
399.3018020764868
 20
863.1797966503138
 30
0.0
 40
11.0
100
AcDbArc
 50
207.0356917894136
 51
332.9643082105864
  0
LINE
  5
324
330
2
100
AcDbEntity
  8
4
100
AcDbLine
 10
379.3018020764868
 20
868.1797966503138
 30
0.0
 11
419.3018020764868
 21
868.1797966503138
 31
0.0
  0
ARC
  5
325
330
2
100
AcDbEntity
  8
4
100
AcDbCircle
 10
399.3018020764868
 20
863.1797966503138
 30
0.0
 40
20.0
100
AcDbArc
 50
14.47751218592994
 51
165.5224878140701
  0
ARC
  5
326
330
2
100
AcDbEntity
  8
4
100
AcDbCircle
 10
399.3018020764868
 20
863.1797966503138
 30
0.0
 40
11.0
100
AcDbArc
 50
27.03569178941222
 51
152.9643082105878
  0
ARC
  5
327
330
2
100
AcDbEntity
  8
4
100
AcDbCircle
 10
399.3018020764868
 20
863.1797966503138
 30
0.0
 40
12.5
100
AcDbArc
 50
23.57817847820185
 51
156.4218215217982
  0
CIRCLE
  5
328
330
2
100
AcDbEntity
  8
4
100
AcDbCircle
 10
537.3018020764868
 20
863.1797966503138
 30
0.0
 40
11.0
  0
LINE
  5
329
330
2
100
AcDbEntity
  8
L-CENTER
100
AcDbLine
 10
537.3018020764868
 20
880.0147054924039
 30
0.0
 11
537.3018020764868
 21
846.3448878082238
 31
0.0
  0
LINE
  5
33B
330
2
100
AcDbEntity
  8
4
100
AcDbLine
 10
551.3018030764867
 20
903.1797986503138
 30
0.0
 11
550.3018010764868
 21
903.1797986503138
 31
0.0
  0
LINE
  5
33C
330
2
100
AcDbEntity
  8
L-CENTER
100
AcDbLine
 10
564.7937516661711
 20
938.1797966503138
 30
0.0
 11
525.8098524868024
 21
938.1797966503134
 31
0.0
  0
LINE
  5
33D
330
2
100
AcDbEntity
  8
4
100
AcDbLine
 10
511.5271775422967
 20
945.4797966503136
 30
0.0
 11
476.8018020764868
 21
948.9741740556778
 31
0.0
  0
LINE
  5
33E
330
2
100
AcDbEntity
  8
4
100
AcDbLine
 10
424.3018020764863
 20
962.479796650314
 30
0.0
 11
424.3018020764863
 21
983.1797966503138
 31
0.0
  0
LINE
  5
33F
330
2
100
AcDbEntity
  8
4
100
AcDbLine
 10
374.3018020764866
 20
962.479796650314
 30
0.0
 11
374.3018020764868
 21
983.1797966503138
 31
0.0
  0
LINE
  5
340
330
2
100
AcDbEntity
  8
4
100
AcDbLine
 10
350.1149396324978
 20
961.479796650314
 30
0.0
 11
448.4886645204757
 21
961.479796650314
 31
0.0
  0
LINE
  5
341
330
2
100
AcDbEntity
  8
4
100
AcDbLine
 10
363.3018020764868
 20
962.4797966503143
 30
0.0
 11
435.3018020764868
 21
962.479796650314
 31
0.0
  0
LINE
  5
342
330
2
100
AcDbEntity
  8
4
100
AcDbLine
 10
350.1149396324978
 20
949.479796650314
 30
0.0
 11
448.4886645204757
 21
949.479796650314
 31
0.0
  0
LINE
  5
343
330
2
100
AcDbEntity
  8
4
100
AcDbLine
 10
335.5518020764868
 20
945.4797966503136
 30
0.0
 11
335.5518020764868
 21
947.4797966503136
 31
0.0
  0
LINE
  5
344
330
2
100
AcDbEntity
  8
4
100
AcDbLine
 10
334.8018020764868
 20
947.4797966503136
 30
0.0
 11
334.8018020764868
 21
955.4797966503136
 31
0.0
  0
LINE
  5
345
330
2
100
AcDbEntity
  8
4
100
AcDbLine
 10
334.8018020764868
 20
948.2722494805028
 30
0.0
 11
345.3430990027388
 21
949.3330089196222
 31
0.0
  0
LINE
  5
346
330
2
100
AcDbEntity
  8
4
100
AcDbLine
 10
334.8018020764868
 20
950.2823501563071
 30
0.0
 11
347.2295403091595
 21
951.5329401671422
 31
0.0
  0
LINE
  5
347
330
2
100
AcDbEntity
  8
4
100
AcDbLine
 10
363.3018020764868
 20
962.4797966503143
 30
0.0
 11
363.3018020764868
 21
961.479796650314
 31
0.0
  0
ARC
  5
348
330
2
100
AcDbEntity
  8
4
100
AcDbCircle
 10
350.1149396324978
 20
960.479796650314
 30
0.0
 40
1.0
100
AcDbArc
 50
90.0
 51
168.2317110679804
  0
ARC
  5
349
330
2
100
AcDbEntity
  8
4
100
AcDbCircle
 10
345.1428524538393
 20
951.3229589993109
 30
0.0
 40
2.0
100
AcDbArc
 50
275.746269209797
 51
348.2317110679808
  0
LINE
  5
34A
330
2
100
AcDbEntity
  8
4
100
AcDbLine
 10
347.100813293314
 20
950.915050491087
 30
0.0
 11
349.1359592127602
 21
960.683750904426
 31
0.0
  0
LINE
  5
34B
330
2
100
AcDbEntity
  8
4
100
AcDbLine
 10
476.8018020764868
 20
947.4797966503136
 30
0.0
 11
476.8018020764868
 21
955.4797966503136
 31
0.0
  0
LINE
  5
34C
330
2
100
AcDbEntity
  8
4
100
AcDbLine
 10
477.5518020764868
 20
945.4797966503136
 30
0.0
 11
477.5518020764868
 21
947.4797966503136
 31
0.0
  0
LINE
  5
34D
330
2
100
AcDbEntity
  8
4
100
AcDbLine
 10
463.0518020764868
 20
945.4797966503136
 30
0.0
 11
463.0518020764868
 21
947.4797966503136
 31
0.0
  0
LINE
  5
34E
330
2
100
AcDbEntity
  8
4
100
AcDbLine
 10
463.8018020764868
 20
947.4797966503136
 30
0.0
 11
463.8018020764868
 21
955.4797966503136
 31
0.0
  0
LINE
  5
34F
330
2
100
AcDbEntity
  8
4
100
AcDbLine
 10
476.8018020764868
 20
955.4797966503136
 30
0.0
 11
463.8018020764868
 21
955.4797966503136
 31
0.0
  0
LINE
  5
350
330
2
100
AcDbEntity
  8
4
100
AcDbLine
 10
477.5518020764868
 20
947.4797966503136
 30
0.0
 11
463.0518020764868
 21
947.4797966503136
 31
0.0
  0
LINE
  5
351
330
2
100
AcDbEntity
  8
4
100
AcDbLine
 10
463.8018020764868
 20
948.2722494805025
 30
0.0
 11
453.2605051502347
 21
949.3330089196222
 31
0.0
  0
LINE
  5
352
330
2
100
AcDbEntity
  8
4
100
AcDbLine
 10
463.8018020764868
 20
950.2823501563071
 30
0.0
 11
451.374063843814
 21
951.5329401671422
 31
0.0
  0
LINE
  5
353
330
2
100
AcDbEntity
  8
4
100
AcDbLine
 10
451.5027908596591
 20
950.915050491087
 30
0.0
 11
449.4676449402133
 21
960.683750904426
 31
0.0
  0
ARC
  5
354
330
2
100
AcDbEntity
  8
4
100
AcDbCircle
 10
448.4886645204757
 20
960.479796650314
 30
0.0
 40
1.0
100
AcDbArc
 50
11.76828893201957
 51
90.0
  0
ARC
  5
355
330
2
100
AcDbEntity
  8
4
100
AcDbCircle
 10
453.4607516991342
 20
951.3229589993109
 30
0.0
 40
2.0
100
AcDbArc
 50
191.7682889320192
 51
264.253730790203
  0
LINE
  5
356
330
2
100
AcDbEntity
  8
4
100
AcDbLine
 10
435.3018020764868
 20
962.479796650314
 30
0.0
 11
435.3018020764868
 21
961.479796650314
 31
0.0
  0
LINE
  5
357
330
2
100
AcDbEntity
  8
4
100
AcDbLine
 10
491.5518020764877
 20
945.4797966503136
 30
0.0
 11
477.5518020764868
 21
946.8886016817607
 31
0.0
  0
LINE
  5
358
330
2
100
AcDbEntity
  8
4
100
AcDbLine
 10
374.3018020764868
 20
983.1797966503138
 30
0.0
 11
424.3018020764863
 21
983.1797966503138
 31
0.0
  0
ARC
  5
359
330
2
100
AcDbEntity
  8
4
100
AcDbCircle
 10
374.3018020764864
 20
984.1797966503138
 30
0.0
 40
1.0
100
AcDbArc
 50
270.0
 51
0.0
  0
LINE
  5
35A
330
2
100
AcDbEntity
  8
4
100
AcDbLine
 10
374.3018020764868
 20
983.1797966503138
 30
0.0
 11
374.3018020764863
 21
983.1797966503138
 31
0.0
  0
ARC
  5
35B
330
2
100
AcDbEntity
  8
4
100
AcDbCircle
 10
424.3018020764864
 20
984.1797966503138
 30
0.0
 40
1.0
100
AcDbArc
 50
180.0
 51
270.0
  0
LINE
  5
35C
330
2
100
AcDbEntity
  8
4
100
AcDbLine
 10
424.3018020764863
 20
983.1797966503138
 30
0.0
 11
424.3018020764863
 21
983.1797966503138
 31
0.0
  0
ARC
  5
35D
330
2
100
AcDbEntity
  8
4
100
AcDbCircle
 10
561.3018020764868
 20
965.1797966503138
 30
0.0
 40
8.0
100
AcDbArc
 50
0.0
 51
90.0
  0
LINE
  5
35E
330
2
100
AcDbEntity
  8
4
100
AcDbLine
 10
509.3018020764867
 20
945.4797966503136
 30
0.0
 11
509.3018020764868
 21
970.1797966503138
 31
0.0
  0
LINE
  5
35F
330
2
100
AcDbEntity
  8
4
100
AcDbLine
 10
548.5518020764868
 20
945.4797966503136
 30
0.0
 11
548.5518020764868
 21
947.4797966503136
 31
0.0
  0
LINE
  5
360
330
2
100
AcDbEntity
  8
4
100
AcDbLine
 10
547.8018020764868
 20
947.4797966503136
 30
0.0
 11
547.8018020764868
 21
955.4797966503136
 31
0.0
  0
LINE
  5
361
330
2
100
AcDbEntity
  8
4
100
AcDbLine
 10
534.8018020764868
 20
947.4797966503136
 30
0.0
 11
534.8018020764868
 21
955.4797966503136
 31
0.0
  0
LINE
  5
362
330
2
100
AcDbEntity
  8
4
100
AcDbLine
 10
534.0518020764868
 20
945.4797966503136
 30
0.0
 11
534.0518020764868
 21
947.4797966503136
 31
0.0
  0
LINE
  5
363
330
2
100
AcDbEntity
  8
4
100
AcDbLine
 10
548.5518020764868
 20
947.4797966503136
 30
0.0
 11
534.0518020764868
 21
947.4797966503136
 31
0.0
  0
LINE
  5
364
330
2
100
AcDbEntity
  8
4
100
AcDbLine
 10
547.8018020764868
 20
955.4797966503136
 30
0.0
 11
534.8018020764868
 21
955.4797966503136
 31
0.0
  0
ARC
  5
365
330
2
100
AcDbEntity
  8
4
100
AcDbCircle
 10
550.3018020764872
 20
944.4797966503136
 30
0.0
 40
1.0
100
AcDbArc
 50
0.0
 51
90.0
  0
ARC
  5
366
330
2
100
AcDbEntity
  8
4
100
AcDbCircle
 10
512.3018020764868
 20
970.1797966503138
 30
0.0
 40
3.0
100
AcDbArc
 50
90.0
 51
180.0
  0
LINE
  5
367
330
2
100
AcDbEntity
  8
4
100
AcDbLine
 10
512.3018020764868
 20
973.1797966503138
 30
0.0
 11
561.3018020764868
 21
973.1797966503138
 31
0.0
  0
ARC
  5
368
330
2
100
AcDbEntity
  8
4
100
AcDbCircle
 10
399.3018020764868
 20
999.1797966503138
 30
0.0
 40
6.000000000000028
100
AcDbArc
 50
180.0
 51
0.0
  0
LINE
  5
369
330
2
100
AcDbEntity
  8
4
100
AcDbLine
 10
405.3018020764863
 20
1082.179796650314
 30
0.0
 11
423.3018020764868
 21
1082.179796650314
 31
0.0
  0
LINE
  5
36A
330
2
100
AcDbEntity
  8
4
100
AcDbLine
 10
376.3018020764863
 20
1083.179796650314
 30
0.0
 11
422.3018020764868
 21
1083.179796650314
 31
0.0
  0
LINE
  5
36B
330
2
100
AcDbEntity
  8
4
100
AcDbLine
 10
375.3018020764863
 20
1082.179796650314
 30
0.0
 11
393.3018020764863
 21
1082.179796650314
 31
0.0
  0
LINE
  5
36C
330
2
100
AcDbEntity
  8
4
100
AcDbLine
 10
375.3018020764863
 20
1082.179796650314
 30
0.0
 11
376.3018020764863
 21
1083.179796650314
 31
0.0
  0
LINE
  5
36D
330
2
100
AcDbEntity
  8
4
100
AcDbLine
 10
423.3018020764868
 20
1082.179796650314
 30
0.0
 11
422.3018020764868
 21
1083.179796650314
 31
0.0
  0
ARC
  5
36E
330
2
100
AcDbEntity
  8
4
100
AcDbCircle
 10
531.3018020764871
 20
392.5918952124584
 30
0.0
 40
5.0
100
AcDbArc
 50
270.0
 51
0.0
  0
ARC
  5
36F
330
2
100
AcDbEntity
  8
4
100
AcDbCircle
 10
443.3018020764871
 20
392.5918952124584
 30
0.0
 40
5.0
100
AcDbArc
 50
180.0
 51
270.0
  0
ARC
  5
370
330
2
100
AcDbEntity
  8
4
100
AcDbCircle
 10
430.3835932681372
 20
349.24533130026
 30
0.0
 40
5.0
100
AcDbArc
 50
75.89032659764456
 51
185.045275739344
  0
LINE
  5
371
330
2
100
AcDbEntity
  8
4
100
AcDbLine
 10
417.3018020764866
 20
339.5918952124582
 30
0.0
 11
417.3018020764866
 21
354.5502228264598
 31
0.0
  0
ARC
  5
372
330
2
100
AcDbEntity
  8
4
100
AcDbCircle
 10
399.3018020764866
 20
339.5918952124582
 30
0.0
 40
18.0
100
AcDbArc
 50
180.0
 51
0.0
  0
LINE
  5
373
330
2
100
AcDbEntity
  8
4
100
AcDbLine
 10
443.3018020764871
 20
387.5918952124584
 30
0.0
 11
531.3018020764871
 21
387.5918952124584
 31
0.0
  0
LINE
  5
374
330
2
100
AcDbEntity
  8
4
100
AcDbLine
 10
425.4029656897965
 20
348.8056167043273
 30
0.0
 11
431.4435115490387
 21
280.3846236943743
 31
0.0
  0
ARC
  5
375
330
2
100
AcDbEntity
  8
4
100
AcDbCircle
 10
436.424139127379
 20
280.8243382903083
 30
0.0
 40
5.0
100
AcDbArc
 50
185.0452757393506
 51
263.0090492175992
  0
ARC
  5
376
330
2
100
AcDbEntity
  8
4
100
AcDbCircle
 10
521.4827539713328
 20
422.0918952124578
 30
0.0
 40
1.5
100
AcDbArc
 50
329.0362434679183
 51
90.0
  0
LINE
  5
377
330
2
100
AcDbEntity
  8
4
100
AcDbLine
 10
522.7689933599017
 20
421.3201515793164
 30
0.0
 11
520.387216400461
 21
417.3505233135816
 31
0.0
  0
LINE
  5
378
330
2
100
AcDbEntity
  8
4
100
AcDbLine
 10
443.3018020764871
 20
433.591895212458
 30
0.0
 11
531.3018020764871
 21
433.591895212458
 31
0.0
  0
ARC
  5
379
330
2
100
AcDbEntity
  8
4
100
AcDbCircle
 10
518.3018020764871
 20
405.841895212458
 30
0.0
 40
8.0
100
AcDbArc
 50
0.0
 51
64.94773430818638
  0
ARC
  5
37A
330
2
100
AcDbEntity
  8
4
100
AcDbCircle
 10
518.3018020764871
 20
405.591895212458
 30
0.0
 40
8.0
100
AcDbArc
 50
270.0
 51
0.0
  0
LINE
  5
37B
330
2
100
AcDbEntity
  8
4
100
AcDbLine
 10
473.3018020764871
 20
423.5918952124582
 30
0.0
 11
485.8018020764871
 21
423.5918952124582
 31
0.0
  0
LINE
  5
37C
330
2
100
AcDbEntity
  8
4
100
AcDbLine
 10
473.3018020764871
 20
397.5918952124582
 30
0.0
 11
485.8018020764871
 21
397.5918952124582
 31
0.0
  0
ARC
  5
37D
330
2
100
AcDbEntity
  8
4
100
AcDbCircle
 10
449.8018020764871
 20
422.0918952124578
 30
0.0
 40
1.5
100
AcDbArc
 50
90.0
 51
180.0
  0
ARC
  5
37E
330
2
100
AcDbEntity
  8
4
100
AcDbCircle
 10
449.8018020764871
 20
399.091895212458
 30
0.0
 40
1.5
100
AcDbArc
 50
180.0
 51
270.0
  0
ARC
  5
37F
330
2
100
AcDbEntity
  8
4
100
AcDbCircle
 10
443.3018020764871
 20
428.591895212458
 30
0.0
 40
5.0
100
AcDbArc
 50
90.0
 51
180.0
  0
LINE
  5
380
330
2
100
AcDbEntity
  8
4
100
AcDbLine
 10
438.3018020764871
 20
428.591895212458
 30
0.0
 11
438.3018020764871
 21
392.5918952124584
 31
0.0
  0
LINE
  5
381
330
2
100
AcDbEntity
  8
4
100
AcDbLine
 10
448.3018020764871
 20
422.0918952124578
 30
0.0
 11
448.3018020764871
 21
399.091895212458
 31
0.0
  0
ARC
  5
382
330
2
100
AcDbEntity
  8
4
100
AcDbCircle
 10
473.3018020764871
 20
422.0918952124582
 30
0.0
 40
1.5
100
AcDbArc
 50
90.0
 51
180.0
  0
ARC
  5
383
330
2
100
AcDbEntity
  8
4
100
AcDbCircle
 10
453.301802076488
 20
422.0918952124578
 30
0.0
 40
1.5
100
AcDbArc
 50
0.0
 51
90.0
  0
LINE
  5
384
330
2
100
AcDbEntity
  8
4
100
AcDbLine
 10
449.8018020764871
 20
423.5918952124578
 30
0.0
 11
453.301802076488
 21
423.5918952124578
 31
0.0
  0
ARC
  5
385
330
2
100
AcDbEntity
  8
4
100
AcDbCircle
 10
473.3018020764871
 20
399.0918952124582
 30
0.0
 40
1.5
100
AcDbArc
 50
180.0
 51
270.0
  0
LINE
  5
386
330
2
100
AcDbEntity
  8
4
100
AcDbLine
 10
456.301802076488
 20
404.091895212458
 30
0.0
 11
465.8018020764871
 21
404.091895212458
 31
0.0
  0
LINE
  5
387
330
2
100
AcDbEntity
  8
4
100
AcDbLine
 10
449.8018020764871
 20
397.591895212458
 30
0.0
 11
465.8018020764871
 21
397.591895212458
 31
0.0
  0
ARC
  5
388
330
2
100
AcDbEntity
  8
4
100
AcDbCircle
 10
456.301802076488
 20
405.591895212458
 30
0.0
 40
1.5
100
AcDbArc
 50
180.0
 51
270.0
  0
LINE
  5
389
330
2
100
AcDbEntity
  8
4
100
AcDbLine
 10
467.3018020764871
 20
402.591895212458
 30
0.0
 11
467.3018020764871
 21
399.091895212458
 31
0.0
  0
ARC
  5
38A
330
2
100
AcDbEntity
  8
4
100
AcDbCircle
 10
465.8018020764871
 20
399.091895212458
 30
0.0
 40
1.5
100
AcDbArc
 50
270.0
 51
0.0
  0
ARC
  5
38B
330
2
100
AcDbEntity
  8
4
100
AcDbCircle
 10
465.8018020764871
 20
402.591895212458
 30
0.0
 40
1.5
100
AcDbArc
 50
0.0
 51
90.0
  0
LINE
  5
38C
330
2
100
AcDbEntity
  8
4
100
AcDbLine
 10
454.801802076488
 20
422.0918952124578
 30
0.0
 11
454.801802076488
 21
405.591895212458
 31
0.0
  0
LINE
  5
38D
330
2
100
AcDbEntity
  8
4
100
AcDbLine
 10
471.8018020764871
 20
422.0918952124582
 30
0.0
 11
471.8018020764871
 21
399.0918952124582
 31
0.0
  0
LINE
  5
38E
330
2
100
AcDbEntity
  8
4
100
AcDbLine
 10
497.3018020764871
 20
413.841895212458
 30
0.0
 11
500.8018020764871
 21
413.841895212458
 31
0.0
  0
LINE
  5
38F
330
2
100
AcDbEntity
  8
4
100
AcDbLine
 10
497.301802076488
 20
407.341895212458
 30
0.0
 11
500.801802076488
 21
407.341895212458
 31
0.0
  0
ARC
  5
390
330
2
100
AcDbEntity
  8
4
100
AcDbCircle
 10
485.8018020764871
 20
418.5918952124582
 30
0.0
 40
5.0
100
AcDbArc
 50
0.0
 51
90.0
  0
LINE
  5
391
330
2
100
AcDbEntity
  8
4
100
AcDbLine
 10
490.8018020764871
 20
416.5918952124582
 30
0.0
 11
490.8018020764871
 21
418.5918952124582
 31
0.0
  0
ARC
  5
392
330
2
100
AcDbEntity
  8
4
100
AcDbCircle
 10
497.301802076488
 20
408.841895212458
 30
0.0
 40
1.5
100
AcDbArc
 50
180.0
 51
270.0
  0
ARC
  5
393
330
2
100
AcDbEntity
  8
4
100
AcDbCircle
 10
497.3018020764871
 20
412.341895212458
 30
0.0
 40
1.5
100
AcDbArc
 50
90.0
 51
180.0
  0
LINE
  5
394
330
2
100
AcDbEntity
  8
4
100
AcDbLine
 10
495.8018020764871
 20
412.341895212458
 30
0.0
 11
495.801802076488
 21
408.841895212458
 31
0.0
  0
ARC
  5
395
330
2
100
AcDbEntity
  8
4
100
AcDbCircle
 10
485.8018020764871
 20
404.3468972140329
 30
0.0
 40
5.0
100
AcDbArc
 50
0.0
 51
51.31781254661347
  0
ARC
  5
396
330
2
100
AcDbEntity
  8
4
100
AcDbCircle
 10
485.8018020764871
 20
402.5918952124582
 30
0.0
 40
5.0
100
AcDbArc
 50
270.0
 51
0.0
  0
ARC
  5
397
330
2
100
AcDbEntity
  8
4
100
AcDbCircle
 10
490.8018020764871
 20
410.5918952124582
 30
0.0
 40
3.0
100
AcDbArc
 50
180.0
 51
231.3178125466431
  0
ARC
  5
398
330
2
100
AcDbEntity
  8
4
100
AcDbCircle
 10
490.8018020764871
 20
410.5918952124582
 30
0.0
 40
3.0
100
AcDbArc
 50
180.0
 51
231.3178125466431
  0
ARC
  5
399
330
2
100
AcDbEntity
  8
4
100
AcDbCircle
 10
490.8018020764871
 20
410.5918952124582
 30
0.0
 40
3.0
100
AcDbArc
 50
128.6821874533569
 51
180.0
  0
ARC
  5
39A
330
2
100
AcDbEntity
  8
4
100
AcDbCircle
 10
490.8018020764871
 20
410.5918952124582
 30
0.0
 40
3.0
100
AcDbArc
 50
128.6821874533569
 51
180.0
  0
LINE
  5
39B
330
2
100
AcDbEntity
  8
4
100
AcDbLine
 10
490.8018020764871
 20
404.5918952124582
 30
0.0
 11
490.8018020764871
 21
402.5918952124582
 31
0.0
  0
ARC
  5
39C
330
2
100
AcDbEntity
  8
4
100
AcDbCircle
 10
485.8018020764871
 20
416.8368932108831
 30
0.0
 40
5.0
100
AcDbArc
 50
308.6821874533866
 51
0.0
  0
ARC
  5
39D
330
2
100
AcDbEntity
  8
4
100
AcDbCircle
 10
517.4010876449406
 20
422.0918952124578
 30
0.0
 40
1.5
100
AcDbArc
 50
90.0
 51
149.0362434679183
  0
LINE
  5
39E
330
2
100
AcDbEntity
  8
4
100
AcDbLine
 10
517.4010876449406
 20
423.5918952124578
 30
0.0
 11
521.4827539713328
 21
423.5918952124578
 31
0.0
  0
ARC
  5
39F
330
2
100
AcDbEntity
  8
4
100
AcDbCircle
 10
515.0813251082395
 20
405.591895212458
 30
0.0
 40
8.0
100
AcDbArc
 50
149.0362434679205
 51
270.0
  0
LINE
  5
3A0
330
2
100
AcDbEntity
  8
4
100
AcDbLine
 10
502.3018020764871
 20
412.341895212458
 30
0.0
 11
502.301802076488
 21
408.841895212458
 31
0.0
  0
ARC
  5
3A1
330
2
100
AcDbEntity
  8
4
100
AcDbCircle
 10
500.801802076488
 20
408.841895212458
 30
0.0
 40
1.5
100
AcDbArc
 50
270.0
 51
0.0
  0
ARC
  5
3A2
330
2
100
AcDbEntity
  8
4
100
AcDbCircle
 10
500.8018020764871
 20
412.341895212458
 30
0.0
 40
1.5
100
AcDbArc
 50
0.0
 51
90.0
  0
LINE
  5
3A3
330
2
100
AcDbEntity
  8
4
100
AcDbLine
 10
515.0813251082395
 20
397.591895212458
 30
0.0
 11
518.3018020764871
 21
397.591895212458
 31
0.0
  0
LINE
  5
3A4
330
2
100
AcDbEntity
  8
4
100
AcDbLine
 10
516.1148482563717
 20
422.8636388455991
 30
0.0
 11
508.221381702539
 21
409.7078612558782
 31
0.0
  0
ARC
  5
3A5
330
2
100
AcDbEntity
  8
4
100
AcDbCircle
 10
522.959695177598
 20
415.8070360472991
 30
0.0
 40
3.0
100
AcDbArc
 50
149.0362434679213
 51
244.9477343081576
  0
ARC
  5
3A6
330
2
100
AcDbEntity
  8
4
100
AcDbCircle
 10
531.3018020764871
 20
428.591895212458
 30
0.0
 40
5.0
100
AcDbArc
 50
0.0
 51
90.0
  0
LINE
  5
3A7
330
2
100
AcDbEntity
  8
4
100
AcDbLine
 10
536.3018020764871
 20
428.591895212458
 30
0.0
 11
536.3018020764871
 21
392.5918952124584
 31
0.0
  0
LINE
  5
3A8
330
2
100
AcDbEntity
  8
4
100
AcDbLine
 10
850.5341829756981
 20
389.9220750519796
 30
0.0
 11
853.4639548729515
 21
431.8197651628916
 31
0.0
  0
LINE
  5
3A9
330
2
100
AcDbEntity
  8
4
100
AcDbLine
 10
852.3897981287296
 20
387.7874340039716
 30
0.0
 11
855.0110466136712
 21
387.6041384541079
 31
0.0
  0
ARC
  5
3AA
330
2
100
AcDbEntity
  8
4
100
AcDbCircle
 10
852.5293110762177
 20
389.7825621044913
 30
0.0
 40
2.0
100
AcDbArc
 50
175.999999999997
 51
265.9999999999905
  0
LINE
  5
3AB
330
2
100
AcDbEntity
  8
4
100
AcDbLine
 10
855.5985959209593
 20
433.6753803159231
 30
0.0
 11
857.8475328265804
 21
433.5181193278509
 31
0.0
  0
ARC
  5
3AC
330
2
100
AcDbEntity
  8
4
100
AcDbCircle
 10
855.4590829734711
 20
431.6802522154035
 30
0.0
 40
2.0
100
AcDbArc
 50
85.9999999999905
 51
175.999999999997
  0
ARC
  5
3AD
330
2
100
AcDbEntity
  8
4
100
AcDbCircle
 10
368.2200108848363
 20
349.24533130026
 30
0.0
 40
5.0
100
AcDbArc
 50
354.954724260656
 51
104.1096734023554
  0
LINE
  5
3AE
330
2
100
AcDbEntity
  8
4
100
AcDbLine
 10
381.3018020764869
 20
339.5918952124582
 30
0.0
 11
381.3018020764869
 21
354.5502228264598
 31
0.0
  0
LINE
  5
3AF
330
2
100
AcDbEntity
  8
4
100
AcDbLine
 10
373.200638463177
 20
348.8056167043273
 30
0.0
 11
367.1600926039348
 21
280.3846236943743
 31
0.0
  0
ARC
  5
3B0
330
2
100
AcDbEntity
  8
4
100
AcDbCircle
 10
362.1794650255945
 20
280.8243382903083
 30
0.0
 40
5.0
100
AcDbArc
 50
276.9909507824008
 51
354.9547242606494
  0
LINE
  5
562
330
2
100
AcDbEntity
  8
4
100
AcDbLine
 10
149.3018030764867
 20
393.5918952124589
 30
0.0
 11
149.3018030764867
 21
358.5918942124588
 31
0.0
  0
LINE
  5
563
330
2
100
AcDbEntity
  8
4
100
AcDbLine
 10
150.3018020764868
 20
389.5918962124588
 30
0.0
 11
150.3018020764868
 21
357.5918952124589
 31
0.0
  0
LINE
  5
564
330
2
100
AcDbEntity
  8
4
100
AcDbLine
 10
229.3018010764868
 20
393.0918942124588
 30
0.0
 11
229.3018010764868
 21
353.5918962124588
 31
0.0
  0
LINE
  5
566
330
2
100
AcDbEntity
  8
4
100
AcDbLine
 10
229.3018010764868
 20
357.5918952124589
 30
0.0
 11
150.3018020764868
 21
357.5918952124589
 31
0.0
  0
LINE
  5
567
330
2
100
AcDbEntity
  8
4
100
AcDbLine
 10
247.3018010764868
 20
353.5918962124588
 30
0.0
 11
229.3018010764868
 21
353.5918962124588
 31
0.0
  0
LINE
  5
568
330
2
100
AcDbEntity
  8
4
100
AcDbLine
 10
150.3018020764868
 20
357.5918952124589
 30
0.0
 11
149.3018030764867
 21
358.5918942124588
 31
0.0
  0
LINE
  5
569
330
2
100
AcDbEntity
  8
4
100
AcDbLine
 10
149.3018030764867
 20
393.5918952124589
 30
0.0
 11
224.3018030764867
 21
393.5918952124589
 31
0.0
  0
LINE
  5
56A
330
2
100
AcDbEntity
  8
4
100
AcDbLine
 10
229.3018010764868
 20
389.5918962124588
 30
0.0
 11
150.3018020764868
 21
389.5918962124588
 31
0.0
  0
LINE
  5
56B
330
2
100
AcDbEntity
  8
4
100
AcDbLine
 10
224.3018030764867
 20
393.5918952124589
 30
0.0
 11
224.3018030764867
 21
389.5918962124588
 31
0.0
  0
LINE
  5
56C
330
2
100
AcDbEntity
  8
4
100
AcDbLine
 10
229.3018010764868
 20
393.0918942124588
 30
0.0
 11
247.3018010764868
 21
393.0918942124588
 31
0.0
  0
LINE
  5
56D
330
2
100
AcDbEntity
  8
4
100
AcDbLine
 10
149.3018030764867
 20
388.5918942124588
 30
0.0
 11
150.3018020764868
 21
389.5918962124588
 31
0.0
  0
LINE
  5
581
330
2
100
AcDbEntity
  8
4
100
AcDbLine
 10
149.3018020764868
 20
878.1797966503138
 30
0.0
 11
149.3018020764868
 21
848.1797966503138
 31
0.0
  0
ARC
  5
582
330
2
100
AcDbEntity
  8
4
100
AcDbCircle
 10
219.3018020764868
 20
863.1797966503138
 30
0.0
 40
5.0
100
AcDbArc
 50
270.0
 51
0.0
  0
LINE
  5
583
330
2
100
AcDbEntity
  8
4
100
AcDbLine
 10
229.3018020764868
 20
883.1797966503138
 30
0.0
 11
229.3018020764868
 21
843.1797966503138
 31
0.0
  0
LINE
  5
584
330
2
100
AcDbEntity
  8
4
100
AcDbLine
 10
228.3018020764868
 20
847.1797966503138
 30
0.0
 11
150.3018020764868
 21
847.1797966503138
 31
0.0
  0
LINE
  5
585
330
2
100
AcDbEntity
  8
4
100
AcDbLine
 10
219.3018020764868
 20
858.1797966503138
 30
0.0
 11
149.3018020764868
 21
858.1797966503138
 31
0.0
  0
LINE
  5
586
330
2
100
AcDbEntity
  8
4
100
AcDbLine
 10
247.3018010764868
 20
843.1797966503138
 30
0.0
 11
229.3018020764868
 21
843.1797966503138
 31
0.0
  0
ARC
  5
587
330
2
100
AcDbEntity
  8
4
100
AcDbCircle
 10
228.3018020764868
 20
846.1797966503138
 30
0.0
 40
1.0
100
AcDbArc
 50
0.0
 51
90.0
  0
LINE
  5
588
330
2
100
AcDbEntity
  8
4
100
AcDbLine
 10
150.3018020764868
 20
858.1797966503138
 30
0.0
 11
150.3018020764868
 21
847.1797966503138
 31
0.0
  0
LINE
  5
589
330
2
100
AcDbEntity
  8
4
100
AcDbLine
 10
149.3018020764868
 20
848.1797966503138
 30
0.0
 11
150.3018020764868
 21
847.1797966503138
 31
0.0
  0
LINE
  5
58A
330
2
100
AcDbEntity
  8
4
100
AcDbLine
 10
228.3018020764868
 20
879.1797966503138
 30
0.0
 11
150.3018020764868
 21
879.1797966503138
 31
0.0
  0
LINE
  5
58B
330
2
100
AcDbEntity
  8
4
100
AcDbLine
 10
219.3018020764868
 20
868.1797966503138
 30
0.0
 11
149.3018020764868
 21
868.1797966503138
 31
0.0
  0
LINE
  5
58C
330
2
100
AcDbEntity
  8
4
100
AcDbLine
 10
247.3018010764868
 20
883.1797966503141
 30
0.0
 11
229.3018020764868
 21
883.1797966503138
 31
0.0
  0
ARC
  5
58D
330
2
100
AcDbEntity
  8
4
100
AcDbCircle
 10
219.3018020764868
 20
863.1797966503138
 30
0.0
 40
5.0
100
AcDbArc
 50
0.0
 51
90.0
  0
LINE
  5
58E
330
2
100
AcDbEntity
  8
4
100
AcDbLine
 10
224.3018020764868
 20
863.1797966503138
 30
0.0
 11
224.3018020764868
 21
863.1797966503138
 31
0.0
  0
ARC
  5
58F
330
2
100
AcDbEntity
  8
4
100
AcDbCircle
 10
228.3018020764868
 20
880.1797966503138
 30
0.0
 40
1.0
100
AcDbArc
 50
270.0
 51
0.0
  0
LINE
  5
590
330
2
100
AcDbEntity
  8
4
100
AcDbLine
 10
150.3018020764868
 20
879.1797966503138
 30
0.0
 11
149.3018020764868
 21
878.1797966503138
 31
0.0
  0
LINE
  5
591
330
2
100
AcDbEntity
  8
4
100
AcDbLine
 10
150.3018020764868
 20
879.1797966503138
 30
0.0
 11
150.3018020764868
 21
868.1797966503138
 31
0.0
  0
LINE
  5
592
330
2
100
AcDbEntity
  8
4
100
AcDbLine
 10
405.3018020764863
 20
643.1797966503138
 30
0.0
 11
405.3018020764863
 21
727.1797966503138
 31
0.0
  0
LINE
  5
593
330
2
100
AcDbEntity
  8
4
100
AcDbLine
 10
393.3018020764863
 20
643.1797966503138
 30
0.0
 11
393.3018020764863
 21
727.1797966503138
 31
0.0
  0
LINE
  5
594
330
2
100
AcDbEntity
  8
4
100
AcDbLine
 10
423.3018020764868
 20
742.1797966503138
 30
0.0
 11
423.3018020764868
 21
644.1797966503138
 31
0.0
  0
LINE
  5
595
330
2
100
AcDbEntity
  8
4
100
AcDbLine
 10
375.3018020764863
 20
742.1797966503138
 30
0.0
 11
375.3018020764863
 21
644.1797966503138
 31
0.0
  0
LINE
  5
596
330
2
100
AcDbEntity
  8
4
100
AcDbLine
 10
424.3018020764863
 20
763.8797966503137
 30
0.0
 11
424.3018020764863
 21
743.1797966503138
 31
0.0
  0
LINE
  5
597
330
2
100
AcDbEntity
  8
4
100
AcDbLine
 10
374.3018020764866
 20
763.8797966503137
 30
0.0
 11
374.3018020764868
 21
743.1797966503138
 31
0.0
  0
LINE
  5
598
330
2
100
AcDbEntity
  8
4
100
AcDbLine
 10
374.3018020764868
 20
743.1797966503138
 30
0.0
 11
424.3018020764863
 21
743.1797966503138
 31
0.0
  0
ARC
  5
599
330
2
100
AcDbEntity
  8
4
100
AcDbCircle
 10
374.3018020764864
 20
742.1797966503138
 30
0.0
 40
1.0
100
AcDbArc
 50
0.0
 51
90.0
  0
LINE
  5
59A
330
2
100
AcDbEntity
  8
4
100
AcDbLine
 10
374.3018020764868
 20
743.1797966503138
 30
0.0
 11
374.3018020764863
 21
743.1797966503138
 31
0.0
  0
ARC
  5
59B
330
2
100
AcDbEntity
  8
4
100
AcDbCircle
 10
424.3018020764864
 20
742.1797966503138
 30
0.0
 40
1.0
100
AcDbArc
 50
90.0
 51
180.0
  0
LINE
  5
59C
330
2
100
AcDbEntity
  8
4
100
AcDbLine
 10
424.3018020764863
 20
743.1797966503138
 30
0.0
 11
424.3018020764863
 21
743.1797966503138
 31
0.0
  0
ARC
  5
59D
330
2
100
AcDbEntity
  8
4
100
AcDbCircle
 10
399.3018020764868
 20
727.1797966503138
 30
0.0
 40
6.000000000000028
100
AcDbArc
 50
0.0
 51
180.0
  0
LINE
  5
59E
330
2
100
AcDbEntity
  8
4
100
AcDbLine
 10
405.3018020764863
 20
644.1797966503138
 30
0.0
 11
423.3018020764868
 21
644.1797966503138
 31
0.0
  0
LINE
  5
59F
330
2
100
AcDbEntity
  8
4
100
AcDbLine
 10
376.3018020764863
 20
643.1797966503138
 30
0.0
 11
422.3018020764868
 21
643.1797966503138
 31
0.0
  0
LINE
  5
5A0
330
2
100
AcDbEntity
  8
4
100
AcDbLine
 10
375.3018020764863
 20
644.1797966503138
 30
0.0
 11
393.3018020764863
 21
644.1797966503138
 31
0.0
  0
LINE
  5
5A1
330
2
100
AcDbEntity
  8
4
100
AcDbLine
 10
375.3018020764863
 20
644.1797966503138
 30
0.0
 11
376.3018020764863
 21
643.1797966503138
 31
0.0
  0
LINE
  5
5A2
330
2
100
AcDbEntity
  8
4
100
AcDbLine
 10
423.3018020764868
 20
644.1797966503138
 30
0.0
 11
422.3018020764868
 21
643.1797966503138
 31
0.0
  0
LINE
  5
5A3
330
2
100
AcDbEntity
  8
4
100
AcDbLine
 10
700.8474051409876
 20
249.5918952124593
 30
0.0
 11
700.8474051409876
 21
201.5918952124593
 31
0.0
  0
LINE
  5
5A4
330
2
100
AcDbEntity
  8
4
100
AcDbLine
 10
699.8474061409875
 20
253.0918962124593
 30
0.0
 11
699.8474061409875
 21
202.5918942124593
 31
0.0
  0
LINE
  5
5A5
330
2
100
AcDbEntity
  8
4
100
AcDbLine
 10
799.8474051409876
 20
250.5918942124591
 30
0.0
 11
799.8474051409876
 21
200.5918962124591
 31
0.0
  0
LINE
  5
5A6
330
2
100
AcDbEntity
  8
4
100
AcDbLine
 10
820.8474051409878
 20
225.5918952124591
 30
0.0
 11
820.8474051409878
 21
189.5918952124591
 31
0.0
  0
LINE
  5
5A7
330
2
100
AcDbEntity
  8
4
100
AcDbLine
 10
799.8474051409876
 20
201.5918952124591
 30
0.0
 11
700.8474051409876
 21
201.5918952124593
 31
0.0
  0
LINE
  5
5A8
330
2
100
AcDbEntity
  8
4
100
AcDbLine
 10
820.8474051409877
 20
200.5918962124591
 30
0.0
 11
799.8474051409876
 21
200.5918962124591
 31
0.0
  0
LINE
  5
5A9
330
2
100
AcDbEntity
  8
4
100
AcDbLine
 10
820.8474051409878
 20
189.5918952124591
 30
0.0
 11
821.8474041409875
 21
189.5918952124591
 31
0.0
  0
LINE
  5
5AA
330
2
100
AcDbEntity
  8
4
100
AcDbLine
 10
700.8474051409876
 20
201.5918952124593
 30
0.0
 11
699.8474061409875
 21
202.5918942124593
 31
0.0
  0
LINE
  5
5AB
330
2
100
AcDbEntity
  8
4
100
AcDbLine
 10
799.8474051409876
 20
249.5918952124591
 30
0.0
 11
700.8474051409876
 21
249.5918952124593
 31
0.0
  0
LINE
  5
5AC
330
2
100
AcDbEntity
  8
4
100
AcDbLine
 10
699.8474061409875
 20
253.0918962124593
 30
0.0
 11
789.8474061409875
 21
253.0918962124591
 31
0.0
  0
LINE
  5
5AD
330
2
100
AcDbEntity
  8
4
100
AcDbLine
 10
820.8474051409878
 20
225.5918952124591
 30
0.0
 11
820.8474051409879
 21
261.5918952124591
 31
0.0
  0
LINE
  5
5AE
330
2
100
AcDbEntity
  8
4
100
AcDbLine
 10
799.8474051409876
 20
250.5918942124591
 30
0.0
 11
820.8474051409879
 21
250.5918942124591
 31
0.0
  0
LINE
  5
5AF
330
2
100
AcDbEntity
  8
4
100
AcDbLine
 10
820.8474051409879
 20
261.5918952124591
 30
0.0
 11
821.8474041409876
 21
261.5918952124591
 31
0.0
  0
LINE
  5
5B0
330
2
100
AcDbEntity
  8
4
100
AcDbLine
 10
789.8474061409875
 20
253.0918962124591
 30
0.0
 11
789.8474061409875
 21
249.5918952124591
 31
0.0
  0
LINE
  5
5B3
330
2
100
AcDbEntity
  8
4
100
AcDbLine
 10
699.8474061409875
 20
248.5918962124593
 30
0.0
 11
700.8474051409876
 21
249.5918952124593
 31
0.0
  0
ARC
  5
5D3
330
2
100
AcDbEntity
  8
4
100
AcDbCircle
 10
399.3018020764868
 20
225.5918952124588
 30
0.0
 40
24.0
100
AcDbArc
 50
104.4775121859299
 51
75.52248799999826
  0
LINE
  5
5D4
330
2
100
AcDbEntity
  8
4
100
AcDbLine
 10
405.3018020764868
 20
245.0918952124588
 30
0.0
 11
405.3018020764868
 21
253.0918962124588
 31
0.0
  0
LINE
  5
5D5
330
2
100
AcDbEntity
  8
4
100
AcDbLine
 10
393.3018020764868
 20
253.0918962124588
 30
0.0
 11
393.3018020764868
 21
245.0918952124588
 31
0.0
  0
LINE
  5
5D6
330
2
100
AcDbEntity
  8
4
100
AcDbLine
 10
405.3018020764868
 20
245.0918952124588
 30
0.0
 11
393.3018020764868
 21
245.0918952124588
 31
0.0
  0
LINE
  5
5D7
330
2
100
AcDbEntity
  8
4
100
AcDbLine
 10
405.3018020764868
 20
253.0918962124588
 30
0.0
 11
393.3018020764868
 21
253.0918962124588
 31
0.0
  0
CIRCLE
  5
5D8
330
2
100
AcDbEntity
  8
4
100
AcDbCircle
 10
399.3018020764868
 20
225.5918952124588
 30
0.0
 40
36.00000000000028
  0
LINE
  5
632
330
2
100
AcDbEntity
  8
4
100
AcDbLine
 10
551.3018030764867
 20
823.1797946503139
 30
0.0
 11
550.3018010764868
 21
823.1797946503139
 31
0.0
  0
ENDSEC
  0
SECTION
  2
OBJECTS
  0
DICTIONARY
  5
C
330
0
100
AcDbDictionary
281
     1
  3
ACAD_CIP_PREVIOUS_PRODUCT_INFO
350
51B
  3
ACAD_COLOR
350
4A
  3
ACAD_DETAILVIEWSTYLE
350
515
  3
ACAD_GROUP
350
37
  3
ACAD_LAYOUT
350
19
  3
ACAD_MATERIAL
350
E
  3
ACAD_MLEADERSTYLE
350
4D
  3
ACAD_MLINESTYLE
350
38
  3
ACAD_PLOTSETTINGS
350
39
  3
ACAD_PLOTSTYLENAME
350
B
  3
ACAD_SCALELIST
350
4B
  3
ACAD_SECTIONVIEWSTYLE
350
513
  3
ACAD_TABLESTYLE
350
4C
  3
ACAD_VISUALSTYLE
350
30
  3
ACDBHEADERROUNDTRIPXREC
350
63F
  3
AcDbVariableDictionary
350
4F2
  3
DWGPROPS
350
642
  0
DICTIONARY
  5
643
330
2D
100
AcDbDictionary
280
     1
281
     1
  3
ACAD_XREC_ROUNDTRIP
360
644
  0
DICTIONARY
  5
23
330
22
100
AcDbDictionary
280
     1
281
     1
  3
ACAD_LAYERSTATES
360
24
  0
DICTIONARY
  5
8
330
7
100
AcDbDictionary
280
     1
281
     1
  3
ADSK_XREC_LAYER_RECONCILED
360
9
  0
DICTIONARY
  5
3C0
330
3BF
100
AcDbDictionary
280
     1
281
     1
  3
ADSK_XREC_LAYER_RECONCILED
360
3C1
  0
DICTIONARY
  5
4F
330
4E
100
AcDbDictionary
280
     1
281
     1
  3
ADSK_XREC_LAYER_RECONCILED
360
50
  0
DICTIONARY
  5
6B
330
6A
100
AcDbDictionary
280
     1
281
     1
  3
ADSK_XREC_LAYER_RECONCILED
360
6C
  0
DICTIONARY
  5
74
330
73
100
AcDbDictionary
280
     1
281
     1
  3
ADSK_XREC_LAYER_RECONCILED
360
75
  0
DICTIONARY
  5
8B
330
8A
100
AcDbDictionary
280
     1
281
     1
  3
ADSK_XREC_LAYER_RECONCILED
360
8C
  0
DICTIONARY
  5
3
330
2
100
AcDbDictionary
280
     1
281
     1
  3
ACAD_SORTENTS
360
4F0
  0
XRECORD
  5
51B
102
{ACAD_REACTORS
330
C
102
}
330
C
100
AcDbXrecord
280
     1
300
ACD
300
2014
300
ACD_F_S
  0
DICTIONARY
  5
4A
102
{ACAD_REACTORS
330
C
102
}
330
C
100
AcDbDictionary
281
     1
  0
DICTIONARY
  5
515
102
{ACAD_REACTORS
330
C
102
}
330
C
100
AcDbDictionary
281
     1
  3
Imperial24
350
516
  0
DICTIONARY
  5
37
102
{ACAD_REACTORS
330
C
102
}
330
C
100
AcDbDictionary
281
     1
  0
DICTIONARY
  5
19
102
{ACAD_REACTORS
330
C
102
}
330
C
100
AcDbDictionary
281
     1
  3
Model
350
18
  3
ﾚｲｱｳﾄ1
350
21
  0
DICTIONARY
  5
E
102
{ACAD_REACTORS
330
C
102
}
330
C
100
AcDbDictionary
281
     1
  3
ByBlock
350
42
  3
ByLayer
350
3A
  3
Global
350
D
  0
DICTIONARY
  5
4D
102
{ACAD_REACTORS
330
C
102
}
330
C
100
AcDbDictionary
281
     1
  3
Standard
350
512
  0
DICTIONARY
  5
38
102
{ACAD_REACTORS
330
C
102
}
330
C
100
AcDbDictionary
281
     1
  3
STANDARD
350
52
  0
DICTIONARY
  5
39
102
{ACAD_REACTORS
330
C
102
}
330
C
100
AcDbDictionary
281
     1
  0
ACDBDICTIONARYWDFLT
  5
B
102
{ACAD_REACTORS
330
C
102
}
330
C
100
AcDbDictionary
281
     1
  3
Normal
350
A
100
AcDbDictionaryWithDefault
340
A
  0
DICTIONARY
  5
4B
102
{ACAD_REACTORS
330
C
102
}
330
C
100
AcDbDictionary
281
     1
  3
A0
350
56
  3
A1
350
57
  3
A2
350
58
  3
A3
350
59
  3
A4
350
5A
  3
A5
350
5B
  3
A6
350
5C
  3
A7
350
5D
  3
A8
350
5E
  3
A9
350
5F
  3
B0
350
60
  3
B1
350
61
  3
B2
350
62
  3
B3
350
63
  3
B4
350
64
  3
B5
350
65
  3
B6
350
66
  0
DICTIONARY
  5
513
102
{ACAD_REACTORS
330
C
102
}
330
C
100
AcDbDictionary
281
     1
  3
Imperial24
350
514
  0
DICTIONARY
  5
4C
102
{ACAD_REACTORS
330
C
102
}
330
C
100
AcDbDictionary
281
     1
  3
Standard
350
53
  0
DICTIONARY
  5
30
102
{ACAD_REACTORS
330
C
102
}
330
C
100
AcDbDictionary
281
     1
  3
2dWireframe
350
2F
  3
Basic
350
501
  3
Brighten
350
505
  3
ColorChange
350
509
  3
Conceptual
350
503
  3
Dim
350
504
  3
EdgeColorOff
350
511
  3
Facepattern
350
508
  3
Flat
350
4FD
  3
FlatWithEdges
350
4FE
  3
Gouraud
350
4FF
  3
GouraudWithEdges
350
500
  3
Hidden
350
502
  3
JitterOff
350
50F
  3
Linepattern
350
507
  3
OverhangOff
350
510
  3
Realistic
350
54
  3
Shaded
350
50E
  3
Shaded with edges
350
50D
  3
Shades of Gray
350
50A
  3
Sketchy
350
50B
  3
Thicken
350
506
  3
Wireframe
350
55
  3
X-Ray
350
50C
  0
DICTIONARY
  5
63F
102
{ACAD_REACTORS
330
C
102
}
330
C
100
AcDbDictionary
281
     1
  3
COLORDICT
350
640
  3
MATERIALDICT
350
641
  0
DICTIONARY
  5
4F2
102
{ACAD_REACTORS
330
C
102
}
330
C
100
AcDbDictionary
281
     1
  3
CANNOSCALE
350
4F8
  3
CMLEADERSTYLE
350
4F4
  3
CTABLESTYLE
350
4F3
  3
CVIEWDETAILSTYLE
350
4F5
  3
CVIEWSECTIONSTYLE
350
4F6
  3
DIMASSOC
350
63D
  3
HIDETEXT
350
63E
  3
LAYEREVAL
350
4FA
  3
LAYERNOTIFY
350
4FB
  3
LIGHTINGUNITS
350
4F9
  3
MSLTSCALE
350
4F7
  3
XCLIPFRAME
350
612
  0
XRECORD
  5
642
102
{ACAD_REACTORS
330
C
102
}
330
C
100
AcDbXrecord
280
     1
  1
DWGPROPS COOKIE
  2

  3

  4

  6

  7

  8
sg-d04
  9

300
=
301
=
302
=
303
=
304
=
305
=
306
=
307
=
308
=
309
=
 40
0.0
 41
2457295.188286516
 42
2457870.23367544
  1

 90
        0
  0
XRECORD
  5
644
102
{ACAD_REACTORS
330
643
102
}
330
643
100
AcDbXrecord
280
     1
102
VTR_0.000_0.000_1.000_1.000_VISUALSTYLE
340
2F
102
VTR_0.000_0.000_1.000_1.000_GRIDDISPLAY
 70
     3
102
VTR_0.000_0.000_1.000_1.000_GRIDMAJOR
 70
     5
102
VTR_0.000_0.000_1.000_1.000_DEFAULTLIGHTING
280
     1
102
VTR_0.000_0.000_1.000_1.000_DEFAULTLIGHTINGTYPE
 70
     1
102
VTR_0.000_0.000_1.000_1.000_BRIGHTNESS
141
0.0
102
VTR_0.000_0.000_1.000_1.000_CONTRAST
142
0.0
  0
DICTIONARY
  5
24
102
{ACAD_REACTORS
330
23
102
}
330
23
100
AcDbDictionary
281
     1
  0
XRECORD
  5
9
102
{ACAD_REACTORS
330
8
102
}
330
8
100
AcDbXrecord
280
     1
290
     1
  0
XRECORD
  5
3C1
102
{ACAD_REACTORS
330
3C0
102
}
330
3C0
100
AcDbXrecord
280
     1
290
     1
  0
XRECORD
  5
50
102
{ACAD_REACTORS
330
4F
102
}
330
4F
100
AcDbXrecord
280
     1
290
     1
  0
XRECORD
  5
6C
102
{ACAD_REACTORS
330
6B
102
}
330
6B
100
AcDbXrecord
280
     1
290
     1
  0
XRECORD
  5
75
102
{ACAD_REACTORS
330
74
102
}
330
74
100
AcDbXrecord
280
     1
290
     1
  0
XRECORD
  5
8C
102
{ACAD_REACTORS
330
8B
102
}
330
8B
100
AcDbXrecord
280
     1
290
     1
  0
SORTENTSTABLE
  5
4F0
102
{ACAD_REACTORS
330
3
102
}
330
3
100
AcDbSortentsTable
330
2
331
0
  5
635
331
EA
  5
EB
331
EB
  5
EC
331
EC
  5
ED
331
ED
  5
EE
331
EE
  5
EF
331
EF
  5
F0
331
F0
  5
F1
331
F1
  5
F2
331
F2
  5
F4
331
F3
  5
F5
331
F4
  5
F6
331
F5
  5
F7
331
F6
  5
F8
331
F7
  5
F9
331
F8
  5
FA
331
F9
  5
FB
331
FA
  5
FC
331
FB
  5
FD
331
FC
  5
FE
331
FD
  5
FF
331
FE
  5
100
331
FF
  5
101
331
100
  5
102
331
101
  5
103
331
102
  5
104
331
103
  5
105
331
104
  5
106
331
105
  5
107
331
106
  5
108
331
107
  5
109
331
108
  5
10A
331
109
  5
10B
331
10A
  5
10C
331
10B
  5
10D
331
10C
  5
10E
331
10D
  5
10F
331
10E
  5
110
331
10F
  5
111
331
110
  5
112
331
111
  5
113
331
112
  5
114
331
113
  5
115
331
115
  5
117
331
116
  5
118
331
118
  5
11A
331
11A
  5
11C
331
11B
  5
11D
331
11D
  5
11F
331
11E
  5
120
331
123
  5
125
331
124
  5
126
331
125
  5
127
331
126
  5
128
331
128
  5
12A
331
129
  5
12B
331
12A
  5
12C
331
12D
  5
12F
331
131
  5
133
331
140
  5
142
331
141
  5
143
331
142
  5
144
331
143
  5
145
331
144
  5
146
331
145
  5
147
331
146
  5
148
331
147
  5
149
331
148
  5
14A
331
149
  5
14B
331
14A
  5
14C
331
14B
  5
14D
331
14D
  5
14F
331
150
  5
152
331
151
  5
153
331
152
  5
154
331
153
  5
155
331
154
  5
156
331
155
  5
157
331
156
  5
158
331
157
  5
159
331
158
  5
15A
331
159
  5
15B
331
15A
  5
15C
331
15B
  5
15D
331
15C
  5
15E
331
15D
  5
15F
331
15F
  5
161
331
160
  5
162
331
161
  5
163
331
166
  5
168
331
167
  5
169
331
168
  5
16A
331
169
  5
16B
331
16A
  5
16C
331
16B
  5
16D
331
16C
  5
16E
331
16D
  5
16F
331
16E
  5
170
331
16F
  5
171
331
170
  5
172
331
171
  5
173
331
172
  5
174
331
173
  5
175
331
174
  5
176
331
175
  5
177
331
176
  5
178
331
177
  5
179
331
17A
  5
17C
331
17B
  5
17D
331
17C
  5
17E
331
17D
  5
17F
331
17E
  5
180
331
17F
  5
181
331
180
  5
182
331
181
  5
183
331
182
  5
184
331
183
  5
185
331
184
  5
186
331
185
  5
187
331
186
  5
188
331
187
  5
189
331
188
  5
18A
331
189
  5
18B
331
18A
  5
18C
331
18B
  5
18D
331
18C
  5
18E
331
18D
  5
18F
331
18E
  5
190
331
18F
  5
191
331
190
  5
192
331
192
  5
194
331
193
  5
195
331
194
  5
196
331
199
  5
19C
331
19B
  5
19D
331
19C
  5
19E
331
19D
  5
19F
331
19E
  5
1A0
331
19F
  5
1A1
331
1A0
  5
1A2
331
1A1
  5
1A3
331
1A2
  5
1A5
331
1A3
  5
1A6
331
1A5
  5
1A9
331
1A6
  5
1AA
331
1A9
  5
1AB
331
1AB
  5
1AD
331
1AC
  5
1AE
331
1AD
  5
1AF
331
1AE
  5
1B0
331
1AF
  5
1B1
331
1B1
  5
1B3
331
1B3
  5
1B5
331
1B4
  5
1B6
331
1B5
  5
1B7
331
1B6
  5
1B8
331
1B7
  5
1B9
331
1B8
  5
1BA
331
1B9
  5
1BB
331
1BA
  5
1BC
331
1BB
  5
1BD
331
1BC
  5
1BE
331
1BD
  5
1BF
331
1BE
  5
1C0
331
1BF
  5
1C1
331
1C0
  5
1C2
331
1C1
  5
1C3
331
1C2
  5
1C4
331
1C3
  5
1C5
331
1C4
  5
1C6
331
1C5
  5
1C7
331
1C6
  5
1C8
331
1C7
  5
1C9
331
1C8
  5
1CA
331
1C9
  5
1CB
331
1CA
  5
1CC
331
1CB
  5
1CD
331
1CC
  5
1CE
331
1CD
  5
1CF
331
1CE
  5
1D0
331
1D2
  5
1D4
331
1D3
  5
1D5
331
1D6
  5
1D8
331
1D7
  5
1D9
331
1DA
  5
1DC
331
1DB
  5
1DD
331
1DC
  5
1DE
331
1DD
  5
1DF
331
1DE
  5
1E0
331
1DF
  5
1E1
331
1E0
  5
1E2
331
1E1
  5
1E3
331
1E2
  5
1E4
331
1E3
  5
1E5
331
1E4
  5
1E6
331
1E5
  5
1E7
331
1E6
  5
1E8
331
1E7
  5
1E9
331
1E8
  5
1EA
331
1E9
  5
1EB
331
1EA
  5
1EC
331
1EB
  5
1ED
331
1EC
  5
1EE
331
1ED
  5
1EF
331
1EE
  5
1F0
331
1EF
  5
1F1
331
1F0
  5
1F2
331
1F1
  5
1F3
331
1F2
  5
1F4
331
1F3
  5
1F5
331
1F4
  5
1F6
331
1F5
  5
1FA
331
1F6
  5
1FB
331
1FA
  5
1FC
331
1FB
  5
1FD
331
1FC
  5
1FE
331
1FD
  5
1FF
331
1FE
  5
200
331
1FF
  5
201
331
200
  5
202
331
201
  5
203
331
202
  5
204
331
203
  5
205
331
204
  5
206
331
205
  5
207
331
206
  5
208
331
207
  5
209
331
208
  5
20A
331
209
  5
20B
331
20A
  5
20C
331
20B
  5
20D
331
20C
  5
20E
331
20D
  5
20F
331
20E
  5
210
331
20F
  5
211
331
210
  5
212
331
211
  5
213
331
212
  5
214
331
213
  5
215
331
214
  5
216
331
215
  5
217
331
216
  5
218
331
217
  5
219
331
218
  5
21A
331
219
  5
21B
331
21A
  5
21C
331
21B
  5
21D
331
21C
  5
21E
331
21D
  5
21F
331
21E
  5
220
331
21F
  5
221
331
220
  5
226
331
221
  5
227
331
226
  5
228
331
227
  5
229
331
228
  5
22A
331
229
  5
22B
331
22A
  5
22C
331
22B
  5
22D
331
22C
  5
22E
331
22D
  5
230
331
22E
  5
231
331
230
  5
232
331
231
  5
233
331
232
  5
234
331
234
  5
237
331
235
  5
238
331
237
  5
239
331
238
  5
23D
331
23D
  5
244
331
241
  5
245
331
244
  5
246
331
245
  5
247
331
246
  5
248
331
247
  5
249
331
248
  5
24A
331
249
  5
24B
331
24A
  5
24C
331
24B
  5
24D
331
24C
  5
24E
331
24D
  5
24F
331
24E
  5
250
331
24F
  5
251
331
250
  5
252
331
251
  5
253
331
252
  5
254
331
253
  5
255
331
254
  5
256
331
255
  5
257
331
256
  5
258
331
257
  5
259
331
258
  5
25A
331
259
  5
25B
331
25A
  5
25C
331
25B
  5
25D
331
25C
  5
25E
331
25D
  5
25F
331
25E
  5
260
331
25F
  5
263
331
260
  5
264
331
263
  5
265
331
264
  5
266
331
265
  5
267
331
266
  5
268
331
267
  5
269
331
268
  5
26A
331
269
  5
26B
331
26A
  5
26C
331
26B
  5
26F
331
26C
  5
270
331
26F
  5
271
331
275
  5
27B
331
276
  5
27C
331
27B
  5
27D
331
27C
  5
27E
331
27D
  5
27F
331
27E
  5
280
331
27F
  5
281
331
280
  5
282
331
281
  5
283
331
282
  5
284
331
283
  5
285
331
284
  5
286
331
285
  5
287
331
286
  5
288
331
287
  5
289
331
288
  5
28A
331
289
  5
28B
331
28A
  5
28C
331
28B
  5
28D
331
28C
  5
28E
331
28D
  5
28F
331
28E
  5
290
331
28F
  5
291
331
290
  5
292
331
291
  5
293
331
292
  5
294
331
293
  5
295
331
294
  5
296
331
295
  5
297
331
296
  5
298
331
297
  5
299
331
298
  5
29A
331
299
  5
29B
331
29A
  5
29C
331
29B
  5
29D
331
29C
  5
29E
331
29D
  5
29F
331
29E
  5
2A0
331
29F
  5
2A1
331
2A0
  5
2A2
331
2A1
  5
2A3
331
2A2
  5
2A4
331
2A3
  5
2A8
331
2A4
  5
2AA
331
2B7
  5
2BC
331
2BF
  5
2C1
331
2C0
  5
2C2
331
2C1
  5
2C3
331
2C2
  5
2C4
331
2C3
  5
2C6
331
2C4
  5
2C7
331
2CA
  5
2CC
331
2CB
  5
2CD
331
2CC
  5
2CE
331
2CD
  5
2CF
331
2CE
  5
2D0
331
2CF
  5
2D1
331
2D0
  5
2D2
331
2D1
  5
2D3
331
2D2
  5
2D4
331
2D3
  5
2D5
331
2D4
  5
2D6
331
2D5
  5
2D7
331
2D6
  5
2D8
331
2D7
  5
2D9
331
2D8
  5
2DA
331
2D9
  5
2DC
331
2DA
  5
2DD
331
2DC
  5
2DE
331
2DD
  5
2DF
331
2DE
  5
2E0
331
2DF
  5
2E1
331
2E0
  5
2E2
331
2E1
  5
2E3
331
2E2
  5
2E4
331
2E3
  5
2E5
331
2E4
  5
2E7
331
2E5
  5
2E8
331
2E7
  5
2E9
331
2E8
  5
2EA
331
2E9
  5
2F0
331
2EA
  5
2F1
331
2F0
  5
2F2
331
2F1
  5
2F3
331
2F2
  5
2F4
331
2F3
  5
2FD
331
2F4
  5
2FE
331
2FD
  5
2FF
331
2FE
  5
300
331
2FF
  5
301
331
300
  5
302
331
301
  5
303
331
302
  5
304
331
303
  5
305
331
304
  5
306
331
305
  5
307
331
306
  5
308
331
307
  5
309
331
308
  5
30A
331
309
  5
30B
331
30A
  5
30C
331
30B
  5
30D
331
30C
  5
30E
331
30D
  5
30F
331
30E
  5
310
331
30F
  5
311
331
310
  5
312
331
311
  5
313
331
312
  5
314
331
313
  5
315
331
314
  5
316
331
315
  5
317
331
316
  5
318
331
317
  5
319
331
318
  5
31A
331
319
  5
31B
331
31A
  5
31D
331
31B
  5
31E
331
31D
  5
31F
331
31E
  5
320
331
31F
  5
321
331
320
  5
322
331
321
  5
323
331
322
  5
324
331
323
  5
325
331
324
  5
326
331
325
  5
327
331
326
  5
328
331
327
  5
329
331
328
  5
33B
331
329
  5
33C
331
33B
  5
33D
331
33C
  5
33E
331
33D
  5
33F
331
33E
  5
340
331
33F
  5
341
331
340
  5
342
331
341
  5
343
331
342
  5
344
331
343
  5
345
331
344
  5
346
331
345
  5
347
331
346
  5
348
331
347
  5
349
331
348
  5
34A
331
349
  5
34B
331
34A
  5
34C
331
34B
  5
34D
331
34C
  5
34E
331
34D
  5
34F
331
34E
  5
350
331
34F
  5
351
331
350
  5
352
331
351
  5
353
331
352
  5
354
331
353
  5
355
331
354
  5
356
331
355
  5
357
331
356
  5
358
331
357
  5
359
331
358
  5
35A
331
359
  5
35B
331
35A
  5
35C
331
35B
  5
35D
331
35C
  5
35E
331
35D
  5
35F
331
35E
  5
360
331
35F
  5
361
331
360
  5
362
331
361
  5
363
331
362
  5
364
331
363
  5
365
331
364
  5
366
331
365
  5
367
331
366
  5
368
331
367
  5
369
331
368
  5
36A
331
369
  5
36B
331
36A
  5
36C
331
36B
  5
36D
331
36C
  5
36E
331
36D
  5
36F
331
36E
  5
370
331
36F
  5
371
331
370
  5
372
331
371
  5
373
331
372
  5
374
331
373
  5
375
331
374
  5
376
331
375
  5
377
331
376
  5
378
331
377
  5
379
331
378
  5
37A
331
379
  5
37B
331
37A
  5
37C
331
37B
  5
37D
331
37C
  5
37E
331
37D
  5
37F
331
37E
  5
380
331
37F
  5
381
331
380
  5
382
331
381
  5
383
331
382
  5
384
331
383
  5
385
331
384
  5
386
331
385
  5
387
331
386
  5
388
331
387
  5
389
331
388
  5
38A
331
389
  5
38B
331
38A
  5
38C
331
38B
  5
38D
331
38C
  5
38E
331
38D
  5
38F
331
38E
  5
390
331
38F
  5
391
331
390
  5
392
331
391
  5
393
331
392
  5
394
331
393
  5
395
331
394
  5
396
331
395
  5
397
331
396
  5
398
331
397
  5
399
331
398
  5
39A
331
399
  5
39B
331
39A
  5
39C
331
39B
  5
39D
331
39C
  5
39E
331
39D
  5
39F
331
39E
  5
3A0
331
39F
  5
3A1
331
3A0
  5
3A2
331
3A1
  5
3A3
331
3A2
  5
3A4
331
3A3
  5
3A5
331
3A4
  5
3A6
331
3A5
  5
3A7
331
3A6
  5
3A8
331
3A7
  5
3A9
331
3A8
  5
3AA
331
3A9
  5
3AB
331
3AA
  5
3AC
331
3AB
  5
3AD
331
3AC
  5
3AE
331
3AD
  5
3AF
331
3AE
  5
3B0
331
3AF
  5
3B1
331
3B0
  5
3B2
331
562
  5
564
331
563
  5
565
331
564
  5
566
331
566
  5
568
331
567
  5
569
331
568
  5
56A
331
569
  5
56B
331
56A
  5
56C
331
56B
  5
56D
331
56C
  5
56E
331
56D
  5
56F
331
581
  5
584
331
582
  5
585
331
583
  5
586
331
584
  5
587
331
585
  5
588
331
586
  5
589
331
587
  5
58A
331
588
  5
58B
331
589
  5
58C
331
58A
  5
58D
331
58B
  5
58E
331
58C
  5
58F
331
58D
  5
590
331
58E
  5
591
331
58F
  5
592
331
590
  5
593
331
591
  5
594
331
592
  5
595
331
593
  5
596
331
594
  5
597
331
595
  5
598
331
596
  5
599
331
597
  5
59A
331
598
  5
59B
331
599
  5
59C
331
59A
  5
59D
331
59B
  5
59E
331
59C
  5
59F
331
59D
  5
5A0
331
59E
  5
5A1
331
59F
  5
5A2
331
5A0
  5
5A3
331
5A1
  5
5A4
331
5A2
  5
5A5
331
5A3
  5
5A6
331
5A4
  5
5A7
331
5A5
  5
5A8
331
5A6
  5
5A9
331
5A7
  5
5AA
331
5A8
  5
5AB
331
5A9
  5
5AC
331
5AA
  5
5AD
331
5AB
  5
5AE
331
5AC
  5
5AF
331
5AD
  5
5B0
331
5AE
  5
5B1
331
5AF
  5
5B2
331
5B0
  5
5B3
331
5B3
  5
5B8
331
5D3
  5
5D6
331
5D4
  5
5D7
331
5D5
  5
5D8
331
5D6
  5
613
331
5D7
  5
614
331
5D8
  5
615
331
632
  5
634
  0
ACDBDETAILVIEWSTYLE
  5
516
102
{ACAD_REACTORS
330
515
102
}
102
{ACAD_XDICTIONARY
360
52D
102
}
330
515
100
AcDbModelDocViewStyle
 70
     0
  3
Imperial24
290
     0
100
AcDbDetailViewStyle
 70
     0
 71
     0
 90
        3
 71
     1
340
26
 40
0.24
340
0
 40
0.24
300

 40
0.36
280
     3
 71
     2
340
16
 90
       25
 71
     3
340
26
 40
0.24
 90
        1
 40
0.75
 90
        1
300
%<\AcVar ViewType \f "%tc1">% %<\AcVar ViewDetailId>%\PSCALE %<\AcVar ViewScale \f "%sn">%
 71
     4
340
16
 90
       25
340
16
 90
       25
280
     0
  0
LAYOUT
  5
18
102
{ACAD_REACTORS
330
19
102
}
102
{ACAD_XDICTIONARY
360
1A
102
}
330
19
100
AcDbPlotSettings
  1

  2
Bullzip PDF Printer.pc3
  4
A3
  6

 40
0.2
 41
0.0
 42
0.0
 43
0.0
 44
420.2
 45
297.1
 46
25.0
 47
12.0
 48
68.99999985749992
 49
15.00032997624947
140
1214.9999972325
141
832.5003280687495
142
1.0
143
3.0
 70
 11936
 72
     1
 73
     0
 74
     4
  7
monochrome.ctb
 75
     0
147
0.3333333333333333
148
-68.99999985749992
149
-15.00032997624947
100
AcDbLayout
  1
Model
 70
     0
 71
     0
 10
0.0
 20
0.0
 11
12.0
 21
9.0
 12
0.0
 22
0.0
 32
0.0
 14
79.11761013892283
 24
31.71018924927733
 34
0.0
 15
1142.932519498519
 25
1088.843813844916
 35
0.0
146
0.0
 13
0.0
 23
0.0
 33
0.0
 16
1.0
 26
0.0
 36
0.0
 17
0.0
 27
1.0
 37
0.0
 76
     0
330
2
331
2E
1001
ACAD_PSEXT
1000
Bullzip PDF Printer.pc3
1000
Bullzip PDF Printer
1000
BULLZIP
1000
Bullzip PDF Printer 10.1.0.1871
1070
     0
  0
LAYOUT
  5
21
102
{ACAD_REACTORS
330
19
102
}
330
19
100
AcDbPlotSettings
  1

  2
SR-LP8300F
  4

  6

 40
0.0
 41
0.0
 42
0.0
 43
0.0
 44
0.0
 45
0.0
 46
0.0
 47
0.0
 48
0.0
 49
0.0
140
0.0
141
0.0
142
1.0
143
1.0
 70
   688
 72
     0
 73
     0
 74
     5
  7
monochrome.ctb
 75
    16
147
1.0
148
0.0
149
0.0
100
AcDbLayout
  1
ﾚｲｱｳﾄ1
 70
     0
 71
     1
 10
0.0
 20
0.0
 11
12.0
 21
9.0
 12
0.0
 22
0.0
 32
0.0
 14
1.000000000000000E+20
 24
1.000000000000000E+20
 34
1.000000000000000E+20
 15
-1.000000000000000E+20
 25
-1.000000000000000E+20
 35
-1.000000000000000E+20
146
0.0
 13
0.0
 23
0.0
 33
0.0
 16
1.0
 26
0.0
 36
0.0
 17
0.0
 27
1.0
 37
0.0
 76
     0
330
1C
  0
MATERIAL
  5
42
102
{ACAD_REACTORS
330
E
102
}
102
{ACAD_XDICTIONARY
360
646
102
}
330
E
100
AcDbMaterial
  1
ByBlock
 72
     0
 73
     2
 43
0.0208333333333333
 43
0.0
 43
0.0
 43
0.0
 43
0.0
 43
0.0208333333333333
 43
0.0
 43
0.0
 43
0.0
 43
0.0
 43
1.0
 43
0.0
 43
0.0
 43
0.0
 43
0.0
 43
1.0
 77
     0
 78
     2
 47
0.0208333333333333
 47
0.0
 47
0.0
 47
0.0
 47
0.0
 47
0.0208333333333333
 47
0.0
 47
0.0
 47
0.0
 47
0.0
 47
1.0
 47
0.0
 47
0.0
 47
0.0
 47
0.0
 47
1.0
171
     0
172
     2
 49
0.0208333333333333
 49
0.0
 49
0.0
 49
0.0
 49
0.0
 49
0.0208333333333333
 49
0.0
 49
0.0
 49
0.0
 49
0.0
 49
1.0
 49
0.0
 49
0.0
 49
0.0
 49
0.0
 49
1.0
175
     0
176
     2
142
0.0208333333333333
142
0.0
142
0.0
142
0.0
142
0.0
142
0.0208333333333333
142
0.0
142
0.0
142
0.0
142
0.0
142
1.0
142
0.0
142
0.0
142
0.0
142
0.0
142
1.0
179
     0
270
     2
144
0.0208333333333333
144
0.0
144
0.0
144
0.0
144
0.0
144
0.0208333333333333
144
0.0
144
0.0
144
0.0
144
0.0
144
1.0
144
0.0
144
0.0
144
0.0
144
0.0
144
1.0
274
     2
147
0.0208333333333333
147
0.0
147
0.0
147
0.0
147
0.0
147
0.0208333333333333
147
0.0
147
0.0
147
0.0
147
0.0
147
1.0
147
0.0
147
0.0
147
0.0
147
0.0
147
1.0
  0
MATERIAL
  5
3A
102
{ACAD_REACTORS
330
E
102
}
102
{ACAD_XDICTIONARY
360
648
102
}
330
E
100
AcDbMaterial
  1
ByLayer
 72
     0
 73
     2
 43
0.0208333333333333
 43
0.0
 43
0.0
 43
0.0
 43
0.0
 43
0.0208333333333333
 43
0.0
 43
0.0
 43
0.0
 43
0.0
 43
1.0
 43
0.0
 43
0.0
 43
0.0
 43
0.0
 43
1.0
 77
     0
 78
     2
 47
0.0208333333333333
 47
0.0
 47
0.0
 47
0.0
 47
0.0
 47
0.0208333333333333
 47
0.0
 47
0.0
 47
0.0
 47
0.0
 47
1.0
 47
0.0
 47
0.0
 47
0.0
 47
0.0
 47
1.0
171
     0
172
     2
 49
0.0208333333333333
 49
0.0
 49
0.0
 49
0.0
 49
0.0
 49
0.0208333333333333
 49
0.0
 49
0.0
 49
0.0
 49
0.0
 49
1.0
 49
0.0
 49
0.0
 49
0.0
 49
0.0
 49
1.0
175
     0
176
     2
142
0.0208333333333333
142
0.0
142
0.0
142
0.0
142
0.0
142
0.0208333333333333
142
0.0
142
0.0
142
0.0
142
0.0
142
1.0
142
0.0
142
0.0
142
0.0
142
0.0
142
1.0
179
     0
270
     2
144
0.0208333333333333
144
0.0
144
0.0
144
0.0
144
0.0
144
0.0208333333333333
144
0.0
144
0.0
144
0.0
144
0.0
144
1.0
144
0.0
144
0.0
144
0.0
144
0.0
144
1.0
274
     2
147
0.0208333333333333
147
0.0
147
0.0
147
0.0
147
0.0
147
0.0208333333333333
147
0.0
147
0.0
147
0.0
147
0.0
147
1.0
147
0.0
147
0.0
147
0.0
147
0.0
147
1.0
  0
MATERIAL
  5
D
102
{ACAD_REACTORS
330
E
102
}
102
{ACAD_XDICTIONARY
360
64A
102
}
330
E
100
AcDbMaterial
  1
Global
 72
     0
 73
     2
 43
0.0208333333333333
 43
0.0
 43
0.0
 43
0.0
 43
0.0
 43
0.0208333333333333
 43
0.0
 43
0.0
 43
0.0
 43
0.0
 43
1.0
 43
0.0
 43
0.0
 43
0.0
 43
0.0
 43
1.0
 77
     0
 78
     2
 47
0.0208333333333333
 47
0.0
 47
0.0
 47
0.0
 47
0.0
 47
0.0208333333333333
 47
0.0
 47
0.0
 47
0.0
 47
0.0
 47
1.0
 47
0.0
 47
0.0
 47
0.0
 47
0.0
 47
1.0
171
     0
172
     2
 49
0.0208333333333333
 49
0.0
 49
0.0
 49
0.0
 49
0.0
 49
0.0208333333333333
 49
0.0
 49
0.0
 49
0.0
 49
0.0
 49
1.0
 49
0.0
 49
0.0
 49
0.0
 49
0.0
 49
1.0
175
     0
176
     2
142
0.0208333333333333
142
0.0
142
0.0
142
0.0
142
0.0
142
0.0208333333333333
142
0.0
142
0.0
142
0.0
142
0.0
142
1.0
142
0.0
142
0.0
142
0.0
142
0.0
142
1.0
179
     0
270
     2
144
0.0208333333333333
144
0.0
144
0.0
144
0.0
144
0.0
144
0.0208333333333333
144
0.0
144
0.0
144
0.0
144
0.0
144
1.0
144
0.0
144
0.0
144
0.0
144
0.0
144
1.0
274
     2
147
0.0208333333333333
147
0.0
147
0.0
147
0.0
147
0.0
147
0.0208333333333333
147
0.0
147
0.0
147
0.0
147
0.0
147
1.0
147
0.0
147
0.0
147
0.0
147
0.0
147
1.0
1001
ACAD
1070
    -1
1070
     3
1070
     0
1000

1071
        0
  0
MLEADERSTYLE
  5
512
102
{ACAD_REACTORS
330
4D
102
}
102
{ACAD_XDICTIONARY
360
64C
102
}
330
4D
100
AcDbMLeaderStyle
170
     2
171
     1
172
     0
 90
        2
 40
0.0
 41
0.0
173
     1
 91
-1056964608
340
29
 92
       -2
290
     1
 42
0.09
291
     1
 43
0.36
  3
Standard
341
0
 44
0.18
300

342
26
174
     1
178
     6
175
     1
176
     0
 93
-1056964608
 45
0.18
292
     0
297
     0
 46
0.18
343
0
 94
-1056964608
 47
1.0
 49
1.0
140
1.0
293
     1
141
0.0
294
     1
177
     0
142
1.0
295
     1
296
     0
143
0.125
1001
ACAD_MLEADERVER
1070
     2
  0
MLINESTYLE
  5
52
102
{ACAD_REACTORS
330
38
102
}
330
38
100
AcDbMlineStyle
  2
STANDARD
 70
     0
  3

 62
     0
 51
90.0
 52
90.0
 71
     2
 49
0.5
 62
   256
  6
BYLAYER
 49
-0.5
 62
   256
  6
BYLAYER
  0
ACDBPLACEHOLDER
  5
A
102
{ACAD_REACTORS
330
B
102
}
330
B
  0
SCALE
  5
56
102
{ACAD_REACTORS
330
4B
102
}
330
4B
100
AcDbScale
 70
     0
300
1:1
140
1.0
141
1.0
290
     1
  0
SCALE
  5
57
102
{ACAD_REACTORS
330
4B
102
}
330
4B
100
AcDbScale
 70
     0
300
1/128" = 1'-0"
140
0.0078125
141
12.0
290
     0
  0
SCALE
  5
58
102
{ACAD_REACTORS
330
4B
102
}
330
4B
100
AcDbScale
 70
     0
300
1/64" = 1'-0"
140
0.015625
141
12.0
290
     0
  0
SCALE
  5
59
102
{ACAD_REACTORS
330
4B
102
}
330
4B
100
AcDbScale
 70
     0
300
1/32" = 1'-0"
140
0.03125
141
12.0
290
     0
  0
SCALE
  5
5A
102
{ACAD_REACTORS
330
4B
102
}
330
4B
100
AcDbScale
 70
     0
300
1/16" = 1'-0"
140
0.0625
141
12.0
290
     0
  0
SCALE
  5
5B
102
{ACAD_REACTORS
330
4B
102
}
330
4B
100
AcDbScale
 70
     0
300
3/32" = 1'-0"
140
0.09375
141
12.0
290
     0
  0
SCALE
  5
5C
102
{ACAD_REACTORS
330
4B
102
}
330
4B
100
AcDbScale
 70
     0
300
1/8" = 1'-0"
140
0.125
141
12.0
290
     0
  0
SCALE
  5
5D
102
{ACAD_REACTORS
330
4B
102
}
330
4B
100
AcDbScale
 70
     0
300
3/16" = 1'-0"
140
0.1875
141
12.0
290
     0
  0
SCALE
  5
5E
102
{ACAD_REACTORS
330
4B
102
}
330
4B
100
AcDbScale
 70
     0
300
1/4" = 1'-0"
140
0.25
141
12.0
290
     0
  0
SCALE
  5
5F
102
{ACAD_REACTORS
330
4B
102
}
330
4B
100
AcDbScale
 70
     0
300
3/8" = 1'-0"
140
0.375
141
12.0
290
     0
  0
SCALE
  5
60
102
{ACAD_REACTORS
330
4B
102
}
330
4B
100
AcDbScale
 70
     0
300
1/2" = 1'-0"
140
0.5
141
12.0
290
     0
  0
SCALE
  5
61
102
{ACAD_REACTORS
330
4B
102
}
330
4B
100
AcDbScale
 70
     0
300
3/4" = 1'-0"
140
0.75
141
12.0
290
     0
  0
SCALE
  5
62
102
{ACAD_REACTORS
330
4B
102
}
330
4B
100
AcDbScale
 70
     0
300
1" = 1'-0"
140
1.0
141
12.0
290
     0
  0
SCALE
  5
63
102
{ACAD_REACTORS
330
4B
102
}
330
4B
100
AcDbScale
 70
     0
300
1-1/2" = 1'-0"
140
1.5
141
12.0
290
     0
  0
SCALE
  5
64
102
{ACAD_REACTORS
330
4B
102
}
330
4B
100
AcDbScale
 70
     0
300
3" = 1'-0"
140
3.0
141
12.0
290
     0
  0
SCALE
  5
65
102
{ACAD_REACTORS
330
4B
102
}
330
4B
100
AcDbScale
 70
     0
300
6" = 1'-0"
140
6.0
141
12.0
290
     0
  0
SCALE
  5
66
102
{ACAD_REACTORS
330
4B
102
}
330
4B
100
AcDbScale
 70
     0
300
1'-0" = 1'-0"
140
12.0
141
12.0
290
     0
  0
ACDBSECTIONVIEWSTYLE
  5
514
102
{ACAD_REACTORS
330
513
102
}
102
{ACAD_XDICTIONARY
360
52B
102
}
330
513
100
AcDbModelDocViewStyle
 70
     0
  3
Imperial24
290
     0
100
AcDbSectionViewStyle
 70
     0
 71
     0
 90
       78
 71
     1
340
26
 40
0.24
340
0
340
0
 40
0.24
300
I, O, Q, S, X, Z
 40
0.48
 90
        3
 40
0.18
 90
        1
 71
     2
340
16
 90
       25
340
16
 90
       50
 40
0.24
 40
0.0
 40
0.24
 71
     3
340
26
 40
0.24
 90
        1
 40
0.75
 90
        1
300
%<\AcVar ViewType \f "%tc1">% %<\AcVar ViewSectionStartId>%-%<\AcVar ViewSectionEndId>%\PSCALE %<\AcVar ViewScale \f "%sn">%
 71
     4
300
ANSI31
 40
1.0
 90
        0
290
     0
290
     0
 90
        6
 40
0.0
 40
1.570796326794897
 40
0.2617993877991494
 40
1.308996938995747
 40
-0.2617993877991494
 40
1.832595714594046
  0
TABLESTYLE
  5
53
102
{ACAD_REACTORS
330
4C
102
}
330
4C
100
AcDbTableStyle
  3
Standard
 70
     0
 71
     0
 40
0.06
 41
0.06
280
     0
281
     0
  7
STANDARD
140
0.18
170
     2
 62
     0
 63
   257
283
     0
274
    -2
284
     1
 64
     0
275
    -2
285
     1
 65
     0
276
    -2
286
     1
 66
     0
277
    -2
287
     1
 67
     0
278
    -2
288
     1
 68
     0
279
    -2
289
     1
 69
     0
  7
STANDARD
140
0.25
170
     5
 62
     0
 63
   257
283
     0
274
    -2
284
     1
 64
     0
275
    -2
285
     1
 65
     0
276
    -2
286
     1
 66
     0
277
    -2
287
     1
 67
     0
278
    -2
288
     1
 68
     0
279
    -2
289
     1
 69
     0
  7
STANDARD
140
0.18
170
     5
 62
     0
 63
   257
283
     0
274
    -2
284
     1
 64
     0
275
    -2
285
     1
 65
     0
276
    -2
286
     1
 66
     0
277
    -2
287
     1
 67
     0
278
    -2
288
     1
 68
     0
279
    -2
289
     1
 69
     0
  0
VISUALSTYLE
  5
2F
102
{ACAD_REACTORS
330
30
102
}
102
{ACAD_XDICTIONARY
360
64F
102
}
330
30
100
AcDbVisualStyle
  2
2dWireframe
 70
     4
 71
     0
 72
     2
 73
     0
 90
        0
 40
0.6
 41
30.0
 62
     5
 63
     7
 74
     1
 91
        4
 64
     7
 65
   257
 75
     1
175
     1
 42
1.0
 92
        0
 66
   257
 43
1.0
 76
     1
 77
     6
 78
     2
 67
     7
 79
     5
170
     0
171
     0
290
     0
174
     0
 93
        1
 44
0.0
173
     0
291
     0
 45
0.0
1001
ACAD
1000
AcDbSavedByObjectVersion
1070
     0
  0
VISUALSTYLE
  5
501
102
{ACAD_REACTORS
330
30
102
}
102
{ACAD_XDICTIONARY
360
651
102
}
330
30
100
AcDbVisualStyle
  2
Basic
 70
     7
 71
     1
 72
     0
 73
     1
 90
        0
 40
0.6
 41
30.0
 62
     5
 63
     7
 74
     0
 91
        4
 64
     7
 65
   257
 75
     1
175
     1
 42
1.0
 92
        8
 66
     7
 43
1.0
 76
     1
 77
     6
 78
     2
 67
     7
 79
     5
170
     0
171
     0
290
     0
174
     0
 93
        1
 44
0.0
173
     0
291
     1
 45
0.0
1001
ACAD
1000
AcDbSavedByObjectVersion
1070
     0
  0
VISUALSTYLE
  5
505
102
{ACAD_REACTORS
330
30
102
}
102
{ACAD_XDICTIONARY
360
653
102
}
330
30
100
AcDbVisualStyle
  2
Brighten
 70
    12
 71
     2
 72
     2
 73
     0
 90
        0
 40
0.6
 41
30.0
 62
     5
 63
     7
 74
     1
 91
        4
 64
     7
 65
   257
 75
     1
175
     1
 42
1.0
 92
        8
 66
     7
 43
1.0
 76
     1
 77
     6
 78
     2
 67
     7
 79
     5
170
     0
171
     0
290
     0
174
     0
 93
        1
 44
50.0
173
     0
291
     1
 45
0.0
1001
ACAD
1000
AcDbSavedByObjectVersion
1070
     0
  0
VISUALSTYLE
  5
509
102
{ACAD_REACTORS
330
30
102
}
102
{ACAD_XDICTIONARY
360
655
102
}
330
30
100
AcDbVisualStyle
  2
ColorChange
 70
    16
 71
     2
 72
     2
 73
     3
 90
        0
 40
0.6
 41
30.0
 62
     5
 63
     8
 74
     1
 91
        4
 64
     7
 65
   257
 75
     1
175
     1
 42
1.0
 92
        8
 66
     8
 43
1.0
 76
     1
 77
     6
 78
     2
 67
     7
 79
     5
170
     0
171
     0
290
     0
174
     0
 93
        1
 44
0.0
173
     0
291
     1
 45
0.0
1001
ACAD
1000
AcDbSavedByObjectVersion
1070
     0
  0
VISUALSTYLE
  5
503
102
{ACAD_REACTORS
330
30
102
}
102
{ACAD_XDICTIONARY
360
657
102
}
330
30
100
AcDbVisualStyle
  2
Conceptual
 70
     9
 71
     3
 72
     2
 73
     0
 90
        0
 40
0.6
 41
30.0
 62
     5
 63
     7
 74
     2
 91
        2
 64
     7
 65
   257
 75
     1
175
     1
 42
179.0
 92
        8
 66
     7
 43
1.0
 76
     1
 77
     6
 78
     2
 67
     7
 79
     3
170
     0
171
     0
290
     0
174
     0
 93
        1
 44
0.0
173
     0
291
     0
 45
0.0
1001
ACAD
1000
AcDbSavedByObjectVersion
1070
     0
  0
VISUALSTYLE
  5
504
102
{ACAD_REACTORS
330
30
102
}
102
{ACAD_XDICTIONARY
360
659
102
}
330
30
100
AcDbVisualStyle
  2
Dim
 70
    11
 71
     2
 72
     2
 73
     0
 90
        0
 40
0.6
 41
30.0
 62
     5
 63
     7
 74
     1
 91
        4
 64
     7
 65
   257
 75
     1
175
     1
 42
1.0
 92
        8
 66
     7
 43
1.0
 76
     1
 77
     6
 78
     2
 67
     7
 79
     5
170
     0
171
     0
290
     0
174
     0
 93
        1
 44
-50.0
173
     0
291
     1
 45
0.0
1001
ACAD
1000
AcDbSavedByObjectVersion
1070
     0
  0
VISUALSTYLE
  5
511
102
{ACAD_REACTORS
330
30
102
}
102
{ACAD_XDICTIONARY
360
65B
102
}
330
30
100
AcDbVisualStyle
  2
EdgeColorOff
 70
    22
 71
     2
 72
     2
 73
     0
 90
        0
 40
0.6
 41
30.0
 62
     5
 63
     7
 74
     1
 91
        4
 64
     7
 65
   257
 75
     1
175
     1
 42
1.0
 92
        8
 66
     7
 43
1.0
 76
     1
 77
     6
 78
     2
 67
     7
 79
     5
170
     0
171
     0
290
     0
174
     0
 93
        1
 44
0.0
173
     0
291
     1
 45
0.0
1001
ACAD
1000
AcDbSavedByObjectVersion
1070
     0
  0
VISUALSTYLE
  5
508
102
{ACAD_REACTORS
330
30
102
}
102
{ACAD_XDICTIONARY
360
65D
102
}
330
30
100
AcDbVisualStyle
  2
Facepattern
 70
    15
 71
     2
 72
     2
 73
     0
 90
        0
 40
0.6
 41
30.0
 62
     5
 63
     7
 74
     1
 91
        4
 64
     7
 65
   257
 75
     1
175
     1
 42
1.0
 92
        8
 66
     7
 43
1.0
 76
     1
 77
     6
 78
     2
 67
     7
 79
     5
170
     0
171
     0
290
     0
174
     0
 93
        1
 44
0.0
173
     0
291
     1
 45
0.0
1001
ACAD
1000
AcDbSavedByObjectVersion
1070
     0
  0
VISUALSTYLE
  5
4FD
102
{ACAD_REACTORS
330
30
102
}
102
{ACAD_XDICTIONARY
360
65F
102
}
330
30
100
AcDbVisualStyle
  2
Flat
 70
     0
 71
     2
 72
     1
 73
     1
 90
        2
 40
0.6
 41
30.0
 62
     5
 63
     7
 74
     0
 91
        0
 64
     7
 65
   257
 75
     1
175
     1
 42
1.0
 92
        8
 66
     7
 43
1.0
 76
     1
 77
     6
 78
     2
 67
     7
 79
     5
170
     0
171
     0
290
     0
174
     0
 93
       13
 44
0.0
173
     0
291
     1
 45
0.0
1001
ACAD
1000
AcDbSavedByObjectVersion
1070
     0
  0
VISUALSTYLE
  5
4FE
102
{ACAD_REACTORS
330
30
102
}
102
{ACAD_XDICTIONARY
360
661
102
}
330
30
100
AcDbVisualStyle
  2
FlatWithEdges
 70
     1
 71
     2
 72
     1
 73
     1
 90
        2
 40
0.6
 41
30.0
 62
     5
 63
     7
 74
     1
 91
        0
 64
     7
 65
   257
 75
     1
175
     1
 42
1.0
 92
        0
 66
   257
 43
1.0
 76
     1
 77
     6
 78
     2
 67
     7
 79
     5
170
     0
171
     0
290
     0
174
     0
 93
       13
 44
0.0
173
     0
291
     1
 45
0.0
1001
ACAD
1000
AcDbSavedByObjectVersion
1070
     0
  0
VISUALSTYLE
  5
4FF
102
{ACAD_REACTORS
330
30
102
}
102
{ACAD_XDICTIONARY
360
663
102
}
330
30
100
AcDbVisualStyle
  2
Gouraud
 70
     2
 71
     2
 72
     2
 73
     1
 90
        2
 40
0.6
 41
30.0
 62
     5
 63
     7
 74
     0
 91
        0
 64
     7
 65
   257
 75
     1
175
     1
 42
1.0
 92
        0
 66
     7
 43
1.0
 76
     1
 77
     6
 78
     2
 67
     7
 79
     5
170
     0
171
     0
290
     0
174
     0
 93
       13
 44
0.0
173
     0
291
     1
 45
0.0
1001
ACAD
1000
AcDbSavedByObjectVersion
1070
     0
  0
VISUALSTYLE
  5
500
102
{ACAD_REACTORS
330
30
102
}
102
{ACAD_XDICTIONARY
360
665
102
}
330
30
100
AcDbVisualStyle
  2
GouraudWithEdges
 70
     3
 71
     2
 72
     2
 73
     1
 90
        2
 40
0.6
 41
30.0
 62
     5
 63
     7
 74
     1
 91
        0
 64
     7
 65
   257
 75
     1
175
     1
 42
1.0
 92
        0
 66
   257
 43
1.0
 76
     1
 77
     6
 78
     2
 67
     7
 79
     5
170
     0
171
     0
290
     0
174
     0
 93
       13
 44
0.0
173
     0
291
     1
 45
0.0
1001
ACAD
1000
AcDbSavedByObjectVersion
1070
     0
  0
VISUALSTYLE
  5
502
102
{ACAD_REACTORS
330
30
102
}
102
{ACAD_XDICTIONARY
360
667
102
}
330
30
100
AcDbVisualStyle
  2
Hidden
 70
     6
 71
     1
 72
     2
 73
     2
 90
        0
 40
0.6
 41
30.0
 62
     5
 63
     7
 74
     2
 91
        2
 64
     7
 65
   257
 75
     2
175
     1
 42
40.0
 92
        0
 66
   257
 43
1.0
 76
     1
 77
     6
 78
     2
 67
     7
 79
     3
170
     0
171
     0
290
     0
174
     0
 93
        1
 44
0.0
173
     0
291
     0
 45
0.0
1001
ACAD
1000
AcDbSavedByObjectVersion
1070
     0
  0
VISUALSTYLE
  5
50F
102
{ACAD_REACTORS
330
30
102
}
102
{ACAD_XDICTIONARY
360
669
102
}
330
30
100
AcDbVisualStyle
  2
JitterOff
 70
    20
 71
     2
 72
     2
 73
     0
 90
        0
 40
0.6
 41
30.0
 62
     5
 63
     7
 74
     1
 91
        4
 64
     7
 65
   257
 75
     1
175
     1
 42
1.0
 92
       10
 66
     7
 43
1.0
 76
     1
 77
     6
 78
     2
 67
     7
 79
     5
170
     0
171
     0
290
     0
174
     0
 93
        1
 44
0.0
173
     0
291
     1
 45
0.0
1001
ACAD
1000
AcDbSavedByObjectVersion
1070
     0
  0
VISUALSTYLE
  5
507
102
{ACAD_REACTORS
330
30
102
}
102
{ACAD_XDICTIONARY
360
66B
102
}
330
30
100
AcDbVisualStyle
  2
Linepattern
 70
    14
 71
     2
 72
     2
 73
     0
 90
        0
 40
0.6
 41
30.0
 62
     5
 63
     7
 74
     1
 91
        4
 64
     7
 65
   257
 75
     7
175
     7
 42
1.0
 92
        8
 66
     7
 43
1.0
 76
     1
 77
     6
 78
     2
 67
     7
 79
     5
170
     0
171
     0
290
     0
174
     0
 93
        1
 44
0.0
173
     0
291
     1
 45
0.0
1001
ACAD
1000
AcDbSavedByObjectVersion
1070
     0
  0
VISUALSTYLE
  5
510
102
{ACAD_REACTORS
330
30
102
}
102
{ACAD_XDICTIONARY
360
66D
102
}
330
30
100
AcDbVisualStyle
  2
OverhangOff
 70
    21
 71
     2
 72
     2
 73
     0
 90
        0
 40
0.6
 41
30.0
 62
     5
 63
     7
 74
     1
 91
        4
 64
     7
 65
   257
 75
     1
175
     1
 42
1.0
 92
        9
 66
     7
 43
1.0
 76
     1
 77
     6
 78
     2
 67
     7
 79
     5
170
     0
171
     0
290
     0
174
     0
 93
        1
 44
0.0
173
     0
291
     1
 45
0.0
1001
ACAD
1000
AcDbSavedByObjectVersion
1070
     0
  0
VISUALSTYLE
  5
54
102
{ACAD_REACTORS
330
30
102
}
102
{ACAD_XDICTIONARY
360
66F
102
}
330
30
100
AcDbVisualStyle
  2
Realistic
 70
     8
 71
     2
 72
     3
 73
     0
 90
        2
 40
0.6
 41
30.0
 62
     5
 63
     7
 74
     0
 91
        0
 64
     7
 65
   257
 75
     1
175
     1
 42
1.0
 92
        8
 66
   257
 43
1.0
 76
     1
 77
     6
 78
     2
 67
     7
 79
     3
170
     0
171
     0
290
     0
174
     0
 93
       13
 44
0.0
173
     0
291
     0
 45
0.0
1001
ACAD
1000
AcDbSavedByObjectVersion
1070
     0
  0
VISUALSTYLE
  5
50E
102
{ACAD_REACTORS
330
30
102
}
102
{ACAD_XDICTIONARY
360
671
102
}
330
30
100
AcDbVisualStyle
  2
Shaded
 70
    27
 71
     2
 72
     2
 73
     1
 90
        2
 40
0.6
 41
30.0
 62
     5
 63
     7
 74
     0
 91
        4
 64
     7
 65
   257
 75
     1
175
     1
 42
1.0
 92
        8
 66
   257
 43
1.0
 76
     1
 77
     6
 78
     2
 67
     8
 79
     3
170
     0
171
     0
290
     0
174
     0
 93
        5
 44
0.0
173
     0
291
     0
 45
0.0
1001
ACAD
1000
AcDbSavedByObjectVersion
1070
     0
  0
VISUALSTYLE
  5
50D
102
{ACAD_REACTORS
330
30
102
}
102
{ACAD_XDICTIONARY
360
673
102
}
330
30
100
AcDbVisualStyle
  2
Shaded with edges
 70
    26
 71
     2
 72
     2
 73
     1
 90
        2
 40
0.6
 41
30.0
 62
     5
 63
     7
 74
     1
 91
       10
 64
     7
 65
   257
 75
     2
175
     1
 42
1.0
 92
        8
 66
   257
 43
1.0
 76
     1
 77
     6
 78
     2
 67
     7
 79
     3
170
     0
171
     0
290
     0
174
     0
 93
        5
 44
0.0
173
     0
291
     0
 45
0.0
1001
ACAD
1000
AcDbSavedByObjectVersion
1070
     0
  0
VISUALSTYLE
  5
50A
102
{ACAD_REACTORS
330
30
102
}
102
{ACAD_XDICTIONARY
360
675
102
}
330
30
100
AcDbVisualStyle
  2
Shades of Gray
 70
    23
 71
     2
 72
     2
 73
     3
 90
        0
 40
0.6
 41
30.0
 62
     5
 63
     7
 74
     2
 91
        2
 64
     7
 65
     7
 75
     1
175
     1
 42
40.0
 92
        8
 66
     7
 43
1.0
 76
     1
 77
     6
 78
     2
 67
     7
 79
     3
170
     0
171
     0
290
     0
174
     0
 93
        1
 44
0.0
173
     0
291
     0
 45
0.0
1001
ACAD
1000
AcDbSavedByObjectVersion
1070
     0
  0
VISUALSTYLE
  5
50B
102
{ACAD_REACTORS
330
30
102
}
102
{ACAD_XDICTIONARY
360
677
102
}
330
30
100
AcDbVisualStyle
  2
Sketchy
 70
    24
 71
     1
 72
     2
 73
     2
 90
        0
 40
0.6
 41
30.0
 62
     5
 63
     7
 74
     2
 91
        2
 64
     7
 65
     7
 75
     1
175
     1
 42
40.0
 92
       11
 66
     7
 43
1.0
 76
     1
 77
     6
 78
     2
 67
     7
 79
     6
170
     0
171
     0
290
     0
174
     0
 93
        1
 44
0.0
173
     0
291
     0
 45
0.0
1001
ACAD
1000
AcDbSavedByObjectVersion
1070
     0
  0
VISUALSTYLE
  5
506
102
{ACAD_REACTORS
330
30
102
}
102
{ACAD_XDICTIONARY
360
679
102
}
330
30
100
AcDbVisualStyle
  2
Thicken
 70
    13
 71
     2
 72
     2
 73
     0
 90
        0
 40
0.6
 41
30.0
 62
     5
 63
     7
 74
     1
 91
        4
 64
     7
 65
   257
 75
     1
175
     1
 42
1.0
 92
       12
 66
     7
 43
1.0
 76
     1
 77
     6
 78
     2
 67
     7
 79
     5
170
     0
171
     0
290
     0
174
     0
 93
        1
 44
0.0
173
     0
291
     1
 45
0.0
1001
ACAD
1000
AcDbSavedByObjectVersion
1070
     0
  0
VISUALSTYLE
  5
55
102
{ACAD_REACTORS
330
30
102
}
102
{ACAD_XDICTIONARY
360
67B
102
}
330
30
100
AcDbVisualStyle
  2
Wireframe
 70
     5
 71
     0
 72
     2
 73
     0
 90
        0
 40
0.6
 41
30.0
 62
     5
 63
     7
 74
     1
 91
        4
 64
     7
 65
   257
 75
     1
175
     1
 42
1.0
 92
        0
 66
   257
 43
1.0
 76
     1
 77
     6
 78
     2
 67
     7
 79
     3
170
     0
171
     0
290
     0
174
     0
 93
        1
 44
0.0
173
     0
291
     0
 45
0.0
1001
ACAD
1000
AcDbSavedByObjectVersion
1070
     0
  0
VISUALSTYLE
  5
50C
102
{ACAD_REACTORS
330
30
102
}
102
{ACAD_XDICTIONARY
360
67D
102
}
330
30
100
AcDbVisualStyle
  2
X-Ray
 70
    25
 71
     2
 72
     2
 73
     1
 90
        1
 40
0.5
 41
30.0
 62
     5
 63
     7
 74
     1
 91
        0
 64
     7
 65
   257
 75
     1
175
     1
 42
1.0
 92
        8
 66
     7
 43
1.0
 76
     1
 77
     6
 78
     2
 67
     7
 79
     3
170
     0
171
     0
290
     0
174
     0
 93
       13
 44
0.0
173
     0
291
     0
 45
0.0
1001
ACAD
1000
AcDbSavedByObjectVersion
1070
     0
  0
XRECORD
  5
640
102
{ACAD_REACTORS
330
63F
102
}
330
63F
100
AcDbXrecord
280
     1
340
4A
  0
XRECORD
  5
641
102
{ACAD_REACTORS
330
63F
102
}
330
63F
100
AcDbXrecord
280
     1
340
E
  0
DICTIONARYVAR
  5
4F8
102
{ACAD_REACTORS
330
4F2
102
}
330
4F2
100
DictionaryVariables
280
     0
  1
1:1
  0
DICTIONARYVAR
  5
4F4
102
{ACAD_REACTORS
330
4F2
102
}
330
4F2
100
DictionaryVariables
280
     0
  1
Standard
  0
DICTIONARYVAR
  5
4F3
102
{ACAD_REACTORS
330
4F2
102
}
330
4F2
100
DictionaryVariables
280
     0
  1
Standard
  0
DICTIONARYVAR
  5
4F5
102
{ACAD_REACTORS
330
4F2
102
}
330
4F2
100
DictionaryVariables
280
     0
  1
Imperial24
  0
DICTIONARYVAR
  5
4F6
102
{ACAD_REACTORS
330
4F2
102
}
330
4F2
100
DictionaryVariables
280
     0
  1
Imperial24
  0
DICTIONARYVAR
  5
63D
102
{ACAD_REACTORS
330
4F2
102
}
330
4F2
100
DictionaryVariables
280
     0
  1
0
  0
DICTIONARYVAR
  5
63E
102
{ACAD_REACTORS
330
4F2
102
}
330
4F2
100
DictionaryVariables
280
     0
  1
1
  0
DICTIONARYVAR
  5
4FA
102
{ACAD_REACTORS
330
4F2
102
}
330
4F2
100
DictionaryVariables
280
     0
  1
1
  0
DICTIONARYVAR
  5
4FB
102
{ACAD_REACTORS
330
4F2
102
}
330
4F2
100
DictionaryVariables
280
     0
  1
15
  0
DICTIONARYVAR
  5
4F9
102
{ACAD_REACTORS
330
4F2
102
}
330
4F2
100
DictionaryVariables
280
     0
  1
0
  0
DICTIONARYVAR
  5
4F7
102
{ACAD_REACTORS
330
4F2
102
}
330
4F2
100
DictionaryVariables
280
     0
  1
0
  0
DICTIONARYVAR
  5
612
102
{ACAD_REACTORS
330
4F2
102
}
330
4F2
100
DictionaryVariables
280
     0
  1
0
  0
DICTIONARY
  5
52D
330
516
100
AcDbDictionary
280
     1
281
     1
  3
ACAD_XREC_ROUNDTRIP
360
645
  0
DICTIONARY
  5
1A
330
18
100
AcDbDictionary
280
     1
281
     1
  0
DICTIONARY
  5
646
330
42
100
AcDbDictionary
280
     1
281
     1
  3
ACAD_XREC_ROUNDTRIP
360
647
  0
DICTIONARY
  5
648
330
3A
100
AcDbDictionary
280
     1
281
     1
  3
ACAD_XREC_ROUNDTRIP
360
649
  0
DICTIONARY
  5
64A
330
D
100
AcDbDictionary
280
     1
281
     1
  3
ACAD_XREC_ROUNDTRIP
360
64B
  0
DICTIONARY
  5
64C
330
512
100
AcDbDictionary
280
     1
281
     1
  3
ACAD_XREC_ROUNDTRIP
360
64D
  0
DICTIONARY
  5
52B
330
514
100
AcDbDictionary
280
     1
281
     1
  3
ACAD_XREC_ROUNDTRIP
360
64E
  0
DICTIONARY
  5
64F
330
2F
100
AcDbDictionary
280
     1
281
     1
  3
ACAD_XREC_ROUNDTRIP
360
650
  0
DICTIONARY
  5
651
330
501
100
AcDbDictionary
280
     1
281
     1
  3
ACAD_XREC_ROUNDTRIP
360
652
  0
DICTIONARY
  5
653
330
505
100
AcDbDictionary
280
     1
281
     1
  3
ACAD_XREC_ROUNDTRIP
360
654
  0
DICTIONARY
  5
655
330
509
100
AcDbDictionary
280
     1
281
     1
  3
ACAD_XREC_ROUNDTRIP
360
656
  0
DICTIONARY
  5
657
330
503
100
AcDbDictionary
280
     1
281
     1
  3
ACAD_XREC_ROUNDTRIP
360
658
  0
DICTIONARY
  5
659
330
504
100
AcDbDictionary
280
     1
281
     1
  3
ACAD_XREC_ROUNDTRIP
360
65A
  0
DICTIONARY
  5
65B
330
511
100
AcDbDictionary
280
     1
281
     1
  3
ACAD_XREC_ROUNDTRIP
360
65C
  0
DICTIONARY
  5
65D
330
508
100
AcDbDictionary
280
     1
281
     1
  3
ACAD_XREC_ROUNDTRIP
360
65E
  0
DICTIONARY
  5
65F
330
4FD
100
AcDbDictionary
280
     1
281
     1
  3
ACAD_XREC_ROUNDTRIP
360
660
  0
DICTIONARY
  5
661
330
4FE
100
AcDbDictionary
280
     1
281
     1
  3
ACAD_XREC_ROUNDTRIP
360
662
  0
DICTIONARY
  5
663
330
4FF
100
AcDbDictionary
280
     1
281
     1
  3
ACAD_XREC_ROUNDTRIP
360
664
  0
DICTIONARY
  5
665
330
500
100
AcDbDictionary
280
     1
281
     1
  3
ACAD_XREC_ROUNDTRIP
360
666
  0
DICTIONARY
  5
667
330
502
100
AcDbDictionary
280
     1
281
     1
  3
ACAD_XREC_ROUNDTRIP
360
668
  0
DICTIONARY
  5
669
330
50F
100
AcDbDictionary
280
     1
281
     1
  3
ACAD_XREC_ROUNDTRIP
360
66A
  0
DICTIONARY
  5
66B
330
507
100
AcDbDictionary
280
     1
281
     1
  3
ACAD_XREC_ROUNDTRIP
360
66C
  0
DICTIONARY
  5
66D
330
510
100
AcDbDictionary
280
     1
281
     1
  3
ACAD_XREC_ROUNDTRIP
360
66E
  0
DICTIONARY
  5
66F
330
54
100
AcDbDictionary
280
     1
281
     1
  3
ACAD_XREC_ROUNDTRIP
360
670
  0
DICTIONARY
  5
671
330
50E
100
AcDbDictionary
280
     1
281
     1
  3
ACAD_XREC_ROUNDTRIP
360
672
  0
DICTIONARY
  5
673
330
50D
100
AcDbDictionary
280
     1
281
     1
  3
ACAD_XREC_ROUNDTRIP
360
674
  0
DICTIONARY
  5
675
330
50A
100
AcDbDictionary
280
     1
281
     1
  3
ACAD_XREC_ROUNDTRIP
360
676
  0
DICTIONARY
  5
677
330
50B
100
AcDbDictionary
280
     1
281
     1
  3
ACAD_XREC_ROUNDTRIP
360
678
  0
DICTIONARY
  5
679
330
506
100
AcDbDictionary
280
     1
281
     1
  3
ACAD_XREC_ROUNDTRIP
360
67A
  0
DICTIONARY
  5
67B
330
55
100
AcDbDictionary
280
     1
281
     1
  3
ACAD_XREC_ROUNDTRIP
360
67C
  0
DICTIONARY
  5
67D
330
50C
100
AcDbDictionary
280
     1
281
     1
  3
ACAD_XREC_ROUNDTRIP
360
67E
  0
XRECORD
  5
645
102
{ACAD_REACTORS
330
52D
102
}
330
52D
100
AcDbXrecord
280
     1
102
DISPLAYNAME
  1
Imperial24
102
FLAGS
 90
        0
  0
XRECORD
  5
647
102
{ACAD_REACTORS
330
646
102
}
330
646
100
AcDbXrecord
280
     1
102
MATERIAL
148
0.0
149
0.0
149
0.0
 93
        0
 94
      127
282
     0
 72
     0
 77
     0
171
     0
175
     0
179
     0
273
     0
  0
XRECORD
  5
649
102
{ACAD_REACTORS
330
648
102
}
330
648
100
AcDbXrecord
280
     1
102
MATERIAL
148
0.0
149
0.0
149
0.0
 93
        0
 94
      127
282
     0
 72
     0
 77
     0
171
     0
175
     0
179
     0
273
     0
  0
XRECORD
  5
64B
102
{ACAD_REACTORS
330
64A
102
}
330
64A
100
AcDbXrecord
280
     1
102
MATERIAL
148
0.0
149
0.0
149
0.0
 93
        0
 94
      127
282
     0
 72
     0
 77
     0
171
     0
175
     0
179
     0
273
     0
  0
XRECORD
  5
64D
102
{ACAD_REACTORS
330
64C
102
}
330
64C
100
AcDbXrecord
280
     1
102
ACAD_ROUNDTRIP_2012_MLEADER_STYLE
298
     1
  0
XRECORD
  5
64E
102
{ACAD_REACTORS
330
52B
102
}
330
52B
100
AcDbXrecord
280
     1
102
DISPLAYNAME
  1
Imperial24
102
FLAGS
 90
        0
  0
XRECORD
  5
650
102
{ACAD_REACTORS
330
64F
102
}
330
64F
100
AcDbXrecord
280
     1
102
RTVSPropertyOp0
 70
     1
102
RTVSPropertyOp1
 70
     1
102
RTVSPropertyOp2
 70
     1
102
RTVSPropertyOp3
 70
     1
102
RTVSPropertyOp4
 70
     1
102
RTVSPropertyOp5
 70
     1
102
RTVSPropertyOp6
 70
     1
102
RTVSPropertyOp7
 70
     1
102
RTVSPropertyOp8
 70
     1
102
RTVSPropertyOp9
 70
     1
102
RTVSPropertyOp10
 70
     1
102
RTVSPropertyOp11
 70
     1
102
RTVSPropertyOp12
 70
     1
102
RTVSPropertyOp13
 70
     1
102
RTVSPropertyOp14
 70
     1
102
RTVSPropertyOp15
 70
     1
102
RTVSPropertyOp16
 70
     1
102
RTVSPropertyOp17
 70
     1
102
RTVSPropertyOp18
 70
     1
102
RTVSPropertyOp19
 70
     1
102
RTVSPropertyOp20
 70
     1
102
RTVSPropertyOp21
 70
     1
102
RTVSPropertyOp22
 70
     1
102
RTVSPropertyOp23
 70
     1
102
RTVSPropertyOp24
 70
     1
102
RTVSPropertyOp25
 70
     1
102
RTVSPropertyOp26
 70
     1
102
RTVSPropertyOp27
 70
     1
102
RTVSPropertyOp28
 70
     1
102
RTVSPropertyOp29
 70
     1
102
RTVSPropertyOp30
 70
     1
102
RTVSPropertyOp31
 70
     1
102
RTVSPropertyOp32
 70
     1
102
RTVSPropertyOp33
 70
     1
102
RTVSPropertyOp34
 70
     1
102
RTVSPropertyOp35
 70
     1
102
RTVSPropertyOp36
 70
     1
102
RTVSPropertyOp37
 70
     1
102
RTVSPropertyOp38
 70
     1
102
RTVSPropertyOp39
 70
     1
102
RTVSPropertyOp40
 70
     1
102
RTVSPropertyOp41
 70
     1
102
RTVSPropertyOp42
 70
     1
102
RTVSPropertyOp43
 70
     1
102
RTVSPropertyOp44
 70
     1
102
RTVSPropertyOp45
 70
     1
102
RTVSPropertyOp46
 70
     1
102
RTVSPropertyOp47
 70
     1
102
RTVSPropertyOp48
 70
     1
102
RTVSPropertyOp49
 70
     1
102
RTVSPropertyOp50
 70
     1
102
RTVSPropertyOp51
 70
     0
102
RTVSPropertyOp52
 70
     0
102
RTVSPropertyOp53
 70
     1
102
RTVSPropertyOp54
 70
     1
102
RTVSPropertyOp55
 70
     1
102
RTVSPropertyOp56
 70
     1
102
RTVSPropertyOp57
 70
     1
102
RTVSPost2010Prop28
280
     1
102
RTVSPost2010PropOp28
 70
     1
102
RTVSPost2010Prop29
280
     1
102
RTVSPost2010PropOp29
 70
     1
102
RTVSPost2010Prop30
280
     0
102
RTVSPost2010PropOp30
 70
     1
102
RTVSPost2010Prop31
280
     0
102
RTVSPost2010PropOp31
 70
     1
102
RTVSPost2010Prop32
280
     0
102
RTVSPost2010PropOp32
 70
     1
102
RTVSPost2010Prop33
280
     0
102
RTVSPost2010PropOp33
 70
     1
102
RTVSPost2010Prop34
280
     0
102
RTVSPost2010PropOp34
 70
     1
102
RTVSPost2010Prop35
280
     0
102
RTVSPost2010PropOp35
 70
     1
102
RTVSPost2010Prop36
280
     0
102
RTVSPost2010PropOp36
 70
     1
102
RTVSPost2010Prop37
 90
       50
102
RTVSPost2010PropOp37
 70
     1
102
RTVSPost2010Prop38
140
0.0
102
RTVSPost2010PropOp38
 70
     1
102
RTVSPost2010Prop39
140
1.0
102
RTVSPost2010PropOp39
 70
     1
102
RTVSPost2010Prop40
 90
        0
102
RTVSPost2010PropOp40
 70
     1
102
RTVSPost2010Prop41ColorIndex
 90
       18
102
RTVSPost2010Prop41ColorRGB
 90
        0
102
RTVSPost2010PropOp41
 70
     1
102
RTVSPost2010Prop42
 90
       50
102
RTVSPost2010PropOp42
 70
     1
102
RTVSPost2010Prop43
 90
        3
102
RTVSPost2010PropOp43
 70
     1
102
RTVSPost2010Prop44ColorIndex
 90
        5
102
RTVSPost2010Prop44ColorRGB
 90
      255
102
RTVSPost2010PropOp44
 70
     1
102
RTVSPost2010Prop45
280
     0
102
RTVSPost2010PropOp45
 70
     1
102
RTVSPost2010Prop46
 90
       50
102
RTVSPost2010PropOp46
 70
     1
102
RTVSPost2010Prop47
 90
       50
102
RTVSPost2010PropOp47
 70
     1
102
RTVSPost2010Prop48
 90
       50
102
RTVSPost2010PropOp48
 70
     1
102
RTVSPost2010Prop49
280
     0
102
RTVSPost2010PropOp49
 70
     1
102
RTVSPost2010Prop50
 90
       50
102
RTVSPost2010PropOp50
 70
     1
102
RTVSPost2010Prop51ColorIndex
 90
      256
102
RTVSPost2010Prop51ColorRGB
 90
-16777216
102
RTVSPost2010PropOp51
 70
     0
102
RTVSPost2010Prop52
140
1.0
102
RTVSPost2010PropOp52
 70
     0
102
RTVSPost2010Prop53
 90
        2
102
RTVSPost2010PropOp53
 70
     1
102
RTVSPost2010Prop54
  1
strokes_ogs.tif
102
RTVSPost2010PropOp54
 70
     1
102
RTVSPost2010Prop55
280
     0
102
RTVSPost2010PropOp55
 70
     1
102
RTVSPost2010Prop56
140
1.0
102
RTVSPost2010PropOp56
 70
     1
102
RTVSPost2010Prop57
140
1.0
102
RTVSPost2010PropOp57
 70
     1
  0
XRECORD
  5
652
102
{ACAD_REACTORS
330
651
102
}
330
651
100
AcDbXrecord
280
     1
102
RTVSPropertyOp0
 70
     1
102
RTVSPropertyOp1
 70
     1
102
RTVSPropertyOp2
 70
     1
102
RTVSPropertyOp3
 70
     1
102
RTVSPropertyOp4
 70
     1
102
RTVSPropertyOp5
 70
     1
102
RTVSPropertyOp6
 70
     1
102
RTVSPropertyOp7
 70
     1
102
RTVSPropertyOp8
 70
     1
102
RTVSPropertyOp9
 70
     1
102
RTVSPropertyOp10
 70
     1
102
RTVSPropertyOp11
 70
     1
102
RTVSPropertyOp12
 70
     1
102
RTVSPropertyOp13
 70
     1
102
RTVSPropertyOp14
 70
     1
102
RTVSPropertyOp15
 70
     1
102
RTVSPropertyOp16
 70
     1
102
RTVSPropertyOp17
 70
     1
102
RTVSPropertyOp18
 70
     1
102
RTVSPropertyOp19
 70
     1
102
RTVSPropertyOp20
 70
     1
102
RTVSPropertyOp21
 70
     1
102
RTVSPropertyOp22
 70
     1
102
RTVSPropertyOp23
 70
     1
102
RTVSPropertyOp24
 70
     1
102
RTVSPropertyOp25
 70
     1
102
RTVSPropertyOp26
 70
     1
102
RTVSPropertyOp27
 70
     1
102
RTVSPropertyOp28
 70
     1
102
RTVSPropertyOp29
 70
     1
102
RTVSPropertyOp30
 70
     1
102
RTVSPropertyOp31
 70
     1
102
RTVSPropertyOp32
 70
     1
102
RTVSPropertyOp33
 70
     1
102
RTVSPropertyOp34
 70
     1
102
RTVSPropertyOp35
 70
     1
102
RTVSPropertyOp36
 70
     1
102
RTVSPropertyOp37
 70
     1
102
RTVSPropertyOp38
 70
     1
102
RTVSPropertyOp39
 70
     1
102
RTVSPropertyOp40
 70
     1
102
RTVSPropertyOp41
 70
     1
102
RTVSPropertyOp42
 70
     1
102
RTVSPropertyOp43
 70
     1
102
RTVSPropertyOp44
 70
     1
102
RTVSPropertyOp45
 70
     1
102
RTVSPropertyOp46
 70
     1
102
RTVSPropertyOp47
 70
     1
102
RTVSPropertyOp48
 70
     1
102
RTVSPropertyOp49
 70
     1
102
RTVSPropertyOp50
 70
     1
102
RTVSPropertyOp51
 70
     0
102
RTVSPropertyOp52
 70
     0
102
RTVSPropertyOp53
 70
     1
102
RTVSPropertyOp54
 70
     1
102
RTVSPropertyOp55
 70
     1
102
RTVSPropertyOp56
 70
     1
102
RTVSPropertyOp57
 70
     1
102
RTVSPost2010Prop28
280
     0
102
RTVSPost2010PropOp28
 70
     1
102
RTVSPost2010Prop29
280
     1
102
RTVSPost2010PropOp29
 70
     1
102
RTVSPost2010Prop30
280
     1
102
RTVSPost2010PropOp30
 70
     1
102
RTVSPost2010Prop31
280
     0
102
RTVSPost2010PropOp31
 70
     1
102
RTVSPost2010Prop32
280
     0
102
RTVSPost2010PropOp32
 70
     1
102
RTVSPost2010Prop33
280
     0
102
RTVSPost2010PropOp33
 70
     1
102
RTVSPost2010Prop34
280
     0
102
RTVSPost2010PropOp34
 70
     1
102
RTVSPost2010Prop35
280
     0
102
RTVSPost2010PropOp35
 70
     1
102
RTVSPost2010Prop36
280
     0
102
RTVSPost2010PropOp36
 70
     1
102
RTVSPost2010Prop37
 90
       50
102
RTVSPost2010PropOp37
 70
     1
102
RTVSPost2010Prop38
140
0.0
102
RTVSPost2010PropOp38
 70
     1
102
RTVSPost2010Prop39
140
1.0
102
RTVSPost2010PropOp39
 70
     1
102
RTVSPost2010Prop40
 90
        0
102
RTVSPost2010PropOp40
 70
     1
102
RTVSPost2010Prop41ColorIndex
 90
       18
102
RTVSPost2010Prop41ColorRGB
 90
        0
102
RTVSPost2010PropOp41
 70
     1
102
RTVSPost2010Prop42
 90
       50
102
RTVSPost2010PropOp42
 70
     1
102
RTVSPost2010Prop43
 90
        3
102
RTVSPost2010PropOp43
 70
     1
102
RTVSPost2010Prop44ColorIndex
 90
        5
102
RTVSPost2010Prop44ColorRGB
 90
      255
102
RTVSPost2010PropOp44
 70
     1
102
RTVSPost2010Prop45
280
     0
102
RTVSPost2010PropOp45
 70
     1
102
RTVSPost2010Prop46
 90
       50
102
RTVSPost2010PropOp46
 70
     1
102
RTVSPost2010Prop47
 90
       50
102
RTVSPost2010PropOp47
 70
     1
102
RTVSPost2010Prop48
 90
       50
102
RTVSPost2010PropOp48
 70
     1
102
RTVSPost2010Prop49
280
     0
102
RTVSPost2010PropOp49
 70
     1
102
RTVSPost2010Prop50
 90
       50
102
RTVSPost2010PropOp50
 70
     1
102
RTVSPost2010Prop51ColorIndex
 90
      256
102
RTVSPost2010Prop51ColorRGB
 90
-16777216
102
RTVSPost2010PropOp51
 70
     0
102
RTVSPost2010Prop52
140
1.0
102
RTVSPost2010PropOp52
 70
     0
102
RTVSPost2010Prop53
 90
        2
102
RTVSPost2010PropOp53
 70
     1
102
RTVSPost2010Prop54
  1
strokes_ogs.tif
102
RTVSPost2010PropOp54
 70
     1
102
RTVSPost2010Prop55
280
     0
102
RTVSPost2010PropOp55
 70
     1
102
RTVSPost2010Prop56
140
1.0
102
RTVSPost2010PropOp56
 70
     1
102
RTVSPost2010Prop57
140
1.0
102
RTVSPost2010PropOp57
 70
     1
  0
XRECORD
  5
654
102
{ACAD_REACTORS
330
653
102
}
330
653
100
AcDbXrecord
280
     1
102
RTVSPropertyOp0
 70
     1
102
RTVSPropertyOp1
 70
     1
102
RTVSPropertyOp2
 70
     1
102
RTVSPropertyOp3
 70
     1
102
RTVSPropertyOp4
 70
     1
102
RTVSPropertyOp5
 70
     1
102
RTVSPropertyOp6
 70
     1
102
RTVSPropertyOp7
 70
     1
102
RTVSPropertyOp8
 70
     1
102
RTVSPropertyOp9
 70
     1
102
RTVSPropertyOp10
 70
     1
102
RTVSPropertyOp11
 70
     1
102
RTVSPropertyOp12
 70
     1
102
RTVSPropertyOp13
 70
     1
102
RTVSPropertyOp14
 70
     1
102
RTVSPropertyOp15
 70
     1
102
RTVSPropertyOp16
 70
     1
102
RTVSPropertyOp17
 70
     1
102
RTVSPropertyOp18
 70
     1
102
RTVSPropertyOp19
 70
     1
102
RTVSPropertyOp20
 70
     1
102
RTVSPropertyOp21
 70
     1
102
RTVSPropertyOp22
 70
     1
102
RTVSPropertyOp23
 70
     1
102
RTVSPropertyOp24
 70
     1
102
RTVSPropertyOp25
 70
     1
102
RTVSPropertyOp26
 70
     1
102
RTVSPropertyOp27
 70
     1
102
RTVSPropertyOp28
 70
     1
102
RTVSPropertyOp29
 70
     1
102
RTVSPropertyOp30
 70
     1
102
RTVSPropertyOp31
 70
     1
102
RTVSPropertyOp32
 70
     1
102
RTVSPropertyOp33
 70
     1
102
RTVSPropertyOp34
 70
     1
102
RTVSPropertyOp35
 70
     1
102
RTVSPropertyOp36
 70
     1
102
RTVSPropertyOp37
 70
     1
102
RTVSPropertyOp38
 70
     1
102
RTVSPropertyOp39
 70
     1
102
RTVSPropertyOp40
 70
     1
102
RTVSPropertyOp41
 70
     1
102
RTVSPropertyOp42
 70
     1
102
RTVSPropertyOp43
 70
     1
102
RTVSPropertyOp44
 70
     1
102
RTVSPropertyOp45
 70
     1
102
RTVSPropertyOp46
 70
     1
102
RTVSPropertyOp47
 70
     1
102
RTVSPropertyOp48
 70
     1
102
RTVSPropertyOp49
 70
     1
102
RTVSPropertyOp50
 70
     1
102
RTVSPropertyOp51
 70
     0
102
RTVSPropertyOp52
 70
     0
102
RTVSPropertyOp53
 70
     1
102
RTVSPropertyOp54
 70
     1
102
RTVSPropertyOp55
 70
     1
102
RTVSPropertyOp56
 70
     1
102
RTVSPropertyOp57
 70
     1
102
RTVSPost2010Prop28
280
     0
102
RTVSPost2010PropOp28
 70
     1
102
RTVSPost2010Prop29
280
     1
102
RTVSPost2010PropOp29
 70
     1
102
RTVSPost2010Prop30
280
     1
102
RTVSPost2010PropOp30
 70
     1
102
RTVSPost2010Prop31
280
     0
102
RTVSPost2010PropOp31
 70
     1
102
RTVSPost2010Prop32
280
     0
102
RTVSPost2010PropOp32
 70
     1
102
RTVSPost2010Prop33
280
     0
102
RTVSPost2010PropOp33
 70
     1
102
RTVSPost2010Prop34
280
     0
102
RTVSPost2010PropOp34
 70
     1
102
RTVSPost2010Prop35
280
     0
102
RTVSPost2010PropOp35
 70
     1
102
RTVSPost2010Prop36
280
     0
102
RTVSPost2010PropOp36
 70
     1
102
RTVSPost2010Prop37
 90
       50
102
RTVSPost2010PropOp37
 70
     1
102
RTVSPost2010Prop38
140
0.0
102
RTVSPost2010PropOp38
 70
     1
102
RTVSPost2010Prop39
140
1.0
102
RTVSPost2010PropOp39
 70
     1
102
RTVSPost2010Prop40
 90
        0
102
RTVSPost2010PropOp40
 70
     1
102
RTVSPost2010Prop41ColorIndex
 90
       18
102
RTVSPost2010Prop41ColorRGB
 90
        0
102
RTVSPost2010PropOp41
 70
     1
102
RTVSPost2010Prop42
 90
       50
102
RTVSPost2010PropOp42
 70
     1
102
RTVSPost2010Prop43
 90
        3
102
RTVSPost2010PropOp43
 70
     1
102
RTVSPost2010Prop44ColorIndex
 90
        5
102
RTVSPost2010Prop44ColorRGB
 90
      255
102
RTVSPost2010PropOp44
 70
     1
102
RTVSPost2010Prop45
280
     0
102
RTVSPost2010PropOp45
 70
     1
102
RTVSPost2010Prop46
 90
       50
102
RTVSPost2010PropOp46
 70
     1
102
RTVSPost2010Prop47
 90
       50
102
RTVSPost2010PropOp47
 70
     1
102
RTVSPost2010Prop48
 90
       50
102
RTVSPost2010PropOp48
 70
     1
102
RTVSPost2010Prop49
280
     0
102
RTVSPost2010PropOp49
 70
     1
102
RTVSPost2010Prop50
 90
       50
102
RTVSPost2010PropOp50
 70
     1
102
RTVSPost2010Prop51ColorIndex
 90
      256
102
RTVSPost2010Prop51ColorRGB
 90
-16777216
102
RTVSPost2010PropOp51
 70
     0
102
RTVSPost2010Prop52
140
1.0
102
RTVSPost2010PropOp52
 70
     0
102
RTVSPost2010Prop53
 90
        2
102
RTVSPost2010PropOp53
 70
     1
102
RTVSPost2010Prop54
  1
strokes_ogs.tif
102
RTVSPost2010PropOp54
 70
     1
102
RTVSPost2010Prop55
280
     0
102
RTVSPost2010PropOp55
 70
     1
102
RTVSPost2010Prop56
140
1.0
102
RTVSPost2010PropOp56
 70
     1
102
RTVSPost2010Prop57
140
1.0
102
RTVSPost2010PropOp57
 70
     1
  0
XRECORD
  5
656
102
{ACAD_REACTORS
330
655
102
}
330
655
100
AcDbXrecord
280
     1
102
RTVSPropertyOp0
 70
     1
102
RTVSPropertyOp1
 70
     1
102
RTVSPropertyOp2
 70
     1
102
RTVSPropertyOp3
 70
     1
102
RTVSPropertyOp4
 70
     1
102
RTVSPropertyOp5
 70
     1
102
RTVSPropertyOp6
 70
     1
102
RTVSPropertyOp7
 70
     1
102
RTVSPropertyOp8
 70
     1
102
RTVSPropertyOp9
 70
     1
102
RTVSPropertyOp10
 70
     1
102
RTVSPropertyOp11
 70
     1
102
RTVSPropertyOp12
 70
     1
102
RTVSPropertyOp13
 70
     1
102
RTVSPropertyOp14
 70
     1
102
RTVSPropertyOp15
 70
     1
102
RTVSPropertyOp16
 70
     1
102
RTVSPropertyOp17
 70
     1
102
RTVSPropertyOp18
 70
     1
102
RTVSPropertyOp19
 70
     1
102
RTVSPropertyOp20
 70
     1
102
RTVSPropertyOp21
 70
     1
102
RTVSPropertyOp22
 70
     1
102
RTVSPropertyOp23
 70
     1
102
RTVSPropertyOp24
 70
     1
102
RTVSPropertyOp25
 70
     1
102
RTVSPropertyOp26
 70
     1
102
RTVSPropertyOp27
 70
     1
102
RTVSPropertyOp28
 70
     1
102
RTVSPropertyOp29
 70
     1
102
RTVSPropertyOp30
 70
     1
102
RTVSPropertyOp31
 70
     1
102
RTVSPropertyOp32
 70
     1
102
RTVSPropertyOp33
 70
     1
102
RTVSPropertyOp34
 70
     1
102
RTVSPropertyOp35
 70
     1
102
RTVSPropertyOp36
 70
     1
102
RTVSPropertyOp37
 70
     1
102
RTVSPropertyOp38
 70
     1
102
RTVSPropertyOp39
 70
     1
102
RTVSPropertyOp40
 70
     1
102
RTVSPropertyOp41
 70
     1
102
RTVSPropertyOp42
 70
     1
102
RTVSPropertyOp43
 70
     1
102
RTVSPropertyOp44
 70
     1
102
RTVSPropertyOp45
 70
     1
102
RTVSPropertyOp46
 70
     1
102
RTVSPropertyOp47
 70
     1
102
RTVSPropertyOp48
 70
     1
102
RTVSPropertyOp49
 70
     1
102
RTVSPropertyOp50
 70
     1
102
RTVSPropertyOp51
 70
     0
102
RTVSPropertyOp52
 70
     0
102
RTVSPropertyOp53
 70
     1
102
RTVSPropertyOp54
 70
     1
102
RTVSPropertyOp55
 70
     1
102
RTVSPropertyOp56
 70
     1
102
RTVSPropertyOp57
 70
     1
102
RTVSPost2010Prop28
280
     0
102
RTVSPost2010PropOp28
 70
     1
102
RTVSPost2010Prop29
280
     1
102
RTVSPost2010PropOp29
 70
     1
102
RTVSPost2010Prop30
280
     1
102
RTVSPost2010PropOp30
 70
     1
102
RTVSPost2010Prop31
280
     0
102
RTVSPost2010PropOp31
 70
     1
102
RTVSPost2010Prop32
280
     0
102
RTVSPost2010PropOp32
 70
     1
102
RTVSPost2010Prop33
280
     0
102
RTVSPost2010PropOp33
 70
     1
102
RTVSPost2010Prop34
280
     0
102
RTVSPost2010PropOp34
 70
     1
102
RTVSPost2010Prop35
280
     0
102
RTVSPost2010PropOp35
 70
     1
102
RTVSPost2010Prop36
280
     0
102
RTVSPost2010PropOp36
 70
     1
102
RTVSPost2010Prop37
 90
       50
102
RTVSPost2010PropOp37
 70
     1
102
RTVSPost2010Prop38
140
0.0
102
RTVSPost2010PropOp38
 70
     1
102
RTVSPost2010Prop39
140
1.0
102
RTVSPost2010PropOp39
 70
     1
102
RTVSPost2010Prop40
 90
        0
102
RTVSPost2010PropOp40
 70
     1
102
RTVSPost2010Prop41ColorIndex
 90
       18
102
RTVSPost2010Prop41ColorRGB
 90
        0
102
RTVSPost2010PropOp41
 70
     1
102
RTVSPost2010Prop42
 90
       50
102
RTVSPost2010PropOp42
 70
     1
102
RTVSPost2010Prop43
 90
        3
102
RTVSPost2010PropOp43
 70
     1
102
RTVSPost2010Prop44ColorIndex
 90
        5
102
RTVSPost2010Prop44ColorRGB
 90
      255
102
RTVSPost2010PropOp44
 70
     1
102
RTVSPost2010Prop45
280
     0
102
RTVSPost2010PropOp45
 70
     1
102
RTVSPost2010Prop46
 90
       50
102
RTVSPost2010PropOp46
 70
     1
102
RTVSPost2010Prop47
 90
       50
102
RTVSPost2010PropOp47
 70
     1
102
RTVSPost2010Prop48
 90
       50
102
RTVSPost2010PropOp48
 70
     1
102
RTVSPost2010Prop49
280
     0
102
RTVSPost2010PropOp49
 70
     1
102
RTVSPost2010Prop50
 90
       50
102
RTVSPost2010PropOp50
 70
     1
102
RTVSPost2010Prop51ColorIndex
 90
      256
102
RTVSPost2010Prop51ColorRGB
 90
-16777216
102
RTVSPost2010PropOp51
 70
     0
102
RTVSPost2010Prop52
140
1.0
102
RTVSPost2010PropOp52
 70
     0
102
RTVSPost2010Prop53
 90
        2
102
RTVSPost2010PropOp53
 70
     1
102
RTVSPost2010Prop54
  1
strokes_ogs.tif
102
RTVSPost2010PropOp54
 70
     1
102
RTVSPost2010Prop55
280
     0
102
RTVSPost2010PropOp55
 70
     1
102
RTVSPost2010Prop56
140
1.0
102
RTVSPost2010PropOp56
 70
     1
102
RTVSPost2010Prop57
140
1.0
102
RTVSPost2010PropOp57
 70
     1
  0
XRECORD
  5
658
102
{ACAD_REACTORS
330
657
102
}
330
657
100
AcDbXrecord
280
     1
102
RTVSPropertyOp0
 70
     1
102
RTVSPropertyOp1
 70
     1
102
RTVSPropertyOp2
 70
     1
102
RTVSPropertyOp3
 70
     1
102
RTVSPropertyOp4
 70
     1
102
RTVSPropertyOp5
 70
     1
102
RTVSPropertyOp6
 70
     1
102
RTVSPropertyOp7
 70
     1
102
RTVSPropertyOp8
 70
     1
102
RTVSPropertyOp9
 70
     1
102
RTVSPropertyOp10
 70
     1
102
RTVSPropertyOp11
 70
     1
102
RTVSPropertyOp12
 70
     1
102
RTVSPropertyOp13
 70
     1
102
RTVSPropertyOp14
 70
     1
102
RTVSPropertyOp15
 70
     1
102
RTVSPropertyOp16
 70
     1
102
RTVSPropertyOp17
 70
     1
102
RTVSPropertyOp18
 70
     1
102
RTVSPropertyOp19
 70
     1
102
RTVSPropertyOp20
 70
     1
102
RTVSPropertyOp21
 70
     1
102
RTVSPropertyOp22
 70
     1
102
RTVSPropertyOp23
 70
     1
102
RTVSPropertyOp24
 70
     1
102
RTVSPropertyOp25
 70
     1
102
RTVSPropertyOp26
 70
     1
102
RTVSPropertyOp27
 70
     1
102
RTVSPropertyOp28
 70
     1
102
RTVSPropertyOp29
 70
     1
102
RTVSPropertyOp30
 70
     1
102
RTVSPropertyOp31
 70
     1
102
RTVSPropertyOp32
 70
     1
102
RTVSPropertyOp33
 70
     1
102
RTVSPropertyOp34
 70
     1
102
RTVSPropertyOp35
 70
     1
102
RTVSPropertyOp36
 70
     1
102
RTVSPropertyOp37
 70
     1
102
RTVSPropertyOp38
 70
     1
102
RTVSPropertyOp39
 70
     1
102
RTVSPropertyOp40
 70
     1
102
RTVSPropertyOp41
 70
     1
102
RTVSPropertyOp42
 70
     1
102
RTVSPropertyOp43
 70
     1
102
RTVSPropertyOp44
 70
     1
102
RTVSPropertyOp45
 70
     1
102
RTVSPropertyOp46
 70
     1
102
RTVSPropertyOp47
 70
     1
102
RTVSPropertyOp48
 70
     1
102
RTVSPropertyOp49
 70
     1
102
RTVSPropertyOp50
 70
     1
102
RTVSPropertyOp51
 70
     0
102
RTVSPropertyOp52
 70
     0
102
RTVSPropertyOp53
 70
     1
102
RTVSPropertyOp54
 70
     1
102
RTVSPropertyOp55
 70
     1
102
RTVSPropertyOp56
 70
     1
102
RTVSPropertyOp57
 70
     1
102
RTVSPost2010Prop28
280
     0
102
RTVSPost2010PropOp28
 70
     1
102
RTVSPost2010Prop29
280
     1
102
RTVSPost2010PropOp29
 70
     1
102
RTVSPost2010Prop30
280
     1
102
RTVSPost2010PropOp30
 70
     1
102
RTVSPost2010Prop31
280
     0
102
RTVSPost2010PropOp31
 70
     1
102
RTVSPost2010Prop32
280
     0
102
RTVSPost2010PropOp32
 70
     1
102
RTVSPost2010Prop33
280
     0
102
RTVSPost2010PropOp33
 70
     1
102
RTVSPost2010Prop34
280
     0
102
RTVSPost2010PropOp34
 70
     1
102
RTVSPost2010Prop35
280
     0
102
RTVSPost2010PropOp35
 70
     1
102
RTVSPost2010Prop36
280
     0
102
RTVSPost2010PropOp36
 70
     1
102
RTVSPost2010Prop37
 90
       50
102
RTVSPost2010PropOp37
 70
     1
102
RTVSPost2010Prop38
140
0.0
102
RTVSPost2010PropOp38
 70
     1
102
RTVSPost2010Prop39
140
1.0
102
RTVSPost2010PropOp39
 70
     1
102
RTVSPost2010Prop40
 90
        0
102
RTVSPost2010PropOp40
 70
     1
102
RTVSPost2010Prop41ColorIndex
 90
       18
102
RTVSPost2010Prop41ColorRGB
 90
        0
102
RTVSPost2010PropOp41
 70
     1
102
RTVSPost2010Prop42
 90
       50
102
RTVSPost2010PropOp42
 70
     1
102
RTVSPost2010Prop43
 90
        3
102
RTVSPost2010PropOp43
 70
     1
102
RTVSPost2010Prop44ColorIndex
 90
        5
102
RTVSPost2010Prop44ColorRGB
 90
      255
102
RTVSPost2010PropOp44
 70
     1
102
RTVSPost2010Prop45
280
     0
102
RTVSPost2010PropOp45
 70
     1
102
RTVSPost2010Prop46
 90
       50
102
RTVSPost2010PropOp46
 70
     1
102
RTVSPost2010Prop47
 90
       50
102
RTVSPost2010PropOp47
 70
     1
102
RTVSPost2010Prop48
 90
       50
102
RTVSPost2010PropOp48
 70
     1
102
RTVSPost2010Prop49
280
     0
102
RTVSPost2010PropOp49
 70
     1
102
RTVSPost2010Prop50
 90
       50
102
RTVSPost2010PropOp50
 70
     1
102
RTVSPost2010Prop51ColorIndex
 90
      256
102
RTVSPost2010Prop51ColorRGB
 90
-16777216
102
RTVSPost2010PropOp51
 70
     0
102
RTVSPost2010Prop52
140
1.0
102
RTVSPost2010PropOp52
 70
     0
102
RTVSPost2010Prop53
 90
        2
102
RTVSPost2010PropOp53
 70
     1
102
RTVSPost2010Prop54
  1
strokes_ogs.tif
102
RTVSPost2010PropOp54
 70
     1
102
RTVSPost2010Prop55
280
     0
102
RTVSPost2010PropOp55
 70
     1
102
RTVSPost2010Prop56
140
1.0
102
RTVSPost2010PropOp56
 70
     1
102
RTVSPost2010Prop57
140
1.0
102
RTVSPost2010PropOp57
 70
     1
  0
XRECORD
  5
65A
102
{ACAD_REACTORS
330
659
102
}
330
659
100
AcDbXrecord
280
     1
102
RTVSPropertyOp0
 70
     1
102
RTVSPropertyOp1
 70
     1
102
RTVSPropertyOp2
 70
     1
102
RTVSPropertyOp3
 70
     1
102
RTVSPropertyOp4
 70
     1
102
RTVSPropertyOp5
 70
     1
102
RTVSPropertyOp6
 70
     1
102
RTVSPropertyOp7
 70
     1
102
RTVSPropertyOp8
 70
     1
102
RTVSPropertyOp9
 70
     1
102
RTVSPropertyOp10
 70
     1
102
RTVSPropertyOp11
 70
     1
102
RTVSPropertyOp12
 70
     1
102
RTVSPropertyOp13
 70
     1
102
RTVSPropertyOp14
 70
     1
102
RTVSPropertyOp15
 70
     1
102
RTVSPropertyOp16
 70
     1
102
RTVSPropertyOp17
 70
     1
102
RTVSPropertyOp18
 70
     1
102
RTVSPropertyOp19
 70
     1
102
RTVSPropertyOp20
 70
     1
102
RTVSPropertyOp21
 70
     1
102
RTVSPropertyOp22
 70
     1
102
RTVSPropertyOp23
 70
     1
102
RTVSPropertyOp24
 70
     1
102
RTVSPropertyOp25
 70
     1
102
RTVSPropertyOp26
 70
     1
102
RTVSPropertyOp27
 70
     1
102
RTVSPropertyOp28
 70
     1
102
RTVSPropertyOp29
 70
     1
102
RTVSPropertyOp30
 70
     1
102
RTVSPropertyOp31
 70
     1
102
RTVSPropertyOp32
 70
     1
102
RTVSPropertyOp33
 70
     1
102
RTVSPropertyOp34
 70
     1
102
RTVSPropertyOp35
 70
     1
102
RTVSPropertyOp36
 70
     1
102
RTVSPropertyOp37
 70
     1
102
RTVSPropertyOp38
 70
     1
102
RTVSPropertyOp39
 70
     1
102
RTVSPropertyOp40
 70
     1
102
RTVSPropertyOp41
 70
     1
102
RTVSPropertyOp42
 70
     1
102
RTVSPropertyOp43
 70
     1
102
RTVSPropertyOp44
 70
     1
102
RTVSPropertyOp45
 70
     1
102
RTVSPropertyOp46
 70
     1
102
RTVSPropertyOp47
 70
     1
102
RTVSPropertyOp48
 70
     1
102
RTVSPropertyOp49
 70
     1
102
RTVSPropertyOp50
 70
     1
102
RTVSPropertyOp51
 70
     0
102
RTVSPropertyOp52
 70
     0
102
RTVSPropertyOp53
 70
     1
102
RTVSPropertyOp54
 70
     1
102
RTVSPropertyOp55
 70
     1
102
RTVSPropertyOp56
 70
     1
102
RTVSPropertyOp57
 70
     1
102
RTVSPost2010Prop28
280
     0
102
RTVSPost2010PropOp28
 70
     1
102
RTVSPost2010Prop29
280
     1
102
RTVSPost2010PropOp29
 70
     1
102
RTVSPost2010Prop30
280
     1
102
RTVSPost2010PropOp30
 70
     1
102
RTVSPost2010Prop31
280
     0
102
RTVSPost2010PropOp31
 70
     1
102
RTVSPost2010Prop32
280
     0
102
RTVSPost2010PropOp32
 70
     1
102
RTVSPost2010Prop33
280
     0
102
RTVSPost2010PropOp33
 70
     1
102
RTVSPost2010Prop34
280
     0
102
RTVSPost2010PropOp34
 70
     1
102
RTVSPost2010Prop35
280
     0
102
RTVSPost2010PropOp35
 70
     1
102
RTVSPost2010Prop36
280
     0
102
RTVSPost2010PropOp36
 70
     1
102
RTVSPost2010Prop37
 90
       50
102
RTVSPost2010PropOp37
 70
     1
102
RTVSPost2010Prop38
140
0.0
102
RTVSPost2010PropOp38
 70
     1
102
RTVSPost2010Prop39
140
1.0
102
RTVSPost2010PropOp39
 70
     1
102
RTVSPost2010Prop40
 90
        0
102
RTVSPost2010PropOp40
 70
     1
102
RTVSPost2010Prop41ColorIndex
 90
       18
102
RTVSPost2010Prop41ColorRGB
 90
        0
102
RTVSPost2010PropOp41
 70
     1
102
RTVSPost2010Prop42
 90
       50
102
RTVSPost2010PropOp42
 70
     1
102
RTVSPost2010Prop43
 90
        3
102
RTVSPost2010PropOp43
 70
     1
102
RTVSPost2010Prop44ColorIndex
 90
        5
102
RTVSPost2010Prop44ColorRGB
 90
      255
102
RTVSPost2010PropOp44
 70
     1
102
RTVSPost2010Prop45
280
     0
102
RTVSPost2010PropOp45
 70
     1
102
RTVSPost2010Prop46
 90
       50
102
RTVSPost2010PropOp46
 70
     1
102
RTVSPost2010Prop47
 90
       50
102
RTVSPost2010PropOp47
 70
     1
102
RTVSPost2010Prop48
 90
       50
102
RTVSPost2010PropOp48
 70
     1
102
RTVSPost2010Prop49
280
     0
102
RTVSPost2010PropOp49
 70
     1
102
RTVSPost2010Prop50
 90
       50
102
RTVSPost2010PropOp50
 70
     1
102
RTVSPost2010Prop51ColorIndex
 90
      256
102
RTVSPost2010Prop51ColorRGB
 90
-16777216
102
RTVSPost2010PropOp51
 70
     0
102
RTVSPost2010Prop52
140
1.0
102
RTVSPost2010PropOp52
 70
     0
102
RTVSPost2010Prop53
 90
        2
102
RTVSPost2010PropOp53
 70
     1
102
RTVSPost2010Prop54
  1
strokes_ogs.tif
102
RTVSPost2010PropOp54
 70
     1
102
RTVSPost2010Prop55
280
     0
102
RTVSPost2010PropOp55
 70
     1
102
RTVSPost2010Prop56
140
1.0
102
RTVSPost2010PropOp56
 70
     1
102
RTVSPost2010Prop57
140
1.0
102
RTVSPost2010PropOp57
 70
     1
  0
XRECORD
  5
65C
102
{ACAD_REACTORS
330
65B
102
}
330
65B
100
AcDbXrecord
280
     1
102
RTVSPropertyOp0
 70
     0
102
RTVSPropertyOp1
 70
     0
102
RTVSPropertyOp2
 70
     0
102
RTVSPropertyOp3
 70
     0
102
RTVSPropertyOp4
 70
     0
102
RTVSPropertyOp5
 70
     0
102
RTVSPropertyOp6
 70
     0
102
RTVSPropertyOp7
 70
     0
102
RTVSPropertyOp8
 70
     0
102
RTVSPropertyOp9
 70
     0
102
RTVSPropertyOp10
 70
     0
102
RTVSPropertyOp11
 70
     0
102
RTVSPropertyOp12
 70
     0
102
RTVSPropertyOp13
 70
     0
102
RTVSPropertyOp14
 70
     2
102
RTVSPropertyOp15
 70
     0
102
RTVSPropertyOp16
 70
     0
102
RTVSPropertyOp17
 70
     0
102
RTVSPropertyOp18
 70
     0
102
RTVSPropertyOp19
 70
     0
102
RTVSPropertyOp20
 70
     0
102
RTVSPropertyOp21
 70
     0
102
RTVSPropertyOp22
 70
     0
102
RTVSPropertyOp23
 70
     0
102
RTVSPropertyOp24
 70
     0
102
RTVSPropertyOp25
 70
     0
102
RTVSPropertyOp26
 70
     0
102
RTVSPropertyOp27
 70
     0
102
RTVSPropertyOp28
 70
     0
102
RTVSPropertyOp29
 70
     0
102
RTVSPropertyOp30
 70
     0
102
RTVSPropertyOp31
 70
     0
102
RTVSPropertyOp32
 70
     0
102
RTVSPropertyOp33
 70
     0
102
RTVSPropertyOp34
 70
     0
102
RTVSPropertyOp35
 70
     0
102
RTVSPropertyOp36
 70
     0
102
RTVSPropertyOp37
 70
     0
102
RTVSPropertyOp38
 70
     0
102
RTVSPropertyOp39
 70
     0
102
RTVSPropertyOp40
 70
     0
102
RTVSPropertyOp41
 70
     0
102
RTVSPropertyOp42
 70
     0
102
RTVSPropertyOp43
 70
     0
102
RTVSPropertyOp44
 70
     0
102
RTVSPropertyOp45
 70
     0
102
RTVSPropertyOp46
 70
     0
102
RTVSPropertyOp47
 70
     0
102
RTVSPropertyOp48
 70
     0
102
RTVSPropertyOp49
 70
     0
102
RTVSPropertyOp50
 70
     0
102
RTVSPropertyOp51
 70
     0
102
RTVSPropertyOp52
 70
     0
102
RTVSPropertyOp53
 70
     0
102
RTVSPropertyOp54
 70
     0
102
RTVSPropertyOp55
 70
     0
102
RTVSPropertyOp56
 70
     0
102
RTVSPropertyOp57
 70
     0
102
RTVSPost2010Prop28
280
     0
102
RTVSPost2010PropOp28
 70
     0
102
RTVSPost2010Prop29
280
     1
102
RTVSPost2010PropOp29
 70
     0
102
RTVSPost2010Prop30
280
     1
102
RTVSPost2010PropOp30
 70
     0
102
RTVSPost2010Prop31
280
     0
102
RTVSPost2010PropOp31
 70
     0
102
RTVSPost2010Prop32
280
     0
102
RTVSPost2010PropOp32
 70
     0
102
RTVSPost2010Prop33
280
     0
102
RTVSPost2010PropOp33
 70
     0
102
RTVSPost2010Prop34
280
     0
102
RTVSPost2010PropOp34
 70
     0
102
RTVSPost2010Prop35
280
     0
102
RTVSPost2010PropOp35
 70
     0
102
RTVSPost2010Prop36
280
     0
102
RTVSPost2010PropOp36
 70
     0
102
RTVSPost2010Prop37
 90
       50
102
RTVSPost2010PropOp37
 70
     0
102
RTVSPost2010Prop38
140
0.0
102
RTVSPost2010PropOp38
 70
     0
102
RTVSPost2010Prop39
140
1.0
102
RTVSPost2010PropOp39
 70
     0
102
RTVSPost2010Prop40
 90
        0
102
RTVSPost2010PropOp40
 70
     0
102
RTVSPost2010Prop41ColorIndex
 90
       18
102
RTVSPost2010Prop41ColorRGB
 90
        0
102
RTVSPost2010PropOp41
 70
     0
102
RTVSPost2010Prop42
 90
       50
102
RTVSPost2010PropOp42
 70
     0
102
RTVSPost2010Prop43
 90
        3
102
RTVSPost2010PropOp43
 70
     0
102
RTVSPost2010Prop44ColorIndex
 90
        5
102
RTVSPost2010Prop44ColorRGB
 90
      255
102
RTVSPost2010PropOp44
 70
     0
102
RTVSPost2010Prop45
280
     0
102
RTVSPost2010PropOp45
 70
     0
102
RTVSPost2010Prop46
 90
       50
102
RTVSPost2010PropOp46
 70
     0
102
RTVSPost2010Prop47
 90
       50
102
RTVSPost2010PropOp47
 70
     0
102
RTVSPost2010Prop48
 90
       50
102
RTVSPost2010PropOp48
 70
     0
102
RTVSPost2010Prop49
280
     0
102
RTVSPost2010PropOp49
 70
     0
102
RTVSPost2010Prop50
 90
       50
102
RTVSPost2010PropOp50
 70
     0
102
RTVSPost2010Prop51ColorIndex
 90
      256
102
RTVSPost2010Prop51ColorRGB
 90
-16777216
102
RTVSPost2010PropOp51
 70
     0
102
RTVSPost2010Prop52
140
1.0
102
RTVSPost2010PropOp52
 70
     0
102
RTVSPost2010Prop53
 90
        2
102
RTVSPost2010PropOp53
 70
     0
102
RTVSPost2010Prop54
  1
strokes_ogs.tif
102
RTVSPost2010PropOp54
 70
     0
102
RTVSPost2010Prop55
280
     0
102
RTVSPost2010PropOp55
 70
     0
102
RTVSPost2010Prop56
140
1.0
102
RTVSPost2010PropOp56
 70
     0
102
RTVSPost2010Prop57
140
1.0
102
RTVSPost2010PropOp57
 70
     0
  0
XRECORD
  5
65E
102
{ACAD_REACTORS
330
65D
102
}
330
65D
100
AcDbXrecord
280
     1
102
RTVSPropertyOp0
 70
     1
102
RTVSPropertyOp1
 70
     1
102
RTVSPropertyOp2
 70
     1
102
RTVSPropertyOp3
 70
     1
102
RTVSPropertyOp4
 70
     1
102
RTVSPropertyOp5
 70
     1
102
RTVSPropertyOp6
 70
     1
102
RTVSPropertyOp7
 70
     1
102
RTVSPropertyOp8
 70
     1
102
RTVSPropertyOp9
 70
     1
102
RTVSPropertyOp10
 70
     1
102
RTVSPropertyOp11
 70
     1
102
RTVSPropertyOp12
 70
     1
102
RTVSPropertyOp13
 70
     1
102
RTVSPropertyOp14
 70
     1
102
RTVSPropertyOp15
 70
     1
102
RTVSPropertyOp16
 70
     1
102
RTVSPropertyOp17
 70
     1
102
RTVSPropertyOp18
 70
     1
102
RTVSPropertyOp19
 70
     1
102
RTVSPropertyOp20
 70
     1
102
RTVSPropertyOp21
 70
     1
102
RTVSPropertyOp22
 70
     1
102
RTVSPropertyOp23
 70
     1
102
RTVSPropertyOp24
 70
     1
102
RTVSPropertyOp25
 70
     1
102
RTVSPropertyOp26
 70
     1
102
RTVSPropertyOp27
 70
     1
102
RTVSPropertyOp28
 70
     1
102
RTVSPropertyOp29
 70
     1
102
RTVSPropertyOp30
 70
     1
102
RTVSPropertyOp31
 70
     1
102
RTVSPropertyOp32
 70
     1
102
RTVSPropertyOp33
 70
     1
102
RTVSPropertyOp34
 70
     1
102
RTVSPropertyOp35
 70
     1
102
RTVSPropertyOp36
 70
     1
102
RTVSPropertyOp37
 70
     1
102
RTVSPropertyOp38
 70
     1
102
RTVSPropertyOp39
 70
     1
102
RTVSPropertyOp40
 70
     1
102
RTVSPropertyOp41
 70
     1
102
RTVSPropertyOp42
 70
     1
102
RTVSPropertyOp43
 70
     1
102
RTVSPropertyOp44
 70
     1
102
RTVSPropertyOp45
 70
     1
102
RTVSPropertyOp46
 70
     1
102
RTVSPropertyOp47
 70
     1
102
RTVSPropertyOp48
 70
     1
102
RTVSPropertyOp49
 70
     1
102
RTVSPropertyOp50
 70
     1
102
RTVSPropertyOp51
 70
     0
102
RTVSPropertyOp52
 70
     0
102
RTVSPropertyOp53
 70
     1
102
RTVSPropertyOp54
 70
     1
102
RTVSPropertyOp55
 70
     1
102
RTVSPropertyOp56
 70
     1
102
RTVSPropertyOp57
 70
     1
102
RTVSPost2010Prop28
280
     0
102
RTVSPost2010PropOp28
 70
     1
102
RTVSPost2010Prop29
280
     1
102
RTVSPost2010PropOp29
 70
     1
102
RTVSPost2010Prop30
280
     1
102
RTVSPost2010PropOp30
 70
     1
102
RTVSPost2010Prop31
280
     0
102
RTVSPost2010PropOp31
 70
     1
102
RTVSPost2010Prop32
280
     0
102
RTVSPost2010PropOp32
 70
     1
102
RTVSPost2010Prop33
280
     0
102
RTVSPost2010PropOp33
 70
     1
102
RTVSPost2010Prop34
280
     0
102
RTVSPost2010PropOp34
 70
     1
102
RTVSPost2010Prop35
280
     0
102
RTVSPost2010PropOp35
 70
     1
102
RTVSPost2010Prop36
280
     0
102
RTVSPost2010PropOp36
 70
     1
102
RTVSPost2010Prop37
 90
       50
102
RTVSPost2010PropOp37
 70
     1
102
RTVSPost2010Prop38
140
0.0
102
RTVSPost2010PropOp38
 70
     1
102
RTVSPost2010Prop39
140
1.0
102
RTVSPost2010PropOp39
 70
     1
102
RTVSPost2010Prop40
 90
        0
102
RTVSPost2010PropOp40
 70
     1
102
RTVSPost2010Prop41ColorIndex
 90
       18
102
RTVSPost2010Prop41ColorRGB
 90
        0
102
RTVSPost2010PropOp41
 70
     1
102
RTVSPost2010Prop42
 90
       50
102
RTVSPost2010PropOp42
 70
     1
102
RTVSPost2010Prop43
 90
        3
102
RTVSPost2010PropOp43
 70
     1
102
RTVSPost2010Prop44ColorIndex
 90
        5
102
RTVSPost2010Prop44ColorRGB
 90
      255
102
RTVSPost2010PropOp44
 70
     1
102
RTVSPost2010Prop45
280
     0
102
RTVSPost2010PropOp45
 70
     1
102
RTVSPost2010Prop46
 90
       50
102
RTVSPost2010PropOp46
 70
     1
102
RTVSPost2010Prop47
 90
       50
102
RTVSPost2010PropOp47
 70
     1
102
RTVSPost2010Prop48
 90
       50
102
RTVSPost2010PropOp48
 70
     1
102
RTVSPost2010Prop49
280
     0
102
RTVSPost2010PropOp49
 70
     1
102
RTVSPost2010Prop50
 90
       50
102
RTVSPost2010PropOp50
 70
     1
102
RTVSPost2010Prop51ColorIndex
 90
      256
102
RTVSPost2010Prop51ColorRGB
 90
-16777216
102
RTVSPost2010PropOp51
 70
     0
102
RTVSPost2010Prop52
140
1.0
102
RTVSPost2010PropOp52
 70
     0
102
RTVSPost2010Prop53
 90
        2
102
RTVSPost2010PropOp53
 70
     1
102
RTVSPost2010Prop54
  1
strokes_ogs.tif
102
RTVSPost2010PropOp54
 70
     1
102
RTVSPost2010Prop55
280
     0
102
RTVSPost2010PropOp55
 70
     1
102
RTVSPost2010Prop56
140
1.0
102
RTVSPost2010PropOp56
 70
     1
102
RTVSPost2010Prop57
140
1.0
102
RTVSPost2010PropOp57
 70
     1
  0
XRECORD
  5
660
102
{ACAD_REACTORS
330
65F
102
}
330
65F
100
AcDbXrecord
280
     1
102
RTVSPropertyOp0
 70
     1
102
RTVSPropertyOp1
 70
     1
102
RTVSPropertyOp2
 70
     1
102
RTVSPropertyOp3
 70
     1
102
RTVSPropertyOp4
 70
     1
102
RTVSPropertyOp5
 70
     1
102
RTVSPropertyOp6
 70
     1
102
RTVSPropertyOp7
 70
     1
102
RTVSPropertyOp8
 70
     1
102
RTVSPropertyOp9
 70
     1
102
RTVSPropertyOp10
 70
     1
102
RTVSPropertyOp11
 70
     1
102
RTVSPropertyOp12
 70
     1
102
RTVSPropertyOp13
 70
     1
102
RTVSPropertyOp14
 70
     1
102
RTVSPropertyOp15
 70
     1
102
RTVSPropertyOp16
 70
     1
102
RTVSPropertyOp17
 70
     1
102
RTVSPropertyOp18
 70
     1
102
RTVSPropertyOp19
 70
     1
102
RTVSPropertyOp20
 70
     1
102
RTVSPropertyOp21
 70
     1
102
RTVSPropertyOp22
 70
     1
102
RTVSPropertyOp23
 70
     1
102
RTVSPropertyOp24
 70
     1
102
RTVSPropertyOp25
 70
     1
102
RTVSPropertyOp26
 70
     1
102
RTVSPropertyOp27
 70
     1
102
RTVSPropertyOp28
 70
     1
102
RTVSPropertyOp29
 70
     1
102
RTVSPropertyOp30
 70
     1
102
RTVSPropertyOp31
 70
     1
102
RTVSPropertyOp32
 70
     1
102
RTVSPropertyOp33
 70
     1
102
RTVSPropertyOp34
 70
     1
102
RTVSPropertyOp35
 70
     1
102
RTVSPropertyOp36
 70
     1
102
RTVSPropertyOp37
 70
     1
102
RTVSPropertyOp38
 70
     1
102
RTVSPropertyOp39
 70
     1
102
RTVSPropertyOp40
 70
     1
102
RTVSPropertyOp41
 70
     1
102
RTVSPropertyOp42
 70
     1
102
RTVSPropertyOp43
 70
     1
102
RTVSPropertyOp44
 70
     1
102
RTVSPropertyOp45
 70
     1
102
RTVSPropertyOp46
 70
     1
102
RTVSPropertyOp47
 70
     1
102
RTVSPropertyOp48
 70
     1
102
RTVSPropertyOp49
 70
     1
102
RTVSPropertyOp50
 70
     1
102
RTVSPropertyOp51
 70
     0
102
RTVSPropertyOp52
 70
     0
102
RTVSPropertyOp53
 70
     1
102
RTVSPropertyOp54
 70
     1
102
RTVSPropertyOp55
 70
     1
102
RTVSPropertyOp56
 70
     1
102
RTVSPropertyOp57
 70
     1
102
RTVSPost2010Prop28
280
     0
102
RTVSPost2010PropOp28
 70
     1
102
RTVSPost2010Prop29
280
     1
102
RTVSPost2010PropOp29
 70
     1
102
RTVSPost2010Prop30
280
     1
102
RTVSPost2010PropOp30
 70
     1
102
RTVSPost2010Prop31
280
     0
102
RTVSPost2010PropOp31
 70
     1
102
RTVSPost2010Prop32
280
     0
102
RTVSPost2010PropOp32
 70
     1
102
RTVSPost2010Prop33
280
     0
102
RTVSPost2010PropOp33
 70
     1
102
RTVSPost2010Prop34
280
     0
102
RTVSPost2010PropOp34
 70
     1
102
RTVSPost2010Prop35
280
     0
102
RTVSPost2010PropOp35
 70
     1
102
RTVSPost2010Prop36
280
     0
102
RTVSPost2010PropOp36
 70
     1
102
RTVSPost2010Prop37
 90
       50
102
RTVSPost2010PropOp37
 70
     1
102
RTVSPost2010Prop38
140
0.0
102
RTVSPost2010PropOp38
 70
     1
102
RTVSPost2010Prop39
140
1.0
102
RTVSPost2010PropOp39
 70
     1
102
RTVSPost2010Prop40
 90
        0
102
RTVSPost2010PropOp40
 70
     1
102
RTVSPost2010Prop41ColorIndex
 90
       18
102
RTVSPost2010Prop41ColorRGB
 90
        0
102
RTVSPost2010PropOp41
 70
     1
102
RTVSPost2010Prop42
 90
       50
102
RTVSPost2010PropOp42
 70
     1
102
RTVSPost2010Prop43
 90
        3
102
RTVSPost2010PropOp43
 70
     1
102
RTVSPost2010Prop44ColorIndex
 90
        5
102
RTVSPost2010Prop44ColorRGB
 90
      255
102
RTVSPost2010PropOp44
 70
     1
102
RTVSPost2010Prop45
280
     0
102
RTVSPost2010PropOp45
 70
     1
102
RTVSPost2010Prop46
 90
       50
102
RTVSPost2010PropOp46
 70
     1
102
RTVSPost2010Prop47
 90
       50
102
RTVSPost2010PropOp47
 70
     1
102
RTVSPost2010Prop48
 90
       50
102
RTVSPost2010PropOp48
 70
     1
102
RTVSPost2010Prop49
280
     0
102
RTVSPost2010PropOp49
 70
     1
102
RTVSPost2010Prop50
 90
       50
102
RTVSPost2010PropOp50
 70
     1
102
RTVSPost2010Prop51ColorIndex
 90
      256
102
RTVSPost2010Prop51ColorRGB
 90
-16777216
102
RTVSPost2010PropOp51
 70
     0
102
RTVSPost2010Prop52
140
1.0
102
RTVSPost2010PropOp52
 70
     0
102
RTVSPost2010Prop53
 90
        2
102
RTVSPost2010PropOp53
 70
     1
102
RTVSPost2010Prop54
  1
strokes_ogs.tif
102
RTVSPost2010PropOp54
 70
     1
102
RTVSPost2010Prop55
280
     0
102
RTVSPost2010PropOp55
 70
     1
102
RTVSPost2010Prop56
140
1.0
102
RTVSPost2010PropOp56
 70
     1
102
RTVSPost2010Prop57
140
1.0
102
RTVSPost2010PropOp57
 70
     1
  0
XRECORD
  5
662
102
{ACAD_REACTORS
330
661
102
}
330
661
100
AcDbXrecord
280
     1
102
RTVSPropertyOp0
 70
     1
102
RTVSPropertyOp1
 70
     1
102
RTVSPropertyOp2
 70
     1
102
RTVSPropertyOp3
 70
     1
102
RTVSPropertyOp4
 70
     1
102
RTVSPropertyOp5
 70
     1
102
RTVSPropertyOp6
 70
     1
102
RTVSPropertyOp7
 70
     1
102
RTVSPropertyOp8
 70
     1
102
RTVSPropertyOp9
 70
     1
102
RTVSPropertyOp10
 70
     1
102
RTVSPropertyOp11
 70
     1
102
RTVSPropertyOp12
 70
     1
102
RTVSPropertyOp13
 70
     1
102
RTVSPropertyOp14
 70
     1
102
RTVSPropertyOp15
 70
     1
102
RTVSPropertyOp16
 70
     1
102
RTVSPropertyOp17
 70
     1
102
RTVSPropertyOp18
 70
     1
102
RTVSPropertyOp19
 70
     1
102
RTVSPropertyOp20
 70
     1
102
RTVSPropertyOp21
 70
     1
102
RTVSPropertyOp22
 70
     1
102
RTVSPropertyOp23
 70
     1
102
RTVSPropertyOp24
 70
     1
102
RTVSPropertyOp25
 70
     1
102
RTVSPropertyOp26
 70
     1
102
RTVSPropertyOp27
 70
     1
102
RTVSPropertyOp28
 70
     1
102
RTVSPropertyOp29
 70
     1
102
RTVSPropertyOp30
 70
     1
102
RTVSPropertyOp31
 70
     1
102
RTVSPropertyOp32
 70
     1
102
RTVSPropertyOp33
 70
     1
102
RTVSPropertyOp34
 70
     1
102
RTVSPropertyOp35
 70
     1
102
RTVSPropertyOp36
 70
     1
102
RTVSPropertyOp37
 70
     1
102
RTVSPropertyOp38
 70
     1
102
RTVSPropertyOp39
 70
     1
102
RTVSPropertyOp40
 70
     1
102
RTVSPropertyOp41
 70
     1
102
RTVSPropertyOp42
 70
     1
102
RTVSPropertyOp43
 70
     1
102
RTVSPropertyOp44
 70
     1
102
RTVSPropertyOp45
 70
     1
102
RTVSPropertyOp46
 70
     1
102
RTVSPropertyOp47
 70
     1
102
RTVSPropertyOp48
 70
     1
102
RTVSPropertyOp49
 70
     1
102
RTVSPropertyOp50
 70
     1
102
RTVSPropertyOp51
 70
     0
102
RTVSPropertyOp52
 70
     0
102
RTVSPropertyOp53
 70
     1
102
RTVSPropertyOp54
 70
     1
102
RTVSPropertyOp55
 70
     1
102
RTVSPropertyOp56
 70
     1
102
RTVSPropertyOp57
 70
     1
102
RTVSPost2010Prop28
280
     0
102
RTVSPost2010PropOp28
 70
     1
102
RTVSPost2010Prop29
280
     1
102
RTVSPost2010PropOp29
 70
     1
102
RTVSPost2010Prop30
280
     1
102
RTVSPost2010PropOp30
 70
     1
102
RTVSPost2010Prop31
280
     0
102
RTVSPost2010PropOp31
 70
     1
102
RTVSPost2010Prop32
280
     0
102
RTVSPost2010PropOp32
 70
     1
102
RTVSPost2010Prop33
280
     0
102
RTVSPost2010PropOp33
 70
     1
102
RTVSPost2010Prop34
280
     0
102
RTVSPost2010PropOp34
 70
     1
102
RTVSPost2010Prop35
280
     0
102
RTVSPost2010PropOp35
 70
     1
102
RTVSPost2010Prop36
280
     0
102
RTVSPost2010PropOp36
 70
     1
102
RTVSPost2010Prop37
 90
       50
102
RTVSPost2010PropOp37
 70
     1
102
RTVSPost2010Prop38
140
0.0
102
RTVSPost2010PropOp38
 70
     1
102
RTVSPost2010Prop39
140
1.0
102
RTVSPost2010PropOp39
 70
     1
102
RTVSPost2010Prop40
 90
        0
102
RTVSPost2010PropOp40
 70
     1
102
RTVSPost2010Prop41ColorIndex
 90
       18
102
RTVSPost2010Prop41ColorRGB
 90
        0
102
RTVSPost2010PropOp41
 70
     1
102
RTVSPost2010Prop42
 90
       50
102
RTVSPost2010PropOp42
 70
     1
102
RTVSPost2010Prop43
 90
        3
102
RTVSPost2010PropOp43
 70
     1
102
RTVSPost2010Prop44ColorIndex
 90
        5
102
RTVSPost2010Prop44ColorRGB
 90
      255
102
RTVSPost2010PropOp44
 70
     1
102
RTVSPost2010Prop45
280
     0
102
RTVSPost2010PropOp45
 70
     1
102
RTVSPost2010Prop46
 90
       50
102
RTVSPost2010PropOp46
 70
     1
102
RTVSPost2010Prop47
 90
       50
102
RTVSPost2010PropOp47
 70
     1
102
RTVSPost2010Prop48
 90
       50
102
RTVSPost2010PropOp48
 70
     1
102
RTVSPost2010Prop49
280
     0
102
RTVSPost2010PropOp49
 70
     1
102
RTVSPost2010Prop50
 90
       50
102
RTVSPost2010PropOp50
 70
     1
102
RTVSPost2010Prop51ColorIndex
 90
      256
102
RTVSPost2010Prop51ColorRGB
 90
-16777216
102
RTVSPost2010PropOp51
 70
     0
102
RTVSPost2010Prop52
140
1.0
102
RTVSPost2010PropOp52
 70
     0
102
RTVSPost2010Prop53
 90
        2
102
RTVSPost2010PropOp53
 70
     1
102
RTVSPost2010Prop54
  1
strokes_ogs.tif
102
RTVSPost2010PropOp54
 70
     1
102
RTVSPost2010Prop55
280
     0
102
RTVSPost2010PropOp55
 70
     1
102
RTVSPost2010Prop56
140
1.0
102
RTVSPost2010PropOp56
 70
     1
102
RTVSPost2010Prop57
140
1.0
102
RTVSPost2010PropOp57
 70
     1
  0
XRECORD
  5
664
102
{ACAD_REACTORS
330
663
102
}
330
663
100
AcDbXrecord
280
     1
102
RTVSPropertyOp0
 70
     1
102
RTVSPropertyOp1
 70
     1
102
RTVSPropertyOp2
 70
     1
102
RTVSPropertyOp3
 70
     1
102
RTVSPropertyOp4
 70
     1
102
RTVSPropertyOp5
 70
     1
102
RTVSPropertyOp6
 70
     1
102
RTVSPropertyOp7
 70
     1
102
RTVSPropertyOp8
 70
     1
102
RTVSPropertyOp9
 70
     1
102
RTVSPropertyOp10
 70
     1
102
RTVSPropertyOp11
 70
     1
102
RTVSPropertyOp12
 70
     1
102
RTVSPropertyOp13
 70
     1
102
RTVSPropertyOp14
 70
     1
102
RTVSPropertyOp15
 70
     1
102
RTVSPropertyOp16
 70
     1
102
RTVSPropertyOp17
 70
     1
102
RTVSPropertyOp18
 70
     1
102
RTVSPropertyOp19
 70
     1
102
RTVSPropertyOp20
 70
     1
102
RTVSPropertyOp21
 70
     1
102
RTVSPropertyOp22
 70
     1
102
RTVSPropertyOp23
 70
     1
102
RTVSPropertyOp24
 70
     1
102
RTVSPropertyOp25
 70
     1
102
RTVSPropertyOp26
 70
     1
102
RTVSPropertyOp27
 70
     1
102
RTVSPropertyOp28
 70
     1
102
RTVSPropertyOp29
 70
     1
102
RTVSPropertyOp30
 70
     1
102
RTVSPropertyOp31
 70
     1
102
RTVSPropertyOp32
 70
     1
102
RTVSPropertyOp33
 70
     1
102
RTVSPropertyOp34
 70
     1
102
RTVSPropertyOp35
 70
     1
102
RTVSPropertyOp36
 70
     1
102
RTVSPropertyOp37
 70
     1
102
RTVSPropertyOp38
 70
     1
102
RTVSPropertyOp39
 70
     1
102
RTVSPropertyOp40
 70
     1
102
RTVSPropertyOp41
 70
     1
102
RTVSPropertyOp42
 70
     1
102
RTVSPropertyOp43
 70
     1
102
RTVSPropertyOp44
 70
     1
102
RTVSPropertyOp45
 70
     1
102
RTVSPropertyOp46
 70
     1
102
RTVSPropertyOp47
 70
     1
102
RTVSPropertyOp48
 70
     1
102
RTVSPropertyOp49
 70
     1
102
RTVSPropertyOp50
 70
     1
102
RTVSPropertyOp51
 70
     0
102
RTVSPropertyOp52
 70
     0
102
RTVSPropertyOp53
 70
     1
102
RTVSPropertyOp54
 70
     1
102
RTVSPropertyOp55
 70
     1
102
RTVSPropertyOp56
 70
     1
102
RTVSPropertyOp57
 70
     1
102
RTVSPost2010Prop28
280
     0
102
RTVSPost2010PropOp28
 70
     1
102
RTVSPost2010Prop29
280
     1
102
RTVSPost2010PropOp29
 70
     1
102
RTVSPost2010Prop30
280
     1
102
RTVSPost2010PropOp30
 70
     1
102
RTVSPost2010Prop31
280
     0
102
RTVSPost2010PropOp31
 70
     1
102
RTVSPost2010Prop32
280
     0
102
RTVSPost2010PropOp32
 70
     1
102
RTVSPost2010Prop33
280
     0
102
RTVSPost2010PropOp33
 70
     1
102
RTVSPost2010Prop34
280
     0
102
RTVSPost2010PropOp34
 70
     1
102
RTVSPost2010Prop35
280
     0
102
RTVSPost2010PropOp35
 70
     1
102
RTVSPost2010Prop36
280
     0
102
RTVSPost2010PropOp36
 70
     1
102
RTVSPost2010Prop37
 90
       50
102
RTVSPost2010PropOp37
 70
     1
102
RTVSPost2010Prop38
140
0.0
102
RTVSPost2010PropOp38
 70
     1
102
RTVSPost2010Prop39
140
1.0
102
RTVSPost2010PropOp39
 70
     1
102
RTVSPost2010Prop40
 90
        0
102
RTVSPost2010PropOp40
 70
     1
102
RTVSPost2010Prop41ColorIndex
 90
       18
102
RTVSPost2010Prop41ColorRGB
 90
        0
102
RTVSPost2010PropOp41
 70
     1
102
RTVSPost2010Prop42
 90
       50
102
RTVSPost2010PropOp42
 70
     1
102
RTVSPost2010Prop43
 90
        3
102
RTVSPost2010PropOp43
 70
     1
102
RTVSPost2010Prop44ColorIndex
 90
        5
102
RTVSPost2010Prop44ColorRGB
 90
      255
102
RTVSPost2010PropOp44
 70
     1
102
RTVSPost2010Prop45
280
     0
102
RTVSPost2010PropOp45
 70
     1
102
RTVSPost2010Prop46
 90
       50
102
RTVSPost2010PropOp46
 70
     1
102
RTVSPost2010Prop47
 90
       50
102
RTVSPost2010PropOp47
 70
     1
102
RTVSPost2010Prop48
 90
       50
102
RTVSPost2010PropOp48
 70
     1
102
RTVSPost2010Prop49
280
     0
102
RTVSPost2010PropOp49
 70
     1
102
RTVSPost2010Prop50
 90
       50
102
RTVSPost2010PropOp50
 70
     1
102
RTVSPost2010Prop51ColorIndex
 90
      256
102
RTVSPost2010Prop51ColorRGB
 90
-16777216
102
RTVSPost2010PropOp51
 70
     0
102
RTVSPost2010Prop52
140
1.0
102
RTVSPost2010PropOp52
 70
     0
102
RTVSPost2010Prop53
 90
        2
102
RTVSPost2010PropOp53
 70
     1
102
RTVSPost2010Prop54
  1
strokes_ogs.tif
102
RTVSPost2010PropOp54
 70
     1
102
RTVSPost2010Prop55
280
     0
102
RTVSPost2010PropOp55
 70
     1
102
RTVSPost2010Prop56
140
1.0
102
RTVSPost2010PropOp56
 70
     1
102
RTVSPost2010Prop57
140
1.0
102
RTVSPost2010PropOp57
 70
     1
  0
XRECORD
  5
666
102
{ACAD_REACTORS
330
665
102
}
330
665
100
AcDbXrecord
280
     1
102
RTVSPropertyOp0
 70
     1
102
RTVSPropertyOp1
 70
     1
102
RTVSPropertyOp2
 70
     1
102
RTVSPropertyOp3
 70
     1
102
RTVSPropertyOp4
 70
     1
102
RTVSPropertyOp5
 70
     1
102
RTVSPropertyOp6
 70
     1
102
RTVSPropertyOp7
 70
     1
102
RTVSPropertyOp8
 70
     1
102
RTVSPropertyOp9
 70
     1
102
RTVSPropertyOp10
 70
     1
102
RTVSPropertyOp11
 70
     1
102
RTVSPropertyOp12
 70
     1
102
RTVSPropertyOp13
 70
     1
102
RTVSPropertyOp14
 70
     1
102
RTVSPropertyOp15
 70
     1
102
RTVSPropertyOp16
 70
     1
102
RTVSPropertyOp17
 70
     1
102
RTVSPropertyOp18
 70
     1
102
RTVSPropertyOp19
 70
     1
102
RTVSPropertyOp20
 70
     1
102
RTVSPropertyOp21
 70
     1
102
RTVSPropertyOp22
 70
     1
102
RTVSPropertyOp23
 70
     1
102
RTVSPropertyOp24
 70
     1
102
RTVSPropertyOp25
 70
     1
102
RTVSPropertyOp26
 70
     1
102
RTVSPropertyOp27
 70
     1
102
RTVSPropertyOp28
 70
     1
102
RTVSPropertyOp29
 70
     1
102
RTVSPropertyOp30
 70
     1
102
RTVSPropertyOp31
 70
     1
102
RTVSPropertyOp32
 70
     1
102
RTVSPropertyOp33
 70
     1
102
RTVSPropertyOp34
 70
     1
102
RTVSPropertyOp35
 70
     1
102
RTVSPropertyOp36
 70
     1
102
RTVSPropertyOp37
 70
     1
102
RTVSPropertyOp38
 70
     1
102
RTVSPropertyOp39
 70
     1
102
RTVSPropertyOp40
 70
     1
102
RTVSPropertyOp41
 70
     1
102
RTVSPropertyOp42
 70
     1
102
RTVSPropertyOp43
 70
     1
102
RTVSPropertyOp44
 70
     1
102
RTVSPropertyOp45
 70
     1
102
RTVSPropertyOp46
 70
     1
102
RTVSPropertyOp47
 70
     1
102
RTVSPropertyOp48
 70
     1
102
RTVSPropertyOp49
 70
     1
102
RTVSPropertyOp50
 70
     1
102
RTVSPropertyOp51
 70
     0
102
RTVSPropertyOp52
 70
     0
102
RTVSPropertyOp53
 70
     1
102
RTVSPropertyOp54
 70
     1
102
RTVSPropertyOp55
 70
     1
102
RTVSPropertyOp56
 70
     1
102
RTVSPropertyOp57
 70
     1
102
RTVSPost2010Prop28
280
     0
102
RTVSPost2010PropOp28
 70
     1
102
RTVSPost2010Prop29
280
     1
102
RTVSPost2010PropOp29
 70
     1
102
RTVSPost2010Prop30
280
     1
102
RTVSPost2010PropOp30
 70
     1
102
RTVSPost2010Prop31
280
     0
102
RTVSPost2010PropOp31
 70
     1
102
RTVSPost2010Prop32
280
     0
102
RTVSPost2010PropOp32
 70
     1
102
RTVSPost2010Prop33
280
     0
102
RTVSPost2010PropOp33
 70
     1
102
RTVSPost2010Prop34
280
     0
102
RTVSPost2010PropOp34
 70
     1
102
RTVSPost2010Prop35
280
     0
102
RTVSPost2010PropOp35
 70
     1
102
RTVSPost2010Prop36
280
     0
102
RTVSPost2010PropOp36
 70
     1
102
RTVSPost2010Prop37
 90
       50
102
RTVSPost2010PropOp37
 70
     1
102
RTVSPost2010Prop38
140
0.0
102
RTVSPost2010PropOp38
 70
     1
102
RTVSPost2010Prop39
140
1.0
102
RTVSPost2010PropOp39
 70
     1
102
RTVSPost2010Prop40
 90
        0
102
RTVSPost2010PropOp40
 70
     1
102
RTVSPost2010Prop41ColorIndex
 90
       18
102
RTVSPost2010Prop41ColorRGB
 90
        0
102
RTVSPost2010PropOp41
 70
     1
102
RTVSPost2010Prop42
 90
       50
102
RTVSPost2010PropOp42
 70
     1
102
RTVSPost2010Prop43
 90
        3
102
RTVSPost2010PropOp43
 70
     1
102
RTVSPost2010Prop44ColorIndex
 90
        5
102
RTVSPost2010Prop44ColorRGB
 90
      255
102
RTVSPost2010PropOp44
 70
     1
102
RTVSPost2010Prop45
280
     0
102
RTVSPost2010PropOp45
 70
     1
102
RTVSPost2010Prop46
 90
       50
102
RTVSPost2010PropOp46
 70
     1
102
RTVSPost2010Prop47
 90
       50
102
RTVSPost2010PropOp47
 70
     1
102
RTVSPost2010Prop48
 90
       50
102
RTVSPost2010PropOp48
 70
     1
102
RTVSPost2010Prop49
280
     0
102
RTVSPost2010PropOp49
 70
     1
102
RTVSPost2010Prop50
 90
       50
102
RTVSPost2010PropOp50
 70
     1
102
RTVSPost2010Prop51ColorIndex
 90
      256
102
RTVSPost2010Prop51ColorRGB
 90
-16777216
102
RTVSPost2010PropOp51
 70
     0
102
RTVSPost2010Prop52
140
1.0
102
RTVSPost2010PropOp52
 70
     0
102
RTVSPost2010Prop53
 90
        2
102
RTVSPost2010PropOp53
 70
     1
102
RTVSPost2010Prop54
  1
strokes_ogs.tif
102
RTVSPost2010PropOp54
 70
     1
102
RTVSPost2010Prop55
280
     0
102
RTVSPost2010PropOp55
 70
     1
102
RTVSPost2010Prop56
140
1.0
102
RTVSPost2010PropOp56
 70
     1
102
RTVSPost2010Prop57
140
1.0
102
RTVSPost2010PropOp57
 70
     1
  0
XRECORD
  5
668
102
{ACAD_REACTORS
330
667
102
}
330
667
100
AcDbXrecord
280
     1
102
RTVSPropertyOp0
 70
     1
102
RTVSPropertyOp1
 70
     1
102
RTVSPropertyOp2
 70
     1
102
RTVSPropertyOp3
 70
     1
102
RTVSPropertyOp4
 70
     1
102
RTVSPropertyOp5
 70
     1
102
RTVSPropertyOp6
 70
     1
102
RTVSPropertyOp7
 70
     1
102
RTVSPropertyOp8
 70
     1
102
RTVSPropertyOp9
 70
     1
102
RTVSPropertyOp10
 70
     1
102
RTVSPropertyOp11
 70
     1
102
RTVSPropertyOp12
 70
     1
102
RTVSPropertyOp13
 70
     1
102
RTVSPropertyOp14
 70
     1
102
RTVSPropertyOp15
 70
     1
102
RTVSPropertyOp16
 70
     1
102
RTVSPropertyOp17
 70
     1
102
RTVSPropertyOp18
 70
     1
102
RTVSPropertyOp19
 70
     1
102
RTVSPropertyOp20
 70
     1
102
RTVSPropertyOp21
 70
     1
102
RTVSPropertyOp22
 70
     1
102
RTVSPropertyOp23
 70
     1
102
RTVSPropertyOp24
 70
     1
102
RTVSPropertyOp25
 70
     1
102
RTVSPropertyOp26
 70
     1
102
RTVSPropertyOp27
 70
     1
102
RTVSPropertyOp28
 70
     1
102
RTVSPropertyOp29
 70
     1
102
RTVSPropertyOp30
 70
     1
102
RTVSPropertyOp31
 70
     1
102
RTVSPropertyOp32
 70
     1
102
RTVSPropertyOp33
 70
     1
102
RTVSPropertyOp34
 70
     1
102
RTVSPropertyOp35
 70
     1
102
RTVSPropertyOp36
 70
     1
102
RTVSPropertyOp37
 70
     1
102
RTVSPropertyOp38
 70
     1
102
RTVSPropertyOp39
 70
     1
102
RTVSPropertyOp40
 70
     1
102
RTVSPropertyOp41
 70
     1
102
RTVSPropertyOp42
 70
     1
102
RTVSPropertyOp43
 70
     1
102
RTVSPropertyOp44
 70
     1
102
RTVSPropertyOp45
 70
     1
102
RTVSPropertyOp46
 70
     1
102
RTVSPropertyOp47
 70
     1
102
RTVSPropertyOp48
 70
     1
102
RTVSPropertyOp49
 70
     1
102
RTVSPropertyOp50
 70
     1
102
RTVSPropertyOp51
 70
     0
102
RTVSPropertyOp52
 70
     0
102
RTVSPropertyOp53
 70
     1
102
RTVSPropertyOp54
 70
     1
102
RTVSPropertyOp55
 70
     1
102
RTVSPropertyOp56
 70
     1
102
RTVSPropertyOp57
 70
     1
102
RTVSPost2010Prop28
280
     0
102
RTVSPost2010PropOp28
 70
     1
102
RTVSPost2010Prop29
280
     1
102
RTVSPost2010PropOp29
 70
     1
102
RTVSPost2010Prop30
280
     1
102
RTVSPost2010PropOp30
 70
     1
102
RTVSPost2010Prop31
280
     0
102
RTVSPost2010PropOp31
 70
     1
102
RTVSPost2010Prop32
280
     0
102
RTVSPost2010PropOp32
 70
     1
102
RTVSPost2010Prop33
280
     0
102
RTVSPost2010PropOp33
 70
     1
102
RTVSPost2010Prop34
280
     0
102
RTVSPost2010PropOp34
 70
     1
102
RTVSPost2010Prop35
280
     0
102
RTVSPost2010PropOp35
 70
     1
102
RTVSPost2010Prop36
280
     0
102
RTVSPost2010PropOp36
 70
     1
102
RTVSPost2010Prop37
 90
       50
102
RTVSPost2010PropOp37
 70
     1
102
RTVSPost2010Prop38
140
0.0
102
RTVSPost2010PropOp38
 70
     1
102
RTVSPost2010Prop39
140
1.0
102
RTVSPost2010PropOp39
 70
     1
102
RTVSPost2010Prop40
 90
        0
102
RTVSPost2010PropOp40
 70
     1
102
RTVSPost2010Prop41ColorIndex
 90
       18
102
RTVSPost2010Prop41ColorRGB
 90
        0
102
RTVSPost2010PropOp41
 70
     1
102
RTVSPost2010Prop42
 90
       50
102
RTVSPost2010PropOp42
 70
     1
102
RTVSPost2010Prop43
 90
        3
102
RTVSPost2010PropOp43
 70
     1
102
RTVSPost2010Prop44ColorIndex
 90
        5
102
RTVSPost2010Prop44ColorRGB
 90
      255
102
RTVSPost2010PropOp44
 70
     1
102
RTVSPost2010Prop45
280
     0
102
RTVSPost2010PropOp45
 70
     1
102
RTVSPost2010Prop46
 90
       50
102
RTVSPost2010PropOp46
 70
     1
102
RTVSPost2010Prop47
 90
       50
102
RTVSPost2010PropOp47
 70
     1
102
RTVSPost2010Prop48
 90
       50
102
RTVSPost2010PropOp48
 70
     1
102
RTVSPost2010Prop49
280
     0
102
RTVSPost2010PropOp49
 70
     1
102
RTVSPost2010Prop50
 90
       50
102
RTVSPost2010PropOp50
 70
     1
102
RTVSPost2010Prop51ColorIndex
 90
      256
102
RTVSPost2010Prop51ColorRGB
 90
-16777216
102
RTVSPost2010PropOp51
 70
     0
102
RTVSPost2010Prop52
140
1.0
102
RTVSPost2010PropOp52
 70
     0
102
RTVSPost2010Prop53
 90
        2
102
RTVSPost2010PropOp53
 70
     1
102
RTVSPost2010Prop54
  1
strokes_ogs.tif
102
RTVSPost2010PropOp54
 70
     1
102
RTVSPost2010Prop55
280
     0
102
RTVSPost2010PropOp55
 70
     1
102
RTVSPost2010Prop56
140
1.0
102
RTVSPost2010PropOp56
 70
     1
102
RTVSPost2010Prop57
140
1.0
102
RTVSPost2010PropOp57
 70
     1
  0
XRECORD
  5
66A
102
{ACAD_REACTORS
330
669
102
}
330
669
100
AcDbXrecord
280
     1
102
RTVSPropertyOp0
 70
     0
102
RTVSPropertyOp1
 70
     0
102
RTVSPropertyOp2
 70
     0
102
RTVSPropertyOp3
 70
     0
102
RTVSPropertyOp4
 70
     0
102
RTVSPropertyOp5
 70
     0
102
RTVSPropertyOp6
 70
     0
102
RTVSPropertyOp7
 70
     0
102
RTVSPropertyOp8
 70
     0
102
RTVSPropertyOp9
 70
     0
102
RTVSPropertyOp10
 70
     0
102
RTVSPropertyOp11
 70
     0
102
RTVSPropertyOp12
 70
     0
102
RTVSPropertyOp13
 70
     0
102
RTVSPropertyOp14
 70
     2
102
RTVSPropertyOp15
 70
     0
102
RTVSPropertyOp16
 70
     0
102
RTVSPropertyOp17
 70
     0
102
RTVSPropertyOp18
 70
     0
102
RTVSPropertyOp19
 70
     0
102
RTVSPropertyOp20
 70
     0
102
RTVSPropertyOp21
 70
     0
102
RTVSPropertyOp22
 70
     0
102
RTVSPropertyOp23
 70
     0
102
RTVSPropertyOp24
 70
     0
102
RTVSPropertyOp25
 70
     0
102
RTVSPropertyOp26
 70
     0
102
RTVSPropertyOp27
 70
     0
102
RTVSPropertyOp28
 70
     0
102
RTVSPropertyOp29
 70
     0
102
RTVSPropertyOp30
 70
     0
102
RTVSPropertyOp31
 70
     0
102
RTVSPropertyOp32
 70
     0
102
RTVSPropertyOp33
 70
     0
102
RTVSPropertyOp34
 70
     0
102
RTVSPropertyOp35
 70
     0
102
RTVSPropertyOp36
 70
     0
102
RTVSPropertyOp37
 70
     0
102
RTVSPropertyOp38
 70
     0
102
RTVSPropertyOp39
 70
     0
102
RTVSPropertyOp40
 70
     0
102
RTVSPropertyOp41
 70
     0
102
RTVSPropertyOp42
 70
     0
102
RTVSPropertyOp43
 70
     0
102
RTVSPropertyOp44
 70
     0
102
RTVSPropertyOp45
 70
     0
102
RTVSPropertyOp46
 70
     0
102
RTVSPropertyOp47
 70
     0
102
RTVSPropertyOp48
 70
     0
102
RTVSPropertyOp49
 70
     0
102
RTVSPropertyOp50
 70
     0
102
RTVSPropertyOp51
 70
     0
102
RTVSPropertyOp52
 70
     0
102
RTVSPropertyOp53
 70
     0
102
RTVSPropertyOp54
 70
     0
102
RTVSPropertyOp55
 70
     0
102
RTVSPropertyOp56
 70
     0
102
RTVSPropertyOp57
 70
     0
102
RTVSPost2010Prop28
280
     0
102
RTVSPost2010PropOp28
 70
     0
102
RTVSPost2010Prop29
280
     1
102
RTVSPost2010PropOp29
 70
     0
102
RTVSPost2010Prop30
280
     1
102
RTVSPost2010PropOp30
 70
     0
102
RTVSPost2010Prop31
280
     0
102
RTVSPost2010PropOp31
 70
     0
102
RTVSPost2010Prop32
280
     0
102
RTVSPost2010PropOp32
 70
     0
102
RTVSPost2010Prop33
280
     0
102
RTVSPost2010PropOp33
 70
     0
102
RTVSPost2010Prop34
280
     0
102
RTVSPost2010PropOp34
 70
     0
102
RTVSPost2010Prop35
280
     0
102
RTVSPost2010PropOp35
 70
     0
102
RTVSPost2010Prop36
280
     0
102
RTVSPost2010PropOp36
 70
     0
102
RTVSPost2010Prop37
 90
       50
102
RTVSPost2010PropOp37
 70
     0
102
RTVSPost2010Prop38
140
0.0
102
RTVSPost2010PropOp38
 70
     0
102
RTVSPost2010Prop39
140
1.0
102
RTVSPost2010PropOp39
 70
     0
102
RTVSPost2010Prop40
 90
        0
102
RTVSPost2010PropOp40
 70
     0
102
RTVSPost2010Prop41ColorIndex
 90
       18
102
RTVSPost2010Prop41ColorRGB
 90
        0
102
RTVSPost2010PropOp41
 70
     0
102
RTVSPost2010Prop42
 90
       50
102
RTVSPost2010PropOp42
 70
     0
102
RTVSPost2010Prop43
 90
        3
102
RTVSPost2010PropOp43
 70
     0
102
RTVSPost2010Prop44ColorIndex
 90
        5
102
RTVSPost2010Prop44ColorRGB
 90
      255
102
RTVSPost2010PropOp44
 70
     0
102
RTVSPost2010Prop45
280
     0
102
RTVSPost2010PropOp45
 70
     0
102
RTVSPost2010Prop46
 90
       50
102
RTVSPost2010PropOp46
 70
     0
102
RTVSPost2010Prop47
 90
       50
102
RTVSPost2010PropOp47
 70
     0
102
RTVSPost2010Prop48
 90
       50
102
RTVSPost2010PropOp48
 70
     0
102
RTVSPost2010Prop49
280
     0
102
RTVSPost2010PropOp49
 70
     0
102
RTVSPost2010Prop50
 90
       50
102
RTVSPost2010PropOp50
 70
     0
102
RTVSPost2010Prop51ColorIndex
 90
      256
102
RTVSPost2010Prop51ColorRGB
 90
-16777216
102
RTVSPost2010PropOp51
 70
     0
102
RTVSPost2010Prop52
140
1.0
102
RTVSPost2010PropOp52
 70
     0
102
RTVSPost2010Prop53
 90
        2
102
RTVSPost2010PropOp53
 70
     0
102
RTVSPost2010Prop54
  1
strokes_ogs.tif
102
RTVSPost2010PropOp54
 70
     0
102
RTVSPost2010Prop55
280
     0
102
RTVSPost2010PropOp55
 70
     0
102
RTVSPost2010Prop56
140
1.0
102
RTVSPost2010PropOp56
 70
     0
102
RTVSPost2010Prop57
140
1.0
102
RTVSPost2010PropOp57
 70
     0
  0
XRECORD
  5
66C
102
{ACAD_REACTORS
330
66B
102
}
330
66B
100
AcDbXrecord
280
     1
102
RTVSPropertyOp0
 70
     1
102
RTVSPropertyOp1
 70
     1
102
RTVSPropertyOp2
 70
     1
102
RTVSPropertyOp3
 70
     1
102
RTVSPropertyOp4
 70
     1
102
RTVSPropertyOp5
 70
     1
102
RTVSPropertyOp6
 70
     1
102
RTVSPropertyOp7
 70
     1
102
RTVSPropertyOp8
 70
     1
102
RTVSPropertyOp9
 70
     1
102
RTVSPropertyOp10
 70
     1
102
RTVSPropertyOp11
 70
     1
102
RTVSPropertyOp12
 70
     1
102
RTVSPropertyOp13
 70
     1
102
RTVSPropertyOp14
 70
     1
102
RTVSPropertyOp15
 70
     1
102
RTVSPropertyOp16
 70
     1
102
RTVSPropertyOp17
 70
     1
102
RTVSPropertyOp18
 70
     1
102
RTVSPropertyOp19
 70
     1
102
RTVSPropertyOp20
 70
     1
102
RTVSPropertyOp21
 70
     1
102
RTVSPropertyOp22
 70
     1
102
RTVSPropertyOp23
 70
     1
102
RTVSPropertyOp24
 70
     1
102
RTVSPropertyOp25
 70
     1
102
RTVSPropertyOp26
 70
     1
102
RTVSPropertyOp27
 70
     1
102
RTVSPropertyOp28
 70
     1
102
RTVSPropertyOp29
 70
     1
102
RTVSPropertyOp30
 70
     1
102
RTVSPropertyOp31
 70
     1
102
RTVSPropertyOp32
 70
     1
102
RTVSPropertyOp33
 70
     1
102
RTVSPropertyOp34
 70
     1
102
RTVSPropertyOp35
 70
     1
102
RTVSPropertyOp36
 70
     1
102
RTVSPropertyOp37
 70
     1
102
RTVSPropertyOp38
 70
     1
102
RTVSPropertyOp39
 70
     1
102
RTVSPropertyOp40
 70
     1
102
RTVSPropertyOp41
 70
     1
102
RTVSPropertyOp42
 70
     1
102
RTVSPropertyOp43
 70
     1
102
RTVSPropertyOp44
 70
     1
102
RTVSPropertyOp45
 70
     1
102
RTVSPropertyOp46
 70
     1
102
RTVSPropertyOp47
 70
     1
102
RTVSPropertyOp48
 70
     1
102
RTVSPropertyOp49
 70
     1
102
RTVSPropertyOp50
 70
     1
102
RTVSPropertyOp51
 70
     0
102
RTVSPropertyOp52
 70
     0
102
RTVSPropertyOp53
 70
     1
102
RTVSPropertyOp54
 70
     1
102
RTVSPropertyOp55
 70
     1
102
RTVSPropertyOp56
 70
     1
102
RTVSPropertyOp57
 70
     1
102
RTVSPost2010Prop28
280
     0
102
RTVSPost2010PropOp28
 70
     1
102
RTVSPost2010Prop29
280
     1
102
RTVSPost2010PropOp29
 70
     1
102
RTVSPost2010Prop30
280
     1
102
RTVSPost2010PropOp30
 70
     1
102
RTVSPost2010Prop31
280
     0
102
RTVSPost2010PropOp31
 70
     1
102
RTVSPost2010Prop32
280
     0
102
RTVSPost2010PropOp32
 70
     1
102
RTVSPost2010Prop33
280
     0
102
RTVSPost2010PropOp33
 70
     1
102
RTVSPost2010Prop34
280
     0
102
RTVSPost2010PropOp34
 70
     1
102
RTVSPost2010Prop35
280
     0
102
RTVSPost2010PropOp35
 70
     1
102
RTVSPost2010Prop36
280
     0
102
RTVSPost2010PropOp36
 70
     1
102
RTVSPost2010Prop37
 90
       50
102
RTVSPost2010PropOp37
 70
     1
102
RTVSPost2010Prop38
140
0.0
102
RTVSPost2010PropOp38
 70
     1
102
RTVSPost2010Prop39
140
1.0
102
RTVSPost2010PropOp39
 70
     1
102
RTVSPost2010Prop40
 90
        0
102
RTVSPost2010PropOp40
 70
     1
102
RTVSPost2010Prop41ColorIndex
 90
       18
102
RTVSPost2010Prop41ColorRGB
 90
        0
102
RTVSPost2010PropOp41
 70
     1
102
RTVSPost2010Prop42
 90
       50
102
RTVSPost2010PropOp42
 70
     1
102
RTVSPost2010Prop43
 90
        3
102
RTVSPost2010PropOp43
 70
     1
102
RTVSPost2010Prop44ColorIndex
 90
        5
102
RTVSPost2010Prop44ColorRGB
 90
      255
102
RTVSPost2010PropOp44
 70
     1
102
RTVSPost2010Prop45
280
     0
102
RTVSPost2010PropOp45
 70
     1
102
RTVSPost2010Prop46
 90
       50
102
RTVSPost2010PropOp46
 70
     1
102
RTVSPost2010Prop47
 90
       50
102
RTVSPost2010PropOp47
 70
     1
102
RTVSPost2010Prop48
 90
       50
102
RTVSPost2010PropOp48
 70
     1
102
RTVSPost2010Prop49
280
     0
102
RTVSPost2010PropOp49
 70
     1
102
RTVSPost2010Prop50
 90
       50
102
RTVSPost2010PropOp50
 70
     1
102
RTVSPost2010Prop51ColorIndex
 90
      256
102
RTVSPost2010Prop51ColorRGB
 90
-16777216
102
RTVSPost2010PropOp51
 70
     0
102
RTVSPost2010Prop52
140
1.0
102
RTVSPost2010PropOp52
 70
     0
102
RTVSPost2010Prop53
 90
        2
102
RTVSPost2010PropOp53
 70
     1
102
RTVSPost2010Prop54
  1
strokes_ogs.tif
102
RTVSPost2010PropOp54
 70
     1
102
RTVSPost2010Prop55
280
     0
102
RTVSPost2010PropOp55
 70
     1
102
RTVSPost2010Prop56
140
1.0
102
RTVSPost2010PropOp56
 70
     1
102
RTVSPost2010Prop57
140
1.0
102
RTVSPost2010PropOp57
 70
     1
  0
XRECORD
  5
66E
102
{ACAD_REACTORS
330
66D
102
}
330
66D
100
AcDbXrecord
280
     1
102
RTVSPropertyOp0
 70
     0
102
RTVSPropertyOp1
 70
     0
102
RTVSPropertyOp2
 70
     0
102
RTVSPropertyOp3
 70
     0
102
RTVSPropertyOp4
 70
     0
102
RTVSPropertyOp5
 70
     0
102
RTVSPropertyOp6
 70
     0
102
RTVSPropertyOp7
 70
     0
102
RTVSPropertyOp8
 70
     0
102
RTVSPropertyOp9
 70
     0
102
RTVSPropertyOp10
 70
     0
102
RTVSPropertyOp11
 70
     0
102
RTVSPropertyOp12
 70
     0
102
RTVSPropertyOp13
 70
     0
102
RTVSPropertyOp14
 70
     2
102
RTVSPropertyOp15
 70
     0
102
RTVSPropertyOp16
 70
     0
102
RTVSPropertyOp17
 70
     0
102
RTVSPropertyOp18
 70
     0
102
RTVSPropertyOp19
 70
     0
102
RTVSPropertyOp20
 70
     0
102
RTVSPropertyOp21
 70
     0
102
RTVSPropertyOp22
 70
     0
102
RTVSPropertyOp23
 70
     0
102
RTVSPropertyOp24
 70
     0
102
RTVSPropertyOp25
 70
     0
102
RTVSPropertyOp26
 70
     0
102
RTVSPropertyOp27
 70
     0
102
RTVSPropertyOp28
 70
     0
102
RTVSPropertyOp29
 70
     0
102
RTVSPropertyOp30
 70
     0
102
RTVSPropertyOp31
 70
     0
102
RTVSPropertyOp32
 70
     0
102
RTVSPropertyOp33
 70
     0
102
RTVSPropertyOp34
 70
     0
102
RTVSPropertyOp35
 70
     0
102
RTVSPropertyOp36
 70
     0
102
RTVSPropertyOp37
 70
     0
102
RTVSPropertyOp38
 70
     0
102
RTVSPropertyOp39
 70
     0
102
RTVSPropertyOp40
 70
     0
102
RTVSPropertyOp41
 70
     0
102
RTVSPropertyOp42
 70
     0
102
RTVSPropertyOp43
 70
     0
102
RTVSPropertyOp44
 70
     0
102
RTVSPropertyOp45
 70
     0
102
RTVSPropertyOp46
 70
     0
102
RTVSPropertyOp47
 70
     0
102
RTVSPropertyOp48
 70
     0
102
RTVSPropertyOp49
 70
     0
102
RTVSPropertyOp50
 70
     0
102
RTVSPropertyOp51
 70
     0
102
RTVSPropertyOp52
 70
     0
102
RTVSPropertyOp53
 70
     0
102
RTVSPropertyOp54
 70
     0
102
RTVSPropertyOp55
 70
     0
102
RTVSPropertyOp56
 70
     0
102
RTVSPropertyOp57
 70
     0
102
RTVSPost2010Prop28
280
     0
102
RTVSPost2010PropOp28
 70
     0
102
RTVSPost2010Prop29
280
     1
102
RTVSPost2010PropOp29
 70
     0
102
RTVSPost2010Prop30
280
     1
102
RTVSPost2010PropOp30
 70
     0
102
RTVSPost2010Prop31
280
     0
102
RTVSPost2010PropOp31
 70
     0
102
RTVSPost2010Prop32
280
     0
102
RTVSPost2010PropOp32
 70
     0
102
RTVSPost2010Prop33
280
     0
102
RTVSPost2010PropOp33
 70
     0
102
RTVSPost2010Prop34
280
     0
102
RTVSPost2010PropOp34
 70
     0
102
RTVSPost2010Prop35
280
     0
102
RTVSPost2010PropOp35
 70
     0
102
RTVSPost2010Prop36
280
     0
102
RTVSPost2010PropOp36
 70
     0
102
RTVSPost2010Prop37
 90
       50
102
RTVSPost2010PropOp37
 70
     0
102
RTVSPost2010Prop38
140
0.0
102
RTVSPost2010PropOp38
 70
     0
102
RTVSPost2010Prop39
140
1.0
102
RTVSPost2010PropOp39
 70
     0
102
RTVSPost2010Prop40
 90
        0
102
RTVSPost2010PropOp40
 70
     0
102
RTVSPost2010Prop41ColorIndex
 90
       18
102
RTVSPost2010Prop41ColorRGB
 90
        0
102
RTVSPost2010PropOp41
 70
     0
102
RTVSPost2010Prop42
 90
       50
102
RTVSPost2010PropOp42
 70
     0
102
RTVSPost2010Prop43
 90
        3
102
RTVSPost2010PropOp43
 70
     0
102
RTVSPost2010Prop44ColorIndex
 90
        5
102
RTVSPost2010Prop44ColorRGB
 90
      255
102
RTVSPost2010PropOp44
 70
     0
102
RTVSPost2010Prop45
280
     0
102
RTVSPost2010PropOp45
 70
     0
102
RTVSPost2010Prop46
 90
       50
102
RTVSPost2010PropOp46
 70
     0
102
RTVSPost2010Prop47
 90
       50
102
RTVSPost2010PropOp47
 70
     0
102
RTVSPost2010Prop48
 90
       50
102
RTVSPost2010PropOp48
 70
     0
102
RTVSPost2010Prop49
280
     0
102
RTVSPost2010PropOp49
 70
     0
102
RTVSPost2010Prop50
 90
       50
102
RTVSPost2010PropOp50
 70
     0
102
RTVSPost2010Prop51ColorIndex
 90
      256
102
RTVSPost2010Prop51ColorRGB
 90
-16777216
102
RTVSPost2010PropOp51
 70
     0
102
RTVSPost2010Prop52
140
1.0
102
RTVSPost2010PropOp52
 70
     0
102
RTVSPost2010Prop53
 90
        2
102
RTVSPost2010PropOp53
 70
     0
102
RTVSPost2010Prop54
  1
strokes_ogs.tif
102
RTVSPost2010PropOp54
 70
     0
102
RTVSPost2010Prop55
280
     0
102
RTVSPost2010PropOp55
 70
     0
102
RTVSPost2010Prop56
140
1.0
102
RTVSPost2010PropOp56
 70
     0
102
RTVSPost2010Prop57
140
1.0
102
RTVSPost2010PropOp57
 70
     0
  0
XRECORD
  5
670
102
{ACAD_REACTORS
330
66F
102
}
330
66F
100
AcDbXrecord
280
     1
102
RTVSPropertyOp0
 70
     1
102
RTVSPropertyOp1
 70
     1
102
RTVSPropertyOp2
 70
     1
102
RTVSPropertyOp3
 70
     1
102
RTVSPropertyOp4
 70
     1
102
RTVSPropertyOp5
 70
     1
102
RTVSPropertyOp6
 70
     1
102
RTVSPropertyOp7
 70
     1
102
RTVSPropertyOp8
 70
     1
102
RTVSPropertyOp9
 70
     1
102
RTVSPropertyOp10
 70
     1
102
RTVSPropertyOp11
 70
     1
102
RTVSPropertyOp12
 70
     1
102
RTVSPropertyOp13
 70
     1
102
RTVSPropertyOp14
 70
     1
102
RTVSPropertyOp15
 70
     1
102
RTVSPropertyOp16
 70
     1
102
RTVSPropertyOp17
 70
     1
102
RTVSPropertyOp18
 70
     1
102
RTVSPropertyOp19
 70
     1
102
RTVSPropertyOp20
 70
     1
102
RTVSPropertyOp21
 70
     1
102
RTVSPropertyOp22
 70
     1
102
RTVSPropertyOp23
 70
     1
102
RTVSPropertyOp24
 70
     1
102
RTVSPropertyOp25
 70
     1
102
RTVSPropertyOp26
 70
     1
102
RTVSPropertyOp27
 70
     1
102
RTVSPropertyOp28
 70
     1
102
RTVSPropertyOp29
 70
     1
102
RTVSPropertyOp30
 70
     1
102
RTVSPropertyOp31
 70
     1
102
RTVSPropertyOp32
 70
     1
102
RTVSPropertyOp33
 70
     1
102
RTVSPropertyOp34
 70
     1
102
RTVSPropertyOp35
 70
     1
102
RTVSPropertyOp36
 70
     1
102
RTVSPropertyOp37
 70
     1
102
RTVSPropertyOp38
 70
     1
102
RTVSPropertyOp39
 70
     1
102
RTVSPropertyOp40
 70
     1
102
RTVSPropertyOp41
 70
     1
102
RTVSPropertyOp42
 70
     1
102
RTVSPropertyOp43
 70
     1
102
RTVSPropertyOp44
 70
     1
102
RTVSPropertyOp45
 70
     1
102
RTVSPropertyOp46
 70
     1
102
RTVSPropertyOp47
 70
     1
102
RTVSPropertyOp48
 70
     1
102
RTVSPropertyOp49
 70
     1
102
RTVSPropertyOp50
 70
     1
102
RTVSPropertyOp51
 70
     0
102
RTVSPropertyOp52
 70
     0
102
RTVSPropertyOp53
 70
     1
102
RTVSPropertyOp54
 70
     1
102
RTVSPropertyOp55
 70
     1
102
RTVSPropertyOp56
 70
     1
102
RTVSPropertyOp57
 70
     1
102
RTVSPost2010Prop28
280
     0
102
RTVSPost2010PropOp28
 70
     1
102
RTVSPost2010Prop29
280
     1
102
RTVSPost2010PropOp29
 70
     1
102
RTVSPost2010Prop30
280
     1
102
RTVSPost2010PropOp30
 70
     1
102
RTVSPost2010Prop31
280
     0
102
RTVSPost2010PropOp31
 70
     1
102
RTVSPost2010Prop32
280
     0
102
RTVSPost2010PropOp32
 70
     1
102
RTVSPost2010Prop33
280
     0
102
RTVSPost2010PropOp33
 70
     1
102
RTVSPost2010Prop34
280
     0
102
RTVSPost2010PropOp34
 70
     1
102
RTVSPost2010Prop35
280
     0
102
RTVSPost2010PropOp35
 70
     1
102
RTVSPost2010Prop36
280
     0
102
RTVSPost2010PropOp36
 70
     1
102
RTVSPost2010Prop37
 90
       50
102
RTVSPost2010PropOp37
 70
     1
102
RTVSPost2010Prop38
140
0.0
102
RTVSPost2010PropOp38
 70
     1
102
RTVSPost2010Prop39
140
1.0
102
RTVSPost2010PropOp39
 70
     1
102
RTVSPost2010Prop40
 90
        0
102
RTVSPost2010PropOp40
 70
     1
102
RTVSPost2010Prop41ColorIndex
 90
       18
102
RTVSPost2010Prop41ColorRGB
 90
        0
102
RTVSPost2010PropOp41
 70
     1
102
RTVSPost2010Prop42
 90
       50
102
RTVSPost2010PropOp42
 70
     1
102
RTVSPost2010Prop43
 90
        3
102
RTVSPost2010PropOp43
 70
     1
102
RTVSPost2010Prop44ColorIndex
 90
        5
102
RTVSPost2010Prop44ColorRGB
 90
      255
102
RTVSPost2010PropOp44
 70
     1
102
RTVSPost2010Prop45
280
     0
102
RTVSPost2010PropOp45
 70
     1
102
RTVSPost2010Prop46
 90
       50
102
RTVSPost2010PropOp46
 70
     1
102
RTVSPost2010Prop47
 90
       50
102
RTVSPost2010PropOp47
 70
     1
102
RTVSPost2010Prop48
 90
       50
102
RTVSPost2010PropOp48
 70
     1
102
RTVSPost2010Prop49
280
     0
102
RTVSPost2010PropOp49
 70
     1
102
RTVSPost2010Prop50
 90
       50
102
RTVSPost2010PropOp50
 70
     1
102
RTVSPost2010Prop51ColorIndex
 90
      256
102
RTVSPost2010Prop51ColorRGB
 90
-16777216
102
RTVSPost2010PropOp51
 70
     0
102
RTVSPost2010Prop52
140
1.0
102
RTVSPost2010PropOp52
 70
     0
102
RTVSPost2010Prop53
 90
        2
102
RTVSPost2010PropOp53
 70
     1
102
RTVSPost2010Prop54
  1
strokes_ogs.tif
102
RTVSPost2010PropOp54
 70
     1
102
RTVSPost2010Prop55
280
     0
102
RTVSPost2010PropOp55
 70
     1
102
RTVSPost2010Prop56
140
1.0
102
RTVSPost2010PropOp56
 70
     1
102
RTVSPost2010Prop57
140
1.0
102
RTVSPost2010PropOp57
 70
     1
  0
XRECORD
  5
672
102
{ACAD_REACTORS
330
671
102
}
330
671
100
AcDbXrecord
280
     1
102
RTVSPropertyOp0
 70
     1
102
RTVSPropertyOp1
 70
     1
102
RTVSPropertyOp2
 70
     1
102
RTVSPropertyOp3
 70
     1
102
RTVSPropertyOp4
 70
     1
102
RTVSPropertyOp5
 70
     1
102
RTVSPropertyOp6
 70
     1
102
RTVSPropertyOp7
 70
     1
102
RTVSPropertyOp8
 70
     1
102
RTVSPropertyOp9
 70
     1
102
RTVSPropertyOp10
 70
     1
102
RTVSPropertyOp11
 70
     1
102
RTVSPropertyOp12
 70
     1
102
RTVSPropertyOp13
 70
     1
102
RTVSPropertyOp14
 70
     1
102
RTVSPropertyOp15
 70
     1
102
RTVSPropertyOp16
 70
     1
102
RTVSPropertyOp17
 70
     1
102
RTVSPropertyOp18
 70
     1
102
RTVSPropertyOp19
 70
     1
102
RTVSPropertyOp20
 70
     1
102
RTVSPropertyOp21
 70
     1
102
RTVSPropertyOp22
 70
     1
102
RTVSPropertyOp23
 70
     1
102
RTVSPropertyOp24
 70
     1
102
RTVSPropertyOp25
 70
     1
102
RTVSPropertyOp26
 70
     1
102
RTVSPropertyOp27
 70
     1
102
RTVSPropertyOp28
 70
     1
102
RTVSPropertyOp29
 70
     1
102
RTVSPropertyOp30
 70
     1
102
RTVSPropertyOp31
 70
     1
102
RTVSPropertyOp32
 70
     1
102
RTVSPropertyOp33
 70
     1
102
RTVSPropertyOp34
 70
     1
102
RTVSPropertyOp35
 70
     1
102
RTVSPropertyOp36
 70
     1
102
RTVSPropertyOp37
 70
     1
102
RTVSPropertyOp38
 70
     1
102
RTVSPropertyOp39
 70
     1
102
RTVSPropertyOp40
 70
     1
102
RTVSPropertyOp41
 70
     1
102
RTVSPropertyOp42
 70
     1
102
RTVSPropertyOp43
 70
     1
102
RTVSPropertyOp44
 70
     1
102
RTVSPropertyOp45
 70
     1
102
RTVSPropertyOp46
 70
     1
102
RTVSPropertyOp47
 70
     1
102
RTVSPropertyOp48
 70
     1
102
RTVSPropertyOp49
 70
     1
102
RTVSPropertyOp50
 70
     1
102
RTVSPropertyOp51
 70
     0
102
RTVSPropertyOp52
 70
     0
102
RTVSPropertyOp53
 70
     1
102
RTVSPropertyOp54
 70
     1
102
RTVSPropertyOp55
 70
     1
102
RTVSPropertyOp56
 70
     1
102
RTVSPropertyOp57
 70
     1
102
RTVSPost2010Prop28
280
     0
102
RTVSPost2010PropOp28
 70
     1
102
RTVSPost2010Prop29
280
     1
102
RTVSPost2010PropOp29
 70
     1
102
RTVSPost2010Prop30
280
     1
102
RTVSPost2010PropOp30
 70
     1
102
RTVSPost2010Prop31
280
     0
102
RTVSPost2010PropOp31
 70
     1
102
RTVSPost2010Prop32
280
     0
102
RTVSPost2010PropOp32
 70
     1
102
RTVSPost2010Prop33
280
     0
102
RTVSPost2010PropOp33
 70
     1
102
RTVSPost2010Prop34
280
     0
102
RTVSPost2010PropOp34
 70
     1
102
RTVSPost2010Prop35
280
     0
102
RTVSPost2010PropOp35
 70
     1
102
RTVSPost2010Prop36
280
     0
102
RTVSPost2010PropOp36
 70
     1
102
RTVSPost2010Prop37
 90
       50
102
RTVSPost2010PropOp37
 70
     1
102
RTVSPost2010Prop38
140
0.0
102
RTVSPost2010PropOp38
 70
     1
102
RTVSPost2010Prop39
140
1.0
102
RTVSPost2010PropOp39
 70
     1
102
RTVSPost2010Prop40
 90
        0
102
RTVSPost2010PropOp40
 70
     1
102
RTVSPost2010Prop41ColorIndex
 90
       18
102
RTVSPost2010Prop41ColorRGB
 90
        0
102
RTVSPost2010PropOp41
 70
     1
102
RTVSPost2010Prop42
 90
       50
102
RTVSPost2010PropOp42
 70
     1
102
RTVSPost2010Prop43
 90
        3
102
RTVSPost2010PropOp43
 70
     1
102
RTVSPost2010Prop44ColorIndex
 90
        5
102
RTVSPost2010Prop44ColorRGB
 90
      255
102
RTVSPost2010PropOp44
 70
     1
102
RTVSPost2010Prop45
280
     0
102
RTVSPost2010PropOp45
 70
     1
102
RTVSPost2010Prop46
 90
       50
102
RTVSPost2010PropOp46
 70
     1
102
RTVSPost2010Prop47
 90
       50
102
RTVSPost2010PropOp47
 70
     1
102
RTVSPost2010Prop48
 90
       50
102
RTVSPost2010PropOp48
 70
     1
102
RTVSPost2010Prop49
280
     0
102
RTVSPost2010PropOp49
 70
     1
102
RTVSPost2010Prop50
 90
       50
102
RTVSPost2010PropOp50
 70
     1
102
RTVSPost2010Prop51ColorIndex
 90
      256
102
RTVSPost2010Prop51ColorRGB
 90
-16777216
102
RTVSPost2010PropOp51
 70
     0
102
RTVSPost2010Prop52
140
1.0
102
RTVSPost2010PropOp52
 70
     0
102
RTVSPost2010Prop53
 90
        2
102
RTVSPost2010PropOp53
 70
     1
102
RTVSPost2010Prop54
  1
strokes_ogs.tif
102
RTVSPost2010PropOp54
 70
     1
102
RTVSPost2010Prop55
280
     0
102
RTVSPost2010PropOp55
 70
     1
102
RTVSPost2010Prop56
140
1.0
102
RTVSPost2010PropOp56
 70
     1
102
RTVSPost2010Prop57
140
1.0
102
RTVSPost2010PropOp57
 70
     1
  0
XRECORD
  5
674
102
{ACAD_REACTORS
330
673
102
}
330
673
100
AcDbXrecord
280
     1
102
RTVSPropertyOp0
 70
     1
102
RTVSPropertyOp1
 70
     1
102
RTVSPropertyOp2
 70
     1
102
RTVSPropertyOp3
 70
     1
102
RTVSPropertyOp4
 70
     1
102
RTVSPropertyOp5
 70
     1
102
RTVSPropertyOp6
 70
     1
102
RTVSPropertyOp7
 70
     1
102
RTVSPropertyOp8
 70
     1
102
RTVSPropertyOp9
 70
     1
102
RTVSPropertyOp10
 70
     1
102
RTVSPropertyOp11
 70
     1
102
RTVSPropertyOp12
 70
     1
102
RTVSPropertyOp13
 70
     1
102
RTVSPropertyOp14
 70
     1
102
RTVSPropertyOp15
 70
     1
102
RTVSPropertyOp16
 70
     1
102
RTVSPropertyOp17
 70
     1
102
RTVSPropertyOp18
 70
     1
102
RTVSPropertyOp19
 70
     1
102
RTVSPropertyOp20
 70
     1
102
RTVSPropertyOp21
 70
     1
102
RTVSPropertyOp22
 70
     1
102
RTVSPropertyOp23
 70
     1
102
RTVSPropertyOp24
 70
     1
102
RTVSPropertyOp25
 70
     1
102
RTVSPropertyOp26
 70
     1
102
RTVSPropertyOp27
 70
     1
102
RTVSPropertyOp28
 70
     1
102
RTVSPropertyOp29
 70
     1
102
RTVSPropertyOp30
 70
     1
102
RTVSPropertyOp31
 70
     1
102
RTVSPropertyOp32
 70
     1
102
RTVSPropertyOp33
 70
     1
102
RTVSPropertyOp34
 70
     1
102
RTVSPropertyOp35
 70
     1
102
RTVSPropertyOp36
 70
     1
102
RTVSPropertyOp37
 70
     1
102
RTVSPropertyOp38
 70
     1
102
RTVSPropertyOp39
 70
     1
102
RTVSPropertyOp40
 70
     1
102
RTVSPropertyOp41
 70
     1
102
RTVSPropertyOp42
 70
     1
102
RTVSPropertyOp43
 70
     1
102
RTVSPropertyOp44
 70
     1
102
RTVSPropertyOp45
 70
     1
102
RTVSPropertyOp46
 70
     1
102
RTVSPropertyOp47
 70
     1
102
RTVSPropertyOp48
 70
     1
102
RTVSPropertyOp49
 70
     1
102
RTVSPropertyOp50
 70
     1
102
RTVSPropertyOp51
 70
     0
102
RTVSPropertyOp52
 70
     0
102
RTVSPropertyOp53
 70
     1
102
RTVSPropertyOp54
 70
     1
102
RTVSPropertyOp55
 70
     1
102
RTVSPropertyOp56
 70
     1
102
RTVSPropertyOp57
 70
     1
102
RTVSPost2010Prop28
280
     0
102
RTVSPost2010PropOp28
 70
     1
102
RTVSPost2010Prop29
280
     1
102
RTVSPost2010PropOp29
 70
     1
102
RTVSPost2010Prop30
280
     1
102
RTVSPost2010PropOp30
 70
     1
102
RTVSPost2010Prop31
280
     0
102
RTVSPost2010PropOp31
 70
     1
102
RTVSPost2010Prop32
280
     0
102
RTVSPost2010PropOp32
 70
     1
102
RTVSPost2010Prop33
280
     0
102
RTVSPost2010PropOp33
 70
     1
102
RTVSPost2010Prop34
280
     0
102
RTVSPost2010PropOp34
 70
     1
102
RTVSPost2010Prop35
280
     0
102
RTVSPost2010PropOp35
 70
     1
102
RTVSPost2010Prop36
280
     0
102
RTVSPost2010PropOp36
 70
     1
102
RTVSPost2010Prop37
 90
       50
102
RTVSPost2010PropOp37
 70
     1
102
RTVSPost2010Prop38
140
0.0
102
RTVSPost2010PropOp38
 70
     1
102
RTVSPost2010Prop39
140
1.0
102
RTVSPost2010PropOp39
 70
     1
102
RTVSPost2010Prop40
 90
        0
102
RTVSPost2010PropOp40
 70
     1
102
RTVSPost2010Prop41ColorIndex
 90
       18
102
RTVSPost2010Prop41ColorRGB
 90
        0
102
RTVSPost2010PropOp41
 70
     1
102
RTVSPost2010Prop42
 90
       50
102
RTVSPost2010PropOp42
 70
     1
102
RTVSPost2010Prop43
 90
        3
102
RTVSPost2010PropOp43
 70
     1
102
RTVSPost2010Prop44ColorIndex
 90
        5
102
RTVSPost2010Prop44ColorRGB
 90
      255
102
RTVSPost2010PropOp44
 70
     1
102
RTVSPost2010Prop45
280
     0
102
RTVSPost2010PropOp45
 70
     1
102
RTVSPost2010Prop46
 90
       50
102
RTVSPost2010PropOp46
 70
     1
102
RTVSPost2010Prop47
 90
       50
102
RTVSPost2010PropOp47
 70
     1
102
RTVSPost2010Prop48
 90
       50
102
RTVSPost2010PropOp48
 70
     1
102
RTVSPost2010Prop49
280
     0
102
RTVSPost2010PropOp49
 70
     1
102
RTVSPost2010Prop50
 90
       50
102
RTVSPost2010PropOp50
 70
     1
102
RTVSPost2010Prop51ColorIndex
 90
      256
102
RTVSPost2010Prop51ColorRGB
 90
-16777216
102
RTVSPost2010PropOp51
 70
     0
102
RTVSPost2010Prop52
140
1.0
102
RTVSPost2010PropOp52
 70
     0
102
RTVSPost2010Prop53
 90
        2
102
RTVSPost2010PropOp53
 70
     1
102
RTVSPost2010Prop54
  1
strokes_ogs.tif
102
RTVSPost2010PropOp54
 70
     1
102
RTVSPost2010Prop55
280
     0
102
RTVSPost2010PropOp55
 70
     1
102
RTVSPost2010Prop56
140
1.0
102
RTVSPost2010PropOp56
 70
     1
102
RTVSPost2010Prop57
140
1.0
102
RTVSPost2010PropOp57
 70
     1
  0
XRECORD
  5
676
102
{ACAD_REACTORS
330
675
102
}
330
675
100
AcDbXrecord
280
     1
102
RTVSPropertyOp0
 70
     1
102
RTVSPropertyOp1
 70
     1
102
RTVSPropertyOp2
 70
     1
102
RTVSPropertyOp3
 70
     1
102
RTVSPropertyOp4
 70
     1
102
RTVSPropertyOp5
 70
     1
102
RTVSPropertyOp6
 70
     1
102
RTVSPropertyOp7
 70
     1
102
RTVSPropertyOp8
 70
     1
102
RTVSPropertyOp9
 70
     1
102
RTVSPropertyOp10
 70
     1
102
RTVSPropertyOp11
 70
     1
102
RTVSPropertyOp12
 70
     1
102
RTVSPropertyOp13
 70
     1
102
RTVSPropertyOp14
 70
     1
102
RTVSPropertyOp15
 70
     1
102
RTVSPropertyOp16
 70
     1
102
RTVSPropertyOp17
 70
     1
102
RTVSPropertyOp18
 70
     1
102
RTVSPropertyOp19
 70
     1
102
RTVSPropertyOp20
 70
     1
102
RTVSPropertyOp21
 70
     1
102
RTVSPropertyOp22
 70
     1
102
RTVSPropertyOp23
 70
     1
102
RTVSPropertyOp24
 70
     1
102
RTVSPropertyOp25
 70
     1
102
RTVSPropertyOp26
 70
     1
102
RTVSPropertyOp27
 70
     1
102
RTVSPropertyOp28
 70
     1
102
RTVSPropertyOp29
 70
     1
102
RTVSPropertyOp30
 70
     1
102
RTVSPropertyOp31
 70
     1
102
RTVSPropertyOp32
 70
     1
102
RTVSPropertyOp33
 70
     1
102
RTVSPropertyOp34
 70
     1
102
RTVSPropertyOp35
 70
     1
102
RTVSPropertyOp36
 70
     1
102
RTVSPropertyOp37
 70
     1
102
RTVSPropertyOp38
 70
     1
102
RTVSPropertyOp39
 70
     1
102
RTVSPropertyOp40
 70
     1
102
RTVSPropertyOp41
 70
     1
102
RTVSPropertyOp42
 70
     1
102
RTVSPropertyOp43
 70
     1
102
RTVSPropertyOp44
 70
     1
102
RTVSPropertyOp45
 70
     1
102
RTVSPropertyOp46
 70
     1
102
RTVSPropertyOp47
 70
     1
102
RTVSPropertyOp48
 70
     1
102
RTVSPropertyOp49
 70
     1
102
RTVSPropertyOp50
 70
     1
102
RTVSPropertyOp51
 70
     0
102
RTVSPropertyOp52
 70
     0
102
RTVSPropertyOp53
 70
     1
102
RTVSPropertyOp54
 70
     1
102
RTVSPropertyOp55
 70
     1
102
RTVSPropertyOp56
 70
     1
102
RTVSPropertyOp57
 70
     1
102
RTVSPost2010Prop28
280
     0
102
RTVSPost2010PropOp28
 70
     1
102
RTVSPost2010Prop29
280
     1
102
RTVSPost2010PropOp29
 70
     1
102
RTVSPost2010Prop30
280
     1
102
RTVSPost2010PropOp30
 70
     1
102
RTVSPost2010Prop31
280
     0
102
RTVSPost2010PropOp31
 70
     1
102
RTVSPost2010Prop32
280
     0
102
RTVSPost2010PropOp32
 70
     1
102
RTVSPost2010Prop33
280
     0
102
RTVSPost2010PropOp33
 70
     1
102
RTVSPost2010Prop34
280
     0
102
RTVSPost2010PropOp34
 70
     1
102
RTVSPost2010Prop35
280
     0
102
RTVSPost2010PropOp35
 70
     1
102
RTVSPost2010Prop36
280
     0
102
RTVSPost2010PropOp36
 70
     1
102
RTVSPost2010Prop37
 90
       50
102
RTVSPost2010PropOp37
 70
     1
102
RTVSPost2010Prop38
140
0.0
102
RTVSPost2010PropOp38
 70
     1
102
RTVSPost2010Prop39
140
1.0
102
RTVSPost2010PropOp39
 70
     1
102
RTVSPost2010Prop40
 90
        0
102
RTVSPost2010PropOp40
 70
     1
102
RTVSPost2010Prop41ColorIndex
 90
       18
102
RTVSPost2010Prop41ColorRGB
 90
        0
102
RTVSPost2010PropOp41
 70
     1
102
RTVSPost2010Prop42
 90
       50
102
RTVSPost2010PropOp42
 70
     1
102
RTVSPost2010Prop43
 90
        3
102
RTVSPost2010PropOp43
 70
     1
102
RTVSPost2010Prop44ColorIndex
 90
        5
102
RTVSPost2010Prop44ColorRGB
 90
      255
102
RTVSPost2010PropOp44
 70
     1
102
RTVSPost2010Prop45
280
     0
102
RTVSPost2010PropOp45
 70
     1
102
RTVSPost2010Prop46
 90
       50
102
RTVSPost2010PropOp46
 70
     1
102
RTVSPost2010Prop47
 90
       50
102
RTVSPost2010PropOp47
 70
     1
102
RTVSPost2010Prop48
 90
       50
102
RTVSPost2010PropOp48
 70
     1
102
RTVSPost2010Prop49
280
     0
102
RTVSPost2010PropOp49
 70
     1
102
RTVSPost2010Prop50
 90
       50
102
RTVSPost2010PropOp50
 70
     1
102
RTVSPost2010Prop51ColorIndex
 90
      256
102
RTVSPost2010Prop51ColorRGB
 90
-16777216
102
RTVSPost2010PropOp51
 70
     0
102
RTVSPost2010Prop52
140
1.0
102
RTVSPost2010PropOp52
 70
     0
102
RTVSPost2010Prop53
 90
        2
102
RTVSPost2010PropOp53
 70
     1
102
RTVSPost2010Prop54
  1
strokes_ogs.tif
102
RTVSPost2010PropOp54
 70
     1
102
RTVSPost2010Prop55
280
     0
102
RTVSPost2010PropOp55
 70
     1
102
RTVSPost2010Prop56
140
1.0
102
RTVSPost2010PropOp56
 70
     1
102
RTVSPost2010Prop57
140
1.0
102
RTVSPost2010PropOp57
 70
     1
  0
XRECORD
  5
678
102
{ACAD_REACTORS
330
677
102
}
330
677
100
AcDbXrecord
280
     1
102
RTVSPropertyOp0
 70
     1
102
RTVSPropertyOp1
 70
     1
102
RTVSPropertyOp2
 70
     1
102
RTVSPropertyOp3
 70
     1
102
RTVSPropertyOp4
 70
     1
102
RTVSPropertyOp5
 70
     1
102
RTVSPropertyOp6
 70
     1
102
RTVSPropertyOp7
 70
     1
102
RTVSPropertyOp8
 70
     1
102
RTVSPropertyOp9
 70
     1
102
RTVSPropertyOp10
 70
     1
102
RTVSPropertyOp11
 70
     1
102
RTVSPropertyOp12
 70
     1
102
RTVSPropertyOp13
 70
     1
102
RTVSPropertyOp14
 70
     1
102
RTVSPropertyOp15
 70
     1
102
RTVSPropertyOp16
 70
     1
102
RTVSPropertyOp17
 70
     1
102
RTVSPropertyOp18
 70
     1
102
RTVSPropertyOp19
 70
     1
102
RTVSPropertyOp20
 70
     1
102
RTVSPropertyOp21
 70
     1
102
RTVSPropertyOp22
 70
     1
102
RTVSPropertyOp23
 70
     1
102
RTVSPropertyOp24
 70
     1
102
RTVSPropertyOp25
 70
     1
102
RTVSPropertyOp26
 70
     1
102
RTVSPropertyOp27
 70
     1
102
RTVSPropertyOp28
 70
     1
102
RTVSPropertyOp29
 70
     1
102
RTVSPropertyOp30
 70
     1
102
RTVSPropertyOp31
 70
     1
102
RTVSPropertyOp32
 70
     1
102
RTVSPropertyOp33
 70
     1
102
RTVSPropertyOp34
 70
     1
102
RTVSPropertyOp35
 70
     1
102
RTVSPropertyOp36
 70
     1
102
RTVSPropertyOp37
 70
     1
102
RTVSPropertyOp38
 70
     1
102
RTVSPropertyOp39
 70
     1
102
RTVSPropertyOp40
 70
     1
102
RTVSPropertyOp41
 70
     1
102
RTVSPropertyOp42
 70
     1
102
RTVSPropertyOp43
 70
     1
102
RTVSPropertyOp44
 70
     1
102
RTVSPropertyOp45
 70
     1
102
RTVSPropertyOp46
 70
     1
102
RTVSPropertyOp47
 70
     1
102
RTVSPropertyOp48
 70
     1
102
RTVSPropertyOp49
 70
     1
102
RTVSPropertyOp50
 70
     1
102
RTVSPropertyOp51
 70
     0
102
RTVSPropertyOp52
 70
     0
102
RTVSPropertyOp53
 70
     1
102
RTVSPropertyOp54
 70
     1
102
RTVSPropertyOp55
 70
     1
102
RTVSPropertyOp56
 70
     1
102
RTVSPropertyOp57
 70
     1
102
RTVSPost2010Prop28
280
     0
102
RTVSPost2010PropOp28
 70
     1
102
RTVSPost2010Prop29
280
     1
102
RTVSPost2010PropOp29
 70
     1
102
RTVSPost2010Prop30
280
     1
102
RTVSPost2010PropOp30
 70
     1
102
RTVSPost2010Prop31
280
     0
102
RTVSPost2010PropOp31
 70
     1
102
RTVSPost2010Prop32
280
     0
102
RTVSPost2010PropOp32
 70
     1
102
RTVSPost2010Prop33
280
     0
102
RTVSPost2010PropOp33
 70
     1
102
RTVSPost2010Prop34
280
     0
102
RTVSPost2010PropOp34
 70
     1
102
RTVSPost2010Prop35
280
     0
102
RTVSPost2010PropOp35
 70
     1
102
RTVSPost2010Prop36
280
     0
102
RTVSPost2010PropOp36
 70
     1
102
RTVSPost2010Prop37
 90
       50
102
RTVSPost2010PropOp37
 70
     1
102
RTVSPost2010Prop38
140
0.0
102
RTVSPost2010PropOp38
 70
     1
102
RTVSPost2010Prop39
140
1.0
102
RTVSPost2010PropOp39
 70
     1
102
RTVSPost2010Prop40
 90
        0
102
RTVSPost2010PropOp40
 70
     1
102
RTVSPost2010Prop41ColorIndex
 90
       18
102
RTVSPost2010Prop41ColorRGB
 90
        0
102
RTVSPost2010PropOp41
 70
     1
102
RTVSPost2010Prop42
 90
       50
102
RTVSPost2010PropOp42
 70
     1
102
RTVSPost2010Prop43
 90
        3
102
RTVSPost2010PropOp43
 70
     1
102
RTVSPost2010Prop44ColorIndex
 90
        5
102
RTVSPost2010Prop44ColorRGB
 90
      255
102
RTVSPost2010PropOp44
 70
     1
102
RTVSPost2010Prop45
280
     0
102
RTVSPost2010PropOp45
 70
     1
102
RTVSPost2010Prop46
 90
       50
102
RTVSPost2010PropOp46
 70
     1
102
RTVSPost2010Prop47
 90
       50
102
RTVSPost2010PropOp47
 70
     1
102
RTVSPost2010Prop48
 90
       50
102
RTVSPost2010PropOp48
 70
     1
102
RTVSPost2010Prop49
280
     0
102
RTVSPost2010PropOp49
 70
     1
102
RTVSPost2010Prop50
 90
       50
102
RTVSPost2010PropOp50
 70
     1
102
RTVSPost2010Prop51ColorIndex
 90
      256
102
RTVSPost2010Prop51ColorRGB
 90
-16777216
102
RTVSPost2010PropOp51
 70
     0
102
RTVSPost2010Prop52
140
1.0
102
RTVSPost2010PropOp52
 70
     0
102
RTVSPost2010Prop53
 90
        2
102
RTVSPost2010PropOp53
 70
     1
102
RTVSPost2010Prop54
  1
strokes_ogs.tif
102
RTVSPost2010PropOp54
 70
     1
102
RTVSPost2010Prop55
280
     0
102
RTVSPost2010PropOp55
 70
     1
102
RTVSPost2010Prop56
140
1.0
102
RTVSPost2010PropOp56
 70
     1
102
RTVSPost2010Prop57
140
1.0
102
RTVSPost2010PropOp57
 70
     1
  0
XRECORD
  5
67A
102
{ACAD_REACTORS
330
679
102
}
330
679
100
AcDbXrecord
280
     1
102
RTVSPropertyOp0
 70
     1
102
RTVSPropertyOp1
 70
     1
102
RTVSPropertyOp2
 70
     1
102
RTVSPropertyOp3
 70
     1
102
RTVSPropertyOp4
 70
     1
102
RTVSPropertyOp5
 70
     1
102
RTVSPropertyOp6
 70
     1
102
RTVSPropertyOp7
 70
     1
102
RTVSPropertyOp8
 70
     1
102
RTVSPropertyOp9
 70
     1
102
RTVSPropertyOp10
 70
     1
102
RTVSPropertyOp11
 70
     1
102
RTVSPropertyOp12
 70
     1
102
RTVSPropertyOp13
 70
     1
102
RTVSPropertyOp14
 70
     1
102
RTVSPropertyOp15
 70
     1
102
RTVSPropertyOp16
 70
     1
102
RTVSPropertyOp17
 70
     1
102
RTVSPropertyOp18
 70
     1
102
RTVSPropertyOp19
 70
     1
102
RTVSPropertyOp20
 70
     1
102
RTVSPropertyOp21
 70
     1
102
RTVSPropertyOp22
 70
     1
102
RTVSPropertyOp23
 70
     1
102
RTVSPropertyOp24
 70
     1
102
RTVSPropertyOp25
 70
     1
102
RTVSPropertyOp26
 70
     1
102
RTVSPropertyOp27
 70
     1
102
RTVSPropertyOp28
 70
     1
102
RTVSPropertyOp29
 70
     1
102
RTVSPropertyOp30
 70
     1
102
RTVSPropertyOp31
 70
     1
102
RTVSPropertyOp32
 70
     1
102
RTVSPropertyOp33
 70
     1
102
RTVSPropertyOp34
 70
     1
102
RTVSPropertyOp35
 70
     1
102
RTVSPropertyOp36
 70
     1
102
RTVSPropertyOp37
 70
     1
102
RTVSPropertyOp38
 70
     1
102
RTVSPropertyOp39
 70
     1
102
RTVSPropertyOp40
 70
     1
102
RTVSPropertyOp41
 70
     1
102
RTVSPropertyOp42
 70
     1
102
RTVSPropertyOp43
 70
     1
102
RTVSPropertyOp44
 70
     1
102
RTVSPropertyOp45
 70
     1
102
RTVSPropertyOp46
 70
     1
102
RTVSPropertyOp47
 70
     1
102
RTVSPropertyOp48
 70
     1
102
RTVSPropertyOp49
 70
     1
102
RTVSPropertyOp50
 70
     1
102
RTVSPropertyOp51
 70
     0
102
RTVSPropertyOp52
 70
     0
102
RTVSPropertyOp53
 70
     1
102
RTVSPropertyOp54
 70
     1
102
RTVSPropertyOp55
 70
     1
102
RTVSPropertyOp56
 70
     1
102
RTVSPropertyOp57
 70
     1
102
RTVSPost2010Prop28
280
     0
102
RTVSPost2010PropOp28
 70
     1
102
RTVSPost2010Prop29
280
     1
102
RTVSPost2010PropOp29
 70
     1
102
RTVSPost2010Prop30
280
     1
102
RTVSPost2010PropOp30
 70
     1
102
RTVSPost2010Prop31
280
     0
102
RTVSPost2010PropOp31
 70
     1
102
RTVSPost2010Prop32
280
     0
102
RTVSPost2010PropOp32
 70
     1
102
RTVSPost2010Prop33
280
     0
102
RTVSPost2010PropOp33
 70
     1
102
RTVSPost2010Prop34
280
     0
102
RTVSPost2010PropOp34
 70
     1
102
RTVSPost2010Prop35
280
     0
102
RTVSPost2010PropOp35
 70
     1
102
RTVSPost2010Prop36
280
     0
102
RTVSPost2010PropOp36
 70
     1
102
RTVSPost2010Prop37
 90
       50
102
RTVSPost2010PropOp37
 70
     1
102
RTVSPost2010Prop38
140
0.0
102
RTVSPost2010PropOp38
 70
     1
102
RTVSPost2010Prop39
140
1.0
102
RTVSPost2010PropOp39
 70
     1
102
RTVSPost2010Prop40
 90
        0
102
RTVSPost2010PropOp40
 70
     1
102
RTVSPost2010Prop41ColorIndex
 90
       18
102
RTVSPost2010Prop41ColorRGB
 90
        0
102
RTVSPost2010PropOp41
 70
     1
102
RTVSPost2010Prop42
 90
       50
102
RTVSPost2010PropOp42
 70
     1
102
RTVSPost2010Prop43
 90
        3
102
RTVSPost2010PropOp43
 70
     1
102
RTVSPost2010Prop44ColorIndex
 90
        5
102
RTVSPost2010Prop44ColorRGB
 90
      255
102
RTVSPost2010PropOp44
 70
     1
102
RTVSPost2010Prop45
280
     0
102
RTVSPost2010PropOp45
 70
     1
102
RTVSPost2010Prop46
 90
       50
102
RTVSPost2010PropOp46
 70
     1
102
RTVSPost2010Prop47
 90
       50
102
RTVSPost2010PropOp47
 70
     1
102
RTVSPost2010Prop48
 90
       50
102
RTVSPost2010PropOp48
 70
     1
102
RTVSPost2010Prop49
280
     0
102
RTVSPost2010PropOp49
 70
     1
102
RTVSPost2010Prop50
 90
       50
102
RTVSPost2010PropOp50
 70
     1
102
RTVSPost2010Prop51ColorIndex
 90
      256
102
RTVSPost2010Prop51ColorRGB
 90
-16777216
102
RTVSPost2010PropOp51
 70
     0
102
RTVSPost2010Prop52
140
1.0
102
RTVSPost2010PropOp52
 70
     0
102
RTVSPost2010Prop53
 90
        2
102
RTVSPost2010PropOp53
 70
     1
102
RTVSPost2010Prop54
  1
strokes_ogs.tif
102
RTVSPost2010PropOp54
 70
     1
102
RTVSPost2010Prop55
280
     0
102
RTVSPost2010PropOp55
 70
     1
102
RTVSPost2010Prop56
140
1.0
102
RTVSPost2010PropOp56
 70
     1
102
RTVSPost2010Prop57
140
1.0
102
RTVSPost2010PropOp57
 70
     1
  0
XRECORD
  5
67C
102
{ACAD_REACTORS
330
67B
102
}
330
67B
100
AcDbXrecord
280
     1
102
RTVSPropertyOp0
 70
     1
102
RTVSPropertyOp1
 70
     1
102
RTVSPropertyOp2
 70
     1
102
RTVSPropertyOp3
 70
     1
102
RTVSPropertyOp4
 70
     1
102
RTVSPropertyOp5
 70
     1
102
RTVSPropertyOp6
 70
     1
102
RTVSPropertyOp7
 70
     1
102
RTVSPropertyOp8
 70
     1
102
RTVSPropertyOp9
 70
     1
102
RTVSPropertyOp10
 70
     1
102
RTVSPropertyOp11
 70
     1
102
RTVSPropertyOp12
 70
     1
102
RTVSPropertyOp13
 70
     1
102
RTVSPropertyOp14
 70
     1
102
RTVSPropertyOp15
 70
     1
102
RTVSPropertyOp16
 70
     1
102
RTVSPropertyOp17
 70
     1
102
RTVSPropertyOp18
 70
     1
102
RTVSPropertyOp19
 70
     1
102
RTVSPropertyOp20
 70
     1
102
RTVSPropertyOp21
 70
     1
102
RTVSPropertyOp22
 70
     1
102
RTVSPropertyOp23
 70
     1
102
RTVSPropertyOp24
 70
     1
102
RTVSPropertyOp25
 70
     1
102
RTVSPropertyOp26
 70
     1
102
RTVSPropertyOp27
 70
     1
102
RTVSPropertyOp28
 70
     1
102
RTVSPropertyOp29
 70
     1
102
RTVSPropertyOp30
 70
     1
102
RTVSPropertyOp31
 70
     1
102
RTVSPropertyOp32
 70
     1
102
RTVSPropertyOp33
 70
     1
102
RTVSPropertyOp34
 70
     1
102
RTVSPropertyOp35
 70
     1
102
RTVSPropertyOp36
 70
     1
102
RTVSPropertyOp37
 70
     1
102
RTVSPropertyOp38
 70
     1
102
RTVSPropertyOp39
 70
     1
102
RTVSPropertyOp40
 70
     1
102
RTVSPropertyOp41
 70
     1
102
RTVSPropertyOp42
 70
     1
102
RTVSPropertyOp43
 70
     1
102
RTVSPropertyOp44
 70
     1
102
RTVSPropertyOp45
 70
     1
102
RTVSPropertyOp46
 70
     1
102
RTVSPropertyOp47
 70
     1
102
RTVSPropertyOp48
 70
     1
102
RTVSPropertyOp49
 70
     1
102
RTVSPropertyOp50
 70
     1
102
RTVSPropertyOp51
 70
     0
102
RTVSPropertyOp52
 70
     0
102
RTVSPropertyOp53
 70
     1
102
RTVSPropertyOp54
 70
     1
102
RTVSPropertyOp55
 70
     1
102
RTVSPropertyOp56
 70
     1
102
RTVSPropertyOp57
 70
     1
102
RTVSPost2010Prop28
280
     0
102
RTVSPost2010PropOp28
 70
     1
102
RTVSPost2010Prop29
280
     1
102
RTVSPost2010PropOp29
 70
     1
102
RTVSPost2010Prop30
280
     1
102
RTVSPost2010PropOp30
 70
     1
102
RTVSPost2010Prop31
280
     0
102
RTVSPost2010PropOp31
 70
     1
102
RTVSPost2010Prop32
280
     0
102
RTVSPost2010PropOp32
 70
     1
102
RTVSPost2010Prop33
280
     0
102
RTVSPost2010PropOp33
 70
     1
102
RTVSPost2010Prop34
280
     0
102
RTVSPost2010PropOp34
 70
     1
102
RTVSPost2010Prop35
280
     0
102
RTVSPost2010PropOp35
 70
     1
102
RTVSPost2010Prop36
280
     0
102
RTVSPost2010PropOp36
 70
     1
102
RTVSPost2010Prop37
 90
       50
102
RTVSPost2010PropOp37
 70
     1
102
RTVSPost2010Prop38
140
0.0
102
RTVSPost2010PropOp38
 70
     1
102
RTVSPost2010Prop39
140
1.0
102
RTVSPost2010PropOp39
 70
     1
102
RTVSPost2010Prop40
 90
        0
102
RTVSPost2010PropOp40
 70
     1
102
RTVSPost2010Prop41ColorIndex
 90
       18
102
RTVSPost2010Prop41ColorRGB
 90
        0
102
RTVSPost2010PropOp41
 70
     1
102
RTVSPost2010Prop42
 90
       50
102
RTVSPost2010PropOp42
 70
     1
102
RTVSPost2010Prop43
 90
        3
102
RTVSPost2010PropOp43
 70
     1
102
RTVSPost2010Prop44ColorIndex
 90
        5
102
RTVSPost2010Prop44ColorRGB
 90
      255
102
RTVSPost2010PropOp44
 70
     1
102
RTVSPost2010Prop45
280
     0
102
RTVSPost2010PropOp45
 70
     1
102
RTVSPost2010Prop46
 90
       50
102
RTVSPost2010PropOp46
 70
     1
102
RTVSPost2010Prop47
 90
       50
102
RTVSPost2010PropOp47
 70
     1
102
RTVSPost2010Prop48
 90
       50
102
RTVSPost2010PropOp48
 70
     1
102
RTVSPost2010Prop49
280
     0
102
RTVSPost2010PropOp49
 70
     1
102
RTVSPost2010Prop50
 90
       50
102
RTVSPost2010PropOp50
 70
     1
102
RTVSPost2010Prop51ColorIndex
 90
      256
102
RTVSPost2010Prop51ColorRGB
 90
-16777216
102
RTVSPost2010PropOp51
 70
     0
102
RTVSPost2010Prop52
140
1.0
102
RTVSPost2010PropOp52
 70
     0
102
RTVSPost2010Prop53
 90
        2
102
RTVSPost2010PropOp53
 70
     1
102
RTVSPost2010Prop54
  1
strokes_ogs.tif
102
RTVSPost2010PropOp54
 70
     1
102
RTVSPost2010Prop55
280
     0
102
RTVSPost2010PropOp55
 70
     1
102
RTVSPost2010Prop56
140
1.0
102
RTVSPost2010PropOp56
 70
     1
102
RTVSPost2010Prop57
140
1.0
102
RTVSPost2010PropOp57
 70
     1
  0
XRECORD
  5
67E
102
{ACAD_REACTORS
330
67D
102
}
330
67D
100
AcDbXrecord
280
     1
102
RTVSPropertyOp0
 70
     1
102
RTVSPropertyOp1
 70
     1
102
RTVSPropertyOp2
 70
     1
102
RTVSPropertyOp3
 70
     1
102
RTVSPropertyOp4
 70
     1
102
RTVSPropertyOp5
 70
     1
102
RTVSPropertyOp6
 70
     1
102
RTVSPropertyOp7
 70
     1
102
RTVSPropertyOp8
 70
     1
102
RTVSPropertyOp9
 70
     1
102
RTVSPropertyOp10
 70
     1
102
RTVSPropertyOp11
 70
     1
102
RTVSPropertyOp12
 70
     1
102
RTVSPropertyOp13
 70
     1
102
RTVSPropertyOp14
 70
     1
102
RTVSPropertyOp15
 70
     1
102
RTVSPropertyOp16
 70
     1
102
RTVSPropertyOp17
 70
     1
102
RTVSPropertyOp18
 70
     1
102
RTVSPropertyOp19
 70
     1
102
RTVSPropertyOp20
 70
     1
102
RTVSPropertyOp21
 70
     1
102
RTVSPropertyOp22
 70
     1
102
RTVSPropertyOp23
 70
     1
102
RTVSPropertyOp24
 70
     1
102
RTVSPropertyOp25
 70
     1
102
RTVSPropertyOp26
 70
     1
102
RTVSPropertyOp27
 70
     1
102
RTVSPropertyOp28
 70
     1
102
RTVSPropertyOp29
 70
     1
102
RTVSPropertyOp30
 70
     1
102
RTVSPropertyOp31
 70
     1
102
RTVSPropertyOp32
 70
     1
102
RTVSPropertyOp33
 70
     1
102
RTVSPropertyOp34
 70
     1
102
RTVSPropertyOp35
 70
     1
102
RTVSPropertyOp36
 70
     1
102
RTVSPropertyOp37
 70
     1
102
RTVSPropertyOp38
 70
     1
102
RTVSPropertyOp39
 70
     1
102
RTVSPropertyOp40
 70
     1
102
RTVSPropertyOp41
 70
     1
102
RTVSPropertyOp42
 70
     1
102
RTVSPropertyOp43
 70
     1
102
RTVSPropertyOp44
 70
     1
102
RTVSPropertyOp45
 70
     1
102
RTVSPropertyOp46
 70
     1
102
RTVSPropertyOp47
 70
     1
102
RTVSPropertyOp48
 70
     1
102
RTVSPropertyOp49
 70
     1
102
RTVSPropertyOp50
 70
     1
102
RTVSPropertyOp51
 70
     0
102
RTVSPropertyOp52
 70
     0
102
RTVSPropertyOp53
 70
     1
102
RTVSPropertyOp54
 70
     1
102
RTVSPropertyOp55
 70
     1
102
RTVSPropertyOp56
 70
     1
102
RTVSPropertyOp57
 70
     1
102
RTVSPost2010Prop28
280
     0
102
RTVSPost2010PropOp28
 70
     1
102
RTVSPost2010Prop29
280
     1
102
RTVSPost2010PropOp29
 70
     1
102
RTVSPost2010Prop30
280
     1
102
RTVSPost2010PropOp30
 70
     1
102
RTVSPost2010Prop31
280
     0
102
RTVSPost2010PropOp31
 70
     1
102
RTVSPost2010Prop32
280
     0
102
RTVSPost2010PropOp32
 70
     1
102
RTVSPost2010Prop33
280
     0
102
RTVSPost2010PropOp33
 70
     1
102
RTVSPost2010Prop34
280
     0
102
RTVSPost2010PropOp34
 70
     1
102
RTVSPost2010Prop35
280
     0
102
RTVSPost2010PropOp35
 70
     1
102
RTVSPost2010Prop36
280
     0
102
RTVSPost2010PropOp36
 70
     1
102
RTVSPost2010Prop37
 90
       50
102
RTVSPost2010PropOp37
 70
     1
102
RTVSPost2010Prop38
140
0.0
102
RTVSPost2010PropOp38
 70
     1
102
RTVSPost2010Prop39
140
1.0
102
RTVSPost2010PropOp39
 70
     1
102
RTVSPost2010Prop40
 90
        0
102
RTVSPost2010PropOp40
 70
     1
102
RTVSPost2010Prop41ColorIndex
 90
       18
102
RTVSPost2010Prop41ColorRGB
 90
        0
102
RTVSPost2010PropOp41
 70
     1
102
RTVSPost2010Prop42
 90
       50
102
RTVSPost2010PropOp42
 70
     1
102
RTVSPost2010Prop43
 90
        3
102
RTVSPost2010PropOp43
 70
     1
102
RTVSPost2010Prop44ColorIndex
 90
        5
102
RTVSPost2010Prop44ColorRGB
 90
      255
102
RTVSPost2010PropOp44
 70
     1
102
RTVSPost2010Prop45
280
     0
102
RTVSPost2010PropOp45
 70
     1
102
RTVSPost2010Prop46
 90
       50
102
RTVSPost2010PropOp46
 70
     1
102
RTVSPost2010Prop47
 90
       50
102
RTVSPost2010PropOp47
 70
     1
102
RTVSPost2010Prop48
 90
       50
102
RTVSPost2010PropOp48
 70
     1
102
RTVSPost2010Prop49
280
     0
102
RTVSPost2010PropOp49
 70
     1
102
RTVSPost2010Prop50
 90
       50
102
RTVSPost2010PropOp50
 70
     1
102
RTVSPost2010Prop51ColorIndex
 90
      256
102
RTVSPost2010Prop51ColorRGB
 90
-16777216
102
RTVSPost2010PropOp51
 70
     0
102
RTVSPost2010Prop52
140
1.0
102
RTVSPost2010PropOp52
 70
     0
102
RTVSPost2010Prop53
 90
        2
102
RTVSPost2010PropOp53
 70
     1
102
RTVSPost2010Prop54
  1
strokes_ogs.tif
102
RTVSPost2010PropOp54
 70
     1
102
RTVSPost2010Prop55
280
     0
102
RTVSPost2010PropOp55
 70
     1
102
RTVSPost2010Prop56
140
1.0
102
RTVSPost2010PropOp56
 70
     1
102
RTVSPost2010Prop57
140
1.0
102
RTVSPost2010PropOp57
 70
     1
  0
ENDSEC
  0
EOF
