  0
SECTION
  2
HEADER
  9
$ACADVER
  1
AC1015
  9
$ACADMAINTVER
 70
     6
  9
$DWGCODEPAGE
  3
ANSI_932
  9
$INSBASE
 10
1443.133899698782
 20
1045.730716278979
 30
0.0
  9
$EXTMIN
 10
137.0736603528408
 20
16.46423137036649
 30
0.0
  9
$EXTMAX
 10
1048.786122118036
 20
869.6017584466631
 30
0.0
  9
$LIMMIN
 10
0.0
 20
0.0
  9
$LIMMAX
 10
816.5000000000001
 20
565.0
  9
$ORTHOMODE
 70
     0
  9
$REGENMODE
 70
     1
  9
$FILLMODE
 70
     1
  9
$QTEXTMODE
 70
     0
  9
$MIRRTEXT
 70
     1
  9
$LTSCALE
 40
5.0
  9
$ATTMODE
 70
     1
  9
$TEXTSIZE
 40
9.0
  9
$TRACEWID
 40
0.05
  9
$TEXTSTYLE
  7
KANJI
  9
$CLAYER
  8
2
  9
$CELTYPE
  6
BYLAYER
  9
$CECOLOR
 62
   256
  9
$CELTSCALE
 40
1.0
  9
$DISPSILH
 70
     0
  9
$DIMSCALE
 40
3.0
  9
$DIMASZ
 40
2.0
  9
$DIMEXO
 40
0.5
  9
$DIMDLI
 40
0.0
  9
$DIMRND
 40
0.0
  9
$DIMDLE
 40
0.0
  9
$DIMEXE
 40
1.0
  9
$DIMTP
 40
0.0
  9
$DIMTM
 40
0.0
  9
$DIMTXT
 40
3.0
  9
$DIMCEN
 40
0.09
  9
$DIMTSZ
 40
0.0
  9
$DIMTOL
 70
     0
  9
$DIMLIM
 70
     0
  9
$DIMTIH
 70
     0
  9
$DIMTOH
 70
     0
  9
$DIMSE1
 70
     0
  9
$DIMSE2
 70
     0
  9
$DIMTAD
 70
     0
  9
$DIMZIN
 70
     8
  9
$DIMBLK
  1

  9
$DIMASO
 70
     0
  9
$DIMSHO
 70
     0
  9
$DIMPOST
  1

  9
$DIMAPOST
  1

  9
$DIMALT
 70
     0
  9
$DIMALTD
 70
     2
  9
$DIMALTF
 40
25.4
  9
$DIMLFAC
 40
1.0
  9
$DIMTOFL
 70
     1
  9
$DIMTVP
 40
1.0
  9
$DIMTIX
 70
     1
  9
$DIMSOXD
 70
     1
  9
$DIMSAH
 70
     0
  9
$DIMBLK1
  1

  9
$DIMBLK2
  1

  9
$DIMSTYLE
  2
STANDARD
  9
$DIMCLRD
 70
   256
  9
$DIMCLRE
 70
   256
  9
$DIMCLRT
 70
     2
  9
$DIMTFAC
 40
1.0
  9
$DIMGAP
 40
0.09
  9
$DIMJUST
 70
     0
  9
$DIMSD1
 70
     0
  9
$DIMSD2
 70
     0
  9
$DIMTOLJ
 70
     1
  9
$DIMTZIN
 70
     0
  9
$DIMALTZ
 70
     0
  9
$DIMALTTZ
 70
     0
  9
$DIMUPT
 70
     0
  9
$DIMDEC
 70
     4
  9
$DIMTDEC
 70
     4
  9
$DIMALTU
 70
     2
  9
$DIMALTTD
 70
     2
  9
$DIMTXSTY
  7
STANDARD
  9
$DIMAUNIT
 70
     0
  9
$DIMADEC
 70
     0
  9
$DIMALTRND
 40
0.0
  9
$DIMAZIN
 70
     0
  9
$DIMDSEP
 70
    46
  9
$DIMATFIT
 70
     3
  9
$DIMFRAC
 70
     0
  9
$DIMLDRBLK
  1

  9
$DIMLUNIT
 70
     2
  9
$DIMLWD
 70
    -2
  9
$DIMLWE
 70
    -2
  9
$DIMTMOVE
 70
     0
  9
$LUNITS
 70
     2
  9
$LUPREC
 70
     3
  9
$SKETCHINC
 40
0.1
  9
$FILLETRAD
 40
4.0
  9
$AUNITS
 70
     0
  9
$AUPREC
 70
     3
  9
$MENU
  1
C:\R13\WIN\SUPPORT\ACADFULL
  9
$ELEVATION
 40
0.0
  9
$PELEVATION
 40
0.0
  9
$THICKNESS
 40
0.0
  9
$LIMCHECK
 70
     0
  9
$CHAMFERA
 40
0.0
  9
$CHAMFERB
 40
0.0
  9
$CHAMFERC
 40
0.0
  9
$CHAMFERD
 40
0.0
  9
$SKPOLY
 70
     0
  9
$TDCREATE
 40
2457417.594694965
  9
$TDUCREATE
 40
2457417.219694965
  9
$TDUPDATE
 40
2457871.83067125
  9
$TDUUPDATE
 40
2457871.45567125
  9
$TDINDWG
 40
0.0139687847
  9
$TDUSRTIMER
 40
0.0139682292
  9
$USRTIMER
 70
     1
  9
$ANGBASE
 50
0.0
  9
$ANGDIR
 70
     0
  9
$PDMODE
 70
     0
  9
$PDSIZE
 40
0.0
  9
$PLINEWID
 40
0.0
  9
$SPLFRAME
 70
     0
  9
$SPLINETYPE
 70
     6
  9
$SPLINESEGS
 70
     8
  9
$HANDSEED
  5
627
  9
$SURFTAB1
 70
     6
  9
$SURFTAB2
 70
     6
  9
$SURFTYPE
 70
     6
  9
$SURFU
 70
     6
  9
$SURFV
 70
     6
  9
$UCSBASE
  2

  9
$UCSNAME
  2

  9
$UCSORG
 10
0.0
 20
0.0
 30
0.0
  9
$UCSXDIR
 10
1.0
 20
0.0
 30
0.0
  9
$UCSYDIR
 10
0.0
 20
1.0
 30
0.0
  9
$UCSORTHOREF
  2

  9
$UCSORTHOVIEW
 70
     0
  9
$UCSORGTOP
 10
0.0
 20
0.0
 30
0.0
  9
$UCSORGBOTTOM
 10
0.0
 20
0.0
 30
0.0
  9
$UCSORGLEFT
 10
0.0
 20
0.0
 30
0.0
  9
$UCSORGRIGHT
 10
0.0
 20
0.0
 30
0.0
  9
$UCSORGFRONT
 10
0.0
 20
0.0
 30
0.0
  9
$UCSORGBACK
 10
0.0
 20
0.0
 30
0.0
  9
$PUCSBASE
  2

  9
$PUCSNAME
  2

  9
$PUCSORG
 10
0.0
 20
0.0
 30
0.0
  9
$PUCSXDIR
 10
1.0
 20
0.0
 30
0.0
  9
$PUCSYDIR
 10
0.0
 20
1.0
 30
0.0
  9
$PUCSORTHOREF
  2

  9
$PUCSORTHOVIEW
 70
     0
  9
$PUCSORGTOP
 10
0.0
 20
0.0
 30
0.0
  9
$PUCSORGBOTTOM
 10
0.0
 20
0.0
 30
0.0
  9
$PUCSORGLEFT
 10
0.0
 20
0.0
 30
0.0
  9
$PUCSORGRIGHT
 10
0.0
 20
0.0
 30
0.0
  9
$PUCSORGFRONT
 10
0.0
 20
0.0
 30
0.0
  9
$PUCSORGBACK
 10
0.0
 20
0.0
 30
0.0
  9
$USERI1
 70
     0
  9
$USERI2
 70
     0
  9
$USERI3
 70
     0
  9
$USERI4
 70
     0
  9
$USERI5
 70
     0
  9
$USERR1
 40
0.0
  9
$USERR2
 40
0.0
  9
$USERR3
 40
0.0
  9
$USERR4
 40
2448925.372986111
  9
$USERR5
 40
0.04166667
  9
$WORLDVIEW
 70
     1
  9
$SHADEDGE
 70
     3
  9
$SHADEDIF
 70
    70
  9
$TILEMODE
 70
     1
  9
$MAXACTVP
 70
    16
  9
$PINSBASE
 10
0.0
 20
0.0
 30
0.0
  9
$PLIMCHECK
 70
     0
  9
$PEXTMIN
 10
1.000000000000000E+20
 20
1.000000000000000E+20
 30
1.000000000000000E+20
  9
$PEXTMAX
 10
-1.000000000000000E+20
 20
-1.000000000000000E+20
 30
-1.000000000000000E+20
  9
$PLIMMIN
 10
0.0
 20
0.0
  9
$PLIMMAX
 10
12.0
 20
9.0
  9
$UNITMODE
 70
     0
  9
$VISRETAIN
 70
     0
  9
$PLINEGEN
 70
     0
  9
$PSLTSCALE
 70
     0
  9
$TREEDEPTH
 70
  3020
  9
$CMLSTYLE
  2
STANDARD
  9
$CMLJUST
 70
     0
  9
$CMLSCALE
 40
1.0
  9
$PROXYGRAPHICS
 70
     1
  9
$MEASUREMENT
 70
     0
  9
$CELWEIGHT
370
    -1
  9
$ENDCAPS
280
     0
  9
$JOINSTYLE
280
     0
  9
$LWDISPLAY
290
     0
  9
$INSUNITS
 70
     0
  9
$HYPERLINKBASE
  1

  9
$STYLESHEET
  1
monochrome.ctb
  9
$XEDIT
290
     1
  9
$CEPSNTYPE
380
     0
  9
$PSTYLEMODE
290
     1
  9
$FINGERPRINTGUID
  2
{73FEF31F-50C9-44C4-A0D7-0FAE582BD2F4}
  9
$VERSIONGUID
  2
{15909635-FD46-4E86-BF1A-8C640C014BF3}
  9
$EXTNAMES
290
     1
  9
$PSVPSCALE
 40
0.0
  9
$OLESTARTUP
290
     0
  0
ENDSEC
  0
SECTION
  2
CLASSES
  0
CLASS
  1
LWPOLYLINE
  2
AcDbPolyline
  3
AutoCAD 2000
 90
        0
280
     0
281
     1
  0
CLASS
  1
XRECORD
  2
AcDbXrecord
  3
AutoCAD 2000
 90
        0
280
     0
281
     0
  0
CLASS
  1
ACDBDICTIONARYWDFLT
  2
AcDbDictionaryWithDefault
  3
ObjectDBX Classes
 90
        0
280
     0
281
     0
  0
CLASS
  1
MATERIAL
  2
AcDbMaterial
  3
ObjectDBX Classes
 90
     1153
280
     0
281
     0
  0
CLASS
  1
VISUALSTYLE
  2
AcDbVisualStyle
  3
ObjectDBX Classes
 90
     4095
280
     0
281
     0
  0
CLASS
  1
TABLESTYLE
  2
AcDbTableStyle
  3
ObjectDBX Classes
 90
     4095
280
     0
281
     0
  0
CLASS
  1
SCALE
  2
AcDbScale
  3
ObjectDBX Classes
 90
     1153
280
     0
281
     0
  0
CLASS
  1
MLEADERSTYLE
  2
AcDbMLeaderStyle
  3
ACDB_MLEADERSTYLE_CLASS
 90
     4095
280
     0
281
     0
  0
CLASS
  1
CELLSTYLEMAP
  2
AcDbCellStyleMap
  3
ObjectDBX Classes
 90
     1152
280
     0
281
     0
  0
CLASS
  1
DICTIONARYVAR
  2
AcDbDictionaryVar
  3
ObjectDBX Classes
 90
        0
280
     0
281
     0
  0
CLASS
  1
ACDBPLACEHOLDER
  2
AcDbPlaceHolder
  3
ObjectDBX Classes
 90
        0
280
     0
281
     0
  0
CLASS
  1
LAYOUT
  2
AcDbLayout
  3
ObjectDBX Classes
 90
        0
280
     0
281
     0
  0
CLASS
  1
DUMMY
  2
AcDbLongTransaction
  3
DUMMY
 90
        0
280
     0
281
     0
  0
CLASS
  1
LWPOLYLINE
  2
AcDbPolyline
  3
AutoCAD 2000
 90
        0
280
     0
281
     1
  0
CLASS
  1
HATCH
  2
AcDbHatch
  3
AutoCAD 2000
 90
        0
280
     0
281
     1
  0
CLASS
  1
XRECORD
  2
AcDbXrecord
  3
AutoCAD 2000
 90
        0
280
     0
281
     0
  0
CLASS
  1
DUMMY
  2
AcDbLongTransaction
  3
DUMMY
 90
        0
280
     0
281
     0
  0
CLASS
  1
LWPOLYLINE
  2
AcDbPolyline
  3
AutoCAD 2000
 90
        0
280
     0
281
     1
  0
CLASS
  1
HATCH
  2
AcDbHatch
  3
AutoCAD 2000
 90
        0
280
     0
281
     1
  0
CLASS
  1
XRECORD
  2
AcDbXrecord
  3
AutoCAD 2000
 90
        0
280
     0
281
     0
  0
CLASS
  1
DUMMY
  2
AcDbLongTransaction
  3
DUMMY
 90
        0
280
     0
281
     0
  0
CLASS
  1
LWPOLYLINE
  2
AcDbPolyline
  3
AutoCAD 2000
 90
        0
280
     0
281
     1
  0
CLASS
  1
HATCH
  2
AcDbHatch
  3
AutoCAD 2000
 90
        0
280
     0
281
     1
  0
CLASS
  1
XRECORD
  2
AcDbXrecord
  3
AutoCAD 2000
 90
        0
280
     0
281
     0
  0
CLASS
  1
DUMMY
  2
AcDbLongTransaction
  3
DUMMY
 90
        0
280
     0
281
     0
  0
CLASS
  1
LWPOLYLINE
  2
AcDbPolyline
  3
AutoCAD 2000
 90
        0
280
     0
281
     1
  0
CLASS
  1
HATCH
  2
AcDbHatch
  3
AutoCAD 2000
 90
        0
280
     0
281
     1
  0
CLASS
  1
XRECORD
  2
AcDbXrecord
  3
AutoCAD 2000
 90
        0
280
     0
281
     0
  0
CLASS
  1
ACDBSECTIONVIEWSTYLE
  2
AcDbSectionViewStyle
  3
ObjectDBX Classes
 90
     1025
280
     0
281
     0
  0
CLASS
  1
ACDBDETAILVIEWSTYLE
  2
AcDbDetailViewStyle
  3
ObjectDBX Classes
 90
     1025
280
     0
281
     0
  0
CLASS
  1
SORTENTSTABLE
  2
AcDbSortentsTable
  3
ObjectDBX Classes
 90
        0
280
     0
281
     0
  0
ENDSEC
  0
SECTION
  2
TABLES
  0
TABLE
  2
VPORT
  5
2C
102
{ACAD_XDICTIONARY
360
31
102
}
330
0
100
AcDbSymbolTable
 70
     1
  0
VPORT
  5
2D
330
2C
100
AcDbSymbolTableRecord
100
AcDbViewportTableRecord
  2
*ACTIVE
 70
     0
 10
0.0
 20
0.0
 11
1.0
 21
1.0
 12
1164.336794770469
 22
396.7633441016164
 13
0.0
 23
0.0
 14
1.0
 24
1.0
 15
50.0
 25
50.0
 16
0.0
 26
0.0
 36
1.0
 17
0.0
 27
0.0
 37
0.0
 40
1235.176736581028
 41
2.177611940298507
 42
50.0
 43
0.0
 44
0.0
 50
0.0
 51
0.0
 71
     0
 72
  5000
 73
     1
 74
     0
 75
     0
 76
     0
 77
     0
 78
     0
281
     0
 65
     1
110
0.0
120
0.0
130
0.0
111
1.0
121
0.0
131
0.0
112
0.0
122
1.0
132
0.0
 79
     0
146
0.0
1001
ACAD_NAV_VCDISPLAY
1070
     3
  0
ENDTAB
  0
TABLE
  2
LTYPE
  5
27
330
0
100
AcDbSymbolTable
 70
     2
  0
LTYPE
  5
28
330
27
100
AcDbSymbolTableRecord
100
AcDbLinetypeTableRecord
  2
BYBLOCK
 70
     0
  3

 72
    65
 73
     0
 40
0.0
  0
LTYPE
  5
29
330
27
100
AcDbSymbolTableRecord
100
AcDbLinetypeTableRecord
  2
BYLAYER
 70
     0
  3

 72
    65
 73
     0
 40
0.0
  0
LTYPE
  5
16
330
27
100
AcDbSymbolTableRecord
100
AcDbLinetypeTableRecord
  2
CONTINUOUS
 70
     0
  3
Solid line
 72
    65
 73
     0
 40
0.0
  0
LTYPE
  5
A0
330
27
100
AcDbSymbolTableRecord
100
AcDbLinetypeTableRecord
  2
CENTER
 70
     0
  3
____ _ ____ _ ____ _ ____ _ ____ _ ____ _ ____
 72
    65
 73
     4
 40
2.0
 49
1.25
 74
     0
 49
-0.25
 74
     0
 49
0.25
 74
     0
 49
-0.25
 74
     0
  0
ENDTAB
  0
TABLE
  2
LAYER
  5
21
102
{ACAD_XDICTIONARY
360
22
102
}
330
0
100
AcDbSymbolTable
 70
     8
  0
LAYER
  5
7
102
{ACAD_XDICTIONARY
360
8
102
}
330
21
100
AcDbSymbolTableRecord
100
AcDbLayerTableRecord
  2
0
 70
     0
 62
     7
  6
CONTINUOUS
370
    -3
390
A
  0
LAYER
  5
351
102
{ACAD_XDICTIONARY
360
352
102
}
330
21
100
AcDbSymbolTableRecord
100
AcDbLayerTableRecord
  2
1
 70
     0
 62
     9
  6
CONTINUOUS
370
    -3
390
A
  0
LAYER
  5
4E
102
{ACAD_XDICTIONARY
360
4F
102
}
330
21
100
AcDbSymbolTableRecord
100
AcDbLayerTableRecord
  2
2
 70
     0
 62
     4
  6
CONTINUOUS
370
    -3
390
A
  0
LAYER
  5
68
102
{ACAD_XDICTIONARY
360
69
102
}
330
21
100
AcDbSymbolTableRecord
100
AcDbLayerTableRecord
  2
4
 70
     0
 62
     3
  6
CONTINUOUS
370
    -3
390
A
  0
LAYER
  5
9D
102
{ACAD_XDICTIONARY
360
9E
102
}
330
21
100
AcDbSymbolTableRecord
100
AcDbLayerTableRecord
  2
L-CENTER
 70
     0
 62
     1
  6
CENTER
370
    -3
390
A
  0
LAYER
  5
149
102
{ACAD_XDICTIONARY
360
14A
102
}
330
21
100
AcDbSymbolTableRecord
100
AcDbLayerTableRecord
  2
3
 70
     0
 62
     2
  6
CONTINUOUS
370
    -3
390
A
  0
LAYER
  5
405
330
21
100
AcDbSymbolTableRecord
100
AcDbLayerTableRecord
  2
5
 70
     0
 62
     6
  6
CONTINUOUS
370
    -3
390
A
  0
LAYER
  5
571
330
21
100
AcDbSymbolTableRecord
100
AcDbLayerTableRecord
  2
Defpoints
 70
     0
 62
     7
  6
CONTINUOUS
290
     0
370
    -3
390
A
  0
ENDTAB
  0
TABLE
  2
STYLE
  5
24
330
0
100
AcDbSymbolTable
 70
     2
  0
STYLE
  5
25
330
24
100
AcDbSymbolTableRecord
100
AcDbTextStyleTableRecord
  2
STANDARD
 70
     0
 40
0.0
 41
1.0
 50
0.0
 71
     0
 42
5.4
  3
TXT
  4

  0
STYLE
  5
51
330
24
100
AcDbSymbolTableRecord
100
AcDbTextStyleTableRecord
  2
KANJI
 70
     0
 40
0.0
 41
1.0
 50
0.0
 71
     0
 42
9.0
  3
TXT
  4
BIGFONT
  0
ENDTAB
  0
TABLE
  2
VIEW
  5
2A
330
0
100
AcDbSymbolTable
 70
     0
  0
ENDTAB
  0
TABLE
  2
UCS
  5
2B
330
0
100
AcDbSymbolTable
 70
     0
  0
ENDTAB
  0
TABLE
  2
APPID
  5
32
330
0
100
AcDbSymbolTable
 70
     4
  0
APPID
  5
33
330
32
100
AcDbSymbolTableRecord
100
AcDbRegAppTableRecord
  2
ACAD
 70
     0
  0
APPID
  5
30
330
32
100
AcDbSymbolTableRecord
100
AcDbRegAppTableRecord
  2
ACAD_NAV_VCDISPLAY
 70
     0
  0
APPID
  5
1A
330
32
100
AcDbSymbolTableRecord
100
AcDbRegAppTableRecord
  2
ACAD_PSEXT
 70
     0
  0
APPID
  5
55D
330
32
100
AcDbSymbolTableRecord
100
AcDbRegAppTableRecord
  2
ACAD_MLEADERVER
 70
     0
  0
ENDTAB
  0
TABLE
  2
DIMSTYLE
  5
34
330
0
100
AcDbSymbolTable
 70
     1
100
AcDbDimStyleTable
  0
DIMSTYLE
105
35
330
34
100
AcDbSymbolTableRecord
100
AcDbDimStyleTableRecord
  2
STANDARD
 70
     0
178
     0
340
25
  0
ENDTAB
  0
TABLE
  2
BLOCK_RECORD
  5
1
330
0
100
AcDbSymbolTable
 70
     0
  0
BLOCK_RECORD
  5
2
102
{ACAD_XDICTIONARY
360
3
102
}
330
1
100
AcDbSymbolTableRecord
100
AcDbBlockTableRecord
  2
*MODEL_SPACE
340
18
  0
BLOCK_RECORD
  5
1B
330
1
100
AcDbSymbolTableRecord
100
AcDbBlockTableRecord
  2
*PAPER_SPACE
340
20
  0
ENDTAB
  0
ENDSEC
  0
SECTION
  2
BLOCKS
  0
BLOCK
  5
6
330
2
100
AcDbEntity
  8
0
100
AcDbBlockBegin
  2
*MODEL_SPACE
 70
     0
 10
0.0
 20
0.0
 30
0.0
  3
*MODEL_SPACE
  1

  0
ENDBLK
  5
17
330
2
100
AcDbEntity
  8
0
100
AcDbBlockEnd
  0
BLOCK
  5
1E
330
1B
100
AcDbEntity
 67
     1
  8
0
100
AcDbBlockBegin
  2
*PAPER_SPACE
 70
     0
 10
0.0
 20
0.0
 30
0.0
  3
*PAPER_SPACE
  1

  0
ENDBLK
  5
1F
330
1B
100
AcDbEntity
 67
     1
  8
0
100
AcDbBlockEnd
  0
ENDSEC
  0
SECTION
  2
ENTITIES
  0
LINE
  5
67
330
2
100
AcDbEntity
  8
4
100
AcDbLine
 10
463.8236603528413
 20
750.9515228984355
 30
0.0
 11
463.8236603528413
 21
752.9515228984355
 31
0.0
  0
LINE
  5
6B
330
2
100
AcDbEntity
  8
4
100
AcDbLine
 10
478.3236603528413
 20
752.9515228984355
 30
0.0
 11
463.8236603528413
 21
752.9515228984355
 31
0.0
  0
LINE
  5
6C
330
2
100
AcDbEntity
  8
4
100
AcDbLine
 10
477.5736603528413
 20
752.9515228984355
 30
0.0
 11
477.5736603528413
 21
760.9515228984355
 31
0.0
  0
LINE
  5
6D
330
2
100
AcDbEntity
  8
4
100
AcDbLine
 10
464.5736603528413
 20
752.9515228984355
 30
0.0
 11
464.5736603528413
 21
760.9515228984355
 31
0.0
  0
LINE
  5
6E
330
2
100
AcDbEntity
  8
4
100
AcDbLine
 10
478.3236603528413
 20
750.9515228984355
 30
0.0
 11
478.3236603528413
 21
752.9515228984355
 31
0.0
  0
LINE
  5
6F
330
2
100
AcDbEntity
  8
4
100
AcDbLine
 10
477.5736603528413
 20
760.9515228984355
 30
0.0
 11
464.5736603528413
 21
760.9515228984355
 31
0.0
  0
LINE
  5
70
330
2
100
AcDbEntity
  8
4
100
AcDbLine
 10
417.5736603528414
 20
760.9515228984355
 30
0.0
 11
404.5736603528414
 21
760.9515228984355
 31
0.0
  0
LINE
  5
71
330
2
100
AcDbEntity
  8
4
100
AcDbLine
 10
418.3236603528414
 20
750.9515228984355
 30
0.0
 11
418.3236603528414
 21
752.9515228984355
 31
0.0
  0
LINE
  5
72
330
2
100
AcDbEntity
  8
4
100
AcDbLine
 10
404.5736603528414
 20
752.9515228984355
 30
0.0
 11
404.5736603528414
 21
760.9515228984355
 31
0.0
  0
LINE
  5
73
330
2
100
AcDbEntity
  8
4
100
AcDbLine
 10
417.5736603528414
 20
752.9515228984355
 30
0.0
 11
417.5736603528414
 21
760.9515228984355
 31
0.0
  0
LINE
  5
74
330
2
100
AcDbEntity
  8
4
100
AcDbLine
 10
418.3236603528414
 20
752.9515228984355
 30
0.0
 11
403.8236603528414
 21
752.9515228984355
 31
0.0
  0
LINE
  5
75
330
2
100
AcDbEntity
  8
4
100
AcDbLine
 10
403.8236603528414
 20
750.9515228984355
 30
0.0
 11
403.8236603528414
 21
752.9515228984355
 31
0.0
  0
LINE
  5
76
330
2
100
AcDbEntity
  8
4
100
AcDbLine
 10
283.8236603528396
 20
750.9515228984355
 30
0.0
 11
283.8236603528396
 21
752.9515228984355
 31
0.0
  0
LINE
  5
77
330
2
100
AcDbEntity
  8
4
100
AcDbLine
 10
298.3236603528396
 20
752.9515228984355
 30
0.0
 11
283.8236603528396
 21
752.9515228984355
 31
0.0
  0
LINE
  5
78
330
2
100
AcDbEntity
  8
4
100
AcDbLine
 10
297.5736603528396
 20
752.9515228984355
 30
0.0
 11
297.5736603528396
 21
760.9515228984355
 31
0.0
  0
LINE
  5
79
330
2
100
AcDbEntity
  8
4
100
AcDbLine
 10
284.5736603528396
 20
752.9515228984355
 30
0.0
 11
284.5736603528396
 21
760.9515228984355
 31
0.0
  0
LINE
  5
7A
330
2
100
AcDbEntity
  8
4
100
AcDbLine
 10
298.3236603528396
 20
750.9515228984355
 30
0.0
 11
298.3236603528396
 21
752.9515228984355
 31
0.0
  0
LINE
  5
7B
330
2
100
AcDbEntity
  8
4
100
AcDbLine
 10
297.5736603528396
 20
760.9515228984355
 30
0.0
 11
284.5736603528396
 21
760.9515228984355
 31
0.0
  0
LINE
  5
7C
330
2
100
AcDbEntity
  8
4
100
AcDbLine
 10
238.3236603528397
 20
752.9515228984355
 30
0.0
 11
223.8236603528397
 21
752.9515228984355
 31
0.0
  0
LINE
  5
7D
330
2
100
AcDbEntity
  8
4
100
AcDbLine
 10
237.5736603528397
 20
760.9515228984355
 30
0.0
 11
224.5736603528397
 21
760.9515228984355
 31
0.0
  0
LINE
  5
7E
330
2
100
AcDbEntity
  8
4
100
AcDbLine
 10
223.8236603528397
 20
750.9515228984355
 30
0.0
 11
223.8236603528397
 21
752.9515228984355
 31
0.0
  0
LINE
  5
7F
330
2
100
AcDbEntity
  8
4
100
AcDbLine
 10
238.3236603528397
 20
750.9515228984355
 30
0.0
 11
238.3236603528397
 21
752.9515228984355
 31
0.0
  0
LINE
  5
80
330
2
100
AcDbEntity
  8
4
100
AcDbLine
 10
224.5736603528397
 20
752.9515228984355
 30
0.0
 11
224.5736603528397
 21
760.9515228984355
 31
0.0
  0
LINE
  5
81
330
2
100
AcDbEntity
  8
4
100
AcDbLine
 10
237.5736603528397
 20
752.9515228984355
 30
0.0
 11
237.5736603528397
 21
760.9515228984355
 31
0.0
  0
LINE
  5
82
330
2
100
AcDbEntity
  8
4
100
AcDbLine
 10
938.1349326739746
 20
171.9842429537555
 30
0.0
 11
938.1349326739746
 21
151.4842429537555
 31
0.0
  0
LINE
  5
83
330
2
100
AcDbEntity
  8
2
100
AcDbLine
 10
930.5349326739743
 20
71.7327673601228
 30
0.0
 11
932.5349326739743
 21
73.7327673601228
 31
0.0
  0
LINE
  5
84
330
2
100
AcDbEntity
  8
2
100
AcDbLine
 10
930.5349326739743
 20
74.56119448486902
 30
0.0
 11
932.5349326739743
 21
76.56119448486902
 31
0.0
  0
LINE
  5
85
330
2
100
AcDbEntity
  8
4
100
AcDbLine
 10
932.5349326739743
 20
81.06119448486902
 30
0.0
 11
940.5349326739743
 21
81.06119448486902
 31
0.0
  0
LINE
  5
86
330
2
100
AcDbEntity
  8
4
100
AcDbLine
 10
930.5349326739743
 20
81.81119448486902
 30
0.0
 11
932.5349326739743
 21
81.81119448486902
 31
0.0
  0
LINE
  5
87
330
2
100
AcDbEntity
  8
4
100
AcDbLine
 10
940.534932673974
 20
68.48424295375548
 30
0.0
 11
940.5349326739743
 21
81.06119448486902
 31
0.0
  0
LINE
  5
88
330
2
100
AcDbEntity
  8
4
100
AcDbLine
 10
932.534932673974
 20
68.48424295375548
 30
0.0
 11
932.5349326739743
 21
81.81119448486902
 31
0.0
  0
LINE
  5
89
330
2
100
AcDbEntity
  8
4
100
AcDbLine
 10
932.5349326739743
 20
171.2342429537555
 30
0.0
 11
932.5349326739743
 21
185.7342429537555
 31
0.0
  0
LINE
  5
8A
330
2
100
AcDbEntity
  8
4
100
AcDbLine
 10
940.5349326739743
 20
171.9842429537555
 30
0.0
 11
940.5349326739743
 21
184.9842429537555
 31
0.0
  0
LINE
  5
8B
330
2
100
AcDbEntity
  8
4
100
AcDbLine
 10
930.5349326739743
 20
185.7342429537555
 30
0.0
 11
932.5349326739743
 21
185.7342429537555
 31
0.0
  0
LINE
  5
8C
330
2
100
AcDbEntity
  8
4
100
AcDbLine
 10
930.5349326739743
 20
171.2342429537555
 30
0.0
 11
932.5349326739743
 21
171.2342429537555
 31
0.0
  0
LINE
  5
8D
330
2
100
AcDbEntity
  8
4
100
AcDbLine
 10
932.5349326739743
 20
184.9842429537555
 30
0.0
 11
940.5349326739743
 21
184.9842429537555
 31
0.0
  0
LINE
  5
8E
330
2
100
AcDbEntity
  8
4
100
AcDbLine
 10
932.5349326739743
 20
171.9842429537555
 30
0.0
 11
940.5349326739743
 21
171.9842429537555
 31
0.0
  0
LINE
  5
8F
330
2
100
AcDbEntity
  8
2
100
AcDbLine
 10
930.5349326739743
 20
178.4842429537555
 30
0.0
 11
932.5349326739743
 21
180.4842429537555
 31
0.0
  0
LINE
  5
90
330
2
100
AcDbEntity
  8
2
100
AcDbLine
 10
930.5349326739743
 20
175.6558158290093
 30
0.0
 11
932.5349326739743
 21
177.6558158290093
 31
0.0
  0
LINE
  5
91
330
2
100
AcDbEntity
  8
2
100
AcDbLine
 10
930.5349326739743
 20
279.578864268394
 30
0.0
 11
932.5349326739743
 21
281.578864268394
 31
0.0
  0
LINE
  5
92
330
2
100
AcDbEntity
  8
2
100
AcDbLine
 10
930.5349326739743
 20
282.4072913931402
 30
0.0
 11
932.5349326739743
 21
284.4072913931402
 31
0.0
  0
LINE
  5
93
330
2
100
AcDbEntity
  8
4
100
AcDbLine
 10
932.5349326739743
 20
275.9072913931402
 30
0.0
 11
940.5349326739743
 21
275.9072913931402
 31
0.0
  0
LINE
  5
94
330
2
100
AcDbEntity
  8
4
100
AcDbLine
 10
932.5349326739743
 20
288.9072913931402
 30
0.0
 11
940.5349326739743
 21
288.9072913931402
 31
0.0
  0
LINE
  5
95
330
2
100
AcDbEntity
  8
4
100
AcDbLine
 10
930.5349326739743
 20
275.1572913931402
 30
0.0
 11
932.5349326739743
 21
275.1572913931402
 31
0.0
  0
LINE
  5
96
330
2
100
AcDbEntity
  8
4
100
AcDbLine
 10
930.5349326739743
 20
289.6572913931402
 30
0.0
 11
932.5349326739743
 21
289.6572913931402
 31
0.0
  0
LINE
  5
97
330
2
100
AcDbEntity
  8
4
100
AcDbLine
 10
940.5349326739743
 20
275.9072913931402
 30
0.0
 11
940.5349326739743
 21
288.9072913931402
 31
0.0
  0
LINE
  5
98
330
2
100
AcDbEntity
  8
4
100
AcDbLine
 10
932.5349326739743
 20
275.1572913931402
 30
0.0
 11
932.5349326739743
 21
289.6572913931402
 31
0.0
  0
LINE
  5
99
330
2
100
AcDbEntity
  8
4
100
AcDbLine
 10
239.0736603528429
 20
679.8015228984264
 30
0.0
 11
239.0736603528425
 21
687.5015228984266
 31
0.0
  0
LINE
  5
9A
330
2
100
AcDbEntity
  8
4
 48
3.0
100
AcDbLine
 10
243.8365332778141
 20
679.8015228984266
 30
0.0
 11
239.0736603528429
 21
679.8015228984264
 31
0.0
  0
LINE
  5
9B
330
2
100
AcDbEntity
  8
4
 48
3.0
100
AcDbLine
 10
243.8365332778136
 20
687.5015228984269
 30
0.0
 11
239.0736603528425
 21
687.5015228984266
 31
0.0
  0
LINE
  5
9C
330
2
100
AcDbEntity
  8
L-CENTER
 48
3.0
100
AcDbLine
 10
249.0736603528433
 20
674.2610946927687
 30
0.0
 11
249.0736603528421
 21
692.948886655174
 31
0.0
  0
CIRCLE
  5
A1
330
2
100
AcDbEntity
  8
4
100
AcDbCircle
 10
249.0736603528427
 20
683.6515228984272
 30
0.0
 40
6.5
  0
LINE
  5
A2
330
2
100
AcDbEntity
  8
4
 48
3.0
100
AcDbLine
 10
458.3107874278701
 20
687.5015228984334
 30
0.0
 11
463.0736603528412
 21
687.5015228984334
 31
0.0
  0
LINE
  5
A3
330
2
100
AcDbEntity
  8
4
 48
3.0
100
AcDbLine
 10
458.31078742787
 20
679.8015228984332
 30
0.0
 11
463.0736603528412
 21
679.8015228984332
 31
0.0
  0
LINE
  5
A4
330
2
100
AcDbEntity
  8
4
100
AcDbLine
 10
463.0736603528411
 20
679.8015228984332
 30
0.0
 11
463.0736603528412
 21
687.5015228984334
 31
0.0
  0
CIRCLE
  5
A5
330
2
100
AcDbEntity
  8
4
100
AcDbCircle
 10
453.0736603528412
 20
683.6515228984333
 30
0.0
 40
6.5
  0
LINE
  5
A6
330
2
100
AcDbEntity
  8
L-CENTER
 48
3.0
100
AcDbLine
 10
453.0736603528412
 20
674.2610946927748
 30
0.0
 11
453.0736603528412
 21
692.9488866551801
 31
0.0
  0
LINE
  5
B1
330
2
100
AcDbEntity
  8
4
100
AcDbLine
 10
221.073660352841
 20
665.6515228984354
 30
0.0
 11
218.0736603528412
 21
665.6515228984354
 31
0.0
  0
LINE
  5
B2
330
2
100
AcDbEntity
  8
4
100
AcDbLine
 10
221.073660352841
 20
701.6515228984354
 30
0.0
 11
218.0736603528412
 21
701.6515228984354
 31
0.0
  0
LINE
  5
B3
330
2
100
AcDbEntity
  8
4
100
AcDbLine
 10
218.0736603528412
 20
665.6515228984354
 30
0.0
 11
218.0736603528412
 21
666.151522898436
 31
0.0
  0
LWPOLYLINE
  5
B4
330
2
100
AcDbEntity
  8
4
100
AcDbPolyline
 90
        6
 70
     1
 43
0.0
 10
296.5736603528408
 20
683.6515228984351
 10
290.323660352841
 20
694.4768404457407
 10
277.823660352841
 20
694.4768404457409
 10
271.5736603528408
 20
683.6515228984356
 10
277.8236603528406
 20
672.82620535113
 10
290.3236603528406
 20
672.8262053511298
  0
CIRCLE
  5
B5
330
2
100
AcDbEntity
  8
4
100
AcDbCircle
 10
284.0736603528408
 20
683.6515228984354
 30
0.0
 40
12.5
  0
CIRCLE
  5
B6
330
2
100
AcDbEntity
  8
4
100
AcDbCircle
 10
284.0736603528409
 20
683.6515228984354
 30
0.0
 40
19.0
  0
LINE
  5
B7
330
2
100
AcDbEntity
  8
L-CENTER
 48
3.0
100
AcDbLine
 10
284.0736603528409
 20
710.3579334180044
 30
0.0
 11
284.0736603528406
 21
658.2943091880188
 31
0.0
  0
LINE
  5
B8
330
2
100
AcDbEntity
  8
4
100
AcDbLine
 10
297.5736603528396
 20
755.6237238633198
 30
0.0
 11
304.3740321027906
 21
756.7496870547047
 31
0.0
  0
LINE
  5
B9
330
2
100
AcDbEntity
  8
4
100
AcDbLine
 10
297.5736603528396
 20
757.1441458492545
 30
0.0
 11
304.8083027808402
 21
758.3420128742191
 31
0.0
  0
LINE
  5
BA
330
2
100
AcDbEntity
  8
L-CENTER
 48
3.0
100
AcDbLine
 10
231.0736603528402
 20
727.7218412675415
 30
0.0
 11
231.0736603528395
 21
762.9225320970386
 31
0.0
  0
LINE
  5
BB
330
2
100
AcDbEntity
  8
L-CENTER
 48
3.0
100
AcDbLine
 10
291.0736603528402
 20
727.7218412675427
 30
0.0
 11
291.0736603528395
 21
762.92253209704
 31
0.0
  0
LINE
  5
BC
330
2
100
AcDbEntity
  8
4
100
AcDbLine
 10
404.5736603528413
 20
755.6237238633194
 30
0.0
 11
397.7732886028912
 21
756.7496870547047
 31
0.0
  0
LINE
  5
BD
330
2
100
AcDbEntity
  8
4
100
AcDbLine
 10
404.5736603528414
 20
757.1441458492554
 30
0.0
 11
397.3390179248418
 21
758.3420128742191
 31
0.0
  0
LINE
  5
BE
330
2
100
AcDbEntity
  8
L-CENTER
 48
3.0
100
AcDbLine
 10
411.0736603528416
 20
727.7218412675438
 30
0.0
 11
411.0736603528416
 21
762.9225320970409
 31
0.0
  0
LINE
  5
BF
330
2
100
AcDbEntity
  8
L-CENTER
 48
3.0
100
AcDbLine
 10
471.0736603528414
 20
727.7218412675438
 30
0.0
 11
471.0736603528414
 21
762.9225320970409
 31
0.0
  0
LINE
  5
C0
330
2
100
AcDbEntity
  8
4
100
AcDbLine
 10
331.0736603528413
 20
770.551522898435
 30
0.0
 11
331.0736603528414
 21
788.6515228984354
 31
0.0
  0
LINE
  5
C1
330
2
100
AcDbEntity
  8
4
100
AcDbLine
 10
332.0736603528414
 20
862.6515228984354
 30
0.0
 11
333.0736603528414
 21
863.6515228984354
 31
0.0
  0
LINE
  5
C2
330
2
100
AcDbEntity
  8
4
100
AcDbLine
 10
332.0736603528414
 20
862.6515228984354
 30
0.0
 11
346.0736603528414
 21
862.6515228984354
 31
0.0
  0
ARC
  5
C3
330
2
100
AcDbEntity
  8
4
100
AcDbCircle
 10
351.0736603528416
 20
798.6515228984354
 30
0.0
 40
5.0
100
AcDbArc
 50
180.0
 51
270.0
  0
LINE
  5
C4
330
2
100
AcDbEntity
  8
4
100
AcDbLine
 10
351.0736603528414
 20
793.6515228984354
 30
0.0
 11
351.0736603528414
 21
793.6515228984354
 31
0.0
  0
ARC
  5
C5
330
2
100
AcDbEntity
  8
4
100
AcDbCircle
 10
331.0736603528416
 20
789.6515228984354
 30
0.0
 40
1.0
100
AcDbArc
 50
270.0
 51
0.0
  0
LINE
  5
C6
330
2
100
AcDbEntity
  8
4
100
AcDbLine
 10
332.0736603528414
 20
789.6515228984354
 30
0.0
 11
332.0736603528414
 21
862.6515228984354
 31
0.0
  0
LINE
  5
C7
330
2
100
AcDbEntity
  8
4
100
AcDbLine
 10
346.0736603528414
 20
798.6515228984354
 30
0.0
 11
346.0736603528414
 21
863.6515228984354
 31
0.0
  0
LINE
  5
C8
330
2
100
AcDbEntity
  8
4
100
AcDbLine
 10
369.0736603528414
 20
863.6515228984354
 30
0.0
 11
370.0736603528414
 21
862.6515228984354
 31
0.0
  0
LINE
  5
C9
330
2
100
AcDbEntity
  8
4
100
AcDbLine
 10
356.0736603528414
 20
862.6515228984354
 30
0.0
 11
370.0736603528414
 21
862.6515228984354
 31
0.0
  0
LINE
  5
CA
330
2
100
AcDbEntity
  8
4
100
AcDbLine
 10
333.0736603528414
 20
863.6515228984354
 30
0.0
 11
369.0736603528414
 21
863.6515228984354
 31
0.0
  0
ARC
  5
CB
330
2
100
AcDbEntity
  8
4
100
AcDbCircle
 10
351.0736603528416
 20
798.6515228984354
 30
0.0
 40
5.0
100
AcDbArc
 50
270.0
 51
0.0
  0
ARC
  5
CC
330
2
100
AcDbEntity
  8
4
100
AcDbCircle
 10
371.0736603528416
 20
789.6515228984354
 30
0.0
 40
1.0
100
AcDbArc
 50
180.0
 51
270.0
  0
LINE
  5
CD
330
2
100
AcDbEntity
  8
4
100
AcDbLine
 10
371.0736603528413
 20
770.551522898435
 30
0.0
 11
371.0736603528414
 21
788.6515228984354
 31
0.0
  0
LINE
  5
CE
330
2
100
AcDbEntity
  8
4
100
AcDbLine
 10
331.0736603528414
 20
788.6515228984354
 30
0.0
 11
371.0736603528414
 21
788.6515228984354
 31
0.0
  0
LINE
  5
CF
330
2
100
AcDbEntity
  8
4
100
AcDbLine
 10
370.0736603528414
 20
789.6515228984354
 30
0.0
 11
370.0736603528414
 21
862.6515228984354
 31
0.0
  0
LINE
  5
D0
330
2
100
AcDbEntity
  8
4
100
AcDbLine
 10
356.0736603528414
 20
798.6515228984354
 30
0.0
 11
356.0736603528414
 21
863.6515228984354
 31
0.0
  0
LINE
  5
D1
330
2
100
AcDbEntity
  8
L-CENTER
 48
3.0
100
AcDbLine
 10
276.073660352841
 20
760.1612589457077
 30
0.0
 11
276.073660352841
 21
726.9388888470103
 31
0.0
  0
ARC
  5
D2
330
2
100
AcDbEntity
  8
4
100
AcDbCircle
 10
478.0736603528408
 20
749.9515228984355
 30
0.0
 40
1.0
100
AcDbArc
 50
0.0
 51
90.0
  0
ARC
  5
D3
330
2
100
AcDbEntity
  8
4
100
AcDbCircle
 10
392.3098645118416
 20
768.5515228984355
 30
0.0
 40
1.0
100
AcDbArc
 50
15.25511870304778
 51
90.0
  0
ARC
  5
D4
330
2
100
AcDbEntity
  8
4
100
AcDbCircle
 10
397.6657175622249
 20
760.315149298021
 30
0.0
 40
2.0
100
AcDbArc
 50
195.2551187030482
 51
260.5986145193421
  0
ARC
  5
D5
330
2
100
AcDbEntity
  8
4
100
AcDbCircle
 10
398.0999882402748
 20
758.7228234785061
 30
0.0
 40
2.0
100
AcDbArc
 50
195.2551187030482
 51
260.5986145193421
  0
LINE
  5
D6
330
2
100
AcDbEntity
  8
4
100
AcDbLine
 10
393.2746283330796
 20
768.8146403042279
 30
0.0
 11
395.7361899197497
 21
759.7889144864366
 31
0.0
  0
LINE
  5
D7
330
2
100
AcDbEntity
  8
4
100
AcDbLine
 10
382.073660352841
 20
770.5515228984355
 30
0.0
 11
382.073660352841
 21
769.5515228984355
 31
0.0
  0
LINE
  5
D8
330
2
100
AcDbEntity
  8
4
100
AcDbLine
 10
378.073660352841
 20
758.5515228984359
 30
0.0
 11
378.0736603528412
 21
756.9591970789211
 31
0.0
  0
LINE
  5
D9
330
2
100
AcDbEntity
  8
4
100
AcDbLine
 10
378.073660352841
 20
758.5515228984359
 30
0.0
 11
373.073660352841
 21
750.951522898436
 31
0.0
  0
LINE
  5
DA
330
2
100
AcDbEntity
  8
4
100
AcDbLine
 10
378.073660352841
 20
756.9591970789215
 30
0.0
 11
374.121243128837
 21
750.951522898436
 31
0.0
  0
LINE
  5
DB
330
2
100
AcDbEntity
  8
4
100
AcDbLine
 10
378.073660352841
 20
756.9591970789215
 30
0.0
 11
395.8218867961994
 21
756.9591970789215
 31
0.0
  0
LINE
  5
DC
330
2
100
AcDbEntity
  8
4
100
AcDbLine
 10
320.073660352841
 20
770.551522898435
 30
0.0
 11
320.0736603528412
 21
769.5515228984359
 31
0.0
  0
LINE
  5
DD
330
2
100
AcDbEntity
  8
4
100
AcDbLine
 10
324.073660352841
 20
756.9591970789215
 30
0.0
 11
328.026077576845
 21
750.951522898436
 31
0.0
  0
LINE
  5
DE
330
2
100
AcDbEntity
  8
4
100
AcDbLine
 10
324.073660352841
 20
758.5515228984359
 30
0.0
 11
329.073660352841
 21
750.951522898436
 31
0.0
  0
LINE
  5
DF
330
2
100
AcDbEntity
  8
4
100
AcDbLine
 10
324.073660352841
 20
758.5515228984359
 30
0.0
 11
324.073660352841
 21
756.9591970789215
 31
0.0
  0
ARC
  5
E0
330
2
100
AcDbEntity
  8
4
100
AcDbCircle
 10
309.8374561938399
 20
768.5515228984355
 30
0.0
 40
1.0
100
AcDbArc
 50
90.0
 51
164.7448812969522
  0
ARC
  5
E1
330
2
100
AcDbEntity
  8
4
100
AcDbCircle
 10
304.4816031434571
 20
760.315149298021
 30
0.0
 40
2.0
100
AcDbArc
 50
279.4013854806579
 51
344.7448812969518
  0
ARC
  5
E2
330
2
100
AcDbEntity
  8
4
100
AcDbCircle
 10
304.0473324654072
 20
758.7228234785061
 30
0.0
 40
2.0
100
AcDbArc
 50
279.4013854806579
 51
344.7448812969518
  0
LINE
  5
E3
330
2
100
AcDbEntity
  8
4
100
AcDbLine
 10
308.8726923726024
 20
768.8146403042279
 30
0.0
 11
306.4111307859323
 21
759.7889144864366
 31
0.0
  0
LINE
  5
E4
330
2
100
AcDbEntity
  8
4
100
AcDbLine
 10
305.6393896747913
 20
756.9591970789215
 30
0.0
 11
324.073660352841
 21
756.9591970789215
 31
0.0
  0
LINE
  5
E5
330
2
100
AcDbEntity
  8
4
100
AcDbLine
 10
392.3098645118419
 20
769.5515228984355
 30
0.0
 11
309.8374561938401
 21
769.5515228984355
 31
0.0
  0
LINE
  5
E6
330
2
100
AcDbEntity
  8
4
100
AcDbLine
 10
382.073660352841
 20
770.5515228984355
 30
0.0
 11
320.073660352841
 21
770.551522898435
 31
0.0
  0
LINE
  5
E7
330
2
100
AcDbEntity
  8
4
100
AcDbLine
 10
324.073660352841
 20
758.5515228984359
 30
0.0
 11
378.073660352841
 21
758.5515228984359
 31
0.0
  0
LINE
  5
E8
330
2
100
AcDbEntity
  8
4
100
AcDbLine
 10
262.073660352841
 20
755.0515228984355
 30
0.0
 11
262.073660352841
 21
752.114317883595
 31
0.0
  0
ARC
  5
E9
330
2
100
AcDbEntity
  8
4
100
AcDbCircle
 10
263.0736603528408
 20
755.0515228984355
 30
0.0
 40
1.0
100
AcDbArc
 50
90.0
 51
180.0
  0
ARC
  5
EA
330
2
100
AcDbEntity
  8
4
100
AcDbCircle
 10
261.0736603528408
 20
752.114317883595
 30
0.0
 40
1.0
100
AcDbArc
 50
279.4013854806563
 51
0.0
  0
ARC
  5
EB
330
2
100
AcDbEntity
  8
4
100
AcDbCircle
 10
224.0736603528408
 20
749.9515228984355
 30
0.0
 40
1.0
100
AcDbArc
 50
90.0
 51
180.0
  0
LINE
  5
EC
330
2
100
AcDbEntity
  8
4
100
AcDbLine
 10
284.5736603528396
 20
756.0515228984355
 30
0.0
 11
263.073660352841
 21
756.0515228984355
 31
0.0
  0
LINE
  5
ED
330
2
100
AcDbEntity
  8
4
100
AcDbLine
 10
260.1726702538331
 20
750.9515228984355
 30
0.0
 11
284.5736603528396
 21
754.9916868328614
 31
0.0
  0
LINE
  5
EE
330
2
100
AcDbEntity
  8
4
100
AcDbLine
 10
269.3554169015629
 20
750.951522898436
 30
0.0
 11
284.5736603528396
 21
753.4712648469263
 31
0.0
  0
LINE
  5
EF
330
2
100
AcDbEntity
  8
4
100
AcDbLine
 10
478.0736603528408
 20
750.9515228984355
 30
0.0
 11
224.073660352841
 21
750.9515228984355
 31
0.0
  0
LINE
  5
F0
330
2
100
AcDbEntity
  8
4
100
AcDbLine
 10
441.9746504518496
 20
750.9515228984355
 30
0.0
 11
417.5736603528416
 21
754.9916868328619
 31
0.0
  0
LINE
  5
F1
330
2
100
AcDbEntity
  8
4
100
AcDbLine
 10
432.7919038041193
 20
750.951522898436
 30
0.0
 11
417.5736603528414
 21
753.4712648469263
 31
0.0
  0
LINE
  5
F2
330
2
100
AcDbEntity
  8
4
100
AcDbLine
 10
223.0736603528406
 20
633.6515228984354
 30
0.0
 11
223.0736603528406
 21
624.6515228984351
 31
0.0
  0
LINE
  5
F3
330
2
100
AcDbEntity
  8
4
100
AcDbLine
 10
479.0736603528406
 20
633.6515228984349
 30
0.0
 11
479.0736603528406
 21
624.6515228984351
 31
0.0
  0
LINE
  5
F4
330
2
100
AcDbEntity
  8
4
100
AcDbLine
 10
479.073660352841
 20
749.9515228984355
 30
0.0
 11
479.0736603528411
 21
733.6515228984358
 31
0.0
  0
LINE
  5
F5
330
2
100
AcDbEntity
  8
4
100
AcDbLine
 10
223.073660352841
 20
749.9515228984355
 30
0.0
 11
223.0736603528409
 21
733.6515228984354
 31
0.0
  0
LINE
  5
F6
330
2
100
AcDbEntity
  8
4
100
AcDbLine
 10
481.0736603528372
 20
666.1515228984351
 30
0.0
 11
481.0736603528354
 21
633.6515228984349
 31
0.0
  0
LINE
  5
F7
330
2
100
AcDbEntity
  8
4
100
AcDbLine
 10
480.0736603528406
 20
666.1515228984354
 30
0.0
 11
501.0736603528408
 21
666.1515228984351
 31
0.0
  0
LINE
  5
F8
330
2
100
AcDbEntity
  8
4
100
AcDbLine
 10
480.0736603528406
 20
701.1515228984351
 30
0.0
 11
501.0736603528408
 21
701.1515228984351
 31
0.0
  0
LINE
  5
F9
330
2
100
AcDbEntity
  8
4
100
AcDbLine
 10
560.0736603528408
 20
697.1515228984351
 30
0.0
 11
561.0736603528408
 21
696.1515228984351
 31
0.0
  0
LINE
  5
FA
330
2
100
AcDbEntity
  8
4
100
AcDbLine
 10
560.0736603528408
 20
697.1515228984351
 30
0.0
 11
560.0736603528408
 21
687.1515228984351
 31
0.0
  0
LINE
  5
FB
330
2
100
AcDbEntity
  8
4
100
AcDbLine
 10
560.0736603528408
 20
680.1515228984351
 30
0.0
 11
560.0736603528408
 21
670.1515228984354
 31
0.0
  0
LINE
  5
FC
330
2
100
AcDbEntity
  8
4
100
AcDbLine
 10
560.0736603528408
 20
670.1515228984351
 30
0.0
 11
561.0736603528408
 21
671.1515228984351
 31
0.0
  0
LINE
  5
FD
330
2
100
AcDbEntity
  8
4
100
AcDbLine
 10
561.0736603528408
 20
696.1515228984351
 30
0.0
 11
561.0736603528408
 21
671.1515228984351
 31
0.0
  0
ARC
  5
FE
330
2
100
AcDbEntity
  8
4
100
AcDbCircle
 10
502.0736603528408
 20
698.1515228984351
 30
0.0
 40
1.0
100
AcDbArc
 50
180.0
 51
270.0
  0
ARC
  5
FF
330
2
100
AcDbEntity
  8
4
100
AcDbCircle
 10
502.0736603528408
 20
669.1515228984351
 30
0.0
 40
1.0
100
AcDbArc
 50
90.0
 51
180.0
  0
LINE
  5
100
330
2
100
AcDbEntity
  8
4
100
AcDbLine
 10
501.0736603528408
 20
701.1515228984351
 30
0.0
 11
501.0736603528408
 21
666.1515228984351
 31
0.0
  0
ARC
  5
101
330
2
100
AcDbEntity
  8
4
100
AcDbCircle
 10
509.5736603528408
 20
683.6515228984351
 30
0.0
 40
3.5
100
AcDbArc
 50
90.0
 51
270.0
  0
LINE
  5
102
330
2
100
AcDbEntity
  8
4
100
AcDbLine
 10
509.5736603528408
 20
680.1515228984351
 30
0.0
 11
561.0736603528408
 21
680.1515228984351
 31
0.0
  0
LINE
  5
103
330
2
100
AcDbEntity
  8
4
100
AcDbLine
 10
509.5736603528408
 20
687.1515228984351
 30
0.0
 11
561.0736603528408
 21
687.1515228984351
 31
0.0
  0
LINE
  5
104
330
2
100
AcDbEntity
  8
4
100
AcDbLine
 10
502.0736603528408
 20
670.1515228984351
 30
0.0
 11
560.0736603528408
 21
670.1515228984351
 31
0.0
  0
LINE
  5
105
330
2
100
AcDbEntity
  8
4
100
AcDbLine
 10
502.0736603528408
 20
697.1515228984351
 30
0.0
 11
560.0736603528408
 21
697.1515228984351
 31
0.0
  0
LINE
  5
106
330
2
100
AcDbEntity
  8
4
100
AcDbLine
 10
480.0736603528408
 20
719.6515228984351
 30
0.0
 11
480.0736603528408
 21
647.6515228984351
 31
0.0
  0
LINE
  5
107
330
2
100
AcDbEntity
  8
4
100
AcDbLine
 10
479.0736603528408
 20
647.6515228984349
 30
0.0
 11
480.0736603528408
 21
647.6515228984351
 31
0.0
  0
LINE
  5
108
330
2
100
AcDbEntity
  8
4
100
AcDbLine
 10
479.0736603528408
 20
719.6515228984351
 30
0.0
 11
480.0736603528408
 21
719.6515228984351
 31
0.0
  0
LINE
  5
109
330
2
100
AcDbEntity
  8
4
100
AcDbLine
 10
223.0736603528408
 20
719.6515228984351
 30
0.0
 11
222.0736603528408
 21
719.6515228984351
 31
0.0
  0
LINE
  5
10A
330
2
100
AcDbEntity
  8
4
100
AcDbLine
 10
223.0736603528408
 20
647.6515228984349
 30
0.0
 11
222.0736603528408
 21
647.6515228984351
 31
0.0
  0
LINE
  5
10B
330
2
100
AcDbEntity
  8
4
100
AcDbLine
 10
222.0736603528408
 20
719.6515228984351
 30
0.0
 11
222.0736603528408
 21
647.6515228984351
 31
0.0
  0
LINE
  5
10C
330
2
100
AcDbEntity
  8
4
100
AcDbLine
 10
226.0736603528406
 20
635.6515228984354
 30
0.0
 11
223.0736603528406
 21
635.6515228984354
 31
0.0
  0
LINE
  5
10D
330
2
100
AcDbEntity
  8
4
100
AcDbLine
 10
226.073660352841
 20
731.6515228984354
 30
0.0
 11
223.0736603528409
 21
731.6515228984354
 31
0.0
  0
LINE
  5
10E
330
2
100
AcDbEntity
  8
4
100
AcDbLine
 10
479.0736603528411
 20
731.6515228984354
 30
0.0
 11
479.0736603528409
 21
635.6515228984351
 31
0.0
  0
LINE
  5
10F
330
2
100
AcDbEntity
  8
4
100
AcDbLine
 10
223.0736603528409
 20
731.6515228984354
 30
0.0
 11
223.0736603528406
 21
635.6515228984354
 31
0.0
  0
LINE
  5
110
330
2
100
AcDbEntity
  8
4
100
AcDbLine
 10
479.0736603528406
 20
635.6515228984354
 30
0.0
 11
476.0736603528406
 21
635.6515228984354
 31
0.0
  0
LINE
  5
111
330
2
100
AcDbEntity
  8
4
100
AcDbLine
 10
479.073660352841
 20
731.6515228984354
 30
0.0
 11
476.073660352841
 21
731.6515228984354
 31
0.0
  0
LINE
  5
112
330
2
100
AcDbEntity
  8
4
100
AcDbLine
 10
481.0736603528411
 20
733.6515228984358
 30
0.0
 11
481.0736603528393
 21
701.1515228984351
 31
0.0
  0
LINE
  5
113
330
2
100
AcDbEntity
  8
4
100
AcDbLine
 10
221.073660352841
 20
733.6515228984354
 30
0.0
 11
221.073660352841
 21
701.1515228984358
 31
0.0
  0
LINE
  5
114
330
2
100
AcDbEntity
  8
4
100
AcDbLine
 10
476.0736603528409
 20
732.6515228984363
 30
0.0
 11
476.0736603528406
 21
634.6515228984358
 31
0.0
  0
LINE
  5
115
330
2
100
AcDbEntity
  8
4
100
AcDbLine
 10
226.073660352841
 20
732.6515228984354
 30
0.0
 11
226.0736603528406
 21
634.6515228984354
 31
0.0
  0
ARC
  5
116
330
2
100
AcDbEntity
  8
4
100
AcDbCircle
 10
496.0736603528405
 20
768.6515228984354
 30
0.0
 40
5.0
100
AcDbArc
 50
0.0
 51
90.0
  0
ARC
  5
117
330
2
100
AcDbEntity
  8
4
100
AcDbCircle
 10
451.0736603528405
 20
768.6515228984354
 30
0.0
 40
5.0
100
AcDbArc
 50
90.0
 51
180.0
  0
LINE
  5
118
330
2
100
AcDbEntity
  8
L-CENTER
 48
3.0
100
AcDbLine
 10
481.0736603528405
 20
768.7715228984353
 30
0.0
 11
481.0736603528405
 21
738.531522898435
 31
0.0
  0
ARC
  5
119
330
2
100
AcDbEntity
  8
4
100
AcDbCircle
 10
481.0736603528405
 20
753.6515228984354
 30
0.0
 40
9.0
100
AcDbArc
 50
257.1604115930984
 51
125.7953675436853
  0
LINE
  5
11A
330
2
100
AcDbEntity
  8
4
100
AcDbLine
 10
446.0736603528405
 20
750.9515228984355
 30
0.0
 11
446.0736603528405
 21
768.6515228984354
 31
0.0
  0
LINE
  5
11B
330
2
100
AcDbEntity
  8
L-CENTER
 48
3.0
100
AcDbLine
 10
496.1936603528404
 20
753.6515228984354
 30
0.0
 11
465.9536603528406
 21
753.6515228984354
 31
0.0
  0
LINE
  5
11C
330
2
100
AcDbEntity
  8
4
100
AcDbLine
 10
496.0736603528405
 20
773.6515228984354
 30
0.0
 11
451.0736603528405
 21
773.6515228984354
 31
0.0
  0
ARC
  5
11D
330
2
100
AcDbEntity
  8
4
100
AcDbCircle
 10
251.073660352841
 20
768.6515228984354
 30
0.0
 40
5.0
100
AcDbArc
 50
0.0
 51
90.0
  0
LINE
  5
11E
330
2
100
AcDbEntity
  8
L-CENTER
 48
3.0
100
AcDbLine
 10
221.0736603528405
 20
768.7715228984353
 30
0.0
 11
221.0736603528405
 21
738.5315228984355
 31
0.0
  0
ARC
  5
11F
330
2
100
AcDbEntity
  8
4
100
AcDbCircle
 10
221.0736603528405
 20
753.6515228984354
 30
0.0
 40
9.0
100
AcDbArc
 50
54.20463245631456
 51
282.8395884069076
  0
LINE
  5
120
330
2
100
AcDbEntity
  8
4
100
AcDbLine
 10
256.0736603528405
 20
750.9515228984355
 30
0.0
 11
256.0736603528405
 21
768.6515228984354
 31
0.0
  0
ARC
  5
121
330
2
100
AcDbEntity
  8
4
100
AcDbCircle
 10
206.073660352841
 20
768.6515228984354
 30
0.0
 40
5.0
100
AcDbArc
 50
90.0
 51
180.0
  0
LINE
  5
122
330
2
100
AcDbEntity
  8
L-CENTER
 48
3.0
100
AcDbLine
 10
236.1936603528409
 20
753.6515228984354
 30
0.0
 11
205.9536603528406
 21
753.6515228984354
 31
0.0
  0
LINE
  5
123
330
2
100
AcDbEntity
  8
4
100
AcDbLine
 10
251.073660352841
 20
773.6515228984354
 30
0.0
 11
206.073660352841
 21
773.6515228984354
 31
0.0
  0
LINE
  5
124
330
2
100
AcDbEntity
  8
L-CENTER
 48
3.0
100
AcDbLine
 10
567.3411366074029
 20
683.6515228984324
 30
0.0
 11
137.0736603528405
 21
683.6515228984354
 31
0.0
  0
LINE
  5
125
330
2
100
AcDbEntity
  8
4
100
AcDbLine
 10
476.073660352841
 20
732.6515228984363
 30
0.0
 11
226.073660352841
 21
732.6515228984354
 31
0.0
  0
LINE
  5
126
330
2
100
AcDbEntity
  8
4
100
AcDbLine
 10
481.0736603528411
 20
733.6515228984358
 30
0.0
 11
221.073660352841
 21
733.6515228984354
 31
0.0
  0
LINE
  5
127
330
2
100
AcDbEntity
  8
4
100
AcDbLine
 10
479.0736603528411
 20
739.6515228984358
 30
0.0
 11
223.073660352841
 21
739.6515228984354
 31
0.0
  0
ARC
  5
128
330
2
100
AcDbEntity
  8
4
100
AcDbCircle
 10
496.0736603528405
 20
598.6515228984351
 30
0.0
 40
5.0
100
AcDbArc
 50
270.0
 51
0.0
  0
ARC
  5
129
330
2
100
AcDbEntity
  8
4
100
AcDbCircle
 10
451.0736603528405
 20
598.6515228984351
 30
0.0
 40
5.0
100
AcDbArc
 50
180.0
 51
270.0
  0
LINE
  5
12A
330
2
100
AcDbEntity
  8
L-CENTER
 48
3.0
100
AcDbLine
 10
481.0736603528405
 20
628.7715228984353
 30
0.0
 11
481.0736603528405
 21
598.531522898435
 31
0.0
  0
CIRCLE
  5
12B
330
2
100
AcDbEntity
  8
4
100
AcDbCircle
 10
481.0736603528405
 20
613.6515228984351
 30
0.0
 40
9.0
  0
LINE
  5
12C
330
2
100
AcDbEntity
  8
4
100
AcDbLine
 10
446.0736603528405
 20
598.6515228984354
 30
0.0
 11
446.0736603528406
 21
622.9431895651014
 31
0.0
  0
LINE
  5
12D
330
2
100
AcDbEntity
  8
4
100
AcDbLine
 10
496.0736603528405
 20
593.6515228984351
 30
0.0
 11
451.0736603528405
 21
593.6515228984351
 31
0.0
  0
LINE
  5
12E
330
2
100
AcDbEntity
  8
L-CENTER
 48
3.0
100
AcDbLine
 10
496.1936603528404
 20
613.6515228984351
 30
0.0
 11
465.9536603528406
 21
613.6515228984351
 31
0.0
  0
ARC
  5
12F
330
2
100
AcDbEntity
  8
4
100
AcDbCircle
 10
398.7085747727899
 20
607.0450396042536
 30
0.0
 40
2.0
100
AcDbArc
 50
106.2602047083099
 51
164.7448812969518
  0
ARC
  5
130
330
2
100
AcDbEntity
  8
4
100
AcDbCircle
 10
393.3098645118414
 20
598.6515228984354
 30
0.0
 40
1.0
100
AcDbArc
 50
270.0
 51
344.7448812969523
  0
LINE
  5
131
330
2
100
AcDbEntity
  8
4
100
AcDbLine
 10
394.2746283330791
 20
598.3884054926432
 30
0.0
 11
396.7790471303144
 21
607.5712744158377
 31
0.0
  0
ARC
  5
132
330
2
100
AcDbEntity
  8
4
100
AcDbCircle
 10
303.4387459328916
 20
607.0450396042536
 30
0.0
 40
2.0
100
AcDbArc
 50
15.25511870304819
 51
73.73979529169013
  0
ARC
  5
133
330
2
100
AcDbEntity
  8
4
100
AcDbCircle
 10
308.8374561938397
 20
598.6515228984354
 30
0.0
 40
1.0
100
AcDbArc
 50
195.2551187030478
 51
270.0
  0
LINE
  5
134
330
2
100
AcDbEntity
  8
4
100
AcDbLine
 10
307.8726923726019
 20
598.3884054926432
 30
0.0
 11
305.3682735753671
 21
607.5712744158377
 31
0.0
  0
LINE
  5
135
330
2
100
AcDbEntity
  8
4
100
AcDbLine
 10
308.8374561938397
 20
597.6515228984354
 30
0.0
 11
393.3098645118414
 21
597.6515228984351
 31
0.0
  0
LINE
  5
136
330
2
100
AcDbEntity
  8
4
100
AcDbLine
 10
305.0736603528405
 20
608.6515228984351
 30
0.0
 11
397.5172681684619
 21
608.6515228984351
 31
0.0
  0
LINE
  5
137
330
2
100
AcDbEntity
  8
4
100
AcDbLine
 10
446.5736603528402
 20
624.6515228984351
 30
0.0
 11
391.7165174956979
 21
608.6515228984351
 31
0.0
  0
LINE
  5
138
330
2
100
AcDbEntity
  8
4
100
AcDbLine
 10
451.9308032099835
 20
624.6515228984349
 30
0.0
 11
398.1485747727895
 21
608.9650396042534
 31
0.0
  0
ARC
  5
139
330
2
100
AcDbEntity
  8
4
100
AcDbCircle
 10
251.0736603528405
 20
598.6515228984354
 30
0.0
 40
5.0
100
AcDbArc
 50
270.0
 51
0.0
  0
CIRCLE
  5
13A
330
2
100
AcDbEntity
  8
4
100
AcDbCircle
 10
221.0736603528405
 20
613.6515228984354
 30
0.0
 40
9.0
  0
LINE
  5
13B
330
2
100
AcDbEntity
  8
L-CENTER
 48
3.0
100
AcDbLine
 10
221.0736603528405
 20
628.7715228984353
 30
0.0
 11
221.0736603528405
 21
598.5315228984352
 31
0.0
  0
LINE
  5
13C
330
2
100
AcDbEntity
  8
4
100
AcDbLine
 10
256.073660352841
 20
598.6515228984354
 30
0.0
 11
256.0736603528406
 21
622.9431895651014
 31
0.0
  0
ARC
  5
13D
330
2
100
AcDbEntity
  8
4
100
AcDbCircle
 10
206.0736603528405
 20
598.6515228984354
 30
0.0
 40
5.0
100
AcDbArc
 50
180.0
 51
270.0
  0
LINE
  5
13E
330
2
100
AcDbEntity
  8
L-CENTER
 48
3.0
100
AcDbLine
 10
236.1936603528404
 20
613.6515228984354
 30
0.0
 11
205.9536603528406
 21
613.6515228984354
 31
0.0
  0
LINE
  5
13F
330
2
100
AcDbEntity
  8
4
100
AcDbLine
 10
251.0736603528405
 20
593.6515228984354
 30
0.0
 11
206.0736603528405
 21
593.6515228984354
 31
0.0
  0
LINE
  5
140
330
2
100
AcDbEntity
  8
4
100
AcDbLine
 10
476.0736603528406
 20
634.6515228984356
 30
0.0
 11
226.0736603528406
 21
634.6515228984356
 31
0.0
  0
LINE
  5
141
330
2
100
AcDbEntity
  8
4
100
AcDbLine
 10
481.0736603528406
 20
633.6515228984349
 30
0.0
 11
221.0736603528406
 21
633.6515228984351
 31
0.0
  0
LINE
  5
142
330
2
100
AcDbEntity
  8
4
100
AcDbLine
 10
479.0736603528406
 20
624.6515228984351
 30
0.0
 11
223.0736603528406
 21
624.6515228984351
 31
0.0
  0
LINE
  5
143
330
2
100
AcDbEntity
  8
4
100
AcDbLine
 10
250.2165174956975
 20
624.6515228984349
 30
0.0
 11
303.9987459328916
 21
608.9650396042534
 31
0.0
  0
LINE
  5
144
330
2
100
AcDbEntity
  8
4
100
AcDbLine
 10
255.5736603528409
 20
624.6515228984351
 30
0.0
 11
310.4308032099837
 21
608.6515228984351
 31
0.0
  0
LINE
  5
145
330
2
100
AcDbEntity
  8
4
100
AcDbLine
 10
201.073660352841
 20
768.6515228984354
 30
0.0
 11
201.0736603528405
 21
598.6515228984354
 31
0.0
  0
LINE
  5
146
330
2
100
AcDbEntity
  8
L-CENTER
 48
3.0
100
AcDbLine
 10
351.0736603528413
 20
869.6017584466631
 30
0.0
 11
351.0736603528403
 21
497.7012873502049
 31
0.0
  0
LINE
  5
147
330
2
100
AcDbEntity
  8
4
100
AcDbLine
 10
501.0736603528405
 20
768.6515228984354
 30
0.0
 11
501.0736603528405
 21
598.6515228984351
 31
0.0
  0
ARC
  5
15C
330
2
100
AcDbEntity
  8
4
100
AcDbCircle
 10
929.5349326739747
 20
305.4842429537555
 30
0.0
 40
1.0
100
AcDbArc
 50
0.0
 51
90.0
  0
LINE
  5
15D
330
2
100
AcDbEntity
  8
4
100
AcDbLine
 10
913.2349326739745
 20
306.4842429537555
 30
0.0
 11
913.2349326739745
 21
308.4842429537555
 31
0.0
  0
LINE
  5
15E
330
2
100
AcDbEntity
  8
4
100
AcDbLine
 10
912.1649256725741
 20
308.4842429537555
 30
0.0
 11
913.2349326739745
 21
308.4842429537555
 31
0.0
  0
LINE
  5
15F
330
2
100
AcDbEntity
  8
4
100
AcDbLine
 10
913.2349326739745
 20
306.4842429537555
 30
0.0
 11
919.2349326739745
 21
306.4842429537555
 31
0.0
  0
LINE
  5
160
330
2
100
AcDbEntity
  8
4
100
AcDbLine
 10
929.5349326739747
 20
306.4842429537555
 30
0.0
 11
919.2349326739745
 21
306.4842429537555
 31
0.0
  0
ARC
  5
161
330
2
100
AcDbEntity
  8
4
100
AcDbCircle
 10
562.2349326739744
 20
301.4842429537555
 30
0.0
 40
350.0
100
AcDbArc
 50
0.0
 51
6.908068832753678
  0
LINE
  5
163
330
2
100
AcDbEntity
  8
L-CENTER
 48
3.0
100
AcDbLine
 10
907.3052510430825
 20
282.4072913931402
 30
0.0
 11
942.5059418725796
 21
282.4072913931402
 31
0.0
  0
ARC
  5
164
330
2
100
AcDbEntity
  8
4
100
AcDbCircle
 10
948.1349326739746
 20
219.7204471127563
 30
0.0
 40
1.0
100
AcDbArc
 50
0.0
 51
74.74488129694508
  0
ARC
  5
165
330
2
100
AcDbEntity
  8
4
100
AcDbCircle
 10
939.8985590735601
 20
225.0763001631396
 30
0.0
 40
2.0
100
AcDbArc
 50
189.4013854806434
 51
254.744881296942
  0
ARC
  5
166
330
2
100
AcDbEntity
  8
4
100
AcDbCircle
 10
938.3062332540449
 20
225.5105708411893
 30
0.0
 40
2.0
100
AcDbArc
 50
189.4013854806434
 51
254.744881296942
  0
LINE
  5
167
330
2
100
AcDbEntity
  8
4
100
AcDbLine
 10
939.3723242619758
 20
223.1467725206642
 30
0.0
 11
937.779998442461
 21
223.5810431987138
 31
0.0
  0
LINE
  5
168
330
2
100
AcDbEntity
  8
4
100
AcDbLine
 10
948.398050079767
 20
220.6852109339941
 30
0.0
 11
937.7799984424605
 21
223.581043198714
 31
0.0
  0
LINE
  5
169
330
2
100
AcDbEntity
  8
4
100
AcDbLine
 10
930.5349326739743
 20
269.3852330527657
 30
0.0
 11
937.9254226497583
 21
224.749600525756
 31
0.0
  0
LINE
  5
16A
330
2
100
AcDbEntity
  8
4
100
AcDbLine
 10
930.5349326739747
 20
260.2024864050336
 30
0.0
 11
936.3330968302434
 21
225.1838712038059
 31
0.0
  0
LINE
  5
170
330
2
100
AcDbEntity
  8
4
100
AcDbLine
 10
1043.234932673975
 20
160.4842429537555
 30
0.0
 11
1043.234932673975
 21
200.9842429537555
 31
0.0
  0
LINE
  5
171
330
2
100
AcDbEntity
  8
4
100
AcDbLine
 10
973.2349326739741
 20
197.4842429537555
 30
0.0
 11
973.2349326739741
 21
200.9842429537555
 31
0.0
  0
LINE
  5
172
330
2
100
AcDbEntity
  8
4
100
AcDbLine
 10
968.2349326739741
 20
158.4842429537555
 30
0.0
 11
968.2349326739741
 21
198.4842429537555
 31
0.0
  0
LINE
  5
173
330
2
100
AcDbEntity
  8
4
100
AcDbLine
 10
949.1349326739746
 20
209.4842429537555
 30
0.0
 11
950.1349326739746
 21
209.4842429537555
 31
0.0
  0
LINE
  5
174
330
2
100
AcDbEntity
  8
4
100
AcDbLine
 10
936.5426068544602
 20
205.4842429537555
 30
0.0
 11
930.5349326739747
 21
201.5318257297515
 31
0.0
  0
LINE
  5
175
330
2
100
AcDbEntity
  8
4
100
AcDbLine
 10
938.1349326739746
 20
205.4842429537555
 30
0.0
 11
930.5349326739747
 21
200.4842429537555
 31
0.0
  0
LINE
  5
176
330
2
100
AcDbEntity
  8
4
100
AcDbLine
 10
938.1349326739746
 20
205.4842429537555
 30
0.0
 11
936.5426068544602
 21
205.4842429537555
 31
0.0
  0
LINE
  5
177
330
2
100
AcDbEntity
  8
4
100
AcDbLine
 10
949.1349326739746
 20
147.4842429537555
 30
0.0
 11
950.1349326739742
 21
147.4842429537555
 31
0.0
  0
LINE
  5
178
330
2
100
AcDbEntity
  8
4
100
AcDbLine
 10
938.1349326739746
 20
151.4842429537555
 30
0.0
 11
936.5426068544598
 21
151.4842429537553
 31
0.0
  0
LINE
  5
179
330
2
100
AcDbEntity
  8
4
100
AcDbLine
 10
938.1349326739746
 20
151.4842429537555
 30
0.0
 11
930.5349326739747
 21
156.4842429537555
 31
0.0
  0
LINE
  5
17A
330
2
100
AcDbEntity
  8
4
100
AcDbLine
 10
936.5426068544602
 20
151.4842429537555
 30
0.0
 11
930.5349326739747
 21
155.4366601777594
 31
0.0
  0
LINE
  5
17B
330
2
100
AcDbEntity
  8
4
100
AcDbLine
 10
950.1349326739742
 20
147.4842429537555
 30
0.0
 11
950.1349326739746
 21
209.4842429537555
 31
0.0
  0
LINE
  5
17C
330
2
100
AcDbEntity
  8
4
100
AcDbLine
 10
938.1349326739746
 20
205.4842429537555
 30
0.0
 11
938.1349326739746
 21
184.9842429537555
 31
0.0
  0
LINE
  5
17D
330
2
100
AcDbEntity
  8
4
100
AcDbLine
 10
950.1349326739746
 20
198.4842429537555
 30
0.0
 11
968.234932673975
 21
198.4842429537555
 31
0.0
  0
LINE
  5
17E
330
2
100
AcDbEntity
  8
4
100
AcDbLine
 10
950.1349326739746
 20
158.4842429537555
 30
0.0
 11
968.234932673975
 21
158.4842429537555
 31
0.0
  0
ARC
  5
17F
330
2
100
AcDbEntity
  8
4
100
AcDbCircle
 10
948.1349326739746
 20
137.2480387947546
 30
0.0
 40
1.0
100
AcDbArc
 50
285.2551187030549
 51
0.0
  0
ARC
  5
180
330
2
100
AcDbEntity
  8
4
100
AcDbCircle
 10
939.8985590735601
 20
131.8921857443713
 30
0.0
 40
2.0
100
AcDbArc
 50
105.2551187030581
 51
170.5986145193566
  0
ARC
  5
181
330
2
100
AcDbEntity
  8
4
100
AcDbCircle
 10
938.3062332540449
 20
131.4579150663217
 30
0.0
 40
2.0
100
AcDbArc
 50
105.2551187030581
 51
170.5986145193566
  0
LINE
  5
182
330
2
100
AcDbEntity
  8
4
100
AcDbLine
 10
939.3723242619758
 20
133.8217133868468
 30
0.0
 11
937.779998442461
 21
133.3874427087972
 31
0.0
  0
LINE
  5
183
330
2
100
AcDbEntity
  8
4
100
AcDbLine
 10
948.398050079767
 20
136.2832749735169
 30
0.0
 11
939.3723242619758
 21
133.8217133868468
 31
0.0
  0
LINE
  5
184
330
2
100
AcDbEntity
  8
L-CENTER
 48
3.0
100
AcDbLine
 10
907.3052510430825
 20
74.56119448486902
 30
0.0
 11
942.5059418725796
 21
74.56119448486902
 31
0.0
  0
LINE
  5
185
330
2
100
AcDbEntity
  8
4
100
AcDbLine
 10
930.5349326739743
 20
87.5832528547453
 30
0.0
 11
937.9254226497583
 21
132.2188853817547
 31
0.0
  0
LINE
  5
186
330
2
100
AcDbEntity
  8
4
100
AcDbLine
 10
930.5349326739747
 20
96.76599950247737
 30
0.0
 11
936.3330968302434
 21
131.7846147037053
 31
0.0
  0
LINE
  5
187
330
2
100
AcDbEntity
  8
4
100
AcDbLine
 10
936.5426068544602
 20
151.4842429537555
 30
0.0
 11
936.5426068544602
 21
133.7360165103971
 31
0.0
  0
LINE
  5
188
330
2
100
AcDbEntity
  8
4
100
AcDbLine
 10
973.2349326739741
 20
200.9842429537555
 30
0.0
 11
1043.234932673975
 21
200.9842429537555
 31
0.0
  0
LINE
  5
189
330
2
100
AcDbEntity
  8
4
100
AcDbLine
 10
968.234932673975
 20
159.4842429537555
 30
0.0
 11
1042.234932673975
 21
159.4842429537555
 31
0.0
  0
LINE
  5
18A
330
2
100
AcDbEntity
  8
4
100
AcDbLine
 10
968.234932673975
 20
197.4842429537555
 30
0.0
 11
1042.234932673975
 21
197.4842429537555
 31
0.0
  0
LINE
  5
18B
330
2
100
AcDbEntity
  8
4
100
AcDbLine
 10
949.1349326739746
 20
137.2480387947546
 30
0.0
 11
949.1349326739746
 21
219.7204471127563
 31
0.0
  0
LINE
  5
18C
330
2
100
AcDbEntity
  8
4
100
AcDbLine
 10
936.5426068544602
 20
223.9185136318051
 30
0.0
 11
936.5426068544602
 21
205.4842429537555
 31
0.0
  0
LINE
  5
193
330
2
100
AcDbEntity
  8
4
100
AcDbLine
 10
874.2349326739745
 20
355.9842429537555
 30
0.0
 11
874.2349326739745
 21
359.9842429537555
 31
0.0
  0
LINE
  5
194
330
2
100
AcDbEntity
  8
4
100
AcDbLine
 10
875.7349326739745
 20
355.9842429537555
 30
0.0
 11
875.7349326739745
 21
353.9842429537555
 31
0.0
  0
LINE
  5
195
330
2
100
AcDbEntity
  8
4
100
AcDbLine
 10
868.2349326739745
 20
358.4842429537555
 30
0.0
 11
868.2349326739745
 21
355.4842429537555
 31
0.0
  0
LINE
  5
196
330
2
100
AcDbEntity
  8
4
100
AcDbLine
 10
869.7351776739747
 20
359.4842429537555
 30
0.0
 11
869.7351776739747
 21
358.4842429537555
 31
0.0
  0
LINE
  5
197
330
2
100
AcDbEntity
  8
4
100
AcDbLine
 10
875.7349326739745
 20
355.9842429537555
 30
0.0
 11
868.2349326739741
 21
355.9842429537553
 31
0.0
  0
LINE
  5
198
330
2
100
AcDbEntity
  8
4
100
AcDbLine
 10
875.7349326739745
 20
353.9842429537555
 30
0.0
 11
868.0349826739748
 21
353.9842429537557
 31
0.0
  0
LINE
  5
19A
330
2
100
AcDbEntity
  8
4
100
AcDbLine
 10
858.2349326739745
 20
358.4842429537555
 30
0.0
 11
858.2349326739745
 21
355.4842429537555
 31
0.0
  0
LINE
  5
19B
330
2
100
AcDbEntity
  8
4
100
AcDbLine
 10
856.7349326739745
 20
359.4842429537555
 30
0.0
 11
856.7349326739745
 21
358.4842429537555
 31
0.0
  0
LINE
  5
19C
330
2
100
AcDbEntity
  8
4
100
AcDbLine
 10
850.7349326739745
 20
355.9842429537555
 30
0.0
 11
850.7349326739745
 21
353.9842429537555
 31
0.0
  0
LINE
  5
19D
330
2
100
AcDbEntity
  8
4
100
AcDbLine
 10
852.2349326739745
 20
355.9842429537555
 30
0.0
 11
852.2349326739745
 21
359.9842429537555
 31
0.0
  0
LINE
  5
19E
330
2
100
AcDbEntity
  8
4
100
AcDbLine
 10
858.2349326739741
 20
355.9842429537553
 30
0.0
 11
850.7349326739745
 21
355.9842429537555
 31
0.0
  0
LINE
  5
19F
330
2
100
AcDbEntity
  8
4
100
AcDbLine
 10
858.4348851739746
 20
353.9842429537557
 30
0.0
 11
850.7349326739745
 21
353.9842429537555
 31
0.0
  0
LINE
  5
1A0
330
2
100
AcDbEntity
  8
4
100
AcDbLine
 10
874.2349326739745
 20
359.9842429537555
 30
0.0
 11
852.2349326739745
 21
359.9842429537555
 31
0.0
  0
LINE
  5
1A1
330
2
100
AcDbEntity
  8
4
100
AcDbLine
 10
868.2349326739745
 20
355.4842429537555
 30
0.0
 11
858.2349326739745
 21
355.4842429537555
 31
0.0
  0
LINE
  5
1A2
330
2
100
AcDbEntity
  8
4
100
AcDbLine
 10
869.7351776739747
 20
358.4842429537555
 30
0.0
 11
856.7349326739745
 21
358.4842429537555
 31
0.0
  0
LINE
  5
1A3
330
2
100
AcDbEntity
  8
4
100
AcDbLine
 10
869.7351776739747
 20
359.4842429537555
 30
0.0
 11
856.7349326739745
 21
359.4842429537555
 31
0.0
  0
LINE
  5
1AE
330
2
100
AcDbEntity
  8
4
100
AcDbLine
 10
882.2349326739745
 20
349.9681481625648
 30
0.0
 11
882.2349326739745
 21
352.4842429537555
 31
0.0
  0
ARC
  5
1AF
330
2
100
AcDbEntity
  8
4
100
AcDbCircle
 10
867.5474326739745
 20
351.6583129537555
 30
0.0
 40
1.8259875
100
AcDbArc
 50
38.0711599999965
 51
141.9288400000035
  0
ARC
  5
1B0
330
2
100
AcDbEntity
  8
4
100
AcDbCircle
 10
863.2349326739745
 20
347.2305779537553
 30
0.0
 40
6.253744999999999
100
AcDbArc
 50
62.63066799999888
 51
117.3693320000011
  0
LINE
  5
1B1
330
2
100
AcDbEntity
  8
4
100
AcDbLine
 10
860.3601776739747
 20
352.7842904537554
 30
0.0
 11
860.3601776739747
 21
350.4842429537555
 31
0.0
  0
LINE
  5
1B2
330
2
100
AcDbEntity
  8
4
100
AcDbLine
 10
866.1099326739745
 20
352.7842904537554
 30
0.0
 11
866.1099326739745
 21
350.4842429537555
 31
0.0
  0
LINE
  5
1B3
330
2
100
AcDbEntity
  8
4
100
AcDbLine
 10
868.9849326739745
 20
352.7842904537554
 30
0.0
 11
868.9849326739745
 21
350.4842429537555
 31
0.0
  0
LINE
  5
1B4
330
2
100
AcDbEntity
  8
4
100
AcDbLine
 10
868.984932673975
 20
352.4842429537555
 30
0.0
 11
882.2349326739745
 21
352.4842429537555
 31
0.0
  0
LINE
  5
1B5
330
2
100
AcDbEntity
  8
4
100
AcDbLine
 10
859.7349326739745
 20
317.9842429537555
 30
0.0
 11
866.7349326739745
 21
317.9842429537555
 31
0.0
  0
LINE
  5
1B6
330
2
100
AcDbEntity
  8
4
100
AcDbLine
 10
859.7349326739745
 20
310.9842429537555
 30
0.0
 11
866.7349326739745
 21
310.9842429537555
 31
0.0
  0
LINE
  5
1B7
330
2
100
AcDbEntity
  8
4
100
AcDbLine
 10
859.7349326739745
 20
310.9842429537555
 30
0.0
 11
859.7349326739745
 21
317.9842429537555
 31
0.0
  0
LINE
  5
1B8
330
2
100
AcDbEntity
  8
4
100
AcDbLine
 10
866.7349326739745
 20
310.9842429537555
 30
0.0
 11
866.7349326739745
 21
317.9842429537555
 31
0.0
  0
LINE
  5
1B9
330
2
100
AcDbEntity
  8
4
100
AcDbLine
 10
857.4849326739745
 20
352.7840454537554
 30
0.0
 11
857.4849326739745
 21
350.4842429537555
 31
0.0
  0
LINE
  5
1BA
330
2
100
AcDbEntity
  8
4
100
AcDbLine
 10
844.2349326739745
 20
349.9681481625648
 30
0.0
 11
844.2349326739745
 21
352.4842429537555
 31
0.0
  0
LINE
  5
1BB
330
2
100
AcDbEntity
  8
4
100
AcDbLine
 10
844.2349326739745
 20
352.4842429537555
 30
0.0
 11
857.4849326739745
 21
352.4842429537555
 31
0.0
  0
ARC
  5
1BC
330
2
100
AcDbEntity
  8
4
100
AcDbCircle
 10
821.7394900197282
 20
342.9796856080018
 30
0.0
 40
5.0
100
AcDbArc
 50
96.90806883277081
 51
173.0919311672463
  0
ARC
  5
1BD
330
2
100
AcDbEntity
  8
4
100
AcDbCircle
 10
1164.234932673975
 20
301.4842429537555
 30
0.0
 40
350.0
100
AcDbArc
 50
173.0919311672463
 51
180.0
  0
ARC
  5
1BE
330
2
100
AcDbEntity
  8
4
100
AcDbCircle
 10
863.2349326739745
 20
0.4842429537554835
 30
0.0
 40
350.0
100
AcDbArc
 50
83.09193116722949
 51
96.90806883277051
  0
ARC
  5
1BF
330
2
100
AcDbEntity
  8
4
100
AcDbCircle
 10
863.2349326739745
 20
301.4842429537555
 30
0.0
 40
13.5
100
AcDbArc
 50
105.0261137591184
 51
74.97388624088157
  0
ARC
  5
1C0
330
2
100
AcDbEntity
  8
4
100
AcDbCircle
 10
858.9226776739742
 20
351.6583129537555
 30
0.0
 40
1.8259875
100
AcDbArc
 50
38.0711599999965
 51
141.9288400000035
  0
LINE
  5
1C1
330
2
100
AcDbEntity
  8
4
100
AcDbLine
 10
868.9849326739745
 20
350.4842429537555
 30
0.0
 11
857.4849326739745
 21
350.4842429537555
 31
0.0
  0
LINE
  5
1C2
330
2
100
AcDbEntity
  8
4
100
AcDbLine
 10
867.5474326739745
 20
353.4842429537555
 30
0.0
 11
858.9226776739742
 21
353.4842429537555
 31
0.0
  0
CIRCLE
  5
1C3
330
2
100
AcDbEntity
  8
4
100
AcDbCircle
 10
863.2349326739745
 20
301.4842429537555
 30
0.0
 40
36.0
  0
LINE
  5
1C4
330
2
100
AcDbEntity
  8
4
100
AcDbLine
 10
805.2349326739745
 20
306.4842429537555
 30
0.0
 11
813.2349326739745
 21
306.4842429537555
 31
0.0
  0
ARC
  5
1C5
330
2
100
AcDbEntity
  8
4
100
AcDbCircle
 10
805.2349326739745
 20
305.4842429537555
 30
0.0
 40
1.0
100
AcDbArc
 50
90.0
 51
180.0
  0
ARC
  5
1C6
330
2
100
AcDbEntity
  8
4
100
AcDbCircle
 10
778.2349326739745
 20
220.7204471127563
 30
0.0
 40
1.0
100
AcDbArc
 50
105.2551187030549
 51
180.0
  0
LINE
  5
1C7
330
2
100
AcDbEntity
  8
4
100
AcDbLine
 10
777.9718152681826
 20
221.6852109339941
 30
0.0
 11
788.8274041647113
 21
224.6458260875926
 31
0.0
  0
ARC
  5
1C8
330
2
100
AcDbEntity
  8
4
100
AcDbCircle
 10
788.3011693531271
 20
226.5753537300682
 30
0.0
 40
2.0
100
AcDbArc
 50
285.255118703058
 51
343.7190237230148
  0
LINE
  5
1C9
330
2
100
AcDbEntity
  8
4
100
AcDbLine
 10
790.2209662088912
 20
226.0146577049366
 30
0.0
 11
804.2349326739745
 21
273.9978206855251
 31
0.0
  0
LINE
  5
1CA
330
2
100
AcDbEntity
  8
4
100
AcDbLine
 10
814.304939675375
 20
308.4842429537555
 30
0.0
 11
813.2349326739745
 21
308.4842429537555
 31
0.0
  0
LINE
  5
1CB
330
2
100
AcDbEntity
  8
4
100
AcDbLine
 10
788.2113278160546
 20
205.4842429537555
 30
0.0
 11
789.9095522975754
 21
205.4842429537555
 31
0.0
  0
LINE
  5
1CC
330
2
100
AcDbEntity
  8
4
100
AcDbLine
 10
788.211327816055
 20
205.4842429537555
 30
0.0
 11
804.2349326739745
 21
200.4842429537553
 31
0.0
  0
LINE
  5
1CD
330
2
100
AcDbEntity
  8
4
100
AcDbLine
 10
789.9095522975749
 20
205.4842429537555
 30
0.0
 11
804.2349326739745
 21
201.0141563211212
 31
0.0
  0
LINE
  5
1CE
330
2
100
AcDbEntity
  8
4
100
AcDbLine
 10
788.211327816055
 20
151.4842429537555
 30
0.0
 11
789.9095522975749
 21
151.4842429537555
 31
0.0
  0
LINE
  5
1CF
330
2
100
AcDbEntity
  8
4
100
AcDbLine
 10
789.9095522975749
 20
151.4842429537555
 30
0.0
 11
804.2349326739745
 21
155.9543295863898
 31
0.0
  0
LINE
  5
1D0
330
2
100
AcDbEntity
  8
4
100
AcDbLine
 10
788.211327816055
 20
151.4842429537555
 30
0.0
 11
804.2349326739745
 21
156.4842429537557
 31
0.0
  0
LINE
  5
1D1
330
2
100
AcDbEntity
  8
4
100
AcDbLine
 10
788.211327816055
 20
151.4842429537555
 30
0.0
 11
788.2113278160546
 21
205.4842429537555
 31
0.0
  0
ARC
  5
1D2
330
2
100
AcDbEntity
  8
4
100
AcDbCircle
 10
786.6051029504702
 20
130.8498911618278
 30
0.0
 40
2.0
100
AcDbArc
 50
16.28097627698519
 51
74.71360825113084
  0
LINE
  5
1D3
330
2
100
AcDbEntity
  8
4
100
AcDbLine
 10
787.1323908537938
 20
132.7791312886675
 30
0.0
 11
788.8274041647114
 21
132.3226598199185
 31
0.0
  0
ARC
  5
1D4
330
2
100
AcDbEntity
  8
4
100
AcDbCircle
 10
778.2349326739745
 20
136.2476067653347
 30
0.0
 40
1.0
100
AcDbArc
 50
180.0
 51
254.7136082511313
  0
LINE
  5
1D5
330
2
100
AcDbEntity
  8
4
100
AcDbLine
 10
777.9712887223127
 20
135.2829867019148
 30
0.0
 11
788.9828417997232
 21
132.2733775538638
 31
0.0
  0
ARC
  5
1D6
330
2
100
AcDbEntity
  8
4
100
AcDbCircle
 10
788.3011693531271
 20
130.393132177443
 30
0.0
 40
2.0
100
AcDbArc
 50
16.28097627698519
 51
74.74488129694195
  0
LINE
  5
1D7
330
2
100
AcDbEntity
  8
4
100
AcDbLine
 10
790.2209662088912
 20
130.9538282025746
 30
0.0
 11
804.2349326739745
 21
82.97066522198475
 31
0.0
  0
LINE
  5
1D8
330
2
100
AcDbEntity
  8
4
100
AcDbLine
 10
788.5248998062343
 20
131.4105871869592
 30
0.0
 11
804.2349326739741
 21
77.62017250305189
 31
0.0
  0
LINE
  5
1D9
330
2
100
AcDbEntity
  8
4
100
AcDbLine
 10
789.9095522975749
 20
132.0200948087031
 30
0.0
 11
789.9095522975749
 21
151.4842429537557
 31
0.0
  0
LINE
  5
1DA
330
2
100
AcDbEntity
  8
4
100
AcDbLine
 10
777.2349326739745
 20
220.7204471127563
 30
0.0
 11
777.2349326739745
 21
136.2476067653347
 31
0.0
  0
LINE
  5
1DB
330
2
100
AcDbEntity
  8
4
100
AcDbLine
 10
789.9095522975749
 20
205.4842429537557
 30
0.0
 11
789.9095522975749
 21
223.9767516548261
 31
0.0
  0
LINE
  5
1EC
330
2
100
AcDbEntity
  8
4
100
AcDbLine
 10
875.234932673975
 20
353.9842429537555
 30
0.0
 11
875.234932673975
 21
352.4842429537555
 31
0.0
  0
LINE
  5
1ED
330
2
100
AcDbEntity
  8
4
100
AcDbLine
 10
851.2349326739745
 20
353.9842429537555
 30
0.0
 11
851.2349326739745
 21
352.4842429537555
 31
0.0
  0
LINE
  5
1EE
330
2
100
AcDbEntity
  8
4
100
AcDbLine
 10
858.4348851739746
 20
353.4842429537555
 30
0.0
 11
858.4348851739746
 21
355.4842429537555
 31
0.0
  0
LINE
  5
1EF
330
2
100
AcDbEntity
  8
4
100
AcDbLine
 10
868.0349826739748
 20
353.4842429537555
 30
0.0
 11
868.0349826739748
 21
355.4842429537555
 31
0.0
  0
CIRCLE
  5
1F2
330
2
100
AcDbEntity
  8
4
100
AcDbCircle
 10
863.2349326739745
 20
301.4842429537555
 30
0.0
 40
48.0
  0
LINE
  5
1F3
330
2
100
AcDbEntity
  8
L-CENTER
 48
3.0
100
AcDbLine
 10
916.7884395458004
 20
301.4842429537555
 30
0.0
 11
809.7317526387315
 21
301.4842429537555
 31
0.0
  0
ARC
  5
1F4
330
2
100
AcDbEntity
  8
4
100
AcDbCircle
 10
904.7303753282208
 20
342.9796856080018
 30
0.0
 40
5.0
100
AcDbArc
 50
6.908068832753678
 51
83.09193116722919
  0
LINE
  5
1F6
330
2
100
AcDbEntity
  8
L-CENTER
 48
3.0
100
AcDbLine
 10
1048.786122118036
 20
178.4842429537555
 30
0.0
 11
677.6837432299135
 21
178.4842429537555
 31
0.0
  0
LINE
  5
1F9
330
2
100
AcDbEntity
  8
4
100
AcDbLine
 10
953.2349326739745
 20
38.48424295375548
 30
0.0
 11
953.2349326739745
 21
66.48424295375548
 31
0.0
  0
ARC
  5
1FA
330
2
100
AcDbEntity
  8
4
100
AcDbCircle
 10
916.234932673975
 20
72.48424295375548
 30
0.0
 40
4.0
100
AcDbArc
 50
180.0
 51
270.0
  0
ARC
  5
1FB
330
2
100
AcDbEntity
  8
4
100
AcDbCircle
 10
951.2349326739745
 20
66.48424295375548
 30
0.0
 40
2.0
100
AcDbArc
 50
0.0
 51
90.0
  0
ARC
  5
200
330
2
100
AcDbEntity
  8
4
100
AcDbCircle
 10
818.2349326739745
 20
72.48424295375548
 30
0.0
 40
4.0
100
AcDbArc
 50
270.0
 51
0.0
  0
ARC
  5
203
330
2
100
AcDbEntity
  8
4
100
AcDbCircle
 10
775.2349326739745
 20
66.48424295375548
 30
0.0
 40
2.0
100
AcDbArc
 50
90.0
 51
180.0
  0
LINE
  5
204
330
2
100
AcDbEntity
  8
4
100
AcDbLine
 10
773.2349326739745
 20
38.48424295375548
 30
0.0
 11
773.2349326739745
 21
66.48424295375548
 31
0.0
  0
ARC
  5
209
330
2
100
AcDbEntity
  8
4
100
AcDbCircle
 10
810.2349326739741
 20
72.48424295375548
 30
0.0
 40
4.0
100
AcDbArc
 50
270.0
 51
0.0
  0
LINE
  5
212
330
2
100
AcDbEntity
  8
4
100
AcDbLine
 10
773.2349326739745
 20
38.48424295375548
 30
0.0
 11
953.2349326739745
 21
38.48424295375548
 31
0.0
  0
LINE
  5
213
330
2
100
AcDbEntity
  8
4
100
AcDbLine
 10
775.2349326739745
 20
68.48424295375548
 30
0.0
 11
951.2349326739745
 21
68.48424295375548
 31
0.0
  0
ARC
  5
214
330
2
100
AcDbEntity
  8
4
100
AcDbCircle
 10
908.2349326739745
 20
72.48424295375548
 30
0.0
 40
4.0
100
AcDbArc
 50
180.0
 51
270.0
  0
LINE
  5
215
330
2
100
AcDbEntity
  8
4
100
AcDbLine
 10
804.2349326739745
 20
305.4842429537555
 30
0.0
 11
804.2349326739745
 21
68.48424295375548
 31
0.0
  0
LINE
  5
216
330
2
100
AcDbEntity
  8
4
100
AcDbLine
 10
813.2349326739745
 20
308.4842429537555
 30
0.0
 11
813.2349326739745
 21
69.83849164269122
 31
0.0
  0
LINE
  5
217
330
2
100
AcDbEntity
  8
4
100
AcDbLine
 10
919.2349326739745
 20
68.48424295375548
 30
0.0
 11
919.2349326739745
 21
306.4842429537555
 31
0.0
  0
LINE
  5
218
330
2
100
AcDbEntity
  8
4
100
AcDbLine
 10
912.2349326739745
 20
301.4842429537555
 30
0.0
 11
912.234932673975
 21
72.48424295375548
 31
0.0
  0
LINE
  5
219
330
2
100
AcDbEntity
  8
4
100
AcDbLine
 10
814.2349326739745
 20
301.4842429537555
 30
0.0
 11
814.2349326739745
 21
72.48424295375548
 31
0.0
  0
LINE
  5
21A
330
2
100
AcDbEntity
  8
4
100
AcDbLine
 10
904.2349326739745
 20
72.48424295375548
 30
0.0
 11
904.2349326739745
 21
172.713243753288
 31
0.0
  0
LINE
  5
21B
330
2
100
AcDbEntity
  8
4
100
AcDbLine
 10
822.2349326739745
 20
72.48424295375548
 30
0.0
 11
822.2349326739745
 21
172.713243753288
 31
0.0
  0
LINE
  5
21C
330
2
100
AcDbEntity
  8
4
100
AcDbLine
 10
919.234932673975
 20
68.48424295375548
 30
0.0
 11
919.2349326739745
 21
306.4842429537555
 31
0.0
  0
LINE
  5
21D
330
2
100
AcDbEntity
  8
4
100
AcDbLine
 10
930.5349326739743
 20
68.48424295375548
 30
0.0
 11
930.5349326739743
 21
305.4842429537555
 31
0.0
  0
LINE
  5
21E
330
2
100
AcDbEntity
  8
L-CENTER
 48
3.0
100
AcDbLine
 10
863.2349326739745
 20
27.74022324099383
 30
0.0
 11
863.2349326739745
 21
364.6713944364972
 31
0.0
  0
LINE
  5
21F
330
2
100
AcDbEntity
  8
L-CENTER
 48
3.0
100
AcDbLine
 10
933.2349326739745
 20
79.48424295375548
 30
0.0
 11
933.2349326739745
 21
27.48424295375548
 31
0.0
  0
LINE
  5
220
330
2
100
AcDbEntity
  8
L-CENTER
 48
3.0
100
AcDbLine
 10
793.2349326739745
 20
79.48424295375548
 30
0.0
 11
793.2349326739745
 21
27.48424295375548
 31
0.0
  0
LINE
  5
22A
330
2
100
AcDbEntity
  8
4
100
AcDbLine
 10
462.5736603528409
 20
356.6841929537552
 30
0.0
 11
463.0736603528409
 21
359.4842429537553
 31
0.0
  0
LINE
  5
22B
330
2
100
AcDbEntity
  8
4
100
AcDbLine
 10
463.0736603528409
 20
355.4842429537553
 30
0.0
 11
463.0736603528409
 21
359.4842429537553
 31
0.0
  0
LINE
  5
22C
330
2
100
AcDbEntity
  8
4
100
AcDbLine
 10
459.852467852841
 20
358.4842429537553
 30
0.0
 11
460.174002852841
 21
356.6841929537552
 31
0.0
  0
LINE
  5
22D
330
2
100
AcDbEntity
  8
4
100
AcDbLine
 10
458.0736603528409
 20
358.4842429537553
 30
0.0
 11
458.0736603528409
 21
355.4842429537553
 31
0.0
  0
ARC
  5
22E
330
2
100
AcDbEntity
  8
4
100
AcDbCircle
 10
461.3737103528409
 20
356.6841929537552
 30
0.0
 40
1.1999975
100
AcDbArc
 50
180.0
 51
0.0
  0
CIRCLE
  5
22F
330
2
100
AcDbEntity
  8
4
100
AcDbCircle
 10
461.3737103528409
 20
356.6841929537552
 30
0.0
 40
0.5
  0
LINE
  5
230
330
2
100
AcDbEntity
  8
4
100
AcDbLine
 10
446.5736603528409
 20
359.4842429537553
 30
0.0
 11
446.5736603528409
 21
358.4842429537553
 31
0.0
  0
LINE
  5
231
330
2
100
AcDbEntity
  8
4
100
AcDbLine
 10
448.0736603528409
 20
358.4842429537553
 30
0.0
 11
448.0736603528409
 21
355.4842429537553
 31
0.0
  0
LINE
  5
232
330
2
100
AcDbEntity
  8
4
100
AcDbLine
 10
463.0736603528409
 20
355.4842429537553
 30
0.0
 11
448.0736603528409
 21
355.4842429537553
 31
0.0
  0
LINE
  5
233
330
2
100
AcDbEntity
  8
4
100
AcDbLine
 10
463.0736603528409
 20
359.4842429537553
 30
0.0
 11
446.5736603528409
 21
359.4842429537553
 31
0.0
  0
LINE
  5
234
330
2
100
AcDbEntity
  8
4
100
AcDbLine
 10
459.852467852841
 20
358.4842429537553
 30
0.0
 11
446.5736603528409
 21
358.4842429537553
 31
0.0
  0
LINE
  5
239
330
2
100
AcDbEntity
  8
4
100
AcDbLine
 10
296.5736603528409
 20
353.9842429537555
 30
0.0
 11
296.5736603528409
 21
359.9842429537555
 31
0.0
  0
LINE
  5
23A
330
2
100
AcDbEntity
  8
4
100
AcDbLine
 10
290.3236603528409
 20
355.9842429537555
 30
0.0
 11
290.3236603528409
 21
359.9842429537555
 31
0.0
  0
LINE
  5
23B
330
2
100
AcDbEntity
  8
4
100
AcDbLine
 10
277.8236603528409
 20
355.9842429537555
 30
0.0
 11
277.8236603528409
 21
359.9842429537555
 31
0.0
  0
LINE
  5
23C
330
2
100
AcDbEntity
  8
4
100
AcDbLine
 10
271.5736603528409
 20
353.9842429537555
 30
0.0
 11
271.5736603528409
 21
359.9842429537555
 31
0.0
  0
LINE
  5
23D
330
2
100
AcDbEntity
  8
4
100
AcDbLine
 10
271.5736603528409
 20
353.9842429537555
 30
0.0
 11
296.5736603528409
 21
353.9842429537555
 31
0.0
  0
LINE
  5
23E
330
2
100
AcDbEntity
  8
4
100
AcDbLine
 10
271.5736603528409
 20
355.9842429537555
 30
0.0
 11
296.5736603528409
 21
355.9842429537555
 31
0.0
  0
LINE
  5
23F
330
2
100
AcDbEntity
  8
4
100
AcDbLine
 10
271.5736603528409
 20
359.9842429537555
 30
0.0
 11
296.5736603528409
 21
359.9842429537555
 31
0.0
  0
LINE
  5
240
330
2
100
AcDbEntity
  8
4
100
AcDbLine
 10
255.5736603528409
 20
359.4842429537553
 30
0.0
 11
255.5736603528409
 21
358.4842429537553
 31
0.0
  0
LINE
  5
241
330
2
100
AcDbEntity
  8
4
100
AcDbLine
 10
254.0736603528409
 20
358.4842429537553
 30
0.0
 11
254.0736603528409
 21
355.4842429537553
 31
0.0
  0
LINE
  5
242
330
2
100
AcDbEntity
  8
4
100
AcDbLine
 10
242.2948528528408
 20
358.4842429537553
 30
0.0
 11
241.9733178528408
 21
356.6841929537552
 31
0.0
  0
LINE
  5
243
330
2
100
AcDbEntity
  8
4
100
AcDbLine
 10
244.0736603528409
 20
358.4842429537553
 30
0.0
 11
244.0736603528409
 21
355.4842429537553
 31
0.0
  0
LINE
  5
244
330
2
100
AcDbEntity
  8
4
100
AcDbLine
 10
242.2948528528408
 20
358.4842429537553
 30
0.0
 11
255.5736603528409
 21
358.4842429537553
 31
0.0
  0
LINE
  5
245
330
2
100
AcDbEntity
  8
4
100
AcDbLine
 10
239.5736603528409
 20
356.6841929537552
 30
0.0
 11
239.0736603528409
 21
359.4842429537553
 31
0.0
  0
CIRCLE
  5
246
330
2
100
AcDbEntity
  8
4
100
AcDbCircle
 10
240.7736103528408
 20
356.6841929537552
 30
0.0
 40
0.5
  0
LINE
  5
247
330
2
100
AcDbEntity
  8
4
100
AcDbLine
 10
239.0736603528409
 20
355.4842429537553
 30
0.0
 11
239.0736603528409
 21
359.4842429537553
 31
0.0
  0
ARC
  5
248
330
2
100
AcDbEntity
  8
4
100
AcDbCircle
 10
240.7736103528408
 20
356.6841929537552
 30
0.0
 40
1.1999975
100
AcDbArc
 50
180.0
 51
0.0
  0
LINE
  5
249
330
2
100
AcDbEntity
  8
4
100
AcDbLine
 10
239.0736603528409
 20
355.4842429537553
 30
0.0
 11
254.0736603528409
 21
355.4842429537553
 31
0.0
  0
LINE
  5
24A
330
2
100
AcDbEntity
  8
4
100
AcDbLine
 10
239.0736603528409
 20
359.4842429537553
 30
0.0
 11
255.5736603528409
 21
359.4842429537553
 31
0.0
  0
LINE
  5
24D
330
2
100
AcDbEntity
  8
4
100
AcDbLine
 10
561.0736603528409
 20
317.9842429537555
 30
0.0
 11
561.0736603528409
 21
288.9842429537582
 31
0.0
  0
LINE
  5
24E
330
2
100
AcDbEntity
  8
4
100
AcDbLine
 10
506.0736603528409
 20
317.9842429537555
 30
0.0
 11
506.0736603528406
 21
314.9842429537555
 31
0.0
  0
LINE
  5
24F
330
2
100
AcDbEntity
  8
4
100
AcDbLine
 10
501.0736603528406
 20
316.4842429537555
 30
0.0
 11
501.0736603528406
 21
286.4842429537555
 31
0.0
  0
LINE
  5
250
330
2
100
AcDbEntity
  8
4
100
AcDbLine
 10
501.0736603528409
 20
314.9842429537555
 30
0.0
 11
560.0736603528436
 21
314.9842429537555
 31
0.0
  0
LINE
  5
251
330
2
100
AcDbEntity
  8
4
100
AcDbLine
 10
501.0736603528409
 20
287.9842429537555
 30
0.0
 11
560.0736603528381
 21
287.9842429537555
 31
0.0
  0
LINE
  5
252
330
2
100
AcDbEntity
  8
4
100
AcDbLine
 10
506.0736603528409
 20
317.9842429537555
 30
0.0
 11
561.0736603528409
 21
317.9842429537555
 31
0.0
  0
ARC
  5
253
330
2
100
AcDbEntity
  8
4
100
AcDbCircle
 10
475.1736603528406
 20
349.5842429537554
 30
0.0
 40
0.9
100
AcDbArc
 50
0.0
 51
90.0
  0
LINE
  5
254
330
2
100
AcDbEntity
  8
4
100
AcDbLine
 10
479.0736603528409
 20
349.4842429537555
 30
0.0
 11
476.0736603528406
 21
349.4842429537555
 31
0.0
  0
LINE
  5
255
330
2
100
AcDbEntity
  8
4
100
AcDbLine
 10
479.0736603528409
 20
337.4842429537555
 30
0.0
 11
480.0736603528409
 21
337.4842429537555
 31
0.0
  0
ARC
  5
256
330
2
100
AcDbEntity
  8
4
100
AcDbCircle
 10
455.5736603528409
 20
348.6700329537553
 30
0.0
 40
4.8142575
100
AcDbArc
 50
58.71532999999298
 51
121.2845180000035
  0
LINE
  5
257
330
2
100
AcDbEntity
  8
4
100
AcDbLine
 10
458.0736603528409
 20
350.4842429537553
 30
0.0
 11
458.0736603528409
 21
352.7842904537551
 31
0.0
  0
LINE
  5
258
330
2
100
AcDbEntity
  8
4
100
AcDbLine
 10
450.5736603528409
 20
353.4842429537553
 30
0.0
 11
455.5736603528409
 21
353.4842429537553
 31
0.0
  0
ARC
  5
259
330
2
100
AcDbEntity
  8
4
100
AcDbCircle
 10
461.4819935528368
 20
288.892576153751
 30
0.0
 40
5.0
100
AcDbArc
 50
15.05726445492235
 51
74.94273554507498
  0
LINE
  5
25A
330
2
100
AcDbEntity
  8
4
100
AcDbLine
 10
448.0736603528409
 20
350.4842429537553
 30
0.0
 11
448.0736603528409
 21
352.7842904537551
 31
0.0
  0
ARC
  5
25B
330
2
100
AcDbEntity
  8
4
100
AcDbCircle
 10
450.5736603528409
 20
348.6700329537553
 30
0.0
 40
4.8142575
100
AcDbArc
 50
58.71532999999298
 51
121.2845180000035
  0
LINE
  5
25C
330
2
100
AcDbEntity
  8
4
100
AcDbLine
 10
448.0736603528409
 20
350.4842429537553
 30
0.0
 11
458.0736603528409
 21
350.4842429537553
 31
0.0
  0
ARC
  5
25D
330
2
100
AcDbEntity
  8
4
100
AcDbCircle
 10
478.0455563834815
 20
250.4842429537555
 30
0.0
 40
3.0
100
AcDbArc
 50
90.0
 51
131.0941784841971
  0
LINE
  5
25E
330
2
100
AcDbEntity
  8
4
100
AcDbLine
 10
479.0736603528409
 20
253.4842429537555
 30
0.0
 11
478.0455563834815
 21
253.4842429537555
 31
0.0
  0
LINE
  5
25F
330
2
100
AcDbEntity
  8
4
100
AcDbLine
 10
479.0736603528409
 20
265.4842429537553
 30
0.0
 11
480.0736603528409
 21
265.4842429537555
 31
0.0
  0
LINE
  5
260
330
2
100
AcDbEntity
  8
4
100
AcDbLine
 10
476.0736603528406
 20
243.8677271068689
 30
0.0
 11
476.0736603528406
 21
349.5842429537554
 31
0.0
  0
LINE
  5
261
330
2
100
AcDbEntity
  8
4
100
AcDbLine
 10
479.0736603528409
 20
253.4842429537555
 30
0.0
 11
479.0736603528409
 21
349.4842429537555
 31
0.0
  0
LINE
  5
262
330
2
100
AcDbEntity
  8
4
100
AcDbLine
 10
480.0736603528409
 20
337.4842429537555
 30
0.0
 11
480.0736603528409
 21
265.4842429537555
 31
0.0
  0
LINE
  5
263
330
2
100
AcDbEntity
  8
4
100
AcDbLine
 10
480.0736603528406
 20
316.4842429537555
 30
0.0
 11
501.0736603528409
 21
316.4842429537555
 31
0.0
  0
LINE
  5
264
330
2
100
AcDbEntity
  8
4
100
AcDbLine
 10
480.0736603528406
 20
286.4842429537555
 30
0.0
 11
501.0736603528409
 21
286.4842429537555
 31
0.0
  0
ARC
  5
265
330
2
100
AcDbEntity
  8
4
100
AcDbCircle
 10
450.9084113946609
 20
203.8224055631047
 30
0.0
 40
3.0
100
AcDbArc
 50
265.1485788721415
 51
14.24103163537813
  0
ARC
  5
266
330
2
100
AcDbEntity
  8
4
100
AcDbCircle
 10
450.9084113946609
 20
153.1460803444063
 30
0.0
 40
3.0
100
AcDbArc
 50
345.7589683646219
 51
94.85142112785853
  0
ARC
  5
267
330
2
100
AcDbEntity
  8
4
100
AcDbCircle
 10
51.0736603528411
 20
178.4842429537555
 30
0.0
 40
430.0
100
AcDbArc
 50
0.0
 51
15.05726445492227
  0
ARC
  5
268
330
2
100
AcDbEntity
  8
4
100
AcDbCircle
 10
386.8911883284042
 20
214.3017709293188
 30
0.0
 40
5.0
100
AcDbArc
 50
6.97379343037548
 51
83.02620656964558
  0
ARC
  5
269
330
2
100
AcDbEntity
  8
4
100
AcDbCircle
 10
389.5532663470539
 20
216.9638489479685
 30
0.0
 40
5.0
100
AcDbArc
 50
7.494980959286906
 51
82.50501904072034
  0
ARC
  5
26A
330
2
100
AcDbEntity
  8
4
100
AcDbCircle
 10
351.0736603528409
 20
-75.51575704624452
 30
0.0
 40
300.0
100
AcDbArc
 50
82.50501904072057
 51
97.49498095927937
  0
ARC
  5
26B
330
2
100
AcDbEntity
  8
4
100
AcDbCircle
 10
351.0736603528409
 20
-78.51575704624452
 30
0.0
 40
300.0
100
AcDbArc
 50
83.02620656964554
 51
96.97379343035446
  0
ARC
  5
26C
330
2
100
AcDbEntity
  8
4
100
AcDbCircle
 10
304.0736603528409
 20
351.4842429537555
 30
0.0
 40
1.0
100
AcDbArc
 50
180.0
 51
270.0
  0
LINE
  5
26D
330
2
100
AcDbEntity
  8
4
100
AcDbLine
 10
303.0736603528409
 20
352.4842429537555
 30
0.0
 11
303.0736603528409
 21
351.4842429537555
 31
0.0
  0
LINE
  5
26E
330
2
100
AcDbEntity
  8
4
100
AcDbLine
 10
265.0736603528409
 20
352.4842429537555
 30
0.0
 11
265.0736603528409
 21
351.4842429537555
 31
0.0
  0
LINE
  5
26F
330
2
100
AcDbEntity
  8
4
100
AcDbLine
 10
265.0736603528409
 20
352.4842429537555
 30
0.0
 11
303.0736603528409
 21
352.4842429537555
 31
0.0
  0
LINE
  5
270
330
2
100
AcDbEntity
  8
4
100
AcDbLine
 10
254.0736603528409
 20
350.4842429537553
 30
0.0
 11
254.0736603528409
 21
352.7842904537551
 31
0.0
  0
ARC
  5
271
330
2
100
AcDbEntity
  8
4
100
AcDbCircle
 10
246.5736603528409
 20
348.6700329537553
 30
0.0
 40
4.8142575
100
AcDbArc
 50
58.71548199999653
 51
121.2846700000073
  0
LINE
  5
272
330
2
100
AcDbEntity
  8
4
100
AcDbLine
 10
244.0736603528409
 20
350.4842429537553
 30
0.0
 11
244.0736603528409
 21
352.7842904537551
 31
0.0
  0
LINE
  5
273
330
2
100
AcDbEntity
  8
4
100
AcDbLine
 10
251.5736603528409
 20
353.4842429537553
 30
0.0
 11
246.5736603528409
 21
353.4842429537553
 31
0.0
  0
ARC
  5
274
330
2
100
AcDbEntity
  8
4
100
AcDbCircle
 10
251.5736603528409
 20
348.6700329537553
 30
0.0
 40
4.8142575
100
AcDbArc
 50
58.71548199999653
 51
121.2846700000073
  0
LINE
  5
275
330
2
100
AcDbEntity
  8
4
100
AcDbLine
 10
254.0736603528409
 20
350.4842429537553
 30
0.0
 11
244.0736603528409
 21
350.4842429537553
 31
0.0
  0
LINE
  5
276
330
2
100
AcDbEntity
  8
4
100
AcDbLine
 10
223.0736603528409
 20
349.4842429537555
 30
0.0
 11
226.0736603528411
 21
349.4842429537555
 31
0.0
  0
LINE
  5
277
330
2
100
AcDbEntity
  8
4
100
AcDbLine
 10
223.0736603528409
 20
337.4842429537555
 30
0.0
 11
222.0736603528409
 21
337.4842429537555
 31
0.0
  0
ARC
  5
278
330
2
100
AcDbEntity
  8
4
100
AcDbCircle
 10
226.9736603528412
 20
349.5842429537554
 30
0.0
 40
0.9
100
AcDbArc
 50
90.0
 51
180.0
  0
LINE
  5
279
330
2
100
AcDbEntity
  8
4
100
AcDbLine
 10
226.0736603528411
 20
349.4842429537555
 30
0.0
 11
226.0736603528411
 21
349.5842429537554
 31
0.0
  0
ARC
  5
27A
330
2
100
AcDbEntity
  8
4
100
AcDbCircle
 10
240.665327152845
 20
288.892576153751
 30
0.0
 40
5.0
100
AcDbArc
 50
105.0572644549253
 51
164.9427355450778
  0
ARC
  5
27B
330
2
100
AcDbEntity
  8
4
100
AcDbCircle
 10
264.0736603528409
 20
351.4842429537555
 30
0.0
 40
1.0
100
AcDbArc
 50
270.0
 51
0.0
  0
ARC
  5
27C
330
2
100
AcDbEntity
  8
4
100
AcDbCircle
 10
224.1017643222002
 20
250.4842429537555
 30
0.0
 40
3.0
100
AcDbArc
 50
48.9058215158025
 51
90.0
  0
LINE
  5
27D
330
2
100
AcDbEntity
  8
4
100
AcDbLine
 10
223.0736603528409
 20
253.4842429537555
 30
0.0
 11
224.1017643222002
 21
253.4842429537555
 31
0.0
  0
LINE
  5
27E
330
2
100
AcDbEntity
  8
4
100
AcDbLine
 10
223.0736603528409
 20
265.4842429537553
 30
0.0
 11
222.0736603528409
 21
265.4842429537555
 31
0.0
  0
LINE
  5
27F
330
2
100
AcDbEntity
  8
4
100
AcDbLine
 10
226.0736603528411
 20
243.8677271068689
 30
0.0
 11
226.0736603528411
 21
349.5842429537554
 31
0.0
  0
LINE
  5
280
330
2
100
AcDbEntity
  8
4
100
AcDbLine
 10
223.0736603528409
 20
253.4842429537555
 30
0.0
 11
223.0736603528409
 21
349.4842429537555
 31
0.0
  0
LINE
  5
281
330
2
100
AcDbEntity
  8
4
100
AcDbLine
 10
222.0736603528409
 20
337.4842429537555
 30
0.0
 11
222.0736603528409
 21
265.4842429537555
 31
0.0
  0
ARC
  5
282
330
2
100
AcDbEntity
  8
4
100
AcDbCircle
 10
312.5940543586277
 20
216.9638489479685
 30
0.0
 40
5.0
100
AcDbArc
 50
97.49498095927966
 51
172.5050190407131
  0
ARC
  5
283
330
2
100
AcDbEntity
  8
4
100
AcDbCircle
 10
315.2561323772776
 20
214.3017709293188
 30
0.0
 40
5.0
100
AcDbArc
 50
96.97379343035443
 51
173.0262065696509
  0
ARC
  5
284
330
2
100
AcDbEntity
  8
4
100
AcDbCircle
 10
402.2422681190097
 20
211.9673854893376
 30
0.0
 40
7.0
100
AcDbArc
 50
186.2614549438293
 51
265.1485788721413
  0
ARC
  5
285
330
2
100
AcDbEntity
  8
4
100
AcDbCircle
 10
402.2422681190097
 20
145.0011004181731
 30
0.0
 40
7.0
100
AcDbArc
 50
94.85142112785866
 51
173.7385450561707
  0
ARC
  5
286
330
2
100
AcDbEntity
  8
4
100
AcDbCircle
 10
386.8911883284042
 20
142.666714978192
 30
0.0
 40
5.0
100
AcDbArc
 50
276.9737934303544
 51
353.0262065696245
  0
ARC
  5
287
330
2
100
AcDbEntity
  8
4
100
AcDbCircle
 10
389.5532663470539
 20
140.0046369595423
 30
0.0
 40
5.0
100
AcDbArc
 50
277.494980959279
 51
352.5050190407131
  0
ARC
  5
288
330
2
100
AcDbEntity
  8
4
100
AcDbCircle
 10
384.556802888423
 20
127.3156351875866
 30
0.0
 40
7.0
100
AcDbArc
 50
96.26145494383444
 51
175.1485788721372
  0
ARC
  5
289
330
2
100
AcDbEntity
  8
4
100
AcDbCircle
 10
376.4118229621901
 20
78.64949191193546
 30
0.0
 40
3.0
100
AcDbArc
 50
175.1485788721372
 51
284.2410316353826
  0
LINE
  5
28A
330
2
100
AcDbEntity
  8
4
100
AcDbLine
 10
377.5818813700884
 20
127.9076400972565
 30
0.0
 11
373.4225708829039
 21
78.90320830179394
 31
0.0
  0
ARC
  5
28B
330
2
100
AcDbEntity
  8
4
100
AcDbCircle
 10
317.5905178172587
 20
127.3156351875866
 30
0.0
 40
7.0
100
AcDbArc
 50
4.851421127862851
 51
83.73854505616558
  0
ARC
  5
28C
330
2
100
AcDbEntity
  8
4
100
AcDbCircle
 10
325.7354977434917
 20
78.64949191193546
 30
0.0
 40
3.0
100
AcDbArc
 50
255.7589683646174
 51
4.851421127862851
  0
LINE
  5
28D
330
2
100
AcDbEntity
  8
4
100
AcDbLine
 10
324.5654393355934
 20
127.9076400972565
 30
0.0
 11
328.7247498227779
 21
78.90320830179394
 31
0.0
  0
ARC
  5
28E
330
2
100
AcDbEntity
  8
4
100
AcDbCircle
 10
351.0736603528409
 20
435.4842429537555
 30
0.0
 40
300.0
100
AcDbArc
 50
263.0262065696456
 51
276.9737934303545
  0
ARC
  5
28F
330
2
100
AcDbEntity
  8
4
100
AcDbCircle
 10
351.0736603528409
 20
432.4842429537555
 30
0.0
 40
300.0
100
AcDbArc
 50
262.5050190407206
 51
277.4949809592794
  0
ARC
  5
290
330
2
100
AcDbEntity
  8
4
100
AcDbCircle
 10
299.905052586672
 20
211.9673854893376
 30
0.0
 40
7.0
100
AcDbArc
 50
274.8514211278587
 51
353.7385450561706
  0
ARC
  5
291
330
2
100
AcDbEntity
  8
4
100
AcDbCircle
 10
299.905052586672
 20
145.0011004181731
 30
0.0
 40
7.0
100
AcDbArc
 50
6.26145494382934
 51
85.14857887214136
  0
ARC
  5
292
330
2
100
AcDbEntity
  8
4
100
AcDbCircle
 10
251.2389093110208
 20
203.8224055631047
 30
0.0
 40
3.0
100
AcDbArc
 50
165.758968364622
 51
274.8514211278585
  0
ARC
  5
293
330
2
100
AcDbEntity
  8
4
100
AcDbCircle
 10
251.2389093110208
 20
153.1460803444063
 30
0.0
 40
3.0
100
AcDbArc
 50
85.14857887214148
 51
194.241031635378
  0
LINE
  5
294
330
2
100
AcDbEntity
  8
4
100
AcDbLine
 10
221.0736603528409
 20
178.4842429537555
 30
0.0
 11
221.0736603528409
 21
146.4842429537555
 31
0.0
  0
LINE
  5
295
330
2
100
AcDbEntity
  8
4
100
AcDbLine
 10
251.4926257008796
 20
200.8331534838183
 30
0.0
 11
300.4970574963419
 21
204.992463971003
 31
0.0
  0
LINE
  5
296
330
2
100
AcDbEntity
  8
4
100
AcDbLine
 10
251.4926257008796
 20
156.1353324236925
 30
0.0
 11
300.4970574963419
 21
151.9760219365078
 31
0.0
  0
LINE
  5
297
330
2
100
AcDbEntity
  8
4
100
AcDbLine
 10
219.0736603528409
 20
88.81224295375546
 30
0.0
 11
219.0736603528409
 21
103.896829937449
 31
0.0
  0
ARC
  5
298
330
2
100
AcDbEntity
  8
4
100
AcDbCircle
 10
312.5940543586279
 20
140.0046369595423
 30
0.0
 40
5.0
100
AcDbArc
 50
187.4949809592869
 51
262.5050190407204
  0
ARC
  5
299
330
2
100
AcDbEntity
  8
4
100
AcDbCircle
 10
315.2561323772776
 20
142.666714978192
 30
0.0
 40
5.0
100
AcDbArc
 50
186.9737934303755
 51
263.0262065696456
  0
ARC
  5
29A
330
2
100
AcDbEntity
  8
4
100
AcDbCircle
 10
605.0736603528409
 20
178.4842429537555
 30
0.0
 40
300.0
100
AcDbArc
 50
172.5050190407131
 51
187.494980959287
  0
ARC
  5
29B
330
2
100
AcDbEntity
  8
4
100
AcDbCircle
 10
608.0736603528409
 20
178.4842429537555
 30
0.0
 40
300.0
100
AcDbArc
 50
173.0262065696508
 51
186.9737934303492
  0
ARC
  5
29C
330
2
100
AcDbEntity
  8
4
100
AcDbCircle
 10
94.07366035284088
 20
178.4842429537555
 30
0.0
 40
300.0
100
AcDbArc
 50
353.0262065696508
 51
6.973793430349181
  0
ARC
  5
29D
330
2
100
AcDbEntity
  8
4
100
AcDbCircle
 10
97.07366035284088
 20
178.4842429537555
 30
0.0
 40
300.0
100
AcDbArc
 50
352.5050190407131
 51
7.494980959286954
  0
ARC
  5
29E
330
2
100
AcDbEntity
  8
4
100
AcDbCircle
 10
351.0736603528409
 20
-121.5157570462445
 30
0.0
 40
430.0
100
AcDbArc
 50
74.94273554507474
 51
105.0572644549253
  0
LINE
  5
29F
330
2
100
AcDbEntity
  8
4
100
AcDbLine
 10
475.1736603528406
 20
350.4842429537555
 30
0.0
 11
226.9736603528412
 21
350.4842429537553
 31
0.0
  0
LINE
  5
2A0
330
2
100
AcDbEntity
  8
4
100
AcDbLine
 10
450.6546950048024
 20
200.8331534838183
 30
0.0
 11
401.6502632093399
 21
204.9924639710027
 31
0.0
  0
LINE
  5
2A1
330
2
100
AcDbEntity
  8
4
100
AcDbLine
 10
450.6546950048022
 20
156.1353324236925
 30
0.0
 11
401.6502632093399
 21
151.9760219365078
 31
0.0
  0
LINE
  5
2A2
330
2
100
AcDbEntity
  8
4
100
AcDbLine
 10
244.2736103528408
 20
355.4842429537553
 30
0.0
 11
244.2736103528408
 21
352.8992829537553
 31
0.0
  0
LINE
  5
2A3
330
2
100
AcDbEntity
  8
4
100
AcDbLine
 10
253.8737103528409
 20
355.4842429537553
 30
0.0
 11
253.8737103528409
 21
352.8992829537553
 31
0.0
  0
LINE
  5
2A4
330
2
100
AcDbEntity
  8
L-CENTER
 48
3.0
100
AcDbLine
 10
249.0736603528409
 20
364.213329646989
 30
0.0
 11
249.0736603528409
 21
342.8620957945957
 31
0.0
  0
LINE
  5
2A5
330
2
100
AcDbEntity
  8
4
100
AcDbLine
 10
295.5736603528409
 20
352.4842429537555
 30
0.0
 11
295.5736603528409
 21
353.9842429537555
 31
0.0
  0
LINE
  5
2A6
330
2
100
AcDbEntity
  8
L-CENTER
 48
3.0
100
AcDbLine
 10
284.0736603528409
 20
365.9937043993552
 30
0.0
 11
284.0736603528409
 21
343.9937043993552
 31
0.0
  0
LINE
  5
2A7
330
2
100
AcDbEntity
  8
4
100
AcDbLine
 10
272.5736603528409
 20
352.4842429537555
 30
0.0
 11
272.5736603528409
 21
353.9842429537555
 31
0.0
  0
LINE
  5
2A9
330
2
100
AcDbEntity
  8
4
100
AcDbLine
 10
457.8737103528409
 20
355.4842429537553
 30
0.0
 11
457.8737103528409
 21
352.8992829537553
 31
0.0
  0
LINE
  5
2AA
330
2
100
AcDbEntity
  8
L-CENTER
 48
3.0
100
AcDbLine
 10
453.0736603528409
 20
364.213329646989
 30
0.0
 11
453.0736603528409
 21
342.8620957945957
 31
0.0
  0
LINE
  5
2AB
330
2
100
AcDbEntity
  8
4
100
AcDbLine
 10
448.2736103528408
 20
355.4842429537553
 30
0.0
 11
448.2736103528408
 21
352.8992829537553
 31
0.0
  0
LINE
  5
2AD
330
2
100
AcDbEntity
  8
4
100
AcDbLine
 10
214.5736603528409
 20
135.9842429537555
 30
0.0
 11
209.5736603528409
 21
135.9842429537555
 31
0.0
  0
LINE
  5
2AE
330
2
100
AcDbEntity
  8
4
100
AcDbLine
 10
209.5736603528409
 20
143.4842429537555
 30
0.0
 11
216.5736603528409
 21
143.4842429537555
 31
0.0
  0
LINE
  5
2AF
330
2
100
AcDbEntity
  8
4
100
AcDbLine
 10
216.5736603528409
 20
142.4842429537555
 30
0.0
 11
218.0736603528409
 21
142.4842429537555
 31
0.0
  0
LINE
  5
2B0
330
2
100
AcDbEntity
  8
4
100
AcDbLine
 10
216.5736603528409
 20
113.4842429537555
 30
0.0
 11
209.5736603528409
 21
113.4842429537555
 31
0.0
  0
LINE
  5
2B1
330
2
100
AcDbEntity
  8
4
100
AcDbLine
 10
216.5736603528409
 20
114.4842429537555
 30
0.0
 11
218.0736603528409
 21
114.4842429537555
 31
0.0
  0
LINE
  5
2B2
330
2
100
AcDbEntity
  8
4
100
AcDbLine
 10
214.5736603528409
 20
120.9842429537555
 30
0.0
 11
209.5736603528409
 21
120.9842429537555
 31
0.0
  0
LINE
  5
2B3
330
2
100
AcDbEntity
  8
4
100
AcDbLine
 10
209.5736603528409
 20
113.4842429537555
 30
0.0
 11
209.5736603528409
 21
143.4842429537555
 31
0.0
  0
LINE
  5
2B4
330
2
100
AcDbEntity
  8
4
100
AcDbLine
 10
218.0736603528409
 20
114.4842429537555
 30
0.0
 11
218.0736603528409
 21
142.4842429537555
 31
0.0
  0
LINE
  5
2B5
330
2
100
AcDbEntity
  8
4
100
AcDbLine
 10
216.5736603528409
 20
113.4842429537555
 30
0.0
 11
216.5736603528409
 21
143.4842429537555
 31
0.0
  0
LINE
  5
2B6
330
2
100
AcDbEntity
  8
4
100
AcDbLine
 10
214.5736603528409
 20
113.4842429537555
 30
0.0
 11
214.5736603528409
 21
143.4842429537555
 31
0.0
  0
LINE
  5
2B7
330
2
100
AcDbEntity
  8
4
100
AcDbLine
 10
217.5736603528409
 20
75.48424295375548
 30
0.0
 11
217.5736603528409
 21
87.48424295375548
 31
0.0
  0
LINE
  5
2B8
330
2
100
AcDbEntity
  8
4
100
AcDbLine
 10
218.0736603528409
 20
146.4842429537555
 30
0.0
 11
218.0736603528409
 21
110.4842429537555
 31
0.0
  0
LINE
  5
2B9
330
2
100
AcDbEntity
  8
L-CENTER
 48
3.0
100
AcDbLine
 10
564.8466133320843
 20
301.4842429537555
 30
0.0
 11
137.3007073735974
 21
301.4842429537555
 31
0.0
  0
LINE
  5
2BA
330
2
100
AcDbEntity
  8
4
100
AcDbLine
 10
217.5736603528409
 20
75.48424295375548
 30
0.0
 11
219.0736603528409
 21
75.48424295375548
 31
0.0
  0
LINE
  5
2BB
330
2
100
AcDbEntity
  8
L-CENTER
 48
3.0
100
AcDbLine
 10
212.8701795854457
 20
81.48424295375548
 30
0.0
 11
228.2999446587017
 21
81.48424295375548
 31
0.0
  0
LINE
  5
2BC
330
2
100
AcDbEntity
  8
4
100
AcDbLine
 10
219.0736603528409
 20
110.4842429537555
 30
0.0
 11
218.0736603528409
 21
110.4842429537555
 31
0.0
  0
LINE
  5
2BD
330
2
100
AcDbEntity
  8
4
100
AcDbLine
 10
217.5736603528409
 20
87.48424295375548
 30
0.0
 11
219.0736603528409
 21
87.48424295375548
 31
0.0
  0
LINE
  5
2BE
330
2
100
AcDbEntity
  8
L-CENTER
 48
3.0
100
AcDbLine
 10
232.5689098862216
 20
128.4842429537555
 30
0.0
 11
205.0018613311091
 21
128.4842429537555
 31
0.0
  0
LINE
  5
2BF
330
2
100
AcDbEntity
  8
L-CENTER
 48
3.0
100
AcDbLine
 10
213.9312740013091
 20
178.4842429537555
 30
0.0
 11
488.2160467043726
 21
178.4842429537555
 31
0.0
  0
ARC
  5
2C0
330
2
100
AcDbEntity
  8
4
100
AcDbCircle
 10
651.0736603528406
 20
178.4842429537555
 30
0.0
 40
430.0
100
AcDbArc
 50
164.9427355450777
 51
180.0
  0
LINE
  5
2C1
330
2
100
AcDbEntity
  8
4
100
AcDbLine
 10
221.0736603528409
 20
146.4842429537555
 30
0.0
 11
218.0736603528409
 21
146.4842429537555
 31
0.0
  0
ARC
  5
2C5
330
2
100
AcDbEntity
  8
4
100
AcDbCircle
 10
499.0736603528409
 20
66.48424295375548
 30
0.0
 40
2.0
100
AcDbArc
 50
0.0
 51
90.0
  0
LINE
  5
2C8
330
2
100
AcDbEntity
  8
4
100
AcDbLine
 10
501.0736603528409
 20
38.48424295375548
 30
0.0
 11
501.0736603528409
 21
66.48424295375548
 31
0.0
  0
TEXT
  5
2CB
330
2
100
AcDbEntity
  8
3
100
AcDbText
 10
590.5398383551018
 20
16.46423137036649
 30
0.0
 40
9.0
  1
LB5-06
  7
KANJI
 72
     1
 11
615.2898383551018
 21
16.46423137036649
 31
0.0
100
AcDbText
  0
ARC
  5
2CD
330
2
100
AcDbEntity
  8
4
100
AcDbCircle
 10
486.0736603528409
 20
73.48424295375548
 30
0.0
 40
5.0
100
AcDbArc
 50
180.0
 51
270.0
  0
LINE
  5
2CE
330
2
100
AcDbEntity
  8
4
100
AcDbLine
 10
489.7004225328013
 20
38.48424295375548
 30
0.0
 11
489.7004225328013
 21
68.48424295375548
 31
0.0
  0
ARC
  5
2CF
330
2
100
AcDbEntity
  8
4
100
AcDbCircle
 10
468.8309696741939
 20
72.48424295375548
 30
0.0
 40
4.0
100
AcDbArc
 50
162.5763272197884
 51
270.0
  0
LINE
  5
2D0
330
2
100
AcDbEntity
  8
4
100
AcDbLine
 10
471.7004225328013
 20
38.48424295375548
 30
0.0
 11
471.7004225328011
 21
68.48424295375548
 31
0.0
  0
LWPOLYLINE
  5
2D1
330
2
100
AcDbEntity
  8
4
100
AcDbPolyline
 90
       44
 70
     0
 43
0.0
 10
460.4094543351806
 20
68.48424295375548
 10
461.2452936568098
 20
67.41442752307648
 10
461.5723236568099
 20
66.98245152307618
 10
461.8756806568099
 20
66.55398852307621
 10
462.5253066568101
 20
65.30721552307637
 10
462.6155736568099
 20
64.91035152307632
 10
462.6229776568101
 20
64.52577252307628
 10
462.5356746568098
 20
64.15524252307637
 10
462.3194406568098
 20
63.7562245230763
 10
462.0091626568099
 20
63.36979452307651
 10
461.64528665681
 20
62.98859352307636
 10
461.26826165681
 20
62.60526852307635
 10
460.91853065681
 20
62.21246052307629
 10
460.63654865681
 20
61.80281052307646
 10
460.4641626568098
 20
61.4043685230763
 10
460.37328965681
 20
60.98749452307629
 10
460.35310565681
 20
60.55440252307631
 10
460.6084716568099
 20
59.17999752307628
 10
461.1104166568101
 20
57.73946052307633
 10
461.5667106568099
 20
56.2926565230764
 10
461.65815665681
 20
55.81934352307621
 10
461.70123665681
 20
55.3541995230762
 10
461.6851266568099
 20
54.89944752307633
 10
461.5530696568099
 20
54.28521552307643
 10
461.3133276568099
 20
53.69095452307624
 10
460.99430765681
 20
53.1121255230762
 10
459.84554765681
 20
51.42291852307631
 10
459.4933986568099
 20
50.86049352307623
 10
459.2039646568099
 20
50.29083552307634
 10
459.0056526568099
 20
49.70940852307626
 10
458.9235126568099
 20
49.18307352307625
 10
458.9215206568099
 20
48.64548552307633
 10
458.9865276568099
 20
48.09812352307631
 10
459.45210065681
 20
46.41213252307625
 10
460.0474416568098
 20
44.6912545230764
 10
460.21338065681
 20
44.11676052307621
 10
460.34115665681
 20
43.54428552307627
 10
460.4176236568099
 20
42.97531152307624
 10
460.4143116568101
 20
42.07804152307631
 10
460.27457165681
 20
41.19129552307618
 10
460.0256856568099
 20
40.31297052307627
 10
459.6949416568098
 20
39.44096052307646
 10
459.3096246568098
 20
38.57315952307636
 10
459.2672461198134
 20
38.48424295375548
  0
LINE
  5
2D3
330
2
100
AcDbEntity
  8
4
100
AcDbLine
 10
451.0736603528409
 20
38.48424295375548
 30
0.0
 11
451.0736603528409
 21
42.48424295375526
 31
0.0
  0
ARC
  5
2D4
330
2
100
AcDbEntity
  8
4
100
AcDbCircle
 10
448.0736603528411
 20
66.48424295375548
 30
0.0
 40
2.0
100
AcDbArc
 50
90.0
 51
180.0
  0
ARC
  5
2D5
330
2
100
AcDbEntity
  8
4
100
AcDbCircle
 10
441.0736603528411
 20
52.8964141804222
 30
0.0
 40
5.0
100
AcDbArc
 50
0.0
 51
101.9405439606022
  0
LINE
  5
2D6
330
2
100
AcDbEntity
  8
4
100
AcDbLine
 10
446.0736603528411
 20
47.48424295375548
 30
0.0
 11
446.0736603528411
 21
66.48424295375548
 31
0.0
  0
ARC
  5
2D7
330
2
100
AcDbEntity
  8
4
100
AcDbCircle
 10
446.0736603528409
 20
42.48424295375548
 30
0.0
 40
5.0
100
AcDbArc
 50
0.0
 51
90.0
  0
LINE
  5
2DC
330
2
100
AcDbEntity
  8
4
100
AcDbLine
 10
501.0736603528409
 20
38.48424295375548
 30
0.0
 11
451.0736603528409
 21
38.48424295375548
 31
0.0
  0
LINE
  5
2DD
330
2
100
AcDbEntity
  8
4
100
AcDbLine
 10
499.0736603528409
 20
68.48424295375548
 30
0.0
 11
448.0736603528411
 21
68.48424295375548
 31
0.0
  0
ARC
  5
2E9
330
2
100
AcDbEntity
  8
4
100
AcDbCircle
 10
254.0736603528406
 20
66.48424295375548
 30
0.0
 40
2.0
100
AcDbArc
 50
0.0
 51
90.0
  0
ARC
  5
2EA
330
2
100
AcDbEntity
  8
4
100
AcDbCircle
 10
256.0736603528409
 20
42.48424295375548
 30
0.0
 40
5.0
100
AcDbArc
 50
90.0
 51
180.0
  0
ARC
  5
2EB
330
2
100
AcDbEntity
  8
4
100
AcDbCircle
 10
261.0736603528406
 20
52.8964141804222
 30
0.0
 40
5.0
100
AcDbArc
 50
78.05945603939776
 51
180.0
  0
LINE
  5
2EC
330
2
100
AcDbEntity
  8
4
100
AcDbLine
 10
256.0736603528406
 20
47.48424295375548
 30
0.0
 11
256.0736603528406
 21
66.48424295375548
 31
0.0
  0
ARC
  5
2ED
330
2
100
AcDbEntity
  8
4
100
AcDbCircle
 10
233.3163510314879
 20
72.48424295375548
 30
0.0
 40
4.0
100
AcDbArc
 50
270.0
 51
17.42367278021146
  0
LINE
  5
2EE
330
2
100
AcDbEntity
  8
4
100
AcDbLine
 10
251.0736603528409
 20
38.48424295375548
 30
0.0
 11
251.0736603528409
 21
42.48424295375526
 31
0.0
  0
ARC
  5
316
330
2
100
AcDbEntity
  8
4
100
AcDbCircle
 10
351.0736603528409
 20
478.4842429537555
 30
0.0
 40
430.0
100
AcDbArc
 50
258.0594560393932
 51
281.9405439606068
  0
LINE
  5
317
330
2
100
AcDbEntity
  8
4
100
AcDbLine
 10
446.0736603528409
 20
47.48424295375548
 30
0.0
 11
256.0736603528409
 21
47.48424295375548
 31
0.0
  0
ARC
  5
321
330
2
100
AcDbEntity
  8
4
100
AcDbCircle
 10
203.0736603528406
 20
66.48424295375548
 30
0.0
 40
2.0
100
AcDbArc
 50
90.0
 51
180.0
  0
LINE
  5
322
330
2
100
AcDbEntity
  8
4
100
AcDbLine
 10
201.0736603528409
 20
38.48424295375548
 30
0.0
 11
201.0736603528406
 21
66.48424295375548
 31
0.0
  0
LINE
  5
33A
330
2
100
AcDbEntity
  8
4
100
AcDbLine
 10
203.0736603528409
 20
68.48424295375548
 30
0.0
 11
254.0736603528406
 21
68.48424295375548
 31
0.0
  0
LINE
  5
33B
330
2
100
AcDbEntity
  8
4
100
AcDbLine
 10
251.0736603528409
 20
38.48424295375548
 30
0.0
 11
201.0736603528409
 21
38.48424295375548
 31
0.0
  0
ARC
  5
33C
330
2
100
AcDbEntity
  8
4
100
AcDbCircle
 10
214.0736603528409
 20
73.48424295375548
 30
0.0
 40
5.0
100
AcDbArc
 50
270.0
 51
0.0
  0
ARC
  5
33D
330
2
100
AcDbEntity
  8
4
100
AcDbCircle
 10
216.0736603528409
 20
73.48424295375548
 30
0.0
 40
5.0
100
AcDbArc
 50
270.0
 51
0.0
  0
LINE
  5
33E
330
2
100
AcDbEntity
  8
4
100
AcDbLine
 10
221.0736603528409
 20
178.4842429537555
 30
0.0
 11
221.0736603528409
 21
73.48424295375548
 31
0.0
  0
ARC
  5
33F
330
2
100
AcDbEntity
  8
4
100
AcDbCircle
 10
571.0736603528406
 20
178.4842429537555
 30
0.0
 40
350.0
100
AcDbArc
 50
180.0
 51
197.4236727802115
  0
ARC
  5
340
330
2
100
AcDbEntity
  8
4
100
AcDbCircle
 10
351.0736603528409
 20
178.4842429537555
 30
0.0
 40
128.0
100
AcDbArc
 50
90.0
 51
270.0
  0
ARC
  5
341
330
2
100
AcDbEntity
  8
4
100
AcDbCircle
 10
351.0736603528409
 20
178.4842429537555
 30
0.0
 40
106.0
100
AcDbArc
 50
102.4557926259054
 51
270.0
  0
ARC
  5
342
330
2
100
AcDbEntity
  8
4
100
AcDbCircle
 10
131.0736603528411
 20
178.4842429537555
 30
0.0
 40
350.0
100
AcDbArc
 50
342.5763272197885
 51
0.0
  0
LINE
  5
343
330
2
100
AcDbEntity
  8
4
100
AcDbLine
 10
481.0736603528409
 20
178.4842429537555
 30
0.0
 11
481.0736603528409
 21
73.48424295375548
 31
0.0
  0
ARC
  5
344
330
2
100
AcDbEntity
  8
4
100
AcDbCircle
 10
351.0736603528409
 20
178.4842429537555
 30
0.0
 40
128.0
100
AcDbArc
 50
270.0
 51
90.0
  0
ARC
  5
345
330
2
100
AcDbEntity
  8
4
100
AcDbCircle
 10
351.0736603528409
 20
178.4842429537555
 30
0.0
 40
106.0
100
AcDbArc
 50
270.0
 51
77.54420737409461
  0
LINE
  5
346
330
2
100
AcDbEntity
  8
L-CENTER
 48
3.0
100
AcDbLine
 10
351.0736603528409
 20
41.34185660222374
 30
0.0
 11
351.0736603528409
 21
356.4615649833374
 31
0.0
  0
LINE
  5
347
330
2
100
AcDbEntity
  8
L-CENTER
 48
3.0
100
AcDbLine
 10
221.0736603528413
 20
79.48424295375548
 30
0.0
 11
221.0736603528413
 21
27.48424295375548
 31
0.0
  0
LINE
  5
348
330
2
100
AcDbEntity
  8
4
100
AcDbLine
 10
219.0736603528409
 20
73.48424295375548
 30
0.0
 11
219.0736603528409
 21
126.7511491046187
 31
0.0
  0
LINE
  5
349
330
2
100
AcDbEntity
  8
L-CENTER
 48
3.0
100
AcDbLine
 10
481.0736603528413
 20
79.48424295375548
 30
0.0
 11
481.0736603528413
 21
27.48424295375548
 31
0.0
  0
LINE
  5
465
330
2
100
AcDbEntity
  8
4
100
AcDbLine
 10
427.5736603528408
 20
315.4842429537555
 30
0.0
 11
415.0736603528408
 21
315.4842429537555
 31
0.0
  0
LINE
  5
466
330
2
100
AcDbEntity
  8
4
100
AcDbLine
 10
427.5736603528408
 20
339.4842429537555
 30
0.0
 11
415.0736603528408
 21
339.4842429537555
 31
0.0
  0
LINE
  5
467
330
2
100
AcDbEntity
  8
4
100
AcDbLine
 10
391.0736603528405
 20
311.4842429537554
 30
0.0
 11
467.0736603528408
 21
311.4842429537555
 31
0.0
  0
LINE
  5
468
330
2
100
AcDbEntity
  8
4
100
AcDbLine
 10
391.0736603528405
 20
343.4842429537555
 30
0.0
 11
467.0736603528408
 21
343.4842429537555
 31
0.0
  0
ARC
  5
469
330
2
100
AcDbEntity
  8
4
100
AcDbCircle
 10
351.073660352841
 20
271.4842429537555
 30
0.0
 40
18.0
100
AcDbArc
 50
180.0
 51
0.0
  0
LINE
  5
46A
330
2
100
AcDbEntity
  8
4
100
AcDbLine
 10
399.0736603528408
 20
338.4842429537555
 30
0.0
 11
399.0736603528408
 21
322.4842429537555
 31
0.0
  0
LINE
  5
46B
330
2
100
AcDbEntity
  8
4
100
AcDbLine
 10
414.0736603528408
 20
316.4842429537555
 30
0.0
 11
414.0736603528408
 21
338.4842429537555
 31
0.0
  0
LINE
  5
46C
330
2
100
AcDbEntity
  8
4
100
AcDbLine
 10
393.0736603528408
 20
338.4842429537555
 30
0.0
 11
393.0736603528408
 21
316.4842429537555
 31
0.0
  0
LINE
  5
46D
330
2
100
AcDbEntity
  8
4
100
AcDbLine
 10
389.0736603528405
 20
341.4842429537555
 30
0.0
 11
389.0736603528408
 21
313.4842429537555
 31
0.0
  0
LINE
  5
46F
330
2
100
AcDbEntity
  8
4
100
AcDbLine
 10
369.073660352841
 20
271.4842429537555
 30
0.0
 11
369.073660352841
 21
278.0834397376653
 31
0.0
  0
LINE
  5
470
330
2
100
AcDbEntity
  8
4
100
AcDbLine
 10
408.5736603528408
 20
315.4842429537555
 30
0.0
 11
394.0736603528408
 21
315.4842429537555
 31
0.0
  0
ARC
  5
471
330
2
100
AcDbEntity
  8
4
100
AcDbCircle
 10
394.0736603528408
 20
316.4842429537555
 30
0.0
 40
1.0
100
AcDbArc
 50
180.0
 51
270.0
  0
ARC
  5
472
330
2
100
AcDbEntity
  8
4
100
AcDbCircle
 10
391.0736603528405
 20
313.4842429537555
 30
0.0
 40
2.0
100
AcDbArc
 50
180.0
 51
270.0
  0
ARC
  5
473
330
2
100
AcDbEntity
  8
4
100
AcDbCircle
 10
415.0736603528408
 20
316.4842429537555
 30
0.0
 40
1.0
100
AcDbArc
 50
180.0
 51
270.0
  0
ARC
  5
474
330
2
100
AcDbEntity
  8
4
100
AcDbCircle
 10
408.5736603528408
 20
316.4842429537555
 30
0.0
 40
1.0
100
AcDbArc
 50
270.0
 51
0.0
  0
LINE
  5
475
330
2
100
AcDbEntity
  8
4
100
AcDbLine
 10
408.5736603528408
 20
321.4842429537555
 30
0.0
 11
400.0736603528408
 21
321.4842429537555
 31
0.0
  0
ARC
  5
476
330
2
100
AcDbEntity
  8
4
100
AcDbCircle
 10
400.0736603528408
 20
322.4842429537555
 30
0.0
 40
1.0
100
AcDbArc
 50
180.0
 51
270.0
  0
LINE
  5
477
330
2
100
AcDbEntity
  8
4
100
AcDbLine
 10
409.5736603528408
 20
320.4842429537555
 30
0.0
 11
409.5736603528408
 21
316.4842429537555
 31
0.0
  0
ARC
  5
478
330
2
100
AcDbEntity
  8
4
100
AcDbCircle
 10
408.5736603528408
 20
320.4842429537555
 30
0.0
 40
1.0
100
AcDbArc
 50
0.0
 51
90.0
  0
LINE
  5
479
330
2
100
AcDbEntity
  8
4
100
AcDbLine
 10
398.0736603528408
 20
339.4842429537555
 30
0.0
 11
394.0736603528408
 21
339.4842429537555
 31
0.0
  0
ARC
  5
47A
330
2
100
AcDbEntity
  8
4
100
AcDbCircle
 10
391.0736603528405
 20
341.4842429537555
 30
0.0
 40
2.0
100
AcDbArc
 50
90.0
 51
180.0
  0
ARC
  5
47B
330
2
100
AcDbEntity
  8
4
100
AcDbCircle
 10
394.0736603528408
 20
338.4842429537555
 30
0.0
 40
1.0
100
AcDbArc
 50
90.0
 51
180.0
  0
ARC
  5
47C
330
2
100
AcDbEntity
  8
4
100
AcDbCircle
 10
398.0736603528408
 20
338.4842429537555
 30
0.0
 40
1.0
100
AcDbArc
 50
0.0
 51
90.0
  0
ARC
  5
47D
330
2
100
AcDbEntity
  8
4
100
AcDbCircle
 10
415.0736603528408
 20
338.4842429537555
 30
0.0
 40
1.0
100
AcDbArc
 50
90.0
 51
180.0
  0
ARC
  5
47E
330
2
100
AcDbEntity
  8
4
100
AcDbCircle
 10
463.5736603528408
 20
330.4842429537555
 30
0.0
 40
3.0
100
AcDbArc
 50
90.0
 51
255.52248781407
  0
LINE
  5
47F
330
2
100
AcDbEntity
  8
4
100
AcDbLine
 10
447.0736603528408
 20
338.4842429537555
 30
0.0
 11
447.0736603528408
 21
331.3925698669534
 31
0.0
  0
LINE
  5
480
330
2
100
AcDbEntity
  8
4
100
AcDbLine
 10
469.0736603528408
 20
341.4842429537555
 30
0.0
 11
469.0736603528408
 21
313.4842429537555
 31
0.0
  0
LINE
  5
481
330
2
100
AcDbEntity
  8
4
100
AcDbLine
 10
432.0736603528408
 20
331.9842429537555
 30
0.0
 11
432.0736603528408
 21
334.9842429537555
 31
0.0
  0
ARC
  5
482
330
2
100
AcDbEntity
  8
4
100
AcDbCircle
 10
427.5736603528408
 20
319.9842429537555
 30
0.0
 40
4.5
100
AcDbArc
 50
270.0
 51
0.0
  0
LINE
  5
483
330
2
100
AcDbEntity
  8
4
100
AcDbLine
 10
432.0736603528408
 20
319.9842429537555
 30
0.0
 11
432.0736603528408
 21
322.9842429537555
 31
0.0
  0
ARC
  5
484
330
2
100
AcDbEntity
  8
4
100
AcDbCircle
 10
427.5736603528408
 20
322.9842429537555
 30
0.0
 40
4.5
100
AcDbArc
 50
0.0
 51
40.00520088485374
  0
ARC
  5
485
330
2
100
AcDbEntity
  8
4
100
AcDbCircle
 10
432.9355630002224
 20
327.4842429537555
 30
0.0
 40
2.5
100
AcDbArc
 50
139.9947991151461
 51
220.0052008848539
  0
ARC
  5
486
330
2
100
AcDbEntity
  8
4
100
AcDbCircle
 10
427.5736603528408
 20
331.9842429537555
 30
0.0
 40
4.5
100
AcDbArc
 50
319.9947991151463
 51
0.0
  0
ARC
  5
487
330
2
100
AcDbEntity
  8
4
100
AcDbCircle
 10
437.5736603528408
 20
329.4842429537555
 30
0.0
 40
1.0
100
AcDbArc
 50
90.0
 51
180.0
  0
ARC
  5
488
330
2
100
AcDbEntity
  8
4
100
AcDbCircle
 10
437.5736603528408
 20
325.4842429537555
 30
0.0
 40
1.0
100
AcDbArc
 50
180.0
 51
270.0
  0
LINE
  5
489
330
2
100
AcDbEntity
  8
4
100
AcDbLine
 10
436.5736603528408
 20
329.4842429537555
 30
0.0
 11
436.5736603528408
 21
325.4842429537555
 31
0.0
  0
ARC
  5
48A
330
2
100
AcDbEntity
  8
4
100
AcDbCircle
 10
441.5736603528408
 20
329.4842429537555
 30
0.0
 40
1.0
100
AcDbArc
 50
0.0
 51
90.0
  0
ARC
  5
48B
330
2
100
AcDbEntity
  8
4
100
AcDbCircle
 10
441.5736603528408
 20
325.4842429537555
 30
0.0
 40
1.0
100
AcDbArc
 50
270.0
 51
0.0
  0
LINE
  5
48C
330
2
100
AcDbEntity
  8
4
100
AcDbLine
 10
441.5736603528408
 20
324.4842429537555
 30
0.0
 11
437.5736603528408
 21
324.4842429537555
 31
0.0
  0
LINE
  5
48D
330
2
100
AcDbEntity
  8
4
100
AcDbLine
 10
441.5736603528408
 20
330.4842429537555
 30
0.0
 11
437.5736603528408
 21
330.4842429537555
 31
0.0
  0
LINE
  5
48E
330
2
100
AcDbEntity
  8
4
100
AcDbLine
 10
442.5736603528408
 20
329.4842429537555
 30
0.0
 11
442.5736603528408
 21
325.4842429537555
 31
0.0
  0
ARC
  5
48F
330
2
100
AcDbEntity
  8
4
100
AcDbCircle
 10
460.0736603528408
 20
320.4842429537555
 30
0.0
 40
5.0
100
AcDbArc
 50
270.0
 51
0.0
  0
ARC
  5
490
330
2
100
AcDbEntity
  8
4
100
AcDbCircle
 10
448.0736603528408
 20
316.4842429537555
 30
0.0
 40
1.0
100
AcDbArc
 50
180.0
 51
270.0
  0
ARC
  5
491
330
2
100
AcDbEntity
  8
4
100
AcDbCircle
 10
467.0736603528408
 20
313.4842429537555
 30
0.0
 40
2.0
100
AcDbArc
 50
270.0
 51
0.0
  0
LINE
  5
492
330
2
100
AcDbEntity
  8
4
100
AcDbLine
 10
460.0736603528408
 20
315.4842429537555
 30
0.0
 11
448.0736603528408
 21
315.4842429537555
 31
0.0
  0
ARC
  5
493
330
2
100
AcDbEntity
  8
4
100
AcDbCircle
 10
447.0736603528408
 20
325.9842429537555
 30
0.0
 40
4.5
100
AcDbArc
 50
280.4756816963804
 51
79.52431830361964
  0
LINE
  5
494
330
2
100
AcDbEntity
  8
4
100
AcDbLine
 10
447.0736603528408
 20
320.5759160405576
 30
0.0
 11
447.0736603528408
 21
316.4842429537555
 31
0.0
  0
ARC
  5
495
330
2
100
AcDbEntity
  8
4
100
AcDbCircle
 10
448.0736603528408
 20
320.5759160405576
 30
0.0
 40
1.0
100
AcDbArc
 50
100.4756816963802
 51
180.0
  0
ARC
  5
496
330
2
100
AcDbEntity
  8
4
100
AcDbCircle
 10
448.0736603528405
 20
331.3925698669534
 30
0.0
 40
1.0
100
AcDbArc
 50
180.0
 51
259.5243183036197
  0
ARC
  5
497
330
2
100
AcDbEntity
  8
4
100
AcDbCircle
 10
462.0736603528408
 20
324.6747679344423
 30
0.0
 40
3.0
100
AcDbArc
 50
0.0
 51
75.52248781407
  0
LINE
  5
498
330
2
100
AcDbEntity
  8
4
100
AcDbLine
 10
465.0736603528408
 20
324.6747679344423
 30
0.0
 11
465.0736603528408
 21
320.4842429537555
 31
0.0
  0
ARC
  5
499
330
2
100
AcDbEntity
  8
4
100
AcDbCircle
 10
427.5736603528408
 20
334.9842429537555
 30
0.0
 40
4.5
100
AcDbArc
 50
0.0
 51
90.0
  0
LINE
  5
49A
330
2
100
AcDbEntity
  8
4
100
AcDbLine
 10
464.0736603528408
 20
339.4842429537555
 30
0.0
 11
448.0736603528408
 21
339.4842429537555
 31
0.0
  0
ARC
  5
49B
330
2
100
AcDbEntity
  8
4
100
AcDbCircle
 10
448.0736603528408
 20
338.4842429537555
 30
0.0
 40
1.0
100
AcDbArc
 50
90.0
 51
180.0
  0
ARC
  5
49C
330
2
100
AcDbEntity
  8
4
100
AcDbCircle
 10
467.0736603528408
 20
341.4842429537555
 30
0.0
 40
2.0
100
AcDbArc
 50
0.0
 51
90.0
  0
ARC
  5
49D
330
2
100
AcDbEntity
  8
4
100
AcDbCircle
 10
464.0736603528408
 20
338.4842429537555
 30
0.0
 40
1.0
100
AcDbArc
 50
0.0
 51
90.0
  0
ARC
  5
49E
330
2
100
AcDbEntity
  8
4
100
AcDbCircle
 10
464.0736603528408
 20
334.4842429537555
 30
0.0
 40
1.0
100
AcDbArc
 50
270.0
 51
0.0
  0
LINE
  5
49F
330
2
100
AcDbEntity
  8
4
100
AcDbLine
 10
464.0736603528408
 20
333.4842429537555
 30
0.0
 11
463.5736603528408
 21
333.4842429537555
 31
0.0
  0
LINE
  5
4A0
330
2
100
AcDbEntity
  8
4
100
AcDbLine
 10
465.0736603528408
 20
338.4842429537555
 30
0.0
 11
465.0736603528408
 21
334.4842429537555
 31
0.0
  0
LINE
  5
4A2
330
2
100
AcDbEntity
  8
4
100
AcDbLine
 10
333.0736603528408
 20
271.4842429537555
 30
0.0
 11
333.0736603528408
 21
278.0834397376653
 31
0.0
  0
LINE
  5
4A3
330
2
100
AcDbEntity
  8
4
100
AcDbLine
 10
811.2327001568015
 20
313.7276156713503
 30
0.0
 11
813.1858814216373
 21
341.6594090786255
 31
0.0
  0
ARC
  5
4A4
330
2
100
AcDbEntity
  8
4
100
AcDbCircle
 10
813.2278282573211
 20
313.588102723862
 30
0.0
 40
2.0
100
AcDbArc
 50
175.999999999997
 51
265.9999999999905
  0
LINE
  5
4A5
330
2
100
AcDbEntity
  8
4
100
AcDbLine
 10
813.088315309833
 20
311.5929746233423
 30
0.0
 11
814.3783489396387
 21
311.5027666843101
 31
0.0
  0
ARC
  5
4A6
330
2
100
AcDbEntity
  8
4
100
AcDbCircle
 10
815.181009522157
 20
341.5198961311371
 30
0.0
 40
2.0
100
AcDbArc
 50
85.9999999999905
 51
175.999999999997
  0
LINE
  5
4A7
330
2
100
AcDbEntity
  8
4
100
AcDbLine
 10
815.3205224696451
 20
343.5150242316569
 30
0.0
 11
816.7556680192606
 21
343.4146690786974
 31
0.0
  0
ARC
  5
523
330
2
100
AcDbEntity
  8
4
100
AcDbCircle
 10
373.073660352841
 20
278.0834397376653
 30
0.0
 40
4.0
100
AcDbArc
 50
77.54420737409448
 51
180.0
  0
ARC
  5
524
330
2
100
AcDbEntity
  8
4
100
AcDbCircle
 10
329.0736603528408
 20
278.0834397376653
 30
0.0
 40
4.0
100
AcDbArc
 50
0.0
 51
102.4557926259055
  0
LINE
  5
564
330
2
100
AcDbEntity
  8
4
100
AcDbLine
 10
141.0736603528409
 20
317.9842429537555
 30
0.0
 11
141.0736603528409
 21
288.9842429537582
 31
0.0
  0
LINE
  5
565
330
2
100
AcDbEntity
  8
4
100
AcDbLine
 10
196.0736603528409
 20
317.9842429537555
 30
0.0
 11
196.0736603528411
 21
314.9842429537555
 31
0.0
  0
LINE
  5
566
330
2
100
AcDbEntity
  8
4
100
AcDbLine
 10
201.0736603528411
 20
316.4842429537555
 30
0.0
 11
201.0736603528411
 21
286.4842429537555
 31
0.0
  0
LINE
  5
567
330
2
100
AcDbEntity
  8
4
100
AcDbLine
 10
201.0736603528409
 20
314.9842429537555
 30
0.0
 11
142.0736603528381
 21
314.9842429537555
 31
0.0
  0
LINE
  5
568
330
2
100
AcDbEntity
  8
4
100
AcDbLine
 10
201.0736603528409
 20
287.9842429537555
 30
0.0
 11
142.0736603528436
 21
287.9842429537555
 31
0.0
  0
LINE
  5
569
330
2
100
AcDbEntity
  8
4
100
AcDbLine
 10
196.0736603528409
 20
317.9842429537555
 30
0.0
 11
141.0736603528409
 21
317.9842429537555
 31
0.0
  0
LINE
  5
56E
330
2
100
AcDbEntity
  8
4
100
AcDbLine
 10
222.0736603528411
 20
316.4842429537555
 30
0.0
 11
201.0736603528409
 21
316.4842429537555
 31
0.0
  0
LINE
  5
56F
330
2
100
AcDbEntity
  8
4
100
AcDbLine
 10
222.0736603528411
 20
286.4842429537555
 30
0.0
 11
201.0736603528409
 21
286.4842429537555
 31
0.0
  0
LINE
  5
581
330
2
100
AcDbEntity
  8
4
100
AcDbLine
 10
222.0736603528409
 20
666.151522898436
 30
0.0
 11
201.0736603528408
 21
666.151522898436
 31
0.0
  0
LINE
  5
582
330
2
100
AcDbEntity
  8
4
100
AcDbLine
 10
222.073660352841
 20
701.1515228984358
 30
0.0
 11
201.0736603528409
 21
701.151522898436
 31
0.0
  0
LINE
  5
583
330
2
100
AcDbEntity
  8
4
100
AcDbLine
 10
142.0736603528409
 20
697.1515228984363
 30
0.0
 11
141.0736603528409
 21
696.1515228984363
 31
0.0
  0
LINE
  5
584
330
2
100
AcDbEntity
  8
4
100
AcDbLine
 10
142.0736603528409
 20
697.1515228984363
 30
0.0
 11
142.0736603528409
 21
687.1515228984363
 31
0.0
  0
LINE
  5
585
330
2
100
AcDbEntity
  8
4
100
AcDbLine
 10
142.0736603528409
 20
680.1515228984363
 30
0.0
 11
142.0736603528408
 21
670.1515228984365
 31
0.0
  0
LINE
  5
586
330
2
100
AcDbEntity
  8
4
100
AcDbLine
 10
142.0736603528408
 20
670.1515228984363
 30
0.0
 11
141.0736603528408
 21
671.1515228984363
 31
0.0
  0
LINE
  5
587
330
2
100
AcDbEntity
  8
4
100
AcDbLine
 10
141.0736603528409
 20
696.1515228984363
 30
0.0
 11
141.0736603528408
 21
671.1515228984363
 31
0.0
  0
ARC
  5
588
330
2
100
AcDbEntity
  8
4
100
AcDbCircle
 10
200.0736603528409
 20
698.151522898436
 30
0.0
 40
1.0
100
AcDbArc
 50
270.0
 51
0.0
  0
ARC
  5
589
330
2
100
AcDbEntity
  8
4
100
AcDbCircle
 10
200.0736603528408
 20
669.151522898436
 30
0.0
 40
1.0
100
AcDbArc
 50
0.0
 51
90.0
  0
LINE
  5
58A
330
2
100
AcDbEntity
  8
4
100
AcDbLine
 10
201.0736603528409
 20
701.151522898436
 30
0.0
 11
201.0736603528408
 21
666.151522898436
 31
0.0
  0
ARC
  5
58B
330
2
100
AcDbEntity
  8
4
100
AcDbCircle
 10
192.5736603528409
 20
683.651522898436
 30
0.0
 40
3.5
100
AcDbArc
 50
269.9999999999991
 51
90.0
  0
LINE
  5
58C
330
2
100
AcDbEntity
  8
4
100
AcDbLine
 10
192.5736603528408
 20
680.151522898436
 30
0.0
 11
141.0736603528409
 21
680.1515228984363
 31
0.0
  0
LINE
  5
58D
330
2
100
AcDbEntity
  8
4
100
AcDbLine
 10
192.5736603528409
 20
687.151522898436
 30
0.0
 11
141.0736603528409
 21
687.1515228984363
 31
0.0
  0
LINE
  5
58E
330
2
100
AcDbEntity
  8
4
100
AcDbLine
 10
200.0736603528408
 20
670.151522898436
 30
0.0
 11
142.0736603528408
 21
670.1515228984363
 31
0.0
  0
LINE
  5
58F
330
2
100
AcDbEntity
  8
4
100
AcDbLine
 10
200.0736603528409
 20
697.151522898436
 30
0.0
 11
142.0736603528409
 21
697.1515228984363
 31
0.0
  0
LINE
  5
590
330
2
100
AcDbEntity
  8
4
100
AcDbLine
 10
218.0736603528412
 20
701.1515228984358
 30
0.0
 11
218.0736603528412
 21
701.6515228984351
 31
0.0
  0
LINE
  5
591
330
2
100
AcDbEntity
  8
4
100
AcDbLine
 10
221.073660352841
 20
666.151522898436
 30
0.0
 11
221.073660352841
 21
633.6515228984351
 31
0.0
  0
LINE
  5
596
330
2
100
AcDbEntity
  8
4
100
AcDbLine
 10
560.0736603528409
 20
314.9842429537582
 30
0.0
 11
561.0736603528409
 21
313.9842429537582
 31
0.0
  0
LINE
  5
597
330
2
100
AcDbEntity
  8
4
100
AcDbLine
 10
560.0736603528409
 20
314.9842429537582
 30
0.0
 11
560.0736603528409
 21
287.9842429537555
 31
0.0
  0
LINE
  5
598
330
2
100
AcDbEntity
  8
4
100
AcDbLine
 10
560.0736603528409
 20
287.9842429537582
 30
0.0
 11
561.0736603528409
 21
288.9842429537582
 31
0.0
  0
LINE
  5
599
330
2
100
AcDbEntity
  8
4
100
AcDbLine
 10
142.0736603528409
 20
314.9842429537582
 30
0.0
 11
141.0736603528409
 21
313.9842429537582
 31
0.0
  0
LINE
  5
59A
330
2
100
AcDbEntity
  8
4
100
AcDbLine
 10
142.0736603528409
 20
314.9842429537582
 30
0.0
 11
142.0736603528409
 21
287.9842429537555
 31
0.0
  0
LINE
  5
59B
330
2
100
AcDbEntity
  8
4
100
AcDbLine
 10
142.0736603528409
 20
287.9842429537582
 30
0.0
 11
141.0736603528409
 21
288.9842429537582
 31
0.0
  0
LINE
  5
59E
330
2
100
AcDbEntity
  8
4
100
AcDbLine
 10
1042.234932673975
 20
197.4842429537555
 30
0.0
 11
1043.234932673975
 21
196.4842429537555
 31
0.0
  0
LINE
  5
59F
330
2
100
AcDbEntity
  8
4
100
AcDbLine
 10
1042.234932673975
 20
197.4842429537555
 30
0.0
 11
1042.234932673975
 21
159.4842429537555
 31
0.0
  0
LINE
  5
5A0
330
2
100
AcDbEntity
  8
4
100
AcDbLine
 10
1043.234932673975
 20
160.4842429537555
 30
0.0
 11
1042.234932673975
 21
159.4842429537555
 31
0.0
  0
LINE
  5
5A3
330
2
100
AcDbEntity
  8
4
100
AcDbLine
 10
683.2349326739745
 20
160.4842429537555
 30
0.0
 11
683.2349326739745
 21
200.9842429537555
 31
0.0
  0
LINE
  5
5A4
330
2
100
AcDbEntity
  8
4
100
AcDbLine
 10
753.234932673975
 20
197.4842429537555
 30
0.0
 11
753.234932673975
 21
200.9842429537555
 31
0.0
  0
LINE
  5
5A5
330
2
100
AcDbEntity
  8
4
100
AcDbLine
 10
758.234932673975
 20
158.4842429537555
 30
0.0
 11
758.234932673975
 21
198.4842429537555
 31
0.0
  0
LINE
  5
5A6
330
2
100
AcDbEntity
  8
4
100
AcDbLine
 10
777.2349326739745
 20
209.4842429537555
 30
0.0
 11
776.2349326739745
 21
209.4842429537555
 31
0.0
  0
LINE
  5
5A7
330
2
100
AcDbEntity
  8
4
100
AcDbLine
 10
777.2349326739745
 20
147.4842429537555
 30
0.0
 11
776.234932673975
 21
147.4842429537555
 31
0.0
  0
LINE
  5
5A8
330
2
100
AcDbEntity
  8
4
100
AcDbLine
 10
776.234932673975
 20
147.4842429537555
 30
0.0
 11
776.2349326739745
 21
209.4842429537555
 31
0.0
  0
LINE
  5
5A9
330
2
100
AcDbEntity
  8
4
100
AcDbLine
 10
776.2349326739746
 20
198.4842429537555
 30
0.0
 11
758.2349326739741
 21
198.4842429537555
 31
0.0
  0
LINE
  5
5AA
330
2
100
AcDbEntity
  8
4
100
AcDbLine
 10
776.2349326739749
 20
158.4842429537555
 30
0.0
 11
758.2349326739741
 21
158.4842429537555
 31
0.0
  0
LINE
  5
5AB
330
2
100
AcDbEntity
  8
4
100
AcDbLine
 10
753.234932673975
 20
200.9842429537555
 30
0.0
 11
683.2349326739745
 21
200.9842429537555
 31
0.0
  0
LINE
  5
5AC
330
2
100
AcDbEntity
  8
4
100
AcDbLine
 10
758.2349326739741
 20
159.4842429537555
 30
0.0
 11
684.2349326739745
 21
159.4842429537555
 31
0.0
  0
LINE
  5
5AD
330
2
100
AcDbEntity
  8
4
100
AcDbLine
 10
758.2349326739741
 20
197.4842429537555
 30
0.0
 11
684.2349326739745
 21
197.4842429537555
 31
0.0
  0
LINE
  5
5AE
330
2
100
AcDbEntity
  8
4
100
AcDbLine
 10
684.2349326739745
 20
197.4842429537555
 30
0.0
 11
683.2349326739745
 21
196.4842429537555
 31
0.0
  0
LINE
  5
5AF
330
2
100
AcDbEntity
  8
4
100
AcDbLine
 10
684.2349326739745
 20
197.4842429537555
 30
0.0
 11
684.2349326739745
 21
159.4842429537555
 31
0.0
  0
LINE
  5
5B0
330
2
100
AcDbEntity
  8
4
100
AcDbLine
 10
683.2349326739745
 20
160.4842429537555
 30
0.0
 11
684.2349326739745
 21
159.4842429537555
 31
0.0
  0
LINE
  5
5C7
330
2
100
AcDbEntity
  8
4
100
AcDbLine
 10
331.0736603528401
 20
596.651522898436
 30
0.0
 11
331.07366035284
 21
578.6515228984329
 31
0.0
  0
LINE
  5
5C8
330
2
100
AcDbEntity
  8
4
100
AcDbLine
 10
332.0736603528389
 20
504.6515228984329
 30
0.0
 11
333.0736603528389
 21
503.6515228984329
 31
0.0
  0
LINE
  5
5C9
330
2
100
AcDbEntity
  8
4
100
AcDbLine
 10
332.0736603528389
 20
504.6515228984329
 30
0.0
 11
346.0736603528389
 21
504.6515228984329
 31
0.0
  0
ARC
  5
5CA
330
2
100
AcDbEntity
  8
4
100
AcDbCircle
 10
351.07366035284
 20
568.6515228984326
 30
0.0
 40
5.0
100
AcDbArc
 50
89.99999999999935
 51
180.0
  0
LINE
  5
5CB
330
2
100
AcDbEntity
  8
4
100
AcDbLine
 10
351.0736603528399
 20
573.6515228984326
 30
0.0
 11
351.0736603528399
 21
573.6515228984326
 31
0.0
  0
ARC
  5
5CC
330
2
100
AcDbEntity
  8
4
100
AcDbCircle
 10
331.0736603528401
 20
577.6515228984329
 30
0.0
 40
1.0
100
AcDbArc
 50
0.0
 51
90.0
  0
LINE
  5
5CD
330
2
100
AcDbEntity
  8
4
100
AcDbLine
 10
332.07366035284
 20
577.6515228984329
 30
0.0
 11
332.0736603528389
 21
504.6515228984329
 31
0.0
  0
LINE
  5
5CE
330
2
100
AcDbEntity
  8
4
100
AcDbLine
 10
346.0736603528399
 20
568.6515228984329
 30
0.0
 11
346.0736603528389
 21
503.6515228984329
 31
0.0
  0
LINE
  5
5CF
330
2
100
AcDbEntity
  8
4
100
AcDbLine
 10
369.0736603528389
 20
503.6515228984324
 30
0.0
 11
370.0736603528389
 21
504.6515228984324
 31
0.0
  0
LINE
  5
5D0
330
2
100
AcDbEntity
  8
4
100
AcDbLine
 10
356.0736603528389
 20
504.6515228984326
 30
0.0
 11
370.0736603528389
 21
504.6515228984324
 31
0.0
  0
LINE
  5
5D1
330
2
100
AcDbEntity
  8
4
100
AcDbLine
 10
333.0736603528389
 20
503.6515228984329
 30
0.0
 11
369.0736603528389
 21
503.6515228984324
 31
0.0
  0
ARC
  5
5D2
330
2
100
AcDbEntity
  8
4
100
AcDbCircle
 10
351.07366035284
 20
568.6515228984326
 30
0.0
 40
5.0
100
AcDbArc
 50
0.0
 51
89.99999999999935
  0
ARC
  5
5D3
330
2
100
AcDbEntity
  8
4
100
AcDbCircle
 10
371.0736603528401
 20
577.6515228984324
 30
0.0
 40
1.0
100
AcDbArc
 50
90.0
 51
180.0
  0
LINE
  5
5D4
330
2
100
AcDbEntity
  8
4
100
AcDbLine
 10
371.0736603528401
 20
596.6515228984351
 30
0.0
 11
371.07366035284
 21
578.6515228984324
 31
0.0
  0
LINE
  5
5D5
330
2
100
AcDbEntity
  8
4
100
AcDbLine
 10
331.07366035284
 20
578.6515228984329
 30
0.0
 11
371.07366035284
 21
578.6515228984324
 31
0.0
  0
LINE
  5
5D6
330
2
100
AcDbEntity
  8
4
100
AcDbLine
 10
370.07366035284
 20
577.6515228984324
 30
0.0
 11
370.0736603528389
 21
504.6515228984324
 31
0.0
  0
LINE
  5
5D7
330
2
100
AcDbEntity
  8
4
100
AcDbLine
 10
356.0736603528399
 20
568.6515228984326
 30
0.0
 11
356.0736603528389
 21
503.6515228984326
 31
0.0
  0
LINE
  5
5D8
330
2
100
AcDbEntity
  8
4
100
AcDbLine
 10
382.0736603528398
 20
596.6515228984349
 30
0.0
 11
382.0736603528398
 21
597.6515228984349
 31
0.0
  0
LINE
  5
5D9
330
2
100
AcDbEntity
  8
4
100
AcDbLine
 10
320.0736603528398
 20
596.6515228984363
 30
0.0
 11
320.07366035284
 21
597.6515228984354
 31
0.0
  0
LINE
  5
5DA
330
2
100
AcDbEntity
  8
4
100
AcDbLine
 10
382.0736603528398
 20
596.6515228984349
 30
0.0
 11
320.0736603528398
 21
596.6515228984363
 31
0.0
  0
LINE
  5
5DC
330
2
100
AcDbEntity
  8
4
100
AcDbLine
 10
346.0736603528411
 20
200.9842429537554
 30
0.0
 11
356.0736603528409
 21
200.9842429537554
 31
0.0
  0
LINE
  5
5DD
330
2
100
AcDbEntity
  8
4
100
AcDbLine
 10
346.0736603528413
 20
192.9842429537554
 30
0.0
 11
356.0736603528409
 21
192.9842429537554
 31
0.0
  0
LINE
  5
5DE
330
2
100
AcDbEntity
  8
4
100
AcDbLine
 10
346.0736603528411
 20
200.9842429537554
 30
0.0
 11
346.0736603528413
 21
192.9842429537554
 31
0.0
  0
LINE
  5
5DF
330
2
100
AcDbEntity
  8
4
100
AcDbLine
 10
356.0736603528409
 20
200.9842429537554
 30
0.0
 11
356.0736603528409
 21
192.9842429537554
 31
0.0
  0
ARC
  5
5E0
330
2
100
AcDbEntity
  8
4
100
AcDbCircle
 10
351.0736603528409
 20
178.4842429537554
 30
0.0
 40
19.0
100
AcDbArc
 50
105.2575232904553
 51
74.74247670954186
  0
CIRCLE
  5
5E3
330
2
100
AcDbEntity
  8
4
100
AcDbCircle
 10
351.0736603528409
 20
178.4842429537555
 30
0.0
 40
31.0
  0
ENDSEC
  0
SECTION
  2
OBJECTS
  0
DICTIONARY
  5
C
330
0
100
AcDbDictionary
281
     1
  3
ACAD_CIP_PREVIOUS_PRODUCT_INFO
350
4FA
  3
ACAD_COLOR
350
4A
  3
ACAD_DETAILVIEWSTYLE
350
4F4
  3
ACAD_GROUP
350
37
  3
ACAD_LAYOUT
350
19
  3
ACAD_MATERIAL
350
E
  3
ACAD_MLEADERSTYLE
350
4D
  3
ACAD_MLINESTYLE
350
38
  3
ACAD_PLOTSETTINGS
350
39
  3
ACAD_PLOTSTYLENAME
350
B
  3
ACAD_SCALELIST
350
4B
  3
ACAD_SECTIONVIEWSTYLE
350
4F2
  3
ACAD_TABLESTYLE
350
4C
  3
ACAD_VISUALSTYLE
350
2F
  3
ACDBHEADERROUNDTRIPXREC
350
5E8
  3
AcDbVariableDictionary
350
4D1
  3
DWGPROPS
350
5EB
  0
DICTIONARY
  5
31
330
2C
100
AcDbDictionary
280
     1
281
     1
  3
ACAD_XREC_ROUNDTRIP
360
5EC
  0
DICTIONARY
  5
22
330
21
100
AcDbDictionary
280
     1
281
     1
  3
ACAD_LAYERSTATES
360
23
  0
DICTIONARY
  5
8
330
7
100
AcDbDictionary
280
     1
281
     1
  3
ADSK_XREC_LAYER_RECONCILED
360
9
  0
DICTIONARY
  5
352
330
351
100
AcDbDictionary
280
     1
281
     1
  3
ADSK_XREC_LAYER_RECONCILED
360
353
  0
DICTIONARY
  5
4F
330
4E
100
AcDbDictionary
280
     1
281
     1
  3
ADSK_XREC_LAYER_RECONCILED
360
50
  0
DICTIONARY
  5
69
330
68
100
AcDbDictionary
280
     1
281
     1
  3
ADSK_XREC_LAYER_RECONCILED
360
6A
  0
DICTIONARY
  5
9E
330
9D
100
AcDbDictionary
280
     1
281
     1
  3
ADSK_XREC_LAYER_RECONCILED
360
9F
  0
DICTIONARY
  5
14A
330
149
100
AcDbDictionary
280
     1
281
     1
  3
ADSK_XREC_LAYER_RECONCILED
360
14B
  0
DICTIONARY
  5
3
330
2
100
AcDbDictionary
280
     1
281
     1
  3
ACAD_SORTENTS
360
4CF
  0
XRECORD
  5
4FA
102
{ACAD_REACTORS
330
C
102
}
330
C
100
AcDbXrecord
280
     1
300
ACD
300
2014
300
ACD_F_S
  0
DICTIONARY
  5
4A
102
{ACAD_REACTORS
330
C
102
}
330
C
100
AcDbDictionary
281
     1
  0
DICTIONARY
  5
4F4
102
{ACAD_REACTORS
330
C
102
}
330
C
100
AcDbDictionary
281
     1
  3
Imperial24
350
4F5
  0
DICTIONARY
  5
37
102
{ACAD_REACTORS
330
C
102
}
330
C
100
AcDbDictionary
281
     1
  0
DICTIONARY
  5
19
102
{ACAD_REACTORS
330
C
102
}
330
C
100
AcDbDictionary
281
     1
  3
Model
350
18
  3
レイアウト1
350
20
  0
DICTIONARY
  5
E
102
{ACAD_REACTORS
330
C
102
}
330
C
100
AcDbDictionary
281
     1
  3
ByBlock
350
42
  3
ByLayer
350
3A
  3
Global
350
D
  0
DICTIONARY
  5
4D
102
{ACAD_REACTORS
330
C
102
}
330
C
100
AcDbDictionary
281
     1
  3
Standard
350
4F1
  0
DICTIONARY
  5
38
102
{ACAD_REACTORS
330
C
102
}
330
C
100
AcDbDictionary
281
     1
  3
STANDARD
350
52
  0
DICTIONARY
  5
39
102
{ACAD_REACTORS
330
C
102
}
330
C
100
AcDbDictionary
281
     1
  0
ACDBDICTIONARYWDFLT
  5
B
102
{ACAD_REACTORS
330
C
102
}
330
C
100
AcDbDictionary
281
     1
  3
Normal
350
A
100
AcDbDictionaryWithDefault
340
A
  0
DICTIONARY
  5
4B
102
{ACAD_REACTORS
330
C
102
}
330
C
100
AcDbDictionary
281
     1
  3
A0
350
56
  3
A1
350
57
  3
A2
350
58
  3
A3
350
59
  3
A4
350
5A
  3
A5
350
5B
  3
A6
350
5C
  3
A7
350
5D
  3
A8
350
5E
  3
A9
350
5F
  3
B0
350
60
  3
B1
350
61
  3
B2
350
62
  3
B3
350
63
  3
B4
350
64
  3
B5
350
65
  3
B6
350
66
  0
DICTIONARY
  5
4F2
102
{ACAD_REACTORS
330
C
102
}
330
C
100
AcDbDictionary
281
     1
  3
Imperial24
350
4F3
  0
DICTIONARY
  5
4C
102
{ACAD_REACTORS
330
C
102
}
330
C
100
AcDbDictionary
281
     1
  3
Standard
350
53
  0
DICTIONARY
  5
2F
102
{ACAD_REACTORS
330
C
102
}
330
C
100
AcDbDictionary
281
     1
  3
2dWireframe
350
2E
  3
Basic
350
4E0
  3
Brighten
350
4E4
  3
ColorChange
350
4E8
  3
Conceptual
350
4E2
  3
Dim
350
4E3
  3
EdgeColorOff
350
4F0
  3
Facepattern
350
4E7
  3
Flat
350
4DC
  3
FlatWithEdges
350
4DD
  3
Gouraud
350
4DE
  3
GouraudWithEdges
350
4DF
  3
Hidden
350
4E1
  3
JitterOff
350
4EE
  3
Linepattern
350
4E6
  3
OverhangOff
350
4EF
  3
Realistic
350
54
  3
Shaded
350
4ED
  3
Shaded with edges
350
4EC
  3
Shades of Gray
350
4E9
  3
Sketchy
350
4EA
  3
Thicken
350
4E5
  3
Wireframe
350
55
  3
X-Ray
350
4EB
  0
DICTIONARY
  5
5E8
102
{ACAD_REACTORS
330
C
102
}
330
C
100
AcDbDictionary
281
     1
  3
COLORDICT
350
5E9
  3
MATERIALDICT
350
5EA
  0
DICTIONARY
  5
4D1
102
{ACAD_REACTORS
330
C
102
}
330
C
100
AcDbDictionary
281
     1
  3
CANNOSCALE
350
4D7
  3
CMLEADERSTYLE
350
4D3
  3
CTABLESTYLE
350
4D2
  3
CVIEWDETAILSTYLE
350
4D4
  3
CVIEWSECTIONSTYLE
350
4D5
  3
DIMASSOC
350
5E6
  3
HIDETEXT
350
5E7
  3
LAYEREVAL
350
4D9
  3
LAYERNOTIFY
350
4DA
  3
LIGHTINGUNITS
350
4D8
  3
MSLTSCALE
350
4D6
  3
XCLIPFRAME
350
55E
  0
XRECORD
  5
5EB
102
{ACAD_REACTORS
330
C
102
}
330
C
100
AcDbXrecord
280
     1
  1
DWGPROPS COOKIE
  2

  3

  4

  6

  7

  8
sg-d04
  9

300
=
301
=
302
=
303
=
304
=
305
=
306
=
307
=
308
=
309
=
 40
0.0
 41
2457417.219694965
 42
2457871.45567125
  1

 90
        0
  0
XRECORD
  5
5EC
102
{ACAD_REACTORS
330
31
102
}
330
31
100
AcDbXrecord
280
     1
102
VTR_0.000_0.000_1.000_1.000_VISUALSTYLE
340
2E
102
VTR_0.000_0.000_1.000_1.000_GRIDDISPLAY
 70
     3
102
VTR_0.000_0.000_1.000_1.000_GRIDMAJOR
 70
     5
102
VTR_0.000_0.000_1.000_1.000_DEFAULTLIGHTING
280
     1
102
VTR_0.000_0.000_1.000_1.000_DEFAULTLIGHTINGTYPE
 70
     1
102
VTR_0.000_0.000_1.000_1.000_BRIGHTNESS
141
0.0
102
VTR_0.000_0.000_1.000_1.000_CONTRAST
142
0.0
  0
DICTIONARY
  5
23
102
{ACAD_REACTORS
330
22
102
}
330
22
100
AcDbDictionary
281
     1
  0
XRECORD
  5
9
102
{ACAD_REACTORS
330
8
102
}
330
8
100
AcDbXrecord
280
     1
290
     1
  0
XRECORD
  5
353
102
{ACAD_REACTORS
330
352
102
}
330
352
100
AcDbXrecord
280
     1
290
     1
  0
XRECORD
  5
50
102
{ACAD_REACTORS
330
4F
102
}
330
4F
100
AcDbXrecord
280
     1
290
     1
  0
XRECORD
  5
6A
102
{ACAD_REACTORS
330
69
102
}
330
69
100
AcDbXrecord
280
     1
290
     1
  0
XRECORD
  5
9F
102
{ACAD_REACTORS
330
9E
102
}
330
9E
100
AcDbXrecord
280
     1
290
     1
  0
XRECORD
  5
14B
102
{ACAD_REACTORS
330
14A
102
}
330
14A
100
AcDbXrecord
280
     1
290
     1
  0
SORTENTSTABLE
  5
4CF
102
{ACAD_REACTORS
330
3
102
}
330
3
100
AcDbSortentsTable
330
2
331
0
  5
14D
331
B4
  5
B5
331
B5
  5
B6
331
B6
  5
B7
331
B7
  5
B8
331
B8
  5
B9
331
B9
  5
BA
331
BA
  5
BB
331
BB
  5
BC
331
BC
  5
BD
331
BD
  5
BE
331
BE
  5
BF
331
BF
  5
C0
331
C0
  5
C1
331
C1
  5
C2
331
C2
  5
C3
331
C3
  5
C4
331
C4
  5
C5
331
C5
  5
C6
331
C6
  5
C7
331
C7
  5
C8
331
C8
  5
C9
331
C9
  5
CA
331
CA
  5
CB
331
CB
  5
CC
331
CC
  5
CD
331
CD
  5
CE
331
CE
  5
CF
331
CF
  5
D0
331
D0
  5
D1
331
D1
  5
D2
331
D2
  5
D3
331
D3
  5
D4
331
D4
  5
D5
331
D5
  5
D6
331
D6
  5
D7
331
D7
  5
D8
331
D8
  5
D9
331
D9
  5
DA
331
DA
  5
DB
331
DB
  5
DC
331
DC
  5
DD
331
DD
  5
DE
331
DE
  5
DF
331
DF
  5
E0
331
E0
  5
E1
331
E1
  5
E2
331
E2
  5
E3
331
E3
  5
E4
331
E4
  5
E5
331
E5
  5
E6
331
E6
  5
E7
331
E7
  5
E8
331
E8
  5
E9
331
E9
  5
EA
331
EA
  5
EB
331
EB
  5
EC
331
EC
  5
ED
331
ED
  5
EE
331
EE
  5
EF
331
EF
  5
F0
331
F0
  5
F1
331
F1
  5
F2
331
F2
  5
F3
331
F3
  5
F4
331
F4
  5
F5
331
F5
  5
F6
331
F6
  5
F7
331
F7
  5
F8
331
F8
  5
F9
331
F9
  5
FA
331
FA
  5
FB
331
FB
  5
FC
331
FC
  5
FD
331
FD
  5
FE
331
FE
  5
FF
331
FF
  5
100
331
100
  5
101
331
101
  5
102
331
102
  5
103
331
103
  5
104
331
104
  5
105
331
105
  5
106
331
106
  5
107
331
107
  5
108
331
108
  5
109
331
109
  5
10A
331
10A
  5
10B
331
10B
  5
10C
331
10C
  5
10D
331
10D
  5
10E
331
10E
  5
10F
331
10F
  5
110
331
110
  5
111
331
111
  5
112
331
112
  5
113
331
113
  5
114
331
114
  5
116
331
115
  5
117
331
116
  5
118
331
117
  5
119
331
118
  5
11A
331
119
  5
11B
331
11A
  5
11C
331
11B
  5
11D
331
11C
  5
11E
331
11D
  5
11F
331
11E
  5
120
331
11F
  5
121
331
120
  5
122
331
121
  5
123
331
122
  5
124
331
123
  5
125
331
124
  5
126
331
125
  5
127
331
126
  5
128
331
127
  5
129
331
128
  5
12A
331
129
  5
12B
331
12A
  5
12C
331
12B
  5
12D
331
12C
  5
12E
331
12D
  5
12F
331
12E
  5
130
331
12F
  5
131
331
130
  5
132
331
131
  5
133
331
132
  5
134
331
133
  5
135
331
134
  5
136
331
135
  5
137
331
136
  5
138
331
137
  5
139
331
138
  5
13A
331
139
  5
13B
331
13A
  5
13C
331
13B
  5
13D
331
13C
  5
13E
331
13D
  5
13F
331
13E
  5
140
331
13F
  5
141
331
140
  5
142
331
141
  5
143
331
142
  5
144
331
143
  5
145
331
144
  5
146
331
145
  5
147
331
146
  5
148
331
147
  5
14C
331
15C
  5
15E
331
15D
  5
15F
331
15E
  5
160
331
15F
  5
161
331
160
  5
162
331
161
  5
163
331
163
  5
165
331
164
  5
166
331
165
  5
167
331
166
  5
168
331
167
  5
169
331
168
  5
16A
331
169
  5
16B
331
16A
  5
16C
331
170
  5
172
331
171
  5
173
331
172
  5
174
331
173
  5
175
331
174
  5
176
331
175
  5
177
331
176
  5
178
331
177
  5
179
331
178
  5
17A
331
179
  5
17B
331
17A
  5
17C
331
17B
  5
17D
331
17C
  5
17E
331
17D
  5
17F
331
17E
  5
180
331
17F
  5
181
331
180
  5
182
331
181
  5
183
331
182
  5
184
331
183
  5
185
331
184
  5
186
331
185
  5
187
331
186
  5
188
331
187
  5
189
331
188
  5
18A
331
189
  5
18B
331
18A
  5
18C
331
18B
  5
18D
331
18C
  5
18E
331
193
  5
195
331
194
  5
196
331
195
  5
197
331
196
  5
198
331
197
  5
199
331
198
  5
19A
331
19A
  5
19C
331
19B
  5
19D
331
19C
  5
19E
331
19D
  5
19F
331
19E
  5
1A0
331
19F
  5
1A1
331
1A0
  5
1A2
331
1A1
  5
1A3
331
1A2
  5
1A4
331
1A3
  5
1A5
331
1AE
  5
1B0
331
1AF
  5
1B1
331
1B0
  5
1B2
331
1B1
  5
1B3
331
1B2
  5
1B4
331
1B3
  5
1B5
331
1B4
  5
1B6
331
1B5
  5
1B7
331
1B6
  5
1B8
331
1B7
  5
1B9
331
1B8
  5
1BA
331
1B9
  5
1BB
331
1BA
  5
1BC
331
1BB
  5
1BD
331
1BC
  5
1BE
331
1BD
  5
1BF
331
1BE
  5
1C0
331
1BF
  5
1C1
331
1C0
  5
1C2
331
1C1
  5
1C3
331
1C2
  5
1C4
331
1C3
  5
1C5
331
1C4
  5
1C6
331
1C5
  5
1C7
331
1C6
  5
1C8
331
1C7
  5
1C9
331
1C8
  5
1CA
331
1C9
  5
1CB
331
1CA
  5
1CC
331
1CB
  5
1CD
331
1CC
  5
1CE
331
1CD
  5
1CF
331
1CE
  5
1D0
331
1CF
  5
1D1
331
1D0
  5
1D2
331
1D1
  5
1D3
331
1D2
  5
1D4
331
1D3
  5
1D5
331
1D4
  5
1D6
331
1D5
  5
1D7
331
1D6
  5
1D8
331
1D7
  5
1D9
331
1D8
  5
1DA
331
1D9
  5
1DB
331
1DA
  5
1DC
331
1DB
  5
1DD
331
1EC
  5
1EE
331
1ED
  5
1EF
331
1EE
  5
1F0
331
1EF
  5
1F1
331
1F2
  5
1F4
331
1F3
  5
1F5
331
1F4
  5
1F6
331
1F6
  5
1F8
331
1F9
  5
1FB
331
1FA
  5
1FC
331
1FB
  5
1FD
331
200
  5
202
331
203
  5
205
331
204
  5
206
331
209
  5
20B
331
212
  5
214
331
213
  5
215
331
214
  5
216
331
215
  5
217
331
216
  5
218
331
217
  5
219
331
218
  5
21A
331
219
  5
21B
331
21A
  5
21C
331
21B
  5
21D
331
21C
  5
21E
331
21D
  5
21F
331
21E
  5
220
331
21F
  5
221
331
220
  5
222
331
22A
  5
22C
331
22B
  5
22D
331
22C
  5
22E
331
22D
  5
22F
331
22E
  5
230
331
22F
  5
231
331
230
  5
232
331
231
  5
233
331
232
  5
234
331
233
  5
235
331
234
  5
236
331
239
  5
23B
331
23A
  5
23C
331
23B
  5
23D
331
23C
  5
23E
331
23D
  5
23F
331
23E
  5
240
331
23F
  5
241
331
240
  5
242
331
241
  5
243
331
242
  5
244
331
243
  5
245
331
244
  5
246
331
245
  5
247
331
246
  5
248
331
247
  5
249
331
248
  5
24A
331
249
  5
24B
331
24A
  5
24C
331
24D
  5
24F
331
24E
  5
250
331
24F
  5
251
331
250
  5
252
331
251
  5
253
331
252
  5
254
331
253
  5
255
331
254
  5
256
331
255
  5
257
331
256
  5
258
331
257
  5
259
331
258
  5
25A
331
259
  5
25B
331
25A
  5
25C
331
25B
  5
25D
331
25C
  5
25E
331
25D
  5
25F
331
25E
  5
260
331
25F
  5
261
331
260
  5
262
331
261
  5
263
331
262
  5
264
331
263
  5
265
331
264
  5
266
331
265
  5
267
331
266
  5
268
331
267
  5
269
331
268
  5
26A
331
269
  5
26B
331
26A
  5
26C
331
26B
  5
26D
331
26C
  5
26E
331
26D
  5
26F
331
26E
  5
270
331
26F
  5
271
331
270
  5
272
331
271
  5
273
331
272
  5
274
331
273
  5
275
331
274
  5
276
331
275
  5
277
331
276
  5
278
331
277
  5
279
331
278
  5
27A
331
279
  5
27B
331
27A
  5
27C
331
27B
  5
27D
331
27C
  5
27E
331
27D
  5
27F
331
27E
  5
280
331
27F
  5
281
331
280
  5
282
331
281
  5
283
331
282
  5
284
331
283
  5
285
331
284
  5
286
331
285
  5
287
331
286
  5
288
331
287
  5
289
331
288
  5
28A
331
289
  5
28B
331
28A
  5
28C
331
28B
  5
28D
331
28C
  5
28E
331
28D
  5
28F
331
28E
  5
290
331
28F
  5
291
331
290
  5
292
331
291
  5
293
331
292
  5
294
331
293
  5
295
331
294
  5
296
331
295
  5
297
331
296
  5
298
331
297
  5
299
331
298
  5
29A
331
299
  5
29B
331
29A
  5
29C
331
29B
  5
29D
331
29C
  5
29E
331
29D
  5
29F
331
29E
  5
2A0
331
29F
  5
2A1
331
2A0
  5
2A2
331
2A1
  5
2A3
331
2A2
  5
2A4
331
2A3
  5
2A5
331
2A4
  5
2A6
331
2A5
  5
2A7
331
2A6
  5
2A8
331
2A7
  5
2A9
331
2A9
  5
2AB
331
2AA
  5
2AC
331
2AB
  5
2AD
331
2AD
  5
2AF
331
2AE
  5
2B0
331
2AF
  5
2B1
331
2B0
  5
2B2
331
2B1
  5
2B3
331
2B2
  5
2B4
331
2B3
  5
2B5
331
2B4
  5
2B6
331
2B5
  5
2B7
331
2B6
  5
2B8
331
2B7
  5
2B9
331
2B8
  5
2BA
331
2B9
  5
2BB
331
2BA
  5
2BC
331
2BB
  5
2BD
331
2BC
  5
2BE
331
2BD
  5
2BF
331
2BE
  5
2C0
331
2BF
  5
2C1
331
2C0
  5
2C2
331
2C1
  5
2C3
331
2C5
  5
2C7
331
2C8
  5
2CA
331
2CB
  5
2CD
331
2CD
  5
2CF
331
2CE
  5
2D0
331
2CF
  5
2D1
331
2D0
  5
2D2
331
2D1
  5
2D3
331
2D3
  5
2D5
331
2D4
  5
2D6
331
2D5
  5
2D7
331
2D6
  5
2D8
331
2D7
  5
2D9
331
2DC
  5
2DE
331
2DD
  5
2DF
331
2E9
  5
2EB
331
2EA
  5
2EC
331
2EB
  5
2ED
331
2EC
  5
2EE
331
2ED
  5
2EF
331
2EE
  5
2F0
331
316
  5
318
331
317
  5
319
331
321
  5
323
331
322
  5
324
331
33A
  5
33C
331
33B
  5
33D
331
33C
  5
33E
331
33D
  5
33F
331
33E
  5
340
331
33F
  5
341
331
340
  5
342
331
341
  5
343
331
342
  5
345
331
343
  5
346
331
344
  5
347
331
345
  5
348
331
346
  5
34A
331
347
  5
34B
331
348
  5
34C
331
349
  5
34D
331
465
  5
469
331
466
  5
46A
331
467
  5
46B
331
468
  5
46C
331
469
  5
46D
331
46A
  5
46F
331
46B
  5
470
331
46C
  5
471
331
46D
  5
472
331
46F
  5
473
331
470
  5
474
331
471
  5
475
331
472
  5
476
331
473
  5
477
331
474
  5
478
331
475
  5
479
331
476
  5
47A
331
477
  5
47B
331
478
  5
47C
331
479
  5
47D
331
47A
  5
47E
331
47B
  5
47F
331
47C
  5
480
331
47D
  5
481
331
47E
  5
482
331
47F
  5
483
331
480
  5
484
331
481
  5
485
331
482
  5
486
331
483
  5
487
331
484
  5
488
331
485
  5
489
331
486
  5
48A
331
487
  5
48B
331
488
  5
48C
331
489
  5
48D
331
48A
  5
48E
331
48B
  5
48F
331
48C
  5
490
331
48D
  5
491
331
48E
  5
492
331
48F
  5
493
331
490
  5
494
331
491
  5
495
331
492
  5
496
331
493
  5
497
331
494
  5
498
331
495
  5
499
331
496
  5
49A
331
497
  5
49B
331
498
  5
49C
331
499
  5
49D
331
49A
  5
49E
331
49B
  5
49F
331
49C
  5
4A0
331
49D
  5
4A2
331
49E
  5
4A3
331
49F
  5
4A4
331
4A0
  5
4A5
331
4A2
  5
4A6
331
4A3
  5
4A7
331
4A4
  5
4A8
331
4A5
  5
4A9
331
4A6
  5
4AA
331
4A7
  5
4AB
331
523
  5
349
331
524
  5
344
331
564
  5
566
331
565
  5
567
331
566
  5
568
331
567
  5
569
331
568
  5
56A
331
569
  5
56B
331
56E
  5
570
331
56F
  5
572
331
581
  5
583
331
582
  5
584
331
583
  5
585
331
584
  5
586
331
585
  5
587
331
586
  5
588
331
587
  5
589
331
588
  5
58A
331
589
  5
58B
331
58A
  5
58C
331
58B
  5
58D
331
58C
  5
58E
331
58D
  5
58F
331
58E
  5
590
331
58F
  5
591
331
590
  5
B4
331
591
  5
115
  0
ACDBDETAILVIEWSTYLE
  5
4F5
102
{ACAD_REACTORS
330
4F4
102
}
102
{ACAD_XDICTIONARY
360
50C
102
}
330
4F4
100
AcDbModelDocViewStyle
 70
     0
  3
Imperial24
290
     0
100
AcDbDetailViewStyle
 70
     0
 71
     0
 90
        3
 71
     1
340
25
 40
0.24
340
0
 40
0.24
300

 40
0.36
280
     3
 71
     2
340
16
 90
       25
 71
     3
340
25
 40
0.24
 90
        1
 40
0.75
 90
        1
300
%<\AcVar ViewType \f "%tc1">% %<\AcVar ViewDetailId>%\PSCALE %<\AcVar ViewScale \f "%sn">%
 71
     4
340
16
 90
       25
340
16
 90
       25
280
     0
  0
LAYOUT
  5
18
102
{ACAD_REACTORS
330
19
102
}
330
19
100
AcDbPlotSettings
  1

  2
Bullzip PDF Printer.pc3
  4
A3
  6

 40
0.2
 41
0.0
 42
0.0
 43
0.0
 44
420.2
 45
297.1
 46
25.0
 47
12.0
 48
59.99999986
 49
0.0
140
1205.999997235
141
817.4999980924995
142
1.0
143
3.0
 70
 11936
 72
     1
 73
     0
 74
     4
  7
monochrome.ctb
 75
     0
147
0.3333333333333333
148
-59.99999986
149
0.0
100
AcDbLayout
  1
Model
 70
     0
 71
     0
 10
0.0
 20
0.0
 11
12.0
 21
9.0
 12
0.0
 22
0.0
 32
0.0
 14
137.0736603528408
 24
16.46423137036649
 34
0.0
 15
1048.786122118036
 25
869.6017584466631
 35
0.0
146
0.0
 13
0.0
 23
0.0
 33
0.0
 16
1.0
 26
0.0
 36
0.0
 17
0.0
 27
1.0
 37
0.0
 76
     0
330
2
331
2D
1001
ACAD_PSEXT
1000
Bullzip PDF Printer.pc3
1000
Bullzip PDF Printer
1000
BULLZIP
1000
Bullzip PDF Printer 10.1.0.1871
1070
     0
  0
LAYOUT
  5
20
102
{ACAD_REACTORS
330
19
102
}
330
19
100
AcDbPlotSettings
  1

  2
RICOH imagio Neo 250 RP-GL/2
  4

  6

 40
0.0
 41
0.0
 42
0.0
 43
0.0
 44
0.0
 45
0.0
 46
0.0
 47
0.0
 48
0.0
 49
0.0
140
0.0
141
0.0
142
1.0
143
1.0
 70
   688
 72
     0
 73
     0
 74
     5
  7
monochrome.ctb
 75
    16
147
1.0
148
0.0
149
0.0
100
AcDbLayout
  1
レイアウト1
 70
     0
 71
     1
 10
0.0
 20
0.0
 11
12.0
 21
9.0
 12
0.0
 22
0.0
 32
0.0
 14
1.000000000000000E+20
 24
1.000000000000000E+20
 34
1.000000000000000E+20
 15
-1.000000000000000E+20
 25
-1.000000000000000E+20
 35
-1.000000000000000E+20
146
0.0
 13
0.0
 23
0.0
 33
0.0
 16
1.0
 26
0.0
 36
0.0
 17
0.0
 27
1.0
 37
0.0
 76
     0
330
1B
  0
MATERIAL
  5
42
102
{ACAD_REACTORS
330
E
102
}
102
{ACAD_XDICTIONARY
360
5EE
102
}
330
E
100
AcDbMaterial
  1
ByBlock
 72
     0
 73
     2
 43
0.0208333333333333
 43
0.0
 43
0.0
 43
0.0
 43
0.0
 43
0.0208333333333333
 43
0.0
 43
0.0
 43
0.0
 43
0.0
 43
1.0
 43
0.0
 43
0.0
 43
0.0
 43
0.0
 43
1.0
 77
     0
 78
     2
 47
0.0208333333333333
 47
0.0
 47
0.0
 47
0.0
 47
0.0
 47
0.0208333333333333
 47
0.0
 47
0.0
 47
0.0
 47
0.0
 47
1.0
 47
0.0
 47
0.0
 47
0.0
 47
0.0
 47
1.0
171
     0
172
     2
 49
0.0208333333333333
 49
0.0
 49
0.0
 49
0.0
 49
0.0
 49
0.0208333333333333
 49
0.0
 49
0.0
 49
0.0
 49
0.0
 49
1.0
 49
0.0
 49
0.0
 49
0.0
 49
0.0
 49
1.0
175
     0
176
     2
142
0.0208333333333333
142
0.0
142
0.0
142
0.0
142
0.0
142
0.0208333333333333
142
0.0
142
0.0
142
0.0
142
0.0
142
1.0
142
0.0
142
0.0
142
0.0
142
0.0
142
1.0
179
     0
270
     2
144
0.0208333333333333
144
0.0
144
0.0
144
0.0
144
0.0
144
0.0208333333333333
144
0.0
144
0.0
144
0.0
144
0.0
144
1.0
144
0.0
144
0.0
144
0.0
144
0.0
144
1.0
274
     2
147
0.0208333333333333
147
0.0
147
0.0
147
0.0
147
0.0
147
0.0208333333333333
147
0.0
147
0.0
147
0.0
147
0.0
147
1.0
147
0.0
147
0.0
147
0.0
147
0.0
147
1.0
  0
MATERIAL
  5
3A
102
{ACAD_REACTORS
330
E
102
}
102
{ACAD_XDICTIONARY
360
5F0
102
}
330
E
100
AcDbMaterial
  1
ByLayer
 72
     0
 73
     2
 43
0.0208333333333333
 43
0.0
 43
0.0
 43
0.0
 43
0.0
 43
0.0208333333333333
 43
0.0
 43
0.0
 43
0.0
 43
0.0
 43
1.0
 43
0.0
 43
0.0
 43
0.0
 43
0.0
 43
1.0
 77
     0
 78
     2
 47
0.0208333333333333
 47
0.0
 47
0.0
 47
0.0
 47
0.0
 47
0.0208333333333333
 47
0.0
 47
0.0
 47
0.0
 47
0.0
 47
1.0
 47
0.0
 47
0.0
 47
0.0
 47
0.0
 47
1.0
171
     0
172
     2
 49
0.0208333333333333
 49
0.0
 49
0.0
 49
0.0
 49
0.0
 49
0.0208333333333333
 49
0.0
 49
0.0
 49
0.0
 49
0.0
 49
1.0
 49
0.0
 49
0.0
 49
0.0
 49
0.0
 49
1.0
175
     0
176
     2
142
0.0208333333333333
142
0.0
142
0.0
142
0.0
142
0.0
142
0.0208333333333333
142
0.0
142
0.0
142
0.0
142
0.0
142
1.0
142
0.0
142
0.0
142
0.0
142
0.0
142
1.0
179
     0
270
     2
144
0.0208333333333333
144
0.0
144
0.0
144
0.0
144
0.0
144
0.0208333333333333
144
0.0
144
0.0
144
0.0
144
0.0
144
1.0
144
0.0
144
0.0
144
0.0
144
0.0
144
1.0
274
     2
147
0.0208333333333333
147
0.0
147
0.0
147
0.0
147
0.0
147
0.0208333333333333
147
0.0
147
0.0
147
0.0
147
0.0
147
1.0
147
0.0
147
0.0
147
0.0
147
0.0
147
1.0
  0
MATERIAL
  5
D
102
{ACAD_REACTORS
330
E
102
}
102
{ACAD_XDICTIONARY
360
5F2
102
}
330
E
100
AcDbMaterial
  1
Global
 72
     0
 73
     2
 43
0.0208333333333333
 43
0.0
 43
0.0
 43
0.0
 43
0.0
 43
0.0208333333333333
 43
0.0
 43
0.0
 43
0.0
 43
0.0
 43
1.0
 43
0.0
 43
0.0
 43
0.0
 43
0.0
 43
1.0
 77
     0
 78
     2
 47
0.0208333333333333
 47
0.0
 47
0.0
 47
0.0
 47
0.0
 47
0.0208333333333333
 47
0.0
 47
0.0
 47
0.0
 47
0.0
 47
1.0
 47
0.0
 47
0.0
 47
0.0
 47
0.0
 47
1.0
171
     0
172
     2
 49
0.0208333333333333
 49
0.0
 49
0.0
 49
0.0
 49
0.0
 49
0.0208333333333333
 49
0.0
 49
0.0
 49
0.0
 49
0.0
 49
1.0
 49
0.0
 49
0.0
 49
0.0
 49
0.0
 49
1.0
175
     0
176
     2
142
0.0208333333333333
142
0.0
142
0.0
142
0.0
142
0.0
142
0.0208333333333333
142
0.0
142
0.0
142
0.0
142
0.0
142
1.0
142
0.0
142
0.0
142
0.0
142
0.0
142
1.0
179
     0
270
     2
144
0.0208333333333333
144
0.0
144
0.0
144
0.0
144
0.0
144
0.0208333333333333
144
0.0
144
0.0
144
0.0
144
0.0
144
1.0
144
0.0
144
0.0
144
0.0
144
0.0
144
1.0
274
     2
147
0.0208333333333333
147
0.0
147
0.0
147
0.0
147
0.0
147
0.0208333333333333
147
0.0
147
0.0
147
0.0
147
0.0
147
1.0
147
0.0
147
0.0
147
0.0
147
0.0
147
1.0
1001
ACAD
1070
    -1
1070
     3
1070
     0
1000

1071
        0
  0
MLEADERSTYLE
  5
4F1
102
{ACAD_REACTORS
330
4D
102
}
102
{ACAD_XDICTIONARY
360
5F4
102
}
330
4D
100
AcDbMLeaderStyle
170
     2
171
     1
172
     0
 90
        2
 40
0.0
 41
0.0
173
     1
 91
-1056964608
340
28
 92
       -2
290
     1
 42
0.09
291
     1
 43
0.36
  3
Standard
341
0
 44
0.18
300

342
25
174
     1
178
     6
175
     1
176
     0
 93
-1056964608
 45
0.18
292
     0
297
     0
 46
0.18
343
0
 94
-1056964608
 47
1.0
 49
1.0
140
1.0
293
     1
141
0.0
294
     1
177
     0
142
1.0
295
     1
296
     0
143
0.125
1001
ACAD_MLEADERVER
1070
     2
  0
MLINESTYLE
  5
52
102
{ACAD_REACTORS
330
38
102
}
330
38
100
AcDbMlineStyle
  2
STANDARD
 70
     0
  3

 62
     0
 51
90.0
 52
90.0
 71
     2
 49
0.5
 62
   256
  6
BYLAYER
 49
-0.5
 62
   256
  6
BYLAYER
  0
ACDBPLACEHOLDER
  5
A
102
{ACAD_REACTORS
330
B
102
}
330
B
  0
SCALE
  5
56
102
{ACAD_REACTORS
330
4B
102
}
330
4B
100
AcDbScale
 70
     0
300
1:1
140
1.0
141
1.0
290
     1
  0
SCALE
  5
57
102
{ACAD_REACTORS
330
4B
102
}
330
4B
100
AcDbScale
 70
     0
300
1/128" = 1'-0"
140
0.0078125
141
12.0
290
     0
  0
SCALE
  5
58
102
{ACAD_REACTORS
330
4B
102
}
330
4B
100
AcDbScale
 70
     0
300
1/64" = 1'-0"
140
0.015625
141
12.0
290
     0
  0
SCALE
  5
59
102
{ACAD_REACTORS
330
4B
102
}
330
4B
100
AcDbScale
 70
     0
300
1/32" = 1'-0"
140
0.03125
141
12.0
290
     0
  0
SCALE
  5
5A
102
{ACAD_REACTORS
330
4B
102
}
330
4B
100
AcDbScale
 70
     0
300
1/16" = 1'-0"
140
0.0625
141
12.0
290
     0
  0
SCALE
  5
5B
102
{ACAD_REACTORS
330
4B
102
}
330
4B
100
AcDbScale
 70
     0
300
3/32" = 1'-0"
140
0.09375
141
12.0
290
     0
  0
SCALE
  5
5C
102
{ACAD_REACTORS
330
4B
102
}
330
4B
100
AcDbScale
 70
     0
300
1/8" = 1'-0"
140
0.125
141
12.0
290
     0
  0
SCALE
  5
5D
102
{ACAD_REACTORS
330
4B
102
}
330
4B
100
AcDbScale
 70
     0
300
3/16" = 1'-0"
140
0.1875
141
12.0
290
     0
  0
SCALE
  5
5E
102
{ACAD_REACTORS
330
4B
102
}
330
4B
100
AcDbScale
 70
     0
300
1/4" = 1'-0"
140
0.25
141
12.0
290
     0
  0
SCALE
  5
5F
102
{ACAD_REACTORS
330
4B
102
}
330
4B
100
AcDbScale
 70
     0
300
3/8" = 1'-0"
140
0.375
141
12.0
290
     0
  0
SCALE
  5
60
102
{ACAD_REACTORS
330
4B
102
}
330
4B
100
AcDbScale
 70
     0
300
1/2" = 1'-0"
140
0.5
141
12.0
290
     0
  0
SCALE
  5
61
102
{ACAD_REACTORS
330
4B
102
}
330
4B
100
AcDbScale
 70
     0
300
3/4" = 1'-0"
140
0.75
141
12.0
290
     0
  0
SCALE
  5
62
102
{ACAD_REACTORS
330
4B
102
}
330
4B
100
AcDbScale
 70
     0
300
1" = 1'-0"
140
1.0
141
12.0
290
     0
  0
SCALE
  5
63
102
{ACAD_REACTORS
330
4B
102
}
330
4B
100
AcDbScale
 70
     0
300
1-1/2" = 1'-0"
140
1.5
141
12.0
290
     0
  0
SCALE
  5
64
102
{ACAD_REACTORS
330
4B
102
}
330
4B
100
AcDbScale
 70
     0
300
3" = 1'-0"
140
3.0
141
12.0
290
     0
  0
SCALE
  5
65
102
{ACAD_REACTORS
330
4B
102
}
330
4B
100
AcDbScale
 70
     0
300
6" = 1'-0"
140
6.0
141
12.0
290
     0
  0
SCALE
  5
66
102
{ACAD_REACTORS
330
4B
102
}
330
4B
100
AcDbScale
 70
     0
300
1'-0" = 1'-0"
140
12.0
141
12.0
290
     0
  0
ACDBSECTIONVIEWSTYLE
  5
4F3
102
{ACAD_REACTORS
330
4F2
102
}
102
{ACAD_XDICTIONARY
360
50A
102
}
330
4F2
100
AcDbModelDocViewStyle
 70
     0
  3
Imperial24
290
     0
100
AcDbSectionViewStyle
 70
     0
 71
     0
 90
       78
 71
     1
340
25
 40
0.24
340
0
340
0
 40
0.24
300
I, O, Q, S, X, Z
 40
0.48
 90
        3
 40
0.18
 90
        1
 71
     2
340
16
 90
       25
340
16
 90
       50
 40
0.24
 40
0.0
 40
0.24
 71
     3
340
25
 40
0.24
 90
        1
 40
0.75
 90
        1
300
%<\AcVar ViewType \f "%tc1">% %<\AcVar ViewSectionStartId>%-%<\AcVar ViewSectionEndId>%\PSCALE %<\AcVar ViewScale \f "%sn">%
 71
     4
300
ANSI31
 40
1.0
 90
        0
290
     0
290
     0
 90
        6
 40
0.0
 40
1.570796326794897
 40
0.2617993877991494
 40
1.308996938995747
 40
-0.2617993877991494
 40
1.832595714594046
  0
TABLESTYLE
  5
53
102
{ACAD_REACTORS
330
4C
102
}
330
4C
100
AcDbTableStyle
  3
Standard
 70
     0
 71
     0
 40
0.06
 41
0.06
280
     0
281
     0
  7
STANDARD
140
0.18
170
     2
 62
     0
 63
   257
283
     0
274
    -2
284
     1
 64
     0
275
    -2
285
     1
 65
     0
276
    -2
286
     1
 66
     0
277
    -2
287
     1
 67
     0
278
    -2
288
     1
 68
     0
279
    -2
289
     1
 69
     0
  7
STANDARD
140
0.25
170
     5
 62
     0
 63
   257
283
     0
274
    -2
284
     1
 64
     0
275
    -2
285
     1
 65
     0
276
    -2
286
     1
 66
     0
277
    -2
287
     1
 67
     0
278
    -2
288
     1
 68
     0
279
    -2
289
     1
 69
     0
  7
STANDARD
140
0.18
170
     5
 62
     0
 63
   257
283
     0
274
    -2
284
     1
 64
     0
275
    -2
285
     1
 65
     0
276
    -2
286
     1
 66
     0
277
    -2
287
     1
 67
     0
278
    -2
288
     1
 68
     0
279
    -2
289
     1
 69
     0
  0
VISUALSTYLE
  5
2E
102
{ACAD_REACTORS
330
2F
102
}
102
{ACAD_XDICTIONARY
360
5F7
102
}
330
2F
100
AcDbVisualStyle
  2
2dWireframe
 70
     4
 71
     0
 72
     2
 73
     0
 90
        0
 40
0.6
 41
30.0
 62
     5
 63
     7
 74
     1
 91
        4
 64
     7
 65
   257
 75
     1
175
     1
 42
1.0
 92
        0
 66
   257
 43
1.0
 76
     1
 77
     6
 78
     2
 67
     7
 79
     5
170
     0
171
     0
290
     0
174
     0
 93
        1
 44
0.0
173
     0
291
     0
 45
0.0
1001
ACAD
1000
AcDbSavedByObjectVersion
1070
     0
  0
VISUALSTYLE
  5
4E0
102
{ACAD_REACTORS
330
2F
102
}
102
{ACAD_XDICTIONARY
360
5F9
102
}
330
2F
100
AcDbVisualStyle
  2
Basic
 70
     7
 71
     1
 72
     0
 73
     1
 90
        0
 40
0.6
 41
30.0
 62
     5
 63
     7
 74
     0
 91
        4
 64
     7
 65
   257
 75
     1
175
     1
 42
1.0
 92
        8
 66
     7
 43
1.0
 76
     1
 77
     6
 78
     2
 67
     7
 79
     5
170
     0
171
     0
290
     0
174
     0
 93
        1
 44
0.0
173
     0
291
     1
 45
0.0
1001
ACAD
1000
AcDbSavedByObjectVersion
1070
     0
  0
VISUALSTYLE
  5
4E4
102
{ACAD_REACTORS
330
2F
102
}
102
{ACAD_XDICTIONARY
360
5FB
102
}
330
2F
100
AcDbVisualStyle
  2
Brighten
 70
    12
 71
     2
 72
     2
 73
     0
 90
        0
 40
0.6
 41
30.0
 62
     5
 63
     7
 74
     1
 91
        4
 64
     7
 65
   257
 75
     1
175
     1
 42
1.0
 92
        8
 66
     7
 43
1.0
 76
     1
 77
     6
 78
     2
 67
     7
 79
     5
170
     0
171
     0
290
     0
174
     0
 93
        1
 44
50.0
173
     0
291
     1
 45
0.0
1001
ACAD
1000
AcDbSavedByObjectVersion
1070
     0
  0
VISUALSTYLE
  5
4E8
102
{ACAD_REACTORS
330
2F
102
}
102
{ACAD_XDICTIONARY
360
5FD
102
}
330
2F
100
AcDbVisualStyle
  2
ColorChange
 70
    16
 71
     2
 72
     2
 73
     3
 90
        0
 40
0.6
 41
30.0
 62
     5
 63
     8
 74
     1
 91
        4
 64
     7
 65
   257
 75
     1
175
     1
 42
1.0
 92
        8
 66
     8
 43
1.0
 76
     1
 77
     6
 78
     2
 67
     7
 79
     5
170
     0
171
     0
290
     0
174
     0
 93
        1
 44
0.0
173
     0
291
     1
 45
0.0
1001
ACAD
1000
AcDbSavedByObjectVersion
1070
     0
  0
VISUALSTYLE
  5
4E2
102
{ACAD_REACTORS
330
2F
102
}
102
{ACAD_XDICTIONARY
360
5FF
102
}
330
2F
100
AcDbVisualStyle
  2
Conceptual
 70
     9
 71
     3
 72
     2
 73
     0
 90
        0
 40
0.6
 41
30.0
 62
     5
 63
     7
 74
     2
 91
        2
 64
     7
 65
   257
 75
     1
175
     1
 42
179.0
 92
        8
 66
     7
 43
1.0
 76
     1
 77
     6
 78
     2
 67
     7
 79
     3
170
     0
171
     0
290
     0
174
     0
 93
        1
 44
0.0
173
     0
291
     0
 45
0.0
1001
ACAD
1000
AcDbSavedByObjectVersion
1070
     0
  0
VISUALSTYLE
  5
4E3
102
{ACAD_REACTORS
330
2F
102
}
102
{ACAD_XDICTIONARY
360
601
102
}
330
2F
100
AcDbVisualStyle
  2
Dim
 70
    11
 71
     2
 72
     2
 73
     0
 90
        0
 40
0.6
 41
30.0
 62
     5
 63
     7
 74
     1
 91
        4
 64
     7
 65
   257
 75
     1
175
     1
 42
1.0
 92
        8
 66
     7
 43
1.0
 76
     1
 77
     6
 78
     2
 67
     7
 79
     5
170
     0
171
     0
290
     0
174
     0
 93
        1
 44
-50.0
173
     0
291
     1
 45
0.0
1001
ACAD
1000
AcDbSavedByObjectVersion
1070
     0
  0
VISUALSTYLE
  5
4F0
102
{ACAD_REACTORS
330
2F
102
}
102
{ACAD_XDICTIONARY
360
603
102
}
330
2F
100
AcDbVisualStyle
  2
EdgeColorOff
 70
    22
 71
     2
 72
     2
 73
     0
 90
        0
 40
0.6
 41
30.0
 62
     5
 63
     7
 74
     1
 91
        4
 64
     7
 65
   257
 75
     1
175
     1
 42
1.0
 92
        8
 66
     7
 43
1.0
 76
     1
 77
     6
 78
     2
 67
     7
 79
     5
170
     0
171
     0
290
     0
174
     0
 93
        1
 44
0.0
173
     0
291
     1
 45
0.0
1001
ACAD
1000
AcDbSavedByObjectVersion
1070
     0
  0
VISUALSTYLE
  5
4E7
102
{ACAD_REACTORS
330
2F
102
}
102
{ACAD_XDICTIONARY
360
605
102
}
330
2F
100
AcDbVisualStyle
  2
Facepattern
 70
    15
 71
     2
 72
     2
 73
     0
 90
        0
 40
0.6
 41
30.0
 62
     5
 63
     7
 74
     1
 91
        4
 64
     7
 65
   257
 75
     1
175
     1
 42
1.0
 92
        8
 66
     7
 43
1.0
 76
     1
 77
     6
 78
     2
 67
     7
 79
     5
170
     0
171
     0
290
     0
174
     0
 93
        1
 44
0.0
173
     0
291
     1
 45
0.0
1001
ACAD
1000
AcDbSavedByObjectVersion
1070
     0
  0
VISUALSTYLE
  5
4DC
102
{ACAD_REACTORS
330
2F
102
}
102
{ACAD_XDICTIONARY
360
607
102
}
330
2F
100
AcDbVisualStyle
  2
Flat
 70
     0
 71
     2
 72
     1
 73
     1
 90
        2
 40
0.6
 41
30.0
 62
     5
 63
     7
 74
     0
 91
        0
 64
     7
 65
   257
 75
     1
175
     1
 42
1.0
 92
        8
 66
     7
 43
1.0
 76
     1
 77
     6
 78
     2
 67
     7
 79
     5
170
     0
171
     0
290
     0
174
     0
 93
       13
 44
0.0
173
     0
291
     1
 45
0.0
1001
ACAD
1000
AcDbSavedByObjectVersion
1070
     0
  0
VISUALSTYLE
  5
4DD
102
{ACAD_REACTORS
330
2F
102
}
102
{ACAD_XDICTIONARY
360
609
102
}
330
2F
100
AcDbVisualStyle
  2
FlatWithEdges
 70
     1
 71
     2
 72
     1
 73
     1
 90
        2
 40
0.6
 41
30.0
 62
     5
 63
     7
 74
     1
 91
        0
 64
     7
 65
   257
 75
     1
175
     1
 42
1.0
 92
        0
 66
   257
 43
1.0
 76
     1
 77
     6
 78
     2
 67
     7
 79
     5
170
     0
171
     0
290
     0
174
     0
 93
       13
 44
0.0
173
     0
291
     1
 45
0.0
1001
ACAD
1000
AcDbSavedByObjectVersion
1070
     0
  0
VISUALSTYLE
  5
4DE
102
{ACAD_REACTORS
330
2F
102
}
102
{ACAD_XDICTIONARY
360
60B
102
}
330
2F
100
AcDbVisualStyle
  2
Gouraud
 70
     2
 71
     2
 72
     2
 73
     1
 90
        2
 40
0.6
 41
30.0
 62
     5
 63
     7
 74
     0
 91
        0
 64
     7
 65
   257
 75
     1
175
     1
 42
1.0
 92
        0
 66
     7
 43
1.0
 76
     1
 77
     6
 78
     2
 67
     7
 79
     5
170
     0
171
     0
290
     0
174
     0
 93
       13
 44
0.0
173
     0
291
     1
 45
0.0
1001
ACAD
1000
AcDbSavedByObjectVersion
1070
     0
  0
VISUALSTYLE
  5
4DF
102
{ACAD_REACTORS
330
2F
102
}
102
{ACAD_XDICTIONARY
360
60D
102
}
330
2F
100
AcDbVisualStyle
  2
GouraudWithEdges
 70
     3
 71
     2
 72
     2
 73
     1
 90
        2
 40
0.6
 41
30.0
 62
     5
 63
     7
 74
     1
 91
        0
 64
     7
 65
   257
 75
     1
175
     1
 42
1.0
 92
        0
 66
   257
 43
1.0
 76
     1
 77
     6
 78
     2
 67
     7
 79
     5
170
     0
171
     0
290
     0
174
     0
 93
       13
 44
0.0
173
     0
291
     1
 45
0.0
1001
ACAD
1000
AcDbSavedByObjectVersion
1070
     0
  0
VISUALSTYLE
  5
4E1
102
{ACAD_REACTORS
330
2F
102
}
102
{ACAD_XDICTIONARY
360
60F
102
}
330
2F
100
AcDbVisualStyle
  2
Hidden
 70
     6
 71
     1
 72
     2
 73
     2
 90
        0
 40
0.6
 41
30.0
 62
     5
 63
     7
 74
     2
 91
        2
 64
     7
 65
   257
 75
     2
175
     1
 42
40.0
 92
        0
 66
   257
 43
1.0
 76
     1
 77
     6
 78
     2
 67
     7
 79
     3
170
     0
171
     0
290
     0
174
     0
 93
        1
 44
0.0
173
     0
291
     0
 45
0.0
1001
ACAD
1000
AcDbSavedByObjectVersion
1070
     0
  0
VISUALSTYLE
  5
4EE
102
{ACAD_REACTORS
330
2F
102
}
102
{ACAD_XDICTIONARY
360
611
102
}
330
2F
100
AcDbVisualStyle
  2
JitterOff
 70
    20
 71
     2
 72
     2
 73
     0
 90
        0
 40
0.6
 41
30.0
 62
     5
 63
     7
 74
     1
 91
        4
 64
     7
 65
   257
 75
     1
175
     1
 42
1.0
 92
       10
 66
     7
 43
1.0
 76
     1
 77
     6
 78
     2
 67
     7
 79
     5
170
     0
171
     0
290
     0
174
     0
 93
        1
 44
0.0
173
     0
291
     1
 45
0.0
1001
ACAD
1000
AcDbSavedByObjectVersion
1070
     0
  0
VISUALSTYLE
  5
4E6
102
{ACAD_REACTORS
330
2F
102
}
102
{ACAD_XDICTIONARY
360
613
102
}
330
2F
100
AcDbVisualStyle
  2
Linepattern
 70
    14
 71
     2
 72
     2
 73
     0
 90
        0
 40
0.6
 41
30.0
 62
     5
 63
     7
 74
     1
 91
        4
 64
     7
 65
   257
 75
     7
175
     7
 42
1.0
 92
        8
 66
     7
 43
1.0
 76
     1
 77
     6
 78
     2
 67
     7
 79
     5
170
     0
171
     0
290
     0
174
     0
 93
        1
 44
0.0
173
     0
291
     1
 45
0.0
1001
ACAD
1000
AcDbSavedByObjectVersion
1070
     0
  0
VISUALSTYLE
  5
4EF
102
{ACAD_REACTORS
330
2F
102
}
102
{ACAD_XDICTIONARY
360
615
102
}
330
2F
100
AcDbVisualStyle
  2
OverhangOff
 70
    21
 71
     2
 72
     2
 73
     0
 90
        0
 40
0.6
 41
30.0
 62
     5
 63
     7
 74
     1
 91
        4
 64
     7
 65
   257
 75
     1
175
     1
 42
1.0
 92
        9
 66
     7
 43
1.0
 76
     1
 77
     6
 78
     2
 67
     7
 79
     5
170
     0
171
     0
290
     0
174
     0
 93
        1
 44
0.0
173
     0
291
     1
 45
0.0
1001
ACAD
1000
AcDbSavedByObjectVersion
1070
     0
  0
VISUALSTYLE
  5
54
102
{ACAD_REACTORS
330
2F
102
}
102
{ACAD_XDICTIONARY
360
617
102
}
330
2F
100
AcDbVisualStyle
  2
Realistic
 70
     8
 71
     2
 72
     3
 73
     0
 90
        2
 40
0.6
 41
30.0
 62
     5
 63
     7
 74
     0
 91
        0
 64
     7
 65
   257
 75
     1
175
     1
 42
1.0
 92
        8
 66
   257
 43
1.0
 76
     1
 77
     6
 78
     2
 67
     7
 79
     3
170
     0
171
     0
290
     0
174
     0
 93
       13
 44
0.0
173
     0
291
     0
 45
0.0
1001
ACAD
1000
AcDbSavedByObjectVersion
1070
     0
  0
VISUALSTYLE
  5
4ED
102
{ACAD_REACTORS
330
2F
102
}
102
{ACAD_XDICTIONARY
360
619
102
}
330
2F
100
AcDbVisualStyle
  2
Shaded
 70
    27
 71
     2
 72
     2
 73
     1
 90
        2
 40
0.6
 41
30.0
 62
     5
 63
     7
 74
     0
 91
        4
 64
     7
 65
   257
 75
     1
175
     1
 42
1.0
 92
        8
 66
   257
 43
1.0
 76
     1
 77
     6
 78
     2
 67
     8
 79
     3
170
     0
171
     0
290
     0
174
     0
 93
        5
 44
0.0
173
     0
291
     0
 45
0.0
1001
ACAD
1000
AcDbSavedByObjectVersion
1070
     0
  0
VISUALSTYLE
  5
4EC
102
{ACAD_REACTORS
330
2F
102
}
102
{ACAD_XDICTIONARY
360
61B
102
}
330
2F
100
AcDbVisualStyle
  2
Shaded with edges
 70
    26
 71
     2
 72
     2
 73
     1
 90
        2
 40
0.6
 41
30.0
 62
     5
 63
     7
 74
     1
 91
       10
 64
     7
 65
   257
 75
     2
175
     1
 42
1.0
 92
        8
 66
   257
 43
1.0
 76
     1
 77
     6
 78
     2
 67
     7
 79
     3
170
     0
171
     0
290
     0
174
     0
 93
        5
 44
0.0
173
     0
291
     0
 45
0.0
1001
ACAD
1000
AcDbSavedByObjectVersion
1070
     0
  0
VISUALSTYLE
  5
4E9
102
{ACAD_REACTORS
330
2F
102
}
102
{ACAD_XDICTIONARY
360
61D
102
}
330
2F
100
AcDbVisualStyle
  2
Shades of Gray
 70
    23
 71
     2
 72
     2
 73
     3
 90
        0
 40
0.6
 41
30.0
 62
     5
 63
     7
 74
     2
 91
        2
 64
     7
 65
     7
 75
     1
175
     1
 42
40.0
 92
        8
 66
     7
 43
1.0
 76
     1
 77
     6
 78
     2
 67
     7
 79
     3
170
     0
171
     0
290
     0
174
     0
 93
        1
 44
0.0
173
     0
291
     0
 45
0.0
1001
ACAD
1000
AcDbSavedByObjectVersion
1070
     0
  0
VISUALSTYLE
  5
4EA
102
{ACAD_REACTORS
330
2F
102
}
102
{ACAD_XDICTIONARY
360
61F
102
}
330
2F
100
AcDbVisualStyle
  2
Sketchy
 70
    24
 71
     1
 72
     2
 73
     2
 90
        0
 40
0.6
 41
30.0
 62
     5
 63
     7
 74
     2
 91
        2
 64
     7
 65
     7
 75
     1
175
     1
 42
40.0
 92
       11
 66
     7
 43
1.0
 76
     1
 77
     6
 78
     2
 67
     7
 79
     6
170
     0
171
     0
290
     0
174
     0
 93
        1
 44
0.0
173
     0
291
     0
 45
0.0
1001
ACAD
1000
AcDbSavedByObjectVersion
1070
     0
  0
VISUALSTYLE
  5
4E5
102
{ACAD_REACTORS
330
2F
102
}
102
{ACAD_XDICTIONARY
360
621
102
}
330
2F
100
AcDbVisualStyle
  2
Thicken
 70
    13
 71
     2
 72
     2
 73
     0
 90
        0
 40
0.6
 41
30.0
 62
     5
 63
     7
 74
     1
 91
        4
 64
     7
 65
   257
 75
     1
175
     1
 42
1.0
 92
       12
 66
     7
 43
1.0
 76
     1
 77
     6
 78
     2
 67
     7
 79
     5
170
     0
171
     0
290
     0
174
     0
 93
        1
 44
0.0
173
     0
291
     1
 45
0.0
1001
ACAD
1000
AcDbSavedByObjectVersion
1070
     0
  0
VISUALSTYLE
  5
55
102
{ACAD_REACTORS
330
2F
102
}
102
{ACAD_XDICTIONARY
360
623
102
}
330
2F
100
AcDbVisualStyle
  2
Wireframe
 70
     5
 71
     0
 72
     2
 73
     0
 90
        0
 40
0.6
 41
30.0
 62
     5
 63
     7
 74
     1
 91
        4
 64
     7
 65
   257
 75
     1
175
     1
 42
1.0
 92
        0
 66
   257
 43
1.0
 76
     1
 77
     6
 78
     2
 67
     7
 79
     3
170
     0
171
     0
290
     0
174
     0
 93
        1
 44
0.0
173
     0
291
     0
 45
0.0
1001
ACAD
1000
AcDbSavedByObjectVersion
1070
     0
  0
VISUALSTYLE
  5
4EB
102
{ACAD_REACTORS
330
2F
102
}
102
{ACAD_XDICTIONARY
360
625
102
}
330
2F
100
AcDbVisualStyle
  2
X-Ray
 70
    25
 71
     2
 72
     2
 73
     1
 90
        1
 40
0.5
 41
30.0
 62
     5
 63
     7
 74
     1
 91
        0
 64
     7
 65
   257
 75
     1
175
     1
 42
1.0
 92
        8
 66
     7
 43
1.0
 76
     1
 77
     6
 78
     2
 67
     7
 79
     3
170
     0
171
     0
290
     0
174
     0
 93
       13
 44
0.0
173
     0
291
     0
 45
0.0
1001
ACAD
1000
AcDbSavedByObjectVersion
1070
     0
  0
XRECORD
  5
5E9
102
{ACAD_REACTORS
330
5E8
102
}
330
5E8
100
AcDbXrecord
280
     1
340
4A
  0
XRECORD
  5
5EA
102
{ACAD_REACTORS
330
5E8
102
}
330
5E8
100
AcDbXrecord
280
     1
340
E
  0
DICTIONARYVAR
  5
4D7
102
{ACAD_REACTORS
330
4D1
102
}
330
4D1
100
DictionaryVariables
280
     0
  1
1:1
  0
DICTIONARYVAR
  5
4D3
102
{ACAD_REACTORS
330
4D1
102
}
330
4D1
100
DictionaryVariables
280
     0
  1
Standard
  0
DICTIONARYVAR
  5
4D2
102
{ACAD_REACTORS
330
4D1
102
}
330
4D1
100
DictionaryVariables
280
     0
  1
Standard
  0
DICTIONARYVAR
  5
4D4
102
{ACAD_REACTORS
330
4D1
102
}
330
4D1
100
DictionaryVariables
280
     0
  1
Imperial24
  0
DICTIONARYVAR
  5
4D5
102
{ACAD_REACTORS
330
4D1
102
}
330
4D1
100
DictionaryVariables
280
     0
  1
Imperial24
  0
DICTIONARYVAR
  5
5E6
102
{ACAD_REACTORS
330
4D1
102
}
330
4D1
100
DictionaryVariables
280
     0
  1
0
  0
DICTIONARYVAR
  5
5E7
102
{ACAD_REACTORS
330
4D1
102
}
330
4D1
100
DictionaryVariables
280
     0
  1
1
  0
DICTIONARYVAR
  5
4D9
102
{ACAD_REACTORS
330
4D1
102
}
330
4D1
100
DictionaryVariables
280
     0
  1
1
  0
DICTIONARYVAR
  5
4DA
102
{ACAD_REACTORS
330
4D1
102
}
330
4D1
100
DictionaryVariables
280
     0
  1
15
  0
DICTIONARYVAR
  5
4D8
102
{ACAD_REACTORS
330
4D1
102
}
330
4D1
100
DictionaryVariables
280
     0
  1
0
  0
DICTIONARYVAR
  5
4D6
102
{ACAD_REACTORS
330
4D1
102
}
330
4D1
100
DictionaryVariables
280
     0
  1
0
  0
DICTIONARYVAR
  5
55E
102
{ACAD_REACTORS
330
4D1
102
}
330
4D1
100
DictionaryVariables
280
     0
  1
0
  0
DICTIONARY
  5
50C
330
4F5
100
AcDbDictionary
280
     1
281
     1
  3
ACAD_XREC_ROUNDTRIP
360
5ED
  0
DICTIONARY
  5
5EE
330
42
100
AcDbDictionary
280
     1
281
     1
  3
ACAD_XREC_ROUNDTRIP
360
5EF
  0
DICTIONARY
  5
5F0
330
3A
100
AcDbDictionary
280
     1
281
     1
  3
ACAD_XREC_ROUNDTRIP
360
5F1
  0
DICTIONARY
  5
5F2
330
D
100
AcDbDictionary
280
     1
281
     1
  3
ACAD_XREC_ROUNDTRIP
360
5F3
  0
DICTIONARY
  5
5F4
330
4F1
100
AcDbDictionary
280
     1
281
     1
  3
ACAD_XREC_ROUNDTRIP
360
5F5
  0
DICTIONARY
  5
50A
330
4F3
100
AcDbDictionary
280
     1
281
     1
  3
ACAD_XREC_ROUNDTRIP
360
5F6
  0
DICTIONARY
  5
5F7
330
2E
100
AcDbDictionary
280
     1
281
     1
  3
ACAD_XREC_ROUNDTRIP
360
5F8
  0
DICTIONARY
  5
5F9
330
4E0
100
AcDbDictionary
280
     1
281
     1
  3
ACAD_XREC_ROUNDTRIP
360
5FA
  0
DICTIONARY
  5
5FB
330
4E4
100
AcDbDictionary
280
     1
281
     1
  3
ACAD_XREC_ROUNDTRIP
360
5FC
  0
DICTIONARY
  5
5FD
330
4E8
100
AcDbDictionary
280
     1
281
     1
  3
ACAD_XREC_ROUNDTRIP
360
5FE
  0
DICTIONARY
  5
5FF
330
4E2
100
AcDbDictionary
280
     1
281
     1
  3
ACAD_XREC_ROUNDTRIP
360
600
  0
DICTIONARY
  5
601
330
4E3
100
AcDbDictionary
280
     1
281
     1
  3
ACAD_XREC_ROUNDTRIP
360
602
  0
DICTIONARY
  5
603
330
4F0
100
AcDbDictionary
280
     1
281
     1
  3
ACAD_XREC_ROUNDTRIP
360
604
  0
DICTIONARY
  5
605
330
4E7
100
AcDbDictionary
280
     1
281
     1
  3
ACAD_XREC_ROUNDTRIP
360
606
  0
DICTIONARY
  5
607
330
4DC
100
AcDbDictionary
280
     1
281
     1
  3
ACAD_XREC_ROUNDTRIP
360
608
  0
DICTIONARY
  5
609
330
4DD
100
AcDbDictionary
280
     1
281
     1
  3
ACAD_XREC_ROUNDTRIP
360
60A
  0
DICTIONARY
  5
60B
330
4DE
100
AcDbDictionary
280
     1
281
     1
  3
ACAD_XREC_ROUNDTRIP
360
60C
  0
DICTIONARY
  5
60D
330
4DF
100
AcDbDictionary
280
     1
281
     1
  3
ACAD_XREC_ROUNDTRIP
360
60E
  0
DICTIONARY
  5
60F
330
4E1
100
AcDbDictionary
280
     1
281
     1
  3
ACAD_XREC_ROUNDTRIP
360
610
  0
DICTIONARY
  5
611
330
4EE
100
AcDbDictionary
280
     1
281
     1
  3
ACAD_XREC_ROUNDTRIP
360
612
  0
DICTIONARY
  5
613
330
4E6
100
AcDbDictionary
280
     1
281
     1
  3
ACAD_XREC_ROUNDTRIP
360
614
  0
DICTIONARY
  5
615
330
4EF
100
AcDbDictionary
280
     1
281
     1
  3
ACAD_XREC_ROUNDTRIP
360
616
  0
DICTIONARY
  5
617
330
54
100
AcDbDictionary
280
     1
281
     1
  3
ACAD_XREC_ROUNDTRIP
360
618
  0
DICTIONARY
  5
619
330
4ED
100
AcDbDictionary
280
     1
281
     1
  3
ACAD_XREC_ROUNDTRIP
360
61A
  0
DICTIONARY
  5
61B
330
4EC
100
AcDbDictionary
280
     1
281
     1
  3
ACAD_XREC_ROUNDTRIP
360
61C
  0
DICTIONARY
  5
61D
330
4E9
100
AcDbDictionary
280
     1
281
     1
  3
ACAD_XREC_ROUNDTRIP
360
61E
  0
DICTIONARY
  5
61F
330
4EA
100
AcDbDictionary
280
     1
281
     1
  3
ACAD_XREC_ROUNDTRIP
360
620
  0
DICTIONARY
  5
621
330
4E5
100
AcDbDictionary
280
     1
281
     1
  3
ACAD_XREC_ROUNDTRIP
360
622
  0
DICTIONARY
  5
623
330
55
100
AcDbDictionary
280
     1
281
     1
  3
ACAD_XREC_ROUNDTRIP
360
624
  0
DICTIONARY
  5
625
330
4EB
100
AcDbDictionary
280
     1
281
     1
  3
ACAD_XREC_ROUNDTRIP
360
626
  0
XRECORD
  5
5ED
102
{ACAD_REACTORS
330
50C
102
}
330
50C
100
AcDbXrecord
280
     1
102
DISPLAYNAME
  1
Imperial24
102
FLAGS
 90
        0
  0
XRECORD
  5
5EF
102
{ACAD_REACTORS
330
5EE
102
}
330
5EE
100
AcDbXrecord
280
     1
102
MATERIAL
148
0.0
149
0.0
149
0.0
 93
        0
 94
      127
282
     0
 72
     0
 77
     0
171
     0
175
     0
179
     0
273
     0
  0
XRECORD
  5
5F1
102
{ACAD_REACTORS
330
5F0
102
}
330
5F0
100
AcDbXrecord
280
     1
102
MATERIAL
148
0.0
149
0.0
149
0.0
 93
        0
 94
      127
282
     0
 72
     0
 77
     0
171
     0
175
     0
179
     0
273
     0
  0
XRECORD
  5
5F3
102
{ACAD_REACTORS
330
5F2
102
}
330
5F2
100
AcDbXrecord
280
     1
102
MATERIAL
148
0.0
149
0.0
149
0.0
 93
        0
 94
      127
282
     0
 72
     0
 77
     0
171
     0
175
     0
179
     0
273
     0
  0
XRECORD
  5
5F5
102
{ACAD_REACTORS
330
5F4
102
}
330
5F4
100
AcDbXrecord
280
     1
102
ACAD_ROUNDTRIP_2012_MLEADER_STYLE
298
     1
  0
XRECORD
  5
5F6
102
{ACAD_REACTORS
330
50A
102
}
330
50A
100
AcDbXrecord
280
     1
102
DISPLAYNAME
  1
Imperial24
102
FLAGS
 90
        0
  0
XRECORD
  5
5F8
102
{ACAD_REACTORS
330
5F7
102
}
330
5F7
100
AcDbXrecord
280
     1
102
RTVSPropertyOp0
 70
     1
102
RTVSPropertyOp1
 70
     1
102
RTVSPropertyOp2
 70
     1
102
RTVSPropertyOp3
 70
     1
102
RTVSPropertyOp4
 70
     1
102
RTVSPropertyOp5
 70
     1
102
RTVSPropertyOp6
 70
     1
102
RTVSPropertyOp7
 70
     1
102
RTVSPropertyOp8
 70
     1
102
RTVSPropertyOp9
 70
     1
102
RTVSPropertyOp10
 70
     1
102
RTVSPropertyOp11
 70
     1
102
RTVSPropertyOp12
 70
     1
102
RTVSPropertyOp13
 70
     1
102
RTVSPropertyOp14
 70
     1
102
RTVSPropertyOp15
 70
     1
102
RTVSPropertyOp16
 70
     1
102
RTVSPropertyOp17
 70
     1
102
RTVSPropertyOp18
 70
     1
102
RTVSPropertyOp19
 70
     1
102
RTVSPropertyOp20
 70
     1
102
RTVSPropertyOp21
 70
     1
102
RTVSPropertyOp22
 70
     1
102
RTVSPropertyOp23
 70
     1
102
RTVSPropertyOp24
 70
     1
102
RTVSPropertyOp25
 70
     1
102
RTVSPropertyOp26
 70
     1
102
RTVSPropertyOp27
 70
     1
102
RTVSPropertyOp28
 70
     1
102
RTVSPropertyOp29
 70
     1
102
RTVSPropertyOp30
 70
     1
102
RTVSPropertyOp31
 70
     1
102
RTVSPropertyOp32
 70
     1
102
RTVSPropertyOp33
 70
     1
102
RTVSPropertyOp34
 70
     1
102
RTVSPropertyOp35
 70
     1
102
RTVSPropertyOp36
 70
     1
102
RTVSPropertyOp37
 70
     1
102
RTVSPropertyOp38
 70
     1
102
RTVSPropertyOp39
 70
     1
102
RTVSPropertyOp40
 70
     1
102
RTVSPropertyOp41
 70
     1
102
RTVSPropertyOp42
 70
     1
102
RTVSPropertyOp43
 70
     1
102
RTVSPropertyOp44
 70
     1
102
RTVSPropertyOp45
 70
     1
102
RTVSPropertyOp46
 70
     1
102
RTVSPropertyOp47
 70
     1
102
RTVSPropertyOp48
 70
     1
102
RTVSPropertyOp49
 70
     1
102
RTVSPropertyOp50
 70
     1
102
RTVSPropertyOp51
 70
     0
102
RTVSPropertyOp52
 70
     0
102
RTVSPropertyOp53
 70
     1
102
RTVSPropertyOp54
 70
     1
102
RTVSPropertyOp55
 70
     1
102
RTVSPropertyOp56
 70
     1
102
RTVSPropertyOp57
 70
     1
102
RTVSPost2010Prop28
280
     1
102
RTVSPost2010PropOp28
 70
     1
102
RTVSPost2010Prop29
280
     1
102
RTVSPost2010PropOp29
 70
     1
102
RTVSPost2010Prop30
280
     0
102
RTVSPost2010PropOp30
 70
     1
102
RTVSPost2010Prop31
280
     0
102
RTVSPost2010PropOp31
 70
     1
102
RTVSPost2010Prop32
280
     0
102
RTVSPost2010PropOp32
 70
     1
102
RTVSPost2010Prop33
280
     0
102
RTVSPost2010PropOp33
 70
     1
102
RTVSPost2010Prop34
280
     0
102
RTVSPost2010PropOp34
 70
     1
102
RTVSPost2010Prop35
280
     0
102
RTVSPost2010PropOp35
 70
     1
102
RTVSPost2010Prop36
280
     0
102
RTVSPost2010PropOp36
 70
     1
102
RTVSPost2010Prop37
 90
       50
102
RTVSPost2010PropOp37
 70
     1
102
RTVSPost2010Prop38
140
0.0
102
RTVSPost2010PropOp38
 70
     1
102
RTVSPost2010Prop39
140
1.0
102
RTVSPost2010PropOp39
 70
     1
102
RTVSPost2010Prop40
 90
        0
102
RTVSPost2010PropOp40
 70
     1
102
RTVSPost2010Prop41ColorIndex
 90
       18
102
RTVSPost2010Prop41ColorRGB
 90
        0
102
RTVSPost2010PropOp41
 70
     1
102
RTVSPost2010Prop42
 90
       50
102
RTVSPost2010PropOp42
 70
     1
102
RTVSPost2010Prop43
 90
        3
102
RTVSPost2010PropOp43
 70
     1
102
RTVSPost2010Prop44ColorIndex
 90
        5
102
RTVSPost2010Prop44ColorRGB
 90
      255
102
RTVSPost2010PropOp44
 70
     1
102
RTVSPost2010Prop45
280
     0
102
RTVSPost2010PropOp45
 70
     1
102
RTVSPost2010Prop46
 90
       50
102
RTVSPost2010PropOp46
 70
     1
102
RTVSPost2010Prop47
 90
       50
102
RTVSPost2010PropOp47
 70
     1
102
RTVSPost2010Prop48
 90
       50
102
RTVSPost2010PropOp48
 70
     1
102
RTVSPost2010Prop49
280
     0
102
RTVSPost2010PropOp49
 70
     1
102
RTVSPost2010Prop50
 90
       50
102
RTVSPost2010PropOp50
 70
     1
102
RTVSPost2010Prop51ColorIndex
 90
      256
102
RTVSPost2010Prop51ColorRGB
 90
-16777216
102
RTVSPost2010PropOp51
 70
     0
102
RTVSPost2010Prop52
140
1.0
102
RTVSPost2010PropOp52
 70
     0
102
RTVSPost2010Prop53
 90
        2
102
RTVSPost2010PropOp53
 70
     1
102
RTVSPost2010Prop54
  1
strokes_ogs.tif
102
RTVSPost2010PropOp54
 70
     1
102
RTVSPost2010Prop55
280
     0
102
RTVSPost2010PropOp55
 70
     1
102
RTVSPost2010Prop56
140
1.0
102
RTVSPost2010PropOp56
 70
     1
102
RTVSPost2010Prop57
140
1.0
102
RTVSPost2010PropOp57
 70
     1
  0
XRECORD
  5
5FA
102
{ACAD_REACTORS
330
5F9
102
}
330
5F9
100
AcDbXrecord
280
     1
102
RTVSPropertyOp0
 70
     1
102
RTVSPropertyOp1
 70
     1
102
RTVSPropertyOp2
 70
     1
102
RTVSPropertyOp3
 70
     1
102
RTVSPropertyOp4
 70
     1
102
RTVSPropertyOp5
 70
     1
102
RTVSPropertyOp6
 70
     1
102
RTVSPropertyOp7
 70
     1
102
RTVSPropertyOp8
 70
     1
102
RTVSPropertyOp9
 70
     1
102
RTVSPropertyOp10
 70
     1
102
RTVSPropertyOp11
 70
     1
102
RTVSPropertyOp12
 70
     1
102
RTVSPropertyOp13
 70
     1
102
RTVSPropertyOp14
 70
     1
102
RTVSPropertyOp15
 70
     1
102
RTVSPropertyOp16
 70
     1
102
RTVSPropertyOp17
 70
     1
102
RTVSPropertyOp18
 70
     1
102
RTVSPropertyOp19
 70
     1
102
RTVSPropertyOp20
 70
     1
102
RTVSPropertyOp21
 70
     1
102
RTVSPropertyOp22
 70
     1
102
RTVSPropertyOp23
 70
     1
102
RTVSPropertyOp24
 70
     1
102
RTVSPropertyOp25
 70
     1
102
RTVSPropertyOp26
 70
     1
102
RTVSPropertyOp27
 70
     1
102
RTVSPropertyOp28
 70
     1
102
RTVSPropertyOp29
 70
     1
102
RTVSPropertyOp30
 70
     1
102
RTVSPropertyOp31
 70
     1
102
RTVSPropertyOp32
 70
     1
102
RTVSPropertyOp33
 70
     1
102
RTVSPropertyOp34
 70
     1
102
RTVSPropertyOp35
 70
     1
102
RTVSPropertyOp36
 70
     1
102
RTVSPropertyOp37
 70
     1
102
RTVSPropertyOp38
 70
     1
102
RTVSPropertyOp39
 70
     1
102
RTVSPropertyOp40
 70
     1
102
RTVSPropertyOp41
 70
     1
102
RTVSPropertyOp42
 70
     1
102
RTVSPropertyOp43
 70
     1
102
RTVSPropertyOp44
 70
     1
102
RTVSPropertyOp45
 70
     1
102
RTVSPropertyOp46
 70
     1
102
RTVSPropertyOp47
 70
     1
102
RTVSPropertyOp48
 70
     1
102
RTVSPropertyOp49
 70
     1
102
RTVSPropertyOp50
 70
     1
102
RTVSPropertyOp51
 70
     0
102
RTVSPropertyOp52
 70
     0
102
RTVSPropertyOp53
 70
     1
102
RTVSPropertyOp54
 70
     1
102
RTVSPropertyOp55
 70
     1
102
RTVSPropertyOp56
 70
     1
102
RTVSPropertyOp57
 70
     1
102
RTVSPost2010Prop28
280
     0
102
RTVSPost2010PropOp28
 70
     1
102
RTVSPost2010Prop29
280
     1
102
RTVSPost2010PropOp29
 70
     1
102
RTVSPost2010Prop30
280
     1
102
RTVSPost2010PropOp30
 70
     1
102
RTVSPost2010Prop31
280
     0
102
RTVSPost2010PropOp31
 70
     1
102
RTVSPost2010Prop32
280
     0
102
RTVSPost2010PropOp32
 70
     1
102
RTVSPost2010Prop33
280
     0
102
RTVSPost2010PropOp33
 70
     1
102
RTVSPost2010Prop34
280
     0
102
RTVSPost2010PropOp34
 70
     1
102
RTVSPost2010Prop35
280
     0
102
RTVSPost2010PropOp35
 70
     1
102
RTVSPost2010Prop36
280
     0
102
RTVSPost2010PropOp36
 70
     1
102
RTVSPost2010Prop37
 90
       50
102
RTVSPost2010PropOp37
 70
     1
102
RTVSPost2010Prop38
140
0.0
102
RTVSPost2010PropOp38
 70
     1
102
RTVSPost2010Prop39
140
1.0
102
RTVSPost2010PropOp39
 70
     1
102
RTVSPost2010Prop40
 90
        0
102
RTVSPost2010PropOp40
 70
     1
102
RTVSPost2010Prop41ColorIndex
 90
       18
102
RTVSPost2010Prop41ColorRGB
 90
        0
102
RTVSPost2010PropOp41
 70
     1
102
RTVSPost2010Prop42
 90
       50
102
RTVSPost2010PropOp42
 70
     1
102
RTVSPost2010Prop43
 90
        3
102
RTVSPost2010PropOp43
 70
     1
102
RTVSPost2010Prop44ColorIndex
 90
        5
102
RTVSPost2010Prop44ColorRGB
 90
      255
102
RTVSPost2010PropOp44
 70
     1
102
RTVSPost2010Prop45
280
     0
102
RTVSPost2010PropOp45
 70
     1
102
RTVSPost2010Prop46
 90
       50
102
RTVSPost2010PropOp46
 70
     1
102
RTVSPost2010Prop47
 90
       50
102
RTVSPost2010PropOp47
 70
     1
102
RTVSPost2010Prop48
 90
       50
102
RTVSPost2010PropOp48
 70
     1
102
RTVSPost2010Prop49
280
     0
102
RTVSPost2010PropOp49
 70
     1
102
RTVSPost2010Prop50
 90
       50
102
RTVSPost2010PropOp50
 70
     1
102
RTVSPost2010Prop51ColorIndex
 90
      256
102
RTVSPost2010Prop51ColorRGB
 90
-16777216
102
RTVSPost2010PropOp51
 70
     0
102
RTVSPost2010Prop52
140
1.0
102
RTVSPost2010PropOp52
 70
     0
102
RTVSPost2010Prop53
 90
        2
102
RTVSPost2010PropOp53
 70
     1
102
RTVSPost2010Prop54
  1
strokes_ogs.tif
102
RTVSPost2010PropOp54
 70
     1
102
RTVSPost2010Prop55
280
     0
102
RTVSPost2010PropOp55
 70
     1
102
RTVSPost2010Prop56
140
1.0
102
RTVSPost2010PropOp56
 70
     1
102
RTVSPost2010Prop57
140
1.0
102
RTVSPost2010PropOp57
 70
     1
  0
XRECORD
  5
5FC
102
{ACAD_REACTORS
330
5FB
102
}
330
5FB
100
AcDbXrecord
280
     1
102
RTVSPropertyOp0
 70
     1
102
RTVSPropertyOp1
 70
     1
102
RTVSPropertyOp2
 70
     1
102
RTVSPropertyOp3
 70
     1
102
RTVSPropertyOp4
 70
     1
102
RTVSPropertyOp5
 70
     1
102
RTVSPropertyOp6
 70
     1
102
RTVSPropertyOp7
 70
     1
102
RTVSPropertyOp8
 70
     1
102
RTVSPropertyOp9
 70
     1
102
RTVSPropertyOp10
 70
     1
102
RTVSPropertyOp11
 70
     1
102
RTVSPropertyOp12
 70
     1
102
RTVSPropertyOp13
 70
     1
102
RTVSPropertyOp14
 70
     1
102
RTVSPropertyOp15
 70
     1
102
RTVSPropertyOp16
 70
     1
102
RTVSPropertyOp17
 70
     1
102
RTVSPropertyOp18
 70
     1
102
RTVSPropertyOp19
 70
     1
102
RTVSPropertyOp20
 70
     1
102
RTVSPropertyOp21
 70
     1
102
RTVSPropertyOp22
 70
     1
102
RTVSPropertyOp23
 70
     1
102
RTVSPropertyOp24
 70
     1
102
RTVSPropertyOp25
 70
     1
102
RTVSPropertyOp26
 70
     1
102
RTVSPropertyOp27
 70
     1
102
RTVSPropertyOp28
 70
     1
102
RTVSPropertyOp29
 70
     1
102
RTVSPropertyOp30
 70
     1
102
RTVSPropertyOp31
 70
     1
102
RTVSPropertyOp32
 70
     1
102
RTVSPropertyOp33
 70
     1
102
RTVSPropertyOp34
 70
     1
102
RTVSPropertyOp35
 70
     1
102
RTVSPropertyOp36
 70
     1
102
RTVSPropertyOp37
 70
     1
102
RTVSPropertyOp38
 70
     1
102
RTVSPropertyOp39
 70
     1
102
RTVSPropertyOp40
 70
     1
102
RTVSPropertyOp41
 70
     1
102
RTVSPropertyOp42
 70
     1
102
RTVSPropertyOp43
 70
     1
102
RTVSPropertyOp44
 70
     1
102
RTVSPropertyOp45
 70
     1
102
RTVSPropertyOp46
 70
     1
102
RTVSPropertyOp47
 70
     1
102
RTVSPropertyOp48
 70
     1
102
RTVSPropertyOp49
 70
     1
102
RTVSPropertyOp50
 70
     1
102
RTVSPropertyOp51
 70
     0
102
RTVSPropertyOp52
 70
     0
102
RTVSPropertyOp53
 70
     1
102
RTVSPropertyOp54
 70
     1
102
RTVSPropertyOp55
 70
     1
102
RTVSPropertyOp56
 70
     1
102
RTVSPropertyOp57
 70
     1
102
RTVSPost2010Prop28
280
     0
102
RTVSPost2010PropOp28
 70
     1
102
RTVSPost2010Prop29
280
     1
102
RTVSPost2010PropOp29
 70
     1
102
RTVSPost2010Prop30
280
     1
102
RTVSPost2010PropOp30
 70
     1
102
RTVSPost2010Prop31
280
     0
102
RTVSPost2010PropOp31
 70
     1
102
RTVSPost2010Prop32
280
     0
102
RTVSPost2010PropOp32
 70
     1
102
RTVSPost2010Prop33
280
     0
102
RTVSPost2010PropOp33
 70
     1
102
RTVSPost2010Prop34
280
     0
102
RTVSPost2010PropOp34
 70
     1
102
RTVSPost2010Prop35
280
     0
102
RTVSPost2010PropOp35
 70
     1
102
RTVSPost2010Prop36
280
     0
102
RTVSPost2010PropOp36
 70
     1
102
RTVSPost2010Prop37
 90
       50
102
RTVSPost2010PropOp37
 70
     1
102
RTVSPost2010Prop38
140
0.0
102
RTVSPost2010PropOp38
 70
     1
102
RTVSPost2010Prop39
140
1.0
102
RTVSPost2010PropOp39
 70
     1
102
RTVSPost2010Prop40
 90
        0
102
RTVSPost2010PropOp40
 70
     1
102
RTVSPost2010Prop41ColorIndex
 90
       18
102
RTVSPost2010Prop41ColorRGB
 90
        0
102
RTVSPost2010PropOp41
 70
     1
102
RTVSPost2010Prop42
 90
       50
102
RTVSPost2010PropOp42
 70
     1
102
RTVSPost2010Prop43
 90
        3
102
RTVSPost2010PropOp43
 70
     1
102
RTVSPost2010Prop44ColorIndex
 90
        5
102
RTVSPost2010Prop44ColorRGB
 90
      255
102
RTVSPost2010PropOp44
 70
     1
102
RTVSPost2010Prop45
280
     0
102
RTVSPost2010PropOp45
 70
     1
102
RTVSPost2010Prop46
 90
       50
102
RTVSPost2010PropOp46
 70
     1
102
RTVSPost2010Prop47
 90
       50
102
RTVSPost2010PropOp47
 70
     1
102
RTVSPost2010Prop48
 90
       50
102
RTVSPost2010PropOp48
 70
     1
102
RTVSPost2010Prop49
280
     0
102
RTVSPost2010PropOp49
 70
     1
102
RTVSPost2010Prop50
 90
       50
102
RTVSPost2010PropOp50
 70
     1
102
RTVSPost2010Prop51ColorIndex
 90
      256
102
RTVSPost2010Prop51ColorRGB
 90
-16777216
102
RTVSPost2010PropOp51
 70
     0
102
RTVSPost2010Prop52
140
1.0
102
RTVSPost2010PropOp52
 70
     0
102
RTVSPost2010Prop53
 90
        2
102
RTVSPost2010PropOp53
 70
     1
102
RTVSPost2010Prop54
  1
strokes_ogs.tif
102
RTVSPost2010PropOp54
 70
     1
102
RTVSPost2010Prop55
280
     0
102
RTVSPost2010PropOp55
 70
     1
102
RTVSPost2010Prop56
140
1.0
102
RTVSPost2010PropOp56
 70
     1
102
RTVSPost2010Prop57
140
1.0
102
RTVSPost2010PropOp57
 70
     1
  0
XRECORD
  5
5FE
102
{ACAD_REACTORS
330
5FD
102
}
330
5FD
100
AcDbXrecord
280
     1
102
RTVSPropertyOp0
 70
     1
102
RTVSPropertyOp1
 70
     1
102
RTVSPropertyOp2
 70
     1
102
RTVSPropertyOp3
 70
     1
102
RTVSPropertyOp4
 70
     1
102
RTVSPropertyOp5
 70
     1
102
RTVSPropertyOp6
 70
     1
102
RTVSPropertyOp7
 70
     1
102
RTVSPropertyOp8
 70
     1
102
RTVSPropertyOp9
 70
     1
102
RTVSPropertyOp10
 70
     1
102
RTVSPropertyOp11
 70
     1
102
RTVSPropertyOp12
 70
     1
102
RTVSPropertyOp13
 70
     1
102
RTVSPropertyOp14
 70
     1
102
RTVSPropertyOp15
 70
     1
102
RTVSPropertyOp16
 70
     1
102
RTVSPropertyOp17
 70
     1
102
RTVSPropertyOp18
 70
     1
102
RTVSPropertyOp19
 70
     1
102
RTVSPropertyOp20
 70
     1
102
RTVSPropertyOp21
 70
     1
102
RTVSPropertyOp22
 70
     1
102
RTVSPropertyOp23
 70
     1
102
RTVSPropertyOp24
 70
     1
102
RTVSPropertyOp25
 70
     1
102
RTVSPropertyOp26
 70
     1
102
RTVSPropertyOp27
 70
     1
102
RTVSPropertyOp28
 70
     1
102
RTVSPropertyOp29
 70
     1
102
RTVSPropertyOp30
 70
     1
102
RTVSPropertyOp31
 70
     1
102
RTVSPropertyOp32
 70
     1
102
RTVSPropertyOp33
 70
     1
102
RTVSPropertyOp34
 70
     1
102
RTVSPropertyOp35
 70
     1
102
RTVSPropertyOp36
 70
     1
102
RTVSPropertyOp37
 70
     1
102
RTVSPropertyOp38
 70
     1
102
RTVSPropertyOp39
 70
     1
102
RTVSPropertyOp40
 70
     1
102
RTVSPropertyOp41
 70
     1
102
RTVSPropertyOp42
 70
     1
102
RTVSPropertyOp43
 70
     1
102
RTVSPropertyOp44
 70
     1
102
RTVSPropertyOp45
 70
     1
102
RTVSPropertyOp46
 70
     1
102
RTVSPropertyOp47
 70
     1
102
RTVSPropertyOp48
 70
     1
102
RTVSPropertyOp49
 70
     1
102
RTVSPropertyOp50
 70
     1
102
RTVSPropertyOp51
 70
     0
102
RTVSPropertyOp52
 70
     0
102
RTVSPropertyOp53
 70
     1
102
RTVSPropertyOp54
 70
     1
102
RTVSPropertyOp55
 70
     1
102
RTVSPropertyOp56
 70
     1
102
RTVSPropertyOp57
 70
     1
102
RTVSPost2010Prop28
280
     0
102
RTVSPost2010PropOp28
 70
     1
102
RTVSPost2010Prop29
280
     1
102
RTVSPost2010PropOp29
 70
     1
102
RTVSPost2010Prop30
280
     1
102
RTVSPost2010PropOp30
 70
     1
102
RTVSPost2010Prop31
280
     0
102
RTVSPost2010PropOp31
 70
     1
102
RTVSPost2010Prop32
280
     0
102
RTVSPost2010PropOp32
 70
     1
102
RTVSPost2010Prop33
280
     0
102
RTVSPost2010PropOp33
 70
     1
102
RTVSPost2010Prop34
280
     0
102
RTVSPost2010PropOp34
 70
     1
102
RTVSPost2010Prop35
280
     0
102
RTVSPost2010PropOp35
 70
     1
102
RTVSPost2010Prop36
280
     0
102
RTVSPost2010PropOp36
 70
     1
102
RTVSPost2010Prop37
 90
       50
102
RTVSPost2010PropOp37
 70
     1
102
RTVSPost2010Prop38
140
0.0
102
RTVSPost2010PropOp38
 70
     1
102
RTVSPost2010Prop39
140
1.0
102
RTVSPost2010PropOp39
 70
     1
102
RTVSPost2010Prop40
 90
        0
102
RTVSPost2010PropOp40
 70
     1
102
RTVSPost2010Prop41ColorIndex
 90
       18
102
RTVSPost2010Prop41ColorRGB
 90
        0
102
RTVSPost2010PropOp41
 70
     1
102
RTVSPost2010Prop42
 90
       50
102
RTVSPost2010PropOp42
 70
     1
102
RTVSPost2010Prop43
 90
        3
102
RTVSPost2010PropOp43
 70
     1
102
RTVSPost2010Prop44ColorIndex
 90
        5
102
RTVSPost2010Prop44ColorRGB
 90
      255
102
RTVSPost2010PropOp44
 70
     1
102
RTVSPost2010Prop45
280
     0
102
RTVSPost2010PropOp45
 70
     1
102
RTVSPost2010Prop46
 90
       50
102
RTVSPost2010PropOp46
 70
     1
102
RTVSPost2010Prop47
 90
       50
102
RTVSPost2010PropOp47
 70
     1
102
RTVSPost2010Prop48
 90
       50
102
RTVSPost2010PropOp48
 70
     1
102
RTVSPost2010Prop49
280
     0
102
RTVSPost2010PropOp49
 70
     1
102
RTVSPost2010Prop50
 90
       50
102
RTVSPost2010PropOp50
 70
     1
102
RTVSPost2010Prop51ColorIndex
 90
      256
102
RTVSPost2010Prop51ColorRGB
 90
-16777216
102
RTVSPost2010PropOp51
 70
     0
102
RTVSPost2010Prop52
140
1.0
102
RTVSPost2010PropOp52
 70
     0
102
RTVSPost2010Prop53
 90
        2
102
RTVSPost2010PropOp53
 70
     1
102
RTVSPost2010Prop54
  1
strokes_ogs.tif
102
RTVSPost2010PropOp54
 70
     1
102
RTVSPost2010Prop55
280
     0
102
RTVSPost2010PropOp55
 70
     1
102
RTVSPost2010Prop56
140
1.0
102
RTVSPost2010PropOp56
 70
     1
102
RTVSPost2010Prop57
140
1.0
102
RTVSPost2010PropOp57
 70
     1
  0
XRECORD
  5
600
102
{ACAD_REACTORS
330
5FF
102
}
330
5FF
100
AcDbXrecord
280
     1
102
RTVSPropertyOp0
 70
     1
102
RTVSPropertyOp1
 70
     1
102
RTVSPropertyOp2
 70
     1
102
RTVSPropertyOp3
 70
     1
102
RTVSPropertyOp4
 70
     1
102
RTVSPropertyOp5
 70
     1
102
RTVSPropertyOp6
 70
     1
102
RTVSPropertyOp7
 70
     1
102
RTVSPropertyOp8
 70
     1
102
RTVSPropertyOp9
 70
     1
102
RTVSPropertyOp10
 70
     1
102
RTVSPropertyOp11
 70
     1
102
RTVSPropertyOp12
 70
     1
102
RTVSPropertyOp13
 70
     1
102
RTVSPropertyOp14
 70
     1
102
RTVSPropertyOp15
 70
     1
102
RTVSPropertyOp16
 70
     1
102
RTVSPropertyOp17
 70
     1
102
RTVSPropertyOp18
 70
     1
102
RTVSPropertyOp19
 70
     1
102
RTVSPropertyOp20
 70
     1
102
RTVSPropertyOp21
 70
     1
102
RTVSPropertyOp22
 70
     1
102
RTVSPropertyOp23
 70
     1
102
RTVSPropertyOp24
 70
     1
102
RTVSPropertyOp25
 70
     1
102
RTVSPropertyOp26
 70
     1
102
RTVSPropertyOp27
 70
     1
102
RTVSPropertyOp28
 70
     1
102
RTVSPropertyOp29
 70
     1
102
RTVSPropertyOp30
 70
     1
102
RTVSPropertyOp31
 70
     1
102
RTVSPropertyOp32
 70
     1
102
RTVSPropertyOp33
 70
     1
102
RTVSPropertyOp34
 70
     1
102
RTVSPropertyOp35
 70
     1
102
RTVSPropertyOp36
 70
     1
102
RTVSPropertyOp37
 70
     1
102
RTVSPropertyOp38
 70
     1
102
RTVSPropertyOp39
 70
     1
102
RTVSPropertyOp40
 70
     1
102
RTVSPropertyOp41
 70
     1
102
RTVSPropertyOp42
 70
     1
102
RTVSPropertyOp43
 70
     1
102
RTVSPropertyOp44
 70
     1
102
RTVSPropertyOp45
 70
     1
102
RTVSPropertyOp46
 70
     1
102
RTVSPropertyOp47
 70
     1
102
RTVSPropertyOp48
 70
     1
102
RTVSPropertyOp49
 70
     1
102
RTVSPropertyOp50
 70
     1
102
RTVSPropertyOp51
 70
     0
102
RTVSPropertyOp52
 70
     0
102
RTVSPropertyOp53
 70
     1
102
RTVSPropertyOp54
 70
     1
102
RTVSPropertyOp55
 70
     1
102
RTVSPropertyOp56
 70
     1
102
RTVSPropertyOp57
 70
     1
102
RTVSPost2010Prop28
280
     0
102
RTVSPost2010PropOp28
 70
     1
102
RTVSPost2010Prop29
280
     1
102
RTVSPost2010PropOp29
 70
     1
102
RTVSPost2010Prop30
280
     1
102
RTVSPost2010PropOp30
 70
     1
102
RTVSPost2010Prop31
280
     0
102
RTVSPost2010PropOp31
 70
     1
102
RTVSPost2010Prop32
280
     0
102
RTVSPost2010PropOp32
 70
     1
102
RTVSPost2010Prop33
280
     0
102
RTVSPost2010PropOp33
 70
     1
102
RTVSPost2010Prop34
280
     0
102
RTVSPost2010PropOp34
 70
     1
102
RTVSPost2010Prop35
280
     0
102
RTVSPost2010PropOp35
 70
     1
102
RTVSPost2010Prop36
280
     0
102
RTVSPost2010PropOp36
 70
     1
102
RTVSPost2010Prop37
 90
       50
102
RTVSPost2010PropOp37
 70
     1
102
RTVSPost2010Prop38
140
0.0
102
RTVSPost2010PropOp38
 70
     1
102
RTVSPost2010Prop39
140
1.0
102
RTVSPost2010PropOp39
 70
     1
102
RTVSPost2010Prop40
 90
        0
102
RTVSPost2010PropOp40
 70
     1
102
RTVSPost2010Prop41ColorIndex
 90
       18
102
RTVSPost2010Prop41ColorRGB
 90
        0
102
RTVSPost2010PropOp41
 70
     1
102
RTVSPost2010Prop42
 90
       50
102
RTVSPost2010PropOp42
 70
     1
102
RTVSPost2010Prop43
 90
        3
102
RTVSPost2010PropOp43
 70
     1
102
RTVSPost2010Prop44ColorIndex
 90
        5
102
RTVSPost2010Prop44ColorRGB
 90
      255
102
RTVSPost2010PropOp44
 70
     1
102
RTVSPost2010Prop45
280
     0
102
RTVSPost2010PropOp45
 70
     1
102
RTVSPost2010Prop46
 90
       50
102
RTVSPost2010PropOp46
 70
     1
102
RTVSPost2010Prop47
 90
       50
102
RTVSPost2010PropOp47
 70
     1
102
RTVSPost2010Prop48
 90
       50
102
RTVSPost2010PropOp48
 70
     1
102
RTVSPost2010Prop49
280
     0
102
RTVSPost2010PropOp49
 70
     1
102
RTVSPost2010Prop50
 90
       50
102
RTVSPost2010PropOp50
 70
     1
102
RTVSPost2010Prop51ColorIndex
 90
      256
102
RTVSPost2010Prop51ColorRGB
 90
-16777216
102
RTVSPost2010PropOp51
 70
     0
102
RTVSPost2010Prop52
140
1.0
102
RTVSPost2010PropOp52
 70
     0
102
RTVSPost2010Prop53
 90
        2
102
RTVSPost2010PropOp53
 70
     1
102
RTVSPost2010Prop54
  1
strokes_ogs.tif
102
RTVSPost2010PropOp54
 70
     1
102
RTVSPost2010Prop55
280
     0
102
RTVSPost2010PropOp55
 70
     1
102
RTVSPost2010Prop56
140
1.0
102
RTVSPost2010PropOp56
 70
     1
102
RTVSPost2010Prop57
140
1.0
102
RTVSPost2010PropOp57
 70
     1
  0
XRECORD
  5
602
102
{ACAD_REACTORS
330
601
102
}
330
601
100
AcDbXrecord
280
     1
102
RTVSPropertyOp0
 70
     1
102
RTVSPropertyOp1
 70
     1
102
RTVSPropertyOp2
 70
     1
102
RTVSPropertyOp3
 70
     1
102
RTVSPropertyOp4
 70
     1
102
RTVSPropertyOp5
 70
     1
102
RTVSPropertyOp6
 70
     1
102
RTVSPropertyOp7
 70
     1
102
RTVSPropertyOp8
 70
     1
102
RTVSPropertyOp9
 70
     1
102
RTVSPropertyOp10
 70
     1
102
RTVSPropertyOp11
 70
     1
102
RTVSPropertyOp12
 70
     1
102
RTVSPropertyOp13
 70
     1
102
RTVSPropertyOp14
 70
     1
102
RTVSPropertyOp15
 70
     1
102
RTVSPropertyOp16
 70
     1
102
RTVSPropertyOp17
 70
     1
102
RTVSPropertyOp18
 70
     1
102
RTVSPropertyOp19
 70
     1
102
RTVSPropertyOp20
 70
     1
102
RTVSPropertyOp21
 70
     1
102
RTVSPropertyOp22
 70
     1
102
RTVSPropertyOp23
 70
     1
102
RTVSPropertyOp24
 70
     1
102
RTVSPropertyOp25
 70
     1
102
RTVSPropertyOp26
 70
     1
102
RTVSPropertyOp27
 70
     1
102
RTVSPropertyOp28
 70
     1
102
RTVSPropertyOp29
 70
     1
102
RTVSPropertyOp30
 70
     1
102
RTVSPropertyOp31
 70
     1
102
RTVSPropertyOp32
 70
     1
102
RTVSPropertyOp33
 70
     1
102
RTVSPropertyOp34
 70
     1
102
RTVSPropertyOp35
 70
     1
102
RTVSPropertyOp36
 70
     1
102
RTVSPropertyOp37
 70
     1
102
RTVSPropertyOp38
 70
     1
102
RTVSPropertyOp39
 70
     1
102
RTVSPropertyOp40
 70
     1
102
RTVSPropertyOp41
 70
     1
102
RTVSPropertyOp42
 70
     1
102
RTVSPropertyOp43
 70
     1
102
RTVSPropertyOp44
 70
     1
102
RTVSPropertyOp45
 70
     1
102
RTVSPropertyOp46
 70
     1
102
RTVSPropertyOp47
 70
     1
102
RTVSPropertyOp48
 70
     1
102
RTVSPropertyOp49
 70
     1
102
RTVSPropertyOp50
 70
     1
102
RTVSPropertyOp51
 70
     0
102
RTVSPropertyOp52
 70
     0
102
RTVSPropertyOp53
 70
     1
102
RTVSPropertyOp54
 70
     1
102
RTVSPropertyOp55
 70
     1
102
RTVSPropertyOp56
 70
     1
102
RTVSPropertyOp57
 70
     1
102
RTVSPost2010Prop28
280
     0
102
RTVSPost2010PropOp28
 70
     1
102
RTVSPost2010Prop29
280
     1
102
RTVSPost2010PropOp29
 70
     1
102
RTVSPost2010Prop30
280
     1
102
RTVSPost2010PropOp30
 70
     1
102
RTVSPost2010Prop31
280
     0
102
RTVSPost2010PropOp31
 70
     1
102
RTVSPost2010Prop32
280
     0
102
RTVSPost2010PropOp32
 70
     1
102
RTVSPost2010Prop33
280
     0
102
RTVSPost2010PropOp33
 70
     1
102
RTVSPost2010Prop34
280
     0
102
RTVSPost2010PropOp34
 70
     1
102
RTVSPost2010Prop35
280
     0
102
RTVSPost2010PropOp35
 70
     1
102
RTVSPost2010Prop36
280
     0
102
RTVSPost2010PropOp36
 70
     1
102
RTVSPost2010Prop37
 90
       50
102
RTVSPost2010PropOp37
 70
     1
102
RTVSPost2010Prop38
140
0.0
102
RTVSPost2010PropOp38
 70
     1
102
RTVSPost2010Prop39
140
1.0
102
RTVSPost2010PropOp39
 70
     1
102
RTVSPost2010Prop40
 90
        0
102
RTVSPost2010PropOp40
 70
     1
102
RTVSPost2010Prop41ColorIndex
 90
       18
102
RTVSPost2010Prop41ColorRGB
 90
        0
102
RTVSPost2010PropOp41
 70
     1
102
RTVSPost2010Prop42
 90
       50
102
RTVSPost2010PropOp42
 70
     1
102
RTVSPost2010Prop43
 90
        3
102
RTVSPost2010PropOp43
 70
     1
102
RTVSPost2010Prop44ColorIndex
 90
        5
102
RTVSPost2010Prop44ColorRGB
 90
      255
102
RTVSPost2010PropOp44
 70
     1
102
RTVSPost2010Prop45
280
     0
102
RTVSPost2010PropOp45
 70
     1
102
RTVSPost2010Prop46
 90
       50
102
RTVSPost2010PropOp46
 70
     1
102
RTVSPost2010Prop47
 90
       50
102
RTVSPost2010PropOp47
 70
     1
102
RTVSPost2010Prop48
 90
       50
102
RTVSPost2010PropOp48
 70
     1
102
RTVSPost2010Prop49
280
     0
102
RTVSPost2010PropOp49
 70
     1
102
RTVSPost2010Prop50
 90
       50
102
RTVSPost2010PropOp50
 70
     1
102
RTVSPost2010Prop51ColorIndex
 90
      256
102
RTVSPost2010Prop51ColorRGB
 90
-16777216
102
RTVSPost2010PropOp51
 70
     0
102
RTVSPost2010Prop52
140
1.0
102
RTVSPost2010PropOp52
 70
     0
102
RTVSPost2010Prop53
 90
        2
102
RTVSPost2010PropOp53
 70
     1
102
RTVSPost2010Prop54
  1
strokes_ogs.tif
102
RTVSPost2010PropOp54
 70
     1
102
RTVSPost2010Prop55
280
     0
102
RTVSPost2010PropOp55
 70
     1
102
RTVSPost2010Prop56
140
1.0
102
RTVSPost2010PropOp56
 70
     1
102
RTVSPost2010Prop57
140
1.0
102
RTVSPost2010PropOp57
 70
     1
  0
XRECORD
  5
604
102
{ACAD_REACTORS
330
603
102
}
330
603
100
AcDbXrecord
280
     1
102
RTVSPropertyOp0
 70
     0
102
RTVSPropertyOp1
 70
     0
102
RTVSPropertyOp2
 70
     0
102
RTVSPropertyOp3
 70
     0
102
RTVSPropertyOp4
 70
     0
102
RTVSPropertyOp5
 70
     0
102
RTVSPropertyOp6
 70
     0
102
RTVSPropertyOp7
 70
     0
102
RTVSPropertyOp8
 70
     0
102
RTVSPropertyOp9
 70
     0
102
RTVSPropertyOp10
 70
     0
102
RTVSPropertyOp11
 70
     0
102
RTVSPropertyOp12
 70
     0
102
RTVSPropertyOp13
 70
     0
102
RTVSPropertyOp14
 70
     2
102
RTVSPropertyOp15
 70
     0
102
RTVSPropertyOp16
 70
     0
102
RTVSPropertyOp17
 70
     0
102
RTVSPropertyOp18
 70
     0
102
RTVSPropertyOp19
 70
     0
102
RTVSPropertyOp20
 70
     0
102
RTVSPropertyOp21
 70
     0
102
RTVSPropertyOp22
 70
     0
102
RTVSPropertyOp23
 70
     0
102
RTVSPropertyOp24
 70
     0
102
RTVSPropertyOp25
 70
     0
102
RTVSPropertyOp26
 70
     0
102
RTVSPropertyOp27
 70
     0
102
RTVSPropertyOp28
 70
     0
102
RTVSPropertyOp29
 70
     0
102
RTVSPropertyOp30
 70
     0
102
RTVSPropertyOp31
 70
     0
102
RTVSPropertyOp32
 70
     0
102
RTVSPropertyOp33
 70
     0
102
RTVSPropertyOp34
 70
     0
102
RTVSPropertyOp35
 70
     0
102
RTVSPropertyOp36
 70
     0
102
RTVSPropertyOp37
 70
     0
102
RTVSPropertyOp38
 70
     0
102
RTVSPropertyOp39
 70
     0
102
RTVSPropertyOp40
 70
     0
102
RTVSPropertyOp41
 70
     0
102
RTVSPropertyOp42
 70
     0
102
RTVSPropertyOp43
 70
     0
102
RTVSPropertyOp44
 70
     0
102
RTVSPropertyOp45
 70
     0
102
RTVSPropertyOp46
 70
     0
102
RTVSPropertyOp47
 70
     0
102
RTVSPropertyOp48
 70
     0
102
RTVSPropertyOp49
 70
     0
102
RTVSPropertyOp50
 70
     0
102
RTVSPropertyOp51
 70
     0
102
RTVSPropertyOp52
 70
     0
102
RTVSPropertyOp53
 70
     0
102
RTVSPropertyOp54
 70
     0
102
RTVSPropertyOp55
 70
     0
102
RTVSPropertyOp56
 70
     0
102
RTVSPropertyOp57
 70
     0
102
RTVSPost2010Prop28
280
     0
102
RTVSPost2010PropOp28
 70
     0
102
RTVSPost2010Prop29
280
     1
102
RTVSPost2010PropOp29
 70
     0
102
RTVSPost2010Prop30
280
     1
102
RTVSPost2010PropOp30
 70
     0
102
RTVSPost2010Prop31
280
     0
102
RTVSPost2010PropOp31
 70
     0
102
RTVSPost2010Prop32
280
     0
102
RTVSPost2010PropOp32
 70
     0
102
RTVSPost2010Prop33
280
     0
102
RTVSPost2010PropOp33
 70
     0
102
RTVSPost2010Prop34
280
     0
102
RTVSPost2010PropOp34
 70
     0
102
RTVSPost2010Prop35
280
     0
102
RTVSPost2010PropOp35
 70
     0
102
RTVSPost2010Prop36
280
     0
102
RTVSPost2010PropOp36
 70
     0
102
RTVSPost2010Prop37
 90
       50
102
RTVSPost2010PropOp37
 70
     0
102
RTVSPost2010Prop38
140
0.0
102
RTVSPost2010PropOp38
 70
     0
102
RTVSPost2010Prop39
140
1.0
102
RTVSPost2010PropOp39
 70
     0
102
RTVSPost2010Prop40
 90
        0
102
RTVSPost2010PropOp40
 70
     0
102
RTVSPost2010Prop41ColorIndex
 90
       18
102
RTVSPost2010Prop41ColorRGB
 90
        0
102
RTVSPost2010PropOp41
 70
     0
102
RTVSPost2010Prop42
 90
       50
102
RTVSPost2010PropOp42
 70
     0
102
RTVSPost2010Prop43
 90
        3
102
RTVSPost2010PropOp43
 70
     0
102
RTVSPost2010Prop44ColorIndex
 90
        5
102
RTVSPost2010Prop44ColorRGB
 90
      255
102
RTVSPost2010PropOp44
 70
     0
102
RTVSPost2010Prop45
280
     0
102
RTVSPost2010PropOp45
 70
     0
102
RTVSPost2010Prop46
 90
       50
102
RTVSPost2010PropOp46
 70
     0
102
RTVSPost2010Prop47
 90
       50
102
RTVSPost2010PropOp47
 70
     0
102
RTVSPost2010Prop48
 90
       50
102
RTVSPost2010PropOp48
 70
     0
102
RTVSPost2010Prop49
280
     0
102
RTVSPost2010PropOp49
 70
     0
102
RTVSPost2010Prop50
 90
       50
102
RTVSPost2010PropOp50
 70
     0
102
RTVSPost2010Prop51ColorIndex
 90
      256
102
RTVSPost2010Prop51ColorRGB
 90
-16777216
102
RTVSPost2010PropOp51
 70
     0
102
RTVSPost2010Prop52
140
1.0
102
RTVSPost2010PropOp52
 70
     0
102
RTVSPost2010Prop53
 90
        2
102
RTVSPost2010PropOp53
 70
     0
102
RTVSPost2010Prop54
  1
strokes_ogs.tif
102
RTVSPost2010PropOp54
 70
     0
102
RTVSPost2010Prop55
280
     0
102
RTVSPost2010PropOp55
 70
     0
102
RTVSPost2010Prop56
140
1.0
102
RTVSPost2010PropOp56
 70
     0
102
RTVSPost2010Prop57
140
1.0
102
RTVSPost2010PropOp57
 70
     0
  0
XRECORD
  5
606
102
{ACAD_REACTORS
330
605
102
}
330
605
100
AcDbXrecord
280
     1
102
RTVSPropertyOp0
 70
     1
102
RTVSPropertyOp1
 70
     1
102
RTVSPropertyOp2
 70
     1
102
RTVSPropertyOp3
 70
     1
102
RTVSPropertyOp4
 70
     1
102
RTVSPropertyOp5
 70
     1
102
RTVSPropertyOp6
 70
     1
102
RTVSPropertyOp7
 70
     1
102
RTVSPropertyOp8
 70
     1
102
RTVSPropertyOp9
 70
     1
102
RTVSPropertyOp10
 70
     1
102
RTVSPropertyOp11
 70
     1
102
RTVSPropertyOp12
 70
     1
102
RTVSPropertyOp13
 70
     1
102
RTVSPropertyOp14
 70
     1
102
RTVSPropertyOp15
 70
     1
102
RTVSPropertyOp16
 70
     1
102
RTVSPropertyOp17
 70
     1
102
RTVSPropertyOp18
 70
     1
102
RTVSPropertyOp19
 70
     1
102
RTVSPropertyOp20
 70
     1
102
RTVSPropertyOp21
 70
     1
102
RTVSPropertyOp22
 70
     1
102
RTVSPropertyOp23
 70
     1
102
RTVSPropertyOp24
 70
     1
102
RTVSPropertyOp25
 70
     1
102
RTVSPropertyOp26
 70
     1
102
RTVSPropertyOp27
 70
     1
102
RTVSPropertyOp28
 70
     1
102
RTVSPropertyOp29
 70
     1
102
RTVSPropertyOp30
 70
     1
102
RTVSPropertyOp31
 70
     1
102
RTVSPropertyOp32
 70
     1
102
RTVSPropertyOp33
 70
     1
102
RTVSPropertyOp34
 70
     1
102
RTVSPropertyOp35
 70
     1
102
RTVSPropertyOp36
 70
     1
102
RTVSPropertyOp37
 70
     1
102
RTVSPropertyOp38
 70
     1
102
RTVSPropertyOp39
 70
     1
102
RTVSPropertyOp40
 70
     1
102
RTVSPropertyOp41
 70
     1
102
RTVSPropertyOp42
 70
     1
102
RTVSPropertyOp43
 70
     1
102
RTVSPropertyOp44
 70
     1
102
RTVSPropertyOp45
 70
     1
102
RTVSPropertyOp46
 70
     1
102
RTVSPropertyOp47
 70
     1
102
RTVSPropertyOp48
 70
     1
102
RTVSPropertyOp49
 70
     1
102
RTVSPropertyOp50
 70
     1
102
RTVSPropertyOp51
 70
     0
102
RTVSPropertyOp52
 70
     0
102
RTVSPropertyOp53
 70
     1
102
RTVSPropertyOp54
 70
     1
102
RTVSPropertyOp55
 70
     1
102
RTVSPropertyOp56
 70
     1
102
RTVSPropertyOp57
 70
     1
102
RTVSPost2010Prop28
280
     0
102
RTVSPost2010PropOp28
 70
     1
102
RTVSPost2010Prop29
280
     1
102
RTVSPost2010PropOp29
 70
     1
102
RTVSPost2010Prop30
280
     1
102
RTVSPost2010PropOp30
 70
     1
102
RTVSPost2010Prop31
280
     0
102
RTVSPost2010PropOp31
 70
     1
102
RTVSPost2010Prop32
280
     0
102
RTVSPost2010PropOp32
 70
     1
102
RTVSPost2010Prop33
280
     0
102
RTVSPost2010PropOp33
 70
     1
102
RTVSPost2010Prop34
280
     0
102
RTVSPost2010PropOp34
 70
     1
102
RTVSPost2010Prop35
280
     0
102
RTVSPost2010PropOp35
 70
     1
102
RTVSPost2010Prop36
280
     0
102
RTVSPost2010PropOp36
 70
     1
102
RTVSPost2010Prop37
 90
       50
102
RTVSPost2010PropOp37
 70
     1
102
RTVSPost2010Prop38
140
0.0
102
RTVSPost2010PropOp38
 70
     1
102
RTVSPost2010Prop39
140
1.0
102
RTVSPost2010PropOp39
 70
     1
102
RTVSPost2010Prop40
 90
        0
102
RTVSPost2010PropOp40
 70
     1
102
RTVSPost2010Prop41ColorIndex
 90
       18
102
RTVSPost2010Prop41ColorRGB
 90
        0
102
RTVSPost2010PropOp41
 70
     1
102
RTVSPost2010Prop42
 90
       50
102
RTVSPost2010PropOp42
 70
     1
102
RTVSPost2010Prop43
 90
        3
102
RTVSPost2010PropOp43
 70
     1
102
RTVSPost2010Prop44ColorIndex
 90
        5
102
RTVSPost2010Prop44ColorRGB
 90
      255
102
RTVSPost2010PropOp44
 70
     1
102
RTVSPost2010Prop45
280
     0
102
RTVSPost2010PropOp45
 70
     1
102
RTVSPost2010Prop46
 90
       50
102
RTVSPost2010PropOp46
 70
     1
102
RTVSPost2010Prop47
 90
       50
102
RTVSPost2010PropOp47
 70
     1
102
RTVSPost2010Prop48
 90
       50
102
RTVSPost2010PropOp48
 70
     1
102
RTVSPost2010Prop49
280
     0
102
RTVSPost2010PropOp49
 70
     1
102
RTVSPost2010Prop50
 90
       50
102
RTVSPost2010PropOp50
 70
     1
102
RTVSPost2010Prop51ColorIndex
 90
      256
102
RTVSPost2010Prop51ColorRGB
 90
-16777216
102
RTVSPost2010PropOp51
 70
     0
102
RTVSPost2010Prop52
140
1.0
102
RTVSPost2010PropOp52
 70
     0
102
RTVSPost2010Prop53
 90
        2
102
RTVSPost2010PropOp53
 70
     1
102
RTVSPost2010Prop54
  1
strokes_ogs.tif
102
RTVSPost2010PropOp54
 70
     1
102
RTVSPost2010Prop55
280
     0
102
RTVSPost2010PropOp55
 70
     1
102
RTVSPost2010Prop56
140
1.0
102
RTVSPost2010PropOp56
 70
     1
102
RTVSPost2010Prop57
140
1.0
102
RTVSPost2010PropOp57
 70
     1
  0
XRECORD
  5
608
102
{ACAD_REACTORS
330
607
102
}
330
607
100
AcDbXrecord
280
     1
102
RTVSPropertyOp0
 70
     1
102
RTVSPropertyOp1
 70
     1
102
RTVSPropertyOp2
 70
     1
102
RTVSPropertyOp3
 70
     1
102
RTVSPropertyOp4
 70
     1
102
RTVSPropertyOp5
 70
     1
102
RTVSPropertyOp6
 70
     1
102
RTVSPropertyOp7
 70
     1
102
RTVSPropertyOp8
 70
     1
102
RTVSPropertyOp9
 70
     1
102
RTVSPropertyOp10
 70
     1
102
RTVSPropertyOp11
 70
     1
102
RTVSPropertyOp12
 70
     1
102
RTVSPropertyOp13
 70
     1
102
RTVSPropertyOp14
 70
     1
102
RTVSPropertyOp15
 70
     1
102
RTVSPropertyOp16
 70
     1
102
RTVSPropertyOp17
 70
     1
102
RTVSPropertyOp18
 70
     1
102
RTVSPropertyOp19
 70
     1
102
RTVSPropertyOp20
 70
     1
102
RTVSPropertyOp21
 70
     1
102
RTVSPropertyOp22
 70
     1
102
RTVSPropertyOp23
 70
     1
102
RTVSPropertyOp24
 70
     1
102
RTVSPropertyOp25
 70
     1
102
RTVSPropertyOp26
 70
     1
102
RTVSPropertyOp27
 70
     1
102
RTVSPropertyOp28
 70
     1
102
RTVSPropertyOp29
 70
     1
102
RTVSPropertyOp30
 70
     1
102
RTVSPropertyOp31
 70
     1
102
RTVSPropertyOp32
 70
     1
102
RTVSPropertyOp33
 70
     1
102
RTVSPropertyOp34
 70
     1
102
RTVSPropertyOp35
 70
     1
102
RTVSPropertyOp36
 70
     1
102
RTVSPropertyOp37
 70
     1
102
RTVSPropertyOp38
 70
     1
102
RTVSPropertyOp39
 70
     1
102
RTVSPropertyOp40
 70
     1
102
RTVSPropertyOp41
 70
     1
102
RTVSPropertyOp42
 70
     1
102
RTVSPropertyOp43
 70
     1
102
RTVSPropertyOp44
 70
     1
102
RTVSPropertyOp45
 70
     1
102
RTVSPropertyOp46
 70
     1
102
RTVSPropertyOp47
 70
     1
102
RTVSPropertyOp48
 70
     1
102
RTVSPropertyOp49
 70
     1
102
RTVSPropertyOp50
 70
     1
102
RTVSPropertyOp51
 70
     0
102
RTVSPropertyOp52
 70
     0
102
RTVSPropertyOp53
 70
     1
102
RTVSPropertyOp54
 70
     1
102
RTVSPropertyOp55
 70
     1
102
RTVSPropertyOp56
 70
     1
102
RTVSPropertyOp57
 70
     1
102
RTVSPost2010Prop28
280
     0
102
RTVSPost2010PropOp28
 70
     1
102
RTVSPost2010Prop29
280
     1
102
RTVSPost2010PropOp29
 70
     1
102
RTVSPost2010Prop30
280
     1
102
RTVSPost2010PropOp30
 70
     1
102
RTVSPost2010Prop31
280
     0
102
RTVSPost2010PropOp31
 70
     1
102
RTVSPost2010Prop32
280
     0
102
RTVSPost2010PropOp32
 70
     1
102
RTVSPost2010Prop33
280
     0
102
RTVSPost2010PropOp33
 70
     1
102
RTVSPost2010Prop34
280
     0
102
RTVSPost2010PropOp34
 70
     1
102
RTVSPost2010Prop35
280
     0
102
RTVSPost2010PropOp35
 70
     1
102
RTVSPost2010Prop36
280
     0
102
RTVSPost2010PropOp36
 70
     1
102
RTVSPost2010Prop37
 90
       50
102
RTVSPost2010PropOp37
 70
     1
102
RTVSPost2010Prop38
140
0.0
102
RTVSPost2010PropOp38
 70
     1
102
RTVSPost2010Prop39
140
1.0
102
RTVSPost2010PropOp39
 70
     1
102
RTVSPost2010Prop40
 90
        0
102
RTVSPost2010PropOp40
 70
     1
102
RTVSPost2010Prop41ColorIndex
 90
       18
102
RTVSPost2010Prop41ColorRGB
 90
        0
102
RTVSPost2010PropOp41
 70
     1
102
RTVSPost2010Prop42
 90
       50
102
RTVSPost2010PropOp42
 70
     1
102
RTVSPost2010Prop43
 90
        3
102
RTVSPost2010PropOp43
 70
     1
102
RTVSPost2010Prop44ColorIndex
 90
        5
102
RTVSPost2010Prop44ColorRGB
 90
      255
102
RTVSPost2010PropOp44
 70
     1
102
RTVSPost2010Prop45
280
     0
102
RTVSPost2010PropOp45
 70
     1
102
RTVSPost2010Prop46
 90
       50
102
RTVSPost2010PropOp46
 70
     1
102
RTVSPost2010Prop47
 90
       50
102
RTVSPost2010PropOp47
 70
     1
102
RTVSPost2010Prop48
 90
       50
102
RTVSPost2010PropOp48
 70
     1
102
RTVSPost2010Prop49
280
     0
102
RTVSPost2010PropOp49
 70
     1
102
RTVSPost2010Prop50
 90
       50
102
RTVSPost2010PropOp50
 70
     1
102
RTVSPost2010Prop51ColorIndex
 90
      256
102
RTVSPost2010Prop51ColorRGB
 90
-16777216
102
RTVSPost2010PropOp51
 70
     0
102
RTVSPost2010Prop52
140
1.0
102
RTVSPost2010PropOp52
 70
     0
102
RTVSPost2010Prop53
 90
        2
102
RTVSPost2010PropOp53
 70
     1
102
RTVSPost2010Prop54
  1
strokes_ogs.tif
102
RTVSPost2010PropOp54
 70
     1
102
RTVSPost2010Prop55
280
     0
102
RTVSPost2010PropOp55
 70
     1
102
RTVSPost2010Prop56
140
1.0
102
RTVSPost2010PropOp56
 70
     1
102
RTVSPost2010Prop57
140
1.0
102
RTVSPost2010PropOp57
 70
     1
  0
XRECORD
  5
60A
102
{ACAD_REACTORS
330
609
102
}
330
609
100
AcDbXrecord
280
     1
102
RTVSPropertyOp0
 70
     1
102
RTVSPropertyOp1
 70
     1
102
RTVSPropertyOp2
 70
     1
102
RTVSPropertyOp3
 70
     1
102
RTVSPropertyOp4
 70
     1
102
RTVSPropertyOp5
 70
     1
102
RTVSPropertyOp6
 70
     1
102
RTVSPropertyOp7
 70
     1
102
RTVSPropertyOp8
 70
     1
102
RTVSPropertyOp9
 70
     1
102
RTVSPropertyOp10
 70
     1
102
RTVSPropertyOp11
 70
     1
102
RTVSPropertyOp12
 70
     1
102
RTVSPropertyOp13
 70
     1
102
RTVSPropertyOp14
 70
     1
102
RTVSPropertyOp15
 70
     1
102
RTVSPropertyOp16
 70
     1
102
RTVSPropertyOp17
 70
     1
102
RTVSPropertyOp18
 70
     1
102
RTVSPropertyOp19
 70
     1
102
RTVSPropertyOp20
 70
     1
102
RTVSPropertyOp21
 70
     1
102
RTVSPropertyOp22
 70
     1
102
RTVSPropertyOp23
 70
     1
102
RTVSPropertyOp24
 70
     1
102
RTVSPropertyOp25
 70
     1
102
RTVSPropertyOp26
 70
     1
102
RTVSPropertyOp27
 70
     1
102
RTVSPropertyOp28
 70
     1
102
RTVSPropertyOp29
 70
     1
102
RTVSPropertyOp30
 70
     1
102
RTVSPropertyOp31
 70
     1
102
RTVSPropertyOp32
 70
     1
102
RTVSPropertyOp33
 70
     1
102
RTVSPropertyOp34
 70
     1
102
RTVSPropertyOp35
 70
     1
102
RTVSPropertyOp36
 70
     1
102
RTVSPropertyOp37
 70
     1
102
RTVSPropertyOp38
 70
     1
102
RTVSPropertyOp39
 70
     1
102
RTVSPropertyOp40
 70
     1
102
RTVSPropertyOp41
 70
     1
102
RTVSPropertyOp42
 70
     1
102
RTVSPropertyOp43
 70
     1
102
RTVSPropertyOp44
 70
     1
102
RTVSPropertyOp45
 70
     1
102
RTVSPropertyOp46
 70
     1
102
RTVSPropertyOp47
 70
     1
102
RTVSPropertyOp48
 70
     1
102
RTVSPropertyOp49
 70
     1
102
RTVSPropertyOp50
 70
     1
102
RTVSPropertyOp51
 70
     0
102
RTVSPropertyOp52
 70
     0
102
RTVSPropertyOp53
 70
     1
102
RTVSPropertyOp54
 70
     1
102
RTVSPropertyOp55
 70
     1
102
RTVSPropertyOp56
 70
     1
102
RTVSPropertyOp57
 70
     1
102
RTVSPost2010Prop28
280
     0
102
RTVSPost2010PropOp28
 70
     1
102
RTVSPost2010Prop29
280
     1
102
RTVSPost2010PropOp29
 70
     1
102
RTVSPost2010Prop30
280
     1
102
RTVSPost2010PropOp30
 70
     1
102
RTVSPost2010Prop31
280
     0
102
RTVSPost2010PropOp31
 70
     1
102
RTVSPost2010Prop32
280
     0
102
RTVSPost2010PropOp32
 70
     1
102
RTVSPost2010Prop33
280
     0
102
RTVSPost2010PropOp33
 70
     1
102
RTVSPost2010Prop34
280
     0
102
RTVSPost2010PropOp34
 70
     1
102
RTVSPost2010Prop35
280
     0
102
RTVSPost2010PropOp35
 70
     1
102
RTVSPost2010Prop36
280
     0
102
RTVSPost2010PropOp36
 70
     1
102
RTVSPost2010Prop37
 90
       50
102
RTVSPost2010PropOp37
 70
     1
102
RTVSPost2010Prop38
140
0.0
102
RTVSPost2010PropOp38
 70
     1
102
RTVSPost2010Prop39
140
1.0
102
RTVSPost2010PropOp39
 70
     1
102
RTVSPost2010Prop40
 90
        0
102
RTVSPost2010PropOp40
 70
     1
102
RTVSPost2010Prop41ColorIndex
 90
       18
102
RTVSPost2010Prop41ColorRGB
 90
        0
102
RTVSPost2010PropOp41
 70
     1
102
RTVSPost2010Prop42
 90
       50
102
RTVSPost2010PropOp42
 70
     1
102
RTVSPost2010Prop43
 90
        3
102
RTVSPost2010PropOp43
 70
     1
102
RTVSPost2010Prop44ColorIndex
 90
        5
102
RTVSPost2010Prop44ColorRGB
 90
      255
102
RTVSPost2010PropOp44
 70
     1
102
RTVSPost2010Prop45
280
     0
102
RTVSPost2010PropOp45
 70
     1
102
RTVSPost2010Prop46
 90
       50
102
RTVSPost2010PropOp46
 70
     1
102
RTVSPost2010Prop47
 90
       50
102
RTVSPost2010PropOp47
 70
     1
102
RTVSPost2010Prop48
 90
       50
102
RTVSPost2010PropOp48
 70
     1
102
RTVSPost2010Prop49
280
     0
102
RTVSPost2010PropOp49
 70
     1
102
RTVSPost2010Prop50
 90
       50
102
RTVSPost2010PropOp50
 70
     1
102
RTVSPost2010Prop51ColorIndex
 90
      256
102
RTVSPost2010Prop51ColorRGB
 90
-16777216
102
RTVSPost2010PropOp51
 70
     0
102
RTVSPost2010Prop52
140
1.0
102
RTVSPost2010PropOp52
 70
     0
102
RTVSPost2010Prop53
 90
        2
102
RTVSPost2010PropOp53
 70
     1
102
RTVSPost2010Prop54
  1
strokes_ogs.tif
102
RTVSPost2010PropOp54
 70
     1
102
RTVSPost2010Prop55
280
     0
102
RTVSPost2010PropOp55
 70
     1
102
RTVSPost2010Prop56
140
1.0
102
RTVSPost2010PropOp56
 70
     1
102
RTVSPost2010Prop57
140
1.0
102
RTVSPost2010PropOp57
 70
     1
  0
XRECORD
  5
60C
102
{ACAD_REACTORS
330
60B
102
}
330
60B
100
AcDbXrecord
280
     1
102
RTVSPropertyOp0
 70
     1
102
RTVSPropertyOp1
 70
     1
102
RTVSPropertyOp2
 70
     1
102
RTVSPropertyOp3
 70
     1
102
RTVSPropertyOp4
 70
     1
102
RTVSPropertyOp5
 70
     1
102
RTVSPropertyOp6
 70
     1
102
RTVSPropertyOp7
 70
     1
102
RTVSPropertyOp8
 70
     1
102
RTVSPropertyOp9
 70
     1
102
RTVSPropertyOp10
 70
     1
102
RTVSPropertyOp11
 70
     1
102
RTVSPropertyOp12
 70
     1
102
RTVSPropertyOp13
 70
     1
102
RTVSPropertyOp14
 70
     1
102
RTVSPropertyOp15
 70
     1
102
RTVSPropertyOp16
 70
     1
102
RTVSPropertyOp17
 70
     1
102
RTVSPropertyOp18
 70
     1
102
RTVSPropertyOp19
 70
     1
102
RTVSPropertyOp20
 70
     1
102
RTVSPropertyOp21
 70
     1
102
RTVSPropertyOp22
 70
     1
102
RTVSPropertyOp23
 70
     1
102
RTVSPropertyOp24
 70
     1
102
RTVSPropertyOp25
 70
     1
102
RTVSPropertyOp26
 70
     1
102
RTVSPropertyOp27
 70
     1
102
RTVSPropertyOp28
 70
     1
102
RTVSPropertyOp29
 70
     1
102
RTVSPropertyOp30
 70
     1
102
RTVSPropertyOp31
 70
     1
102
RTVSPropertyOp32
 70
     1
102
RTVSPropertyOp33
 70
     1
102
RTVSPropertyOp34
 70
     1
102
RTVSPropertyOp35
 70
     1
102
RTVSPropertyOp36
 70
     1
102
RTVSPropertyOp37
 70
     1
102
RTVSPropertyOp38
 70
     1
102
RTVSPropertyOp39
 70
     1
102
RTVSPropertyOp40
 70
     1
102
RTVSPropertyOp41
 70
     1
102
RTVSPropertyOp42
 70
     1
102
RTVSPropertyOp43
 70
     1
102
RTVSPropertyOp44
 70
     1
102
RTVSPropertyOp45
 70
     1
102
RTVSPropertyOp46
 70
     1
102
RTVSPropertyOp47
 70
     1
102
RTVSPropertyOp48
 70
     1
102
RTVSPropertyOp49
 70
     1
102
RTVSPropertyOp50
 70
     1
102
RTVSPropertyOp51
 70
     0
102
RTVSPropertyOp52
 70
     0
102
RTVSPropertyOp53
 70
     1
102
RTVSPropertyOp54
 70
     1
102
RTVSPropertyOp55
 70
     1
102
RTVSPropertyOp56
 70
     1
102
RTVSPropertyOp57
 70
     1
102
RTVSPost2010Prop28
280
     0
102
RTVSPost2010PropOp28
 70
     1
102
RTVSPost2010Prop29
280
     1
102
RTVSPost2010PropOp29
 70
     1
102
RTVSPost2010Prop30
280
     1
102
RTVSPost2010PropOp30
 70
     1
102
RTVSPost2010Prop31
280
     0
102
RTVSPost2010PropOp31
 70
     1
102
RTVSPost2010Prop32
280
     0
102
RTVSPost2010PropOp32
 70
     1
102
RTVSPost2010Prop33
280
     0
102
RTVSPost2010PropOp33
 70
     1
102
RTVSPost2010Prop34
280
     0
102
RTVSPost2010PropOp34
 70
     1
102
RTVSPost2010Prop35
280
     0
102
RTVSPost2010PropOp35
 70
     1
102
RTVSPost2010Prop36
280
     0
102
RTVSPost2010PropOp36
 70
     1
102
RTVSPost2010Prop37
 90
       50
102
RTVSPost2010PropOp37
 70
     1
102
RTVSPost2010Prop38
140
0.0
102
RTVSPost2010PropOp38
 70
     1
102
RTVSPost2010Prop39
140
1.0
102
RTVSPost2010PropOp39
 70
     1
102
RTVSPost2010Prop40
 90
        0
102
RTVSPost2010PropOp40
 70
     1
102
RTVSPost2010Prop41ColorIndex
 90
       18
102
RTVSPost2010Prop41ColorRGB
 90
        0
102
RTVSPost2010PropOp41
 70
     1
102
RTVSPost2010Prop42
 90
       50
102
RTVSPost2010PropOp42
 70
     1
102
RTVSPost2010Prop43
 90
        3
102
RTVSPost2010PropOp43
 70
     1
102
RTVSPost2010Prop44ColorIndex
 90
        5
102
RTVSPost2010Prop44ColorRGB
 90
      255
102
RTVSPost2010PropOp44
 70
     1
102
RTVSPost2010Prop45
280
     0
102
RTVSPost2010PropOp45
 70
     1
102
RTVSPost2010Prop46
 90
       50
102
RTVSPost2010PropOp46
 70
     1
102
RTVSPost2010Prop47
 90
       50
102
RTVSPost2010PropOp47
 70
     1
102
RTVSPost2010Prop48
 90
       50
102
RTVSPost2010PropOp48
 70
     1
102
RTVSPost2010Prop49
280
     0
102
RTVSPost2010PropOp49
 70
     1
102
RTVSPost2010Prop50
 90
       50
102
RTVSPost2010PropOp50
 70
     1
102
RTVSPost2010Prop51ColorIndex
 90
      256
102
RTVSPost2010Prop51ColorRGB
 90
-16777216
102
RTVSPost2010PropOp51
 70
     0
102
RTVSPost2010Prop52
140
1.0
102
RTVSPost2010PropOp52
 70
     0
102
RTVSPost2010Prop53
 90
        2
102
RTVSPost2010PropOp53
 70
     1
102
RTVSPost2010Prop54
  1
strokes_ogs.tif
102
RTVSPost2010PropOp54
 70
     1
102
RTVSPost2010Prop55
280
     0
102
RTVSPost2010PropOp55
 70
     1
102
RTVSPost2010Prop56
140
1.0
102
RTVSPost2010PropOp56
 70
     1
102
RTVSPost2010Prop57
140
1.0
102
RTVSPost2010PropOp57
 70
     1
  0
XRECORD
  5
60E
102
{ACAD_REACTORS
330
60D
102
}
330
60D
100
AcDbXrecord
280
     1
102
RTVSPropertyOp0
 70
     1
102
RTVSPropertyOp1
 70
     1
102
RTVSPropertyOp2
 70
     1
102
RTVSPropertyOp3
 70
     1
102
RTVSPropertyOp4
 70
     1
102
RTVSPropertyOp5
 70
     1
102
RTVSPropertyOp6
 70
     1
102
RTVSPropertyOp7
 70
     1
102
RTVSPropertyOp8
 70
     1
102
RTVSPropertyOp9
 70
     1
102
RTVSPropertyOp10
 70
     1
102
RTVSPropertyOp11
 70
     1
102
RTVSPropertyOp12
 70
     1
102
RTVSPropertyOp13
 70
     1
102
RTVSPropertyOp14
 70
     1
102
RTVSPropertyOp15
 70
     1
102
RTVSPropertyOp16
 70
     1
102
RTVSPropertyOp17
 70
     1
102
RTVSPropertyOp18
 70
     1
102
RTVSPropertyOp19
 70
     1
102
RTVSPropertyOp20
 70
     1
102
RTVSPropertyOp21
 70
     1
102
RTVSPropertyOp22
 70
     1
102
RTVSPropertyOp23
 70
     1
102
RTVSPropertyOp24
 70
     1
102
RTVSPropertyOp25
 70
     1
102
RTVSPropertyOp26
 70
     1
102
RTVSPropertyOp27
 70
     1
102
RTVSPropertyOp28
 70
     1
102
RTVSPropertyOp29
 70
     1
102
RTVSPropertyOp30
 70
     1
102
RTVSPropertyOp31
 70
     1
102
RTVSPropertyOp32
 70
     1
102
RTVSPropertyOp33
 70
     1
102
RTVSPropertyOp34
 70
     1
102
RTVSPropertyOp35
 70
     1
102
RTVSPropertyOp36
 70
     1
102
RTVSPropertyOp37
 70
     1
102
RTVSPropertyOp38
 70
     1
102
RTVSPropertyOp39
 70
     1
102
RTVSPropertyOp40
 70
     1
102
RTVSPropertyOp41
 70
     1
102
RTVSPropertyOp42
 70
     1
102
RTVSPropertyOp43
 70
     1
102
RTVSPropertyOp44
 70
     1
102
RTVSPropertyOp45
 70
     1
102
RTVSPropertyOp46
 70
     1
102
RTVSPropertyOp47
 70
     1
102
RTVSPropertyOp48
 70
     1
102
RTVSPropertyOp49
 70
     1
102
RTVSPropertyOp50
 70
     1
102
RTVSPropertyOp51
 70
     0
102
RTVSPropertyOp52
 70
     0
102
RTVSPropertyOp53
 70
     1
102
RTVSPropertyOp54
 70
     1
102
RTVSPropertyOp55
 70
     1
102
RTVSPropertyOp56
 70
     1
102
RTVSPropertyOp57
 70
     1
102
RTVSPost2010Prop28
280
     0
102
RTVSPost2010PropOp28
 70
     1
102
RTVSPost2010Prop29
280
     1
102
RTVSPost2010PropOp29
 70
     1
102
RTVSPost2010Prop30
280
     1
102
RTVSPost2010PropOp30
 70
     1
102
RTVSPost2010Prop31
280
     0
102
RTVSPost2010PropOp31
 70
     1
102
RTVSPost2010Prop32
280
     0
102
RTVSPost2010PropOp32
 70
     1
102
RTVSPost2010Prop33
280
     0
102
RTVSPost2010PropOp33
 70
     1
102
RTVSPost2010Prop34
280
     0
102
RTVSPost2010PropOp34
 70
     1
102
RTVSPost2010Prop35
280
     0
102
RTVSPost2010PropOp35
 70
     1
102
RTVSPost2010Prop36
280
     0
102
RTVSPost2010PropOp36
 70
     1
102
RTVSPost2010Prop37
 90
       50
102
RTVSPost2010PropOp37
 70
     1
102
RTVSPost2010Prop38
140
0.0
102
RTVSPost2010PropOp38
 70
     1
102
RTVSPost2010Prop39
140
1.0
102
RTVSPost2010PropOp39
 70
     1
102
RTVSPost2010Prop40
 90
        0
102
RTVSPost2010PropOp40
 70
     1
102
RTVSPost2010Prop41ColorIndex
 90
       18
102
RTVSPost2010Prop41ColorRGB
 90
        0
102
RTVSPost2010PropOp41
 70
     1
102
RTVSPost2010Prop42
 90
       50
102
RTVSPost2010PropOp42
 70
     1
102
RTVSPost2010Prop43
 90
        3
102
RTVSPost2010PropOp43
 70
     1
102
RTVSPost2010Prop44ColorIndex
 90
        5
102
RTVSPost2010Prop44ColorRGB
 90
      255
102
RTVSPost2010PropOp44
 70
     1
102
RTVSPost2010Prop45
280
     0
102
RTVSPost2010PropOp45
 70
     1
102
RTVSPost2010Prop46
 90
       50
102
RTVSPost2010PropOp46
 70
     1
102
RTVSPost2010Prop47
 90
       50
102
RTVSPost2010PropOp47
 70
     1
102
RTVSPost2010Prop48
 90
       50
102
RTVSPost2010PropOp48
 70
     1
102
RTVSPost2010Prop49
280
     0
102
RTVSPost2010PropOp49
 70
     1
102
RTVSPost2010Prop50
 90
       50
102
RTVSPost2010PropOp50
 70
     1
102
RTVSPost2010Prop51ColorIndex
 90
      256
102
RTVSPost2010Prop51ColorRGB
 90
-16777216
102
RTVSPost2010PropOp51
 70
     0
102
RTVSPost2010Prop52
140
1.0
102
RTVSPost2010PropOp52
 70
     0
102
RTVSPost2010Prop53
 90
        2
102
RTVSPost2010PropOp53
 70
     1
102
RTVSPost2010Prop54
  1
strokes_ogs.tif
102
RTVSPost2010PropOp54
 70
     1
102
RTVSPost2010Prop55
280
     0
102
RTVSPost2010PropOp55
 70
     1
102
RTVSPost2010Prop56
140
1.0
102
RTVSPost2010PropOp56
 70
     1
102
RTVSPost2010Prop57
140
1.0
102
RTVSPost2010PropOp57
 70
     1
  0
XRECORD
  5
610
102
{ACAD_REACTORS
330
60F
102
}
330
60F
100
AcDbXrecord
280
     1
102
RTVSPropertyOp0
 70
     1
102
RTVSPropertyOp1
 70
     1
102
RTVSPropertyOp2
 70
     1
102
RTVSPropertyOp3
 70
     1
102
RTVSPropertyOp4
 70
     1
102
RTVSPropertyOp5
 70
     1
102
RTVSPropertyOp6
 70
     1
102
RTVSPropertyOp7
 70
     1
102
RTVSPropertyOp8
 70
     1
102
RTVSPropertyOp9
 70
     1
102
RTVSPropertyOp10
 70
     1
102
RTVSPropertyOp11
 70
     1
102
RTVSPropertyOp12
 70
     1
102
RTVSPropertyOp13
 70
     1
102
RTVSPropertyOp14
 70
     1
102
RTVSPropertyOp15
 70
     1
102
RTVSPropertyOp16
 70
     1
102
RTVSPropertyOp17
 70
     1
102
RTVSPropertyOp18
 70
     1
102
RTVSPropertyOp19
 70
     1
102
RTVSPropertyOp20
 70
     1
102
RTVSPropertyOp21
 70
     1
102
RTVSPropertyOp22
 70
     1
102
RTVSPropertyOp23
 70
     1
102
RTVSPropertyOp24
 70
     1
102
RTVSPropertyOp25
 70
     1
102
RTVSPropertyOp26
 70
     1
102
RTVSPropertyOp27
 70
     1
102
RTVSPropertyOp28
 70
     1
102
RTVSPropertyOp29
 70
     1
102
RTVSPropertyOp30
 70
     1
102
RTVSPropertyOp31
 70
     1
102
RTVSPropertyOp32
 70
     1
102
RTVSPropertyOp33
 70
     1
102
RTVSPropertyOp34
 70
     1
102
RTVSPropertyOp35
 70
     1
102
RTVSPropertyOp36
 70
     1
102
RTVSPropertyOp37
 70
     1
102
RTVSPropertyOp38
 70
     1
102
RTVSPropertyOp39
 70
     1
102
RTVSPropertyOp40
 70
     1
102
RTVSPropertyOp41
 70
     1
102
RTVSPropertyOp42
 70
     1
102
RTVSPropertyOp43
 70
     1
102
RTVSPropertyOp44
 70
     1
102
RTVSPropertyOp45
 70
     1
102
RTVSPropertyOp46
 70
     1
102
RTVSPropertyOp47
 70
     1
102
RTVSPropertyOp48
 70
     1
102
RTVSPropertyOp49
 70
     1
102
RTVSPropertyOp50
 70
     1
102
RTVSPropertyOp51
 70
     0
102
RTVSPropertyOp52
 70
     0
102
RTVSPropertyOp53
 70
     1
102
RTVSPropertyOp54
 70
     1
102
RTVSPropertyOp55
 70
     1
102
RTVSPropertyOp56
 70
     1
102
RTVSPropertyOp57
 70
     1
102
RTVSPost2010Prop28
280
     0
102
RTVSPost2010PropOp28
 70
     1
102
RTVSPost2010Prop29
280
     1
102
RTVSPost2010PropOp29
 70
     1
102
RTVSPost2010Prop30
280
     1
102
RTVSPost2010PropOp30
 70
     1
102
RTVSPost2010Prop31
280
     0
102
RTVSPost2010PropOp31
 70
     1
102
RTVSPost2010Prop32
280
     0
102
RTVSPost2010PropOp32
 70
     1
102
RTVSPost2010Prop33
280
     0
102
RTVSPost2010PropOp33
 70
     1
102
RTVSPost2010Prop34
280
     0
102
RTVSPost2010PropOp34
 70
     1
102
RTVSPost2010Prop35
280
     0
102
RTVSPost2010PropOp35
 70
     1
102
RTVSPost2010Prop36
280
     0
102
RTVSPost2010PropOp36
 70
     1
102
RTVSPost2010Prop37
 90
       50
102
RTVSPost2010PropOp37
 70
     1
102
RTVSPost2010Prop38
140
0.0
102
RTVSPost2010PropOp38
 70
     1
102
RTVSPost2010Prop39
140
1.0
102
RTVSPost2010PropOp39
 70
     1
102
RTVSPost2010Prop40
 90
        0
102
RTVSPost2010PropOp40
 70
     1
102
RTVSPost2010Prop41ColorIndex
 90
       18
102
RTVSPost2010Prop41ColorRGB
 90
        0
102
RTVSPost2010PropOp41
 70
     1
102
RTVSPost2010Prop42
 90
       50
102
RTVSPost2010PropOp42
 70
     1
102
RTVSPost2010Prop43
 90
        3
102
RTVSPost2010PropOp43
 70
     1
102
RTVSPost2010Prop44ColorIndex
 90
        5
102
RTVSPost2010Prop44ColorRGB
 90
      255
102
RTVSPost2010PropOp44
 70
     1
102
RTVSPost2010Prop45
280
     0
102
RTVSPost2010PropOp45
 70
     1
102
RTVSPost2010Prop46
 90
       50
102
RTVSPost2010PropOp46
 70
     1
102
RTVSPost2010Prop47
 90
       50
102
RTVSPost2010PropOp47
 70
     1
102
RTVSPost2010Prop48
 90
       50
102
RTVSPost2010PropOp48
 70
     1
102
RTVSPost2010Prop49
280
     0
102
RTVSPost2010PropOp49
 70
     1
102
RTVSPost2010Prop50
 90
       50
102
RTVSPost2010PropOp50
 70
     1
102
RTVSPost2010Prop51ColorIndex
 90
      256
102
RTVSPost2010Prop51ColorRGB
 90
-16777216
102
RTVSPost2010PropOp51
 70
     0
102
RTVSPost2010Prop52
140
1.0
102
RTVSPost2010PropOp52
 70
     0
102
RTVSPost2010Prop53
 90
        2
102
RTVSPost2010PropOp53
 70
     1
102
RTVSPost2010Prop54
  1
strokes_ogs.tif
102
RTVSPost2010PropOp54
 70
     1
102
RTVSPost2010Prop55
280
     0
102
RTVSPost2010PropOp55
 70
     1
102
RTVSPost2010Prop56
140
1.0
102
RTVSPost2010PropOp56
 70
     1
102
RTVSPost2010Prop57
140
1.0
102
RTVSPost2010PropOp57
 70
     1
  0
XRECORD
  5
612
102
{ACAD_REACTORS
330
611
102
}
330
611
100
AcDbXrecord
280
     1
102
RTVSPropertyOp0
 70
     0
102
RTVSPropertyOp1
 70
     0
102
RTVSPropertyOp2
 70
     0
102
RTVSPropertyOp3
 70
     0
102
RTVSPropertyOp4
 70
     0
102
RTVSPropertyOp5
 70
     0
102
RTVSPropertyOp6
 70
     0
102
RTVSPropertyOp7
 70
     0
102
RTVSPropertyOp8
 70
     0
102
RTVSPropertyOp9
 70
     0
102
RTVSPropertyOp10
 70
     0
102
RTVSPropertyOp11
 70
     0
102
RTVSPropertyOp12
 70
     0
102
RTVSPropertyOp13
 70
     0
102
RTVSPropertyOp14
 70
     2
102
RTVSPropertyOp15
 70
     0
102
RTVSPropertyOp16
 70
     0
102
RTVSPropertyOp17
 70
     0
102
RTVSPropertyOp18
 70
     0
102
RTVSPropertyOp19
 70
     0
102
RTVSPropertyOp20
 70
     0
102
RTVSPropertyOp21
 70
     0
102
RTVSPropertyOp22
 70
     0
102
RTVSPropertyOp23
 70
     0
102
RTVSPropertyOp24
 70
     0
102
RTVSPropertyOp25
 70
     0
102
RTVSPropertyOp26
 70
     0
102
RTVSPropertyOp27
 70
     0
102
RTVSPropertyOp28
 70
     0
102
RTVSPropertyOp29
 70
     0
102
RTVSPropertyOp30
 70
     0
102
RTVSPropertyOp31
 70
     0
102
RTVSPropertyOp32
 70
     0
102
RTVSPropertyOp33
 70
     0
102
RTVSPropertyOp34
 70
     0
102
RTVSPropertyOp35
 70
     0
102
RTVSPropertyOp36
 70
     0
102
RTVSPropertyOp37
 70
     0
102
RTVSPropertyOp38
 70
     0
102
RTVSPropertyOp39
 70
     0
102
RTVSPropertyOp40
 70
     0
102
RTVSPropertyOp41
 70
     0
102
RTVSPropertyOp42
 70
     0
102
RTVSPropertyOp43
 70
     0
102
RTVSPropertyOp44
 70
     0
102
RTVSPropertyOp45
 70
     0
102
RTVSPropertyOp46
 70
     0
102
RTVSPropertyOp47
 70
     0
102
RTVSPropertyOp48
 70
     0
102
RTVSPropertyOp49
 70
     0
102
RTVSPropertyOp50
 70
     0
102
RTVSPropertyOp51
 70
     0
102
RTVSPropertyOp52
 70
     0
102
RTVSPropertyOp53
 70
     0
102
RTVSPropertyOp54
 70
     0
102
RTVSPropertyOp55
 70
     0
102
RTVSPropertyOp56
 70
     0
102
RTVSPropertyOp57
 70
     0
102
RTVSPost2010Prop28
280
     0
102
RTVSPost2010PropOp28
 70
     0
102
RTVSPost2010Prop29
280
     1
102
RTVSPost2010PropOp29
 70
     0
102
RTVSPost2010Prop30
280
     1
102
RTVSPost2010PropOp30
 70
     0
102
RTVSPost2010Prop31
280
     0
102
RTVSPost2010PropOp31
 70
     0
102
RTVSPost2010Prop32
280
     0
102
RTVSPost2010PropOp32
 70
     0
102
RTVSPost2010Prop33
280
     0
102
RTVSPost2010PropOp33
 70
     0
102
RTVSPost2010Prop34
280
     0
102
RTVSPost2010PropOp34
 70
     0
102
RTVSPost2010Prop35
280
     0
102
RTVSPost2010PropOp35
 70
     0
102
RTVSPost2010Prop36
280
     0
102
RTVSPost2010PropOp36
 70
     0
102
RTVSPost2010Prop37
 90
       50
102
RTVSPost2010PropOp37
 70
     0
102
RTVSPost2010Prop38
140
0.0
102
RTVSPost2010PropOp38
 70
     0
102
RTVSPost2010Prop39
140
1.0
102
RTVSPost2010PropOp39
 70
     0
102
RTVSPost2010Prop40
 90
        0
102
RTVSPost2010PropOp40
 70
     0
102
RTVSPost2010Prop41ColorIndex
 90
       18
102
RTVSPost2010Prop41ColorRGB
 90
        0
102
RTVSPost2010PropOp41
 70
     0
102
RTVSPost2010Prop42
 90
       50
102
RTVSPost2010PropOp42
 70
     0
102
RTVSPost2010Prop43
 90
        3
102
RTVSPost2010PropOp43
 70
     0
102
RTVSPost2010Prop44ColorIndex
 90
        5
102
RTVSPost2010Prop44ColorRGB
 90
      255
102
RTVSPost2010PropOp44
 70
     0
102
RTVSPost2010Prop45
280
     0
102
RTVSPost2010PropOp45
 70
     0
102
RTVSPost2010Prop46
 90
       50
102
RTVSPost2010PropOp46
 70
     0
102
RTVSPost2010Prop47
 90
       50
102
RTVSPost2010PropOp47
 70
     0
102
RTVSPost2010Prop48
 90
       50
102
RTVSPost2010PropOp48
 70
     0
102
RTVSPost2010Prop49
280
     0
102
RTVSPost2010PropOp49
 70
     0
102
RTVSPost2010Prop50
 90
       50
102
RTVSPost2010PropOp50
 70
     0
102
RTVSPost2010Prop51ColorIndex
 90
      256
102
RTVSPost2010Prop51ColorRGB
 90
-16777216
102
RTVSPost2010PropOp51
 70
     0
102
RTVSPost2010Prop52
140
1.0
102
RTVSPost2010PropOp52
 70
     0
102
RTVSPost2010Prop53
 90
        2
102
RTVSPost2010PropOp53
 70
     0
102
RTVSPost2010Prop54
  1
strokes_ogs.tif
102
RTVSPost2010PropOp54
 70
     0
102
RTVSPost2010Prop55
280
     0
102
RTVSPost2010PropOp55
 70
     0
102
RTVSPost2010Prop56
140
1.0
102
RTVSPost2010PropOp56
 70
     0
102
RTVSPost2010Prop57
140
1.0
102
RTVSPost2010PropOp57
 70
     0
  0
XRECORD
  5
614
102
{ACAD_REACTORS
330
613
102
}
330
613
100
AcDbXrecord
280
     1
102
RTVSPropertyOp0
 70
     1
102
RTVSPropertyOp1
 70
     1
102
RTVSPropertyOp2
 70
     1
102
RTVSPropertyOp3
 70
     1
102
RTVSPropertyOp4
 70
     1
102
RTVSPropertyOp5
 70
     1
102
RTVSPropertyOp6
 70
     1
102
RTVSPropertyOp7
 70
     1
102
RTVSPropertyOp8
 70
     1
102
RTVSPropertyOp9
 70
     1
102
RTVSPropertyOp10
 70
     1
102
RTVSPropertyOp11
 70
     1
102
RTVSPropertyOp12
 70
     1
102
RTVSPropertyOp13
 70
     1
102
RTVSPropertyOp14
 70
     1
102
RTVSPropertyOp15
 70
     1
102
RTVSPropertyOp16
 70
     1
102
RTVSPropertyOp17
 70
     1
102
RTVSPropertyOp18
 70
     1
102
RTVSPropertyOp19
 70
     1
102
RTVSPropertyOp20
 70
     1
102
RTVSPropertyOp21
 70
     1
102
RTVSPropertyOp22
 70
     1
102
RTVSPropertyOp23
 70
     1
102
RTVSPropertyOp24
 70
     1
102
RTVSPropertyOp25
 70
     1
102
RTVSPropertyOp26
 70
     1
102
RTVSPropertyOp27
 70
     1
102
RTVSPropertyOp28
 70
     1
102
RTVSPropertyOp29
 70
     1
102
RTVSPropertyOp30
 70
     1
102
RTVSPropertyOp31
 70
     1
102
RTVSPropertyOp32
 70
     1
102
RTVSPropertyOp33
 70
     1
102
RTVSPropertyOp34
 70
     1
102
RTVSPropertyOp35
 70
     1
102
RTVSPropertyOp36
 70
     1
102
RTVSPropertyOp37
 70
     1
102
RTVSPropertyOp38
 70
     1
102
RTVSPropertyOp39
 70
     1
102
RTVSPropertyOp40
 70
     1
102
RTVSPropertyOp41
 70
     1
102
RTVSPropertyOp42
 70
     1
102
RTVSPropertyOp43
 70
     1
102
RTVSPropertyOp44
 70
     1
102
RTVSPropertyOp45
 70
     1
102
RTVSPropertyOp46
 70
     1
102
RTVSPropertyOp47
 70
     1
102
RTVSPropertyOp48
 70
     1
102
RTVSPropertyOp49
 70
     1
102
RTVSPropertyOp50
 70
     1
102
RTVSPropertyOp51
 70
     0
102
RTVSPropertyOp52
 70
     0
102
RTVSPropertyOp53
 70
     1
102
RTVSPropertyOp54
 70
     1
102
RTVSPropertyOp55
 70
     1
102
RTVSPropertyOp56
 70
     1
102
RTVSPropertyOp57
 70
     1
102
RTVSPost2010Prop28
280
     0
102
RTVSPost2010PropOp28
 70
     1
102
RTVSPost2010Prop29
280
     1
102
RTVSPost2010PropOp29
 70
     1
102
RTVSPost2010Prop30
280
     1
102
RTVSPost2010PropOp30
 70
     1
102
RTVSPost2010Prop31
280
     0
102
RTVSPost2010PropOp31
 70
     1
102
RTVSPost2010Prop32
280
     0
102
RTVSPost2010PropOp32
 70
     1
102
RTVSPost2010Prop33
280
     0
102
RTVSPost2010PropOp33
 70
     1
102
RTVSPost2010Prop34
280
     0
102
RTVSPost2010PropOp34
 70
     1
102
RTVSPost2010Prop35
280
     0
102
RTVSPost2010PropOp35
 70
     1
102
RTVSPost2010Prop36
280
     0
102
RTVSPost2010PropOp36
 70
     1
102
RTVSPost2010Prop37
 90
       50
102
RTVSPost2010PropOp37
 70
     1
102
RTVSPost2010Prop38
140
0.0
102
RTVSPost2010PropOp38
 70
     1
102
RTVSPost2010Prop39
140
1.0
102
RTVSPost2010PropOp39
 70
     1
102
RTVSPost2010Prop40
 90
        0
102
RTVSPost2010PropOp40
 70
     1
102
RTVSPost2010Prop41ColorIndex
 90
       18
102
RTVSPost2010Prop41ColorRGB
 90
        0
102
RTVSPost2010PropOp41
 70
     1
102
RTVSPost2010Prop42
 90
       50
102
RTVSPost2010PropOp42
 70
     1
102
RTVSPost2010Prop43
 90
        3
102
RTVSPost2010PropOp43
 70
     1
102
RTVSPost2010Prop44ColorIndex
 90
        5
102
RTVSPost2010Prop44ColorRGB
 90
      255
102
RTVSPost2010PropOp44
 70
     1
102
RTVSPost2010Prop45
280
     0
102
RTVSPost2010PropOp45
 70
     1
102
RTVSPost2010Prop46
 90
       50
102
RTVSPost2010PropOp46
 70
     1
102
RTVSPost2010Prop47
 90
       50
102
RTVSPost2010PropOp47
 70
     1
102
RTVSPost2010Prop48
 90
       50
102
RTVSPost2010PropOp48
 70
     1
102
RTVSPost2010Prop49
280
     0
102
RTVSPost2010PropOp49
 70
     1
102
RTVSPost2010Prop50
 90
       50
102
RTVSPost2010PropOp50
 70
     1
102
RTVSPost2010Prop51ColorIndex
 90
      256
102
RTVSPost2010Prop51ColorRGB
 90
-16777216
102
RTVSPost2010PropOp51
 70
     0
102
RTVSPost2010Prop52
140
1.0
102
RTVSPost2010PropOp52
 70
     0
102
RTVSPost2010Prop53
 90
        2
102
RTVSPost2010PropOp53
 70
     1
102
RTVSPost2010Prop54
  1
strokes_ogs.tif
102
RTVSPost2010PropOp54
 70
     1
102
RTVSPost2010Prop55
280
     0
102
RTVSPost2010PropOp55
 70
     1
102
RTVSPost2010Prop56
140
1.0
102
RTVSPost2010PropOp56
 70
     1
102
RTVSPost2010Prop57
140
1.0
102
RTVSPost2010PropOp57
 70
     1
  0
XRECORD
  5
616
102
{ACAD_REACTORS
330
615
102
}
330
615
100
AcDbXrecord
280
     1
102
RTVSPropertyOp0
 70
     0
102
RTVSPropertyOp1
 70
     0
102
RTVSPropertyOp2
 70
     0
102
RTVSPropertyOp3
 70
     0
102
RTVSPropertyOp4
 70
     0
102
RTVSPropertyOp5
 70
     0
102
RTVSPropertyOp6
 70
     0
102
RTVSPropertyOp7
 70
     0
102
RTVSPropertyOp8
 70
     0
102
RTVSPropertyOp9
 70
     0
102
RTVSPropertyOp10
 70
     0
102
RTVSPropertyOp11
 70
     0
102
RTVSPropertyOp12
 70
     0
102
RTVSPropertyOp13
 70
     0
102
RTVSPropertyOp14
 70
     2
102
RTVSPropertyOp15
 70
     0
102
RTVSPropertyOp16
 70
     0
102
RTVSPropertyOp17
 70
     0
102
RTVSPropertyOp18
 70
     0
102
RTVSPropertyOp19
 70
     0
102
RTVSPropertyOp20
 70
     0
102
RTVSPropertyOp21
 70
     0
102
RTVSPropertyOp22
 70
     0
102
RTVSPropertyOp23
 70
     0
102
RTVSPropertyOp24
 70
     0
102
RTVSPropertyOp25
 70
     0
102
RTVSPropertyOp26
 70
     0
102
RTVSPropertyOp27
 70
     0
102
RTVSPropertyOp28
 70
     0
102
RTVSPropertyOp29
 70
     0
102
RTVSPropertyOp30
 70
     0
102
RTVSPropertyOp31
 70
     0
102
RTVSPropertyOp32
 70
     0
102
RTVSPropertyOp33
 70
     0
102
RTVSPropertyOp34
 70
     0
102
RTVSPropertyOp35
 70
     0
102
RTVSPropertyOp36
 70
     0
102
RTVSPropertyOp37
 70
     0
102
RTVSPropertyOp38
 70
     0
102
RTVSPropertyOp39
 70
     0
102
RTVSPropertyOp40
 70
     0
102
RTVSPropertyOp41
 70
     0
102
RTVSPropertyOp42
 70
     0
102
RTVSPropertyOp43
 70
     0
102
RTVSPropertyOp44
 70
     0
102
RTVSPropertyOp45
 70
     0
102
RTVSPropertyOp46
 70
     0
102
RTVSPropertyOp47
 70
     0
102
RTVSPropertyOp48
 70
     0
102
RTVSPropertyOp49
 70
     0
102
RTVSPropertyOp50
 70
     0
102
RTVSPropertyOp51
 70
     0
102
RTVSPropertyOp52
 70
     0
102
RTVSPropertyOp53
 70
     0
102
RTVSPropertyOp54
 70
     0
102
RTVSPropertyOp55
 70
     0
102
RTVSPropertyOp56
 70
     0
102
RTVSPropertyOp57
 70
     0
102
RTVSPost2010Prop28
280
     0
102
RTVSPost2010PropOp28
 70
     0
102
RTVSPost2010Prop29
280
     1
102
RTVSPost2010PropOp29
 70
     0
102
RTVSPost2010Prop30
280
     1
102
RTVSPost2010PropOp30
 70
     0
102
RTVSPost2010Prop31
280
     0
102
RTVSPost2010PropOp31
 70
     0
102
RTVSPost2010Prop32
280
     0
102
RTVSPost2010PropOp32
 70
     0
102
RTVSPost2010Prop33
280
     0
102
RTVSPost2010PropOp33
 70
     0
102
RTVSPost2010Prop34
280
     0
102
RTVSPost2010PropOp34
 70
     0
102
RTVSPost2010Prop35
280
     0
102
RTVSPost2010PropOp35
 70
     0
102
RTVSPost2010Prop36
280
     0
102
RTVSPost2010PropOp36
 70
     0
102
RTVSPost2010Prop37
 90
       50
102
RTVSPost2010PropOp37
 70
     0
102
RTVSPost2010Prop38
140
0.0
102
RTVSPost2010PropOp38
 70
     0
102
RTVSPost2010Prop39
140
1.0
102
RTVSPost2010PropOp39
 70
     0
102
RTVSPost2010Prop40
 90
        0
102
RTVSPost2010PropOp40
 70
     0
102
RTVSPost2010Prop41ColorIndex
 90
       18
102
RTVSPost2010Prop41ColorRGB
 90
        0
102
RTVSPost2010PropOp41
 70
     0
102
RTVSPost2010Prop42
 90
       50
102
RTVSPost2010PropOp42
 70
     0
102
RTVSPost2010Prop43
 90
        3
102
RTVSPost2010PropOp43
 70
     0
102
RTVSPost2010Prop44ColorIndex
 90
        5
102
RTVSPost2010Prop44ColorRGB
 90
      255
102
RTVSPost2010PropOp44
 70
     0
102
RTVSPost2010Prop45
280
     0
102
RTVSPost2010PropOp45
 70
     0
102
RTVSPost2010Prop46
 90
       50
102
RTVSPost2010PropOp46
 70
     0
102
RTVSPost2010Prop47
 90
       50
102
RTVSPost2010PropOp47
 70
     0
102
RTVSPost2010Prop48
 90
       50
102
RTVSPost2010PropOp48
 70
     0
102
RTVSPost2010Prop49
280
     0
102
RTVSPost2010PropOp49
 70
     0
102
RTVSPost2010Prop50
 90
       50
102
RTVSPost2010PropOp50
 70
     0
102
RTVSPost2010Prop51ColorIndex
 90
      256
102
RTVSPost2010Prop51ColorRGB
 90
-16777216
102
RTVSPost2010PropOp51
 70
     0
102
RTVSPost2010Prop52
140
1.0
102
RTVSPost2010PropOp52
 70
     0
102
RTVSPost2010Prop53
 90
        2
102
RTVSPost2010PropOp53
 70
     0
102
RTVSPost2010Prop54
  1
strokes_ogs.tif
102
RTVSPost2010PropOp54
 70
     0
102
RTVSPost2010Prop55
280
     0
102
RTVSPost2010PropOp55
 70
     0
102
RTVSPost2010Prop56
140
1.0
102
RTVSPost2010PropOp56
 70
     0
102
RTVSPost2010Prop57
140
1.0
102
RTVSPost2010PropOp57
 70
     0
  0
XRECORD
  5
618
102
{ACAD_REACTORS
330
617
102
}
330
617
100
AcDbXrecord
280
     1
102
RTVSPropertyOp0
 70
     1
102
RTVSPropertyOp1
 70
     1
102
RTVSPropertyOp2
 70
     1
102
RTVSPropertyOp3
 70
     1
102
RTVSPropertyOp4
 70
     1
102
RTVSPropertyOp5
 70
     1
102
RTVSPropertyOp6
 70
     1
102
RTVSPropertyOp7
 70
     1
102
RTVSPropertyOp8
 70
     1
102
RTVSPropertyOp9
 70
     1
102
RTVSPropertyOp10
 70
     1
102
RTVSPropertyOp11
 70
     1
102
RTVSPropertyOp12
 70
     1
102
RTVSPropertyOp13
 70
     1
102
RTVSPropertyOp14
 70
     1
102
RTVSPropertyOp15
 70
     1
102
RTVSPropertyOp16
 70
     1
102
RTVSPropertyOp17
 70
     1
102
RTVSPropertyOp18
 70
     1
102
RTVSPropertyOp19
 70
     1
102
RTVSPropertyOp20
 70
     1
102
RTVSPropertyOp21
 70
     1
102
RTVSPropertyOp22
 70
     1
102
RTVSPropertyOp23
 70
     1
102
RTVSPropertyOp24
 70
     1
102
RTVSPropertyOp25
 70
     1
102
RTVSPropertyOp26
 70
     1
102
RTVSPropertyOp27
 70
     1
102
RTVSPropertyOp28
 70
     1
102
RTVSPropertyOp29
 70
     1
102
RTVSPropertyOp30
 70
     1
102
RTVSPropertyOp31
 70
     1
102
RTVSPropertyOp32
 70
     1
102
RTVSPropertyOp33
 70
     1
102
RTVSPropertyOp34
 70
     1
102
RTVSPropertyOp35
 70
     1
102
RTVSPropertyOp36
 70
     1
102
RTVSPropertyOp37
 70
     1
102
RTVSPropertyOp38
 70
     1
102
RTVSPropertyOp39
 70
     1
102
RTVSPropertyOp40
 70
     1
102
RTVSPropertyOp41
 70
     1
102
RTVSPropertyOp42
 70
     1
102
RTVSPropertyOp43
 70
     1
102
RTVSPropertyOp44
 70
     1
102
RTVSPropertyOp45
 70
     1
102
RTVSPropertyOp46
 70
     1
102
RTVSPropertyOp47
 70
     1
102
RTVSPropertyOp48
 70
     1
102
RTVSPropertyOp49
 70
     1
102
RTVSPropertyOp50
 70
     1
102
RTVSPropertyOp51
 70
     0
102
RTVSPropertyOp52
 70
     0
102
RTVSPropertyOp53
 70
     1
102
RTVSPropertyOp54
 70
     1
102
RTVSPropertyOp55
 70
     1
102
RTVSPropertyOp56
 70
     1
102
RTVSPropertyOp57
 70
     1
102
RTVSPost2010Prop28
280
     0
102
RTVSPost2010PropOp28
 70
     1
102
RTVSPost2010Prop29
280
     1
102
RTVSPost2010PropOp29
 70
     1
102
RTVSPost2010Prop30
280
     1
102
RTVSPost2010PropOp30
 70
     1
102
RTVSPost2010Prop31
280
     0
102
RTVSPost2010PropOp31
 70
     1
102
RTVSPost2010Prop32
280
     0
102
RTVSPost2010PropOp32
 70
     1
102
RTVSPost2010Prop33
280
     0
102
RTVSPost2010PropOp33
 70
     1
102
RTVSPost2010Prop34
280
     0
102
RTVSPost2010PropOp34
 70
     1
102
RTVSPost2010Prop35
280
     0
102
RTVSPost2010PropOp35
 70
     1
102
RTVSPost2010Prop36
280
     0
102
RTVSPost2010PropOp36
 70
     1
102
RTVSPost2010Prop37
 90
       50
102
RTVSPost2010PropOp37
 70
     1
102
RTVSPost2010Prop38
140
0.0
102
RTVSPost2010PropOp38
 70
     1
102
RTVSPost2010Prop39
140
1.0
102
RTVSPost2010PropOp39
 70
     1
102
RTVSPost2010Prop40
 90
        0
102
RTVSPost2010PropOp40
 70
     1
102
RTVSPost2010Prop41ColorIndex
 90
       18
102
RTVSPost2010Prop41ColorRGB
 90
        0
102
RTVSPost2010PropOp41
 70
     1
102
RTVSPost2010Prop42
 90
       50
102
RTVSPost2010PropOp42
 70
     1
102
RTVSPost2010Prop43
 90
        3
102
RTVSPost2010PropOp43
 70
     1
102
RTVSPost2010Prop44ColorIndex
 90
        5
102
RTVSPost2010Prop44ColorRGB
 90
      255
102
RTVSPost2010PropOp44
 70
     1
102
RTVSPost2010Prop45
280
     0
102
RTVSPost2010PropOp45
 70
     1
102
RTVSPost2010Prop46
 90
       50
102
RTVSPost2010PropOp46
 70
     1
102
RTVSPost2010Prop47
 90
       50
102
RTVSPost2010PropOp47
 70
     1
102
RTVSPost2010Prop48
 90
       50
102
RTVSPost2010PropOp48
 70
     1
102
RTVSPost2010Prop49
280
     0
102
RTVSPost2010PropOp49
 70
     1
102
RTVSPost2010Prop50
 90
       50
102
RTVSPost2010PropOp50
 70
     1
102
RTVSPost2010Prop51ColorIndex
 90
      256
102
RTVSPost2010Prop51ColorRGB
 90
-16777216
102
RTVSPost2010PropOp51
 70
     0
102
RTVSPost2010Prop52
140
1.0
102
RTVSPost2010PropOp52
 70
     0
102
RTVSPost2010Prop53
 90
        2
102
RTVSPost2010PropOp53
 70
     1
102
RTVSPost2010Prop54
  1
strokes_ogs.tif
102
RTVSPost2010PropOp54
 70
     1
102
RTVSPost2010Prop55
280
     0
102
RTVSPost2010PropOp55
 70
     1
102
RTVSPost2010Prop56
140
1.0
102
RTVSPost2010PropOp56
 70
     1
102
RTVSPost2010Prop57
140
1.0
102
RTVSPost2010PropOp57
 70
     1
  0
XRECORD
  5
61A
102
{ACAD_REACTORS
330
619
102
}
330
619
100
AcDbXrecord
280
     1
102
RTVSPropertyOp0
 70
     1
102
RTVSPropertyOp1
 70
     1
102
RTVSPropertyOp2
 70
     1
102
RTVSPropertyOp3
 70
     1
102
RTVSPropertyOp4
 70
     1
102
RTVSPropertyOp5
 70
     1
102
RTVSPropertyOp6
 70
     1
102
RTVSPropertyOp7
 70
     1
102
RTVSPropertyOp8
 70
     1
102
RTVSPropertyOp9
 70
     1
102
RTVSPropertyOp10
 70
     1
102
RTVSPropertyOp11
 70
     1
102
RTVSPropertyOp12
 70
     1
102
RTVSPropertyOp13
 70
     1
102
RTVSPropertyOp14
 70
     1
102
RTVSPropertyOp15
 70
     1
102
RTVSPropertyOp16
 70
     1
102
RTVSPropertyOp17
 70
     1
102
RTVSPropertyOp18
 70
     1
102
RTVSPropertyOp19
 70
     1
102
RTVSPropertyOp20
 70
     1
102
RTVSPropertyOp21
 70
     1
102
RTVSPropertyOp22
 70
     1
102
RTVSPropertyOp23
 70
     1
102
RTVSPropertyOp24
 70
     1
102
RTVSPropertyOp25
 70
     1
102
RTVSPropertyOp26
 70
     1
102
RTVSPropertyOp27
 70
     1
102
RTVSPropertyOp28
 70
     1
102
RTVSPropertyOp29
 70
     1
102
RTVSPropertyOp30
 70
     1
102
RTVSPropertyOp31
 70
     1
102
RTVSPropertyOp32
 70
     1
102
RTVSPropertyOp33
 70
     1
102
RTVSPropertyOp34
 70
     1
102
RTVSPropertyOp35
 70
     1
102
RTVSPropertyOp36
 70
     1
102
RTVSPropertyOp37
 70
     1
102
RTVSPropertyOp38
 70
     1
102
RTVSPropertyOp39
 70
     1
102
RTVSPropertyOp40
 70
     1
102
RTVSPropertyOp41
 70
     1
102
RTVSPropertyOp42
 70
     1
102
RTVSPropertyOp43
 70
     1
102
RTVSPropertyOp44
 70
     1
102
RTVSPropertyOp45
 70
     1
102
RTVSPropertyOp46
 70
     1
102
RTVSPropertyOp47
 70
     1
102
RTVSPropertyOp48
 70
     1
102
RTVSPropertyOp49
 70
     1
102
RTVSPropertyOp50
 70
     1
102
RTVSPropertyOp51
 70
     0
102
RTVSPropertyOp52
 70
     0
102
RTVSPropertyOp53
 70
     1
102
RTVSPropertyOp54
 70
     1
102
RTVSPropertyOp55
 70
     1
102
RTVSPropertyOp56
 70
     1
102
RTVSPropertyOp57
 70
     1
102
RTVSPost2010Prop28
280
     0
102
RTVSPost2010PropOp28
 70
     1
102
RTVSPost2010Prop29
280
     1
102
RTVSPost2010PropOp29
 70
     1
102
RTVSPost2010Prop30
280
     1
102
RTVSPost2010PropOp30
 70
     1
102
RTVSPost2010Prop31
280
     0
102
RTVSPost2010PropOp31
 70
     1
102
RTVSPost2010Prop32
280
     0
102
RTVSPost2010PropOp32
 70
     1
102
RTVSPost2010Prop33
280
     0
102
RTVSPost2010PropOp33
 70
     1
102
RTVSPost2010Prop34
280
     0
102
RTVSPost2010PropOp34
 70
     1
102
RTVSPost2010Prop35
280
     0
102
RTVSPost2010PropOp35
 70
     1
102
RTVSPost2010Prop36
280
     0
102
RTVSPost2010PropOp36
 70
     1
102
RTVSPost2010Prop37
 90
       50
102
RTVSPost2010PropOp37
 70
     1
102
RTVSPost2010Prop38
140
0.0
102
RTVSPost2010PropOp38
 70
     1
102
RTVSPost2010Prop39
140
1.0
102
RTVSPost2010PropOp39
 70
     1
102
RTVSPost2010Prop40
 90
        0
102
RTVSPost2010PropOp40
 70
     1
102
RTVSPost2010Prop41ColorIndex
 90
       18
102
RTVSPost2010Prop41ColorRGB
 90
        0
102
RTVSPost2010PropOp41
 70
     1
102
RTVSPost2010Prop42
 90
       50
102
RTVSPost2010PropOp42
 70
     1
102
RTVSPost2010Prop43
 90
        3
102
RTVSPost2010PropOp43
 70
     1
102
RTVSPost2010Prop44ColorIndex
 90
        5
102
RTVSPost2010Prop44ColorRGB
 90
      255
102
RTVSPost2010PropOp44
 70
     1
102
RTVSPost2010Prop45
280
     0
102
RTVSPost2010PropOp45
 70
     1
102
RTVSPost2010Prop46
 90
       50
102
RTVSPost2010PropOp46
 70
     1
102
RTVSPost2010Prop47
 90
       50
102
RTVSPost2010PropOp47
 70
     1
102
RTVSPost2010Prop48
 90
       50
102
RTVSPost2010PropOp48
 70
     1
102
RTVSPost2010Prop49
280
     0
102
RTVSPost2010PropOp49
 70
     1
102
RTVSPost2010Prop50
 90
       50
102
RTVSPost2010PropOp50
 70
     1
102
RTVSPost2010Prop51ColorIndex
 90
      256
102
RTVSPost2010Prop51ColorRGB
 90
-16777216
102
RTVSPost2010PropOp51
 70
     0
102
RTVSPost2010Prop52
140
1.0
102
RTVSPost2010PropOp52
 70
     0
102
RTVSPost2010Prop53
 90
        2
102
RTVSPost2010PropOp53
 70
     1
102
RTVSPost2010Prop54
  1
strokes_ogs.tif
102
RTVSPost2010PropOp54
 70
     1
102
RTVSPost2010Prop55
280
     0
102
RTVSPost2010PropOp55
 70
     1
102
RTVSPost2010Prop56
140
1.0
102
RTVSPost2010PropOp56
 70
     1
102
RTVSPost2010Prop57
140
1.0
102
RTVSPost2010PropOp57
 70
     1
  0
XRECORD
  5
61C
102
{ACAD_REACTORS
330
61B
102
}
330
61B
100
AcDbXrecord
280
     1
102
RTVSPropertyOp0
 70
     1
102
RTVSPropertyOp1
 70
     1
102
RTVSPropertyOp2
 70
     1
102
RTVSPropertyOp3
 70
     1
102
RTVSPropertyOp4
 70
     1
102
RTVSPropertyOp5
 70
     1
102
RTVSPropertyOp6
 70
     1
102
RTVSPropertyOp7
 70
     1
102
RTVSPropertyOp8
 70
     1
102
RTVSPropertyOp9
 70
     1
102
RTVSPropertyOp10
 70
     1
102
RTVSPropertyOp11
 70
     1
102
RTVSPropertyOp12
 70
     1
102
RTVSPropertyOp13
 70
     1
102
RTVSPropertyOp14
 70
     1
102
RTVSPropertyOp15
 70
     1
102
RTVSPropertyOp16
 70
     1
102
RTVSPropertyOp17
 70
     1
102
RTVSPropertyOp18
 70
     1
102
RTVSPropertyOp19
 70
     1
102
RTVSPropertyOp20
 70
     1
102
RTVSPropertyOp21
 70
     1
102
RTVSPropertyOp22
 70
     1
102
RTVSPropertyOp23
 70
     1
102
RTVSPropertyOp24
 70
     1
102
RTVSPropertyOp25
 70
     1
102
RTVSPropertyOp26
 70
     1
102
RTVSPropertyOp27
 70
     1
102
RTVSPropertyOp28
 70
     1
102
RTVSPropertyOp29
 70
     1
102
RTVSPropertyOp30
 70
     1
102
RTVSPropertyOp31
 70
     1
102
RTVSPropertyOp32
 70
     1
102
RTVSPropertyOp33
 70
     1
102
RTVSPropertyOp34
 70
     1
102
RTVSPropertyOp35
 70
     1
102
RTVSPropertyOp36
 70
     1
102
RTVSPropertyOp37
 70
     1
102
RTVSPropertyOp38
 70
     1
102
RTVSPropertyOp39
 70
     1
102
RTVSPropertyOp40
 70
     1
102
RTVSPropertyOp41
 70
     1
102
RTVSPropertyOp42
 70
     1
102
RTVSPropertyOp43
 70
     1
102
RTVSPropertyOp44
 70
     1
102
RTVSPropertyOp45
 70
     1
102
RTVSPropertyOp46
 70
     1
102
RTVSPropertyOp47
 70
     1
102
RTVSPropertyOp48
 70
     1
102
RTVSPropertyOp49
 70
     1
102
RTVSPropertyOp50
 70
     1
102
RTVSPropertyOp51
 70
     0
102
RTVSPropertyOp52
 70
     0
102
RTVSPropertyOp53
 70
     1
102
RTVSPropertyOp54
 70
     1
102
RTVSPropertyOp55
 70
     1
102
RTVSPropertyOp56
 70
     1
102
RTVSPropertyOp57
 70
     1
102
RTVSPost2010Prop28
280
     0
102
RTVSPost2010PropOp28
 70
     1
102
RTVSPost2010Prop29
280
     1
102
RTVSPost2010PropOp29
 70
     1
102
RTVSPost2010Prop30
280
     1
102
RTVSPost2010PropOp30
 70
     1
102
RTVSPost2010Prop31
280
     0
102
RTVSPost2010PropOp31
 70
     1
102
RTVSPost2010Prop32
280
     0
102
RTVSPost2010PropOp32
 70
     1
102
RTVSPost2010Prop33
280
     0
102
RTVSPost2010PropOp33
 70
     1
102
RTVSPost2010Prop34
280
     0
102
RTVSPost2010PropOp34
 70
     1
102
RTVSPost2010Prop35
280
     0
102
RTVSPost2010PropOp35
 70
     1
102
RTVSPost2010Prop36
280
     0
102
RTVSPost2010PropOp36
 70
     1
102
RTVSPost2010Prop37
 90
       50
102
RTVSPost2010PropOp37
 70
     1
102
RTVSPost2010Prop38
140
0.0
102
RTVSPost2010PropOp38
 70
     1
102
RTVSPost2010Prop39
140
1.0
102
RTVSPost2010PropOp39
 70
     1
102
RTVSPost2010Prop40
 90
        0
102
RTVSPost2010PropOp40
 70
     1
102
RTVSPost2010Prop41ColorIndex
 90
       18
102
RTVSPost2010Prop41ColorRGB
 90
        0
102
RTVSPost2010PropOp41
 70
     1
102
RTVSPost2010Prop42
 90
       50
102
RTVSPost2010PropOp42
 70
     1
102
RTVSPost2010Prop43
 90
        3
102
RTVSPost2010PropOp43
 70
     1
102
RTVSPost2010Prop44ColorIndex
 90
        5
102
RTVSPost2010Prop44ColorRGB
 90
      255
102
RTVSPost2010PropOp44
 70
     1
102
RTVSPost2010Prop45
280
     0
102
RTVSPost2010PropOp45
 70
     1
102
RTVSPost2010Prop46
 90
       50
102
RTVSPost2010PropOp46
 70
     1
102
RTVSPost2010Prop47
 90
       50
102
RTVSPost2010PropOp47
 70
     1
102
RTVSPost2010Prop48
 90
       50
102
RTVSPost2010PropOp48
 70
     1
102
RTVSPost2010Prop49
280
     0
102
RTVSPost2010PropOp49
 70
     1
102
RTVSPost2010Prop50
 90
       50
102
RTVSPost2010PropOp50
 70
     1
102
RTVSPost2010Prop51ColorIndex
 90
      256
102
RTVSPost2010Prop51ColorRGB
 90
-16777216
102
RTVSPost2010PropOp51
 70
     0
102
RTVSPost2010Prop52
140
1.0
102
RTVSPost2010PropOp52
 70
     0
102
RTVSPost2010Prop53
 90
        2
102
RTVSPost2010PropOp53
 70
     1
102
RTVSPost2010Prop54
  1
strokes_ogs.tif
102
RTVSPost2010PropOp54
 70
     1
102
RTVSPost2010Prop55
280
     0
102
RTVSPost2010PropOp55
 70
     1
102
RTVSPost2010Prop56
140
1.0
102
RTVSPost2010PropOp56
 70
     1
102
RTVSPost2010Prop57
140
1.0
102
RTVSPost2010PropOp57
 70
     1
  0
XRECORD
  5
61E
102
{ACAD_REACTORS
330
61D
102
}
330
61D
100
AcDbXrecord
280
     1
102
RTVSPropertyOp0
 70
     1
102
RTVSPropertyOp1
 70
     1
102
RTVSPropertyOp2
 70
     1
102
RTVSPropertyOp3
 70
     1
102
RTVSPropertyOp4
 70
     1
102
RTVSPropertyOp5
 70
     1
102
RTVSPropertyOp6
 70
     1
102
RTVSPropertyOp7
 70
     1
102
RTVSPropertyOp8
 70
     1
102
RTVSPropertyOp9
 70
     1
102
RTVSPropertyOp10
 70
     1
102
RTVSPropertyOp11
 70
     1
102
RTVSPropertyOp12
 70
     1
102
RTVSPropertyOp13
 70
     1
102
RTVSPropertyOp14
 70
     1
102
RTVSPropertyOp15
 70
     1
102
RTVSPropertyOp16
 70
     1
102
RTVSPropertyOp17
 70
     1
102
RTVSPropertyOp18
 70
     1
102
RTVSPropertyOp19
 70
     1
102
RTVSPropertyOp20
 70
     1
102
RTVSPropertyOp21
 70
     1
102
RTVSPropertyOp22
 70
     1
102
RTVSPropertyOp23
 70
     1
102
RTVSPropertyOp24
 70
     1
102
RTVSPropertyOp25
 70
     1
102
RTVSPropertyOp26
 70
     1
102
RTVSPropertyOp27
 70
     1
102
RTVSPropertyOp28
 70
     1
102
RTVSPropertyOp29
 70
     1
102
RTVSPropertyOp30
 70
     1
102
RTVSPropertyOp31
 70
     1
102
RTVSPropertyOp32
 70
     1
102
RTVSPropertyOp33
 70
     1
102
RTVSPropertyOp34
 70
     1
102
RTVSPropertyOp35
 70
     1
102
RTVSPropertyOp36
 70
     1
102
RTVSPropertyOp37
 70
     1
102
RTVSPropertyOp38
 70
     1
102
RTVSPropertyOp39
 70
     1
102
RTVSPropertyOp40
 70
     1
102
RTVSPropertyOp41
 70
     1
102
RTVSPropertyOp42
 70
     1
102
RTVSPropertyOp43
 70
     1
102
RTVSPropertyOp44
 70
     1
102
RTVSPropertyOp45
 70
     1
102
RTVSPropertyOp46
 70
     1
102
RTVSPropertyOp47
 70
     1
102
RTVSPropertyOp48
 70
     1
102
RTVSPropertyOp49
 70
     1
102
RTVSPropertyOp50
 70
     1
102
RTVSPropertyOp51
 70
     0
102
RTVSPropertyOp52
 70
     0
102
RTVSPropertyOp53
 70
     1
102
RTVSPropertyOp54
 70
     1
102
RTVSPropertyOp55
 70
     1
102
RTVSPropertyOp56
 70
     1
102
RTVSPropertyOp57
 70
     1
102
RTVSPost2010Prop28
280
     0
102
RTVSPost2010PropOp28
 70
     1
102
RTVSPost2010Prop29
280
     1
102
RTVSPost2010PropOp29
 70
     1
102
RTVSPost2010Prop30
280
     1
102
RTVSPost2010PropOp30
 70
     1
102
RTVSPost2010Prop31
280
     0
102
RTVSPost2010PropOp31
 70
     1
102
RTVSPost2010Prop32
280
     0
102
RTVSPost2010PropOp32
 70
     1
102
RTVSPost2010Prop33
280
     0
102
RTVSPost2010PropOp33
 70
     1
102
RTVSPost2010Prop34
280
     0
102
RTVSPost2010PropOp34
 70
     1
102
RTVSPost2010Prop35
280
     0
102
RTVSPost2010PropOp35
 70
     1
102
RTVSPost2010Prop36
280
     0
102
RTVSPost2010PropOp36
 70
     1
102
RTVSPost2010Prop37
 90
       50
102
RTVSPost2010PropOp37
 70
     1
102
RTVSPost2010Prop38
140
0.0
102
RTVSPost2010PropOp38
 70
     1
102
RTVSPost2010Prop39
140
1.0
102
RTVSPost2010PropOp39
 70
     1
102
RTVSPost2010Prop40
 90
        0
102
RTVSPost2010PropOp40
 70
     1
102
RTVSPost2010Prop41ColorIndex
 90
       18
102
RTVSPost2010Prop41ColorRGB
 90
        0
102
RTVSPost2010PropOp41
 70
     1
102
RTVSPost2010Prop42
 90
       50
102
RTVSPost2010PropOp42
 70
     1
102
RTVSPost2010Prop43
 90
        3
102
RTVSPost2010PropOp43
 70
     1
102
RTVSPost2010Prop44ColorIndex
 90
        5
102
RTVSPost2010Prop44ColorRGB
 90
      255
102
RTVSPost2010PropOp44
 70
     1
102
RTVSPost2010Prop45
280
     0
102
RTVSPost2010PropOp45
 70
     1
102
RTVSPost2010Prop46
 90
       50
102
RTVSPost2010PropOp46
 70
     1
102
RTVSPost2010Prop47
 90
       50
102
RTVSPost2010PropOp47
 70
     1
102
RTVSPost2010Prop48
 90
       50
102
RTVSPost2010PropOp48
 70
     1
102
RTVSPost2010Prop49
280
     0
102
RTVSPost2010PropOp49
 70
     1
102
RTVSPost2010Prop50
 90
       50
102
RTVSPost2010PropOp50
 70
     1
102
RTVSPost2010Prop51ColorIndex
 90
      256
102
RTVSPost2010Prop51ColorRGB
 90
-16777216
102
RTVSPost2010PropOp51
 70
     0
102
RTVSPost2010Prop52
140
1.0
102
RTVSPost2010PropOp52
 70
     0
102
RTVSPost2010Prop53
 90
        2
102
RTVSPost2010PropOp53
 70
     1
102
RTVSPost2010Prop54
  1
strokes_ogs.tif
102
RTVSPost2010PropOp54
 70
     1
102
RTVSPost2010Prop55
280
     0
102
RTVSPost2010PropOp55
 70
     1
102
RTVSPost2010Prop56
140
1.0
102
RTVSPost2010PropOp56
 70
     1
102
RTVSPost2010Prop57
140
1.0
102
RTVSPost2010PropOp57
 70
     1
  0
XRECORD
  5
620
102
{ACAD_REACTORS
330
61F
102
}
330
61F
100
AcDbXrecord
280
     1
102
RTVSPropertyOp0
 70
     1
102
RTVSPropertyOp1
 70
     1
102
RTVSPropertyOp2
 70
     1
102
RTVSPropertyOp3
 70
     1
102
RTVSPropertyOp4
 70
     1
102
RTVSPropertyOp5
 70
     1
102
RTVSPropertyOp6
 70
     1
102
RTVSPropertyOp7
 70
     1
102
RTVSPropertyOp8
 70
     1
102
RTVSPropertyOp9
 70
     1
102
RTVSPropertyOp10
 70
     1
102
RTVSPropertyOp11
 70
     1
102
RTVSPropertyOp12
 70
     1
102
RTVSPropertyOp13
 70
     1
102
RTVSPropertyOp14
 70
     1
102
RTVSPropertyOp15
 70
     1
102
RTVSPropertyOp16
 70
     1
102
RTVSPropertyOp17
 70
     1
102
RTVSPropertyOp18
 70
     1
102
RTVSPropertyOp19
 70
     1
102
RTVSPropertyOp20
 70
     1
102
RTVSPropertyOp21
 70
     1
102
RTVSPropertyOp22
 70
     1
102
RTVSPropertyOp23
 70
     1
102
RTVSPropertyOp24
 70
     1
102
RTVSPropertyOp25
 70
     1
102
RTVSPropertyOp26
 70
     1
102
RTVSPropertyOp27
 70
     1
102
RTVSPropertyOp28
 70
     1
102
RTVSPropertyOp29
 70
     1
102
RTVSPropertyOp30
 70
     1
102
RTVSPropertyOp31
 70
     1
102
RTVSPropertyOp32
 70
     1
102
RTVSPropertyOp33
 70
     1
102
RTVSPropertyOp34
 70
     1
102
RTVSPropertyOp35
 70
     1
102
RTVSPropertyOp36
 70
     1
102
RTVSPropertyOp37
 70
     1
102
RTVSPropertyOp38
 70
     1
102
RTVSPropertyOp39
 70
     1
102
RTVSPropertyOp40
 70
     1
102
RTVSPropertyOp41
 70
     1
102
RTVSPropertyOp42
 70
     1
102
RTVSPropertyOp43
 70
     1
102
RTVSPropertyOp44
 70
     1
102
RTVSPropertyOp45
 70
     1
102
RTVSPropertyOp46
 70
     1
102
RTVSPropertyOp47
 70
     1
102
RTVSPropertyOp48
 70
     1
102
RTVSPropertyOp49
 70
     1
102
RTVSPropertyOp50
 70
     1
102
RTVSPropertyOp51
 70
     0
102
RTVSPropertyOp52
 70
     0
102
RTVSPropertyOp53
 70
     1
102
RTVSPropertyOp54
 70
     1
102
RTVSPropertyOp55
 70
     1
102
RTVSPropertyOp56
 70
     1
102
RTVSPropertyOp57
 70
     1
102
RTVSPost2010Prop28
280
     0
102
RTVSPost2010PropOp28
 70
     1
102
RTVSPost2010Prop29
280
     1
102
RTVSPost2010PropOp29
 70
     1
102
RTVSPost2010Prop30
280
     1
102
RTVSPost2010PropOp30
 70
     1
102
RTVSPost2010Prop31
280
     0
102
RTVSPost2010PropOp31
 70
     1
102
RTVSPost2010Prop32
280
     0
102
RTVSPost2010PropOp32
 70
     1
102
RTVSPost2010Prop33
280
     0
102
RTVSPost2010PropOp33
 70
     1
102
RTVSPost2010Prop34
280
     0
102
RTVSPost2010PropOp34
 70
     1
102
RTVSPost2010Prop35
280
     0
102
RTVSPost2010PropOp35
 70
     1
102
RTVSPost2010Prop36
280
     0
102
RTVSPost2010PropOp36
 70
     1
102
RTVSPost2010Prop37
 90
       50
102
RTVSPost2010PropOp37
 70
     1
102
RTVSPost2010Prop38
140
0.0
102
RTVSPost2010PropOp38
 70
     1
102
RTVSPost2010Prop39
140
1.0
102
RTVSPost2010PropOp39
 70
     1
102
RTVSPost2010Prop40
 90
        0
102
RTVSPost2010PropOp40
 70
     1
102
RTVSPost2010Prop41ColorIndex
 90
       18
102
RTVSPost2010Prop41ColorRGB
 90
        0
102
RTVSPost2010PropOp41
 70
     1
102
RTVSPost2010Prop42
 90
       50
102
RTVSPost2010PropOp42
 70
     1
102
RTVSPost2010Prop43
 90
        3
102
RTVSPost2010PropOp43
 70
     1
102
RTVSPost2010Prop44ColorIndex
 90
        5
102
RTVSPost2010Prop44ColorRGB
 90
      255
102
RTVSPost2010PropOp44
 70
     1
102
RTVSPost2010Prop45
280
     0
102
RTVSPost2010PropOp45
 70
     1
102
RTVSPost2010Prop46
 90
       50
102
RTVSPost2010PropOp46
 70
     1
102
RTVSPost2010Prop47
 90
       50
102
RTVSPost2010PropOp47
 70
     1
102
RTVSPost2010Prop48
 90
       50
102
RTVSPost2010PropOp48
 70
     1
102
RTVSPost2010Prop49
280
     0
102
RTVSPost2010PropOp49
 70
     1
102
RTVSPost2010Prop50
 90
       50
102
RTVSPost2010PropOp50
 70
     1
102
RTVSPost2010Prop51ColorIndex
 90
      256
102
RTVSPost2010Prop51ColorRGB
 90
-16777216
102
RTVSPost2010PropOp51
 70
     0
102
RTVSPost2010Prop52
140
1.0
102
RTVSPost2010PropOp52
 70
     0
102
RTVSPost2010Prop53
 90
        2
102
RTVSPost2010PropOp53
 70
     1
102
RTVSPost2010Prop54
  1
strokes_ogs.tif
102
RTVSPost2010PropOp54
 70
     1
102
RTVSPost2010Prop55
280
     0
102
RTVSPost2010PropOp55
 70
     1
102
RTVSPost2010Prop56
140
1.0
102
RTVSPost2010PropOp56
 70
     1
102
RTVSPost2010Prop57
140
1.0
102
RTVSPost2010PropOp57
 70
     1
  0
XRECORD
  5
622
102
{ACAD_REACTORS
330
621
102
}
330
621
100
AcDbXrecord
280
     1
102
RTVSPropertyOp0
 70
     1
102
RTVSPropertyOp1
 70
     1
102
RTVSPropertyOp2
 70
     1
102
RTVSPropertyOp3
 70
     1
102
RTVSPropertyOp4
 70
     1
102
RTVSPropertyOp5
 70
     1
102
RTVSPropertyOp6
 70
     1
102
RTVSPropertyOp7
 70
     1
102
RTVSPropertyOp8
 70
     1
102
RTVSPropertyOp9
 70
     1
102
RTVSPropertyOp10
 70
     1
102
RTVSPropertyOp11
 70
     1
102
RTVSPropertyOp12
 70
     1
102
RTVSPropertyOp13
 70
     1
102
RTVSPropertyOp14
 70
     1
102
RTVSPropertyOp15
 70
     1
102
RTVSPropertyOp16
 70
     1
102
RTVSPropertyOp17
 70
     1
102
RTVSPropertyOp18
 70
     1
102
RTVSPropertyOp19
 70
     1
102
RTVSPropertyOp20
 70
     1
102
RTVSPropertyOp21
 70
     1
102
RTVSPropertyOp22
 70
     1
102
RTVSPropertyOp23
 70
     1
102
RTVSPropertyOp24
 70
     1
102
RTVSPropertyOp25
 70
     1
102
RTVSPropertyOp26
 70
     1
102
RTVSPropertyOp27
 70
     1
102
RTVSPropertyOp28
 70
     1
102
RTVSPropertyOp29
 70
     1
102
RTVSPropertyOp30
 70
     1
102
RTVSPropertyOp31
 70
     1
102
RTVSPropertyOp32
 70
     1
102
RTVSPropertyOp33
 70
     1
102
RTVSPropertyOp34
 70
     1
102
RTVSPropertyOp35
 70
     1
102
RTVSPropertyOp36
 70
     1
102
RTVSPropertyOp37
 70
     1
102
RTVSPropertyOp38
 70
     1
102
RTVSPropertyOp39
 70
     1
102
RTVSPropertyOp40
 70
     1
102
RTVSPropertyOp41
 70
     1
102
RTVSPropertyOp42
 70
     1
102
RTVSPropertyOp43
 70
     1
102
RTVSPropertyOp44
 70
     1
102
RTVSPropertyOp45
 70
     1
102
RTVSPropertyOp46
 70
     1
102
RTVSPropertyOp47
 70
     1
102
RTVSPropertyOp48
 70
     1
102
RTVSPropertyOp49
 70
     1
102
RTVSPropertyOp50
 70
     1
102
RTVSPropertyOp51
 70
     0
102
RTVSPropertyOp52
 70
     0
102
RTVSPropertyOp53
 70
     1
102
RTVSPropertyOp54
 70
     1
102
RTVSPropertyOp55
 70
     1
102
RTVSPropertyOp56
 70
     1
102
RTVSPropertyOp57
 70
     1
102
RTVSPost2010Prop28
280
     0
102
RTVSPost2010PropOp28
 70
     1
102
RTVSPost2010Prop29
280
     1
102
RTVSPost2010PropOp29
 70
     1
102
RTVSPost2010Prop30
280
     1
102
RTVSPost2010PropOp30
 70
     1
102
RTVSPost2010Prop31
280
     0
102
RTVSPost2010PropOp31
 70
     1
102
RTVSPost2010Prop32
280
     0
102
RTVSPost2010PropOp32
 70
     1
102
RTVSPost2010Prop33
280
     0
102
RTVSPost2010PropOp33
 70
     1
102
RTVSPost2010Prop34
280
     0
102
RTVSPost2010PropOp34
 70
     1
102
RTVSPost2010Prop35
280
     0
102
RTVSPost2010PropOp35
 70
     1
102
RTVSPost2010Prop36
280
     0
102
RTVSPost2010PropOp36
 70
     1
102
RTVSPost2010Prop37
 90
       50
102
RTVSPost2010PropOp37
 70
     1
102
RTVSPost2010Prop38
140
0.0
102
RTVSPost2010PropOp38
 70
     1
102
RTVSPost2010Prop39
140
1.0
102
RTVSPost2010PropOp39
 70
     1
102
RTVSPost2010Prop40
 90
        0
102
RTVSPost2010PropOp40
 70
     1
102
RTVSPost2010Prop41ColorIndex
 90
       18
102
RTVSPost2010Prop41ColorRGB
 90
        0
102
RTVSPost2010PropOp41
 70
     1
102
RTVSPost2010Prop42
 90
       50
102
RTVSPost2010PropOp42
 70
     1
102
RTVSPost2010Prop43
 90
        3
102
RTVSPost2010PropOp43
 70
     1
102
RTVSPost2010Prop44ColorIndex
 90
        5
102
RTVSPost2010Prop44ColorRGB
 90
      255
102
RTVSPost2010PropOp44
 70
     1
102
RTVSPost2010Prop45
280
     0
102
RTVSPost2010PropOp45
 70
     1
102
RTVSPost2010Prop46
 90
       50
102
RTVSPost2010PropOp46
 70
     1
102
RTVSPost2010Prop47
 90
       50
102
RTVSPost2010PropOp47
 70
     1
102
RTVSPost2010Prop48
 90
       50
102
RTVSPost2010PropOp48
 70
     1
102
RTVSPost2010Prop49
280
     0
102
RTVSPost2010PropOp49
 70
     1
102
RTVSPost2010Prop50
 90
       50
102
RTVSPost2010PropOp50
 70
     1
102
RTVSPost2010Prop51ColorIndex
 90
      256
102
RTVSPost2010Prop51ColorRGB
 90
-16777216
102
RTVSPost2010PropOp51
 70
     0
102
RTVSPost2010Prop52
140
1.0
102
RTVSPost2010PropOp52
 70
     0
102
RTVSPost2010Prop53
 90
        2
102
RTVSPost2010PropOp53
 70
     1
102
RTVSPost2010Prop54
  1
strokes_ogs.tif
102
RTVSPost2010PropOp54
 70
     1
102
RTVSPost2010Prop55
280
     0
102
RTVSPost2010PropOp55
 70
     1
102
RTVSPost2010Prop56
140
1.0
102
RTVSPost2010PropOp56
 70
     1
102
RTVSPost2010Prop57
140
1.0
102
RTVSPost2010PropOp57
 70
     1
  0
XRECORD
  5
624
102
{ACAD_REACTORS
330
623
102
}
330
623
100
AcDbXrecord
280
     1
102
RTVSPropertyOp0
 70
     1
102
RTVSPropertyOp1
 70
     1
102
RTVSPropertyOp2
 70
     1
102
RTVSPropertyOp3
 70
     1
102
RTVSPropertyOp4
 70
     1
102
RTVSPropertyOp5
 70
     1
102
RTVSPropertyOp6
 70
     1
102
RTVSPropertyOp7
 70
     1
102
RTVSPropertyOp8
 70
     1
102
RTVSPropertyOp9
 70
     1
102
RTVSPropertyOp10
 70
     1
102
RTVSPropertyOp11
 70
     1
102
RTVSPropertyOp12
 70
     1
102
RTVSPropertyOp13
 70
     1
102
RTVSPropertyOp14
 70
     1
102
RTVSPropertyOp15
 70
     1
102
RTVSPropertyOp16
 70
     1
102
RTVSPropertyOp17
 70
     1
102
RTVSPropertyOp18
 70
     1
102
RTVSPropertyOp19
 70
     1
102
RTVSPropertyOp20
 70
     1
102
RTVSPropertyOp21
 70
     1
102
RTVSPropertyOp22
 70
     1
102
RTVSPropertyOp23
 70
     1
102
RTVSPropertyOp24
 70
     1
102
RTVSPropertyOp25
 70
     1
102
RTVSPropertyOp26
 70
     1
102
RTVSPropertyOp27
 70
     1
102
RTVSPropertyOp28
 70
     1
102
RTVSPropertyOp29
 70
     1
102
RTVSPropertyOp30
 70
     1
102
RTVSPropertyOp31
 70
     1
102
RTVSPropertyOp32
 70
     1
102
RTVSPropertyOp33
 70
     1
102
RTVSPropertyOp34
 70
     1
102
RTVSPropertyOp35
 70
     1
102
RTVSPropertyOp36
 70
     1
102
RTVSPropertyOp37
 70
     1
102
RTVSPropertyOp38
 70
     1
102
RTVSPropertyOp39
 70
     1
102
RTVSPropertyOp40
 70
     1
102
RTVSPropertyOp41
 70
     1
102
RTVSPropertyOp42
 70
     1
102
RTVSPropertyOp43
 70
     1
102
RTVSPropertyOp44
 70
     1
102
RTVSPropertyOp45
 70
     1
102
RTVSPropertyOp46
 70
     1
102
RTVSPropertyOp47
 70
     1
102
RTVSPropertyOp48
 70
     1
102
RTVSPropertyOp49
 70
     1
102
RTVSPropertyOp50
 70
     1
102
RTVSPropertyOp51
 70
     0
102
RTVSPropertyOp52
 70
     0
102
RTVSPropertyOp53
 70
     1
102
RTVSPropertyOp54
 70
     1
102
RTVSPropertyOp55
 70
     1
102
RTVSPropertyOp56
 70
     1
102
RTVSPropertyOp57
 70
     1
102
RTVSPost2010Prop28
280
     0
102
RTVSPost2010PropOp28
 70
     1
102
RTVSPost2010Prop29
280
     1
102
RTVSPost2010PropOp29
 70
     1
102
RTVSPost2010Prop30
280
     1
102
RTVSPost2010PropOp30
 70
     1
102
RTVSPost2010Prop31
280
     0
102
RTVSPost2010PropOp31
 70
     1
102
RTVSPost2010Prop32
280
     0
102
RTVSPost2010PropOp32
 70
     1
102
RTVSPost2010Prop33
280
     0
102
RTVSPost2010PropOp33
 70
     1
102
RTVSPost2010Prop34
280
     0
102
RTVSPost2010PropOp34
 70
     1
102
RTVSPost2010Prop35
280
     0
102
RTVSPost2010PropOp35
 70
     1
102
RTVSPost2010Prop36
280
     0
102
RTVSPost2010PropOp36
 70
     1
102
RTVSPost2010Prop37
 90
       50
102
RTVSPost2010PropOp37
 70
     1
102
RTVSPost2010Prop38
140
0.0
102
RTVSPost2010PropOp38
 70
     1
102
RTVSPost2010Prop39
140
1.0
102
RTVSPost2010PropOp39
 70
     1
102
RTVSPost2010Prop40
 90
        0
102
RTVSPost2010PropOp40
 70
     1
102
RTVSPost2010Prop41ColorIndex
 90
       18
102
RTVSPost2010Prop41ColorRGB
 90
        0
102
RTVSPost2010PropOp41
 70
     1
102
RTVSPost2010Prop42
 90
       50
102
RTVSPost2010PropOp42
 70
     1
102
RTVSPost2010Prop43
 90
        3
102
RTVSPost2010PropOp43
 70
     1
102
RTVSPost2010Prop44ColorIndex
 90
        5
102
RTVSPost2010Prop44ColorRGB
 90
      255
102
RTVSPost2010PropOp44
 70
     1
102
RTVSPost2010Prop45
280
     0
102
RTVSPost2010PropOp45
 70
     1
102
RTVSPost2010Prop46
 90
       50
102
RTVSPost2010PropOp46
 70
     1
102
RTVSPost2010Prop47
 90
       50
102
RTVSPost2010PropOp47
 70
     1
102
RTVSPost2010Prop48
 90
       50
102
RTVSPost2010PropOp48
 70
     1
102
RTVSPost2010Prop49
280
     0
102
RTVSPost2010PropOp49
 70
     1
102
RTVSPost2010Prop50
 90
       50
102
RTVSPost2010PropOp50
 70
     1
102
RTVSPost2010Prop51ColorIndex
 90
      256
102
RTVSPost2010Prop51ColorRGB
 90
-16777216
102
RTVSPost2010PropOp51
 70
     0
102
RTVSPost2010Prop52
140
1.0
102
RTVSPost2010PropOp52
 70
     0
102
RTVSPost2010Prop53
 90
        2
102
RTVSPost2010PropOp53
 70
     1
102
RTVSPost2010Prop54
  1
strokes_ogs.tif
102
RTVSPost2010PropOp54
 70
     1
102
RTVSPost2010Prop55
280
     0
102
RTVSPost2010PropOp55
 70
     1
102
RTVSPost2010Prop56
140
1.0
102
RTVSPost2010PropOp56
 70
     1
102
RTVSPost2010Prop57
140
1.0
102
RTVSPost2010PropOp57
 70
     1
  0
XRECORD
  5
626
102
{ACAD_REACTORS
330
625
102
}
330
625
100
AcDbXrecord
280
     1
102
RTVSPropertyOp0
 70
     1
102
RTVSPropertyOp1
 70
     1
102
RTVSPropertyOp2
 70
     1
102
RTVSPropertyOp3
 70
     1
102
RTVSPropertyOp4
 70
     1
102
RTVSPropertyOp5
 70
     1
102
RTVSPropertyOp6
 70
     1
102
RTVSPropertyOp7
 70
     1
102
RTVSPropertyOp8
 70
     1
102
RTVSPropertyOp9
 70
     1
102
RTVSPropertyOp10
 70
     1
102
RTVSPropertyOp11
 70
     1
102
RTVSPropertyOp12
 70
     1
102
RTVSPropertyOp13
 70
     1
102
RTVSPropertyOp14
 70
     1
102
RTVSPropertyOp15
 70
     1
102
RTVSPropertyOp16
 70
     1
102
RTVSPropertyOp17
 70
     1
102
RTVSPropertyOp18
 70
     1
102
RTVSPropertyOp19
 70
     1
102
RTVSPropertyOp20
 70
     1
102
RTVSPropertyOp21
 70
     1
102
RTVSPropertyOp22
 70
     1
102
RTVSPropertyOp23
 70
     1
102
RTVSPropertyOp24
 70
     1
102
RTVSPropertyOp25
 70
     1
102
RTVSPropertyOp26
 70
     1
102
RTVSPropertyOp27
 70
     1
102
RTVSPropertyOp28
 70
     1
102
RTVSPropertyOp29
 70
     1
102
RTVSPropertyOp30
 70
     1
102
RTVSPropertyOp31
 70
     1
102
RTVSPropertyOp32
 70
     1
102
RTVSPropertyOp33
 70
     1
102
RTVSPropertyOp34
 70
     1
102
RTVSPropertyOp35
 70
     1
102
RTVSPropertyOp36
 70
     1
102
RTVSPropertyOp37
 70
     1
102
RTVSPropertyOp38
 70
     1
102
RTVSPropertyOp39
 70
     1
102
RTVSPropertyOp40
 70
     1
102
RTVSPropertyOp41
 70
     1
102
RTVSPropertyOp42
 70
     1
102
RTVSPropertyOp43
 70
     1
102
RTVSPropertyOp44
 70
     1
102
RTVSPropertyOp45
 70
     1
102
RTVSPropertyOp46
 70
     1
102
RTVSPropertyOp47
 70
     1
102
RTVSPropertyOp48
 70
     1
102
RTVSPropertyOp49
 70
     1
102
RTVSPropertyOp50
 70
     1
102
RTVSPropertyOp51
 70
     0
102
RTVSPropertyOp52
 70
     0
102
RTVSPropertyOp53
 70
     1
102
RTVSPropertyOp54
 70
     1
102
RTVSPropertyOp55
 70
     1
102
RTVSPropertyOp56
 70
     1
102
RTVSPropertyOp57
 70
     1
102
RTVSPost2010Prop28
280
     0
102
RTVSPost2010PropOp28
 70
     1
102
RTVSPost2010Prop29
280
     1
102
RTVSPost2010PropOp29
 70
     1
102
RTVSPost2010Prop30
280
     1
102
RTVSPost2010PropOp30
 70
     1
102
RTVSPost2010Prop31
280
     0
102
RTVSPost2010PropOp31
 70
     1
102
RTVSPost2010Prop32
280
     0
102
RTVSPost2010PropOp32
 70
     1
102
RTVSPost2010Prop33
280
     0
102
RTVSPost2010PropOp33
 70
     1
102
RTVSPost2010Prop34
280
     0
102
RTVSPost2010PropOp34
 70
     1
102
RTVSPost2010Prop35
280
     0
102
RTVSPost2010PropOp35
 70
     1
102
RTVSPost2010Prop36
280
     0
102
RTVSPost2010PropOp36
 70
     1
102
RTVSPost2010Prop37
 90
       50
102
RTVSPost2010PropOp37
 70
     1
102
RTVSPost2010Prop38
140
0.0
102
RTVSPost2010PropOp38
 70
     1
102
RTVSPost2010Prop39
140
1.0
102
RTVSPost2010PropOp39
 70
     1
102
RTVSPost2010Prop40
 90
        0
102
RTVSPost2010PropOp40
 70
     1
102
RTVSPost2010Prop41ColorIndex
 90
       18
102
RTVSPost2010Prop41ColorRGB
 90
        0
102
RTVSPost2010PropOp41
 70
     1
102
RTVSPost2010Prop42
 90
       50
102
RTVSPost2010PropOp42
 70
     1
102
RTVSPost2010Prop43
 90
        3
102
RTVSPost2010PropOp43
 70
     1
102
RTVSPost2010Prop44ColorIndex
 90
        5
102
RTVSPost2010Prop44ColorRGB
 90
      255
102
RTVSPost2010PropOp44
 70
     1
102
RTVSPost2010Prop45
280
     0
102
RTVSPost2010PropOp45
 70
     1
102
RTVSPost2010Prop46
 90
       50
102
RTVSPost2010PropOp46
 70
     1
102
RTVSPost2010Prop47
 90
       50
102
RTVSPost2010PropOp47
 70
     1
102
RTVSPost2010Prop48
 90
       50
102
RTVSPost2010PropOp48
 70
     1
102
RTVSPost2010Prop49
280
     0
102
RTVSPost2010PropOp49
 70
     1
102
RTVSPost2010Prop50
 90
       50
102
RTVSPost2010PropOp50
 70
     1
102
RTVSPost2010Prop51ColorIndex
 90
      256
102
RTVSPost2010Prop51ColorRGB
 90
-16777216
102
RTVSPost2010PropOp51
 70
     0
102
RTVSPost2010Prop52
140
1.0
102
RTVSPost2010PropOp52
 70
     0
102
RTVSPost2010Prop53
 90
        2
102
RTVSPost2010PropOp53
 70
     1
102
RTVSPost2010Prop54
  1
strokes_ogs.tif
102
RTVSPost2010PropOp54
 70
     1
102
RTVSPost2010Prop55
280
     0
102
RTVSPost2010PropOp55
 70
     1
102
RTVSPost2010Prop56
140
1.0
102
RTVSPost2010PropOp56
 70
     1
102
RTVSPost2010Prop57
140
1.0
102
RTVSPost2010PropOp57
 70
     1
  0
ENDSEC
  0
EOF
