  0
SECTION
  2
HEADER
  9
$ACADVER
  1
AC1015
  9
$ACADMAINTVER
 70
     6
  9
$DWGCODEPAGE
  3
ANSI_932
  9
$INSBASE
 10
1615.96564246102
 20
211.2841329584403
 30
0.0
  9
$EXTMIN
 10
105.5569593919755
 20
48.76405142211752
 30
0.0
  9
$EXTMAX
 10
1229.713164797581
 20
734.9261423157109
 30
0.0
  9
$LIMMIN
 10
0.0
 20
0.0
  9
$LIMMAX
 10
816.5000000000001
 20
565.0
  9
$ORTHOMODE
 70
     1
  9
$REGENMODE
 70
     1
  9
$FILLMODE
 70
     1
  9
$QTEXTMODE
 70
     0
  9
$MIRRTEXT
 70
     1
  9
$LTSCALE
 40
5.0
  9
$ATTMODE
 70
     1
  9
$TEXTSIZE
 40
7.5
  9
$TRACEWID
 40
0.05
  9
$TEXTSTYLE
  7
KANJI
  9
$CLAYER
  8
2
  9
$CELTYPE
  6
BYLAYER
  9
$CECOLOR
 62
   256
  9
$CELTSCALE
 40
1.0
  9
$DISPSILH
 70
     0
  9
$DIMSCALE
 40
2.5
  9
$DIMASZ
 40
2.0
  9
$DIMEXO
 40
0.5
  9
$DIMDLI
 40
0.0
  9
$DIMRND
 40
0.0
  9
$DIMDLE
 40
0.0
  9
$DIMEXE
 40
1.0
  9
$DIMTP
 40
0.0
  9
$DIMTM
 40
0.0
  9
$DIMTXT
 40
3.0
  9
$DIMCEN
 40
0.09
  9
$DIMTSZ
 40
0.0
  9
$DIMTOL
 70
     0
  9
$DIMLIM
 70
     0
  9
$DIMTIH
 70
     0
  9
$DIMTOH
 70
     0
  9
$DIMSE1
 70
     0
  9
$DIMSE2
 70
     0
  9
$DIMTAD
 70
     0
  9
$DIMZIN
 70
     8
  9
$DIMBLK
  1

  9
$DIMASO
 70
     0
  9
$DIMSHO
 70
     0
  9
$DIMPOST
  1

  9
$DIMAPOST
  1

  9
$DIMALT
 70
     0
  9
$DIMALTD
 70
     2
  9
$DIMALTF
 40
25.4
  9
$DIMLFAC
 40
1.0
  9
$DIMTOFL
 70
     1
  9
$DIMTVP
 40
1.0
  9
$DIMTIX
 70
     1
  9
$DIMSOXD
 70
     1
  9
$DIMSAH
 70
     0
  9
$DIMBLK1
  1

  9
$DIMBLK2
  1

  9
$DIMSTYLE
  2
STANDARD
  9
$DIMCLRD
 70
   256
  9
$DIMCLRE
 70
   256
  9
$DIMCLRT
 70
   256
  9
$DIMTFAC
 40
1.0
  9
$DIMGAP
 40
0.09
  9
$DIMJUST
 70
     0
  9
$DIMSD1
 70
     0
  9
$DIMSD2
 70
     0
  9
$DIMTOLJ
 70
     1
  9
$DIMTZIN
 70
     0
  9
$DIMALTZ
 70
     0
  9
$DIMALTTZ
 70
     0
  9
$DIMUPT
 70
     0
  9
$DIMDEC
 70
     1
  9
$DIMTDEC
 70
     4
  9
$DIMALTU
 70
     2
  9
$DIMALTTD
 70
     2
  9
$DIMTXSTY
  7
STANDARD
  9
$DIMAUNIT
 70
     0
  9
$DIMADEC
 70
     0
  9
$DIMALTRND
 40
0.0
  9
$DIMAZIN
 70
     0
  9
$DIMDSEP
 70
    46
  9
$DIMATFIT
 70
     3
  9
$DIMFRAC
 70
     0
  9
$DIMLDRBLK
  1

  9
$DIMLUNIT
 70
     2
  9
$DIMLWD
 70
    -2
  9
$DIMLWE
 70
    -2
  9
$DIMTMOVE
 70
     0
  9
$LUNITS
 70
     2
  9
$LUPREC
 70
     3
  9
$SKETCHINC
 40
0.1
  9
$FILLETRAD
 40
2.0
  9
$AUNITS
 70
     0
  9
$AUPREC
 70
     3
  9
$MENU
  1
C:\R13\WIN\SUPPORT\ACADFULL
  9
$ELEVATION
 40
0.0
  9
$PELEVATION
 40
0.0
  9
$THICKNESS
 40
0.0
  9
$LIMCHECK
 70
     0
  9
$CHAMFERA
 40
0.0
  9
$CHAMFERB
 40
0.0
  9
$CHAMFERC
 40
0.0
  9
$CHAMFERD
 40
0.0
  9
$SKPOLY
 70
     0
  9
$TDCREATE
 40
2457186.81735875
  9
$TDUCREATE
 40
2457186.44235875
  9
$TDUPDATE
 40
2457870.601328623
  9
$TDUUPDATE
 40
2457870.226328623
  9
$TDINDWG
 40
0.0110086458
  9
$TDUSRTIMER
 40
0.011008125
  9
$USRTIMER
 70
     1
  9
$ANGBASE
 50
0.0
  9
$ANGDIR
 70
     0
  9
$PDMODE
 70
     0
  9
$PDSIZE
 40
0.0
  9
$PLINEWID
 40
0.0
  9
$SPLFRAME
 70
     0
  9
$SPLINETYPE
 70
     6
  9
$SPLINESEGS
 70
     8
  9
$HANDSEED
  5
6A5
  9
$SURFTAB1
 70
     6
  9
$SURFTAB2
 70
     6
  9
$SURFTYPE
 70
     6
  9
$SURFU
 70
     6
  9
$SURFV
 70
     6
  9
$UCSBASE
  2

  9
$UCSNAME
  2

  9
$UCSORG
 10
0.0
 20
0.0
 30
0.0
  9
$UCSXDIR
 10
1.0
 20
0.0
 30
0.0
  9
$UCSYDIR
 10
0.0
 20
1.0
 30
0.0
  9
$UCSORTHOREF
  2

  9
$UCSORTHOVIEW
 70
     0
  9
$UCSORGTOP
 10
0.0
 20
0.0
 30
0.0
  9
$UCSORGBOTTOM
 10
0.0
 20
0.0
 30
0.0
  9
$UCSORGLEFT
 10
0.0
 20
0.0
 30
0.0
  9
$UCSORGRIGHT
 10
0.0
 20
0.0
 30
0.0
  9
$UCSORGFRONT
 10
0.0
 20
0.0
 30
0.0
  9
$UCSORGBACK
 10
0.0
 20
0.0
 30
0.0
  9
$PUCSBASE
  2

  9
$PUCSNAME
  2

  9
$PUCSORG
 10
0.0
 20
0.0
 30
0.0
  9
$PUCSXDIR
 10
1.0
 20
0.0
 30
0.0
  9
$PUCSYDIR
 10
0.0
 20
1.0
 30
0.0
  9
$PUCSORTHOREF
  2

  9
$PUCSORTHOVIEW
 70
     0
  9
$PUCSORGTOP
 10
0.0
 20
0.0
 30
0.0
  9
$PUCSORGBOTTOM
 10
0.0
 20
0.0
 30
0.0
  9
$PUCSORGLEFT
 10
0.0
 20
0.0
 30
0.0
  9
$PUCSORGRIGHT
 10
0.0
 20
0.0
 30
0.0
  9
$PUCSORGFRONT
 10
0.0
 20
0.0
 30
0.0
  9
$PUCSORGBACK
 10
0.0
 20
0.0
 30
0.0
  9
$USERI1
 70
     0
  9
$USERI2
 70
     0
  9
$USERI3
 70
     0
  9
$USERI4
 70
     0
  9
$USERI5
 70
     0
  9
$USERR1
 40
0.0
  9
$USERR2
 40
0.0
  9
$USERR3
 40
0.0
  9
$USERR4
 40
2448925.372986111
  9
$USERR5
 40
0.04166667
  9
$WORLDVIEW
 70
     1
  9
$SHADEDGE
 70
     3
  9
$SHADEDIF
 70
    70
  9
$TILEMODE
 70
     1
  9
$MAXACTVP
 70
    16
  9
$PINSBASE
 10
0.0
 20
0.0
 30
0.0
  9
$PLIMCHECK
 70
     0
  9
$PEXTMIN
 10
1.000000000000000E+20
 20
1.000000000000000E+20
 30
1.000000000000000E+20
  9
$PEXTMAX
 10
-1.000000000000000E+20
 20
-1.000000000000000E+20
 30
-1.000000000000000E+20
  9
$PLIMMIN
 10
0.0
 20
0.0
  9
$PLIMMAX
 10
12.0
 20
9.0
  9
$UNITMODE
 70
     0
  9
$VISRETAIN
 70
     0
  9
$PLINEGEN
 70
     0
  9
$PSLTSCALE
 70
     0
  9
$TREEDEPTH
 70
  3020
  9
$CMLSTYLE
  2
STANDARD
  9
$CMLJUST
 70
     0
  9
$CMLSCALE
 40
1.0
  9
$PROXYGRAPHICS
 70
     1
  9
$MEASUREMENT
 70
     0
  9
$CELWEIGHT
370
    -1
  9
$ENDCAPS
280
     0
  9
$JOINSTYLE
280
     0
  9
$LWDISPLAY
290
     0
  9
$INSUNITS
 70
     0
  9
$HYPERLINKBASE
  1

  9
$STYLESHEET
  1
monochrome.ctb
  9
$XEDIT
290
     1
  9
$CEPSNTYPE
380
     0
  9
$PSTYLEMODE
290
     1
  9
$FINGERPRINTGUID
  2
{BA8486BD-1A7E-4FFB-8941-E80541FD545D}
  9
$VERSIONGUID
  2
{DB7580A4-391C-4C40-8DB2-EB97648A5FEB}
  9
$EXTNAMES
290
     1
  9
$PSVPSCALE
 40
0.0
  9
$OLESTARTUP
290
     0
  0
ENDSEC
  0
SECTION
  2
CLASSES
  0
CLASS
  1
ACDBDICTIONARYWDFLT
  2
AcDbDictionaryWithDefault
  3
ObjectDBX Classes
 90
        0
280
     0
281
     0
  0
CLASS
  1
MATERIAL
  2
AcDbMaterial
  3
ObjectDBX Classes
 90
     1153
280
     0
281
     0
  0
CLASS
  1
SORTENTSTABLE
  2
AcDbSortentsTable
  3
ObjectDBX Classes
 90
        0
280
     0
281
     0
  0
CLASS
  1
VISUALSTYLE
  2
AcDbVisualStyle
  3
ObjectDBX Classes
 90
     4095
280
     0
281
     0
  0
CLASS
  1
SCALE
  2
AcDbScale
  3
ObjectDBX Classes
 90
     1153
280
     0
281
     0
  0
CLASS
  1
DICTIONARYVAR
  2
AcDbDictionaryVar
  3
ObjectDBX Classes
 90
        0
280
     0
281
     0
  0
CLASS
  1
MLEADERSTYLE
  2
AcDbMLeaderStyle
  3
ACDB_MLEADERSTYLE_CLASS
 90
     4095
280
     0
281
     0
  0
CLASS
  1
TABLESTYLE
  2
AcDbTableStyle
  3
ObjectDBX Classes
 90
     4095
280
     0
281
     0
  0
CLASS
  1
ACDBPLACEHOLDER
  2
AcDbPlaceHolder
  3
ObjectDBX Classes
 90
        0
280
     0
281
     0
  0
CLASS
  1
LAYOUT
  2
AcDbLayout
  3
ObjectDBX Classes
 90
        0
280
     0
281
     0
  0
ENDSEC
  0
SECTION
  2
TABLES
  0
TABLE
  2
VPORT
  5
2D
102
{ACAD_XDICTIONARY
360
66A
102
}
330
0
100
AcDbSymbolTable
 70
     1
  0
VPORT
  5
34
330
2D
100
AcDbSymbolTableRecord
100
AcDbViewportTableRecord
  2
*ACTIVE
 70
     0
 10
0.0
 20
0.0
 11
1.0
 21
1.0
 12
1057.341803484482
 22
337.7721649387023
 13
0.0
 23
0.0
 14
1.0
 24
1.0
 15
50.0
 25
50.0
 16
0.0
 26
0.0
 36
1.0
 17
0.0
 27
0.0
 37
0.0
 40
1070.306967589942
 41
2.177611940298507
 42
50.0
 43
0.0
 44
0.0
 50
0.0
 51
0.0
 71
     0
 72
  5000
 73
     1
 74
     0
 75
     0
 76
     0
 77
     0
 78
     0
281
     0
 65
     1
110
0.0
120
0.0
130
0.0
111
1.0
121
0.0
131
0.0
112
0.0
122
1.0
132
0.0
 79
     0
146
0.0
1001
ACAD_NAV_VCDISPLAY
1070
     3
  0
ENDTAB
  0
TABLE
  2
LTYPE
  5
F
330
0
100
AcDbSymbolTable
 70
     2
  0
LTYPE
  5
10
330
F
100
AcDbSymbolTableRecord
100
AcDbLinetypeTableRecord
  2
BYBLOCK
 70
     0
  3

 72
    65
 73
     0
 40
0.0
  0
LTYPE
  5
11
330
F
100
AcDbSymbolTableRecord
100
AcDbLinetypeTableRecord
  2
BYLAYER
 70
     0
  3

 72
    65
 73
     0
 40
0.0
  0
LTYPE
  5
E
330
F
100
AcDbSymbolTableRecord
100
AcDbLinetypeTableRecord
  2
CONTINUOUS
 70
     0
  3
Solid line
 72
    65
 73
     0
 40
0.0
  0
LTYPE
  5
99
330
F
100
AcDbSymbolTableRecord
100
AcDbLinetypeTableRecord
  2
CENTER
 70
     0
  3
____ _ ____ _ ____ _ ____ _ ____ _ ____ _ ____
 72
    65
 73
     4
 40
2.0
 49
1.25
 74
     0
 49
-0.25
 74
     0
 49
0.25
 74
     0
 49
-0.25
 74
     0
  0
ENDTAB
  0
TABLE
  2
LAYER
  5
2
102
{ACAD_XDICTIONARY
360
3
102
}
330
0
100
AcDbSymbolTable
 70
     8
  0
LAYER
  5
1F
102
{ACAD_XDICTIONARY
360
20
102
}
330
2
100
AcDbSymbolTableRecord
100
AcDbLayerTableRecord
  2
0
 70
     0
 62
     7
  6
CONTINUOUS
370
    -3
390
7
  0
LAYER
  5
D1
102
{ACAD_XDICTIONARY
360
D2
102
}
330
2
100
AcDbSymbolTableRecord
100
AcDbLayerTableRecord
  2
1
 70
     0
 62
     9
  6
CONTINUOUS
370
    -3
390
7
  0
LAYER
  5
1
102
{ACAD_XDICTIONARY
360
5
102
}
330
2
100
AcDbSymbolTableRecord
100
AcDbLayerTableRecord
  2
2
 70
     0
 62
     4
  6
CONTINUOUS
370
    -3
390
7
  0
LAYER
  5
CB
102
{ACAD_XDICTIONARY
360
CC
102
}
330
2
100
AcDbSymbolTableRecord
100
AcDbLayerTableRecord
  2
4
 70
     0
 62
     3
  6
CONTINUOUS
370
    -3
390
7
  0
LAYER
  5
96
102
{ACAD_XDICTIONARY
360
97
102
}
330
2
100
AcDbSymbolTableRecord
100
AcDbLayerTableRecord
  2
L-CENTER
 70
     0
 62
     1
  6
CENTER
370
    -3
390
7
  0
LAYER
  5
5C
102
{ACAD_XDICTIONARY
360
5D
102
}
330
2
100
AcDbSymbolTableRecord
100
AcDbLayerTableRecord
  2
3
 70
     0
 62
     2
  6
CONTINUOUS
370
    -3
390
7
  0
LAYER
  5
C6
330
2
100
AcDbSymbolTableRecord
100
AcDbLayerTableRecord
  2
5
 70
     0
 62
     6
  6
CONTINUOUS
370
    -3
390
7
  0
LAYER
  5
5B1
330
2
100
AcDbSymbolTableRecord
100
AcDbLayerTableRecord
  2
Defpoints
 70
     0
 62
     7
  6
CONTINUOUS
290
     0
370
    -3
390
7
  0
ENDTAB
  0
TABLE
  2
STYLE
  5
13
330
0
100
AcDbSymbolTable
 70
     2
  0
STYLE
  5
17
330
13
100
AcDbSymbolTableRecord
100
AcDbTextStyleTableRecord
  2
STANDARD
 70
     0
 40
0.0
 41
1.0
 50
0.0
 71
     0
 42
4.5
  3
TXT
  4

  0
STYLE
  5
12
330
13
100
AcDbSymbolTableRecord
100
AcDbTextStyleTableRecord
  2
KANJI
 70
     0
 40
0.0
 41
1.0
 50
0.0
 71
     0
 42
7.5
  3
TXT
  4
BIGFONT
  0
ENDTAB
  0
TABLE
  2
VIEW
  5
2B
330
0
100
AcDbSymbolTable
 70
     0
  0
ENDTAB
  0
TABLE
  2
UCS
  5
2C
330
0
100
AcDbSymbolTable
 70
     0
  0
ENDTAB
  0
TABLE
  2
APPID
  5
D
330
0
100
AcDbSymbolTable
 70
     4
  0
APPID
  5
C
330
D
100
AcDbSymbolTableRecord
100
AcDbRegAppTableRecord
  2
ACAD
 70
     0
  0
APPID
  5
35
330
D
100
AcDbSymbolTableRecord
100
AcDbRegAppTableRecord
  2
ACAD_NAV_VCDISPLAY
 70
     0
  0
APPID
  5
26
330
D
100
AcDbSymbolTableRecord
100
AcDbRegAppTableRecord
  2
ACAD_PSEXT
 70
     0
  0
APPID
  5
65A
330
D
100
AcDbSymbolTableRecord
100
AcDbRegAppTableRecord
  2
ACAD_MLEADERVER
 70
     0
  0
ENDTAB
  0
TABLE
  2
DIMSTYLE
  5
16
330
0
100
AcDbSymbolTable
 70
     1
100
AcDbDimStyleTable
  0
DIMSTYLE
105
15
330
16
100
AcDbSymbolTableRecord
100
AcDbDimStyleTableRecord
  2
STANDARD
 70
     0
178
     0
340
17
  0
ENDTAB
  0
TABLE
  2
BLOCK_RECORD
  5
1A
330
0
100
AcDbSymbolTable
 70
     0
  0
BLOCK_RECORD
  5
1B
102
{ACAD_XDICTIONARY
360
1C
102
}
330
1A
100
AcDbSymbolTableRecord
100
AcDbBlockTableRecord
  2
*MODEL_SPACE
340
23
  0
BLOCK_RECORD
  5
27
330
1A
100
AcDbSymbolTableRecord
100
AcDbBlockTableRecord
  2
*PAPER_SPACE
340
2A
  0
ENDTAB
  0
ENDSEC
  0
SECTION
  2
BLOCKS
  0
BLOCK
  5
1E
330
1B
100
AcDbEntity
  8
0
100
AcDbBlockBegin
  2
*MODEL_SPACE
 70
     0
 10
0.0
 20
0.0
 30
0.0
  3
*MODEL_SPACE
  1

  0
ENDBLK
  5
22
330
1B
100
AcDbEntity
  8
0
100
AcDbBlockEnd
  0
BLOCK
  5
28
330
27
100
AcDbEntity
 67
     1
  8
0
100
AcDbBlockBegin
  2
*PAPER_SPACE
 70
     0
 10
0.0
 20
0.0
 30
0.0
  3
*PAPER_SPACE
  1

  0
ENDBLK
  5
29
330
27
100
AcDbEntity
 67
     1
  8
0
100
AcDbBlockEnd
  0
ENDSEC
  0
SECTION
  2
ENTITIES
  0
ARC
  5
19F
330
1B
100
AcDbEntity
  8
4
100
AcDbCircle
 10
291.1200718046218
 20
607.2174404101082
 30
0.0
 40
20.36274126524963
100
AcDbArc
 50
207.8752808740772
 51
332.1247191259228
  0
ARC
  5
1A0
330
1B
100
AcDbEntity
  8
4
100
AcDbCircle
 10
387.1200713046217
 20
604.6968710281822
 30
0.0
 40
2.0
100
AcDbArc
 50
270.0
 51
0.0
  0
ARC
  5
1A1
330
1B
100
AcDbEntity
  8
4
100
AcDbCircle
 10
323.1200583046218
 20
604.6968710281822
 30
0.0
 40
2.0
100
AcDbArc
 50
180.0
 51
270.0
  0
LINE
  5
1A2
330
1B
100
AcDbEntity
  8
4
 62
     3
100
AcDbLine
 10
389.1200713046217
 20
605.6968710281822
 30
0.0
 11
389.1200713046217
 21
604.6968710281822
 31
0.0
  0
LINE
  5
1A3
330
1B
100
AcDbEntity
  8
4
 62
     3
100
AcDbLine
 10
321.1200583046218
 20
604.6968710281822
 30
0.0
 11
321.1200583046218
 21
605.6968710281822
 31
0.0
  0
ARC
  5
1A4
330
1B
100
AcDbEntity
  8
4
 62
     3
100
AcDbCircle
 10
649.7408012680776
 20
311.8731145051615
 30
0.0
 40
1.0
100
AcDbArc
 50
85.9999999999905
 51
175.999999999997
  0
LINE
  5
1A5
330
1B
100
AcDbEntity
  8
4
 62
     3
100
AcDbLine
 10
649.8105577418219
 20
312.8706785554214
 30
0.0
 11
652.2248273008531
 21
312.701856381986
 31
0.0
  0
LINE
  5
1A6
330
1B
100
AcDbEntity
  8
4
 62
     3
100
AcDbLine
 10
647.9271331599998
 20
285.9364521910984
 30
0.0
 11
650.1095143255588
 21
285.7838452337453
 31
0.0
  0
ARC
  5
1A7
330
1B
100
AcDbEntity
  8
4
 62
     3
100
AcDbCircle
 10
647.9968896337441
 20
286.9340162413582
 30
0.0
 40
1.0
100
AcDbArc
 50
175.999999999997
 51
265.9999999999905
  0
LINE
  5
1A8
330
1B
100
AcDbEntity
  8
4
 62
     3
100
AcDbLine
 10
646.9993255834843
 20
287.0037727151024
 30
0.0
 11
648.7432372178178
 21
311.9428709789057
 31
0.0
  0
LINE
  5
1AA
330
1B
100
AcDbEntity
  8
4
 62
     3
100
AcDbLine
 10
273.1200718046218
 20
250.7640519221176
 30
0.0
 11
273.1200718046218
 21
262.6948254545032
 31
0.0
  0
ARC
  5
1AB
330
1B
100
AcDbEntity
  8
4
 62
     3
100
AcDbCircle
 10
387.1200718046218
 20
310.7640499221177
 30
0.0
 40
1.9999995
100
AcDbArc
 50
0.0
 51
90.0
  0
LINE
  5
1AC
330
1B
100
AcDbEntity
  8
4
 62
     3
100
AcDbLine
 10
378.6862618046223
 20
309.2640499221177
 30
0.0
 11
382.120072304622
 21
309.2640499221177
 31
0.0
  0
ARC
  5
1AD
330
1B
100
AcDbEntity
  8
4
 62
     3
100
AcDbCircle
 10
378.6862618046223
 20
308.2640509221176
 30
0.0
 40
1.0000005
100
AcDbArc
 50
90.0
 51
149.0362430000028
  0
ARC
  5
1AE
330
1B
100
AcDbEntity
  8
4
 62
     3
100
AcDbCircle
 10
382.120072304622
 20
308.2640509221176
 30
0.0
 40
1.0000005
100
AcDbArc
 50
0.0
 51
90.0
  0
LINE
  5
1AF
330
1B
100
AcDbEntity
  8
4
 62
     3
100
AcDbLine
 10
365.620072304622
 20
301.7640499221177
 30
0.0
 11
362.620072304622
 21
301.7640499221177
 31
0.0
  0
ARC
  5
1B0
330
1B
100
AcDbEntity
  8
4
 62
     3
100
AcDbCircle
 10
387.1200718046218
 20
287.7640549221176
 30
0.0
 40
1.9999995
100
AcDbArc
 50
270.0
 51
0.0
  0
ARC
  5
1B1
330
1B
100
AcDbEntity
  8
4
 62
     3
100
AcDbCircle
 10
384.6200713046217
 20
295.7640499221177
 30
0.0
 40
1.0000005
100
AcDbArc
 50
0.0
 51
90.0
  0
LINE
  5
1B2
330
1B
100
AcDbEntity
  8
4
 62
     3
100
AcDbLine
 10
379.120072304622
 20
289.2640504221176
 30
0.0
 11
382.120072304622
 21
289.2640504221176
 31
0.0
  0
ARC
  5
1B3
330
1B
100
AcDbEntity
  8
4
 62
     3
100
AcDbCircle
 10
377.1200713046217
 20
290.7640504221176
 30
0.0
 40
1.0000005
100
AcDbArc
 50
0.0
 51
90.0
  0
LINE
  5
1B4
330
1B
100
AcDbEntity
  8
4
 62
     3
100
AcDbLine
 10
378.1200718046218
 20
290.7640504221176
 30
0.0
 11
378.1200718046218
 21
290.2640509221176
 31
0.0
  0
ARC
  5
1B5
330
1B
100
AcDbEntity
  8
4
 62
     3
100
AcDbCircle
 10
379.120072304622
 20
290.2640509221176
 30
0.0
 40
1.0000005
100
AcDbArc
 50
180.0
 51
270.0
  0
LINE
  5
1B6
330
1B
100
AcDbEntity
  8
4
 62
     3
100
AcDbLine
 10
385.6200718046218
 20
295.7640499221177
 30
0.0
 11
385.6200718046218
 21
292.7640499221177
 31
0.0
  0
LINE
  5
1B7
330
1B
100
AcDbEntity
  8
4
 62
     3
100
AcDbLine
 10
384.1200718046218
 20
291.7640509221176
 30
0.0
 11
384.6200713046217
 21
291.7640509221176
 31
0.0
  0
LINE
  5
1B8
330
1B
100
AcDbEntity
  8
4
 62
     3
100
AcDbLine
 10
383.1200713046217
 20
290.2640509221176
 30
0.0
 11
383.1200713046217
 21
290.7640504221176
 31
0.0
  0
ARC
  5
1B9
330
1B
100
AcDbEntity
  8
4
 62
     3
100
AcDbCircle
 10
382.120072304622
 20
290.2640509221176
 30
0.0
 40
1.0000005
100
AcDbArc
 50
270.0
 51
0.0
  0
ARC
  5
1BA
330
1B
100
AcDbEntity
  8
4
 62
     3
100
AcDbCircle
 10
384.1200718046218
 20
290.7640504221176
 30
0.0
 40
1.0000005
100
AcDbArc
 50
90.0
 51
180.0
  0
ARC
  5
1BB
330
1B
100
AcDbEntity
  8
4
 62
     3
100
AcDbCircle
 10
384.6200713046217
 20
292.7640499221177
 30
0.0
 40
1.0000005
100
AcDbArc
 50
270.0
 51
0.0
  0
LINE
  5
1BC
330
1B
100
AcDbEntity
  8
4
 62
     3
100
AcDbLine
 10
384.1200718046218
 20
296.7640504221176
 30
0.0
 11
384.6200713046217
 21
296.7640504221176
 31
0.0
  0
ARC
  5
1BD
330
1B
100
AcDbEntity
  8
4
 62
     3
100
AcDbCircle
 10
384.1200718046218
 20
297.7640509221176
 30
0.0
 40
1.0000005
100
AcDbArc
 50
180.0
 51
270.0
  0
LINE
  5
1BE
330
1B
100
AcDbEntity
  8
4
 62
     3
100
AcDbLine
 10
365.620072304622
 20
296.7640504221176
 30
0.0
 11
362.620072304622
 21
296.7640504221176
 31
0.0
  0
LINE
  5
1BF
330
1B
100
AcDbEntity
  8
4
 62
     3
100
AcDbLine
 10
366.6200713046217
 20
297.7640509221176
 30
0.0
 11
366.6200713046217
 21
300.7640509221176
 31
0.0
  0
ARC
  5
1C0
330
1B
100
AcDbEntity
  8
4
 62
     3
100
AcDbCircle
 10
365.620072304622
 20
297.7640509221176
 30
0.0
 40
1.0000005
100
AcDbArc
 50
270.0
 51
0.0
  0
LINE
  5
1C1
330
1B
100
AcDbEntity
  8
4
 62
     3
100
AcDbLine
 10
370.6200718046218
 20
296.4870664221178
 30
0.0
 11
370.6200718046218
 21
292.7640499221177
 31
0.0
  0
ARC
  5
1C2
330
1B
100
AcDbEntity
  8
4
 62
     3
100
AcDbCircle
 10
371.620072304622
 20
292.7640499221177
 30
0.0
 40
1.0000005
100
AcDbArc
 50
180.0
 51
270.0
  0
ARC
  5
1C3
330
1B
100
AcDbEntity
  8
4
 62
     3
100
AcDbCircle
 10
371.620072304622
 20
296.4870664221178
 30
0.0
 40
1.0000005
100
AcDbArc
 50
149.0362430000028
 51
180.0
  0
LINE
  5
1C4
330
1B
100
AcDbEntity
  8
4
 62
     3
100
AcDbLine
 10
371.620072304622
 20
291.7640509221176
 30
0.0
 11
377.1200713046217
 21
291.7640509221176
 31
0.0
  0
ARC
  5
1C5
330
1B
100
AcDbEntity
  8
4
 62
     3
100
AcDbCircle
 10
365.620072304622
 20
300.7640509221176
 30
0.0
 40
1.0000005
100
AcDbArc
 50
0.0
 51
90.0
  0
LINE
  5
1C6
330
1B
100
AcDbEntity
  8
4
 62
     3
100
AcDbLine
 10
389.1200713046217
 20
310.7640499221177
 30
0.0
 11
389.1200713046221
 21
287.7640549221176
 31
0.0
  0
LINE
  5
1C7
330
1B
100
AcDbEntity
  8
4
 62
     3
100
AcDbLine
 10
370.7625793046216
 20
297.0015619221176
 30
0.0
 11
377.8287688046219
 21
308.7785464221176
 31
0.0
  0
LINE
  5
1C8
330
1B
100
AcDbEntity
  8
4
 62
     3
100
AcDbLine
 10
383.1200713046217
 20
297.7640509221176
 30
0.0
 11
383.1200713046217
 21
308.2640509221176
 31
0.0
  0
ARC
  5
1C9
330
1B
100
AcDbEntity
  8
4
 62
     3
100
AcDbCircle
 10
353.6200663046218
 20
305.2640479221177
 30
0.0
 40
4.0000005
100
AcDbArc
 50
0.0
 51
90.0
  0
LINE
  5
1CA
330
1B
100
AcDbEntity
  8
4
 62
     3
100
AcDbLine
 10
357.6200653046219
 20
304.3875244221176
 30
0.0
 11
357.6200653046219
 21
305.2640479221177
 31
0.0
  0
ARC
  5
1CB
330
1B
100
AcDbEntity
  8
4
 62
     3
100
AcDbCircle
 10
343.620062804622
 20
308.2640479221177
 30
0.0
 40
1.0000005
100
AcDbArc
 50
90.0
 51
180.0
  0
LINE
  5
1CC
330
1B
100
AcDbEntity
  8
4
 62
     3
100
AcDbLine
 10
343.620062804622
 20
309.2640484221176
 30
0.0
 11
353.6200663046218
 21
309.2640484221176
 31
0.0
  0
LINE
  5
1CD
330
1B
100
AcDbEntity
  8
4
 62
     3
100
AcDbLine
 10
325.6200958046218
 20
309.2640484221176
 30
0.0
 11
328.6200958046218
 21
309.2640529221176
 31
0.0
  0
ARC
  5
1CE
330
1B
100
AcDbEntity
  8
4
 62
     3
100
AcDbCircle
 10
328.6200928046217
 20
308.2640494221178
 30
0.0
 40
1.0000005
100
AcDbArc
 50
359.9998459985447
 51
89.99984599997813
  0
ARC
  5
1CF
330
1B
100
AcDbEntity
  8
4
 62
     3
100
AcDbCircle
 10
323.1200578046216
 20
310.7640499221177
 30
0.0
 40
1.9999995
100
AcDbArc
 50
90.0
 51
180.0
  0
ARC
  5
1D0
330
1B
100
AcDbEntity
  8
4
 62
     3
100
AcDbCircle
 10
325.6200943046222
 20
308.2640509221176
 30
0.0
 40
1.0000005
100
AcDbArc
 50
89.99988400002549
 51
179.9998839998386
  0
ARC
  5
1D1
330
1B
100
AcDbEntity
  8
4
 62
     3
100
AcDbCircle
 10
353.6200663046218
 20
294.1405729221176
 30
0.0
 40
4.0000005
100
AcDbArc
 50
0.0
 51
52.020127999994
  0
ARC
  5
1D2
330
1B
100
AcDbEntity
  8
4
 62
     3
100
AcDbCircle
 10
353.6200663046218
 20
293.2640479221175
 30
0.0
 40
4.0000005
100
AcDbArc
 50
270.0
 51
0.0
  0
LINE
  5
1D3
330
1B
100
AcDbEntity
  8
4
 62
     3
100
AcDbLine
 10
357.6200653046219
 20
294.1405729221176
 30
0.0
 11
357.6200653046219
 21
293.2640479221175
 31
0.0
  0
LINE
  5
1D4
330
1B
100
AcDbEntity
  8
4
 62
     3
100
AcDbLine
 10
361.6200718046218
 20
297.7640509221176
 30
0.0
 11
361.6200718046218
 21
300.7640509221176
 31
0.0
  0
LINE
  5
1D5
330
1B
100
AcDbEntity
  8
4
 62
     3
100
AcDbLine
 10
338.6200558046219
 20
290.2640509221176
 30
0.0
 11
338.6200558046219
 21
293.2640509221176
 31
0.0
  0
ARC
  5
1D6
330
1B
100
AcDbEntity
  8
4
 62
     3
100
AcDbCircle
 10
343.620062804622
 20
290.2640479221175
 30
0.0
 40
1.0000005
100
AcDbArc
 50
180.0
 51
270.0
  0
LINE
  5
1D7
330
1B
100
AcDbEntity
  8
4
 62
     3
100
AcDbLine
 10
343.620062804622
 20
289.2640489221178
 30
0.0
 11
353.6200663046218
 21
289.2640489221178
 31
0.0
  0
LINE
  5
1D8
330
1B
100
AcDbEntity
  8
4
 62
     3
100
AcDbLine
 10
325.6200553046217
 20
289.2640489221178
 30
0.0
 11
337.6200553046217
 21
289.2640504221176
 31
0.0
  0
LINE
  5
1D9
330
1B
100
AcDbEntity
  8
4
 62
     3
100
AcDbLine
 10
330.6200578046216
 20
294.2640499221177
 30
0.0
 11
337.6200553046217
 21
294.2640499221177
 31
0.0
  0
ARC
  5
1DA
330
1B
100
AcDbEntity
  8
4
 62
     3
100
AcDbCircle
 10
330.6200578046216
 20
295.2640504221176
 30
0.0
 40
1.0000005
100
AcDbArc
 50
180.0
 51
270.0
  0
ARC
  5
1DB
330
1B
100
AcDbEntity
  8
4
 62
     3
100
AcDbCircle
 10
323.1200578046216
 20
287.7640549221176
 30
0.0
 40
1.9999995
100
AcDbArc
 50
180.0
 51
270.0
  0
ARC
  5
1DC
330
1B
100
AcDbEntity
  8
4
 62
     3
100
AcDbCircle
 10
325.6200583046218
 20
290.2640509221176
 30
0.0
 40
1.0000005
100
AcDbArc
 50
179.9998839998386
 51
269.9998840000255
  0
ARC
  5
1DD
330
1B
100
AcDbEntity
  8
4
 62
     3
100
AcDbCircle
 10
337.6200553046217
 20
293.2640509221176
 30
0.0
 40
1.0000005
100
AcDbArc
 50
0.0
 51
90.0
  0
ARC
  5
1DE
330
1B
100
AcDbEntity
  8
4
 62
     3
100
AcDbCircle
 10
337.6200553046217
 20
290.2640509221176
 30
0.0
 40
1.0000005
100
AcDbArc
 50
270.0
 51
0.0
  0
LINE
  5
1E0
330
1B
100
AcDbEntity
  8
4
 62
     3
100
AcDbLine
 10
309.1200718046218
 20
250.7640519221176
 30
0.0
 11
309.1200718046218
 21
262.6948254545032
 31
0.0
  0
LINE
  5
1E1
330
1B
100
AcDbEntity
  8
4
 62
     3
100
AcDbLine
 10
321.1200583046218
 20
287.7640549221176
 30
0.0
 11
321.1200583046218
 21
310.7640499221177
 31
0.0
  0
LINE
  5
1E2
330
1B
100
AcDbEntity
  8
4
 62
     3
100
AcDbLine
 10
342.6200623046223
 20
290.2640479221175
 30
0.0
 11
342.6200623046223
 21
308.2640479221177
 31
0.0
  0
LINE
  5
1E3
330
1B
100
AcDbEntity
  8
4
 62
     3
100
AcDbLine
 10
324.6200578046216
 20
290.2640524221176
 30
0.0
 11
324.620093804622
 21
308.2640524221176
 31
0.0
  0
LINE
  5
1E4
330
1B
100
AcDbEntity
  8
4
 62
     3
100
AcDbLine
 10
329.6200558046219
 20
295.2640504221176
 30
0.0
 11
329.6200933046218
 21
308.2640479221177
 31
0.0
  0
ARC
  5
1E5
330
1B
100
AcDbEntity
  8
4
 62
     3
100
AcDbCircle
 10
353.6200663046218
 20
304.3875244221176
 30
0.0
 40
4.0000005
100
AcDbArc
 50
307.979872000006
 51
0.0
  0
ARC
  5
1E6
330
1B
100
AcDbEntity
  8
4
 62
     3
100
AcDbCircle
 10
357.6200653046219
 20
299.2640479221175
 30
0.0
 40
2.5000005
100
AcDbArc
 50
127.9798719999962
 51
232.0201280000038
  0
ARC
  5
1E7
330
1B
100
AcDbEntity
  8
4
 62
     3
100
AcDbCircle
 10
291.1200718046218
 20
250.7640519221177
 30
0.0
 40
18.0
100
AcDbArc
 50
180.0
 51
0.0
  0
LINE
  5
1E8
330
1B
100
AcDbEntity
  8
4
 62
     3
100
AcDbLine
 10
323.1200578046216
 20
285.7640539221177
 30
0.0
 11
387.1200718046218
 21
285.7640539221177
 31
0.0
  0
LINE
  5
1E9
330
1B
100
AcDbEntity
  8
4
 62
     3
100
AcDbLine
 10
323.1200578046216
 20
312.7640509221176
 30
0.0
 11
387.1200718046218
 21
312.7640509221176
 31
0.0
  0
ARC
  5
1EA
330
1B
100
AcDbEntity
  8
4
 62
     3
100
AcDbCircle
 10
362.620072304622
 20
300.7640509221176
 30
0.0
 40
1.0000005
100
AcDbArc
 50
90.0
 51
180.0
  0
ARC
  5
1EB
330
1B
100
AcDbEntity
  8
4
 62
     3
100
AcDbCircle
 10
362.620072304622
 20
297.7640509221176
 30
0.0
 40
1.0000005
100
AcDbArc
 50
180.0
 51
270.0
  0
LINE
  5
1EC
330
1B
100
AcDbEntity
  8
2
100
AcDbLine
 10
1093.866424664363
 20
259.0005663967771
 30
0.0
 11
1095.309800337337
 21
261.5005663967771
 31
0.0
  0
LINE
  5
1ED
330
1B
100
AcDbEntity
  8
2
100
AcDbLine
 10
1090.979673318413
 20
259.0005663967771
 30
0.0
 11
1093.866424664363
 21
259.0005663967771
 31
0.0
  0
LINE
  5
1EE
330
1B
100
AcDbEntity
  8
2
100
AcDbLine
 10
1089.536297645439
 20
261.5005663967771
 30
0.0
 11
1090.979673318413
 21
259.0005663967771
 31
0.0
  0
LINE
  5
1EF
330
1B
100
AcDbEntity
  8
2
100
AcDbLine
 10
1090.979673318413
 20
264.0005663967772
 30
0.0
 11
1093.866424664363
 21
264.0005663967772
 31
0.0
  0
LINE
  5
1F0
330
1B
100
AcDbEntity
  8
2
100
AcDbLine
 10
1089.536297645439
 20
261.5005663967771
 30
0.0
 11
1090.979673318413
 21
264.0005663967772
 31
0.0
  0
LINE
  5
1F1
330
1B
100
AcDbEntity
  8
2
100
AcDbLine
 10
1093.866424664363
 20
264.0005663967772
 30
0.0
 11
1095.309800337337
 21
261.5005663967771
 31
0.0
  0
CIRCLE
  5
1F2
330
1B
100
AcDbEntity
  8
4
100
AcDbCircle
 10
1092.423048991388
 20
261.5005663967771
 30
0.0
 40
5.75
  0
CIRCLE
  5
1F3
330
1B
100
AcDbEntity
  8
4
100
AcDbCircle
 10
1092.423048991388
 20
261.5005663967771
 30
0.0
 40
5.0
  0
LINE
  5
1F4
330
1B
100
AcDbEntity
  8
2
100
AcDbLine
 10
991.9796733184136
 20
264.0005663967768
 30
0.0
 11
990.5362976454395
 21
261.5005663967767
 31
0.0
  0
LINE
  5
1F5
330
1B
100
AcDbEntity
  8
2
100
AcDbLine
 10
996.3098003373367
 20
261.5005663967767
 30
0.0
 11
994.8664246643626
 21
264.0005663967768
 31
0.0
  0
LINE
  5
1F6
330
1B
100
AcDbEntity
  8
2
100
AcDbLine
 10
994.8664246643626
 20
264.0005663967768
 30
0.0
 11
991.9796733184136
 21
264.0005663967768
 31
0.0
  0
LINE
  5
1F7
330
1B
100
AcDbEntity
  8
2
100
AcDbLine
 10
996.3098003373367
 20
261.5005663967767
 30
0.0
 11
994.8664246643626
 21
259.0005663967767
 31
0.0
  0
LINE
  5
1F8
330
1B
100
AcDbEntity
  8
2
100
AcDbLine
 10
994.8664246643626
 20
259.0005663967767
 30
0.0
 11
991.9796733184136
 21
259.0005663967767
 31
0.0
  0
LINE
  5
1F9
330
1B
100
AcDbEntity
  8
2
100
AcDbLine
 10
991.9796733184136
 20
259.0005663967767
 30
0.0
 11
990.5362976454395
 21
261.5005663967767
 31
0.0
  0
CIRCLE
  5
1FA
330
1B
100
AcDbEntity
  8
4
100
AcDbCircle
 10
993.4230489913886
 20
261.5005663967767
 30
0.0
 40
5.0
  0
CIRCLE
  5
1FB
330
1B
100
AcDbEntity
  8
4
100
AcDbCircle
 10
993.4230489913886
 20
261.5005663967767
 30
0.0
 40
5.75
  0
LINE
  5
1FC
330
1B
100
AcDbEntity
  8
2
100
AcDbLine
 10
1093.866424664363
 20
87.52753644745815
 30
0.0
 11
1095.309800337337
 21
90.02753644745826
 31
0.0
  0
LINE
  5
1FD
330
1B
100
AcDbEntity
  8
2
100
AcDbLine
 10
1089.53629764544
 20
90.02753644745826
 30
0.0
 11
1090.979673318414
 21
87.52753644745815
 31
0.0
  0
LINE
  5
1FE
330
1B
100
AcDbEntity
  8
2
100
AcDbLine
 10
1090.979673318414
 20
87.52753644745815
 30
0.0
 11
1093.866424664363
 21
87.52753644745815
 31
0.0
  0
LINE
  5
1FF
330
1B
100
AcDbEntity
  8
2
100
AcDbLine
 10
1089.53629764544
 20
90.02753644745826
 30
0.0
 11
1090.979673318414
 21
92.52753644745826
 31
0.0
  0
LINE
  5
200
330
1B
100
AcDbEntity
  8
2
100
AcDbLine
 10
1090.979673318414
 20
92.52753644745826
 30
0.0
 11
1093.866424664363
 21
92.52753644745826
 31
0.0
  0
LINE
  5
201
330
1B
100
AcDbEntity
  8
2
100
AcDbLine
 10
1093.866424664363
 20
92.52753644745826
 30
0.0
 11
1095.309800337337
 21
90.02753644745826
 31
0.0
  0
CIRCLE
  5
202
330
1B
100
AcDbEntity
  8
4
100
AcDbCircle
 10
1092.423048991388
 20
90.02753644745826
 30
0.0
 40
5.0
  0
CIRCLE
  5
203
330
1B
100
AcDbEntity
  8
4
100
AcDbCircle
 10
1092.423048991388
 20
90.02753644745826
 30
0.0
 40
5.75
  0
LINE
  5
204
330
1B
100
AcDbEntity
  8
2
100
AcDbLine
 10
991.979673318414
 20
92.52753644745826
 30
0.0
 11
990.5362976454404
 21
90.02753644745826
 31
0.0
  0
LINE
  5
205
330
1B
100
AcDbEntity
  8
2
100
AcDbLine
 10
994.8664246643626
 20
92.52753644745826
 30
0.0
 11
991.979673318414
 21
92.52753644745826
 31
0.0
  0
LINE
  5
206
330
1B
100
AcDbEntity
  8
2
100
AcDbLine
 10
996.3098003373367
 20
90.02753644745826
 30
0.0
 11
994.8664246643626
 21
92.52753644745826
 31
0.0
  0
LINE
  5
207
330
1B
100
AcDbEntity
  8
2
100
AcDbLine
 10
994.8664246643626
 20
87.52753644745815
 30
0.0
 11
991.9796733184145
 21
87.52753644745815
 31
0.0
  0
LINE
  5
208
330
1B
100
AcDbEntity
  8
2
100
AcDbLine
 10
996.3098003373367
 20
90.02753644745826
 30
0.0
 11
994.8664246643626
 21
87.52753644745815
 31
0.0
  0
LINE
  5
209
330
1B
100
AcDbEntity
  8
2
100
AcDbLine
 10
991.9796733184145
 20
87.52753644745815
 30
0.0
 11
990.5362976454404
 21
90.02753644745826
 31
0.0
  0
CIRCLE
  5
20A
330
1B
100
AcDbEntity
  8
4
100
AcDbCircle
 10
993.4230489913886
 20
90.02753644745826
 30
0.0
 40
5.75
  0
CIRCLE
  5
20B
330
1B
100
AcDbEntity
  8
4
100
AcDbCircle
 10
993.4230489913886
 20
90.02753644745826
 30
0.0
 40
5.0
  0
LINE
  5
20C
330
1B
100
AcDbEntity
  8
2
100
AcDbLine
 10
1143.366424664363
 20
178.2640514221176
 30
0.0
 11
1144.809800337337
 21
175.7640514221176
 31
0.0
  0
LINE
  5
20D
330
1B
100
AcDbEntity
  8
2
100
AcDbLine
 10
1140.479673318414
 20
178.2640514221176
 30
0.0
 11
1143.366424664363
 21
178.2640514221176
 31
0.0
  0
LINE
  5
20E
330
1B
100
AcDbEntity
  8
2
100
AcDbLine
 10
1139.03629764544
 20
175.7640514221176
 30
0.0
 11
1140.479673318414
 21
178.2640514221176
 31
0.0
  0
LINE
  5
20F
330
1B
100
AcDbEntity
  8
2
100
AcDbLine
 10
1140.479673318414
 20
173.2640514221175
 30
0.0
 11
1143.366424664363
 21
173.2640514221174
 31
0.0
  0
LINE
  5
210
330
1B
100
AcDbEntity
  8
2
100
AcDbLine
 10
1139.03629764544
 20
175.7640514221176
 30
0.0
 11
1140.479673318414
 21
173.2640514221175
 31
0.0
  0
LINE
  5
211
330
1B
100
AcDbEntity
  8
2
100
AcDbLine
 10
1143.366424664363
 20
173.2640514221174
 30
0.0
 11
1144.809800337337
 21
175.7640514221176
 31
0.0
  0
CIRCLE
  5
212
330
1B
100
AcDbEntity
  8
4
100
AcDbCircle
 10
1141.923048991388
 20
175.7640514221175
 30
0.0
 40
5.75
  0
CIRCLE
  5
213
330
1B
100
AcDbEntity
  8
4
100
AcDbCircle
 10
1141.923048991388
 20
175.7640514221175
 30
0.0
 40
5.0
  0
LINE
  5
214
330
1B
100
AcDbEntity
  8
2
100
AcDbLine
 10
946.8098003373367
 20
175.7640514221176
 30
0.0
 11
945.3664246643626
 21
178.2640514221176
 31
0.0
  0
LINE
  5
215
330
1B
100
AcDbEntity
  8
2
100
AcDbLine
 10
942.4796733184145
 20
173.2640514221174
 30
0.0
 11
941.0362976454404
 21
175.7640514221176
 31
0.0
  0
LINE
  5
216
330
1B
100
AcDbEntity
  8
2
100
AcDbLine
 10
945.3664246643626
 20
173.2640514221175
 30
0.0
 11
942.4796733184145
 21
173.2640514221174
 31
0.0
  0
LINE
  5
217
330
1B
100
AcDbEntity
  8
2
100
AcDbLine
 10
945.3664246643626
 20
178.2640514221176
 30
0.0
 11
942.479673318414
 21
178.2640514221176
 31
0.0
  0
LINE
  5
218
330
1B
100
AcDbEntity
  8
2
100
AcDbLine
 10
946.8098003373367
 20
175.7640514221176
 30
0.0
 11
945.3664246643626
 21
173.2640514221175
 31
0.0
  0
LINE
  5
219
330
1B
100
AcDbEntity
  8
2
100
AcDbLine
 10
942.479673318414
 20
178.2640514221176
 30
0.0
 11
941.0362976454404
 21
175.7640514221176
 31
0.0
  0
CIRCLE
  5
21A
330
1B
100
AcDbEntity
  8
4
100
AcDbCircle
 10
943.9230489913886
 20
175.7640514221175
 30
0.0
 40
5.0
  0
CIRCLE
  5
21B
330
1B
100
AcDbEntity
  8
4
100
AcDbCircle
 10
943.9230489913886
 20
175.7640514221175
 30
0.0
 40
5.75
  0
ARC
  5
21C
330
1B
100
AcDbEntity
  8
4
100
AcDbCircle
 10
958.3646464650552
 20
200.133634147198
 30
0.0
 40
3.0
100
AcDbArc
 50
163.92311168739
 51
275.1263803664074
  0
ARC
  5
21D
330
1B
100
AcDbEntity
  8
4
100
AcDbCircle
 10
1018.553466266309
 20
260.322453948451
 30
0.0
 40
3.0
100
AcDbArc
 50
354.8736196335946
 51
106.07688831261
  0
ARC
  5
21E
330
1B
100
AcDbEntity
  8
4
100
AcDbCircle
 10
1006.20189765578
 20
212.4852027577273
 30
0.0
 40
3.0
100
AcDbArc
 50
97.10223814956889
 51
172.897761850429
  0
ARC
  5
21F
330
1B
100
AcDbEntity
  8
4
100
AcDbCircle
 10
1003.545099579251
 20
215.1420008342558
 30
0.0
 40
3.0
100
AcDbArc
 50
97.61903501642539
 51
172.3809649835703
  0
ARC
  5
220
330
1B
100
AcDbEntity
  8
4
100
AcDbCircle
 10
993.4497838083449
 20
206.2932307228413
 30
0.0
 40
6.0
100
AcDbArc
 50
275.1263803664074
 51
354.2741567175669
  0
ARC
  5
221
330
1B
100
AcDbEntity
  8
4
100
AcDbCircle
 10
1012.393869690666
 20
225.2373166051622
 30
0.0
 40
6.0
100
AcDbArc
 50
275.7258432824342
 51
354.8736196335938
  0
LINE
  5
222
330
1B
100
AcDbEntity
  8
L-CENTER
 48
2.5
100
AcDbLine
 10
999.4230489913886
 20
251.1082615513633
 30
0.0
 11
987.4230489913886
 21
271.8928712421903
 31
0.0
  0
LINE
  5
223
330
1B
100
AcDbEntity
  8
4
100
AcDbLine
 10
1021.541466358549
 20
260.0543952817807
 30
0.0
 11
1018.369869875145
 21
224.7011992718217
 31
0.0
  0
ARC
  5
224
330
1B
100
AcDbEntity
  8
4
100
AcDbCircle
 10
1079.644200326998
 20
212.4852027577273
 30
0.0
 40
3.0
100
AcDbArc
 50
7.102238149571051
 51
82.89776185043112
  0
ARC
  5
225
330
1B
100
AcDbEntity
  8
4
100
AcDbCircle
 10
1082.300998403527
 20
215.1420008342558
 30
0.0
 40
3.0
100
AcDbArc
 50
7.619035016426488
 51
82.38096498356586
  0
ARC
  5
226
330
1B
100
AcDbEntity
  8
4
100
AcDbCircle
 10
1092.396314174433
 20
206.2932307228413
 30
0.0
 40
6.0
100
AcDbArc
 50
185.725843282432
 51
264.8736196335926
  0
ARC
  5
227
330
1B
100
AcDbEntity
  8
4
100
AcDbCircle
 10
1073.452228292112
 20
225.2373166051622
 30
0.0
 40
6.0
100
AcDbArc
 50
185.1263803664064
 51
264.2741567175658
  0
ARC
  5
228
330
1B
100
AcDbEntity
  8
4
100
AcDbCircle
 10
1127.481451517723
 20
200.133634147198
 30
0.0
 40
3.0
100
AcDbArc
 50
264.8736196335926
 51
16.0768883126079
  0
LINE
  5
229
330
1B
100
AcDbEntity
  8
4
100
AcDbLine
 10
1127.213392851053
 20
197.1456340549576
 30
0.0
 11
1091.860196841093
 21
200.3172305383614
 31
0.0
  0
LINE
  5
22A
330
1B
100
AcDbEntity
  8
L-CENTER
 48
2.5
100
AcDbLine
 10
1086.423048991388
 20
251.1082615513633
 30
0.0
 11
1098.423048991388
 21
271.8928712421903
 31
0.0
  0
ARC
  5
22B
330
1B
100
AcDbEntity
  8
4
100
AcDbCircle
 10
1067.292631716469
 20
260.322453948451
 30
0.0
 40
3.0
100
AcDbArc
 50
73.92311168739002
 51
185.1263803664054
  0
ARC
  5
22C
330
1B
100
AcDbEntity
  8
4
100
AcDbCircle
 10
1042.923048991388
 20
-79.23594857788234
 30
0.0
 40
300.0
100
AcDbArc
 50
82.38096498357213
 51
97.61903501642784
  0
ARC
  5
22D
330
1B
100
AcDbEntity
  8
4
100
AcDbCircle
 10
1042.923048991388
 20
-82.23594857788234
 30
0.0
 40
300.0
100
AcDbArc
 50
82.89776185042847
 51
97.1022381495715
  0
LINE
  5
22E
330
1B
100
AcDbEntity
  8
4
100
AcDbLine
 10
1064.304631624229
 20
260.0543952817807
 30
0.0
 11
1067.476228107633
 21
224.7011992718217
 31
0.0
  0
LINE
  5
22F
330
1B
100
AcDbEntity
  8
4
100
AcDbLine
 10
958.6327051317254
 20
197.1456340549576
 30
0.0
 11
993.9859011416853
 21
200.3172305383614
 31
0.0
  0
ARC
  5
230
330
1B
100
AcDbEntity
  8
4
100
AcDbCircle
 10
958.3646464650552
 20
151.3944686970373
 30
0.0
 40
3.0
100
AcDbArc
 50
84.87361963359261
 51
196.0768883126073
  0
ARC
  5
231
330
1B
100
AcDbEntity
  8
4
100
AcDbCircle
 10
1006.20189765578
 20
139.042900086508
 30
0.0
 40
3.0
100
AcDbArc
 50
187.102238149571
 51
262.8977618504312
  0
ARC
  5
232
330
1B
100
AcDbEntity
  8
4
100
AcDbCircle
 10
1003.545099579251
 20
136.3861020099795
 30
0.0
 40
3.0
100
AcDbArc
 50
187.6190350164275
 51
262.3809649835658
  0
ARC
  5
233
330
1B
100
AcDbEntity
  8
4
100
AcDbCircle
 10
1012.393869690666
 20
126.2907862390731
 30
0.0
 40
6.0
100
AcDbArc
 50
5.126380366406224
 51
84.2741567175658
  0
ARC
  5
234
330
1B
100
AcDbEntity
  8
4
100
AcDbCircle
 10
993.4497838083449
 20
145.234872121394
 30
0.0
 40
6.0
100
AcDbArc
 50
5.72584328243309
 51
84.87361963359257
  0
LINE
  5
235
330
1B
100
AcDbEntity
  8
L-CENTER
 48
2.5
100
AcDbLine
 10
999.4230489913895
 20
100.4198412928718
 30
0.0
 11
987.4230489913886
 21
79.63523160204477
 31
0.0
  0
ARC
  5
236
330
1B
100
AcDbEntity
  8
4
100
AcDbCircle
 10
1018.553466266309
 20
91.2056488957843
 30
0.0
 40
3.0
100
AcDbArc
 50
253.9231116873903
 51
5.126380366407433
  0
LINE
  5
237
330
1B
100
AcDbEntity
  8
4
100
AcDbLine
 10
1021.541466358549
 20
91.47370756245436
 30
0.0
 11
1018.369869875145
 21
126.8269035724134
 31
0.0
  0
CIRCLE
  5
238
330
1B
100
AcDbEntity
  8
4
100
AcDbCircle
 10
1107.923048991388
 20
175.7640514221176
 30
0.0
 40
2.5
  0
ARC
  5
239
330
1B
100
AcDbEntity
  8
4
100
AcDbCircle
 10
1073.452228292112
 20
126.2907862390731
 30
0.0
 40
6.0
100
AcDbArc
 50
95.7258432824342
 51
174.8736196335936
  0
ARC
  5
23A
330
1B
100
AcDbEntity
  8
4
100
AcDbCircle
 10
1079.644200326998
 20
139.042900086508
 30
0.0
 40
3.0
100
AcDbArc
 50
277.1022381495688
 51
352.8977618504289
  0
ARC
  5
23B
330
1B
100
AcDbEntity
  8
4
100
AcDbCircle
 10
1082.300998403527
 20
136.3861020099795
 30
0.0
 40
3.0
100
AcDbArc
 50
277.6190350164342
 51
352.3809649835735
  0
ARC
  5
23C
330
1B
100
AcDbEntity
  8
4
100
AcDbCircle
 10
1092.396314174433
 20
145.234872121394
 30
0.0
 40
6.0
100
AcDbArc
 50
95.12638036640745
 51
174.2741567175669
  0
ARC
  5
23D
330
1B
100
AcDbEntity
  8
4
100
AcDbCircle
 10
1127.481451517723
 20
151.3944686970373
 30
0.0
 40
3.0
100
AcDbArc
 50
343.9231116873921
 51
95.1263803664074
  0
CIRCLE
  5
23E
330
1B
100
AcDbEntity
  8
4
100
AcDbCircle
 10
1107.923048991388
 20
175.7640514221176
 30
0.0
 40
14.0
  0
LINE
  5
23F
330
1B
100
AcDbEntity
  8
4
100
AcDbLine
 10
1127.213392851053
 20
154.3824687892766
 30
0.0
 11
1091.860196841093
 21
151.2108723058727
 31
0.0
  0
LINE
  5
240
330
1B
100
AcDbEntity
  8
L-CENTER
 48
2.5
100
AcDbLine
 10
1086.423048991388
 20
100.4198412928708
 30
0.0
 11
1098.423048991388
 21
79.63523160204477
 31
0.0
  0
ARC
  5
241
330
1B
100
AcDbEntity
  8
4
100
AcDbCircle
 10
1042.923048991388
 20
430.7640514221176
 30
0.0
 40
300.0
100
AcDbArc
 50
262.3809649835721
 51
277.6190350164279
  0
ARC
  5
242
330
1B
100
AcDbEntity
  8
4
100
AcDbCircle
 10
1042.923048991388
 20
433.7640514221176
 30
0.0
 40
300.0
100
AcDbArc
 50
262.8977618504285
 51
277.1022381495714
  0
ARC
  5
243
330
1B
100
AcDbEntity
  8
4
100
AcDbCircle
 10
1067.292631716469
 20
91.2056488957843
 30
0.0
 40
3.0
100
AcDbArc
 50
174.8736196335926
 51
286.0768883126097
  0
LINE
  5
244
330
1B
100
AcDbEntity
  8
4
100
AcDbLine
 10
1064.304631624229
 20
91.47370756245436
 30
0.0
 11
1067.476228107633
 21
126.8269035724134
 31
0.0
  0
LINE
  5
245
330
1B
100
AcDbEntity
  8
4
100
AcDbLine
 10
958.6327051317254
 20
154.3824687892766
 30
0.0
 11
993.9859011416853
 21
151.2108723058727
 31
0.0
  0
ARC
  5
246
330
1B
100
AcDbEntity
  8
4
100
AcDbCircle
 10
1300.923048991388
 20
175.7640514221176
 30
0.0
 40
300.0
100
AcDbArc
 50
172.8977618504285
 51
187.1022381495714
  0
ARC
  5
247
330
1B
100
AcDbEntity
  8
4
100
AcDbCircle
 10
787.9230489913886
 20
175.7640514221176
 30
0.0
 40
300.0
100
AcDbArc
 50
352.3809649835721
 51
7.619035016427832
  0
ARC
  5
248
330
1B
100
AcDbEntity
  8
4
100
AcDbCircle
 10
784.9230489913886
 20
175.7640514221176
 30
0.0
 40
300.0
100
AcDbArc
 50
352.8977618504284
 51
7.102238149571463
  0
CIRCLE
  5
249
330
1B
100
AcDbEntity
  8
4
100
AcDbCircle
 10
1042.923048991388
 20
175.7640514221176
 30
0.0
 40
25.0
  0
ARC
  5
24A
330
1B
100
AcDbEntity
  8
4
100
AcDbCircle
 10
1297.923048991388
 20
175.7640514221176
 30
0.0
 40
300.0
100
AcDbArc
 50
172.3809649835721
 51
187.6190350164278
  0
CIRCLE
  5
24B
330
1B
100
AcDbEntity
  8
4
100
AcDbCircle
 10
1042.923048991388
 20
175.7640514221176
 30
0.0
 40
91.0
  0
CIRCLE
  5
24C
330
1B
100
AcDbEntity
  8
L-CENTER
 48
2.5
100
AcDbCircle
 10
1042.923048991388
 20
175.7640514221176
 30
0.0
 40
98.99999999999983
  0
CIRCLE
  5
24D
330
1B
100
AcDbEntity
  8
4
100
AcDbCircle
 10
1042.923048991388
 20
175.7640514221176
 30
0.0
 40
105.0
  0
LINE
  5
24E
330
1B
100
AcDbEntity
  8
4
100
AcDbLine
 10
863.9230489913886
 20
288.2640519221177
 30
0.0
 11
862.9230489913886
 21
287.2640519221177
 31
0.0
  0
LINE
  5
24F
330
1B
100
AcDbEntity
  8
4
100
AcDbLine
 10
907.9230489913886
 20
288.2640519221177
 30
0.0
 11
907.9230489913886
 21
291.2640519221177
 31
0.0
  0
LINE
  5
250
330
1B
100
AcDbEntity
  8
4
100
AcDbLine
 10
862.9230489913886
 20
291.2640519221177
 30
0.0
 11
907.9230489913886
 21
291.2640519221177
 31
0.0
  0
LINE
  5
251
330
1B
100
AcDbEntity
  8
4
100
AcDbLine
 10
912.9230489913886
 20
288.2640519221177
 30
0.0
 11
863.9230489913886
 21
288.2640519221177
 31
0.0
  0
LINE
  5
252
330
1B
100
AcDbEntity
  8
4
 62
     3
100
AcDbLine
 10
938.1909984913888
 20
317.7640519221175
 30
0.0
 11
932.4230484913884
 21
317.7640519221175
 31
0.0
  0
ARC
  5
253
330
1B
100
AcDbEntity
  8
4
 62
     3
100
AcDbCircle
 10
939.9230484913884
 20
317.7640519221175
 30
0.0
 40
1.0000005
100
AcDbArc
 50
90.0
 51
180.0
  0
ARC
  5
254
330
1B
100
AcDbEntity
  8
4
 62
     3
100
AcDbCircle
 10
938.1909984913888
 20
318.7640509221176
 30
0.0
 40
1.0000005
100
AcDbArc
 50
270.0
 51
330.0000000000009
  0
LINE
  5
255
330
1B
100
AcDbEntity
  8
4
100
AcDbLine
 10
932.4230489913886
 20
306.7640519221177
 30
0.0
 11
931.4230489913886
 21
306.7640519221177
 31
0.0
  0
ARC
  5
256
330
1B
100
AcDbEntity
  8
4
 62
     3
100
AcDbCircle
 10
937.9230489913886
 20
286.7640514221175
 30
0.0
 40
1.0000005
100
AcDbArc
 50
270.0
 51
0.0
  0
LINE
  5
257
330
1B
100
AcDbEntity
  8
4
 62
     3
100
AcDbLine
 10
938.9230494913887
 20
286.7640514221175
 30
0.0
 11
938.9230494913887
 21
317.7640519221175
 31
0.0
  0
LINE
  5
258
330
1B
100
AcDbEntity
  8
4
100
AcDbLine
 10
931.4230489913886
 20
290.7640519221177
 30
0.0
 11
912.9230489913886
 21
290.7640519221177
 31
0.0
  0
ARC
  5
259
330
1B
100
AcDbEntity
  8
4
 62
     3
100
AcDbCircle
 10
1082.933048491388
 20
319.7540509221176
 30
0.0
 40
0.99
100
AcDbArc
 50
270.0
 51
0.0
  0
LINE
  5
25A
330
1B
100
AcDbEntity
  8
4
 62
     3
100
AcDbLine
 10
1083.923048491388
 20
319.7640514221175
 30
0.0
 11
1083.923048491388
 21
319.7540509221176
 31
0.0
  0
LINE
  5
25B
330
1B
100
AcDbEntity
  8
4
100
AcDbLine
 10
1096.672558991389
 20
323.2640514221175
 30
0.0
 11
1096.672558991389
 21
327.2640514221175
 31
0.0
  0
LINE
  5
25C
330
1B
100
AcDbEntity
  8
4
100
AcDbLine
 10
1091.422558991389
 20
319.7640514221175
 30
0.0
 11
1091.422558991389
 21
321.2640514221175
 31
0.0
  0
LINE
  5
25D
330
1B
100
AcDbEntity
  8
4
100
AcDbLine
 10
1090.422558991389
 20
321.2640514221175
 30
0.0
 11
1090.422558991389
 21
327.2640514221175
 31
0.0
  0
LINE
  5
25E
330
1B
100
AcDbEntity
  8
4
100
AcDbLine
 10
1114.422558991389
 20
319.7640514221175
 30
0.0
 11
1114.422558991389
 21
321.2640514221175
 31
0.0
  0
LINE
  5
25F
330
1B
100
AcDbEntity
  8
4
100
AcDbLine
 10
1115.422558991389
 20
321.2640514221175
 30
0.0
 11
1115.422558991389
 21
327.2640514221175
 31
0.0
  0
LINE
  5
260
330
1B
100
AcDbEntity
  8
4
100
AcDbLine
 10
1109.172558991389
 20
323.2640514221175
 30
0.0
 11
1109.172558991389
 21
327.2640514221175
 31
0.0
  0
ARC
  5
261
330
1B
100
AcDbEntity
  8
4
 62
     3
100
AcDbCircle
 10
1122.913049491388
 20
319.7540509221176
 30
0.0
 40
0.99
100
AcDbArc
 50
180.0
 51
270.0
  0
LINE
  5
262
330
1B
100
AcDbEntity
  8
4
 62
     3
100
AcDbLine
 10
1121.923049491389
 20
319.7640514221175
 30
0.0
 11
1121.923049491389
 21
319.7540509221176
 31
0.0
  0
LINE
  5
263
330
1B
100
AcDbEntity
  8
4
100
AcDbLine
 10
1115.422558991389
 20
327.2640514221175
 30
0.0
 11
1090.422558991389
 21
327.2640514221175
 31
0.0
  0
LINE
  5
264
330
1B
100
AcDbEntity
  8
4
100
AcDbLine
 10
1115.422558991389
 20
323.2640514221175
 30
0.0
 11
1090.422558991389
 21
323.2640514221175
 31
0.0
  0
LINE
  5
265
330
1B
100
AcDbEntity
  8
4
100
AcDbLine
 10
1115.422558991389
 20
321.2640514221175
 30
0.0
 11
1090.422558991389
 21
321.2640514221175
 31
0.0
  0
LINE
  5
266
330
1B
100
AcDbEntity
  8
L-CENTER
 48
2.5
100
AcDbLine
 10
1102.923048991388
 20
310.6047344777621
 30
0.0
 11
1102.923048991388
 21
333.4001503667573
 31
0.0
  0
ARC
  5
267
330
1B
100
AcDbEntity
  8
4
 62
     3
100
AcDbCircle
 10
1147.655099491388
 20
318.7640509221176
 30
0.0
 40
1.0000005
100
AcDbArc
 50
209.9999999999959
 51
270.0
  0
LINE
  5
268
330
1B
100
AcDbEntity
  8
4
 62
     3
100
AcDbLine
 10
1153.423049491389
 20
317.7640519221175
 30
0.0
 11
1147.655099491388
 21
317.7640519221175
 31
0.0
  0
ARC
  5
269
330
1B
100
AcDbEntity
  8
4
 62
     3
100
AcDbCircle
 10
1147.923048991388
 20
286.7640514221175
 30
0.0
 40
1.0000005
100
AcDbArc
 50
180.0
 51
270.0
  0
LINE
  5
26A
330
1B
100
AcDbEntity
  8
4
100
AcDbLine
 10
1153.423049491389
 20
306.7640519221177
 30
0.0
 11
1154.423049491389
 21
306.7640519221177
 31
0.0
  0
LINE
  5
26B
330
1B
100
AcDbEntity
  8
4
 62
     3
100
AcDbLine
 10
1146.923048491388
 20
286.7640514221175
 30
0.0
 11
1146.923048491388
 21
317.7640519221175
 31
0.0
  0
ARC
  5
26C
330
1B
100
AcDbEntity
  8
4
 62
     3
100
AcDbCircle
 10
1145.923049491389
 20
317.7640519221175
 30
0.0
 40
1.0000005
100
AcDbArc
 50
29.91501546532378
 51
90.0
  0
LINE
  5
26D
330
1B
100
AcDbEntity
  8
4
 62
     3
100
AcDbLine
 10
1083.923048491388
 20
319.7640514221175
 30
0.0
 11
1121.923049491389
 21
319.7640514221175
 31
0.0
  0
LINE
  5
26E
330
1B
100
AcDbEntity
  8
4
 62
     3
100
AcDbLine
 10
1145.924781541921
 20
318.7640509221176
 30
0.0
 11
939.9230484913884
 21
318.7640509221176
 31
0.0
  0
LINE
  5
26F
330
1B
100
AcDbEntity
  8
4
100
AcDbLine
 10
862.9230489913886
 20
264.2640519221177
 30
0.0
 11
863.9230489913886
 21
263.2640519221177
 31
0.0
  0
LINE
  5
270
330
1B
100
AcDbEntity
  8
4
100
AcDbLine
 10
912.9230489913886
 20
263.2640519221177
 30
0.0
 11
863.9230489913886
 21
263.2640519221177
 31
0.0
  0
ARC
  5
271
330
1B
100
AcDbEntity
  8
4
 62
     3
100
AcDbCircle
 10
937.9230489913886
 20
264.7640509221173
 30
0.0
 40
1.0000005
100
AcDbArc
 50
0.0
 51
90.0
  0
LINE
  5
272
330
1B
100
AcDbEntity
  8
4
100
AcDbLine
 10
932.4230489913886
 20
244.7640519221177
 30
0.0
 11
931.4230489913886
 21
244.7640519221177
 31
0.0
  0
ARC
  5
273
330
1B
100
AcDbEntity
  8
4
 62
     3
100
AcDbCircle
 10
952.6663884913884
 20
266.0207119221175
 30
0.0
 40
4.0000005
100
AcDbArc
 50
106.0729439999987
 51
163.9270559999993
  0
LINE
  5
274
330
1B
100
AcDbEntity
  8
4
 62
     3
100
AcDbLine
 10
936.9230484913884
 20
233.7640519221177
 30
0.0
 11
932.4230484913884
 21
233.7640519221177
 31
0.0
  0
ARC
  5
275
330
1B
100
AcDbEntity
  8
4
 62
     3
100
AcDbCircle
 10
936.9230484913884
 20
231.7640509221173
 30
0.0
 40
1.9999995
100
AcDbArc
 50
0.0
 51
90.0
  0
LINE
  5
276
330
1B
100
AcDbEntity
  8
4
 62
     3
100
AcDbLine
 10
938.9230494913887
 20
220.1599969221174
 30
0.0
 11
938.9230494913887
 21
264.7640509221173
 31
0.0
  0
LINE
  5
277
330
1B
100
AcDbEntity
  8
4
100
AcDbLine
 10
931.4230489913886
 20
260.7640519221177
 30
0.0
 11
912.9230489913886
 21
260.7640519221177
 31
0.0
  0
ARC
  5
278
330
1B
100
AcDbEntity
  8
4
 62
     3
100
AcDbCircle
 10
914.9230494913887
 20
78.76405092211758
 30
0.0
 40
1.9999995
100
AcDbArc
 50
90.0
 51
180.0
  0
LINE
  5
279
330
1B
100
AcDbEntity
  8
4
 62
     3
100
AcDbLine
 10
912.9230484913884
 20
78.76405092211758
 30
0.0
 11
912.9230484913884
 21
55.76405142211752
 31
0.0
  0
ARC
  5
27A
330
1B
100
AcDbEntity
  8
4
 62
     3
100
AcDbCircle
 10
930.9230484913884
 20
85.76405142211752
 30
0.0
 40
4.9999995
100
AcDbArc
 50
270.0
 51
0.0
  0
ARC
  5
27B
330
1B
100
AcDbEntity
  8
4
 62
     3
100
AcDbCircle
 10
960.9230484913884
 20
78.76405092211758
 30
0.0
 40
1.9999995
100
AcDbArc
 50
0.0
 51
90.0
  0
ARC
  5
27C
330
1B
100
AcDbEntity
  8
4
 62
     3
100
AcDbCircle
 10
962.9230494913887
 20
78.76405092211758
 30
0.0
 40
1.9999995
100
AcDbArc
 50
0.0
 51
90.0
  0
ARC
  5
27D
330
1B
100
AcDbEntity
  8
4
 62
     3
100
AcDbCircle
 10
943.2389934913887
 20
85.76405142211752
 30
0.0
 40
4.9999995
100
AcDbArc
 50
270.0
 51
15.58434900000201
  0
LINE
  5
27F
330
1B
100
AcDbEntity
  8
4
 62
     3
100
AcDbLine
 10
962.9230494913887
 20
78.76405092211758
 30
0.0
 11
962.9230494913887
 21
55.76405142211752
 31
0.0
  0
LINE
  5
280
330
1B
100
AcDbEntity
  8
4
 62
     3
100
AcDbLine
 10
964.9230489913886
 20
78.76405092211758
 30
0.0
 11
964.9230489913886
 21
55.76405142211752
 31
0.0
  0
ARC
  5
281
330
1B
100
AcDbEntity
  8
4
 62
     3
100
AcDbCircle
 10
969.9230484913884
 20
71.81451342211767
 30
0.0
 40
4.9999995
100
AcDbArc
 50
77.41366699999448
 51
180.0
  0
ARC
  5
282
330
1B
100
AcDbEntity
  8
4
 62
     3
100
AcDbCircle
 10
969.9230484913884
 20
60.76405092211758
 30
0.0
 40
4.9999995
100
AcDbArc
 50
90.0
 51
180.0
  0
LINE
  5
283
330
1B
100
AcDbEntity
  8
4
 62
     3
100
AcDbLine
 10
964.9230489913886
 20
55.76405142211752
 30
0.0
 11
912.9230484913884
 21
55.76405142211752
 31
0.0
  0
LINE
  5
284
330
1B
100
AcDbEntity
  8
4
 62
     3
100
AcDbLine
 10
962.9230494913887
 20
80.76405192211746
 30
0.0
 11
914.9230494913887
 21
80.76405192211746
 31
0.0
  0
ARC
  5
285
330
1B
100
AcDbEntity
  8
4
 62
     3
100
AcDbCircle
 10
1265.923049491389
 20
175.7640514221175
 30
0.0
 40
330.0
100
AcDbArc
 50
163.927056
 51
195.584349
  0
LINE
  5
286
330
1B
100
AcDbEntity
  8
4
 62
     3
100
AcDbLine
 10
935.9230494913887
 20
175.7640514221175
 30
0.0
 11
935.9230494913887
 21
85.76405142211752
 31
0.0
  0
ARC
  5
287
330
1B
100
AcDbEntity
  8
4
 62
     3
100
AcDbCircle
 10
1133.179709491389
 20
266.0207119221175
 30
0.0
 40
4.0000005
100
AcDbArc
 50
16.07294400000068
 51
73.92705600000133
  0
ARC
  5
288
330
1B
100
AcDbEntity
  8
4
 62
     3
100
AcDbCircle
 10
1147.923048991388
 20
264.7640509221173
 30
0.0
 40
1.0000005
100
AcDbArc
 50
90.0
 51
180.0
  0
LINE
  5
289
330
1B
100
AcDbEntity
  8
4
100
AcDbLine
 10
1153.423049491389
 20
244.7640519221177
 30
0.0
 11
1154.423049491389
 21
244.7640519221177
 31
0.0
  0
ARC
  5
28A
330
1B
100
AcDbEntity
  8
4
 62
     3
100
AcDbCircle
 10
1148.923049491389
 20
231.7640509221173
 30
0.0
 40
1.9999995
100
AcDbArc
 50
90.0
 51
180.0
  0
LINE
  5
28B
330
1B
100
AcDbEntity
  8
4
 62
     3
100
AcDbLine
 10
1148.923049491389
 20
233.7640519221177
 30
0.0
 11
1153.423049491389
 21
233.7640519221177
 31
0.0
  0
LINE
  5
28C
330
1B
100
AcDbEntity
  8
4
 62
     3
100
AcDbLine
 10
1146.923048491388
 20
220.1599969221174
 30
0.0
 11
1146.923048491388
 21
264.7640509221173
 31
0.0
  0
LINE
  5
28D
330
1B
100
AcDbEntity
  8
4
100
AcDbLine
 10
1153.423049491389
 20
152.7640509221176
 30
0.0
 11
1151.923049491389
 21
152.7640509221176
 31
0.0
  0
ARC
  5
28E
330
1B
100
AcDbEntity
  8
4
 62
     3
100
AcDbCircle
 10
1151.923049491389
 20
158.7640519221175
 30
0.0
 40
1.9999995
100
AcDbArc
 50
180.0
 51
270.0
  0
LINE
  5
28F
330
1B
100
AcDbEntity
  8
4
100
AcDbLine
 10
1160.423049491389
 20
153.7640509221176
 30
0.0
 11
1153.423049491389
 21
153.7640509221176
 31
0.0
  0
LINE
  5
290
330
1B
100
AcDbEntity
  8
4
 62
     3
100
AcDbLine
 10
1149.923048491388
 20
175.7640514221175
 30
0.0
 11
1149.923048491388
 21
158.7640519221175
 31
0.0
  0
LINE
  5
291
330
1B
100
AcDbEntity
  8
4
100
AcDbLine
 10
1155.423049491389
 20
146.2640509221176
 30
0.0
 11
1160.423049491389
 21
146.2640509221176
 31
0.0
  0
LINE
  5
292
330
1B
100
AcDbEntity
  8
4
100
AcDbLine
 10
1155.423049491389
 20
131.2640509221176
 30
0.0
 11
1160.423049491389
 21
131.2640509221176
 31
0.0
  0
LINE
  5
293
330
1B
100
AcDbEntity
  8
4
100
AcDbLine
 10
1153.423049491389
 20
124.7640509221176
 30
0.0
 11
1151.923049491389
 21
124.7640509221176
 31
0.0
  0
LINE
  5
294
330
1B
100
AcDbEntity
  8
4
100
AcDbLine
 10
1153.423049491389
 20
123.7640509221176
 30
0.0
 11
1160.423049491389
 21
123.7640509221176
 31
0.0
  0
LINE
  5
295
330
1B
100
AcDbEntity
  8
L-CENTER
 48
2.5
100
AcDbLine
 10
1139.977323991388
 20
138.7640509221176
 30
0.0
 11
1163.548550740688
 21
138.7640509221176
 31
0.0
  0
LINE
  5
296
330
1B
100
AcDbEntity
  8
4
100
AcDbLine
 10
1151.923049491389
 20
124.7640509221176
 30
0.0
 11
1151.923049491389
 21
152.7640509221176
 31
0.0
  0
LINE
  5
297
330
1B
100
AcDbEntity
  8
4
100
AcDbLine
 10
1153.423049491389
 20
123.7640509221176
 30
0.0
 11
1153.423049491389
 21
153.7640509221176
 31
0.0
  0
LINE
  5
298
330
1B
100
AcDbEntity
  8
4
100
AcDbLine
 10
1155.423049491389
 20
123.7640509221176
 30
0.0
 11
1155.423049491389
 21
153.7640509221176
 31
0.0
  0
LINE
  5
299
330
1B
100
AcDbEntity
  8
4
100
AcDbLine
 10
1160.423049491389
 20
123.7640509221176
 30
0.0
 11
1160.423049491389
 21
153.7640509221176
 31
0.0
  0
ARC
  5
29A
330
1B
100
AcDbEntity
  8
4
 62
     3
100
AcDbCircle
 10
1122.923048491388
 20
78.76405092211758
 30
0.0
 40
1.9999995
100
AcDbArc
 50
90.0
 51
180.0
  0
ARC
  5
29B
330
1B
100
AcDbEntity
  8
4
 62
     3
100
AcDbCircle
 10
1124.923049491389
 20
78.76405092211758
 30
0.0
 40
1.9999995
100
AcDbArc
 50
90.0
 51
180.0
  0
ARC
  5
29C
330
1B
100
AcDbEntity
  8
4
 62
     3
100
AcDbCircle
 10
1115.923049491389
 20
71.81451342211767
 30
0.0
 40
4.9999995
100
AcDbArc
 50
0.0
 51
102.5863330000055
  0
LINE
  5
29D
330
1B
100
AcDbEntity
  8
4
 62
     3
100
AcDbLine
 10
1120.923048991388
 20
78.76405092211758
 30
0.0
 11
1120.923048991388
 21
55.76405142211752
 31
0.0
  0
LINE
  5
29E
330
1B
100
AcDbEntity
  8
4
 62
     3
100
AcDbLine
 10
1122.923048491388
 20
78.76405092211758
 30
0.0
 11
1122.923048491388
 21
55.76405142211752
 31
0.0
  0
ARC
  5
29F
330
1B
100
AcDbEntity
  8
4
 62
     3
100
AcDbCircle
 10
1115.923049491389
 20
60.76405092211758
 30
0.0
 40
4.9999995
100
AcDbArc
 50
0.0
 51
90.0
  0
ARC
  5
2A0
330
1B
100
AcDbEntity
  8
4
 62
     3
100
AcDbCircle
 10
1142.607104491388
 20
85.76405142211752
 30
0.0
 40
4.9999995
100
AcDbArc
 50
164.4156509999977
 51
270.0
  0
LINE
  5
2A1
330
1B
100
AcDbEntity
  8
4
 62
     3
100
AcDbLine
 10
1152.923048491388
 20
105.7640509221176
 30
0.0
 11
1152.923048491388
 21
85.76405142211752
 31
0.0
  0
LINE
  5
2A2
330
1B
100
AcDbEntity
  8
4
 62
     3
100
AcDbLine
 10
1152.423048991388
 20
85.76405142211752
 30
0.0
 11
1152.923048491388
 21
85.76405142211752
 31
0.0
  0
ARC
  5
2A3
330
1B
100
AcDbEntity
  8
4
 62
     3
100
AcDbCircle
 10
1152.423048991388
 20
85.26405192211746
 30
0.0
 40
0.4999995
100
AcDbArc
 50
90.0
 51
180.0
  0
LINE
  5
2A4
330
1B
100
AcDbEntity
  8
4
100
AcDbLine
 10
1153.923048491388
 20
101.7640519221175
 30
0.0
 11
1152.923048491388
 21
101.7640519221175
 31
0.0
  0
LINE
  5
2A5
330
1B
100
AcDbEntity
  8
4
 62
     3
100
AcDbLine
 10
1152.923048491388
 20
105.7640509221176
 30
0.0
 11
1152.423048991388
 21
105.7640509221176
 31
0.0
  0
LINE
  5
2A6
330
1B
100
AcDbEntity
  8
4
100
AcDbLine
 10
1153.923048491388
 20
89.76405192211746
 30
0.0
 11
1152.923048491388
 21
89.76405192211746
 31
0.0
  0
LINE
  5
2A7
330
1B
100
AcDbEntity
  8
4
100
AcDbLine
 10
1153.923048491388
 20
89.76405192211746
 30
0.0
 11
1153.923048491388
 21
101.7640519221175
 31
0.0
  0
ARC
  5
2A8
330
1B
100
AcDbEntity
  8
4
 62
     3
100
AcDbCircle
 10
1153.923048991388
 20
82.76405142211752
 30
0.0
 40
1.9999995
100
AcDbArc
 50
180.0
 51
270.0
  0
ARC
  5
2A9
330
1B
100
AcDbEntity
  8
4
 62
     3
100
AcDbCircle
 10
1154.923049491389
 20
85.76405142211752
 30
0.0
 40
4.9999995
100
AcDbArc
 50
180.0
 51
270.0
  0
LINE
  5
2AA
330
1B
100
AcDbEntity
  8
L-CENTER
 48
2.5
100
AcDbLine
 10
1138.588377991388
 20
95.76405192211746
 30
0.0
 11
1157.163603991388
 21
95.76405192211746
 31
0.0
  0
ARC
  5
2AC
330
1B
100
AcDbEntity
  8
4
 62
     3
100
AcDbCircle
 10
1042.923048991388
 20
398.7640519221177
 30
0.0
 40
330.0
100
AcDbArc
 50
270.0
 51
282.586333
  0
ARC
  5
2AD
330
1B
100
AcDbEntity
  8
4
 62
     3
100
AcDbCircle
 10
819.9230484913884
 20
175.7640514221175
 30
0.0
 40
330.0
100
AcDbArc
 50
344.4156509999999
 51
16.07294400000001
  0
LINE
  5
2AE
330
1B
100
AcDbEntity
  8
4
 62
     3
100
AcDbLine
 10
1151.923049491389
 20
82.76405142211752
 30
0.0
 11
1151.923049491389
 21
156.7640509221176
 31
0.0
  0
LINE
  5
2AF
330
1B
100
AcDbEntity
  8
4
 62
     3
100
AcDbLine
 10
1149.923048491388
 20
175.7640514221175
 30
0.0
 11
1149.923048491388
 21
85.76405142211752
 31
0.0
  0
ARC
  5
2B0
330
1B
100
AcDbEntity
  8
4
 62
     3
100
AcDbCircle
 10
1152.423048991388
 20
106.2640519221175
 30
0.0
 40
0.4999995
100
AcDbArc
 50
180.0
 51
270.0
  0
ARC
  5
2B1
330
1B
100
AcDbEntity
  8
4
 62
     3
100
AcDbCircle
 10
1042.923048991388
 20
-47.23594907788262
 30
0.0
 40
330.0
100
AcDbArc
 50
73.92652589377367
 51
106.072944
  0
LINE
  5
2B2
330
1B
100
AcDbEntity
  8
L-CENTER
 48
2.5
100
AcDbLine
 10
1155.849753991388
 20
175.7640514221175
 30
0.0
 11
929.9963439913887
 21
175.7640514221175
 31
0.0
  0
LINE
  5
2B3
330
1B
100
AcDbEntity
  8
L-CENTER
 48
2.5
100
AcDbLine
 10
859.1143494671848
 20
275.7640519221177
 30
0.0
 11
1229.713164797581
 21
275.7640519221177
 31
0.0
  0
LINE
  5
2B4
330
1B
100
AcDbEntity
  8
4
 62
     3
100
AcDbLine
 10
1115.923049491389
 20
65.76405192211746
 30
0.0
 11
969.9230484913884
 21
65.76405192211746
 31
0.0
  0
ARC
  5
2B5
330
1B
100
AcDbEntity
  8
4
 62
     3
100
AcDbCircle
 10
1042.923048991388
 20
398.7640519221177
 30
0.0
 40
330.0
100
AcDbArc
 50
257.413667
 51
270.0
  0
ARC
  5
2B6
330
1B
100
AcDbEntity
  8
4
 62
     3
100
AcDbCircle
 10
1170.923048491388
 20
78.76405092211758
 30
0.0
 40
1.9999995
100
AcDbArc
 50
0.0
 51
90.0
  0
LINE
  5
2B7
330
1B
100
AcDbEntity
  8
4
 62
     3
100
AcDbLine
 10
1172.923049491389
 20
78.76405092211758
 30
0.0
 11
1172.923049491389
 21
55.76405142211752
 31
0.0
  0
LINE
  5
2B8
330
1B
100
AcDbEntity
  8
4
 62
     3
100
AcDbLine
 10
1172.923049491389
 20
55.76405142211752
 30
0.0
 11
1120.923048991388
 21
55.76405142211752
 31
0.0
  0
LINE
  5
2B9
330
1B
100
AcDbEntity
  8
4
 62
     3
100
AcDbLine
 10
1170.923048491388
 20
80.76405192211746
 30
0.0
 11
1153.923048991388
 21
80.76405192211746
 31
0.0
  0
LINE
  5
2BA
330
1B
100
AcDbEntity
  8
4
 62
     3
100
AcDbLine
 10
1122.923048491388
 20
80.76405192211746
 30
0.0
 11
1170.923048491388
 21
80.76405192211746
 31
0.0
  0
LINE
  5
2BB
330
1B
100
AcDbEntity
  8
4
 62
     3
100
AcDbLine
 10
1153.423049491389
 20
317.7640519221175
 30
0.0
 11
1153.423049491389
 21
233.7640519221177
 31
0.0
  0
LINE
  5
2BC
330
1B
100
AcDbEntity
  8
4
100
AcDbLine
 10
1154.423049491389
 20
306.7640519221177
 30
0.0
 11
1154.423049491389
 21
244.7640519221177
 31
0.0
  0
LINE
  5
2BD
330
1B
100
AcDbEntity
  8
4
 62
     3
100
AcDbLine
 10
932.4230484913884
 20
317.7640519221175
 30
0.0
 11
932.4230484913884
 21
233.7640519221177
 31
0.0
  0
LINE
  5
2BE
330
1B
100
AcDbEntity
  8
L-CENTER
 48
2.5
100
AcDbLine
 10
1042.923048991388
 20
62.83734642211766
 30
0.0
 11
1042.923048991388
 21
325.7640514221175
 31
0.0
  0
LINE
  5
2BF
330
1B
100
AcDbEntity
  8
4
100
AcDbLine
 10
931.4230489913886
 20
306.7640519221177
 30
0.0
 11
931.4230489913886
 21
244.7640519221177
 31
0.0
  0
LINE
  5
2C0
330
1B
100
AcDbEntity
  8
4
100
AcDbLine
 10
912.9230489913886
 20
290.7640519221177
 30
0.0
 11
912.9230489913886
 21
260.7640519221177
 31
0.0
  0
LINE
  5
2C1
330
1B
100
AcDbEntity
  8
4
100
AcDbLine
 10
862.9230489913886
 20
264.2640519221177
 30
0.0
 11
862.9230489913886
 21
291.2640519221177
 31
0.0
  0
LINE
  5
2C2
330
1B
100
AcDbEntity
  8
4
100
AcDbLine
 10
863.9230489913886
 20
288.2640519221177
 30
0.0
 11
863.9230489913886
 21
263.2640519221177
 31
0.0
  0
LINE
  5
2CE
330
1B
100
AcDbEntity
  8
4
100
AcDbLine
 10
385.1200718046218
 20
715.496871528182
 30
0.0
 11
385.1200718046218
 21
709.496871528182
 31
0.0
  0
LINE
  5
2CF
330
1B
100
AcDbEntity
  8
4
100
AcDbLine
 10
395.1200718046218
 20
715.496871528182
 30
0.0
 11
395.1200718046218
 21
709.496871528182
 31
0.0
  0
LINE
  5
2D0
330
1B
100
AcDbEntity
  8
4
100
AcDbLine
 10
384.3700718046218
 20
709.496871528182
 30
0.0
 11
384.3700718046218
 21
707.996871528182
 31
0.0
  0
LINE
  5
2D1
330
1B
100
AcDbEntity
  8
4
100
AcDbLine
 10
395.8700718046218
 20
709.496871528182
 30
0.0
 11
395.8700718046218
 21
707.996871528182
 31
0.0
  0
LINE
  5
2D2
330
1B
100
AcDbEntity
  8
4
100
AcDbLine
 10
384.3700718046218
 20
709.496871528182
 30
0.0
 11
395.8700718046218
 21
709.496871528182
 31
0.0
  0
ARC
  5
2D3
330
1B
100
AcDbEntity
  8
4
100
AcDbCircle
 10
395.1200718046218
 20
706.996871528182
 30
0.0
 40
1.0
100
AcDbArc
 50
0.0
 51
90.0
  0
LINE
  5
2D4
330
1B
100
AcDbEntity
  8
4
100
AcDbLine
 10
385.1200718046218
 20
715.496871528182
 30
0.0
 11
395.1200718046218
 21
715.496871528182
 31
0.0
  0
ARC
  5
2D5
330
1B
100
AcDbEntity
  8
4
100
AcDbCircle
 10
417.1200718046218
 20
719.6968710281822
 30
0.0
 40
4.0000005
100
AcDbArc
 50
0.0
 51
90.0
  0
LINE
  5
2D6
330
1B
100
AcDbEntity
  8
4
100
AcDbLine
 10
396.1200718046218
 20
691.696872028182
 30
0.0
 11
396.1200718046218
 21
696.6968715281819
 31
0.0
  0
LINE
  5
2D7
330
1B
100
AcDbEntity
  8
4
100
AcDbLine
 10
401.6200718046218
 20
679.6968715281821
 30
0.0
 11
402.6200718046218
 21
679.6968715281821
 31
0.0
  0
LINE
  5
2D8
330
1B
100
AcDbEntity
  8
4
100
AcDbLine
 10
398.1200718046218
 20
690.6968715281821
 30
0.0
 11
398.1200718046218
 21
691.696872028182
 31
0.0
  0
LINE
  5
2D9
330
1B
100
AcDbEntity
  8
L-CENTER
 48
2.5
100
AcDbLine
 10
387.7476658046219
 20
703.696872028182
 30
0.0
 11
414.7627723046219
 21
703.696872028182
 31
0.0
  0
LINE
  5
2DA
330
1B
100
AcDbEntity
  8
L-CENTER
 48
2.5
100
AcDbLine
 10
390.1200718046218
 20
685.9700415257216
 30
0.0
 11
390.1200718046218
 21
716.7296354524533
 31
0.0
  0
LINE
  5
2DB
330
1B
100
AcDbEntity
  8
L-CENTER
 48
2.5
100
AcDbLine
 10
401.1200713046217
 20
690.479182528182
 30
0.0
 11
401.1200713046217
 21
717.4941510281822
 31
0.0
  0
LINE
  5
2DC
330
1B
100
AcDbEntity
  8
4
100
AcDbLine
 10
396.1200718046218
 20
706.996871528182
 30
0.0
 11
396.1200718046218
 21
696.996871528182
 31
0.0
  0
ARC
  5
2DD
330
1B
100
AcDbEntity
  8
4
100
AcDbCircle
 10
401.1200713046217
 20
703.696872028182
 30
0.0
 40
7.5
100
AcDbArc
 50
228.1896902289132
 51
134.176119687506
  0
LINE
  5
2DE
330
1B
100
AcDbEntity
  8
4
100
AcDbLine
 10
345.6200719708361
 20
715.496871528182
 30
0.0
 11
345.6200719708361
 21
709.496871528182
 31
0.0
  0
LINE
  5
2DF
330
1B
100
AcDbEntity
  8
4
100
AcDbLine
 10
335.6200719708361
 20
715.496871528182
 30
0.0
 11
335.6200719708361
 21
709.496871528182
 31
0.0
  0
LINE
  5
2E0
330
1B
100
AcDbEntity
  8
4
100
AcDbLine
 10
371.1676908522415
 20
707.996871528182
 30
0.0
 11
345.6200719708361
 21
714.9946975696103
 31
0.0
  0
LINE
  5
2E1
330
1B
100
AcDbEntity
  8
4
100
AcDbLine
 10
371.0162488046219
 20
719.803500028182
 30
0.0
 11
370.7459592477433
 21
709.6676429281388
 31
0.0
  0
LINE
  5
2E2
330
1B
100
AcDbEntity
  8
4
100
AcDbLine
 10
334.8700719708361
 20
709.496871528182
 30
0.0
 11
334.8700719708361
 21
707.996871528182
 31
0.0
  0
LINE
  5
2E3
330
1B
100
AcDbEntity
  8
4
100
AcDbLine
 10
346.3700719708361
 20
709.496871528182
 30
0.0
 11
346.3700719708361
 21
707.996871528182
 31
0.0
  0
LINE
  5
2E4
330
1B
100
AcDbEntity
  8
4
100
AcDbLine
 10
334.8700719708361
 20
709.496871528182
 30
0.0
 11
346.3700719708361
 21
709.496871528182
 31
0.0
  0
LINE
  5
2E5
330
1B
100
AcDbEntity
  8
4
100
AcDbLine
 10
343.7867384712886
 20
715.496871528182
 30
0.0
 11
337.2209153956094
 21
717.2953361097814
 31
0.0
  0
LINE
  5
2E6
330
1B
100
AcDbEntity
  8
4
100
AcDbLine
 10
335.6200719708361
 20
715.496871528182
 30
0.0
 11
345.6200719708361
 21
715.496871528182
 31
0.0
  0
ARC
  5
2E7
330
1B
100
AcDbEntity
  8
4
100
AcDbCircle
 10
332.3562759636227
 20
727.5968715281824
 30
0.0
 40
1.0
100
AcDbArc
 50
15.2551187030612
 51
90.0
  0
LINE
  5
2E8
330
1B
100
AcDbEntity
  8
4
100
AcDbLine
 10
316.1200718046218
 20
729.5968715281824
 30
0.0
 11
316.1200718046218
 21
728.5968715281824
 31
0.0
  0
ARC
  5
2E9
330
1B
100
AcDbEntity
  8
4
100
AcDbCircle
 10
337.7492788237716
 20
719.2242819586274
 30
0.0
 40
2.0
100
AcDbArc
 50
195.2551187030549
 51
254.6816642065432
  0
LINE
  5
2EA
330
1B
100
AcDbEntity
  8
4
100
AcDbLine
 10
333.3210397848604
 20
727.8599889339744
 30
0.0
 11
335.8197511812962
 21
718.6980471470433
 31
0.0
  0
ARC
  5
2EB
330
1B
100
AcDbEntity
  8
4
100
AcDbCircle
 10
375.0148273046218
 20
719.6968710281822
 30
0.0
 40
4.0000005
100
AcDbArc
 50
90.0
 51
178.4724749999995
  0
LINE
  5
2EC
330
1B
100
AcDbEntity
  8
4
100
AcDbLine
 10
246.6200716384076
 20
715.496871528182
 30
0.0
 11
246.6200716384076
 21
709.496871528182
 31
0.0
  0
LINE
  5
2ED
330
1B
100
AcDbEntity
  8
4
100
AcDbLine
 10
236.6200716384076
 20
715.496871528182
 30
0.0
 11
236.6200716384076
 21
709.496871528182
 31
0.0
  0
LINE
  5
2EE
330
1B
100
AcDbEntity
  8
4
100
AcDbLine
 10
247.3700716384076
 20
709.496871528182
 30
0.0
 11
235.8700716384076
 21
709.496871528182
 31
0.0
  0
LINE
  5
2EF
330
1B
100
AcDbEntity
  8
4
100
AcDbLine
 10
235.8700716384076
 20
709.496871528182
 30
0.0
 11
235.8700716384076
 21
707.996871528182
 31
0.0
  0
LINE
  5
2F0
330
1B
100
AcDbEntity
  8
4
100
AcDbLine
 10
247.3700716384076
 20
709.496871528182
 30
0.0
 11
247.3700716384076
 21
707.996871528182
 31
0.0
  0
ARC
  5
2F1
330
1B
100
AcDbEntity
  8
4
100
AcDbCircle
 10
245.7638728199165
 20
720.0913933345937
 30
0.0
 40
1.0
100
AcDbArc
 50
285.3183357934568
 51
344.7448812969518
  0
LINE
  5
2F2
330
1B
100
AcDbEntity
  8
4
100
AcDbLine
 10
248.9191038243832
 20
727.8599889339746
 30
0.0
 11
246.7286366411543
 21
719.8282759288015
 31
0.0
  0
LINE
  5
2F3
330
1B
100
AcDbEntity
  8
4
100
AcDbLine
 10
238.4534051379546
 20
715.496871528182
 30
0.0
 11
245.0192282136343
 21
717.2953361097814
 31
0.0
  0
LINE
  5
2F4
330
1B
100
AcDbEntity
  8
4
100
AcDbLine
 10
246.6200716384076
 20
715.496871528182
 30
0.0
 11
236.6200716384076
 21
715.496871528182
 31
0.0
  0
LINE
  5
2F5
330
1B
100
AcDbEntity
  8
4
100
AcDbLine
 10
246.4203924279475
 20
718.6980471470433
 30
0.0
 11
246.6884347884804
 21
719.6808691356637
 31
0.0
  0
ARC
  5
2F6
330
1B
100
AcDbEntity
  8
4
100
AcDbCircle
 10
244.490864785472
 20
719.2242819586274
 30
0.0
 40
2.0
100
AcDbArc
 50
285.3183357934568
 51
344.7448812969451
  0
ARC
  5
2F7
330
1B
100
AcDbEntity
  8
4
100
AcDbCircle
 10
249.883867645621
 20
727.5968715281824
 30
0.0
 40
1.0
100
AcDbArc
 50
90.0
 51
164.7448812969384
  0
LINE
  5
2F8
330
1B
100
AcDbEntity
  8
4
100
AcDbLine
 10
266.1200718046218
 20
729.5968715281824
 30
0.0
 11
266.1200718046218
 21
728.5968715281824
 31
0.0
  0
LINE
  5
2F9
330
1B
100
AcDbEntity
  8
4
100
AcDbLine
 10
249.883867645621
 20
728.5968715281824
 30
0.0
 11
332.3562759636227
 21
728.5968715281824
 31
0.0
  0
LINE
  5
2FA
330
1B
100
AcDbEntity
  8
4
100
AcDbLine
 10
266.1200718046218
 20
729.5968715281824
 30
0.0
 11
316.1200718046218
 21
729.5968715281824
 31
0.0
  0
LINE
  5
2FB
330
1B
100
AcDbEntity
  8
4
100
AcDbLine
 10
249.883867645621
 20
717.5968715281824
 30
0.0
 11
332.3562759636227
 21
717.5968715281824
 31
0.0
  0
LINE
  5
2FC
330
1B
100
AcDbEntity
  8
L-CENTER
 48
2.5
100
AcDbLine
 10
340.6200719708361
 20
685.9700415257216
 30
0.0
 11
340.6200719708361
 21
716.7296354524533
 31
0.0
  0
LINE
  5
2FD
330
1B
100
AcDbEntity
  8
L-CENTER
 48
2.5
100
AcDbLine
 10
241.6200716384076
 20
685.9700415257216
 30
0.0
 11
241.6200716384076
 21
716.7296354524533
 31
0.0
  0
LINE
  5
2FF
330
1B
100
AcDbEntity
  8
4
100
AcDbLine
 10
375.0148273046218
 20
723.6968715281821
 30
0.0
 11
417.1200718046218
 21
723.6968715281821
 31
0.0
  0
LINE
  5
300
330
1B
100
AcDbEntity
  8
4
100
AcDbLine
 10
335.6616672797522
 20
719.2776881193711
 30
0.0
 11
376.8456008666319
 21
707.996871528182
 31
0.0
  0
LINE
  5
307
330
1B
100
AcDbEntity
  8
4
100
AcDbLine
 10
470.1200718046218
 20
661.1968715281821
 30
0.0
 11
471.1200718046218
 21
660.1968715281821
 31
0.0
  0
LINE
  5
308
330
1B
100
AcDbEntity
  8
4
100
AcDbLine
 10
470.1200718046218
 20
661.1968715281821
 30
0.0
 11
471.1200718046218
 21
660.1968715281821
 31
0.0
  0
LINE
  5
309
330
1B
100
AcDbEntity
  8
4
100
AcDbLine
 10
470.1200718046218
 20
661.1968715281821
 30
0.0
 11
470.1200718046218
 21
652.1968715281821
 31
0.0
  0
LINE
  5
30A
330
1B
100
AcDbEntity
  8
4
100
AcDbLine
 10
470.1200718046218
 20
661.1968715281821
 30
0.0
 11
470.1200718046218
 21
652.1968715281821
 31
0.0
  0
LINE
  5
30B
330
1B
100
AcDbEntity
  8
4
100
AcDbLine
 10
402.6200718046218
 20
663.6968715281821
 30
0.0
 11
421.1200718046218
 21
663.6968715281821
 31
0.0
  0
LINE
  5
30C
330
1B
100
AcDbEntity
  8
4
100
AcDbLine
 10
402.6200718046218
 20
663.6968715281821
 30
0.0
 11
421.1200718046218
 21
663.6968715281821
 31
0.0
  0
ARC
  5
30D
330
1B
100
AcDbEntity
  8
4
100
AcDbCircle
 10
429.6200718046218
 20
648.6968715281821
 30
0.0
 40
3.5
100
AcDbArc
 50
90.0
 51
270.0
  0
ARC
  5
30E
330
1B
100
AcDbEntity
  8
4
100
AcDbCircle
 10
429.6200718046218
 20
648.6968715281821
 30
0.0
 40
3.5
100
AcDbArc
 50
90.0
 51
270.0
  0
ARC
  5
30F
330
1B
100
AcDbEntity
  8
4
100
AcDbCircle
 10
422.1200718046218
 20
662.1968715281821
 30
0.0
 40
1.0
100
AcDbArc
 50
180.0
 51
270.0
  0
ARC
  5
310
330
1B
100
AcDbEntity
  8
4
100
AcDbCircle
 10
422.1200718046218
 20
662.1968715281821
 30
0.0
 40
1.0
100
AcDbArc
 50
180.0
 51
270.0
  0
LINE
  5
311
330
1B
100
AcDbEntity
  8
4
100
AcDbLine
 10
429.6200718046218
 20
645.1968715281821
 30
0.0
 11
471.1200718046218
 21
645.1968715281821
 31
0.0
  0
LINE
  5
312
330
1B
100
AcDbEntity
  8
4
100
AcDbLine
 10
429.6200718046218
 20
645.1968715281821
 30
0.0
 11
471.1200718046218
 21
645.1968715281821
 31
0.0
  0
LINE
  5
313
330
1B
100
AcDbEntity
  8
4
100
AcDbLine
 10
429.6200718046218
 20
652.1968715281821
 30
0.0
 11
471.1200718046218
 21
652.1968715281821
 31
0.0
  0
LINE
  5
314
330
1B
100
AcDbEntity
  8
4
100
AcDbLine
 10
429.6200718046218
 20
652.1968715281821
 30
0.0
 11
471.1200718046218
 21
652.1968715281821
 31
0.0
  0
LINE
  5
315
330
1B
100
AcDbEntity
  8
4
100
AcDbLine
 10
422.1200718046218
 20
661.1968715281821
 30
0.0
 11
470.1200718046218
 21
661.1968715281821
 31
0.0
  0
LINE
  5
316
330
1B
100
AcDbEntity
  8
4
100
AcDbLine
 10
422.1200718046218
 20
661.1968715281821
 30
0.0
 11
470.1200718046218
 21
661.1968715281821
 31
0.0
  0
LINE
  5
317
330
1B
100
AcDbEntity
  8
4
100
AcDbLine
 10
470.1200718046218
 20
636.1968715281821
 30
0.0
 11
471.1200718046218
 21
637.1968715281821
 31
0.0
  0
LINE
  5
318
330
1B
100
AcDbEntity
  8
4
100
AcDbLine
 10
470.1200718046218
 20
636.1968715281821
 30
0.0
 11
471.1200718046218
 21
637.1968715281821
 31
0.0
  0
LINE
  5
319
330
1B
100
AcDbEntity
  8
4
100
AcDbLine
 10
401.6200718046218
 20
617.6968715281821
 30
0.0
 11
402.6200718046218
 21
617.6968715281821
 31
0.0
  0
LINE
  5
31A
330
1B
100
AcDbEntity
  8
4
100
AcDbLine
 10
402.6200718046218
 20
633.6968715281821
 30
0.0
 11
421.1200718046218
 21
633.6968715281821
 31
0.0
  0
LINE
  5
31B
330
1B
100
AcDbEntity
  8
4
100
AcDbLine
 10
402.6200718046218
 20
633.6968715281821
 30
0.0
 11
421.1200718046218
 21
633.6968715281821
 31
0.0
  0
ARC
  5
31C
330
1B
100
AcDbEntity
  8
4
100
AcDbCircle
 10
422.1200718046218
 20
635.1968715281821
 30
0.0
 40
1.0
100
AcDbArc
 50
90.0
 51
180.0
  0
ARC
  5
31D
330
1B
100
AcDbEntity
  8
4
100
AcDbCircle
 10
422.1200718046218
 20
635.1968715281821
 30
0.0
 40
1.0
100
AcDbArc
 50
90.0
 51
180.0
  0
LINE
  5
31E
330
1B
100
AcDbEntity
  8
4
100
AcDbLine
 10
422.1200718046218
 20
636.1968715281821
 30
0.0
 11
470.1200718046218
 21
636.1968715281821
 31
0.0
  0
LINE
  5
31F
330
1B
100
AcDbEntity
  8
4
100
AcDbLine
 10
422.1200718046218
 20
636.1968715281821
 30
0.0
 11
470.1200718046218
 21
636.1968715281821
 31
0.0
  0
LINE
  5
320
330
1B
100
AcDbEntity
  8
4
100
AcDbLine
 10
471.1200718046218
 20
660.1968715281821
 30
0.0
 11
471.1200718046218
 21
637.1968715281821
 31
0.0
  0
LINE
  5
321
330
1B
100
AcDbEntity
  8
4
100
AcDbLine
 10
471.1200718046218
 20
660.1968715281821
 30
0.0
 11
471.1200718046218
 21
637.1968715281821
 31
0.0
  0
LINE
  5
322
330
1B
100
AcDbEntity
  8
4
100
AcDbLine
 10
421.1200718046218
 20
663.6968715281821
 30
0.0
 11
421.1200718046218
 21
633.6968715281821
 31
0.0
  0
LINE
  5
323
330
1B
100
AcDbEntity
  8
4
100
AcDbLine
 10
421.1200718046218
 20
663.6968715281821
 30
0.0
 11
421.1200718046218
 21
633.6968715281821
 31
0.0
  0
LINE
  5
324
330
1B
100
AcDbEntity
  8
4
100
AcDbLine
 10
470.1200718046218
 20
645.1968715281821
 30
0.0
 11
470.1200718046218
 21
636.1968715281821
 31
0.0
  0
LINE
  5
325
330
1B
100
AcDbEntity
  8
4
100
AcDbLine
 10
470.1200718046218
 20
645.1968715281821
 30
0.0
 11
470.1200718046218
 21
636.1968715281821
 31
0.0
  0
LINE
  5
326
330
1B
100
AcDbEntity
  8
L-CENTER
 48
2.5
100
AcDbLine
 10
231.1200718046218
 20
623.1987936558476
 30
0.0
 11
231.1200718046218
 21
672.9155961887841
 31
0.0
  0
LINE
  5
327
330
1B
100
AcDbEntity
  8
4
100
AcDbLine
 10
396.1200718046218
 20
597.6968715281821
 30
0.0
 11
396.1200718046218
 21
605.6968710281822
 31
0.0
  0
LINE
  5
328
330
1B
100
AcDbEntity
  8
L-CENTER
 48
2.5
100
AcDbLine
 10
387.3825538046219
 20
593.6968710281822
 30
0.0
 11
414.7627723046219
 21
593.6968710281822
 31
0.0
  0
ARC
  5
329
330
1B
100
AcDbEntity
  8
4
100
AcDbCircle
 10
401.1200713046217
 20
593.6968710281822
 30
0.0
 40
7.5
100
AcDbArc
 50
147.7690428489584
 51
131.8103097710868
  0
LINE
  5
32A
330
1B
100
AcDbEntity
  8
4
100
AcDbLine
 10
398.1200718046218
 20
605.6968710281822
 30
0.0
 11
398.1200718046218
 21
606.6968715281819
 31
0.0
  0
ARC
  5
32B
330
1B
100
AcDbEntity
  8
4
100
AcDbCircle
 10
417.1200718046218
 20
577.6968720281823
 30
0.0
 40
4.0000005
100
AcDbArc
 50
270.0
 51
0.0
  0
LINE
  5
32C
330
1B
100
AcDbEntity
  8
L-CENTER
 48
2.5
100
AcDbLine
 10
401.1200713046217
 20
579.8638515281821
 30
0.0
 11
401.1200713046217
 21
607.2438990281821
 31
0.0
  0
LINE
  5
32D
330
1B
100
AcDbEntity
  8
4
100
AcDbLine
 10
331.120072304622
 20
571.6968720281823
 30
0.0
 11
333.1200718046218
 21
581.6968710281822
 31
0.0
  0
ARC
  5
32E
330
1B
100
AcDbEntity
  8
4
100
AcDbCircle
 10
375.0148273046218
 20
577.6968720281823
 30
0.0
 40
4.0000005
100
AcDbArc
 50
181.5275250000005
 51
270.0
  0
LINE
  5
32F
330
1B
100
AcDbEntity
  8
4
100
AcDbLine
 10
251.1200713046217
 20
571.6968720281823
 30
0.0
 11
249.1200718046218
 21
581.6968710281822
 31
0.0
  0
LINE
  5
330
330
1B
100
AcDbEntity
  8
4
100
AcDbLine
 10
251.1200713046217
 20
571.6968720281823
 30
0.0
 11
331.120072304622
 21
571.6968720281823
 31
0.0
  0
LINE
  5
331
330
1B
100
AcDbEntity
  8
4
100
AcDbLine
 10
249.1200718046218
 20
581.6968710281822
 30
0.0
 11
333.1200718046218
 21
581.6968710281822
 31
0.0
  0
LINE
  5
332
330
1B
100
AcDbEntity
  8
4
100
AcDbLine
 10
370.5883190445913
 20
593.6375862644982
 30
0.0
 11
371.0129247237926
 21
577.7148693137683
 31
0.0
  0
LINE
  5
333
330
1B
100
AcDbEntity
  8
4
100
AcDbLine
 10
375.0148273046218
 20
573.6968715281821
 30
0.0
 11
417.1200718046218
 21
573.6968715281821
 31
0.0
  0
LINE
  5
334
330
1B
100
AcDbEntity
  8
4
100
AcDbLine
 10
382.2886114526384
 20
597.6968715281821
 30
0.0
 11
332.892592304622
 21
580.5594765281821
 31
0.0
  0
LINE
  5
335
330
1B
100
AcDbEntity
  8
4
100
AcDbLine
 10
379.2377187830284
 20
597.6968715281821
 30
0.0
 11
333.1200718046218
 21
581.6968710281822
 31
0.0
  0
LINE
  5
336
330
1B
100
AcDbEntity
  8
L-CENTER
 48
2.5
100
AcDbLine
 10
291.1200718046218
 20
487.9244910281914
 30
0.0
 11
291.1200718046218
 21
734.9261423157109
 31
0.0
  0
LINE
  5
337
330
1B
100
AcDbEntity
  8
4
100
AcDbLine
 10
402.6200718046218
 20
679.6968715281821
 30
0.0
 11
402.6200718046218
 21
617.6968715281821
 31
0.0
  0
LINE
  5
338
330
1B
100
AcDbEntity
  8
4
100
AcDbLine
 10
401.6200718046218
 20
606.6968715281821
 30
0.0
 11
401.6200718046218
 21
690.6968715281821
 31
0.0
  0
LINE
  5
339
330
1B
100
AcDbEntity
  8
4
100
AcDbLine
 10
395.1200718046218
 20
606.6968715281819
 30
0.0
 11
395.1200718046218
 21
690.6968715281823
 31
0.0
  0
LINE
  5
33A
330
1B
100
AcDbEntity
  8
4
100
AcDbLine
 10
421.120072304622
 20
577.6968720281823
 30
0.0
 11
421.120072304622
 21
719.6968710281822
 31
0.0
  0
LINE
  5
33B
330
1B
100
AcDbEntity
  8
4
100
AcDbLine
 10
187.1200718046218
 20
715.496871528182
 30
0.0
 11
187.1200718046218
 21
709.496871528182
 31
0.0
  0
LINE
  5
33C
330
1B
100
AcDbEntity
  8
4
100
AcDbLine
 10
197.1200718046218
 20
715.496871528182
 30
0.0
 11
197.1200718046218
 21
709.496871528182
 31
0.0
  0
LINE
  5
33D
330
1B
100
AcDbEntity
  8
4
100
AcDbLine
 10
212.1200718046218
 20
716.0968715281826
 30
0.0
 11
212.1200718046218
 21
710.6020043608389
 31
0.0
  0
LINE
  5
33E
330
1B
100
AcDbEntity
  8
4
100
AcDbLine
 10
211.2238948046218
 20
719.803500028182
 30
0.0
 11
211.4941843615002
 21
709.6676429281383
 31
0.0
  0
LINE
  5
33F
330
1B
100
AcDbEntity
  8
4
100
AcDbLine
 10
197.8700718046218
 20
709.496871528182
 30
0.0
 11
186.3700718046218
 21
709.496871528182
 31
0.0
  0
LINE
  5
340
330
1B
100
AcDbEntity
  8
4
100
AcDbLine
 10
186.3700718046218
 20
709.496871528182
 30
0.0
 11
186.3700718046218
 21
707.996871528182
 31
0.0
  0
ARC
  5
341
330
1B
100
AcDbEntity
  8
4
100
AcDbCircle
 10
187.1200718046218
 20
706.996871528182
 30
0.0
 40
1.0
100
AcDbArc
 50
90.0
 51
180.0
  0
LINE
  5
342
330
1B
100
AcDbEntity
  8
4
100
AcDbLine
 10
197.8700718046218
 20
709.496871528182
 30
0.0
 11
197.8700718046218
 21
707.996871528182
 31
0.0
  0
ARC
  5
343
330
1B
100
AcDbEntity
  8
4
100
AcDbCircle
 10
211.1200718046218
 20
710.6020043608389
 30
0.0
 40
1.0
100
AcDbArc
 50
285.3183357934568
 51
0.0
  0
LINE
  5
344
330
1B
100
AcDbEntity
  8
4
100
AcDbLine
 10
197.1200718046218
 20
715.496871528182
 30
0.0
 11
187.1200718046218
 21
715.496871528182
 31
0.0
  0
LINE
  5
345
330
1B
100
AcDbEntity
  8
4
100
AcDbLine
 10
165.1200718046218
 20
723.6968715281821
 30
0.0
 11
207.2253163046219
 21
723.6968715281821
 31
0.0
  0
ARC
  5
346
330
1B
100
AcDbEntity
  8
4
100
AcDbCircle
 10
165.1200718046218
 20
719.6968710281822
 30
0.0
 40
4.0000005
100
AcDbArc
 50
90.0
 51
180.0
  0
ARC
  5
347
330
1B
100
AcDbEntity
  8
4
100
AcDbCircle
 10
213.1200718046218
 20
716.0968715281826
 30
0.0
 40
1.0
100
AcDbArc
 50
90.0
 51
180.0
  0
ARC
  5
348
330
1B
100
AcDbEntity
  8
4
100
AcDbCircle
 10
207.2253163046219
 20
719.6968710281822
 30
0.0
 40
4.0000005
100
AcDbArc
 50
1.527525000000444
 51
90.0
  0
LINE
  5
349
330
1B
100
AcDbEntity
  8
L-CENTER
 48
2.5
100
AcDbLine
 10
168.3411028046219
 20
703.696872028182
 30
0.0
 11
194.6260528046221
 21
703.696872028182
 31
0.0
  0
LINE
  5
34A
330
1B
100
AcDbEntity
  8
4
100
AcDbLine
 10
186.1200718046218
 20
691.696872028182
 30
0.0
 11
186.1200718046218
 21
696.6968715281823
 31
0.0
  0
LINE
  5
34B
330
1B
100
AcDbEntity
  8
4
100
AcDbLine
 10
180.6200713046217
 20
679.6968715281821
 30
0.0
 11
179.6200713046217
 21
679.6968715281821
 31
0.0
  0
LINE
  5
34C
330
1B
100
AcDbEntity
  8
4
100
AcDbLine
 10
184.1200718046218
 20
690.6968715281821
 30
0.0
 11
184.1200718046218
 21
691.696872028182
 31
0.0
  0
LINE
  5
34D
330
1B
100
AcDbEntity
  8
L-CENTER
 48
2.5
100
AcDbLine
 10
192.1200718046218
 20
685.9700415257216
 30
0.0
 11
192.1200718046218
 21
716.7296354524533
 31
0.0
  0
LINE
  5
34E
330
1B
100
AcDbEntity
  8
L-CENTER
 48
2.5
100
AcDbLine
 10
181.120072304622
 20
689.3840055281821
 30
0.0
 11
181.120072304622
 21
718.2243075281822
 31
0.0
  0
LINE
  5
34F
330
1B
100
AcDbEntity
  8
4
100
AcDbLine
 10
186.1200718046218
 20
706.996871528182
 30
0.0
 11
186.1200718046218
 21
696.996871528182
 31
0.0
  0
ARC
  5
350
330
1B
100
AcDbEntity
  8
4
100
AcDbCircle
 10
181.120072304622
 20
703.696872028182
 30
0.0
 40
7.5
100
AcDbArc
 50
45.82388031249412
 51
311.8103097710868
  0
LINE
  5
353
330
1B
100
AcDbEntity
  8
4
100
AcDbLine
 10
180.6200713046217
 20
617.6968715281821
 30
0.0
 11
179.6200713046217
 21
617.6968715281821
 31
0.0
  0
LINE
  5
358
330
1B
100
AcDbEntity
  8
L-CENTER
 48
2.5
100
AcDbLine
 10
167.9760358046221
 20
593.6968710281822
 30
0.0
 11
194.6260528046221
 21
593.6968710281822
 31
0.0
  0
LINE
  5
359
330
1B
100
AcDbEntity
  8
4
100
AcDbLine
 10
186.1200718046218
 20
597.6968715281821
 30
0.0
 11
186.1200718046218
 21
605.6968710281822
 31
0.0
  0
ARC
  5
35A
330
1B
100
AcDbEntity
  8
4
100
AcDbCircle
 10
181.120072304622
 20
593.6968710281822
 30
0.0
 40
7.5
100
AcDbArc
 50
48.18969022891324
 51
32.23095715104168
  0
LINE
  5
35B
330
1B
100
AcDbEntity
  8
4
100
AcDbLine
 10
184.1200718046218
 20
605.6968710281822
 30
0.0
 11
184.1200718046218
 21
606.6968715281819
 31
0.0
  0
LINE
  5
35C
330
1B
100
AcDbEntity
  8
4
100
AcDbLine
 10
165.1200718046218
 20
573.6968715281821
 30
0.0
 11
207.2253163046219
 21
573.6968715281821
 31
0.0
  0
ARC
  5
35D
330
1B
100
AcDbEntity
  8
4
100
AcDbCircle
 10
165.1200718046218
 20
577.6968720281823
 30
0.0
 40
4.0000005
100
AcDbArc
 50
180.0
 51
270.0
  0
ARC
  5
35E
330
1B
100
AcDbEntity
  8
4
100
AcDbCircle
 10
207.2253163046219
 20
577.6968720281823
 30
0.0
 40
4.0000005
100
AcDbArc
 50
270.0
 51
358.4724749999996
  0
LINE
  5
35F
330
1B
100
AcDbEntity
  8
L-CENTER
 48
2.5
100
AcDbLine
 10
181.120072304622
 20
580.5940200281821
 30
0.0
 11
181.120072304622
 21
607.2438990281821
 31
0.0
  0
LINE
  5
360
330
1B
100
AcDbEntity
  8
4
100
AcDbLine
 10
211.2238948046218
 20
577.5902430281822
 30
0.0
 11
211.6518240168218
 21
593.6375864545619
 31
0.0
  0
LINE
  5
361
330
1B
100
AcDbEntity
  8
4
100
AcDbLine
 10
179.6200713046217
 20
679.6968715281821
 30
0.0
 11
179.6200713046217
 21
617.6968715281821
 31
0.0
  0
LINE
  5
362
330
1B
100
AcDbEntity
  8
4
100
AcDbLine
 10
187.1200718046218
 20
606.6968715281821
 30
0.0
 11
187.1200718046218
 21
690.6968715281821
 31
0.0
  0
LINE
  5
363
330
1B
100
AcDbEntity
  8
4
100
AcDbLine
 10
180.6200713046217
 20
606.6968715281821
 30
0.0
 11
180.6200713046217
 21
690.6968715281821
 31
0.0
  0
LINE
  5
364
330
1B
100
AcDbEntity
  8
4
100
AcDbLine
 10
161.1200713046217
 20
577.6968720281823
 30
0.0
 11
161.1200713046217
 21
719.6968710281822
 31
0.0
  0
LINE
  5
365
330
1B
100
AcDbEntity
  8
4
100
AcDbLine
 10
186.1200718046218
 20
597.6968715281821
 30
0.0
 11
396.1200718046218
 21
597.6968715281821
 31
0.0
  0
LINE
  5
366
330
1B
100
AcDbEntity
  8
4
100
AcDbLine
 10
323.1200583046218
 20
602.6968710281822
 30
0.0
 11
387.1200713046217
 21
602.6968710281822
 31
0.0
  0
LINE
  5
367
330
1B
100
AcDbEntity
  8
4
100
AcDbLine
 10
184.1200718046218
 20
605.6968710281822
 30
0.0
 11
398.1200718046218
 21
605.6968710281822
 31
0.0
  0
LINE
  5
368
330
1B
100
AcDbEntity
  8
4
100
AcDbLine
 10
180.6200713046217
 20
606.6968715281821
 30
0.0
 11
401.6200718046218
 21
606.6968715281821
 31
0.0
  0
LINE
  5
369
330
1B
100
AcDbEntity
  8
4
100
AcDbLine
 10
199.9515321566055
 20
597.6968715281821
 30
0.0
 11
249.3475513046221
 21
580.5594765281821
 31
0.0
  0
LINE
  5
36A
330
1B
100
AcDbEntity
  8
4
100
AcDbLine
 10
203.0024248262155
 20
597.6968715281821
 30
0.0
 11
249.1200718046218
 21
581.6968710281822
 31
0.0
  0
LINE
  5
36B
330
1B
100
AcDbEntity
  8
L-CENTER
 48
2.5
100
AcDbLine
 10
478.7268981646309
 20
648.6968715281821
 30
0.0
 11
105.5569593919758
 21
648.6968715281821
 31
0.0
  0
LINE
  5
36C
330
1B
100
AcDbEntity
  8
4
100
AcDbLine
 10
205.3945427426117
 20
707.996871528182
 30
0.0
 11
246.0280545339976
 21
719.1269204101707
 31
0.0
  0
LINE
  5
36D
330
1B
100
AcDbEntity
  8
4
100
AcDbLine
 10
211.0724527570026
 20
707.996871528182
 30
0.0
 11
236.6200716384076
 21
714.9946975696105
 31
0.0
  0
LINE
  5
36E
330
1B
100
AcDbEntity
  8
4
100
AcDbLine
 10
396.1200718046218
 20
696.996871528182
 30
0.0
 11
186.1200718046218
 21
696.996871528182
 31
0.0
  0
LINE
  5
36F
330
1B
100
AcDbEntity
  8
4
100
AcDbLine
 10
395.1200718046218
 20
707.996871528182
 30
0.0
 11
187.1200718046218
 21
707.996871528182
 31
0.0
  0
LINE
  5
370
330
1B
100
AcDbEntity
  8
4
100
AcDbLine
 10
186.1200718046218
 20
696.6968715281823
 30
0.0
 11
396.1200718046218
 21
696.6968715281819
 31
0.0
  0
LINE
  5
371
330
1B
100
AcDbEntity
  8
4
100
AcDbLine
 10
184.1200718046218
 20
691.696872028182
 30
0.0
 11
398.1200718046218
 21
691.696872028182
 31
0.0
  0
LINE
  5
372
330
1B
100
AcDbEntity
  8
4
100
AcDbLine
 10
180.6200713046217
 20
690.6968715281821
 30
0.0
 11
401.6200718046218
 21
690.6968715281821
 31
0.0
  0
LWPOLYLINE
  5
373
330
1B
100
AcDbEntity
  8
4
100
AcDbPolyline
 90
        6
 70
     1
 43
0.0
 10
243.6200718046218
 20
648.6968715281821
 10
237.3700718046218
 20
659.5221890754876
 10
224.8700718046218
 20
659.5221890754876
 10
218.6200718046218
 20
648.6968715281821
 10
224.8700718046218
 20
637.8715539808766
 10
237.3700718046218
 20
637.8715539808766
  0
CIRCLE
  5
374
330
1B
100
AcDbEntity
  8
4
100
AcDbCircle
 10
231.1200718046218
 20
648.6968715281821
 30
0.0
 40
12.5
  0
CIRCLE
  5
375
330
1B
100
AcDbEntity
  8
4
100
AcDbCircle
 10
231.1200718046218
 20
648.6968715281821
 30
0.0
 40
19.0
  0
LINE
  5
376
330
1B
100
AcDbEntity
  8
4
100
AcDbLine
 10
213.1200718046218
 20
717.0968715281826
 30
0.0
 11
238.6167649648357
 21
717.0968715281824
 31
0.0
  0
LINE
  5
37B
330
1B
100
AcDbEntity
  8
4
100
AcDbLine
 10
758.7421405389055
 20
256.5006239221176
 30
0.0
 11
758.7421405389055
 21
266.5006239221175
 31
0.0
  0
ARC
  5
391
330
1B
100
AcDbEntity
  8
4
 62
     3
100
AcDbCircle
 10
711.9421400389051
 20
319.0988644221175
 30
0.0
 40
1.0000005
100
AcDbArc
 50
180.0
 51
266.190165
  0
LINE
  5
392
330
1B
100
AcDbEntity
  8
4
100
AcDbLine
 10
704.4422630389054
 20
323.2640514221175
 30
0.0
 11
679.4422630389054
 21
323.2640514221175
 31
0.0
  0
LINE
  5
393
330
1B
100
AcDbEntity
  8
4
100
AcDbLine
 10
702.7674580389053
 20
327.2640514221175
 30
0.0
 11
681.1168230389053
 21
327.2640514221175
 31
0.0
  0
LINE
  5
394
330
1B
100
AcDbEntity
  8
4
100
AcDbLine
 10
704.4422630389054
 20
321.2640514221175
 30
0.0
 11
679.4422630389054
 21
321.2640514221175
 31
0.0
  0
LINE
  5
395
330
1B
100
AcDbEntity
  8
4
100
AcDbLine
 10
681.1168230389053
 20
323.2640514221175
 30
0.0
 11
681.1168230389053
 21
327.2640514221175
 31
0.0
  0
LINE
  5
396
330
1B
100
AcDbEntity
  8
4
100
AcDbLine
 10
680.4422630389054
 20
319.7640514221175
 30
0.0
 11
680.4422630389054
 21
321.2640514221175
 31
0.0
  0
LINE
  5
397
330
1B
100
AcDbEntity
  8
4
100
AcDbLine
 10
679.4422630389054
 20
321.2640514221175
 30
0.0
 11
679.4422630389054
 21
323.2640514221175
 31
0.0
  0
LINE
  5
398
330
1B
100
AcDbEntity
  8
4
100
AcDbLine
 10
702.7674580389053
 20
323.2640514221175
 30
0.0
 11
702.7674580389053
 21
327.2640514221175
 31
0.0
  0
LINE
  5
399
330
1B
100
AcDbEntity
  8
4
100
AcDbLine
 10
703.4422630389054
 20
319.7640514221175
 30
0.0
 11
703.4422630389054
 21
321.2640514221175
 31
0.0
  0
LINE
  5
39A
330
1B
100
AcDbEntity
  8
4
100
AcDbLine
 10
704.4422630389054
 20
321.2640514221175
 30
0.0
 11
704.4422630389054
 21
323.2640514221175
 31
0.0
  0
LINE
  5
39B
330
1B
100
AcDbEntity
  8
4
 62
     3
100
AcDbLine
 10
710.9421410389054
 20
319.7640514221175
 30
0.0
 11
710.9421410389054
 21
319.0988644221175
 31
0.0
  0
ARC
  5
39C
330
1B
100
AcDbEntity
  8
4
 62
     3
100
AcDbCircle
 10
727.6407215389054
 20
312.6034819221177
 30
0.0
 40
4.0000005
100
AcDbArc
 50
7.149430000000284
 51
83.07307699999927
  0
ARC
  5
39D
330
1B
100
AcDbEntity
  8
4
 62
     3
100
AcDbCircle
 10
671.9421410389054
 20
319.0988644221175
 30
0.0
 40
1.0000005
100
AcDbArc
 50
273.809835
 51
0.0
  0
ARC
  5
39E
330
1B
100
AcDbEntity
  8
4
 62
     3
100
AcDbCircle
 10
656.2435595389052
 20
312.6034819221177
 30
0.0
 40
4.0000005
100
AcDbArc
 50
96.92692300000073
 51
172.8505699999997
  0
LINE
  5
39F
330
1B
100
AcDbEntity
  8
4
 62
     3
100
AcDbLine
 10
672.9421400389051
 20
319.7640514221175
 30
0.0
 11
672.9421400389051
 21
319.0988644221175
 31
0.0
  0
ARC
  5
3A0
330
1B
100
AcDbEntity
  8
4
 62
     3
100
AcDbCircle
 10
691.9421405389053
 20
18.76405092211758
 30
0.0
 40
300.0
100
AcDbArc
 50
83.07307699999998
 51
96.926923
  0
LINE
  5
3A1
330
1B
100
AcDbEntity
  8
4
 62
     3
100
AcDbLine
 10
710.9421410389054
 20
319.7640514221175
 30
0.0
 11
672.9421400389051
 21
319.7640514221175
 31
0.0
  0
LINE
  5
3A6
330
1B
100
AcDbEntity
  8
4
100
AcDbLine
 10
750.2421405389055
 20
280.7640514221175
 30
0.0
 11
739.9421405389053
 21
280.7640514221175
 31
0.0
  0
ARC
  5
3A7
330
1B
100
AcDbEntity
  8
4
 62
     3
100
AcDbCircle
 10
735.9421400389051
 20
281.7640519221177
 30
0.0
 40
1.0000005
100
AcDbArc
 50
180.0
 51
270.0
  0
LINE
  5
3A8
330
1B
100
AcDbEntity
  8
4
 62
     3
100
AcDbLine
 10
734.3387780389053
 20
282.7640509221173
 30
0.0
 11
734.4521405389055
 21
282.7640509221173
 31
0.0
  0
ARC
  5
3A9
330
1B
100
AcDbEntity
  8
4
 62
     3
100
AcDbCircle
 10
734.3387780389053
 20
283.2540514221175
 30
0.0
 40
0.4900004999999999
100
AcDbArc
 50
181.4282999999998
 51
270.0
  0
LINE
  5
3AA
330
1B
100
AcDbEntity
  8
4
 62
     3
100
AcDbLine
 10
734.9421410389054
 20
282.2740519221175
 30
0.0
 11
734.9421410389054
 21
281.7640519221177
 31
0.0
  0
ARC
  5
3AB
330
1B
100
AcDbEntity
  8
4
 62
     3
100
AcDbCircle
 10
734.4521405389055
 20
282.2740519221175
 30
0.0
 40
0.4900004999999999
100
AcDbArc
 50
0.0
 51
90.0
  0
LINE
  5
3AC
330
1B
100
AcDbEntity
  8
4
 62
     3
100
AcDbLine
 10
735.9421400389051
 20
280.7640514221175
 30
0.0
 11
739.9421405389053
 21
280.7640514221175
 31
0.0
  0
ARC
  5
3AD
330
1B
100
AcDbEntity
  8
4
100
AcDbCircle
 10
750.2421405389055
 20
279.7640514221175
 30
0.0
 40
1.0
100
AcDbArc
 50
0.0
 51
90.0
  0
LINE
  5
3AE
330
1B
100
AcDbEntity
  8
4
100
AcDbLine
 10
695.4421405389053
 20
284.2640519221177
 30
0.0
 11
688.4421405389053
 21
284.2640519221177
 31
0.0
  0
LINE
  5
3AF
330
1B
100
AcDbEntity
  8
4
100
AcDbLine
 10
695.4421405389053
 20
284.2640519221177
 30
0.0
 11
695.4421405389053
 21
291.2640519221177
 31
0.0
  0
LINE
  5
3B0
330
1B
100
AcDbEntity
  8
4
100
AcDbLine
 10
695.4421405389053
 20
291.2640519221177
 30
0.0
 11
688.4421405389053
 21
291.2640519221177
 31
0.0
  0
LINE
  5
3B1
330
1B
100
AcDbEntity
  8
4
100
AcDbLine
 10
688.4421405389053
 20
291.2640519221177
 30
0.0
 11
688.4421405389053
 21
284.2640519221177
 31
0.0
  0
ARC
  5
3B2
330
1B
100
AcDbEntity
  8
4
 62
     3
100
AcDbCircle
 10
647.9421410389054
 20
281.7640519221177
 30
0.0
 40
1.0000005
100
AcDbArc
 50
270.0
 51
0.0
  0
LINE
  5
3B3
330
1B
100
AcDbEntity
  8
4
 62
     3
100
AcDbLine
 10
641.9421410389054
 20
280.7640514221175
 30
0.0
 11
647.9421410389054
 21
280.7640514221175
 31
0.0
  0
ARC
  5
3B4
330
1B
100
AcDbEntity
  8
4
 62
     3
100
AcDbCircle
 10
641.9421410389054
 20
279.7640509221173
 30
0.0
 40
1.0000005
100
AcDbArc
 50
90.0
 51
180.0
  0
LINE
  5
3B5
330
1B
100
AcDbEntity
  8
4
 62
     3
100
AcDbLine
 10
648.9421400389051
 20
282.2740519221175
 30
0.0
 11
648.9421400389051
 21
281.7640519221177
 31
0.0
  0
LINE
  5
3B6
330
1B
100
AcDbEntity
  8
4
 62
     3
100
AcDbLine
 10
649.4321405389051
 20
282.7640509221173
 30
0.0
 11
649.5455030389053
 21
282.7640509221173
 31
0.0
  0
ARC
  5
3B7
330
1B
100
AcDbEntity
  8
4
 62
     3
100
AcDbCircle
 10
649.5455030389053
 20
283.2540514221175
 30
0.0
 40
0.4900004999999999
100
AcDbArc
 50
270.0
 51
358.5717000000002
  0
ARC
  5
3B8
330
1B
100
AcDbEntity
  8
4
 62
     3
100
AcDbCircle
 10
649.4321405389051
 20
282.2740519221175
 30
0.0
 40
0.4900004999999999
100
AcDbArc
 50
90.0
 51
180.0
  0
LINE
  5
3B9
330
1B
100
AcDbEntity
  8
L-CENTER
 48
2.5
100
AcDbLine
 10
737.4561035389052
 20
275.7640519221177
 30
0.0
 11
646.4281775389054
 21
275.7640519221177
 31
0.0
  0
LINE
  5
3BA
330
1B
100
AcDbEntity
  8
4
100
AcDbLine
 10
752.7421405389055
 20
255.7506239221176
 30
0.0
 11
752.7421405389055
 21
267.2506239221175
 31
0.0
  0
LINE
  5
3BB
330
1B
100
AcDbEntity
  8
4
100
AcDbLine
 10
752.7421405389055
 20
267.2506239221175
 30
0.0
 11
751.2421405389055
 21
267.2506239221175
 31
0.0
  0
LINE
  5
3BC
330
1B
100
AcDbEntity
  8
4
100
AcDbLine
 10
752.7421405389055
 20
255.7506239221176
 30
0.0
 11
751.2421405389055
 21
255.7506239221176
 31
0.0
  0
LINE
  5
3BD
330
1B
100
AcDbEntity
  8
2
100
AcDbLine
 10
751.2421405389055
 20
261.5006239221175
 30
0.0
 11
752.7421405389055
 21
263.0006239221175
 31
0.0
  0
LINE
  5
3BE
330
1B
100
AcDbEntity
  8
2
100
AcDbLine
 10
751.2421405389055
 20
259.3793035785579
 30
0.0
 11
752.7421405389055
 21
260.8793035785579
 31
0.0
  0
ARC
  5
3BF
330
1B
100
AcDbEntity
  8
4
100
AcDbCircle
 10
691.9421405389053
 20
275.7640519221177
 30
0.0
 40
12.5
100
AcDbArc
 50
106.260204708312
 51
73.73979500000115
  0
CIRCLE
  5
3C8
330
1B
100
AcDbEntity
  8
4
 62
     3
100
AcDbCircle
 10
691.9421405389053
 20
275.7640519221177
 30
0.0
 40
31.0000005
  0
LINE
  5
3CA
330
1B
100
AcDbEntity
  8
4
100
AcDbLine
 10
401.6200718046218
 20
306.7640519221177
 30
0.0
 11
402.6200718046218
 21
306.7640519221177
 31
0.0
  0
ARC
  5
3CB
330
1B
100
AcDbEntity
  8
4
 62
     3
100
AcDbCircle
 10
395.8521223046218
 20
318.7640509221176
 30
0.0
 40
1.0000005
100
AcDbArc
 50
210.0000000000064
 51
270.0
  0
LINE
  5
3CC
330
1B
100
AcDbEntity
  8
4
 62
     3
100
AcDbLine
 10
395.8521223046218
 20
317.7640519221175
 30
0.0
 11
401.6200723046218
 21
317.7640519221175
 31
0.0
  0
ARC
  5
3CD
330
1B
100
AcDbEntity
  8
4
 62
     3
100
AcDbCircle
 10
394.1200723046218
 20
317.7640519221175
 30
0.0
 40
1.0000005
100
AcDbArc
 50
0.0
 51
90.0
  0
LINE
  5
3D1
330
1B
100
AcDbEntity
  8
4
100
AcDbLine
 10
243.6205618046217
 20
321.2640514221175
 30
0.0
 11
243.6205618046217
 21
327.2640514221175
 31
0.0
  0
LINE
  5
3D2
330
1B
100
AcDbEntity
  8
4
100
AcDbLine
 10
242.6205618046217
 20
319.7640514221175
 30
0.0
 11
242.6205618046217
 21
321.2640514221175
 31
0.0
  0
LINE
  5
3D3
330
1B
100
AcDbEntity
  8
4
100
AcDbLine
 10
237.3705618046217
 20
323.2640514221175
 30
0.0
 11
237.3705618046217
 21
327.2640514221175
 31
0.0
  0
LINE
  5
3D4
330
1B
100
AcDbEntity
  8
4
100
AcDbLine
 10
224.8705618046217
 20
323.2640514221175
 30
0.0
 11
224.8705618046217
 21
327.2640514221175
 31
0.0
  0
LINE
  5
3D5
330
1B
100
AcDbEntity
  8
4
 62
     3
100
AcDbLine
 10
250.120072304622
 20
319.7640514221175
 30
0.0
 11
250.120072304622
 21
319.7540509221176
 31
0.0
  0
ARC
  5
3D6
330
1B
100
AcDbEntity
  8
4
 62
     3
100
AcDbCircle
 10
251.1100723046218
 20
319.7540509221176
 30
0.0
 40
0.99
100
AcDbArc
 50
180.0
 51
270.0
  0
LINE
  5
3D7
330
1B
100
AcDbEntity
  8
L-CENTER
 48
2.5
100
AcDbLine
 10
231.1200718046218
 20
310.6047344777621
 30
0.0
 11
231.1200718046218
 21
333.4001503667573
 31
0.0
  0
LINE
  5
3D8
330
1B
100
AcDbEntity
  8
4
100
AcDbLine
 10
470.1200718046218
 20
288.2640519221177
 30
0.0
 11
471.1200718046218
 21
287.2640519221177
 31
0.0
  0
LINE
  5
3DC
330
1B
100
AcDbEntity
  8
4
100
AcDbLine
 10
402.6200718046218
 20
290.7640519221177
 30
0.0
 11
421.1200718046218
 21
290.7640519221177
 31
0.0
  0
ARC
  5
3DD
330
1B
100
AcDbEntity
  8
4
 62
     3
100
AcDbCircle
 10
396.1200718046218
 20
286.7640514221175
 30
0.0
 40
1.0000005
100
AcDbArc
 50
180.0
 51
270.0
  0
LINE
  5
3DE
330
1B
100
AcDbEntity
  8
4
100
AcDbLine
 10
426.1200718046218
 20
288.2640519221177
 30
0.0
 11
426.1200718046218
 21
291.2640519221177
 31
0.0
  0
LINE
  5
3DF
330
1B
100
AcDbEntity
  8
4
100
AcDbLine
 10
421.1200718046218
 20
288.2640519221177
 30
0.0
 11
470.1200718046218
 21
288.2640519221177
 31
0.0
  0
LINE
  5
3E0
330
1B
100
AcDbEntity
  8
4
100
AcDbLine
 10
471.1200718046218
 20
291.2640519221177
 30
0.0
 11
426.1200718046218
 21
291.2640519221177
 31
0.0
  0
LINE
  5
3E1
330
1B
100
AcDbEntity
  8
4
100
AcDbLine
 10
471.1200718046218
 20
264.2640519221177
 30
0.0
 11
470.1200718046218
 21
263.2640519221177
 31
0.0
  0
LINE
  5
3E2
330
1B
100
AcDbEntity
  8
4
100
AcDbLine
 10
402.6200718046218
 20
260.7640519221177
 30
0.0
 11
421.1200718046218
 21
260.7640519221177
 31
0.0
  0
LINE
  5
3E3
330
1B
100
AcDbEntity
  8
4
100
AcDbLine
 10
401.6200718046218
 20
244.7640519221177
 30
0.0
 11
402.6200718046218
 21
244.7640519221177
 31
0.0
  0
ARC
  5
3E4
330
1B
100
AcDbEntity
  8
4
 62
     3
100
AcDbCircle
 10
396.1200718046218
 20
264.7640509221173
 30
0.0
 40
1.0000005
100
AcDbArc
 50
90.0
 51
180.0
  0
LINE
  5
3E5
330
1B
100
AcDbEntity
  8
4
100
AcDbLine
 10
421.1200718046218
 20
263.2640519221177
 30
0.0
 11
470.1200718046218
 21
263.2640519221177
 31
0.0
  0
ARC
  5
3E6
330
1B
100
AcDbEntity
  8
4
 62
     3
100
AcDbCircle
 10
381.3767323046218
 20
266.0207119221175
 30
0.0
 40
4.0000005
100
AcDbArc
 50
16.07294399999888
 51
73.92705600000133
  0
LINE
  5
3E7
330
1B
100
AcDbEntity
  8
4
100
AcDbLine
 10
470.1200718046218
 20
288.2640519221177
 30
0.0
 11
470.1200718046218
 21
263.2640519221177
 31
0.0
  0
LINE
  5
3E8
330
1B
100
AcDbEntity
  8
4
100
AcDbLine
 10
471.1200718046218
 20
264.2640519221177
 30
0.0
 11
471.1200718046218
 21
291.2640519221177
 31
0.0
  0
LINE
  5
3E9
330
1B
100
AcDbEntity
  8
4
100
AcDbLine
 10
421.1200718046218
 20
290.7640519221177
 30
0.0
 11
421.1200718046218
 21
260.7640519221177
 31
0.0
  0
LINE
  5
3EA
330
1B
100
AcDbEntity
  8
4
 62
     3
100
AcDbLine
 10
395.1200713046219
 20
286.7640514221175
 30
0.0
 11
395.1200713046219
 21
317.7640519221175
 31
0.0
  0
LINE
  5
3ED
330
1B
100
AcDbEntity
  8
4
100
AcDbLine
 10
402.6200718046218
 20
306.7640519221177
 30
0.0
 11
402.6200718046218
 21
244.7640519221177
 31
0.0
  0
LINE
  5
3F3
330
1B
100
AcDbEntity
  8
L-CENTER
 48
2.5
100
AcDbLine
 10
729.215310536445
 20
261.5006239221175
 30
0.0
 11
759.9749044631767
 21
261.5006239221175
 31
0.0
  0
LINE
  5
3F4
330
1B
100
AcDbEntity
  8
4
100
AcDbLine
 10
758.7421405389055
 20
266.5006239221175
 30
0.0
 11
752.7421405389055
 21
266.5006239221175
 31
0.0
  0
LINE
  5
3F5
330
1B
100
AcDbEntity
  8
4
100
AcDbLine
 10
758.7421405389055
 20
256.5006239221176
 30
0.0
 11
752.7421405389055
 21
256.5006239221175
 31
0.0
  0
LINE
  5
3F7
330
1B
100
AcDbEntity
  8
4
100
AcDbLine
 10
771.1052579446982
 20
217.9650194023561
 30
0.0
 11
761.9433161577667
 21
220.4637307987919
 31
0.0
  0
ARC
  5
3F8
330
1B
100
AcDbEntity
  8
4
100
AcDbCircle
 10
762.4695509693515
 20
222.3932584412673
 30
0.0
 40
2.0
100
AcDbArc
 50
195.3183357934497
 51
254.7448812969384
  0
ARC
  5
3F9
330
1B
100
AcDbEntity
  8
4
100
AcDbCircle
 10
770.8421405389058
 20
217.0002555811184
 30
0.0
 40
1.0
100
AcDbArc
 50
0.0
 51
74.74488129692537
  0
LINE
  5
3FF
330
1B
100
AcDbEntity
  8
4
100
AcDbLine
 10
762.5229571300956
 20
200.7640514221173
 30
0.0
 11
760.842140538904
 21
200.7640514221173
 31
0.0
  0
LINE
  5
401
330
1B
100
AcDbEntity
  8
4
100
AcDbLine
 10
772.8418955389056
 20
200.7640514221175
 30
0.0
 11
771.8418955389052
 21
200.7640514221175
 31
0.0
  0
LINE
  5
407
330
1B
100
AcDbEntity
  8
4
100
AcDbLine
 10
760.8421405389058
 20
200.7640514221173
 30
0.0
 11
760.8421405389058
 21
220.2759114825149
 31
0.0
  0
LINE
  5
40B
330
1B
100
AcDbEntity
  8
4
100
AcDbLine
 10
762.5229571300956
 20
150.7640514221175
 30
0.0
 11
760.8421405389058
 21
150.7640514221175
 31
0.0
  0
LINE
  5
40D
330
1B
100
AcDbEntity
  8
4
100
AcDbLine
 10
772.8418955389056
 20
150.7640514221175
 30
0.0
 11
771.8418955389052
 21
150.7640514221175
 31
0.0
  0
LINE
  5
40F
330
1B
100
AcDbEntity
  8
4
100
AcDbLine
 10
771.1052579446982
 20
133.5630834418789
 30
0.0
 11
761.9433161577667
 21
131.0643720454434
 31
0.0
  0
ARC
  5
410
330
1B
100
AcDbEntity
  8
4
100
AcDbCircle
 10
762.4695509693515
 20
129.1348444029677
 30
0.0
 40
2.0
100
AcDbArc
 50
105.2551187030616
 51
164.6816642065472
  0
ARC
  5
411
330
1B
100
AcDbEntity
  8
4
100
AcDbCircle
 10
770.8421405389058
 20
134.5278472631167
 30
0.0
 40
1.0
100
AcDbArc
 50
285.2551187030755
 51
0.0
  0
LINE
  5
412
330
1B
100
AcDbEntity
  8
4
100
AcDbLine
 10
760.8421405389058
 20
130.7640514221173
 30
0.0
 11
760.8421405389058
 21
150.7640514221175
 31
0.0
  0
LINE
  5
413
330
1B
100
AcDbEntity
  8
4
100
AcDbLine
 10
771.8421405389058
 20
134.5278472631167
 30
0.0
 11
771.8421405389058
 21
217.0002555811184
 31
0.0
  0
LINE
  5
414
330
1B
100
AcDbEntity
  8
4
100
AcDbLine
 10
762.5229571300956
 20
150.7640514221175
 30
0.0
 11
762.5229571300956
 21
200.7640514221173
 31
0.0
  0
LINE
  5
416
330
1B
100
AcDbEntity
  8
4
100
AcDbLine
 10
772.8418955389056
 20
200.7640514221175
 30
0.0
 11
772.8418955389056
 21
150.7640514221175
 31
0.0
  0
LINE
  5
419
330
1B
100
AcDbEntity
  8
4
100
AcDbLine
 10
758.7421405389055
 20
170.7640514221176
 30
0.0
 11
758.7421405389055
 21
180.7640514221175
 31
0.0
  0
ARC
  5
41A
330
1B
100
AcDbEntity
  8
4
 62
     3
100
AcDbCircle
 10
764.9421410389054
 20
78.76405092211758
 30
0.0
 40
1.9999995
100
AcDbArc
 50
0.0
 51
90.0
  0
LINE
  5
41B
330
1B
100
AcDbEntity
  8
4
100
AcDbLine
 10
758.7421405389055
 20
85.02747892211846
 30
0.0
 11
758.7421405389055
 21
95.02747892211835
 31
0.0
  0
LINE
  5
41C
330
1B
100
AcDbEntity
  8
4
 62
     3
100
AcDbLine
 10
766.9421405389053
 20
78.76405092211758
 30
0.0
 11
766.9421405389053
 21
55.76405142211752
 31
0.0
  0
ARC
  5
41D
330
1B
100
AcDbEntity
  8
4
 62
     3
100
AcDbCircle
 10
727.6407215389054
 20
238.9246219221177
 30
0.0
 40
4.0000005
100
AcDbArc
 50
276.9269230000008
 51
352.8505699999997
  0
LINE
  5
41E
330
1B
100
AcDbEntity
  8
4
 62
     3
100
AcDbLine
 10
615.746024038905
 20
215.9248279221175
 30
0.0
 11
623.3343725389054
 21
217.4424979221176
 31
0.0
  0
ARC
  5
41F
330
1B
100
AcDbEntity
  8
4
 62
     3
100
AcDbCircle
 10
615.9421400389051
 20
214.9442479221175
 30
0.0
 40
1.0000005
100
AcDbArc
 50
101.3099319999972
 51
180.0
  0
ARC
  5
420
330
1B
100
AcDbEntity
  8
4
100
AcDbCircle
 10
623.4395180389051
 20
219.5031349221175
 30
0.0
 40
1.9999995
100
AcDbArc
 50
281.3099320000086
 51
340.3461760000039
  0
LINE
  5
421
330
1B
100
AcDbEntity
  8
4
100
AcDbLine
 10
623.3343725389054
 20
217.4424979221176
 30
0.0
 11
623.8317500389053
 21
217.5419734221175
 31
0.0
  0
ARC
  5
422
330
1B
100
AcDbEntity
  8
4
 62
     3
100
AcDbCircle
 10
656.2435595389052
 20
238.9246219221177
 30
0.0
 40
4.0000005
100
AcDbArc
 50
187.1494300000003
 51
263.0730769999992
  0
ARC
  5
423
330
1B
100
AcDbEntity
  8
4
 62
     3
100
AcDbCircle
 10
691.9421405389053
 20
532.7640529221178
 30
0.0
 40
300.0
100
AcDbArc
 50
263.073077
 51
276.926923
  0
LINE
  5
424
330
1B
100
AcDbEntity
  8
4
100
AcDbLine
 10
752.7421405389055
 20
181.5140514221175
 30
0.0
 11
751.2421405389055
 21
181.5140514221175
 31
0.0
  0
LINE
  5
425
330
1B
100
AcDbEntity
  8
4
100
AcDbLine
 10
623.2560802346402
 20
200.7640517294445
 30
0.0
 11
640.9421405389053
 21
196.7640512608117
 31
0.0
  0
LINE
  5
426
330
1B
100
AcDbEntity
  8
4
100
AcDbLine
 10
624.9585178830143
 20
200.7640517294443
 30
0.0
 11
640.9421405389053
 21
197.1490862134331
 31
0.0
  0
LINE
  5
427
330
1B
100
AcDbEntity
  8
4
100
AcDbLine
 10
623.2560802346402
 20
200.7640517294442
 30
0.0
 11
624.9585178830143
 21
200.7640517294442
 31
0.0
  0
LINE
  5
428
330
1B
100
AcDbEntity
  8
4
100
AcDbLine
 10
624.9585178830143
 20
200.7640517294442
 30
0.0
 11
624.9585178830143
 21
217.2214976400151
 31
0.0
  0
LINE
  5
42B
330
1B
100
AcDbEntity
  8
2
100
AcDbLine
 10
751.2421405389055
 20
173.642731078558
 30
0.0
 11
752.7421405389055
 21
175.142731078558
 31
0.0
  0
LINE
  5
42C
330
1B
100
AcDbEntity
  8
2
100
AcDbLine
 10
751.2421405389055
 20
175.7640514221175
 30
0.0
 11
752.7421405389055
 21
177.2640514221175
 31
0.0
  0
LINE
  5
42D
330
1B
100
AcDbEntity
  8
4
100
AcDbLine
 10
752.7421405389055
 20
170.0140514221176
 30
0.0
 11
751.2421405389055
 21
170.0140514221176
 31
0.0
  0
LINE
  5
42E
330
1B
100
AcDbEntity
  8
4
100
AcDbLine
 10
624.9585178830143
 20
150.7640511147907
 30
0.0
 11
640.9421405389053
 21
154.379016630802
 31
0.0
  0
LINE
  5
42F
330
1B
100
AcDbEntity
  8
4
100
AcDbLine
 10
623.2560802346402
 20
150.7640511147907
 30
0.0
 11
640.9421405389053
 21
154.7640515834233
 31
0.0
  0
LINE
  5
430
330
1B
100
AcDbEntity
  8
4
100
AcDbLine
 10
623.2560802346402
 20
150.7640511147908
 30
0.0
 11
624.9585178830143
 21
150.7640511147908
 31
0.0
  0
LINE
  5
431
330
1B
100
AcDbEntity
  8
4
 62
     3
100
AcDbLine
 10
615.746024038905
 20
135.6032749221175
 30
0.0
 11
623.8328765763031
 21
133.9859036544887
 31
0.0
  0
ARC
  5
432
330
1B
100
AcDbEntity
  8
4
 62
     3
100
AcDbCircle
 10
615.9421400389051
 20
136.5838549221176
 30
0.0
 40
1.0000005
100
AcDbArc
 50
180.0
 51
258.6900680000028
  0
ARC
  5
433
330
1B
100
AcDbEntity
  8
4
100
AcDbCircle
 10
623.4393335389054
 20
132.0250054221176
 30
0.0
 40
1.9999995
100
AcDbArc
 50
18.92367000000244
 51
78.69006800000444
  0
ARC
  5
434
330
1B
100
AcDbEntity
  8
4
 62
     3
100
AcDbCircle
 10
621.7368965389055
 20
132.3654919221176
 30
0.0
 40
1.9999995
100
AcDbArc
 50
18.92367000000244
 51
78.69006800000444
  0
LINE
  5
435
330
1B
100
AcDbEntity
  8
4
100
AcDbLine
 10
622.1291285389052
 20
134.3266534221175
 30
0.0
 11
623.8315655389051
 21
133.9861669221175
 31
0.0
  0
LINE
  5
436
330
1B
100
AcDbEntity
  8
4
100
AcDbLine
 10
624.9585178830143
 20
133.760775287338
 30
0.0
 11
624.9585178830143
 21
150.7640511147907
 31
0.0
  0
LINE
  5
43C
330
1B
100
AcDbEntity
  8
4
 62
     3
100
AcDbLine
 10
614.9421410389054
 20
214.9442479221175
 30
0.0
 11
614.9421410389054
 21
136.5838549221176
 31
0.0
  0
LINE
  5
43D
330
1B
100
AcDbEntity
  8
4
100
AcDbLine
 10
623.2560802346402
 20
150.7640511147908
 30
0.0
 11
623.2560802346402
 21
200.7640517294445
 31
0.0
  0
LINE
  5
43E
330
1B
100
AcDbEntity
  8
4
100
AcDbLine
 10
752.7421405389055
 20
170.0140514221176
 30
0.0
 11
752.7421405389055
 21
181.5140514221175
 31
0.0
  0
ARC
  5
43F
330
1B
100
AcDbEntity
  8
4
 62
     3
100
AcDbCircle
 10
397.1200723046218
 20
231.7640509221173
 30
0.0
 40
1.9999995
100
AcDbArc
 50
90.0
 51
180.0
  0
LINE
  5
440
330
1B
100
AcDbEntity
  8
4
 62
     3
100
AcDbLine
 10
397.1200723046218
 20
233.7640519221177
 30
0.0
 11
401.6200723046218
 21
233.7640519221177
 31
0.0
  0
ARC
  5
441
330
1B
100
AcDbEntity
  8
4
 62
     3
100
AcDbCircle
 10
326.9573413046219
 20
211.6013209221173
 30
0.0
 40
1.9999995
100
AcDbArc
 50
6.907067000000085
 51
83.09293299999993
  0
ARC
  5
442
330
1B
100
AcDbEntity
  8
4
 62
     3
100
AcDbCircle
 10
328.7363968046218
 20
213.3803764221175
 30
0.0
 40
1.9999995
100
AcDbArc
 50
7.251750999999385
 51
82.74824900000063
  0
ARC
  5
443
330
1B
100
AcDbEntity
  8
4
 62
     3
100
AcDbCircle
 10
253.5037468046219
 20
213.3803764221175
 30
0.0
 40
1.9999995
100
AcDbArc
 50
97.25175099999937
 51
172.7482490000007
  0
ARC
  5
444
330
1B
100
AcDbEntity
  8
4
 62
     3
100
AcDbCircle
 10
255.2828023046218
 20
211.6013209221173
 30
0.0
 40
1.9999995
100
AcDbArc
 50
96.90706700000007
 51
173.0929329999999
  0
ARC
  5
445
330
1B
100
AcDbEntity
  8
4
 62
     3
100
AcDbCircle
 10
291.1200718046218
 20
-84.23594807788228
 30
0.0
 40
300.0
100
AcDbArc
 50
83.092933
 51
96.90706700000001
  0
ARC
  5
446
330
1B
100
AcDbEntity
  8
4
 62
     3
100
AcDbCircle
 10
291.1200718046218
 20
-82.23594857788223
 30
0.0
 40
300.0
100
AcDbArc
 50
82.74824900000003
 51
97.25175099999998
  0
ARC
  5
447
330
1B
100
AcDbEntity
  8
4
 62
     3
100
AcDbCircle
 10
334.8432793046218
 20
203.5508419221176
 30
0.0
 40
3.0
100
AcDbArc
 50
185.2617349999998
 51
265.3931879999984
  0
LINE
  5
448
330
1B
100
AcDbEntity
  8
4
 62
     3
100
AcDbLine
 10
376.085126804622
 20
197.2179424221176
 30
0.0
 11
334.6023283046218
 21
200.5605334221175
 31
0.0
  0
ARC
  5
449
330
1B
100
AcDbEntity
  8
4
 62
     3
100
AcDbCircle
 10
247.3968643046219
 20
203.5508419221176
 30
0.0
 40
3.0
100
AcDbArc
 50
274.6068120000016
 51
354.7382650000002
  0
ARC
  5
44A
330
1B
100
AcDbEntity
  8
4
 62
     3
100
AcDbCircle
 10
376.4063968046219
 20
201.2050204221175
 30
0.0
 40
4.0000005
100
AcDbArc
 50
265.3931879999981
 51
16.60987800000092
  0
LINE
  5
44B
330
1B
100
AcDbEntity
  8
4
 62
     3
100
AcDbLine
 10
376.085126804622
 20
154.3101604221174
 30
0.0
 11
334.6023283046218
 21
150.9675694221175
 31
0.0
  0
ARC
  5
44C
330
1B
100
AcDbEntity
  8
4
 62
     3
100
AcDbCircle
 10
318.9068623046219
 20
132.0408439221176
 30
0.0
 40
3.0
100
AcDbArc
 50
95.26173499999754
 51
175.3931879999984
  0
ARC
  5
44D
330
1B
100
AcDbEntity
  8
4
 62
     3
100
AcDbCircle
 10
328.7363968046218
 20
138.1477264221176
 30
0.0
 40
1.9999995
100
AcDbArc
 50
277.2517509999994
 51
352.7482490000006
  0
ARC
  5
44E
330
1B
100
AcDbEntity
  8
4
 62
     3
100
AcDbCircle
 10
326.9573413046219
 20
139.9267819221177
 30
0.0
 40
1.9999995
100
AcDbArc
 50
276.9070670000001
 51
353.0929329999999
  0
ARC
  5
44F
330
1B
100
AcDbEntity
  8
4
 62
     3
100
AcDbCircle
 10
263.3332813046218
 20
132.0408439221176
 30
0.0
 40
3.0
100
AcDbArc
 50
4.606812000001621
 51
84.73826500000246
  0
ARC
  5
450
330
1B
100
AcDbEntity
  8
4
 62
     3
100
AcDbCircle
 10
253.5037468046219
 20
138.1477264221176
 30
0.0
 40
1.9999995
100
AcDbArc
 50
187.2517509999993
 51
262.7482490000006
  0
ARC
  5
451
330
1B
100
AcDbEntity
  8
4
 62
     3
100
AcDbCircle
 10
255.2828023046218
 20
139.9267819221177
 30
0.0
 40
1.9999995
100
AcDbArc
 50
186.9070670000001
 51
263.0929329999999
  0
ARC
  5
452
330
1B
100
AcDbEntity
  8
4
 62
     3
100
AcDbCircle
 10
291.1200718046218
 20
433.7640514221173
 30
0.0
 40
300.0
100
AcDbArc
 50
262.748249
 51
277.251751
  0
ARC
  5
453
330
1B
100
AcDbEntity
  8
4
 62
     3
100
AcDbCircle
 10
291.1200718046218
 20
435.7640509221173
 30
0.0
 40
300.0
100
AcDbArc
 50
263.0929330000001
 51
276.907067
  0
ARC
  5
454
330
1B
100
AcDbEntity
  8
4
 62
     3
100
AcDbCircle
 10
247.3968643046219
 20
147.9772609221175
 30
0.0
 40
3.0
100
AcDbArc
 50
5.261734999999806
 51
85.3931879999984
  0
ARC
  5
455
330
1B
100
AcDbEntity
  8
4
 62
     3
100
AcDbCircle
 10
334.8432793046218
 20
147.9772609221175
 30
0.0
 40
3.0
100
AcDbArc
 50
94.60681200000161
 51
174.7382650000002
  0
ARC
  5
456
330
1B
100
AcDbEntity
  8
4
 62
     3
100
AcDbCircle
 10
376.4063968046219
 20
150.3230824221175
 30
0.0
 40
4.0000005
100
AcDbArc
 50
343.3901220000009
 51
94.60681200000194
  0
ARC
  5
457
330
1B
100
AcDbEntity
  8
4
 62
     3
100
AcDbCircle
 10
31.120072304622
 20
175.7640514221175
 30
0.0
 40
300.0
100
AcDbArc
 50
353.0929330000001
 51
6.907066999999978
  0
ARC
  5
458
330
1B
100
AcDbEntity
  8
4
 62
     3
100
AcDbCircle
 10
33.12007180462183
 20
175.7640514221175
 30
0.0
 40
300.0
100
AcDbArc
 50
352.7482490000001
 51
7.251750999999988
  0
ARC
  5
459
330
1B
100
AcDbEntity
  8
4
 62
     3
100
AcDbCircle
 10
549.1200718046218
 20
175.7640514221175
 30
0.0
 40
300.0
100
AcDbArc
 50
172.748249
 51
187.251751
  0
ARC
  5
45A
330
1B
100
AcDbEntity
  8
4
 62
     3
100
AcDbCircle
 10
551.1200713046217
 20
175.7640514221175
 30
0.0
 40
300.0
100
AcDbArc
 50
173.0929329999999
 51
186.907067
  0
LINE
  5
45B
330
1B
100
AcDbEntity
  8
4
100
AcDbLine
 10
752.7421405389055
 20
95.77747892211823
 30
0.0
 11
751.2421405389055
 21
95.77747892211823
 31
0.0
  0
LINE
  5
45C
330
1B
100
AcDbEntity
  8
2
100
AcDbLine
 10
751.2421405389055
 20
90.02747892211835
 30
0.0
 11
752.7421405389055
 21
91.52747892211835
 31
0.0
  0
ARC
  5
45D
330
1B
100
AcDbEntity
  8
4
 62
     3
100
AcDbCircle
 10
723.9421400389051
 20
82.76405142211752
 30
0.0
 40
1.9999995
100
AcDbArc
 50
180.0
 51
270.0
  0
LINE
  5
45E
330
1B
100
AcDbEntity
  8
4
100
AcDbLine
 10
752.7421405389055
 20
84.27747892211846
 30
0.0
 11
751.2421405389055
 21
84.27747892211846
 31
0.0
  0
LINE
  5
45F
330
1B
100
AcDbEntity
  8
2
100
AcDbLine
 10
751.2421405389055
 20
87.90615857855869
 30
0.0
 11
752.7421405389055
 21
89.40615857855869
 31
0.0
  0
ARC
  5
460
330
1B
100
AcDbEntity
  8
4
 62
     3
100
AcDbCircle
 10
618.9421400389051
 20
78.76405092211758
 30
0.0
 40
1.9999995
100
AcDbArc
 50
90.0
 51
180.0
  0
ARC
  5
461
330
1B
100
AcDbEntity
  8
4
 62
     3
100
AcDbCircle
 10
659.9421410389054
 20
82.76405142211752
 30
0.0
 40
1.9999995
100
AcDbArc
 50
270.0
 51
0.0
  0
LINE
  5
462
330
1B
100
AcDbEntity
  8
4
100
AcDbLine
 10
752.7421405389055
 20
84.27747892211846
 30
0.0
 11
752.7421405389055
 21
95.77747892211823
 31
0.0
  0
LINE
  5
46C
330
1B
100
AcDbEntity
  8
L-CENTER
 48
2.5
100
AcDbLine
 10
746.9421410389054
 20
87.76405192211746
 30
0.0
 11
746.9421410389054
 21
48.76405142211752
 31
0.0
  0
LINE
  5
46D
330
1B
100
AcDbEntity
  8
L-CENTER
 48
2.5
100
AcDbLine
 10
636.9421400389051
 20
87.76405192211746
 30
0.0
 11
636.9421400389051
 21
48.76405142211752
 31
0.0
  0
LINE
  5
471
330
1B
100
AcDbEntity
  8
4
 62
     3
100
AcDbLine
 10
616.9421405389053
 20
78.76405092211758
 30
0.0
 11
616.9421405389053
 21
55.76405142211752
 31
0.0
  0
ARC
  5
473
330
1B
100
AcDbEntity
  8
4
 62
     3
100
AcDbCircle
 10
390.8041273046217
 20
85.76405142211752
 30
0.0
 40
4.9999995
100
AcDbArc
 50
164.415651
 51
270.0
  0
ARC
  5
474
330
1B
100
AcDbEntity
  8
4
 62
     3
100
AcDbCircle
 10
403.1200723046218
 20
85.76405142211752
 30
0.0
 40
4.9999995
100
AcDbArc
 50
180.0
 51
270.0
  0
ARC
  5
476
330
1B
100
AcDbEntity
  8
4
 62
     3
100
AcDbCircle
 10
419.1200713046219
 20
78.76405092211758
 30
0.0
 40
1.9999995
100
AcDbArc
 50
0.0
 51
90.0
  0
ARC
  5
478
330
1B
100
AcDbEntity
  8
4
 62
     3
100
AcDbCircle
 10
364.1200723046218
 20
60.76405092211758
 30
0.0
 40
4.9999995
100
AcDbArc
 50
0.0
 51
90.0
  0
ARC
  5
479
330
1B
100
AcDbEntity
  8
4
 62
     3
100
AcDbCircle
 10
364.1200723046218
 20
71.81451342211767
 30
0.0
 40
4.9999995
100
AcDbArc
 50
0.0
 51
102.5863330000002
  0
ARC
  5
47A
330
1B
100
AcDbEntity
  8
4
 62
     3
100
AcDbCircle
 10
371.1200713046219
 20
78.76405092211758
 30
0.0
 40
1.9999995
100
AcDbArc
 50
90.0
 51
180.0
  0
ARC
  5
47B
330
1B
100
AcDbEntity
  8
4
 62
     3
100
AcDbCircle
 10
373.1200723046218
 20
78.76405092211758
 30
0.0
 40
1.9999995
100
AcDbArc
 50
90.0
 51
180.0
  0
ARC
  5
47C
330
1B
100
AcDbEntity
  8
4
 62
     3
100
AcDbCircle
 10
291.1200718046218
 20
398.7640519221177
 30
0.0
 40
330.0
100
AcDbArc
 50
270.0
 51
282.586333
  0
ARC
  5
47D
330
1B
100
AcDbEntity
  8
4
 62
     3
100
AcDbCircle
 10
316.5610408046218
 20
90.47772642211748
 30
0.0
 40
4.0000005
100
AcDbArc
 50
175.3931879999998
 51
286.6098780000009
  0
ARC
  5
47E
330
1B
100
AcDbEntity
  8
4
 62
     3
100
AcDbCircle
 10
265.6791028046218
 20
90.47772642211748
 30
0.0
 40
4.0000005
100
AcDbArc
 50
253.3901219999991
 51
4.606812000000274
  0
LINE
  5
47F
330
1B
100
AcDbEntity
  8
4
 62
     3
100
AcDbLine
 10
371.1200713046219
 20
80.76405192211746
 30
0.0
 11
419.1200713046219
 21
80.76405192211746
 31
0.0
  0
TEXT
  5
484
330
1B
100
AcDbEntity
  8
3
100
AcDbText
 10
471.9940921529326
 20
54.13361355699351
 30
0.0
 40
7.5
  1
LB4-08
  7
KANJI
 72
     1
 11
492.6190921529326
 21
54.13361355699351
 31
0.0
100
AcDbText
  0
LINE
  5
488
330
1B
100
AcDbEntity
  8
4
 62
     3
100
AcDbLine
 10
369.1200718046218
 20
55.76405142211752
 30
0.0
 11
421.1200723046218
 21
55.76405142211752
 31
0.0
  0
LWPOLYLINE
  5
489
330
1B
100
AcDbEntity
  8
4
100
AcDbPolyline
 90
       44
 70
     0
 43
0.0
 10
385.8940013046215
 20
80.77330642211791
 10
386.1763938046213
 20
80.41186392211807
 10
386.4489188046216
 20
80.05188392211812
 10
386.7017163046214
 20
79.69483142211811
 10
387.2430713046215
 20
78.65585392211801
 10
387.3182938046214
 20
78.32513392211808
 10
387.3244638046215
 20
78.00465142211806
 10
387.2517113046215
 20
77.69587642211809
 10
387.0715163046214
 20
77.36336142211803
 10
386.8129513046215
 20
77.04133642211809
 10
386.5097213046215
 20
76.72366892211812
 10
386.1955338046214
 20
76.40423142211807
 10
385.9040913046215
 20
76.07689142211802
 10
385.6691063046214
 20
75.73551642211805
 10
385.5254513046214
 20
75.40348142211815
 10
385.4497238046215
 20
75.05608642211791
 10
385.4329038046214
 20
74.69517642211804
 10
385.6457088046216
 20
73.54983892211794
 10
386.0639963046215
 20
72.34939142211806
 10
386.4442413046215
 20
71.143721422118
 10
386.5204463046214
 20
70.74929392211789
 10
386.5563463046215
 20
70.36167392211792
 10
386.5429213046216
 20
69.98271392211791
 10
386.4328738046215
 20
69.47085392211807
 10
386.2330888046215
 20
68.97563642211799
 10
385.9672388046215
 20
68.49327892211795
 10
385.0099388046215
 20
67.08560642211796
 10
384.7164813046215
 20
66.61691892211797
 10
384.4752863046215
 20
66.14220392211791
 10
384.3100263046215
 20
65.657681422118
 10
384.2415763046215
 20
65.21906892211791
 10
384.2399163046214
 20
64.77107892211802
 10
384.2940888046214
 20
64.31494392211789
 10
384.6820663046215
 20
62.90995142211796
 10
385.1781838046215
 20
61.47588642211804
 10
385.3164663046214
 20
60.99714142211815
 10
385.4229463046215
 20
60.52007892211805
 10
385.4866688046216
 20
60.04593392211791
 10
385.4839088046215
 20
59.29820892211796
 10
385.3674588046215
 20
58.55925392211793
 10
385.1600538046214
 20
57.82731642211797
 10
384.8844338046215
 20
57.10064142211809
 10
384.5633363046215
 20
56.37747392211804
 10
384.2709729317505
 20
55.76405142211797
  0
LINE
  5
48A
330
1B
100
AcDbEntity
  8
4
100
AcDbLine
 10
408.6200713046214
 20
80.76405142211797
 30
0.0
 11
408.6200713046214
 21
55.76405142211797
 31
0.0
  0
LINE
  5
48B
330
1B
100
AcDbEntity
  8
4
100
AcDbLine
 10
393.6200713046214
 20
80.76405142211797
 30
0.0
 11
393.6200713046214
 21
55.76405142211797
 31
0.0
  0
LINE
  5
48C
330
1B
100
AcDbEntity
  8
4
 62
     3
100
AcDbLine
 10
369.1200718046218
 20
78.76405092211758
 30
0.0
 11
369.1200718046218
 21
55.76405142211752
 31
0.0
  0
LINE
  5
48D
330
1B
100
AcDbEntity
  8
4
 62
     3
100
AcDbLine
 10
371.1200713046219
 20
78.76405092211758
 30
0.0
 11
371.1200713046219
 21
55.76405142211752
 31
0.0
  0
LINE
  5
48E
330
1B
100
AcDbEntity
  8
L-CENTER
 48
2.5
100
AcDbLine
 10
401.1200713046219
 20
87.76405192211746
 30
0.0
 11
401.1200713046219
 21
48.76405142211752
 31
0.0
  0
LINE
  5
490
330
1B
100
AcDbEntity
  8
4
 62
     3
100
AcDbLine
 10
421.1200723046218
 20
78.76405092211758
 30
0.0
 11
421.1200723046218
 21
55.76405142211752
 31
0.0
  0
LINE
  5
492
330
1B
100
AcDbEntity
  8
4
 62
     3
100
AcDbLine
 10
721.9421405389053
 20
163.4959159221175
 30
0.0
 11
721.9421405389053
 21
82.76405142211752
 31
0.0
  0
LINE
  5
493
330
1B
100
AcDbEntity
  8
4
 62
     3
100
AcDbLine
 10
661.9421405389053
 20
163.4959159221175
 30
0.0
 11
661.9421405389053
 21
82.76405142211752
 31
0.0
  0
LINE
  5
495
330
1B
100
AcDbEntity
  8
4
 62
     3
100
AcDbLine
 10
623.6284069941767
 20
133.0152504908181
 30
0.0
 11
640.9421405389053
 21
82.51406442211749
 31
0.0
  0
LINE
  5
497
330
1B
100
AcDbEntity
  8
4
100
AcDbLine
 10
625.3308439943389
 20
132.6747639903457
 30
0.0
 11
640.9421405389057
 21
87.13929416312465
 31
0.0
  0
LINE
  5
498
330
1B
100
AcDbEntity
  8
4
 62
     3
100
AcDbLine
 10
398.1200713046219
 20
175.7640514221175
 30
0.0
 11
398.1200713046219
 21
85.76405142211752
 31
0.0
  0
LINE
  5
499
330
1B
100
AcDbEntity
  8
4
 62
     3
100
AcDbLine
 10
269.6661808046217
 20
90.7989964221174
 30
0.0
 11
266.3235898046219
 21
132.2817949221176
 31
0.0
  0
LINE
  5
49A
330
1B
100
AcDbEntity
  8
4
 62
     3
100
AcDbLine
 10
312.5739628046219
 20
90.7989964221174
 30
0.0
 11
315.9165538046218
 21
132.2817949221176
 31
0.0
  0
LINE
  5
49B
330
1B
100
AcDbEntity
  8
4
 62
     3
100
AcDbLine
 10
616.9421405389053
 20
55.76405142211752
 30
0.0
 11
766.9421405389053
 21
55.76405142211752
 31
0.0
  0
LINE
  5
49C
330
1B
100
AcDbEntity
  8
4
 62
     3
100
AcDbLine
 10
764.9421410389054
 20
80.76405192211746
 30
0.0
 11
618.963259795361
 21
80.76405192211746
 31
0.0
  0
LINE
  5
49D
330
1B
100
AcDbEntity
  8
L-CENTER
 48
2.5
100
AcDbLine
 10
778.2977225043489
 20
175.7640514221175
 30
0.0
 11
533.0726116788447
 21
175.7640514221176
 31
0.0
  0
LINE
  5
49E
330
1B
100
AcDbEntity
  8
4
100
AcDbLine
 10
762.5229571300947
 20
131.2224559469871
 30
0.0
 11
752.7421405389055
 21
95.51471283629678
 31
0.0
  0
LINE
  5
49F
330
1B
100
AcDbEntity
  8
4
100
AcDbLine
 10
751.2588619845578
 20
95.77747892211823
 30
0.0
 11
760.5406051205041
 21
129.6632078311302
 31
0.0
  0
LINE
  5
4A0
330
1B
100
AcDbEntity
  8
4
100
AcDbLine
 10
762.5229571300956
 20
150.7640514221175
 30
0.0
 11
751.2421405389055
 21
154.764051422118
 31
0.0
  0
LINE
  5
4A1
330
1B
100
AcDbEntity
  8
4
100
AcDbLine
 10
760.8421405389058
 20
150.7640514221175
 30
0.0
 11
751.2421405389064
 21
154.1680603154091
 31
0.0
  0
LINE
  5
4A2
330
1B
100
AcDbEntity
  8
4
100
AcDbLine
 10
762.5229571300956
 20
200.7640514221175
 30
0.0
 11
751.2421405389055
 21
196.7640514221171
 31
0.0
  0
LINE
  5
4A3
330
1B
100
AcDbEntity
  8
4
100
AcDbLine
 10
760.842140538904
 20
200.7640514221173
 30
0.0
 11
751.2421405389064
 21
197.3600425288255
 31
0.0
  0
LINE
  5
4A4
330
1B
100
AcDbEntity
  8
L-CENTER
 48
2.5
100
AcDbLine
 10
729.2153105364473
 20
90.02747892211778
 30
0.0
 11
759.974904463179
 21
90.02747892211858
 31
0.0
  0
LINE
  5
4A5
330
1B
100
AcDbEntity
  8
4
100
AcDbLine
 10
758.7421405389055
 20
170.7640514221176
 30
0.0
 11
752.7421405389055
 21
170.7640514221175
 31
0.0
  0
LINE
  5
4A6
330
1B
100
AcDbEntity
  8
4
100
AcDbLine
 10
758.7421405389055
 20
180.7640514221175
 30
0.0
 11
752.7421405389055
 21
180.7640514221175
 31
0.0
  0
LINE
  5
4A7
330
1B
100
AcDbEntity
  8
4
100
AcDbLine
 10
758.7421405389055
 20
85.02747892211846
 30
0.0
 11
752.7421405389055
 21
85.02747892211823
 31
0.0
  0
LINE
  5
4A8
330
1B
100
AcDbEntity
  8
4
100
AcDbLine
 10
758.7421405389055
 20
95.02747892211835
 30
0.0
 11
752.7421405389055
 21
95.02747892211823
 31
0.0
  0
LINE
  5
4AB
330
1B
100
AcDbEntity
  8
L-CENTER
 48
2.5
100
AcDbLine
 10
691.9421405389053
 20
49.02505992211752
 30
0.0
 11
691.9421405389053
 21
332.8191870742753
 31
0.0
  0
LINE
  5
4AC
330
1B
100
AcDbEntity
  8
4
 62
     3
100
AcDbLine
 10
739.9421405389053
 20
280.7640514221175
 30
0.0
 11
739.9421405389053
 21
80.76405192211757
 31
0.0
  0
LINE
  5
4AD
330
1B
100
AcDbEntity
  8
4
 62
     3
100
AcDbLine
 10
640.9421405389053
 20
279.7640509221173
 30
0.0
 11
640.9421405389053
 21
80.76405192211746
 31
0.0
  0
LINE
  5
4AE
330
1B
100
AcDbEntity
  8
4
100
AcDbLine
 10
648.9421415389056
 20
281.7640519221177
 30
0.0
 11
648.9421415389056
 21
80.76405192211746
 31
0.0
  0
LINE
  5
4AF
330
1B
100
AcDbEntity
  8
4
100
AcDbLine
 10
649.9421405389053
 20
275.7640519221177
 30
0.0
 11
649.9421405389053
 21
80.76405192211746
 31
0.0
  0
LINE
  5
4B0
330
1B
100
AcDbEntity
  8
4
100
AcDbLine
 10
734.9421395389049
 20
281.7640519221177
 30
0.0
 11
734.9421395389049
 21
80.76405192211746
 31
0.0
  0
LINE
  5
4B1
330
1B
100
AcDbEntity
  8
4
100
AcDbLine
 10
733.9421405389053
 20
275.7640519221177
 30
0.0
 11
733.9421405389053
 21
80.76405192211746
 31
0.0
  0
LINE
  5
4B2
330
1B
100
AcDbEntity
  8
4
100
AcDbLine
 10
751.2421405389055
 20
279.7640514221175
 30
0.0
 11
751.2421405389055
 21
80.76405192211746
 31
0.0
  0
LINE
  5
4B3
330
1B
100
AcDbEntity
  8
4
100
AcDbLine
 10
739.9421405389057
 20
80.76405192211757
 30
0.0
 11
739.9421405389053
 21
280.7640514221175
 31
0.0
  0
CIRCLE
  5
4B4
330
1B
100
AcDbEntity
  8
4
100
AcDbCircle
 10
691.9421405389053
 20
275.7640519221177
 30
0.0
 40
42.0
  0
LINE
  5
4B7
330
1B
100
AcDbEntity
  8
4
100
AcDbLine
 10
625.3230020389051
 20
218.8304614221175
 30
0.0
 11
640.9421405389053
 21
264.3888083951124
 31
0.0
  0
ARC
  5
4B8
330
1B
100
AcDbEntity
  8
4
 62
     3
100
AcDbCircle
 10
949.9421405389053
 20
275.7640519221177
 30
0.0
 40
300.0
100
AcDbArc
 50
172.85057
 51
187.1498659109533
  0
ARC
  5
4BA
330
1B
100
AcDbEntity
  8
4
 62
     3
100
AcDbCircle
 10
433.9421405389053
 20
275.7640519221177
 30
0.0
 40
300.0
100
AcDbArc
 50
352.8501340890467
 51
7.149430000000029
  0
LINE
  5
4BB
330
1B
100
AcDbEntity
  8
4
100
AcDbLine
 10
751.2588619845583
 20
255.7506239221176
 30
0.0
 11
760.540605120505
 21
221.8648950131051
 31
0.0
  0
LINE
  5
4BC
330
1B
100
AcDbEntity
  8
4
100
AcDbLine
 10
762.5229571300947
 20
220.3056468972479
 30
0.0
 11
752.7421405389055
 21
256.0133900079375
 31
0.0
  0
ARC
  5
4BD
330
1B
100
AcDbEntity
  8
4
 62
     3
100
AcDbCircle
 10
68.12007130462166
 20
175.7640514221175
 30
0.0
 40
330.0
100
AcDbArc
 50
344.4156509999999
 51
16.07294399999999
  0
LINE
  5
4BE
330
1B
100
AcDbEntity
  8
L-CENTER
 48
2.5
100
AcDbLine
 10
291.1200718046218
 20
62.83734642211766
 30
0.0
 11
291.1200718046218
 21
325.7640514221175
 31
0.0
  0
LINE
  5
4BF
330
1B
100
AcDbEntity
  8
4
 62
     3
100
AcDbLine
 10
401.6200723046218
 20
317.7640519221175
 30
0.0
 11
401.6200723046218
 21
233.7640519221177
 31
0.0
  0
LINE
  5
4C0
330
1B
100
AcDbEntity
  8
4
 62
     3
100
AcDbLine
 10
395.1200713046219
 20
220.1599969221174
 30
0.0
 11
395.1200713046219
 21
264.7640509221173
 31
0.0
  0
LINE
  5
4C4
330
1B
100
AcDbEntity
  8
4
100
AcDbLine
 10
180.6200713046217
 20
306.7640519221177
 30
0.0
 11
179.6200713046217
 21
306.7640519221177
 31
0.0
  0
LINE
  5
4C5
330
1B
100
AcDbEntity
  8
4
 62
     3
100
AcDbLine
 10
180.6200713046217
 20
317.7640519221175
 30
0.0
 11
186.3880213046218
 21
317.7640519221175
 31
0.0
  0
ARC
  5
4C6
330
1B
100
AcDbEntity
  8
4
 62
     3
100
AcDbCircle
 10
186.3880213046218
 20
318.7640509221176
 30
0.0
 40
1.0000005
100
AcDbArc
 50
270.0
 51
330.0000000000024
  0
ARC
  5
4C7
330
1B
100
AcDbEntity
  8
4
 62
     3
100
AcDbCircle
 10
188.1200713046217
 20
317.7640519221175
 30
0.0
 40
1.0000005
100
AcDbArc
 50
90.0
 51
150.0849845346778
  0
LINE
  5
4C8
330
1B
100
AcDbEntity
  8
4
100
AcDbLine
 10
218.6205618046217
 20
321.2640514221175
 30
0.0
 11
218.6205618046217
 21
327.2640514221175
 31
0.0
  0
LINE
  5
4C9
330
1B
100
AcDbEntity
  8
4
100
AcDbLine
 10
219.6205618046217
 20
319.7640514221175
 30
0.0
 11
219.6205618046217
 21
321.2640514221175
 31
0.0
  0
LINE
  5
4CA
330
1B
100
AcDbEntity
  8
4
 62
     3
100
AcDbLine
 10
212.1200713046217
 20
319.7640514221175
 30
0.0
 11
212.1200713046217
 21
319.7540509221176
 31
0.0
  0
ARC
  5
4CB
330
1B
100
AcDbEntity
  8
4
 62
     3
100
AcDbCircle
 10
211.1300713046219
 20
319.7540509221176
 30
0.0
 40
0.99
100
AcDbArc
 50
270.0
 51
0.0
  0
ARC
  5
4CC
330
1B
100
AcDbEntity
  8
4
 62
     3
100
AcDbCircle
 10
186.1200718046218
 20
286.7640514221175
 30
0.0
 40
1.0000005
100
AcDbArc
 50
270.0
 51
0.0
  0
LINE
  5
4CD
330
1B
100
AcDbEntity
  8
4
100
AcDbLine
 10
180.6200713046217
 20
244.7640519221177
 30
0.0
 11
179.6200713046217
 21
244.7640519221177
 31
0.0
  0
ARC
  5
4CE
330
1B
100
AcDbEntity
  8
4
 62
     3
100
AcDbCircle
 10
186.1200718046218
 20
264.7640509221173
 30
0.0
 40
1.0000005
100
AcDbArc
 50
0.0
 51
90.0
  0
ARC
  5
4CF
330
1B
100
AcDbEntity
  8
4
 62
     3
100
AcDbCircle
 10
200.8634113046219
 20
266.0207119221175
 30
0.0
 40
4.0000005
100
AcDbArc
 50
106.0729439999987
 51
163.9270560000012
  0
LINE
  5
4D0
330
1B
100
AcDbEntity
  8
4
 62
     3
100
AcDbLine
 10
187.1200723046218
 20
286.7640514221175
 30
0.0
 11
187.1200723046218
 21
317.7640519221175
 31
0.0
  0
LINE
  5
4D1
330
1B
100
AcDbEntity
  8
4
100
AcDbLine
 10
179.6200713046217
 20
306.7640519221177
 30
0.0
 11
179.6200713046217
 21
244.7640519221177
 31
0.0
  0
LINE
  5
4D3
330
1B
100
AcDbEntity
  8
4
 62
     3
100
AcDbLine
 10
185.1200713046219
 20
233.7640519221177
 30
0.0
 11
180.6200713046219
 21
233.7640519221177
 31
0.0
  0
ARC
  5
4D4
330
1B
100
AcDbEntity
  8
4
 62
     3
100
AcDbCircle
 10
185.1200713046219
 20
231.7640509221173
 30
0.0
 40
1.9999995
100
AcDbArc
 50
0.0
 51
90.0
  0
ARC
  5
4D5
330
1B
100
AcDbEntity
  8
4
 62
     3
100
AcDbCircle
 10
205.8337468046218
 20
201.2050204221175
 30
0.0
 40
4.0000005
100
AcDbArc
 50
163.3901219999992
 51
274.6068119999987
  0
ARC
  5
4D6
330
1B
100
AcDbEntity
  8
4
 62
     3
100
AcDbCircle
 10
182.1200713046217
 20
158.7640519221175
 30
0.0
 40
1.9999995
100
AcDbArc
 50
270.0
 51
0.0
  0
LINE
  5
4D7
330
1B
100
AcDbEntity
  8
4
100
AcDbLine
 10
180.6200713046217
 20
152.7640509221176
 30
0.0
 11
182.1200713046217
 21
152.7640509221176
 31
0.0
  0
LINE
  5
4D8
330
1B
100
AcDbEntity
  8
4
100
AcDbLine
 10
173.6200713046217
 20
153.7640509221176
 30
0.0
 11
180.6200713046217
 21
153.7640509221176
 31
0.0
  0
LINE
  5
4D9
330
1B
100
AcDbEntity
  8
4
 62
     3
100
AcDbLine
 10
184.120072304622
 20
175.7640514221175
 30
0.0
 11
184.120072304622
 21
158.7640519221175
 31
0.0
  0
LINE
  5
4DA
330
1B
100
AcDbEntity
  8
4
100
AcDbLine
 10
178.6200713046217
 20
131.2640509221176
 30
0.0
 11
173.6200713046217
 21
131.2640509221176
 31
0.0
  0
LINE
  5
4DB
330
1B
100
AcDbEntity
  8
4
100
AcDbLine
 10
180.6200713046217
 20
124.7640509221176
 30
0.0
 11
182.1200713046217
 21
124.7640509221176
 31
0.0
  0
LINE
  5
4DC
330
1B
100
AcDbEntity
  8
4
100
AcDbLine
 10
180.6200713046217
 20
123.7640509221176
 30
0.0
 11
173.6200713046217
 21
123.7640509221176
 31
0.0
  0
LINE
  5
4DD
330
1B
100
AcDbEntity
  8
L-CENTER
 48
2.5
100
AcDbLine
 10
194.0657968046219
 20
138.7640509221176
 30
0.0
 11
170.4945700553224
 21
138.7640509221176
 31
0.0
  0
LINE
  5
4DE
330
1B
100
AcDbEntity
  8
4
100
AcDbLine
 10
178.6200713046217
 20
146.2640509221176
 30
0.0
 11
173.6200713046217
 21
146.2640509221176
 31
0.0
  0
LINE
  5
4DF
330
1B
100
AcDbEntity
  8
4
100
AcDbLine
 10
173.6200713046217
 20
123.7640509221176
 30
0.0
 11
173.6200713046217
 21
153.7640509221176
 31
0.0
  0
LINE
  5
4E0
330
1B
100
AcDbEntity
  8
4
100
AcDbLine
 10
178.6200713046217
 20
123.7640509221176
 30
0.0
 11
178.6200713046217
 21
153.7640509221176
 31
0.0
  0
LINE
  5
4E1
330
1B
100
AcDbEntity
  8
4
100
AcDbLine
 10
180.6200713046217
 20
123.7640509221176
 30
0.0
 11
180.6200713046217
 21
153.7640509221176
 31
0.0
  0
LINE
  5
4E2
330
1B
100
AcDbEntity
  8
4
100
AcDbLine
 10
182.1200713046217
 20
124.7640509221176
 30
0.0
 11
182.1200713046217
 21
152.7640509221176
 31
0.0
  0
ARC
  5
4E3
330
1B
100
AcDbEntity
  8
4
 62
     3
100
AcDbCircle
 10
205.8337468046218
 20
150.3230824221175
 30
0.0
 40
4.0000005
100
AcDbArc
 50
85.39318800000132
 51
196.6098779999991
  0
LINE
  5
4E4
330
1B
100
AcDbEntity
  8
L-CENTER
 48
2.5
100
AcDbLine
 10
195.4547428046219
 20
95.76405192211746
 30
0.0
 11
176.879516804622
 21
95.76405192211746
 31
0.0
  0
LINE
  5
4E5
330
1B
100
AcDbEntity
  8
4
100
AcDbLine
 10
180.120072304622
 20
89.76405192211746
 30
0.0
 11
180.120072304622
 21
101.7640519221175
 31
0.0
  0
LINE
  5
4E6
330
1B
100
AcDbEntity
  8
4
100
AcDbLine
 10
180.120072304622
 20
89.76405192211746
 30
0.0
 11
181.120072304622
 21
89.76405192211746
 31
0.0
  0
ARC
  5
4E7
330
1B
100
AcDbEntity
  8
4
 62
     3
100
AcDbCircle
 10
181.6200718046218
 20
106.2640519221175
 30
0.0
 40
0.4999995
100
AcDbArc
 50
270.0
 51
0.0
  0
LINE
  5
4E8
330
1B
100
AcDbEntity
  8
4
 62
     3
100
AcDbLine
 10
181.120072304622
 20
105.7640509221176
 30
0.0
 11
181.6200718046218
 21
105.7640509221176
 31
0.0
  0
LINE
  5
4E9
330
1B
100
AcDbEntity
  8
4
100
AcDbLine
 10
180.120072304622
 20
101.7640519221175
 30
0.0
 11
181.120072304622
 21
101.7640519221175
 31
0.0
  0
LINE
  5
4EA
330
1B
100
AcDbEntity
  8
4
 62
     3
100
AcDbLine
 10
211.1200723046218
 20
80.76405192211746
 30
0.0
 11
163.1200723046218
 21
80.76405192211746
 31
0.0
  0
ARC
  5
4EB
330
1B
100
AcDbEntity
  8
4
 62
     3
100
AcDbCircle
 10
181.6200718046218
 20
85.26405192211746
 30
0.0
 40
0.4999995
100
AcDbArc
 50
0.0
 51
90.0
  0
LINE
  5
4EC
330
1B
100
AcDbEntity
  8
4
 62
     3
100
AcDbLine
 10
181.6200718046218
 20
85.76405142211752
 30
0.0
 11
181.120072304622
 21
85.76405142211752
 31
0.0
  0
ARC
  5
4ED
330
1B
100
AcDbEntity
  8
4
 62
     3
100
AcDbCircle
 10
180.1200718046218
 20
82.76405142211752
 30
0.0
 40
1.9999995
100
AcDbArc
 50
270.0
 51
0.0
  0
ARC
  5
4EE
330
1B
100
AcDbEntity
  8
4
 62
     3
100
AcDbCircle
 10
163.120072304622
 20
78.76405092211758
 30
0.0
 40
1.9999995
100
AcDbArc
 50
90.0
 51
180.0
  0
LINE
  5
4EF
330
1B
100
AcDbEntity
  8
4
 62
     3
100
AcDbLine
 10
163.120072304622
 20
80.76405192211746
 30
0.0
 11
180.1200718046218
 21
80.76405192211746
 31
0.0
  0
ARC
  5
4F0
330
1B
100
AcDbEntity
  8
4
 62
     3
100
AcDbCircle
 10
179.1200713046219
 20
85.76405142211752
 30
0.0
 40
4.9999995
100
AcDbArc
 50
270.0
 51
0.0
  0
ARC
  5
4F1
330
1B
100
AcDbEntity
  8
4
 62
     3
100
AcDbCircle
 10
218.1200713046219
 20
60.76405092211758
 30
0.0
 40
4.9999995
100
AcDbArc
 50
90.0
 51
180.0
  0
ARC
  5
4F2
330
1B
100
AcDbEntity
  8
4
 62
     3
100
AcDbCircle
 10
209.1200713046219
 20
78.76405092211758
 30
0.0
 40
1.9999995
100
AcDbArc
 50
0.0
 51
90.0
  0
ARC
  5
4F3
330
1B
100
AcDbEntity
  8
4
 62
     3
100
AcDbCircle
 10
211.1200723046218
 20
78.76405092211758
 30
0.0
 40
1.9999995
100
AcDbArc
 50
0.0
 51
90.0
  0
ARC
  5
4F4
330
1B
100
AcDbEntity
  8
4
 62
     3
100
AcDbCircle
 10
218.1200713046219
 20
71.81451342211767
 30
0.0
 40
4.9999995
100
AcDbArc
 50
77.41366699999983
 51
180.0
  0
ARC
  5
4F5
330
1B
100
AcDbEntity
  8
4
 62
     3
100
AcDbCircle
 10
191.4360163046219
 20
85.76405142211752
 30
0.0
 40
4.9999995
100
AcDbArc
 50
270.0
 51
15.58434899999998
  0
LINE
  5
4F6
330
1B
100
AcDbEntity
  8
4
 62
     3
100
AcDbLine
 10
181.120072304622
 20
105.7640509221176
 30
0.0
 11
181.120072304622
 21
85.76405142211752
 31
0.0
  0
LINE
  5
4F7
330
1B
100
AcDbEntity
  8
4
 62
     3
100
AcDbLine
 10
161.1200713046217
 20
55.76405142211752
 30
0.0
 11
213.1200718046218
 21
55.76405142211752
 31
0.0
  0
LINE
  5
4FA
330
1B
100
AcDbEntity
  8
4
 62
     3
100
AcDbLine
 10
161.1200713046217
 20
78.76405092211758
 30
0.0
 11
161.1200713046217
 21
55.76405142211752
 31
0.0
  0
LINE
  5
4FB
330
1B
100
AcDbEntity
  8
L-CENTER
 48
2.5
100
AcDbLine
 10
181.120072304622
 20
87.76405192211746
 30
0.0
 11
181.1200723046218
 21
48.76405142211752
 31
0.0
  0
LINE
  5
4FC
330
1B
100
AcDbEntity
  8
4
 62
     3
100
AcDbLine
 10
211.1200723046218
 20
78.76405092211758
 30
0.0
 11
211.1200723046218
 21
55.76405142211752
 31
0.0
  0
LINE
  5
4FD
330
1B
100
AcDbEntity
  8
4
 62
     3
100
AcDbLine
 10
213.1200718046218
 20
78.76405092211758
 30
0.0
 11
213.1200718046218
 21
55.76405142211752
 31
0.0
  0
LINE
  5
4FE
330
1B
100
AcDbEntity
  8
4
 62
     3
100
AcDbLine
 10
184.1200723046218
 20
175.7640514221175
 30
0.0
 11
184.1200723046218
 21
85.76405142211752
 31
0.0
  0
LINE
  5
4FF
330
1B
100
AcDbEntity
  8
4
 62
     3
100
AcDbLine
 10
182.1200713046217
 20
82.76405142211752
 30
0.0
 11
182.1200713046217
 21
156.7640509221176
 31
0.0
  0
ARC
  5
500
330
1B
100
AcDbEntity
  8
4
 62
     3
100
AcDbCircle
 10
514.120072304622
 20
175.7640514221175
 30
0.0
 40
330.0
100
AcDbArc
 50
163.927056
 51
195.584349
  0
LINE
  5
501
330
1B
100
AcDbEntity
  8
4
 62
     3
100
AcDbLine
 10
180.6200713046217
 20
317.7640519221175
 30
0.0
 11
180.6200713046217
 21
233.7640519221177
 31
0.0
  0
LINE
  5
502
330
1B
100
AcDbEntity
  8
4
 62
     3
100
AcDbLine
 10
187.1200723046218
 20
220.1599969221174
 30
0.0
 11
187.1200723046218
 21
264.7640509221173
 31
0.0
  0
LINE
  5
506
330
1B
100
AcDbEntity
  8
4
 62
     3
100
AcDbLine
 10
218.1200713046217
 20
65.76405192211746
 30
0.0
 11
364.1200723046218
 21
65.76405192211746
 31
0.0
  0
ARC
  5
507
330
1B
100
AcDbEntity
  8
4
 62
     3
100
AcDbCircle
 10
291.1200718046218
 20
398.7640519221177
 30
0.0
 40
330.0
100
AcDbArc
 50
257.413667
 51
270.0
  0
LINE
  5
508
330
1B
100
AcDbEntity
  8
L-CENTER
 48
2.5
100
AcDbLine
 10
474.9287713288256
 20
275.7640519221177
 30
0.0
 11
107.3113722804183
 21
275.7640519221177
 31
0.0
  0
LINE
  5
50B
330
1B
100
AcDbEntity
  8
L-CENTER
 48
2.5
100
AcDbLine
 10
178.193366804622
 20
175.7640514221175
 30
0.0
 11
404.0467768046217
 21
175.7640514221175
 31
0.0
  0
LINE
  5
50C
330
1B
100
AcDbEntity
  8
4
 62
     3
100
AcDbLine
 10
206.1550168046217
 20
154.3101604221174
 30
0.0
 11
247.6378153046219
 21
150.9675694221175
 31
0.0
  0
LINE
  5
50D
330
1B
100
AcDbEntity
  8
4
 62
     3
100
AcDbLine
 10
206.1550168046217
 20
197.2179424221176
 30
0.0
 11
247.6378153046219
 21
200.5605334221175
 31
0.0
  0
ARC
  5
50E
330
1B
100
AcDbEntity
  8
4
 62
     3
100
AcDbCircle
 10
291.1200718046218
 20
-47.23594907788262
 30
0.0
 40
330.0
100
AcDbArc
 50
73.92705600000002
 51
106.0734741062263
  0
LINE
  5
511
330
1B
100
AcDbEntity
  8
4
 62
     3
100
AcDbLine
 10
188.1183392540897
 20
318.7640509221176
 30
0.0
 11
394.1200723046218
 21
318.7640509221176
 31
0.0
  0
LINE
  5
512
330
1B
100
AcDbEntity
  8
4
 62
     3
100
AcDbLine
 10
250.120072304622
 20
319.7640514221175
 30
0.0
 11
212.1200713046217
 21
319.7640514221175
 31
0.0
  0
LINE
  5
513
330
1B
100
AcDbEntity
  8
4
100
AcDbLine
 10
218.6205618046217
 20
321.2640514221175
 30
0.0
 11
243.6205618046217
 21
321.2640514221175
 31
0.0
  0
LINE
  5
514
330
1B
100
AcDbEntity
  8
4
100
AcDbLine
 10
218.6205618046217
 20
323.2640514221175
 30
0.0
 11
243.6205618046217
 21
323.2640514221175
 31
0.0
  0
LINE
  5
515
330
1B
100
AcDbEntity
  8
4
100
AcDbLine
 10
218.6205618046217
 20
327.2640514221175
 30
0.0
 11
243.6205618046217
 21
327.2640514221175
 31
0.0
  0
LINE
  5
588
330
1B
100
AcDbEntity
  8
L-CENTER
 48
2.5
100
AcDbLine
 10
932.9230494913885
 20
87.76405192211746
 30
0.0
 11
932.9230494913885
 21
48.76405142211752
 31
0.0
  0
LINE
  5
589
330
1B
100
AcDbEntity
  8
L-CENTER
 48
2.5
100
AcDbLine
 10
1152.923048491389
 20
87.76405192211746
 30
0.0
 11
1152.923048491389
 21
48.76405142211752
 31
0.0
  0
CIRCLE
  5
590
330
1B
100
AcDbEntity
  8
4
100
AcDbCircle
 10
291.1200718046218
 20
175.7640514221175
 30
0.0
 40
93.0
  0
CIRCLE
  5
592
330
1B
100
AcDbEntity
  8
4
100
AcDbCircle
 10
291.1200718046218
 20
175.7640514221175
 30
0.0
 40
105.0
  0
LINE
  5
594
330
1B
100
AcDbEntity
  8
4
100
AcDbLine
 10
1221.923048991388
 20
288.2640519221177
 30
0.0
 11
1221.923048991388
 21
263.2640519221177
 31
0.0
  0
LINE
  5
595
330
1B
100
AcDbEntity
  8
4
100
AcDbLine
 10
1222.923048991388
 20
264.2640519221177
 30
0.0
 11
1222.923048991388
 21
291.2640519221177
 31
0.0
  0
LINE
  5
596
330
1B
100
AcDbEntity
  8
4
100
AcDbLine
 10
1172.923048991388
 20
290.7640519221177
 30
0.0
 11
1172.923048991388
 21
260.7640519221177
 31
0.0
  0
LINE
  5
597
330
1B
100
AcDbEntity
  8
4
100
AcDbLine
 10
1154.423048991388
 20
260.7640519221177
 30
0.0
 11
1172.923048991388
 21
260.7640519221177
 31
0.0
  0
LINE
  5
598
330
1B
100
AcDbEntity
  8
4
100
AcDbLine
 10
1172.923048991388
 20
263.2640519221177
 30
0.0
 11
1221.923048991388
 21
263.2640519221177
 31
0.0
  0
LINE
  5
599
330
1B
100
AcDbEntity
  8
4
100
AcDbLine
 10
1222.923048991388
 20
264.2640519221177
 30
0.0
 11
1221.923048991388
 21
263.2640519221177
 31
0.0
  0
LINE
  5
59A
330
1B
100
AcDbEntity
  8
4
100
AcDbLine
 10
1154.423048991388
 20
290.7640519221177
 30
0.0
 11
1172.923048991388
 21
290.7640519221177
 31
0.0
  0
LINE
  5
59B
330
1B
100
AcDbEntity
  8
4
100
AcDbLine
 10
1172.923048991388
 20
288.2640519221177
 30
0.0
 11
1221.923048991388
 21
288.2640519221177
 31
0.0
  0
LINE
  5
59C
330
1B
100
AcDbEntity
  8
4
100
AcDbLine
 10
1222.923048991388
 20
291.2640519221177
 30
0.0
 11
1177.923048991388
 21
291.2640519221177
 31
0.0
  0
LINE
  5
59D
330
1B
100
AcDbEntity
  8
4
100
AcDbLine
 10
1177.923048991388
 20
288.2640519221177
 30
0.0
 11
1177.923048991388
 21
291.2640519221177
 31
0.0
  0
LINE
  5
59E
330
1B
100
AcDbEntity
  8
4
100
AcDbLine
 10
1221.923048991388
 20
288.2640519221177
 30
0.0
 11
1222.923048991388
 21
287.2640519221177
 31
0.0
  0
LINE
  5
59F
330
1B
100
AcDbEntity
  8
4
100
AcDbLine
 10
161.1200718046218
 20
290.7640519221177
 30
0.0
 11
161.1200718046218
 21
260.7640519221177
 31
0.0
  0
LINE
  5
5A0
330
1B
100
AcDbEntity
  8
4
100
AcDbLine
 10
111.1200718046218
 20
264.2640519221177
 30
0.0
 11
111.1200718046218
 21
291.2640519221177
 31
0.0
  0
LINE
  5
5A1
330
1B
100
AcDbEntity
  8
4
100
AcDbLine
 10
112.1200718046218
 20
288.2640519221177
 30
0.0
 11
112.1200718046218
 21
263.2640519221177
 31
0.0
  0
LINE
  5
5A2
330
1B
100
AcDbEntity
  8
4
100
AcDbLine
 10
161.1200718046218
 20
263.2640519221177
 30
0.0
 11
112.1200718046218
 21
263.2640519221177
 31
0.0
  0
LINE
  5
5A3
330
1B
100
AcDbEntity
  8
4
100
AcDbLine
 10
179.6200718046218
 20
260.7640519221177
 30
0.0
 11
161.1200718046218
 21
260.7640519221177
 31
0.0
  0
LINE
  5
5A4
330
1B
100
AcDbEntity
  8
4
100
AcDbLine
 10
111.1200718046218
 20
264.2640519221177
 30
0.0
 11
112.1200718046218
 21
263.2640519221177
 31
0.0
  0
LINE
  5
5A5
330
1B
100
AcDbEntity
  8
4
100
AcDbLine
 10
111.1200718046218
 20
291.2640519221177
 30
0.0
 11
156.1200718046218
 21
291.2640519221177
 31
0.0
  0
LINE
  5
5A6
330
1B
100
AcDbEntity
  8
4
100
AcDbLine
 10
161.1200718046218
 20
288.2640519221177
 30
0.0
 11
112.1200718046218
 21
288.2640519221177
 31
0.0
  0
LINE
  5
5A7
330
1B
100
AcDbEntity
  8
4
100
AcDbLine
 10
156.1200718046218
 20
288.2640519221177
 30
0.0
 11
156.1200718046218
 21
291.2640519221177
 31
0.0
  0
LINE
  5
5A8
330
1B
100
AcDbEntity
  8
4
100
AcDbLine
 10
179.6200718046218
 20
290.7640519221177
 30
0.0
 11
161.1200718046218
 21
290.7640519221177
 31
0.0
  0
LINE
  5
5A9
330
1B
100
AcDbEntity
  8
4
100
AcDbLine
 10
112.1200718046218
 20
288.2640519221177
 30
0.0
 11
111.1200718046218
 21
287.2640519221177
 31
0.0
  0
LINE
  5
5C4
330
1B
100
AcDbEntity
  8
4
100
AcDbLine
 10
112.1200718046218
 20
645.1968715281821
 30
0.0
 11
112.1200718046218
 21
636.1968715281821
 31
0.0
  0
LINE
  5
5C5
330
1B
100
AcDbEntity
  8
4
100
AcDbLine
 10
112.1200718046218
 20
645.1968715281821
 30
0.0
 11
112.1200718046218
 21
636.1968715281821
 31
0.0
  0
LINE
  5
5C6
330
1B
100
AcDbEntity
  8
4
100
AcDbLine
 10
161.1200718046218
 20
663.6968715281821
 30
0.0
 11
161.1200718046218
 21
633.6968715281821
 31
0.0
  0
LINE
  5
5C7
330
1B
100
AcDbEntity
  8
4
100
AcDbLine
 10
161.1200718046218
 20
663.6968715281821
 30
0.0
 11
161.1200718046218
 21
633.6968715281821
 31
0.0
  0
LINE
  5
5C8
330
1B
100
AcDbEntity
  8
4
100
AcDbLine
 10
111.1200718046218
 20
660.1968715281821
 30
0.0
 11
111.1200718046218
 21
637.1968715281821
 31
0.0
  0
LINE
  5
5C9
330
1B
100
AcDbEntity
  8
4
100
AcDbLine
 10
111.1200718046218
 20
660.1968715281821
 30
0.0
 11
111.1200718046218
 21
637.1968715281821
 31
0.0
  0
LINE
  5
5CA
330
1B
100
AcDbEntity
  8
4
100
AcDbLine
 10
160.1200718046218
 20
636.1968715281821
 30
0.0
 11
112.1200718046218
 21
636.1968715281821
 31
0.0
  0
LINE
  5
5CB
330
1B
100
AcDbEntity
  8
4
100
AcDbLine
 10
160.1200718046218
 20
636.1968715281821
 30
0.0
 11
112.1200718046218
 21
636.1968715281821
 31
0.0
  0
ARC
  5
5CC
330
1B
100
AcDbEntity
  8
4
100
AcDbCircle
 10
160.1200718046218
 20
635.1968715281821
 30
0.0
 40
1.0
100
AcDbArc
 50
0.0
 51
90.0
  0
ARC
  5
5CD
330
1B
100
AcDbEntity
  8
4
100
AcDbCircle
 10
160.1200718046218
 20
635.1968715281821
 30
0.0
 40
1.0
100
AcDbArc
 50
0.0
 51
90.0
  0
LINE
  5
5CE
330
1B
100
AcDbEntity
  8
4
100
AcDbLine
 10
179.6200718046218
 20
633.6968715281821
 30
0.0
 11
161.1200718046218
 21
633.6968715281821
 31
0.0
  0
LINE
  5
5CF
330
1B
100
AcDbEntity
  8
4
100
AcDbLine
 10
179.6200718046218
 20
633.6968715281821
 30
0.0
 11
161.1200718046218
 21
633.6968715281821
 31
0.0
  0
LINE
  5
5D0
330
1B
100
AcDbEntity
  8
4
100
AcDbLine
 10
112.1200718046218
 20
636.1968715281821
 30
0.0
 11
111.1200718046218
 21
637.1968715281821
 31
0.0
  0
LINE
  5
5D1
330
1B
100
AcDbEntity
  8
4
100
AcDbLine
 10
112.1200718046218
 20
636.1968715281821
 30
0.0
 11
111.1200718046218
 21
637.1968715281821
 31
0.0
  0
LINE
  5
5D2
330
1B
100
AcDbEntity
  8
4
100
AcDbLine
 10
160.1200718046218
 20
661.1968715281821
 30
0.0
 11
112.1200718046218
 21
661.1968715281821
 31
0.0
  0
LINE
  5
5D3
330
1B
100
AcDbEntity
  8
4
100
AcDbLine
 10
160.1200718046218
 20
661.1968715281821
 30
0.0
 11
112.1200718046218
 21
661.1968715281821
 31
0.0
  0
LINE
  5
5D4
330
1B
100
AcDbEntity
  8
4
100
AcDbLine
 10
152.6200718046218
 20
652.1968715281821
 30
0.0
 11
111.1200718046218
 21
652.1968715281821
 31
0.0
  0
LINE
  5
5D5
330
1B
100
AcDbEntity
  8
4
100
AcDbLine
 10
152.6200718046218
 20
652.1968715281821
 30
0.0
 11
111.1200718046218
 21
652.1968715281821
 31
0.0
  0
LINE
  5
5D6
330
1B
100
AcDbEntity
  8
4
100
AcDbLine
 10
152.6200718046218
 20
645.1968715281821
 30
0.0
 11
111.1200718046218
 21
645.1968715281821
 31
0.0
  0
LINE
  5
5D7
330
1B
100
AcDbEntity
  8
4
100
AcDbLine
 10
152.6200718046218
 20
645.1968715281821
 30
0.0
 11
111.1200718046218
 21
645.1968715281821
 31
0.0
  0
ARC
  5
5D8
330
1B
100
AcDbEntity
  8
4
100
AcDbCircle
 10
160.1200718046218
 20
662.1968715281821
 30
0.0
 40
1.0
100
AcDbArc
 50
270.0
 51
0.0
  0
ARC
  5
5D9
330
1B
100
AcDbEntity
  8
4
100
AcDbCircle
 10
160.1200718046218
 20
662.1968715281821
 30
0.0
 40
1.0
100
AcDbArc
 50
270.0
 51
0.0
  0
ARC
  5
5DA
330
1B
100
AcDbEntity
  8
4
100
AcDbCircle
 10
152.6200718046218
 20
648.6968715281821
 30
0.0
 40
3.5
100
AcDbArc
 50
270.0
 51
90.0
  0
ARC
  5
5DB
330
1B
100
AcDbEntity
  8
4
100
AcDbCircle
 10
152.6200718046218
 20
648.6968715281821
 30
0.0
 40
3.5
100
AcDbArc
 50
270.0
 51
90.0
  0
LINE
  5
5DC
330
1B
100
AcDbEntity
  8
4
100
AcDbLine
 10
179.6200718046218
 20
663.6968715281821
 30
0.0
 11
161.1200718046218
 21
663.6968715281821
 31
0.0
  0
LINE
  5
5DD
330
1B
100
AcDbEntity
  8
4
100
AcDbLine
 10
179.6200718046218
 20
663.6968715281821
 30
0.0
 11
161.1200718046218
 21
663.6968715281821
 31
0.0
  0
LINE
  5
5DE
330
1B
100
AcDbEntity
  8
4
100
AcDbLine
 10
112.1200718046218
 20
661.1968715281821
 30
0.0
 11
112.1200718046218
 21
652.1968715281821
 31
0.0
  0
LINE
  5
5DF
330
1B
100
AcDbEntity
  8
4
100
AcDbLine
 10
112.1200718046218
 20
661.1968715281821
 30
0.0
 11
112.1200718046218
 21
652.1968715281821
 31
0.0
  0
LINE
  5
5E0
330
1B
100
AcDbEntity
  8
4
100
AcDbLine
 10
112.1200718046218
 20
661.1968715281821
 30
0.0
 11
111.1200718046218
 21
660.1968715281821
 31
0.0
  0
LINE
  5
5E1
330
1B
100
AcDbEntity
  8
4
100
AcDbLine
 10
112.1200718046218
 20
661.1968715281821
 30
0.0
 11
111.1200718046218
 21
660.1968715281821
 31
0.0
  0
CIRCLE
  5
5E2
330
1B
100
AcDbEntity
  8
4
100
AcDbCircle
 10
291.1200718046218
 20
175.7640514221176
 30
0.0
 40
25.0
  0
LINE
  5
5E3
330
1B
100
AcDbEntity
  8
4
100
AcDbLine
 10
296.1200718046218
 20
196.2640514221175
 30
0.0
 11
286.1200718046218
 21
196.2640514221175
 31
0.0
  0
LINE
  5
5E4
330
1B
100
AcDbEntity
  8
4
100
AcDbLine
 10
296.1200718046218
 20
188.2640514221175
 30
0.0
 11
286.1200718046218
 21
188.2640514221175
 31
0.0
  0
LINE
  5
5E5
330
1B
100
AcDbEntity
  8
4
100
AcDbLine
 10
286.1200718046218
 20
196.2640514221175
 30
0.0
 11
286.1200718046218
 21
188.2640514221175
 31
0.0
  0
LINE
  5
5E6
330
1B
100
AcDbEntity
  8
4
100
AcDbLine
 10
296.1200718046218
 20
188.2640514221175
 30
0.0
 11
296.1200718046218
 21
196.2640514221175
 31
0.0
  0
ARC
  5
5E7
330
1B
100
AcDbEntity
  8
4
100
AcDbCircle
 10
291.1200718046218
 20
175.7640514221175
 30
0.0
 40
16.9999725
100
AcDbArc
 50
107.104663698329
 51
72.89533500000049
  0
LINE
  5
5E8
330
1B
100
AcDbEntity
  8
4
100
AcDbLine
 10
274.1200718046218
 20
553.1968715281821
 30
0.0
 11
274.1200718046218
 21
494.6968715281821
 31
0.0
  0
LINE
  5
5E9
330
1B
100
AcDbEntity
  8
4
100
AcDbLine
 10
308.1200718046218
 20
553.1968715281821
 30
0.0
 11
308.1200718046218
 21
494.6968715281821
 31
0.0
  0
LINE
  5
5EA
330
1B
100
AcDbEntity
  8
4
100
AcDbLine
 10
286.1200718046218
 20
543.6968715281821
 30
0.0
 11
286.1200718046218
 21
493.6968715281821
 31
0.0
  0
LINE
  5
5EB
330
1B
100
AcDbEntity
  8
4
100
AcDbLine
 10
296.1200718046218
 20
543.6968715281821
 30
0.0
 11
296.1200718046218
 21
493.6968715281821
 31
0.0
  0
LINE
  5
5EC
330
1B
100
AcDbEntity
  8
4
100
AcDbLine
 10
308.6200718046218
 20
570.6968720281823
 30
0.0
 11
308.6200718046218
 21
553.6968715281821
 31
0.0
  0
LINE
  5
5ED
330
1B
100
AcDbEntity
  8
4
100
AcDbLine
 10
273.6200718046218
 20
570.6968720281823
 30
0.0
 11
273.6200718046218
 21
553.6968715281821
 31
0.0
  0
LINE
  5
5EE
330
1B
100
AcDbEntity
  8
4
100
AcDbLine
 10
266.1200718046218
 20
570.6968720281823
 30
0.0
 11
316.1200718046218
 21
570.6968720281823
 31
0.0
  0
LINE
  5
5EF
330
1B
100
AcDbEntity
  8
4
100
AcDbLine
 10
266.1200718046218
 20
570.6968720281823
 30
0.0
 11
266.1200718046218
 21
571.6968720281823
 31
0.0
  0
LINE
  5
5F0
330
1B
100
AcDbEntity
  8
4
100
AcDbLine
 10
316.1200718046218
 20
570.6968720281823
 30
0.0
 11
316.1200718046218
 21
571.6968720281823
 31
0.0
  0
LINE
  5
5F1
330
1B
100
AcDbEntity
  8
4
100
AcDbLine
 10
308.6200718046218
 20
553.6968715281821
 30
0.0
 11
273.6200718046218
 21
553.6968715281821
 31
0.0
  0
ARC
  5
5F2
330
1B
100
AcDbEntity
  8
4
100
AcDbCircle
 10
291.1200718046218
 20
543.6968715281819
 30
0.0
 40
5.0
100
AcDbArc
 50
0.0
 51
180.0
  0
LINE
  5
5F3
330
1B
100
AcDbEntity
  8
4
100
AcDbLine
 10
273.6200718046218
 20
553.6968715281821
 30
0.0
 11
273.6200718046218
 21
553.6968715281821
 31
0.0
  0
ARC
  5
5F4
330
1B
100
AcDbEntity
  8
4
100
AcDbCircle
 10
273.6200718046218
 20
553.1968715281819
 30
0.0
 40
0.5
100
AcDbArc
 50
0.0
 51
90.0
  0
LINE
  5
5F5
330
1B
100
AcDbEntity
  8
4
100
AcDbLine
 10
308.6200718046218
 20
553.6968715281821
 30
0.0
 11
308.6200718046218
 21
553.6968715281821
 31
0.0
  0
ARC
  5
5F6
330
1B
100
AcDbEntity
  8
4
100
AcDbCircle
 10
308.6200718046218
 20
553.1968715281819
 30
0.0
 40
0.5
100
AcDbArc
 50
90.0
 51
180.0
  0
LINE
  5
5F7
330
1B
100
AcDbEntity
  8
4
100
AcDbLine
 10
275.1200718046218
 20
493.6968715281821
 30
0.0
 11
307.1200718046218
 21
493.6968715281821
 31
0.0
  0
LINE
  5
5F8
330
1B
100
AcDbEntity
  8
4
100
AcDbLine
 10
296.1200718046218
 20
494.6968715281821
 30
0.0
 11
308.1200718046218
 21
494.6968715281821
 31
0.0
  0
LINE
  5
5F9
330
1B
100
AcDbEntity
  8
4
100
AcDbLine
 10
274.1200718046218
 20
494.6968715281821
 30
0.0
 11
286.1200718046218
 21
494.6968715281821
 31
0.0
  0
LINE
  5
5FA
330
1B
100
AcDbEntity
  8
4
100
AcDbLine
 10
274.1200718046218
 20
494.6968715281821
 30
0.0
 11
275.1200718046218
 21
493.6968715281821
 31
0.0
  0
LINE
  5
5FB
330
1B
100
AcDbEntity
  8
4
100
AcDbLine
 10
308.1200718046218
 20
494.6968715281821
 30
0.0
 11
307.1200718046218
 21
493.6968715281821
 31
0.0
  0
LINE
  5
5FF
330
1B
100
AcDbEntity
  8
4
100
AcDbLine
 10
536.9421405389053
 20
196.2640514221175
 30
0.0
 11
536.9421405389053
 21
159.7640514221175
 31
0.0
  0
LINE
  5
600
330
1B
100
AcDbEntity
  8
4
100
AcDbLine
 10
537.9421405389053
 20
192.7640514221175
 30
0.0
 11
537.9421405389053
 21
158.7640514221175
 31
0.0
  0
LINE
  5
601
330
1B
100
AcDbEntity
  8
4
100
AcDbLine
 10
613.942141038905
 20
200.7640514221175
 30
0.0
 11
613.942141038905
 21
150.7640514221175
 31
0.0
  0
LINE
  5
602
330
1B
100
AcDbEntity
  8
4
100
AcDbLine
 10
596.9421405389053
 20
193.2640514221175
 30
0.0
 11
596.9421405389053
 21
158.2640514221175
 31
0.0
  0
LINE
  5
603
330
1B
100
AcDbEntity
  8
4
100
AcDbLine
 10
596.9421405389053
 20
158.7640514221175
 30
0.0
 11
537.9421405389053
 21
158.7640514221175
 31
0.0
  0
LINE
  5
604
330
1B
100
AcDbEntity
  8
4
100
AcDbLine
 10
613.942141038905
 20
150.7640514221175
 30
0.0
 11
614.9421410389054
 21
150.7640514221175
 31
0.0
  0
LINE
  5
605
330
1B
100
AcDbEntity
  8
4
100
AcDbLine
 10
613.942141038905
 20
158.2640514221175
 30
0.0
 11
596.9421405389053
 21
158.2640514221175
 31
0.0
  0
LINE
  5
608
330
1B
100
AcDbEntity
  8
4
100
AcDbLine
 10
536.9421405389053
 20
159.7640514221175
 30
0.0
 11
537.9421405389053
 21
158.7640514221175
 31
0.0
  0
LINE
  5
609
330
1B
100
AcDbEntity
  8
4
100
AcDbLine
 10
591.9421405389053
 20
196.2640514221175
 30
0.0
 11
536.9421405389053
 21
196.2640514221175
 31
0.0
  0
LINE
  5
60A
330
1B
100
AcDbEntity
  8
4
100
AcDbLine
 10
596.9421405389053
 20
192.7640514221175
 30
0.0
 11
537.9421405389053
 21
192.7640514221175
 31
0.0
  0
LINE
  5
60B
330
1B
100
AcDbEntity
  8
4
100
AcDbLine
 10
591.9421405389053
 20
196.2640514221175
 30
0.0
 11
591.9421405389053
 21
192.7640514221175
 31
0.0
  0
LINE
  5
60C
330
1B
100
AcDbEntity
  8
4
100
AcDbLine
 10
613.942141038905
 20
200.7640514221175
 30
0.0
 11
614.9421410389054
 21
200.7640514221175
 31
0.0
  0
LINE
  5
60D
330
1B
100
AcDbEntity
  8
4
100
AcDbLine
 10
613.942141038905
 20
193.2640514221175
 30
0.0
 11
596.9421405389053
 21
193.2640514221175
 31
0.0
  0
LINE
  5
60E
330
1B
100
AcDbEntity
  8
4
100
AcDbLine
 10
537.9421405389053
 20
192.7640514221175
 30
0.0
 11
536.9421405389053
 21
191.7640514221175
 31
0.0
  0
ENDSEC
  0
SECTION
  2
OBJECTS
  0
DICTIONARY
  5
9
330
0
100
AcDbDictionary
281
     1
  3
ACAD_COLOR
350
30
  3
ACAD_GROUP
350
2E
  3
ACAD_LAYOUT
350
24
  3
ACAD_MATERIAL
350
B
  3
ACAD_MLEADERSTYLE
350
569
  3
ACAD_MLINESTYLE
350
19
  3
ACAD_PLOTSETTINGS
350
2F
  3
ACAD_PLOTSTYLENAME
350
8
  3
ACAD_SCALELIST
350
37
  3
ACAD_TABLESTYLE
350
568
  3
ACAD_VISUALSTYLE
350
31
  3
ACDBHEADERROUNDTRIPXREC
350
666
  3
AcDbVariableDictionary
350
566
  3
DWGPROPS
350
669
  0
DICTIONARY
  5
66A
330
2D
100
AcDbDictionary
280
     1
281
     1
  3
ACAD_XREC_ROUNDTRIP
360
66B
  0
DICTIONARY
  5
3
330
2
100
AcDbDictionary
280
     1
281
     1
  3
ACAD_LAYERSTATES
360
4
  0
DICTIONARY
  5
20
330
1F
100
AcDbDictionary
280
     1
281
     1
  3
ADSK_XREC_LAYER_RECONCILED
360
21
  0
DICTIONARY
  5
D2
330
D1
100
AcDbDictionary
280
     1
281
     1
  3
ADSK_XREC_LAYER_RECONCILED
360
D3
  0
DICTIONARY
  5
5
330
1
100
AcDbDictionary
280
     1
281
     1
  3
ADSK_XREC_LAYER_RECONCILED
360
6
  0
DICTIONARY
  5
CC
330
CB
100
AcDbDictionary
280
     1
281
     1
  3
ADSK_XREC_LAYER_RECONCILED
360
CD
  0
DICTIONARY
  5
97
330
96
100
AcDbDictionary
280
     1
281
     1
  3
ADSK_XREC_LAYER_RECONCILED
360
98
  0
DICTIONARY
  5
5D
330
5C
100
AcDbDictionary
280
     1
281
     1
  3
ADSK_XREC_LAYER_RECONCILED
360
5E
  0
DICTIONARY
  5
1C
330
1B
100
AcDbDictionary
280
     1
281
     1
  3
ACAD_SORTENTS
360
1D
  0
DICTIONARY
  5
30
102
{ACAD_REACTORS
330
9
102
}
330
9
100
AcDbDictionary
281
     1
  0
DICTIONARY
  5
2E
102
{ACAD_REACTORS
330
9
102
}
330
9
100
AcDbDictionary
281
     1
  0
DICTIONARY
  5
24
102
{ACAD_REACTORS
330
9
102
}
330
9
100
AcDbDictionary
281
     1
  3
Model
350
23
  3
ﾚｲｱｳﾄ1
350
2A
  0
DICTIONARY
  5
B
102
{ACAD_REACTORS
330
9
102
}
330
9
100
AcDbDictionary
281
     1
  3
ByBlock
350
5A
  3
ByLayer
350
14
  3
Global
350
A
  0
DICTIONARY
  5
569
102
{ACAD_REACTORS
330
9
102
}
330
9
100
AcDbDictionary
281
     1
  3
Standard
350
659
  0
DICTIONARY
  5
19
102
{ACAD_REACTORS
330
9
102
}
330
9
100
AcDbDictionary
281
     1
  3
STANDARD
350
18
  0
DICTIONARY
  5
2F
102
{ACAD_REACTORS
330
9
102
}
330
9
100
AcDbDictionary
281
     1
  0
ACDBDICTIONARYWDFLT
  5
8
102
{ACAD_REACTORS
330
9
102
}
330
9
100
AcDbDictionary
281
     1
  3
Normal
350
7
100
AcDbDictionaryWithDefault
340
7
  0
DICTIONARY
  5
37
102
{ACAD_REACTORS
330
9
102
}
330
9
100
AcDbDictionary
281
     1
  3
*A1
350
59
  0
DICTIONARY
  5
568
102
{ACAD_REACTORS
330
9
102
}
330
9
100
AcDbDictionary
281
     1
  3
Standard
350
662
  0
DICTIONARY
  5
31
102
{ACAD_REACTORS
330
9
102
}
330
9
100
AcDbDictionary
281
     1
  3
2dWireframe
350
571
  3
Basic
350
573
  3
Brighten
350
576
  3
ColorChange
350
57A
  3
Conceptual
350
574
  3
Dim
350
575
  3
EdgeColorOff
350
57D
  3
Facepattern
350
579
  3
Flat
350
56D
  3
FlatWithEdges
350
56E
  3
Gouraud
350
56F
  3
GouraudWithEdges
350
570
  3
Hidden
350
572
  3
JitterOff
350
57B
  3
Linepattern
350
578
  3
OverhangOff
350
57C
  3
Realistic
350
32
  3
Shaded
350
582
  3
Shaded with edges
350
581
  3
Shades of Gray
350
57E
  3
Sketchy
350
57F
  3
Thicken
350
577
  3
Wireframe
350
33
  3
X-Ray
350
580
  0
DICTIONARY
  5
666
102
{ACAD_REACTORS
330
9
102
}
330
9
100
AcDbDictionary
281
     1
  3
COLORDICT
350
667
  3
MATERIALDICT
350
668
  0
DICTIONARY
  5
566
102
{ACAD_REACTORS
330
9
102
}
330
9
100
AcDbDictionary
281
     1
  3
CANNOSCALE
350
567
  3
CMLEADERSTYLE
350
661
  3
CTABLESTYLE
350
663
  3
DIMASSOC
350
664
  3
HIDETEXT
350
665
  3
MSLTSCALE
350
66C
  3
XCLIPFRAME
350
56A
  0
XRECORD
  5
669
102
{ACAD_REACTORS
330
9
102
}
330
9
100
AcDbXrecord
280
     1
  1
DWGPROPS COOKIE
  2

  3

  4

  6

  7

  8
sg-d04
  9

300
=
301
=
302
=
303
=
304
=
305
=
306
=
307
=
308
=
309
=
 40
0.0
 41
2457186.44235875
 42
2457870.226328623
  1

 90
        0
  0
XRECORD
  5
66B
102
{ACAD_REACTORS
330
66A
102
}
330
66A
100
AcDbXrecord
280
     1
102
VTR_0.000_0.000_1.000_1.000_VISUALSTYLE
340
571
102
VTR_0.000_0.000_1.000_1.000_GRIDDISPLAY
 70
     3
102
VTR_0.000_0.000_1.000_1.000_GRIDMAJOR
 70
     5
102
VTR_0.000_0.000_1.000_1.000_DEFAULTLIGHTING
280
     1
102
VTR_0.000_0.000_1.000_1.000_DEFAULTLIGHTINGTYPE
 70
     1
102
VTR_0.000_0.000_1.000_1.000_BRIGHTNESS
141
0.0
102
VTR_0.000_0.000_1.000_1.000_CONTRAST
142
0.0
  0
DICTIONARY
  5
4
102
{ACAD_REACTORS
330
3
102
}
330
3
100
AcDbDictionary
281
     1
  0
XRECORD
  5
21
102
{ACAD_REACTORS
330
20
102
}
330
20
100
AcDbXrecord
280
     1
290
     1
  0
XRECORD
  5
D3
102
{ACAD_REACTORS
330
D2
102
}
330
D2
100
AcDbXrecord
280
     1
290
     1
  0
XRECORD
  5
6
102
{ACAD_REACTORS
330
5
102
}
330
5
100
AcDbXrecord
280
     1
290
     1
  0
XRECORD
  5
CD
102
{ACAD_REACTORS
330
CC
102
}
330
CC
100
AcDbXrecord
280
     1
290
     1
  0
XRECORD
  5
98
102
{ACAD_REACTORS
330
97
102
}
330
97
100
AcDbXrecord
280
     1
290
     1
  0
XRECORD
  5
5E
102
{ACAD_REACTORS
330
5D
102
}
330
5D
100
AcDbXrecord
280
     1
290
     1
  0
SORTENTSTABLE
  5
1D
102
{ACAD_REACTORS
330
1C
102
}
330
1C
100
AcDbSortentsTable
330
1B
331
0
  5
65D
331
19F
  5
4B2
331
1A0
  5
4B1
331
1A1
  5
4B0
331
1A2
  5
4AF
331
1A3
  5
4AE
331
1A4
  5
4AD
331
1A5
  5
4AC
331
1A6
  5
4AB
331
1A7
  5
4AA
331
1A8
  5
4A9
331
1AA
  5
4A8
331
1AB
  5
4A7
331
1AC
  5
4A5
331
1AD
  5
4A4
331
1AE
  5
4A3
331
1AF
  5
4A2
331
1B0
  5
4A1
331
1B1
  5
4A0
331
1B2
  5
49F
331
1B3
  5
49E
331
1B4
  5
49D
331
1B5
  5
49C
331
1B6
  5
49B
331
1B7
  5
49A
331
1B8
  5
499
331
1B9
  5
498
331
1BA
  5
497
331
1BB
  5
496
331
1BC
  5
495
331
1BD
  5
494
331
1BE
  5
493
331
1BF
  5
492
331
1C0
  5
491
331
1C1
  5
490
331
1C2
  5
48F
331
1C3
  5
48E
331
1C4
  5
48D
331
1C5
  5
48C
331
1C6
  5
48B
331
1C7
  5
48A
331
1C8
  5
489
331
1C9
  5
488
331
1CA
  5
487
331
1CB
  5
486
331
1CC
  5
485
331
1CD
  5
484
331
1CE
  5
483
331
1CF
  5
482
331
1D0
  5
481
331
1D1
  5
480
331
1D2
  5
47F
331
1D3
  5
47E
331
1D4
  5
47D
331
1D5
  5
47C
331
1D6
  5
47B
331
1D7
  5
47A
331
1D8
  5
479
331
1D9
  5
478
331
1DA
  5
477
331
1DB
  5
476
331
1DC
  5
475
331
1DD
  5
474
331
1DE
  5
473
331
1E0
  5
472
331
1E1
  5
471
331
1E2
  5
46F
331
1E3
  5
46E
331
1E4
  5
46D
331
1E5
  5
46C
331
1E6
  5
46B
331
1E7
  5
46A
331
1E8
  5
469
331
1E9
  5
468
331
1EA
  5
467
331
1EB
  5
466
331
1EC
  5
465
331
1ED
  5
464
331
1EE
  5
463
331
1EF
  5
462
331
1F0
  5
461
331
1F1
  5
460
331
1F2
  5
45F
331
1F3
  5
45E
331
1F4
  5
45D
331
1F5
  5
45C
331
1F6
  5
45B
331
1F7
  5
45A
331
1F8
  5
459
331
1F9
  5
458
331
1FA
  5
457
331
1FB
  5
456
331
1FC
  5
455
331
1FD
  5
454
331
1FE
  5
453
331
1FF
  5
452
331
200
  5
451
331
201
  5
450
331
202
  5
44F
331
203
  5
44E
331
204
  5
44D
331
205
  5
44C
331
206
  5
44B
331
207
  5
44A
331
208
  5
449
331
209
  5
448
331
20A
  5
447
331
20B
  5
446
331
20C
  5
445
331
20D
  5
444
331
20E
  5
443
331
20F
  5
442
331
210
  5
441
331
211
  5
440
331
212
  5
43F
331
213
  5
43E
331
214
  5
43D
331
215
  5
43C
331
216
  5
43B
331
217
  5
43A
331
218
  5
439
331
219
  5
438
331
21A
  5
437
331
21B
  5
436
331
21C
  5
435
331
21D
  5
434
331
21E
  5
433
331
21F
  5
432
331
220
  5
431
331
221
  5
430
331
222
  5
42F
331
223
  5
42E
331
224
  5
42D
331
225
  5
42C
331
226
  5
42B
331
227
  5
42A
331
228
  5
429
331
229
  5
428
331
22A
  5
427
331
22B
  5
426
331
22C
  5
425
331
22D
  5
424
331
22E
  5
423
331
22F
  5
422
331
230
  5
421
331
231
  5
420
331
232
  5
41F
331
233
  5
41E
331
234
  5
41D
331
235
  5
41C
331
236
  5
41B
331
237
  5
41A
331
238
  5
419
331
239
  5
418
331
23A
  5
417
331
23B
  5
416
331
23C
  5
415
331
23D
  5
414
331
23E
  5
413
331
23F
  5
412
331
240
  5
411
331
241
  5
410
331
242
  5
40F
331
243
  5
40E
331
244
  5
40D
331
245
  5
40C
331
246
  5
40B
331
247
  5
40A
331
248
  5
409
331
249
  5
408
331
24A
  5
407
331
24B
  5
406
331
24C
  5
405
331
24D
  5
404
331
24E
  5
403
331
24F
  5
402
331
250
  5
401
331
251
  5
400
331
252
  5
3FF
331
253
  5
3FE
331
254
  5
3FD
331
255
  5
3FC
331
256
  5
3FB
331
257
  5
3FA
331
258
  5
3F9
331
259
  5
3F8
331
25A
  5
3F7
331
25B
  5
3F6
331
25C
  5
3F5
331
25D
  5
3F4
331
25E
  5
3F3
331
25F
  5
3F2
331
260
  5
3F1
331
261
  5
3F0
331
262
  5
3EF
331
263
  5
3EE
331
264
  5
3ED
331
265
  5
3EC
331
266
  5
3EB
331
267
  5
3EA
331
268
  5
3E9
331
269
  5
3E8
331
26A
  5
3E7
331
26B
  5
3E6
331
26C
  5
3E5
331
26D
  5
3E4
331
26E
  5
3E3
331
26F
  5
3E2
331
270
  5
3E1
331
271
  5
3E0
331
272
  5
3DF
331
273
  5
3DE
331
274
  5
3DD
331
275
  5
3DC
331
276
  5
3DB
331
277
  5
3DA
331
278
  5
3D9
331
279
  5
3D8
331
27A
  5
3D7
331
27B
  5
3D6
331
27C
  5
3D5
331
27D
  5
3D4
331
27F
  5
3D3
331
280
  5
3D2
331
281
  5
3D0
331
282
  5
3CF
331
283
  5
3CE
331
284
  5
3CD
331
285
  5
3CC
331
286
  5
3CB
331
287
  5
3CA
331
288
  5
3C9
331
289
  5
3C8
331
28A
  5
3C7
331
28B
  5
3C6
331
28C
  5
3C5
331
28D
  5
3C4
331
28E
  5
3C3
331
28F
  5
3C2
331
290
  5
3C1
331
291
  5
3C0
331
292
  5
3BF
331
293
  5
3BE
331
294
  5
3BD
331
295
  5
3BC
331
296
  5
3BB
331
297
  5
3BA
331
298
  5
3B9
331
299
  5
3B8
331
29A
  5
3B7
331
29B
  5
3B6
331
29C
  5
3B5
331
29D
  5
3B4
331
29E
  5
3B3
331
29F
  5
3B2
331
2A0
  5
3B1
331
2A1
  5
3B0
331
2A2
  5
3AF
331
2A3
  5
3AE
331
2A4
  5
3AD
331
2A5
  5
3AC
331
2A6
  5
3AB
331
2A7
  5
3AA
331
2A8
  5
3A9
331
2A9
  5
3A8
331
2AA
  5
3A7
331
2AC
  5
3A6
331
2AD
  5
3A5
331
2AE
  5
3A3
331
2AF
  5
3A2
331
2B0
  5
3A1
331
2B1
  5
3A0
331
2B2
  5
39F
331
2B3
  5
39E
331
2B4
  5
39D
331
2B5
  5
39C
331
2B6
  5
39B
331
2B7
  5
39A
331
2B8
  5
399
331
2B9
  5
398
331
2BA
  5
397
331
2BB
  5
396
331
2BC
  5
395
331
2BD
  5
394
331
2BE
  5
393
331
2BF
  5
392
331
2C0
  5
391
331
2C1
  5
390
331
2C2
  5
38F
331
2CE
  5
38E
331
2CF
  5
38D
331
2D0
  5
381
331
2D1
  5
380
331
2D2
  5
37F
331
2D3
  5
37E
331
2D4
  5
37D
331
2D5
  5
37C
331
2D6
  5
37B
331
2D7
  5
37A
331
2D8
  5
379
331
2D9
  5
378
331
2DA
  5
377
331
2DB
  5
376
331
2DC
  5
375
331
2DD
  5
374
331
2DE
  5
373
331
2DF
  5
372
331
2E0
  5
371
331
2E1
  5
370
331
2E2
  5
36F
331
2E3
  5
36E
331
2E4
  5
36D
331
2E5
  5
36C
331
2E6
  5
36B
331
2E7
  5
36A
331
2E8
  5
369
331
2E9
  5
368
331
2EA
  5
367
331
2EB
  5
366
331
2EC
  5
365
331
2ED
  5
364
331
2EE
  5
363
331
2EF
  5
362
331
2F0
  5
361
331
2F1
  5
360
331
2F2
  5
35F
331
2F3
  5
35E
331
2F4
  5
35D
331
2F5
  5
35C
331
2F6
  5
35B
331
2F7
  5
35A
331
2F8
  5
359
331
2F9
  5
358
331
2FA
  5
357
331
2FB
  5
356
331
2FC
  5
355
331
2FD
  5
354
331
2FF
  5
353
331
300
  5
352
331
307
  5
350
331
308
  5
34F
331
309
  5
348
331
30A
  5
347
331
30B
  5
346
331
30C
  5
345
331
30D
  5
344
331
30E
  5
343
331
30F
  5
342
331
310
  5
341
331
311
  5
340
331
312
  5
33F
331
313
  5
33E
331
314
  5
33D
331
315
  5
33C
331
316
  5
33B
331
317
  5
33A
331
318
  5
339
331
319
  5
338
331
31A
  5
337
331
31B
  5
336
331
31C
  5
335
331
31D
  5
334
331
31E
  5
333
331
31F
  5
332
331
320
  5
331
331
321
  5
330
331
322
  5
32F
331
323
  5
32E
331
324
  5
32D
331
325
  5
32C
331
326
  5
32B
331
327
  5
32A
331
328
  5
329
331
329
  5
328
331
32A
  5
327
331
32B
  5
326
331
32C
  5
325
331
32D
  5
324
331
32E
  5
323
331
32F
  5
322
331
330
  5
321
331
331
  5
320
331
332
  5
31F
331
333
  5
31E
331
334
  5
31D
331
335
  5
31C
331
336
  5
31B
331
337
  5
31A
331
338
  5
319
331
339
  5
318
331
33A
  5
317
331
33B
  5
316
331
33C
  5
315
331
33D
  5
314
331
33E
  5
313
331
33F
  5
312
331
340
  5
311
331
341
  5
310
331
342
  5
30F
331
343
  5
30E
331
344
  5
30D
331
345
  5
30C
331
346
  5
30B
331
347
  5
30A
331
348
  5
309
331
349
  5
308
331
34A
  5
307
331
34B
  5
306
331
34C
  5
305
331
34D
  5
304
331
34E
  5
303
331
34F
  5
302
331
350
  5
301
331
353
  5
300
331
358
  5
2FF
331
359
  5
2FC
331
35A
  5
2F7
331
35B
  5
2F6
331
35C
  5
2F5
331
35D
  5
2F4
331
35E
  5
2F3
331
35F
  5
2F2
331
360
  5
2F1
331
361
  5
2F0
331
362
  5
2EF
331
363
  5
2EE
331
364
  5
2ED
331
365
  5
2EC
331
366
  5
2EB
331
367
  5
2EA
331
368
  5
2E9
331
369
  5
2E8
331
36A
  5
2E7
331
36B
  5
2E6
331
36C
  5
2E5
331
36D
  5
2E4
331
36E
  5
2E3
331
36F
  5
2E2
331
370
  5
2E1
331
371
  5
2E0
331
372
  5
2DF
331
373
  5
2DE
331
374
  5
2DD
331
375
  5
2DC
331
376
  5
2DB
331
37B
  5
2DA
331
391
  5
2C0
331
392
  5
2BF
331
393
  5
2BE
331
394
  5
2BD
331
395
  5
2BC
331
396
  5
2BB
331
397
  5
2BA
331
398
  5
2B9
331
399
  5
2B8
331
39A
  5
2B7
331
39B
  5
2B6
331
39C
  5
2B5
331
39D
  5
2B4
331
39E
  5
2B3
331
39F
  5
2B2
331
3A0
  5
2B1
331
3A1
  5
2B0
331
3A6
  5
2AF
331
3A7
  5
2AE
331
3A8
  5
2A9
331
3A9
  5
2A8
331
3AA
  5
2A7
331
3AB
  5
2A6
331
3AC
  5
2A5
331
3AD
  5
2A4
331
3AE
  5
2A3
331
3AF
  5
2A2
331
3B0
  5
2A1
331
3B1
  5
2A0
331
3B2
  5
29F
331
3B3
  5
29E
331
3B4
  5
29D
331
3B5
  5
29C
331
3B6
  5
29B
331
3B7
  5
29A
331
3B8
  5
299
331
3B9
  5
298
331
3BA
  5
297
331
3BB
  5
296
331
3BC
  5
295
331
3BD
  5
294
331
3BE
  5
293
331
3BF
  5
292
331
3C8
  5
291
331
3CA
  5
287
331
3CB
  5
286
331
3CC
  5
285
331
3CD
  5
284
331
3D1
  5
280
331
3D2
  5
27F
331
3D3
  5
27E
331
3D4
  5
27D
331
3D5
  5
27C
331
3D6
  5
27B
331
3D7
  5
27A
331
3D8
  5
279
331
3DC
  5
275
331
3DD
  5
274
331
3DE
  5
273
331
3DF
  5
272
331
3E0
  5
271
331
3E1
  5
270
331
3E2
  5
26F
331
3E3
  5
26E
331
3E4
  5
26D
331
3E5
  5
26C
331
3E6
  5
26B
331
3E7
  5
26A
331
3E8
  5
269
331
3E9
  5
268
331
3EA
  5
267
331
3ED
  5
264
331
3F3
  5
260
331
3F4
  5
25F
331
3F5
  5
25C
331
3F7
  5
25B
331
3F8
  5
25A
331
3F9
  5
258
331
3FF
  5
257
331
401
  5
256
331
407
  5
250
331
40B
  5
24E
331
40D
  5
248
331
40F
  5
244
331
410
  5
242
331
411
  5
240
331
412
  5
23F
331
413
  5
23E
331
414
  5
23D
331
416
  5
23C
331
419
  5
23B
331
41A
  5
239
331
41B
  5
236
331
41C
  5
235
331
41D
  5
234
331
41E
  5
233
331
41F
  5
232
331
420
  5
231
331
421
  5
230
331
422
  5
22F
331
423
  5
22E
331
424
  5
22D
331
425
  5
22C
331
426
  5
22B
331
427
  5
22A
331
428
  5
229
331
42B
  5
228
331
42C
  5
227
331
42D
  5
224
331
42E
  5
223
331
42F
  5
222
331
430
  5
221
331
431
  5
220
331
432
  5
21F
331
433
  5
21E
331
434
  5
21D
331
435
  5
21C
331
436
  5
21B
331
43C
  5
21A
331
43D
  5
219
331
43E
  5
213
331
43F
  5
212
331
440
  5
211
331
441
  5
210
331
442
  5
20F
331
443
  5
20E
331
444
  5
20D
331
445
  5
20C
331
446
  5
20B
331
447
  5
20A
331
448
  5
209
331
449
  5
208
331
44A
  5
207
331
44B
  5
206
331
44C
  5
205
331
44D
  5
204
331
44E
  5
203
331
44F
  5
202
331
450
  5
201
331
451
  5
200
331
452
  5
1FF
331
453
  5
1FE
331
454
  5
1FD
331
455
  5
1FC
331
456
  5
1FB
331
457
  5
1FA
331
458
  5
1F9
331
459
  5
1F8
331
45A
  5
1F7
331
45B
  5
1F6
331
45C
  5
1F5
331
45D
  5
1F4
331
45E
  5
1F3
331
45F
  5
1F2
331
460
  5
1F1
331
461
  5
1F0
331
462
  5
1EF
331
46C
  5
1E8
331
46D
  5
1E7
331
471
  5
1E3
331
473
  5
1DE
331
474
  5
1DD
331
476
  5
1DB
331
478
  5
1D9
331
479
  5
1D8
331
47A
  5
1D7
331
47B
  5
1D6
331
47C
  5
1D5
331
47D
  5
1D4
331
47E
  5
1D3
331
47F
  5
1D2
331
484
  5
1CD
331
488
  5
1C9
331
489
  5
1C8
331
48A
  5
1C7
331
48B
  5
1C6
331
48C
  5
1C5
331
48D
  5
1C4
331
48E
  5
1C3
331
490
  5
1C1
331
492
  5
1BF
331
493
  5
1BE
331
495
  5
1BD
331
497
  5
1BC
331
498
  5
1BA
331
499
  5
1B8
331
49A
  5
1B7
331
49B
  5
1B6
331
49C
  5
1B5
331
49D
  5
1B4
331
49E
  5
1B3
331
49F
  5
1B2
331
4A0
  5
1B1
331
4A1
  5
1B0
331
4A2
  5
1AF
331
4A3
  5
1AE
331
4A4
  5
1AD
331
4A5
  5
1AC
331
4A6
  5
1AB
331
4A7
  5
1AA
331
4A8
  5
1A9
331
4AB
  5
1A8
331
4AC
  5
1A7
331
4AD
  5
1A4
331
4AE
  5
1A3
331
4AF
  5
1A2
331
4B0
  5
1A1
331
4B1
  5
1A0
331
4B2
  5
19F
331
4B3
  5
19E
331
4B4
  5
19D
331
4B7
  5
19C
331
4B8
  5
19B
331
4BA
  5
198
331
4BB
  5
197
331
4BC
  5
195
331
4BD
  5
194
331
4BE
  5
193
331
4BF
  5
192
331
4C0
  5
191
331
4C4
  5
190
331
4C5
  5
18F
331
4C6
  5
18B
331
4C7
  5
18A
331
4C8
  5
189
331
4C9
  5
188
331
4CA
  5
187
331
4CB
  5
186
331
4CC
  5
185
331
4CD
  5
184
331
4CE
  5
183
331
4CF
  5
182
331
4D0
  5
181
331
4D1
  5
180
331
4D3
  5
17F
331
4D4
  5
17E
331
4D5
  5
17C
331
4D6
  5
17B
331
4D7
  5
17A
331
4D8
  5
179
331
4D9
  5
178
331
4DA
  5
177
331
4DB
  5
176
331
4DC
  5
175
331
4DD
  5
174
331
4DE
  5
173
331
4DF
  5
172
331
4E0
  5
171
331
4E1
  5
170
331
4E2
  5
16F
331
4E3
  5
16E
331
4E4
  5
16D
331
4E5
  5
16C
331
4E6
  5
16B
331
4E7
  5
16A
331
4E8
  5
169
331
4E9
  5
168
331
4EA
  5
166
331
4EB
  5
165
331
4EC
  5
164
331
4ED
  5
163
331
4EE
  5
162
331
4EF
  5
161
331
4F0
  5
160
331
4F1
  5
15F
331
4F2
  5
15E
331
4F3
  5
15D
331
4F4
  5
15C
331
4F5
  5
15B
331
4F6
  5
15A
331
4F7
  5
158
331
4FA
  5
155
331
4FB
  5
154
331
4FC
  5
153
331
4FD
  5
152
331
4FE
  5
151
331
4FF
  5
150
331
500
  5
14F
331
501
  5
14E
331
502
  5
14D
331
506
  5
149
331
507
  5
148
331
508
  5
147
331
50B
  5
50D
331
50C
  5
50E
331
50D
  5
511
331
50E
  5
512
331
511
  5
513
331
512
  5
514
331
513
  5
515
331
514
  5
516
331
515
  5
517
331
588
  5
58A
331
589
  5
58B
331
590
  5
594
331
592
  5
595
331
594
  5
596
331
595
  5
597
331
596
  5
598
331
597
  5
599
331
598
  5
59A
331
599
  5
59B
331
59A
  5
59C
331
59B
  5
59D
331
59C
  5
59E
331
59D
  5
59F
331
59E
  5
5A0
331
59F
  5
5A1
331
5A0
  5
5A2
331
5A1
  5
5A3
331
5A2
  5
5A4
331
5A3
  5
5A5
331
5A4
  5
5A6
331
5A5
  5
5A7
331
5A6
  5
5A8
331
5A7
  5
5A9
331
5A8
  5
5AA
331
5A9
  5
5AB
331
5C4
  5
5C6
331
5C5
  5
5C7
331
5C6
  5
5C8
331
5C7
  5
5C9
331
5C8
  5
5CA
331
5C9
  5
5CB
331
5CA
  5
5CC
331
5CB
  5
5CD
331
5CC
  5
5CE
331
5CD
  5
5CF
331
5CE
  5
5D0
331
5CF
  5
5D1
331
5D0
  5
5D2
331
5D1
  5
5D3
331
5D2
  5
5D4
331
5D3
  5
5D5
331
5D4
  5
5D6
331
5D5
  5
5D7
331
5D6
  5
5D8
331
5D7
  5
5D9
331
5D8
  5
5DA
331
5D9
  5
5DB
331
5DA
  5
5DC
331
5DB
  5
5DD
331
5DC
  5
5DE
331
5DD
  5
5DF
331
5DE
  5
5E0
331
5DF
  5
5E1
331
5E0
  5
5E2
331
5E1
  5
5E3
331
5E2
  5
5E4
331
5E3
  5
5E5
331
5E4
  5
5E6
331
5E5
  5
5E7
331
5E6
  5
5E8
331
5E7
  5
5E9
331
5E8
  5
5EA
331
5E9
  5
5EB
331
5EA
  5
5EC
331
5EB
  5
5ED
331
5EC
  5
5EE
331
5ED
  5
5EF
331
5EE
  5
5F0
331
5EF
  5
5F1
331
5F0
  5
5F2
331
5F1
  5
5F3
331
5F2
  5
5F4
331
5F3
  5
5F5
331
5F4
  5
5F6
331
5F5
  5
5F7
331
5F6
  5
5F8
331
5F7
  5
5F9
331
5F8
  5
5FA
331
5F9
  5
5FB
331
5FA
  5
5FF
331
5FB
  5
600
331
5FF
  5
601
331
600
  5
602
331
601
  5
603
331
602
  5
604
331
603
  5
605
331
604
  5
606
331
605
  5
607
331
608
  5
60A
331
609
  5
60B
331
60A
  5
60C
331
60B
  5
60D
331
60C
  5
60E
331
60D
  5
60F
331
60E
  5
611
  0
LAYOUT
  5
23
102
{ACAD_REACTORS
330
24
102
}
102
{ACAD_XDICTIONARY
360
25
102
}
330
24
100
AcDbPlotSettings
  1

  2
Bullzip PDF Printer.pc3
  4
A3
  6

 40
0.2
 41
0.0
 42
0.0
 43
0.0
 44
420.2
 45
297.1
 46
25.0
 47
12.0
 48
57.49999988333343
 49
33.42165154864122
140
1012.499997695834
141
714.6716499590577
142
1.0
143
2.5
 70
 11936
 72
     1
 73
     0
 74
     4
  7
monochrome.ctb
 75
     0
147
0.4
148
-57.49999988333343
149
-33.42165154864122
100
AcDbLayout
  1
Model
 70
     0
 71
     0
 10
0.0
 20
0.0
 11
12.0
 21
9.0
 12
0.0
 22
0.0
 32
0.0
 14
105.5569593919755
 24
48.76405142211752
 34
0.0
 15
1229.713164797581
 25
734.9261423157109
 35
0.0
146
0.0
 13
0.0
 23
0.0
 33
0.0
 16
1.0
 26
0.0
 36
0.0
 17
0.0
 27
1.0
 37
0.0
 76
     0
330
1B
331
34
1001
ACAD_PSEXT
1000
Bullzip PDF Printer.pc3
1000
Bullzip PDF Printer
1000
BULLZIP
1000
Bullzip PDF Printer 10.1.0.1871
1070
     0
  0
LAYOUT
  5
2A
102
{ACAD_REACTORS
330
24
102
}
330
24
100
AcDbPlotSettings
  1

  2
SR-LP8300F
  4

  6

 40
0.0
 41
0.0
 42
0.0
 43
0.0
 44
0.0
 45
0.0
 46
0.0
 47
0.0
 48
0.0
 49
0.0
140
0.0
141
0.0
142
1.0
143
1.0
 70
   688
 72
     0
 73
     0
 74
     5
  7
monochrome.ctb
 75
    16
147
1.0
148
0.0
149
0.0
100
AcDbLayout
  1
ﾚｲｱｳﾄ1
 70
     0
 71
     1
 10
0.0
 20
0.0
 11
12.0
 21
9.0
 12
0.0
 22
0.0
 32
0.0
 14
1.000000000000000E+20
 24
1.000000000000000E+20
 34
1.000000000000000E+20
 15
-1.000000000000000E+20
 25
-1.000000000000000E+20
 35
-1.000000000000000E+20
146
0.0
 13
0.0
 23
0.0
 33
0.0
 16
1.0
 26
0.0
 36
0.0
 17
0.0
 27
1.0
 37
0.0
 76
     0
330
27
  0
MATERIAL
  5
5A
102
{ACAD_REACTORS
330
B
102
}
102
{ACAD_XDICTIONARY
360
671
102
}
330
B
100
AcDbMaterial
  1
ByBlock
 72
     0
 73
     2
 43
0.0208333333333333
 43
0.0
 43
0.0
 43
0.0
 43
0.0
 43
0.0208333333333333
 43
0.0
 43
0.0
 43
0.0
 43
0.0
 43
1.0
 43
0.0
 43
0.0
 43
0.0
 43
0.0
 43
1.0
 77
     0
 78
     2
 47
0.0208333333333333
 47
0.0
 47
0.0
 47
0.0
 47
0.0
 47
0.0208333333333333
 47
0.0
 47
0.0
 47
0.0
 47
0.0
 47
1.0
 47
0.0
 47
0.0
 47
0.0
 47
0.0
 47
1.0
171
     0
172
     2
 49
0.0208333333333333
 49
0.0
 49
0.0
 49
0.0
 49
0.0
 49
0.0208333333333333
 49
0.0
 49
0.0
 49
0.0
 49
0.0
 49
1.0
 49
0.0
 49
0.0
 49
0.0
 49
0.0
 49
1.0
175
     0
176
     2
142
0.0208333333333333
142
0.0
142
0.0
142
0.0
142
0.0
142
0.0208333333333333
142
0.0
142
0.0
142
0.0
142
0.0
142
1.0
142
0.0
142
0.0
142
0.0
142
0.0
142
1.0
179
     0
270
     2
144
0.0208333333333333
144
0.0
144
0.0
144
0.0
144
0.0
144
0.0208333333333333
144
0.0
144
0.0
144
0.0
144
0.0
144
1.0
144
0.0
144
0.0
144
0.0
144
0.0
144
1.0
274
     2
147
0.0208333333333333
147
0.0
147
0.0
147
0.0
147
0.0
147
0.0208333333333333
147
0.0
147
0.0
147
0.0
147
0.0
147
1.0
147
0.0
147
0.0
147
0.0
147
0.0
147
1.0
  0
MATERIAL
  5
14
102
{ACAD_REACTORS
330
B
102
}
102
{ACAD_XDICTIONARY
360
66D
102
}
330
B
100
AcDbMaterial
  1
ByLayer
 72
     0
 73
     2
 43
0.0208333333333333
 43
0.0
 43
0.0
 43
0.0
 43
0.0
 43
0.0208333333333333
 43
0.0
 43
0.0
 43
0.0
 43
0.0
 43
1.0
 43
0.0
 43
0.0
 43
0.0
 43
0.0
 43
1.0
 77
     0
 78
     2
 47
0.0208333333333333
 47
0.0
 47
0.0
 47
0.0
 47
0.0
 47
0.0208333333333333
 47
0.0
 47
0.0
 47
0.0
 47
0.0
 47
1.0
 47
0.0
 47
0.0
 47
0.0
 47
0.0
 47
1.0
171
     0
172
     2
 49
0.0208333333333333
 49
0.0
 49
0.0
 49
0.0
 49
0.0
 49
0.0208333333333333
 49
0.0
 49
0.0
 49
0.0
 49
0.0
 49
1.0
 49
0.0
 49
0.0
 49
0.0
 49
0.0
 49
1.0
175
     0
176
     2
142
0.0208333333333333
142
0.0
142
0.0
142
0.0
142
0.0
142
0.0208333333333333
142
0.0
142
0.0
142
0.0
142
0.0
142
1.0
142
0.0
142
0.0
142
0.0
142
0.0
142
1.0
179
     0
270
     2
144
0.0208333333333333
144
0.0
144
0.0
144
0.0
144
0.0
144
0.0208333333333333
144
0.0
144
0.0
144
0.0
144
0.0
144
1.0
144
0.0
144
0.0
144
0.0
144
0.0
144
1.0
274
     2
147
0.0208333333333333
147
0.0
147
0.0
147
0.0
147
0.0
147
0.0208333333333333
147
0.0
147
0.0
147
0.0
147
0.0
147
1.0
147
0.0
147
0.0
147
0.0
147
0.0
147
1.0
  0
MATERIAL
  5
A
102
{ACAD_REACTORS
330
B
102
}
102
{ACAD_XDICTIONARY
360
66F
102
}
330
B
100
AcDbMaterial
  1
Global
 72
     0
 73
     2
 43
0.0208333333333333
 43
0.0
 43
0.0
 43
0.0
 43
0.0
 43
0.0208333333333333
 43
0.0
 43
0.0
 43
0.0
 43
0.0
 43
1.0
 43
0.0
 43
0.0
 43
0.0
 43
0.0
 43
1.0
 77
     0
 78
     2
 47
0.0208333333333333
 47
0.0
 47
0.0
 47
0.0
 47
0.0
 47
0.0208333333333333
 47
0.0
 47
0.0
 47
0.0
 47
0.0
 47
1.0
 47
0.0
 47
0.0
 47
0.0
 47
0.0
 47
1.0
171
     0
172
     2
 49
0.0208333333333333
 49
0.0
 49
0.0
 49
0.0
 49
0.0
 49
0.0208333333333333
 49
0.0
 49
0.0
 49
0.0
 49
0.0
 49
1.0
 49
0.0
 49
0.0
 49
0.0
 49
0.0
 49
1.0
175
     0
176
     2
142
0.0208333333333333
142
0.0
142
0.0
142
0.0
142
0.0
142
0.0208333333333333
142
0.0
142
0.0
142
0.0
142
0.0
142
1.0
142
0.0
142
0.0
142
0.0
142
0.0
142
1.0
179
     0
270
     2
144
0.0208333333333333
144
0.0
144
0.0
144
0.0
144
0.0
144
0.0208333333333333
144
0.0
144
0.0
144
0.0
144
0.0
144
1.0
144
0.0
144
0.0
144
0.0
144
0.0
144
1.0
274
     2
147
0.0208333333333333
147
0.0
147
0.0
147
0.0
147
0.0
147
0.0208333333333333
147
0.0
147
0.0
147
0.0
147
0.0
147
1.0
147
0.0
147
0.0
147
0.0
147
0.0
147
1.0
1001
ACAD
1070
    -1
1070
     3
1070
     0
1000

1071
        0
  0
MLEADERSTYLE
  5
659
102
{ACAD_REACTORS
330
569
102
}
102
{ACAD_XDICTIONARY
360
6A3
102
}
330
569
100
AcDbMLeaderStyle
170
     2
171
     1
172
     0
 90
        2
 40
0.0
 41
0.0
173
     1
 91
-1056964608
340
11
 92
       -2
290
     1
 42
0.09
291
     1
 43
0.36
  3
Standard
341
0
 44
0.18
300

342
12
174
     1
178
     6
175
     1
176
     0
 93
-1056964608
 45
0.18
292
     0
297
     0
 46
0.18
343
0
 94
-1056964608
 47
1.0
 49
1.0
140
1.0
293
     1
141
0.0
294
     1
177
     0
142
1.0
295
     0
296
     0
143
0.125
1001
ACAD_MLEADERVER
1070
     2
  0
MLINESTYLE
  5
18
102
{ACAD_REACTORS
330
19
102
}
330
19
100
AcDbMlineStyle
  2
STANDARD
 70
     0
  3

 62
     0
 51
90.0
 52
90.0
 71
     2
 49
0.5
 62
   256
  6
BYLAYER
 49
-0.5
 62
   256
  6
BYLAYER
  0
ACDBPLACEHOLDER
  5
7
102
{ACAD_REACTORS
330
8
102
}
330
8
  0
SCALE
  5
59
102
{ACAD_REACTORS
330
37
102
}
330
37
100
AcDbScale
 70
     0
300
1:1
140
1.0
141
1.0
290
     1
  0
TABLESTYLE
  5
662
102
{ACAD_REACTORS
330
568
102
}
330
568
100
AcDbTableStyle
  3
Standard
 70
     0
 71
     0
 40
0.06
 41
0.06
280
     0
281
     0
  7
STANDARD
140
0.18
170
     2
 62
     0
 63
   257
283
     0
274
    -2
284
     1
 64
     0
275
    -2
285
     1
 65
     0
276
    -2
286
     1
 66
     0
277
    -2
287
     1
 67
     0
278
    -2
288
     1
 68
     0
279
    -2
289
     1
 69
     0
  7
STANDARD
140
0.25
170
     5
 62
     0
 63
   257
283
     0
274
    -2
284
     1
 64
     0
275
    -2
285
     1
 65
     0
276
    -2
286
     1
 66
     0
277
    -2
287
     1
 67
     0
278
    -2
288
     1
 68
     0
279
    -2
289
     1
 69
     0
  7
STANDARD
140
0.18
170
     5
 62
     0
 63
   257
283
     0
274
    -2
284
     1
 64
     0
275
    -2
285
     1
 65
     0
276
    -2
286
     1
 66
     0
277
    -2
287
     1
 67
     0
278
    -2
288
     1
 68
     0
279
    -2
289
     1
 69
     0
  0
VISUALSTYLE
  5
571
102
{ACAD_REACTORS
330
31
102
}
102
{ACAD_XDICTIONARY
360
67F
102
}
330
31
100
AcDbVisualStyle
  2
2dWireframe
 70
     4
 71
     0
 72
     2
 73
     0
 90
        0
 40
0.6
 41
30.0
 62
     5
 63
     7
 74
     1
 91
        4
 64
     7
 65
   257
 75
     1
175
     1
 42
1.0
 92
        0
 66
   257
 43
1.0
 76
     1
 77
     6
 78
     2
 67
     7
 79
     5
170
     0
171
     0
290
     0
174
     0
 93
        1
 44
0.0
173
     0
291
     0
 45
0.0
1001
ACAD
1000
AcDbSavedByObjectVersion
1070
     0
  0
VISUALSTYLE
  5
573
102
{ACAD_REACTORS
330
31
102
}
102
{ACAD_XDICTIONARY
360
683
102
}
330
31
100
AcDbVisualStyle
  2
Basic
 70
     7
 71
     1
 72
     0
 73
     1
 90
        0
 40
0.6
 41
30.0
 62
     5
 63
     7
 74
     0
 91
        4
 64
     7
 65
   257
 75
     1
175
     1
 42
1.0
 92
        8
 66
     7
 43
1.0
 76
     1
 77
     6
 78
     2
 67
     7
 79
     5
170
     0
171
     0
290
     0
174
     0
 93
        1
 44
0.0
173
     0
291
     1
 45
0.0
1001
ACAD
1000
AcDbSavedByObjectVersion
1070
     0
  0
VISUALSTYLE
  5
576
102
{ACAD_REACTORS
330
31
102
}
102
{ACAD_XDICTIONARY
360
689
102
}
330
31
100
AcDbVisualStyle
  2
Brighten
 70
    12
 71
     2
 72
     2
 73
     0
 90
        0
 40
0.6
 41
30.0
 62
     5
 63
     7
 74
     1
 91
        4
 64
     7
 65
   257
 75
     1
175
     1
 42
1.0
 92
        8
 66
     7
 43
1.0
 76
     1
 77
     6
 78
     2
 67
     7
 79
     5
170
     0
171
     0
290
     0
174
     0
 93
        1
 44
50.0
173
     0
291
     1
 45
0.0
1001
ACAD
1000
AcDbSavedByObjectVersion
1070
     0
  0
VISUALSTYLE
  5
57A
102
{ACAD_REACTORS
330
31
102
}
102
{ACAD_XDICTIONARY
360
691
102
}
330
31
100
AcDbVisualStyle
  2
ColorChange
 70
    16
 71
     2
 72
     2
 73
     3
 90
        0
 40
0.6
 41
30.0
 62
     5
 63
     8
 74
     1
 91
        4
 64
     7
 65
   257
 75
     1
175
     1
 42
1.0
 92
        8
 66
     8
 43
1.0
 76
     1
 77
     6
 78
     2
 67
     7
 79
     5
170
     0
171
     0
290
     0
174
     0
 93
        1
 44
0.0
173
     0
291
     1
 45
0.0
1001
ACAD
1000
AcDbSavedByObjectVersion
1070
     0
  0
VISUALSTYLE
  5
574
102
{ACAD_REACTORS
330
31
102
}
102
{ACAD_XDICTIONARY
360
685
102
}
330
31
100
AcDbVisualStyle
  2
Conceptual
 70
     9
 71
     3
 72
     2
 73
     0
 90
        0
 40
0.6
 41
30.0
 62
     5
 63
     7
 74
     2
 91
        2
 64
     7
 65
   257
 75
     1
175
     1
 42
40.0
 92
        8
 66
     7
 43
1.0
 76
     1
 77
     6
 78
     2
 67
     7
 79
     3
170
     0
171
     0
290
     0
174
     0
 93
        1
 44
0.0
173
     0
291
     0
 45
0.0
1001
ACAD
1000
AcDbSavedByObjectVersion
1070
     0
  0
VISUALSTYLE
  5
575
102
{ACAD_REACTORS
330
31
102
}
102
{ACAD_XDICTIONARY
360
687
102
}
330
31
100
AcDbVisualStyle
  2
Dim
 70
    11
 71
     2
 72
     2
 73
     0
 90
        0
 40
0.6
 41
30.0
 62
     5
 63
     7
 74
     1
 91
        4
 64
     7
 65
   257
 75
     1
175
     1
 42
1.0
 92
        8
 66
     7
 43
1.0
 76
     1
 77
     6
 78
     2
 67
     7
 79
     5
170
     0
171
     0
290
     0
174
     0
 93
        1
 44
-50.0
173
     0
291
     1
 45
0.0
1001
ACAD
1000
AcDbSavedByObjectVersion
1070
     0
  0
VISUALSTYLE
  5
57D
102
{ACAD_REACTORS
330
31
102
}
102
{ACAD_XDICTIONARY
360
697
102
}
330
31
100
AcDbVisualStyle
  2
EdgeColorOff
 70
    22
 71
     2
 72
     2
 73
     0
 90
        0
 40
0.6
 41
30.0
 62
     5
 63
     7
 74
     1
 91
        4
 64
     7
 65
   257
 75
     1
175
     1
 42
1.0
 92
        8
 66
     7
 43
1.0
 76
     1
 77
     6
 78
     2
 67
     7
 79
     5
170
     0
171
     0
290
     0
174
     0
 93
        1
 44
0.0
173
     0
291
     1
 45
0.0
1001
ACAD
1000
AcDbSavedByObjectVersion
1070
     0
  0
VISUALSTYLE
  5
579
102
{ACAD_REACTORS
330
31
102
}
102
{ACAD_XDICTIONARY
360
68F
102
}
330
31
100
AcDbVisualStyle
  2
Facepattern
 70
    15
 71
     2
 72
     2
 73
     0
 90
        0
 40
0.6
 41
30.0
 62
     5
 63
     7
 74
     1
 91
        4
 64
     7
 65
   257
 75
     1
175
     1
 42
1.0
 92
        8
 66
     7
 43
1.0
 76
     1
 77
     6
 78
     2
 67
     7
 79
     5
170
     0
171
     0
290
     0
174
     0
 93
        1
 44
0.0
173
     0
291
     1
 45
0.0
1001
ACAD
1000
AcDbSavedByObjectVersion
1070
     0
  0
VISUALSTYLE
  5
56D
102
{ACAD_REACTORS
330
31
102
}
102
{ACAD_XDICTIONARY
360
677
102
}
330
31
100
AcDbVisualStyle
  2
Flat
 70
     0
 71
     2
 72
     1
 73
     1
 90
        2
 40
0.6
 41
30.0
 62
     5
 63
     7
 74
     0
 91
        4
 64
     7
 65
   257
 75
     1
175
     1
 42
1.0
 92
        8
 66
     7
 43
1.0
 76
     1
 77
     6
 78
     2
 67
     7
 79
     5
170
     0
171
     0
290
     0
174
     0
 93
       13
 44
0.0
173
     0
291
     1
 45
0.0
1001
ACAD
1000
AcDbSavedByObjectVersion
1070
     0
  0
VISUALSTYLE
  5
56E
102
{ACAD_REACTORS
330
31
102
}
102
{ACAD_XDICTIONARY
360
679
102
}
330
31
100
AcDbVisualStyle
  2
FlatWithEdges
 70
     1
 71
     2
 72
     1
 73
     1
 90
        2
 40
0.6
 41
30.0
 62
     5
 63
     7
 74
     1
 91
        4
 64
     7
 65
   257
 75
     1
175
     1
 42
1.0
 92
        0
 66
   257
 43
1.0
 76
     1
 77
     6
 78
     2
 67
     7
 79
     5
170
     0
171
     0
290
     0
174
     0
 93
       13
 44
0.0
173
     0
291
     1
 45
0.0
1001
ACAD
1000
AcDbSavedByObjectVersion
1070
     0
  0
VISUALSTYLE
  5
56F
102
{ACAD_REACTORS
330
31
102
}
102
{ACAD_XDICTIONARY
360
67B
102
}
330
31
100
AcDbVisualStyle
  2
Gouraud
 70
     2
 71
     2
 72
     2
 73
     1
 90
        2
 40
0.6
 41
30.0
 62
     5
 63
     7
 74
     0
 91
        4
 64
     7
 65
   257
 75
     1
175
     1
 42
1.0
 92
        0
 66
     7
 43
1.0
 76
     1
 77
     6
 78
     2
 67
     7
 79
     5
170
     0
171
     0
290
     0
174
     0
 93
       13
 44
0.0
173
     0
291
     1
 45
0.0
1001
ACAD
1000
AcDbSavedByObjectVersion
1070
     0
  0
VISUALSTYLE
  5
570
102
{ACAD_REACTORS
330
31
102
}
102
{ACAD_XDICTIONARY
360
67D
102
}
330
31
100
AcDbVisualStyle
  2
GouraudWithEdges
 70
     3
 71
     2
 72
     2
 73
     1
 90
        2
 40
0.6
 41
30.0
 62
     5
 63
     7
 74
     1
 91
        4
 64
     7
 65
   257
 75
     1
175
     1
 42
1.0
 92
        0
 66
   257
 43
1.0
 76
     1
 77
     6
 78
     2
 67
     7
 79
     5
170
     0
171
     0
290
     0
174
     0
 93
       13
 44
0.0
173
     0
291
     1
 45
0.0
1001
ACAD
1000
AcDbSavedByObjectVersion
1070
     0
  0
VISUALSTYLE
  5
572
102
{ACAD_REACTORS
330
31
102
}
102
{ACAD_XDICTIONARY
360
681
102
}
330
31
100
AcDbVisualStyle
  2
Hidden
 70
     6
 71
     1
 72
     2
 73
     2
 90
        0
 40
0.6
 41
30.0
 62
     5
 63
     7
 74
     2
 91
        2
 64
     7
 65
   257
 75
     2
175
     1
 42
40.0
 92
        0
 66
   257
 43
1.0
 76
     1
 77
     6
 78
     2
 67
     7
 79
     3
170
     0
171
     0
290
     0
174
     0
 93
        1
 44
0.0
173
     0
291
     0
 45
0.0
1001
ACAD
1000
AcDbSavedByObjectVersion
1070
     0
  0
VISUALSTYLE
  5
57B
102
{ACAD_REACTORS
330
31
102
}
102
{ACAD_XDICTIONARY
360
693
102
}
330
31
100
AcDbVisualStyle
  2
JitterOff
 70
    20
 71
     2
 72
     2
 73
     0
 90
        0
 40
0.6
 41
30.0
 62
     5
 63
     7
 74
     1
 91
        4
 64
     7
 65
   257
 75
     1
175
     1
 42
1.0
 92
       10
 66
     7
 43
1.0
 76
     1
 77
     6
 78
     2
 67
     7
 79
     5
170
     0
171
     0
290
     0
174
     0
 93
        1
 44
0.0
173
     0
291
     1
 45
0.0
1001
ACAD
1000
AcDbSavedByObjectVersion
1070
     0
  0
VISUALSTYLE
  5
578
102
{ACAD_REACTORS
330
31
102
}
102
{ACAD_XDICTIONARY
360
68D
102
}
330
31
100
AcDbVisualStyle
  2
Linepattern
 70
    14
 71
     2
 72
     2
 73
     0
 90
        0
 40
0.6
 41
30.0
 62
     5
 63
     7
 74
     1
 91
        4
 64
     7
 65
   257
 75
     7
175
     7
 42
1.0
 92
        8
 66
     7
 43
1.0
 76
     1
 77
     6
 78
     2
 67
     7
 79
     5
170
     0
171
     0
290
     0
174
     0
 93
        1
 44
0.0
173
     0
291
     1
 45
0.0
1001
ACAD
1000
AcDbSavedByObjectVersion
1070
     0
  0
VISUALSTYLE
  5
57C
102
{ACAD_REACTORS
330
31
102
}
102
{ACAD_XDICTIONARY
360
695
102
}
330
31
100
AcDbVisualStyle
  2
OverhangOff
 70
    21
 71
     2
 72
     2
 73
     0
 90
        0
 40
0.6
 41
30.0
 62
     5
 63
     7
 74
     1
 91
        4
 64
     7
 65
   257
 75
     1
175
     1
 42
1.0
 92
        9
 66
     7
 43
1.0
 76
     1
 77
     6
 78
     2
 67
     7
 79
     5
170
     0
171
     0
290
     0
174
     0
 93
        1
 44
0.0
173
     0
291
     1
 45
0.0
1001
ACAD
1000
AcDbSavedByObjectVersion
1070
     0
  0
VISUALSTYLE
  5
32
102
{ACAD_REACTORS
330
31
102
}
102
{ACAD_XDICTIONARY
360
673
102
}
330
31
100
AcDbVisualStyle
  2
Realistic
 70
     8
 71
     2
 72
     3
 73
     0
 90
        2
 40
0.6
 41
30.0
 62
     5
 63
     7
 74
     0
 91
        0
 64
     7
 65
   257
 75
     1
175
     1
 42
1.0
 92
        8
 66
   257
 43
1.0
 76
     1
 77
     6
 78
     2
 67
     7
 79
     3
170
     0
171
     0
290
     0
174
     0
 93
       13
 44
0.0
173
     0
291
     0
 45
0.0
1001
ACAD
1000
AcDbSavedByObjectVersion
1070
     0
  0
VISUALSTYLE
  5
582
102
{ACAD_REACTORS
330
31
102
}
102
{ACAD_XDICTIONARY
360
6A1
102
}
330
31
100
AcDbVisualStyle
  2
Shaded
 70
    27
 71
     2
 72
     2
 73
     1
 90
        2
 40
0.6
 41
30.0
 62
     5
 63
     7
 74
     0
 91
        4
 64
     7
 65
   257
 75
     1
175
     1
 42
1.0
 92
        8
 66
   257
 43
1.0
 76
     1
 77
     6
 78
     2
 67
   251
 79
     3
170
     0
171
     0
290
     0
174
     0
 93
        5
 44
0.0
173
     0
291
     0
 45
0.0
1001
ACAD
1000
AcDbSavedByObjectVersion
1070
     0
  0
VISUALSTYLE
  5
581
102
{ACAD_REACTORS
330
31
102
}
102
{ACAD_XDICTIONARY
360
69F
102
}
330
31
100
AcDbVisualStyle
  2
Shaded with edges
 70
    26
 71
     2
 72
     2
 73
     1
 90
        2
 40
0.6
 41
30.0
 62
     5
 63
     7
 74
     1
 91
       10
 64
     7
 65
   257
 75
     2
175
     1
 42
1.0
 92
        8
 66
   257
 43
1.0
 76
     1
 77
     6
 78
     2
 67
     7
 79
     3
170
     0
171
     0
290
     0
174
     0
 93
        5
 44
0.0
173
     0
291
     0
 45
0.0
1001
ACAD
1000
AcDbSavedByObjectVersion
1070
     0
  0
VISUALSTYLE
  5
57E
102
{ACAD_REACTORS
330
31
102
}
102
{ACAD_XDICTIONARY
360
699
102
}
330
31
100
AcDbVisualStyle
  2
Shades of Gray
 70
    23
 71
     2
 72
     2
 73
     3
 90
        0
 40
0.6
 41
30.0
 62
     5
 63
     7
 74
     2
 91
        2
 64
     7
 65
     7
 75
     1
175
     1
 42
40.0
 92
        8
 66
     7
 43
1.0
 76
     1
 77
     6
 78
     2
 67
     7
 79
     3
170
     0
171
     0
290
     0
174
     0
 93
        1
 44
0.0
173
     0
291
     0
 45
0.0
1001
ACAD
1000
AcDbSavedByObjectVersion
1070
     0
  0
VISUALSTYLE
  5
57F
102
{ACAD_REACTORS
330
31
102
}
102
{ACAD_XDICTIONARY
360
69B
102
}
330
31
100
AcDbVisualStyle
  2
Sketchy
 70
    24
 71
     1
 72
     2
 73
     2
 90
        0
 40
0.6
 41
30.0
 62
     5
 63
     7
 74
     2
 91
        2
 64
     7
 65
     7
 75
     1
175
     1
 42
40.0
 92
       11
 66
     7
 43
1.0
 76
     1
 77
     6
 78
     2
 67
     7
 79
     6
170
     0
171
     0
290
     0
174
     0
 93
        1
 44
0.0
173
     0
291
     0
 45
0.0
1001
ACAD
1000
AcDbSavedByObjectVersion
1070
     0
  0
VISUALSTYLE
  5
577
102
{ACAD_REACTORS
330
31
102
}
102
{ACAD_XDICTIONARY
360
68B
102
}
330
31
100
AcDbVisualStyle
  2
Thicken
 70
    13
 71
     2
 72
     2
 73
     0
 90
        0
 40
0.6
 41
30.0
 62
     5
 63
     7
 74
     1
 91
        4
 64
     7
 65
   257
 75
     1
175
     1
 42
1.0
 92
       12
 66
     7
 43
1.0
 76
     1
 77
     6
 78
     2
 67
     7
 79
     5
170
     0
171
     0
290
     0
174
     0
 93
        1
 44
0.0
173
     0
291
     1
 45
0.0
1001
ACAD
1000
AcDbSavedByObjectVersion
1070
     0
  0
VISUALSTYLE
  5
33
102
{ACAD_REACTORS
330
31
102
}
102
{ACAD_XDICTIONARY
360
675
102
}
330
31
100
AcDbVisualStyle
  2
Wireframe
 70
     5
 71
     0
 72
     2
 73
     0
 90
        0
 40
0.6
 41
30.0
 62
     5
 63
     7
 74
     1
 91
        4
 64
     7
 65
   257
 75
     1
175
     1
 42
1.0
 92
        0
 66
   257
 43
1.0
 76
     1
 77
     6
 78
     2
 67
     7
 79
     3
170
     0
171
     0
290
     0
174
     0
 93
        1
 44
0.0
173
     0
291
     0
 45
0.0
1001
ACAD
1000
AcDbSavedByObjectVersion
1070
     0
  0
VISUALSTYLE
  5
580
102
{ACAD_REACTORS
330
31
102
}
102
{ACAD_XDICTIONARY
360
69D
102
}
330
31
100
AcDbVisualStyle
  2
X-Ray
 70
    25
 71
     2
 72
     2
 73
     1
 90
        1
 40
0.5
 41
30.0
 62
     5
 63
     7
 74
     1
 91
        0
 64
     7
 65
   257
 75
     1
175
     1
 42
1.0
 92
        8
 66
     7
 43
1.0
 76
     1
 77
     6
 78
     2
 67
     7
 79
     3
170
     0
171
     0
290
     0
174
     0
 93
       13
 44
0.0
173
     0
291
     0
 45
0.0
1001
ACAD
1000
AcDbSavedByObjectVersion
1070
     0
  0
XRECORD
  5
667
102
{ACAD_REACTORS
330
666
102
}
330
666
100
AcDbXrecord
280
     1
340
30
  0
XRECORD
  5
668
102
{ACAD_REACTORS
330
666
102
}
330
666
100
AcDbXrecord
280
     1
340
B
  0
DICTIONARYVAR
  5
567
102
{ACAD_REACTORS
330
566
102
}
330
566
100
DictionaryVariables
280
     0
  1
1:1
  0
DICTIONARYVAR
  5
661
102
{ACAD_REACTORS
330
566
102
}
330
566
100
DictionaryVariables
280
     0
  1
Standard
  0
DICTIONARYVAR
  5
663
102
{ACAD_REACTORS
330
566
102
}
330
566
100
DictionaryVariables
280
     0
  1
Standard
  0
DICTIONARYVAR
  5
664
102
{ACAD_REACTORS
330
566
102
}
330
566
100
DictionaryVariables
280
     0
  1
0
  0
DICTIONARYVAR
  5
665
102
{ACAD_REACTORS
330
566
102
}
330
566
100
DictionaryVariables
280
     0
  1
1
  0
DICTIONARYVAR
  5
66C
102
{ACAD_REACTORS
330
566
102
}
330
566
100
DictionaryVariables
280
     0
  1
1
  0
DICTIONARYVAR
  5
56A
102
{ACAD_REACTORS
330
566
102
}
330
566
100
DictionaryVariables
280
     0
  1
0
  0
DICTIONARY
  5
25
330
23
100
AcDbDictionary
280
     1
281
     1
  0
DICTIONARY
  5
671
330
5A
100
AcDbDictionary
280
     1
281
     1
  3
ACAD_XREC_ROUNDTRIP
360
672
  0
DICTIONARY
  5
66D
330
14
100
AcDbDictionary
280
     1
281
     1
  3
ACAD_XREC_ROUNDTRIP
360
66E
  0
DICTIONARY
  5
66F
330
A
100
AcDbDictionary
280
     1
281
     1
  3
ACAD_XREC_ROUNDTRIP
360
670
  0
DICTIONARY
  5
6A3
330
659
100
AcDbDictionary
280
     1
281
     1
  3
ACAD_XREC_ROUNDTRIP
360
6A4
  0
DICTIONARY
  5
67F
330
571
100
AcDbDictionary
280
     1
281
     1
  3
ACAD_XREC_ROUNDTRIP
360
680
  0
DICTIONARY
  5
683
330
573
100
AcDbDictionary
280
     1
281
     1
  3
ACAD_XREC_ROUNDTRIP
360
684
  0
DICTIONARY
  5
689
330
576
100
AcDbDictionary
280
     1
281
     1
  3
ACAD_XREC_ROUNDTRIP
360
68A
  0
DICTIONARY
  5
691
330
57A
100
AcDbDictionary
280
     1
281
     1
  3
ACAD_XREC_ROUNDTRIP
360
692
  0
DICTIONARY
  5
685
330
574
100
AcDbDictionary
280
     1
281
     1
  3
ACAD_XREC_ROUNDTRIP
360
686
  0
DICTIONARY
  5
687
330
575
100
AcDbDictionary
280
     1
281
     1
  3
ACAD_XREC_ROUNDTRIP
360
688
  0
DICTIONARY
  5
697
330
57D
100
AcDbDictionary
280
     1
281
     1
  3
ACAD_XREC_ROUNDTRIP
360
698
  0
DICTIONARY
  5
68F
330
579
100
AcDbDictionary
280
     1
281
     1
  3
ACAD_XREC_ROUNDTRIP
360
690
  0
DICTIONARY
  5
677
330
56D
100
AcDbDictionary
280
     1
281
     1
  3
ACAD_XREC_ROUNDTRIP
360
678
  0
DICTIONARY
  5
679
330
56E
100
AcDbDictionary
280
     1
281
     1
  3
ACAD_XREC_ROUNDTRIP
360
67A
  0
DICTIONARY
  5
67B
330
56F
100
AcDbDictionary
280
     1
281
     1
  3
ACAD_XREC_ROUNDTRIP
360
67C
  0
DICTIONARY
  5
67D
330
570
100
AcDbDictionary
280
     1
281
     1
  3
ACAD_XREC_ROUNDTRIP
360
67E
  0
DICTIONARY
  5
681
330
572
100
AcDbDictionary
280
     1
281
     1
  3
ACAD_XREC_ROUNDTRIP
360
682
  0
DICTIONARY
  5
693
330
57B
100
AcDbDictionary
280
     1
281
     1
  3
ACAD_XREC_ROUNDTRIP
360
694
  0
DICTIONARY
  5
68D
330
578
100
AcDbDictionary
280
     1
281
     1
  3
ACAD_XREC_ROUNDTRIP
360
68E
  0
DICTIONARY
  5
695
330
57C
100
AcDbDictionary
280
     1
281
     1
  3
ACAD_XREC_ROUNDTRIP
360
696
  0
DICTIONARY
  5
673
330
32
100
AcDbDictionary
280
     1
281
     1
  3
ACAD_XREC_ROUNDTRIP
360
674
  0
DICTIONARY
  5
6A1
330
582
100
AcDbDictionary
280
     1
281
     1
  3
ACAD_XREC_ROUNDTRIP
360
6A2
  0
DICTIONARY
  5
69F
330
581
100
AcDbDictionary
280
     1
281
     1
  3
ACAD_XREC_ROUNDTRIP
360
6A0
  0
DICTIONARY
  5
699
330
57E
100
AcDbDictionary
280
     1
281
     1
  3
ACAD_XREC_ROUNDTRIP
360
69A
  0
DICTIONARY
  5
69B
330
57F
100
AcDbDictionary
280
     1
281
     1
  3
ACAD_XREC_ROUNDTRIP
360
69C
  0
DICTIONARY
  5
68B
330
577
100
AcDbDictionary
280
     1
281
     1
  3
ACAD_XREC_ROUNDTRIP
360
68C
  0
DICTIONARY
  5
675
330
33
100
AcDbDictionary
280
     1
281
     1
  3
ACAD_XREC_ROUNDTRIP
360
676
  0
DICTIONARY
  5
69D
330
580
100
AcDbDictionary
280
     1
281
     1
  3
ACAD_XREC_ROUNDTRIP
360
69E
  0
XRECORD
  5
672
102
{ACAD_REACTORS
330
671
102
}
330
671
100
AcDbXrecord
280
     1
102
MATERIAL
148
0.0
149
0.0
149
0.0
 93
        0
 94
      127
282
     0
 72
     0
 77
     0
171
     0
175
     0
179
     0
273
     0
  0
XRECORD
  5
66E
102
{ACAD_REACTORS
330
66D
102
}
330
66D
100
AcDbXrecord
280
     1
102
MATERIAL
148
0.0
149
0.0
149
0.0
 93
        0
 94
      127
282
     0
 72
     0
 77
     0
171
     0
175
     0
179
     0
273
     0
  0
XRECORD
  5
670
102
{ACAD_REACTORS
330
66F
102
}
330
66F
100
AcDbXrecord
280
     1
102
MATERIAL
148
0.0
149
0.0
149
0.0
 93
        0
 94
      127
282
     0
 72
     0
 77
     0
171
     0
175
     0
179
     0
273
     0
  0
XRECORD
  5
6A4
102
{ACAD_REACTORS
330
6A3
102
}
330
6A3
100
AcDbXrecord
280
     1
102
ACAD_ROUNDTRIP_2010_MLEADER_STYLE
  0
XRECORD
  5
680
102
{ACAD_REACTORS
330
67F
102
}
330
67F
100
AcDbXrecord
280
     1
102
RTVSPropertyOp0
 70
     1
102
RTVSPropertyOp1
 70
     1
102
RTVSPropertyOp2
 70
     1
102
RTVSPropertyOp3
 70
     1
102
RTVSPropertyOp4
 70
     1
102
RTVSPropertyOp5
 70
     1
102
RTVSPropertyOp6
 70
     1
102
RTVSPropertyOp7
 70
     1
102
RTVSPropertyOp8
 70
     1
102
RTVSPropertyOp9
 70
     1
102
RTVSPropertyOp10
 70
     1
102
RTVSPropertyOp11
 70
     1
102
RTVSPropertyOp12
 70
     1
102
RTVSPropertyOp13
 70
     1
102
RTVSPropertyOp14
 70
     1
102
RTVSPropertyOp15
 70
     1
102
RTVSPropertyOp16
 70
     1
102
RTVSPropertyOp17
 70
     1
102
RTVSPropertyOp18
 70
     1
102
RTVSPropertyOp19
 70
     1
102
RTVSPropertyOp20
 70
     1
102
RTVSPropertyOp21
 70
     1
102
RTVSPropertyOp22
 70
     1
102
RTVSPropertyOp23
 70
     1
102
RTVSPropertyOp24
 70
     1
102
RTVSPropertyOp25
 70
     1
102
RTVSPropertyOp26
 70
     1
102
RTVSPropertyOp27
 70
     1
102
RTVSPropertyOp28
 70
     1
102
RTVSPropertyOp29
 70
     1
102
RTVSPropertyOp30
 70
     1
102
RTVSPropertyOp31
 70
     1
102
RTVSPropertyOp32
 70
     1
102
RTVSPropertyOp33
 70
     1
102
RTVSPropertyOp34
 70
     1
102
RTVSPropertyOp35
 70
     1
102
RTVSPropertyOp36
 70
     1
102
RTVSPropertyOp37
 70
     1
102
RTVSPropertyOp38
 70
     1
102
RTVSPropertyOp39
 70
     1
102
RTVSPropertyOp40
 70
     1
102
RTVSPropertyOp41
 70
     1
102
RTVSPropertyOp42
 70
     1
102
RTVSPropertyOp43
 70
     1
102
RTVSPropertyOp44
 70
     1
102
RTVSPropertyOp45
 70
     1
102
RTVSPropertyOp46
 70
     1
102
RTVSPropertyOp47
 70
     1
102
RTVSPropertyOp48
 70
     1
102
RTVSPropertyOp49
 70
     1
102
RTVSPropertyOp50
 70
     1
102
RTVSPropertyOp51
 70
     0
102
RTVSPropertyOp52
 70
     0
102
RTVSPropertyOp53
 70
     1
102
RTVSPropertyOp54
 70
     1
102
RTVSPropertyOp55
 70
     1
102
RTVSPropertyOp56
 70
     1
102
RTVSPropertyOp57
 70
     1
102
RTVSPost2010Prop28
280
     1
102
RTVSPost2010PropOp28
 70
     1
102
RTVSPost2010Prop29
280
     1
102
RTVSPost2010PropOp29
 70
     1
102
RTVSPost2010Prop30
280
     0
102
RTVSPost2010PropOp30
 70
     1
102
RTVSPost2010Prop31
280
     0
102
RTVSPost2010PropOp31
 70
     1
102
RTVSPost2010Prop32
280
     0
102
RTVSPost2010PropOp32
 70
     1
102
RTVSPost2010Prop33
280
     0
102
RTVSPost2010PropOp33
 70
     1
102
RTVSPost2010Prop34
280
     0
102
RTVSPost2010PropOp34
 70
     1
102
RTVSPost2010Prop35
280
     0
102
RTVSPost2010PropOp35
 70
     1
102
RTVSPost2010Prop36
280
     0
102
RTVSPost2010PropOp36
 70
     1
102
RTVSPost2010Prop37
 90
       50
102
RTVSPost2010PropOp37
 70
     1
102
RTVSPost2010Prop38
140
0.0
102
RTVSPost2010PropOp38
 70
     1
102
RTVSPost2010Prop39
140
1.0
102
RTVSPost2010PropOp39
 70
     1
102
RTVSPost2010Prop40
 90
        0
102
RTVSPost2010PropOp40
 70
     1
102
RTVSPost2010Prop41ColorIndex
 90
       18
102
RTVSPost2010Prop41ColorRGB
 90
        0
102
RTVSPost2010PropOp41
 70
     1
102
RTVSPost2010Prop42
 90
       50
102
RTVSPost2010PropOp42
 70
     1
102
RTVSPost2010Prop43
 90
        3
102
RTVSPost2010PropOp43
 70
     1
102
RTVSPost2010Prop44ColorIndex
 90
        5
102
RTVSPost2010Prop44ColorRGB
 90
      255
102
RTVSPost2010PropOp44
 70
     1
102
RTVSPost2010Prop45
280
     0
102
RTVSPost2010PropOp45
 70
     1
102
RTVSPost2010Prop46
 90
       50
102
RTVSPost2010PropOp46
 70
     1
102
RTVSPost2010Prop47
 90
       50
102
RTVSPost2010PropOp47
 70
     1
102
RTVSPost2010Prop48
 90
       50
102
RTVSPost2010PropOp48
 70
     1
102
RTVSPost2010Prop49
280
     0
102
RTVSPost2010PropOp49
 70
     1
102
RTVSPost2010Prop50
 90
       50
102
RTVSPost2010PropOp50
 70
     1
102
RTVSPost2010Prop51ColorIndex
 90
      256
102
RTVSPost2010Prop51ColorRGB
 90
-16777216
102
RTVSPost2010PropOp51
 70
     0
102
RTVSPost2010Prop52
140
1.0
102
RTVSPost2010PropOp52
 70
     0
102
RTVSPost2010Prop53
 90
        2
102
RTVSPost2010PropOp53
 70
     1
102
RTVSPost2010Prop54
  1
strokes_ogs.tif
102
RTVSPost2010PropOp54
 70
     1
102
RTVSPost2010Prop55
280
     0
102
RTVSPost2010PropOp55
 70
     1
102
RTVSPost2010Prop56
140
1.0
102
RTVSPost2010PropOp56
 70
     1
102
RTVSPost2010Prop57
140
1.0
102
RTVSPost2010PropOp57
 70
     1
  0
XRECORD
  5
684
102
{ACAD_REACTORS
330
683
102
}
330
683
100
AcDbXrecord
280
     1
102
RTVSPropertyOp0
 70
     1
102
RTVSPropertyOp1
 70
     1
102
RTVSPropertyOp2
 70
     1
102
RTVSPropertyOp3
 70
     1
102
RTVSPropertyOp4
 70
     1
102
RTVSPropertyOp5
 70
     1
102
RTVSPropertyOp6
 70
     1
102
RTVSPropertyOp7
 70
     1
102
RTVSPropertyOp8
 70
     1
102
RTVSPropertyOp9
 70
     1
102
RTVSPropertyOp10
 70
     1
102
RTVSPropertyOp11
 70
     1
102
RTVSPropertyOp12
 70
     1
102
RTVSPropertyOp13
 70
     1
102
RTVSPropertyOp14
 70
     1
102
RTVSPropertyOp15
 70
     1
102
RTVSPropertyOp16
 70
     1
102
RTVSPropertyOp17
 70
     1
102
RTVSPropertyOp18
 70
     1
102
RTVSPropertyOp19
 70
     1
102
RTVSPropertyOp20
 70
     1
102
RTVSPropertyOp21
 70
     1
102
RTVSPropertyOp22
 70
     1
102
RTVSPropertyOp23
 70
     1
102
RTVSPropertyOp24
 70
     1
102
RTVSPropertyOp25
 70
     1
102
RTVSPropertyOp26
 70
     1
102
RTVSPropertyOp27
 70
     1
102
RTVSPropertyOp28
 70
     1
102
RTVSPropertyOp29
 70
     1
102
RTVSPropertyOp30
 70
     1
102
RTVSPropertyOp31
 70
     1
102
RTVSPropertyOp32
 70
     1
102
RTVSPropertyOp33
 70
     1
102
RTVSPropertyOp34
 70
     1
102
RTVSPropertyOp35
 70
     1
102
RTVSPropertyOp36
 70
     1
102
RTVSPropertyOp37
 70
     1
102
RTVSPropertyOp38
 70
     1
102
RTVSPropertyOp39
 70
     1
102
RTVSPropertyOp40
 70
     1
102
RTVSPropertyOp41
 70
     1
102
RTVSPropertyOp42
 70
     1
102
RTVSPropertyOp43
 70
     1
102
RTVSPropertyOp44
 70
     1
102
RTVSPropertyOp45
 70
     1
102
RTVSPropertyOp46
 70
     1
102
RTVSPropertyOp47
 70
     1
102
RTVSPropertyOp48
 70
     1
102
RTVSPropertyOp49
 70
     1
102
RTVSPropertyOp50
 70
     1
102
RTVSPropertyOp51
 70
     0
102
RTVSPropertyOp52
 70
     0
102
RTVSPropertyOp53
 70
     1
102
RTVSPropertyOp54
 70
     1
102
RTVSPropertyOp55
 70
     1
102
RTVSPropertyOp56
 70
     1
102
RTVSPropertyOp57
 70
     1
102
RTVSPost2010Prop28
280
     0
102
RTVSPost2010PropOp28
 70
     1
102
RTVSPost2010Prop29
280
     1
102
RTVSPost2010PropOp29
 70
     1
102
RTVSPost2010Prop30
280
     1
102
RTVSPost2010PropOp30
 70
     1
102
RTVSPost2010Prop31
280
     0
102
RTVSPost2010PropOp31
 70
     1
102
RTVSPost2010Prop32
280
     0
102
RTVSPost2010PropOp32
 70
     1
102
RTVSPost2010Prop33
280
     0
102
RTVSPost2010PropOp33
 70
     1
102
RTVSPost2010Prop34
280
     0
102
RTVSPost2010PropOp34
 70
     1
102
RTVSPost2010Prop35
280
     0
102
RTVSPost2010PropOp35
 70
     1
102
RTVSPost2010Prop36
280
     0
102
RTVSPost2010PropOp36
 70
     1
102
RTVSPost2010Prop37
 90
       50
102
RTVSPost2010PropOp37
 70
     1
102
RTVSPost2010Prop38
140
0.0
102
RTVSPost2010PropOp38
 70
     1
102
RTVSPost2010Prop39
140
1.0
102
RTVSPost2010PropOp39
 70
     1
102
RTVSPost2010Prop40
 90
        0
102
RTVSPost2010PropOp40
 70
     1
102
RTVSPost2010Prop41ColorIndex
 90
       18
102
RTVSPost2010Prop41ColorRGB
 90
        0
102
RTVSPost2010PropOp41
 70
     1
102
RTVSPost2010Prop42
 90
       50
102
RTVSPost2010PropOp42
 70
     1
102
RTVSPost2010Prop43
 90
        3
102
RTVSPost2010PropOp43
 70
     1
102
RTVSPost2010Prop44ColorIndex
 90
        5
102
RTVSPost2010Prop44ColorRGB
 90
      255
102
RTVSPost2010PropOp44
 70
     1
102
RTVSPost2010Prop45
280
     0
102
RTVSPost2010PropOp45
 70
     1
102
RTVSPost2010Prop46
 90
       50
102
RTVSPost2010PropOp46
 70
     1
102
RTVSPost2010Prop47
 90
       50
102
RTVSPost2010PropOp47
 70
     1
102
RTVSPost2010Prop48
 90
       50
102
RTVSPost2010PropOp48
 70
     1
102
RTVSPost2010Prop49
280
     0
102
RTVSPost2010PropOp49
 70
     1
102
RTVSPost2010Prop50
 90
       50
102
RTVSPost2010PropOp50
 70
     1
102
RTVSPost2010Prop51ColorIndex
 90
      256
102
RTVSPost2010Prop51ColorRGB
 90
-16777216
102
RTVSPost2010PropOp51
 70
     0
102
RTVSPost2010Prop52
140
1.0
102
RTVSPost2010PropOp52
 70
     0
102
RTVSPost2010Prop53
 90
        2
102
RTVSPost2010PropOp53
 70
     1
102
RTVSPost2010Prop54
  1
strokes_ogs.tif
102
RTVSPost2010PropOp54
 70
     1
102
RTVSPost2010Prop55
280
     0
102
RTVSPost2010PropOp55
 70
     1
102
RTVSPost2010Prop56
140
1.0
102
RTVSPost2010PropOp56
 70
     1
102
RTVSPost2010Prop57
140
1.0
102
RTVSPost2010PropOp57
 70
     1
  0
XRECORD
  5
68A
102
{ACAD_REACTORS
330
689
102
}
330
689
100
AcDbXrecord
280
     1
102
RTVSPropertyOp0
 70
     1
102
RTVSPropertyOp1
 70
     1
102
RTVSPropertyOp2
 70
     1
102
RTVSPropertyOp3
 70
     1
102
RTVSPropertyOp4
 70
     1
102
RTVSPropertyOp5
 70
     1
102
RTVSPropertyOp6
 70
     1
102
RTVSPropertyOp7
 70
     1
102
RTVSPropertyOp8
 70
     1
102
RTVSPropertyOp9
 70
     1
102
RTVSPropertyOp10
 70
     1
102
RTVSPropertyOp11
 70
     1
102
RTVSPropertyOp12
 70
     1
102
RTVSPropertyOp13
 70
     1
102
RTVSPropertyOp14
 70
     1
102
RTVSPropertyOp15
 70
     1
102
RTVSPropertyOp16
 70
     1
102
RTVSPropertyOp17
 70
     1
102
RTVSPropertyOp18
 70
     1
102
RTVSPropertyOp19
 70
     1
102
RTVSPropertyOp20
 70
     1
102
RTVSPropertyOp21
 70
     1
102
RTVSPropertyOp22
 70
     1
102
RTVSPropertyOp23
 70
     1
102
RTVSPropertyOp24
 70
     1
102
RTVSPropertyOp25
 70
     1
102
RTVSPropertyOp26
 70
     1
102
RTVSPropertyOp27
 70
     1
102
RTVSPropertyOp28
 70
     1
102
RTVSPropertyOp29
 70
     1
102
RTVSPropertyOp30
 70
     1
102
RTVSPropertyOp31
 70
     1
102
RTVSPropertyOp32
 70
     1
102
RTVSPropertyOp33
 70
     1
102
RTVSPropertyOp34
 70
     1
102
RTVSPropertyOp35
 70
     1
102
RTVSPropertyOp36
 70
     1
102
RTVSPropertyOp37
 70
     1
102
RTVSPropertyOp38
 70
     1
102
RTVSPropertyOp39
 70
     1
102
RTVSPropertyOp40
 70
     1
102
RTVSPropertyOp41
 70
     1
102
RTVSPropertyOp42
 70
     1
102
RTVSPropertyOp43
 70
     1
102
RTVSPropertyOp44
 70
     1
102
RTVSPropertyOp45
 70
     1
102
RTVSPropertyOp46
 70
     1
102
RTVSPropertyOp47
 70
     1
102
RTVSPropertyOp48
 70
     1
102
RTVSPropertyOp49
 70
     1
102
RTVSPropertyOp50
 70
     1
102
RTVSPropertyOp51
 70
     0
102
RTVSPropertyOp52
 70
     0
102
RTVSPropertyOp53
 70
     1
102
RTVSPropertyOp54
 70
     1
102
RTVSPropertyOp55
 70
     1
102
RTVSPropertyOp56
 70
     1
102
RTVSPropertyOp57
 70
     1
102
RTVSPost2010Prop28
280
     0
102
RTVSPost2010PropOp28
 70
     1
102
RTVSPost2010Prop29
280
     1
102
RTVSPost2010PropOp29
 70
     1
102
RTVSPost2010Prop30
280
     1
102
RTVSPost2010PropOp30
 70
     1
102
RTVSPost2010Prop31
280
     0
102
RTVSPost2010PropOp31
 70
     1
102
RTVSPost2010Prop32
280
     0
102
RTVSPost2010PropOp32
 70
     1
102
RTVSPost2010Prop33
280
     0
102
RTVSPost2010PropOp33
 70
     1
102
RTVSPost2010Prop34
280
     0
102
RTVSPost2010PropOp34
 70
     1
102
RTVSPost2010Prop35
280
     0
102
RTVSPost2010PropOp35
 70
     1
102
RTVSPost2010Prop36
280
     0
102
RTVSPost2010PropOp36
 70
     1
102
RTVSPost2010Prop37
 90
       50
102
RTVSPost2010PropOp37
 70
     1
102
RTVSPost2010Prop38
140
0.0
102
RTVSPost2010PropOp38
 70
     1
102
RTVSPost2010Prop39
140
1.0
102
RTVSPost2010PropOp39
 70
     1
102
RTVSPost2010Prop40
 90
        0
102
RTVSPost2010PropOp40
 70
     1
102
RTVSPost2010Prop41ColorIndex
 90
       18
102
RTVSPost2010Prop41ColorRGB
 90
        0
102
RTVSPost2010PropOp41
 70
     1
102
RTVSPost2010Prop42
 90
       50
102
RTVSPost2010PropOp42
 70
     1
102
RTVSPost2010Prop43
 90
        3
102
RTVSPost2010PropOp43
 70
     1
102
RTVSPost2010Prop44ColorIndex
 90
        5
102
RTVSPost2010Prop44ColorRGB
 90
      255
102
RTVSPost2010PropOp44
 70
     1
102
RTVSPost2010Prop45
280
     0
102
RTVSPost2010PropOp45
 70
     1
102
RTVSPost2010Prop46
 90
       50
102
RTVSPost2010PropOp46
 70
     1
102
RTVSPost2010Prop47
 90
       50
102
RTVSPost2010PropOp47
 70
     1
102
RTVSPost2010Prop48
 90
       50
102
RTVSPost2010PropOp48
 70
     1
102
RTVSPost2010Prop49
280
     0
102
RTVSPost2010PropOp49
 70
     1
102
RTVSPost2010Prop50
 90
       50
102
RTVSPost2010PropOp50
 70
     1
102
RTVSPost2010Prop51ColorIndex
 90
      256
102
RTVSPost2010Prop51ColorRGB
 90
-16777216
102
RTVSPost2010PropOp51
 70
     0
102
RTVSPost2010Prop52
140
1.0
102
RTVSPost2010PropOp52
 70
     0
102
RTVSPost2010Prop53
 90
        2
102
RTVSPost2010PropOp53
 70
     1
102
RTVSPost2010Prop54
  1
strokes_ogs.tif
102
RTVSPost2010PropOp54
 70
     1
102
RTVSPost2010Prop55
280
     0
102
RTVSPost2010PropOp55
 70
     1
102
RTVSPost2010Prop56
140
1.0
102
RTVSPost2010PropOp56
 70
     1
102
RTVSPost2010Prop57
140
1.0
102
RTVSPost2010PropOp57
 70
     1
  0
XRECORD
  5
692
102
{ACAD_REACTORS
330
691
102
}
330
691
100
AcDbXrecord
280
     1
102
RTVSPropertyOp0
 70
     1
102
RTVSPropertyOp1
 70
     1
102
RTVSPropertyOp2
 70
     1
102
RTVSPropertyOp3
 70
     1
102
RTVSPropertyOp4
 70
     1
102
RTVSPropertyOp5
 70
     1
102
RTVSPropertyOp6
 70
     1
102
RTVSPropertyOp7
 70
     1
102
RTVSPropertyOp8
 70
     1
102
RTVSPropertyOp9
 70
     1
102
RTVSPropertyOp10
 70
     1
102
RTVSPropertyOp11
 70
     1
102
RTVSPropertyOp12
 70
     1
102
RTVSPropertyOp13
 70
     1
102
RTVSPropertyOp14
 70
     1
102
RTVSPropertyOp15
 70
     1
102
RTVSPropertyOp16
 70
     1
102
RTVSPropertyOp17
 70
     1
102
RTVSPropertyOp18
 70
     1
102
RTVSPropertyOp19
 70
     1
102
RTVSPropertyOp20
 70
     1
102
RTVSPropertyOp21
 70
     1
102
RTVSPropertyOp22
 70
     1
102
RTVSPropertyOp23
 70
     1
102
RTVSPropertyOp24
 70
     1
102
RTVSPropertyOp25
 70
     1
102
RTVSPropertyOp26
 70
     1
102
RTVSPropertyOp27
 70
     1
102
RTVSPropertyOp28
 70
     1
102
RTVSPropertyOp29
 70
     1
102
RTVSPropertyOp30
 70
     1
102
RTVSPropertyOp31
 70
     1
102
RTVSPropertyOp32
 70
     1
102
RTVSPropertyOp33
 70
     1
102
RTVSPropertyOp34
 70
     1
102
RTVSPropertyOp35
 70
     1
102
RTVSPropertyOp36
 70
     1
102
RTVSPropertyOp37
 70
     1
102
RTVSPropertyOp38
 70
     1
102
RTVSPropertyOp39
 70
     1
102
RTVSPropertyOp40
 70
     1
102
RTVSPropertyOp41
 70
     1
102
RTVSPropertyOp42
 70
     1
102
RTVSPropertyOp43
 70
     1
102
RTVSPropertyOp44
 70
     1
102
RTVSPropertyOp45
 70
     1
102
RTVSPropertyOp46
 70
     1
102
RTVSPropertyOp47
 70
     1
102
RTVSPropertyOp48
 70
     1
102
RTVSPropertyOp49
 70
     1
102
RTVSPropertyOp50
 70
     1
102
RTVSPropertyOp51
 70
     0
102
RTVSPropertyOp52
 70
     0
102
RTVSPropertyOp53
 70
     1
102
RTVSPropertyOp54
 70
     1
102
RTVSPropertyOp55
 70
     1
102
RTVSPropertyOp56
 70
     1
102
RTVSPropertyOp57
 70
     1
102
RTVSPost2010Prop28
280
     0
102
RTVSPost2010PropOp28
 70
     1
102
RTVSPost2010Prop29
280
     1
102
RTVSPost2010PropOp29
 70
     1
102
RTVSPost2010Prop30
280
     1
102
RTVSPost2010PropOp30
 70
     1
102
RTVSPost2010Prop31
280
     0
102
RTVSPost2010PropOp31
 70
     1
102
RTVSPost2010Prop32
280
     0
102
RTVSPost2010PropOp32
 70
     1
102
RTVSPost2010Prop33
280
     0
102
RTVSPost2010PropOp33
 70
     1
102
RTVSPost2010Prop34
280
     0
102
RTVSPost2010PropOp34
 70
     1
102
RTVSPost2010Prop35
280
     0
102
RTVSPost2010PropOp35
 70
     1
102
RTVSPost2010Prop36
280
     0
102
RTVSPost2010PropOp36
 70
     1
102
RTVSPost2010Prop37
 90
       50
102
RTVSPost2010PropOp37
 70
     1
102
RTVSPost2010Prop38
140
0.0
102
RTVSPost2010PropOp38
 70
     1
102
RTVSPost2010Prop39
140
1.0
102
RTVSPost2010PropOp39
 70
     1
102
RTVSPost2010Prop40
 90
        0
102
RTVSPost2010PropOp40
 70
     1
102
RTVSPost2010Prop41ColorIndex
 90
       18
102
RTVSPost2010Prop41ColorRGB
 90
        0
102
RTVSPost2010PropOp41
 70
     1
102
RTVSPost2010Prop42
 90
       50
102
RTVSPost2010PropOp42
 70
     1
102
RTVSPost2010Prop43
 90
        3
102
RTVSPost2010PropOp43
 70
     1
102
RTVSPost2010Prop44ColorIndex
 90
        5
102
RTVSPost2010Prop44ColorRGB
 90
      255
102
RTVSPost2010PropOp44
 70
     1
102
RTVSPost2010Prop45
280
     0
102
RTVSPost2010PropOp45
 70
     1
102
RTVSPost2010Prop46
 90
       50
102
RTVSPost2010PropOp46
 70
     1
102
RTVSPost2010Prop47
 90
       50
102
RTVSPost2010PropOp47
 70
     1
102
RTVSPost2010Prop48
 90
       50
102
RTVSPost2010PropOp48
 70
     1
102
RTVSPost2010Prop49
280
     0
102
RTVSPost2010PropOp49
 70
     1
102
RTVSPost2010Prop50
 90
       50
102
RTVSPost2010PropOp50
 70
     1
102
RTVSPost2010Prop51ColorIndex
 90
      256
102
RTVSPost2010Prop51ColorRGB
 90
-16777216
102
RTVSPost2010PropOp51
 70
     0
102
RTVSPost2010Prop52
140
1.0
102
RTVSPost2010PropOp52
 70
     0
102
RTVSPost2010Prop53
 90
        2
102
RTVSPost2010PropOp53
 70
     1
102
RTVSPost2010Prop54
  1
strokes_ogs.tif
102
RTVSPost2010PropOp54
 70
     1
102
RTVSPost2010Prop55
280
     0
102
RTVSPost2010PropOp55
 70
     1
102
RTVSPost2010Prop56
140
1.0
102
RTVSPost2010PropOp56
 70
     1
102
RTVSPost2010Prop57
140
1.0
102
RTVSPost2010PropOp57
 70
     1
  0
XRECORD
  5
686
102
{ACAD_REACTORS
330
685
102
}
330
685
100
AcDbXrecord
280
     1
102
RTVSPropertyOp0
 70
     1
102
RTVSPropertyOp1
 70
     1
102
RTVSPropertyOp2
 70
     1
102
RTVSPropertyOp3
 70
     1
102
RTVSPropertyOp4
 70
     1
102
RTVSPropertyOp5
 70
     1
102
RTVSPropertyOp6
 70
     1
102
RTVSPropertyOp7
 70
     1
102
RTVSPropertyOp8
 70
     1
102
RTVSPropertyOp9
 70
     1
102
RTVSPropertyOp10
 70
     1
102
RTVSPropertyOp11
 70
     1
102
RTVSPropertyOp12
 70
     1
102
RTVSPropertyOp13
 70
     1
102
RTVSPropertyOp14
 70
     1
102
RTVSPropertyOp15
 70
     1
102
RTVSPropertyOp16
 70
     1
102
RTVSPropertyOp17
 70
     1
102
RTVSPropertyOp18
 70
     1
102
RTVSPropertyOp19
 70
     1
102
RTVSPropertyOp20
 70
     1
102
RTVSPropertyOp21
 70
     1
102
RTVSPropertyOp22
 70
     1
102
RTVSPropertyOp23
 70
     1
102
RTVSPropertyOp24
 70
     1
102
RTVSPropertyOp25
 70
     1
102
RTVSPropertyOp26
 70
     1
102
RTVSPropertyOp27
 70
     1
102
RTVSPropertyOp28
 70
     1
102
RTVSPropertyOp29
 70
     1
102
RTVSPropertyOp30
 70
     1
102
RTVSPropertyOp31
 70
     1
102
RTVSPropertyOp32
 70
     1
102
RTVSPropertyOp33
 70
     1
102
RTVSPropertyOp34
 70
     1
102
RTVSPropertyOp35
 70
     1
102
RTVSPropertyOp36
 70
     1
102
RTVSPropertyOp37
 70
     1
102
RTVSPropertyOp38
 70
     1
102
RTVSPropertyOp39
 70
     1
102
RTVSPropertyOp40
 70
     1
102
RTVSPropertyOp41
 70
     1
102
RTVSPropertyOp42
 70
     1
102
RTVSPropertyOp43
 70
     1
102
RTVSPropertyOp44
 70
     1
102
RTVSPropertyOp45
 70
     1
102
RTVSPropertyOp46
 70
     1
102
RTVSPropertyOp47
 70
     1
102
RTVSPropertyOp48
 70
     1
102
RTVSPropertyOp49
 70
     1
102
RTVSPropertyOp50
 70
     1
102
RTVSPropertyOp51
 70
     0
102
RTVSPropertyOp52
 70
     0
102
RTVSPropertyOp53
 70
     1
102
RTVSPropertyOp54
 70
     1
102
RTVSPropertyOp55
 70
     1
102
RTVSPropertyOp56
 70
     1
102
RTVSPropertyOp57
 70
     1
102
RTVSPost2010Prop28
280
     0
102
RTVSPost2010PropOp28
 70
     1
102
RTVSPost2010Prop29
280
     1
102
RTVSPost2010PropOp29
 70
     1
102
RTVSPost2010Prop30
280
     1
102
RTVSPost2010PropOp30
 70
     1
102
RTVSPost2010Prop31
280
     0
102
RTVSPost2010PropOp31
 70
     1
102
RTVSPost2010Prop32
280
     0
102
RTVSPost2010PropOp32
 70
     1
102
RTVSPost2010Prop33
280
     0
102
RTVSPost2010PropOp33
 70
     1
102
RTVSPost2010Prop34
280
     0
102
RTVSPost2010PropOp34
 70
     1
102
RTVSPost2010Prop35
280
     0
102
RTVSPost2010PropOp35
 70
     1
102
RTVSPost2010Prop36
280
     0
102
RTVSPost2010PropOp36
 70
     1
102
RTVSPost2010Prop37
 90
       50
102
RTVSPost2010PropOp37
 70
     1
102
RTVSPost2010Prop38
140
0.0
102
RTVSPost2010PropOp38
 70
     1
102
RTVSPost2010Prop39
140
1.0
102
RTVSPost2010PropOp39
 70
     1
102
RTVSPost2010Prop40
 90
        0
102
RTVSPost2010PropOp40
 70
     1
102
RTVSPost2010Prop41ColorIndex
 90
       18
102
RTVSPost2010Prop41ColorRGB
 90
        0
102
RTVSPost2010PropOp41
 70
     1
102
RTVSPost2010Prop42
 90
       50
102
RTVSPost2010PropOp42
 70
     1
102
RTVSPost2010Prop43
 90
        3
102
RTVSPost2010PropOp43
 70
     1
102
RTVSPost2010Prop44ColorIndex
 90
        5
102
RTVSPost2010Prop44ColorRGB
 90
      255
102
RTVSPost2010PropOp44
 70
     1
102
RTVSPost2010Prop45
280
     0
102
RTVSPost2010PropOp45
 70
     1
102
RTVSPost2010Prop46
 90
       50
102
RTVSPost2010PropOp46
 70
     1
102
RTVSPost2010Prop47
 90
       50
102
RTVSPost2010PropOp47
 70
     1
102
RTVSPost2010Prop48
 90
       50
102
RTVSPost2010PropOp48
 70
     1
102
RTVSPost2010Prop49
280
     0
102
RTVSPost2010PropOp49
 70
     1
102
RTVSPost2010Prop50
 90
       50
102
RTVSPost2010PropOp50
 70
     1
102
RTVSPost2010Prop51ColorIndex
 90
      256
102
RTVSPost2010Prop51ColorRGB
 90
-16777216
102
RTVSPost2010PropOp51
 70
     0
102
RTVSPost2010Prop52
140
1.0
102
RTVSPost2010PropOp52
 70
     0
102
RTVSPost2010Prop53
 90
        2
102
RTVSPost2010PropOp53
 70
     1
102
RTVSPost2010Prop54
  1
strokes_ogs.tif
102
RTVSPost2010PropOp54
 70
     1
102
RTVSPost2010Prop55
280
     0
102
RTVSPost2010PropOp55
 70
     1
102
RTVSPost2010Prop56
140
1.0
102
RTVSPost2010PropOp56
 70
     1
102
RTVSPost2010Prop57
140
1.0
102
RTVSPost2010PropOp57
 70
     1
  0
XRECORD
  5
688
102
{ACAD_REACTORS
330
687
102
}
330
687
100
AcDbXrecord
280
     1
102
RTVSPropertyOp0
 70
     1
102
RTVSPropertyOp1
 70
     1
102
RTVSPropertyOp2
 70
     1
102
RTVSPropertyOp3
 70
     1
102
RTVSPropertyOp4
 70
     1
102
RTVSPropertyOp5
 70
     1
102
RTVSPropertyOp6
 70
     1
102
RTVSPropertyOp7
 70
     1
102
RTVSPropertyOp8
 70
     1
102
RTVSPropertyOp9
 70
     1
102
RTVSPropertyOp10
 70
     1
102
RTVSPropertyOp11
 70
     1
102
RTVSPropertyOp12
 70
     1
102
RTVSPropertyOp13
 70
     1
102
RTVSPropertyOp14
 70
     1
102
RTVSPropertyOp15
 70
     1
102
RTVSPropertyOp16
 70
     1
102
RTVSPropertyOp17
 70
     1
102
RTVSPropertyOp18
 70
     1
102
RTVSPropertyOp19
 70
     1
102
RTVSPropertyOp20
 70
     1
102
RTVSPropertyOp21
 70
     1
102
RTVSPropertyOp22
 70
     1
102
RTVSPropertyOp23
 70
     1
102
RTVSPropertyOp24
 70
     1
102
RTVSPropertyOp25
 70
     1
102
RTVSPropertyOp26
 70
     1
102
RTVSPropertyOp27
 70
     1
102
RTVSPropertyOp28
 70
     1
102
RTVSPropertyOp29
 70
     1
102
RTVSPropertyOp30
 70
     1
102
RTVSPropertyOp31
 70
     1
102
RTVSPropertyOp32
 70
     1
102
RTVSPropertyOp33
 70
     1
102
RTVSPropertyOp34
 70
     1
102
RTVSPropertyOp35
 70
     1
102
RTVSPropertyOp36
 70
     1
102
RTVSPropertyOp37
 70
     1
102
RTVSPropertyOp38
 70
     1
102
RTVSPropertyOp39
 70
     1
102
RTVSPropertyOp40
 70
     1
102
RTVSPropertyOp41
 70
     1
102
RTVSPropertyOp42
 70
     1
102
RTVSPropertyOp43
 70
     1
102
RTVSPropertyOp44
 70
     1
102
RTVSPropertyOp45
 70
     1
102
RTVSPropertyOp46
 70
     1
102
RTVSPropertyOp47
 70
     1
102
RTVSPropertyOp48
 70
     1
102
RTVSPropertyOp49
 70
     1
102
RTVSPropertyOp50
 70
     1
102
RTVSPropertyOp51
 70
     0
102
RTVSPropertyOp52
 70
     0
102
RTVSPropertyOp53
 70
     1
102
RTVSPropertyOp54
 70
     1
102
RTVSPropertyOp55
 70
     1
102
RTVSPropertyOp56
 70
     1
102
RTVSPropertyOp57
 70
     1
102
RTVSPost2010Prop28
280
     0
102
RTVSPost2010PropOp28
 70
     1
102
RTVSPost2010Prop29
280
     1
102
RTVSPost2010PropOp29
 70
     1
102
RTVSPost2010Prop30
280
     1
102
RTVSPost2010PropOp30
 70
     1
102
RTVSPost2010Prop31
280
     0
102
RTVSPost2010PropOp31
 70
     1
102
RTVSPost2010Prop32
280
     0
102
RTVSPost2010PropOp32
 70
     1
102
RTVSPost2010Prop33
280
     0
102
RTVSPost2010PropOp33
 70
     1
102
RTVSPost2010Prop34
280
     0
102
RTVSPost2010PropOp34
 70
     1
102
RTVSPost2010Prop35
280
     0
102
RTVSPost2010PropOp35
 70
     1
102
RTVSPost2010Prop36
280
     0
102
RTVSPost2010PropOp36
 70
     1
102
RTVSPost2010Prop37
 90
       50
102
RTVSPost2010PropOp37
 70
     1
102
RTVSPost2010Prop38
140
0.0
102
RTVSPost2010PropOp38
 70
     1
102
RTVSPost2010Prop39
140
1.0
102
RTVSPost2010PropOp39
 70
     1
102
RTVSPost2010Prop40
 90
        0
102
RTVSPost2010PropOp40
 70
     1
102
RTVSPost2010Prop41ColorIndex
 90
       18
102
RTVSPost2010Prop41ColorRGB
 90
        0
102
RTVSPost2010PropOp41
 70
     1
102
RTVSPost2010Prop42
 90
       50
102
RTVSPost2010PropOp42
 70
     1
102
RTVSPost2010Prop43
 90
        3
102
RTVSPost2010PropOp43
 70
     1
102
RTVSPost2010Prop44ColorIndex
 90
        5
102
RTVSPost2010Prop44ColorRGB
 90
      255
102
RTVSPost2010PropOp44
 70
     1
102
RTVSPost2010Prop45
280
     0
102
RTVSPost2010PropOp45
 70
     1
102
RTVSPost2010Prop46
 90
       50
102
RTVSPost2010PropOp46
 70
     1
102
RTVSPost2010Prop47
 90
       50
102
RTVSPost2010PropOp47
 70
     1
102
RTVSPost2010Prop48
 90
       50
102
RTVSPost2010PropOp48
 70
     1
102
RTVSPost2010Prop49
280
     0
102
RTVSPost2010PropOp49
 70
     1
102
RTVSPost2010Prop50
 90
       50
102
RTVSPost2010PropOp50
 70
     1
102
RTVSPost2010Prop51ColorIndex
 90
      256
102
RTVSPost2010Prop51ColorRGB
 90
-16777216
102
RTVSPost2010PropOp51
 70
     0
102
RTVSPost2010Prop52
140
1.0
102
RTVSPost2010PropOp52
 70
     0
102
RTVSPost2010Prop53
 90
        2
102
RTVSPost2010PropOp53
 70
     1
102
RTVSPost2010Prop54
  1
strokes_ogs.tif
102
RTVSPost2010PropOp54
 70
     1
102
RTVSPost2010Prop55
280
     0
102
RTVSPost2010PropOp55
 70
     1
102
RTVSPost2010Prop56
140
1.0
102
RTVSPost2010PropOp56
 70
     1
102
RTVSPost2010Prop57
140
1.0
102
RTVSPost2010PropOp57
 70
     1
  0
XRECORD
  5
698
102
{ACAD_REACTORS
330
697
102
}
330
697
100
AcDbXrecord
280
     1
102
RTVSPropertyOp0
 70
     0
102
RTVSPropertyOp1
 70
     0
102
RTVSPropertyOp2
 70
     0
102
RTVSPropertyOp3
 70
     0
102
RTVSPropertyOp4
 70
     0
102
RTVSPropertyOp5
 70
     0
102
RTVSPropertyOp6
 70
     0
102
RTVSPropertyOp7
 70
     0
102
RTVSPropertyOp8
 70
     0
102
RTVSPropertyOp9
 70
     0
102
RTVSPropertyOp10
 70
     0
102
RTVSPropertyOp11
 70
     0
102
RTVSPropertyOp12
 70
     0
102
RTVSPropertyOp13
 70
     0
102
RTVSPropertyOp14
 70
     0
102
RTVSPropertyOp15
 70
     0
102
RTVSPropertyOp16
 70
     0
102
RTVSPropertyOp17
 70
     0
102
RTVSPropertyOp18
 70
     0
102
RTVSPropertyOp19
 70
     0
102
RTVSPropertyOp20
 70
     0
102
RTVSPropertyOp21
 70
     0
102
RTVSPropertyOp22
 70
     0
102
RTVSPropertyOp23
 70
     0
102
RTVSPropertyOp24
 70
     0
102
RTVSPropertyOp25
 70
     0
102
RTVSPropertyOp26
 70
     0
102
RTVSPropertyOp27
 70
     0
102
RTVSPropertyOp28
 70
     1
102
RTVSPropertyOp29
 70
     1
102
RTVSPropertyOp30
 70
     1
102
RTVSPropertyOp31
 70
     1
102
RTVSPropertyOp32
 70
     1
102
RTVSPropertyOp33
 70
     1
102
RTVSPropertyOp34
 70
     1
102
RTVSPropertyOp35
 70
     1
102
RTVSPropertyOp36
 70
     1
102
RTVSPropertyOp37
 70
     1
102
RTVSPropertyOp38
 70
     1
102
RTVSPropertyOp39
 70
     1
102
RTVSPropertyOp40
 70
     1
102
RTVSPropertyOp41
 70
     1
102
RTVSPropertyOp42
 70
     1
102
RTVSPropertyOp43
 70
     1
102
RTVSPropertyOp44
 70
     1
102
RTVSPropertyOp45
 70
     1
102
RTVSPropertyOp46
 70
     1
102
RTVSPropertyOp47
 70
     1
102
RTVSPropertyOp48
 70
     1
102
RTVSPropertyOp49
 70
     1
102
RTVSPropertyOp50
 70
     1
102
RTVSPropertyOp51
 70
     0
102
RTVSPropertyOp52
 70
     0
102
RTVSPropertyOp53
 70
     1
102
RTVSPropertyOp54
 70
     1
102
RTVSPropertyOp55
 70
     1
102
RTVSPropertyOp56
 70
     1
102
RTVSPropertyOp57
 70
     1
102
RTVSPost2010Prop28
280
     0
102
RTVSPost2010PropOp28
 70
     1
102
RTVSPost2010Prop29
280
     1
102
RTVSPost2010PropOp29
 70
     1
102
RTVSPost2010Prop30
280
     1
102
RTVSPost2010PropOp30
 70
     1
102
RTVSPost2010Prop31
280
     0
102
RTVSPost2010PropOp31
 70
     1
102
RTVSPost2010Prop32
280
     0
102
RTVSPost2010PropOp32
 70
     1
102
RTVSPost2010Prop33
280
     0
102
RTVSPost2010PropOp33
 70
     1
102
RTVSPost2010Prop34
280
     0
102
RTVSPost2010PropOp34
 70
     1
102
RTVSPost2010Prop35
280
     0
102
RTVSPost2010PropOp35
 70
     1
102
RTVSPost2010Prop36
280
     0
102
RTVSPost2010PropOp36
 70
     1
102
RTVSPost2010Prop37
 90
       50
102
RTVSPost2010PropOp37
 70
     1
102
RTVSPost2010Prop38
140
0.0
102
RTVSPost2010PropOp38
 70
     1
102
RTVSPost2010Prop39
140
1.0
102
RTVSPost2010PropOp39
 70
     1
102
RTVSPost2010Prop40
 90
        0
102
RTVSPost2010PropOp40
 70
     1
102
RTVSPost2010Prop41ColorIndex
 90
       18
102
RTVSPost2010Prop41ColorRGB
 90
        0
102
RTVSPost2010PropOp41
 70
     1
102
RTVSPost2010Prop42
 90
       50
102
RTVSPost2010PropOp42
 70
     1
102
RTVSPost2010Prop43
 90
        3
102
RTVSPost2010PropOp43
 70
     1
102
RTVSPost2010Prop44ColorIndex
 90
        5
102
RTVSPost2010Prop44ColorRGB
 90
      255
102
RTVSPost2010PropOp44
 70
     1
102
RTVSPost2010Prop45
280
     0
102
RTVSPost2010PropOp45
 70
     1
102
RTVSPost2010Prop46
 90
       50
102
RTVSPost2010PropOp46
 70
     1
102
RTVSPost2010Prop47
 90
       50
102
RTVSPost2010PropOp47
 70
     1
102
RTVSPost2010Prop48
 90
       50
102
RTVSPost2010PropOp48
 70
     1
102
RTVSPost2010Prop49
280
     0
102
RTVSPost2010PropOp49
 70
     1
102
RTVSPost2010Prop50
 90
       50
102
RTVSPost2010PropOp50
 70
     1
102
RTVSPost2010Prop51ColorIndex
 90
      256
102
RTVSPost2010Prop51ColorRGB
 90
-16777216
102
RTVSPost2010PropOp51
 70
     0
102
RTVSPost2010Prop52
140
1.0
102
RTVSPost2010PropOp52
 70
     0
102
RTVSPost2010Prop53
 90
        2
102
RTVSPost2010PropOp53
 70
     1
102
RTVSPost2010Prop54
  1
strokes_ogs.tif
102
RTVSPost2010PropOp54
 70
     1
102
RTVSPost2010Prop55
280
     0
102
RTVSPost2010PropOp55
 70
     1
102
RTVSPost2010Prop56
140
1.0
102
RTVSPost2010PropOp56
 70
     1
102
RTVSPost2010Prop57
140
1.0
102
RTVSPost2010PropOp57
 70
     1
  0
XRECORD
  5
690
102
{ACAD_REACTORS
330
68F
102
}
330
68F
100
AcDbXrecord
280
     1
102
RTVSPropertyOp0
 70
     1
102
RTVSPropertyOp1
 70
     1
102
RTVSPropertyOp2
 70
     1
102
RTVSPropertyOp3
 70
     1
102
RTVSPropertyOp4
 70
     1
102
RTVSPropertyOp5
 70
     1
102
RTVSPropertyOp6
 70
     1
102
RTVSPropertyOp7
 70
     1
102
RTVSPropertyOp8
 70
     1
102
RTVSPropertyOp9
 70
     1
102
RTVSPropertyOp10
 70
     1
102
RTVSPropertyOp11
 70
     1
102
RTVSPropertyOp12
 70
     1
102
RTVSPropertyOp13
 70
     1
102
RTVSPropertyOp14
 70
     1
102
RTVSPropertyOp15
 70
     1
102
RTVSPropertyOp16
 70
     1
102
RTVSPropertyOp17
 70
     1
102
RTVSPropertyOp18
 70
     1
102
RTVSPropertyOp19
 70
     1
102
RTVSPropertyOp20
 70
     1
102
RTVSPropertyOp21
 70
     1
102
RTVSPropertyOp22
 70
     1
102
RTVSPropertyOp23
 70
     1
102
RTVSPropertyOp24
 70
     1
102
RTVSPropertyOp25
 70
     1
102
RTVSPropertyOp26
 70
     1
102
RTVSPropertyOp27
 70
     1
102
RTVSPropertyOp28
 70
     1
102
RTVSPropertyOp29
 70
     1
102
RTVSPropertyOp30
 70
     1
102
RTVSPropertyOp31
 70
     1
102
RTVSPropertyOp32
 70
     1
102
RTVSPropertyOp33
 70
     1
102
RTVSPropertyOp34
 70
     1
102
RTVSPropertyOp35
 70
     1
102
RTVSPropertyOp36
 70
     1
102
RTVSPropertyOp37
 70
     1
102
RTVSPropertyOp38
 70
     1
102
RTVSPropertyOp39
 70
     1
102
RTVSPropertyOp40
 70
     1
102
RTVSPropertyOp41
 70
     1
102
RTVSPropertyOp42
 70
     1
102
RTVSPropertyOp43
 70
     1
102
RTVSPropertyOp44
 70
     1
102
RTVSPropertyOp45
 70
     1
102
RTVSPropertyOp46
 70
     1
102
RTVSPropertyOp47
 70
     1
102
RTVSPropertyOp48
 70
     1
102
RTVSPropertyOp49
 70
     1
102
RTVSPropertyOp50
 70
     1
102
RTVSPropertyOp51
 70
     0
102
RTVSPropertyOp52
 70
     0
102
RTVSPropertyOp53
 70
     1
102
RTVSPropertyOp54
 70
     1
102
RTVSPropertyOp55
 70
     1
102
RTVSPropertyOp56
 70
     1
102
RTVSPropertyOp57
 70
     1
102
RTVSPost2010Prop28
280
     0
102
RTVSPost2010PropOp28
 70
     1
102
RTVSPost2010Prop29
280
     1
102
RTVSPost2010PropOp29
 70
     1
102
RTVSPost2010Prop30
280
     1
102
RTVSPost2010PropOp30
 70
     1
102
RTVSPost2010Prop31
280
     0
102
RTVSPost2010PropOp31
 70
     1
102
RTVSPost2010Prop32
280
     0
102
RTVSPost2010PropOp32
 70
     1
102
RTVSPost2010Prop33
280
     0
102
RTVSPost2010PropOp33
 70
     1
102
RTVSPost2010Prop34
280
     0
102
RTVSPost2010PropOp34
 70
     1
102
RTVSPost2010Prop35
280
     0
102
RTVSPost2010PropOp35
 70
     1
102
RTVSPost2010Prop36
280
     0
102
RTVSPost2010PropOp36
 70
     1
102
RTVSPost2010Prop37
 90
       50
102
RTVSPost2010PropOp37
 70
     1
102
RTVSPost2010Prop38
140
0.0
102
RTVSPost2010PropOp38
 70
     1
102
RTVSPost2010Prop39
140
1.0
102
RTVSPost2010PropOp39
 70
     1
102
RTVSPost2010Prop40
 90
        0
102
RTVSPost2010PropOp40
 70
     1
102
RTVSPost2010Prop41ColorIndex
 90
       18
102
RTVSPost2010Prop41ColorRGB
 90
        0
102
RTVSPost2010PropOp41
 70
     1
102
RTVSPost2010Prop42
 90
       50
102
RTVSPost2010PropOp42
 70
     1
102
RTVSPost2010Prop43
 90
        3
102
RTVSPost2010PropOp43
 70
     1
102
RTVSPost2010Prop44ColorIndex
 90
        5
102
RTVSPost2010Prop44ColorRGB
 90
      255
102
RTVSPost2010PropOp44
 70
     1
102
RTVSPost2010Prop45
280
     0
102
RTVSPost2010PropOp45
 70
     1
102
RTVSPost2010Prop46
 90
       50
102
RTVSPost2010PropOp46
 70
     1
102
RTVSPost2010Prop47
 90
       50
102
RTVSPost2010PropOp47
 70
     1
102
RTVSPost2010Prop48
 90
       50
102
RTVSPost2010PropOp48
 70
     1
102
RTVSPost2010Prop49
280
     0
102
RTVSPost2010PropOp49
 70
     1
102
RTVSPost2010Prop50
 90
       50
102
RTVSPost2010PropOp50
 70
     1
102
RTVSPost2010Prop51ColorIndex
 90
      256
102
RTVSPost2010Prop51ColorRGB
 90
-16777216
102
RTVSPost2010PropOp51
 70
     0
102
RTVSPost2010Prop52
140
1.0
102
RTVSPost2010PropOp52
 70
     0
102
RTVSPost2010Prop53
 90
        2
102
RTVSPost2010PropOp53
 70
     1
102
RTVSPost2010Prop54
  1
strokes_ogs.tif
102
RTVSPost2010PropOp54
 70
     1
102
RTVSPost2010Prop55
280
     0
102
RTVSPost2010PropOp55
 70
     1
102
RTVSPost2010Prop56
140
1.0
102
RTVSPost2010PropOp56
 70
     1
102
RTVSPost2010Prop57
140
1.0
102
RTVSPost2010PropOp57
 70
     1
  0
XRECORD
  5
678
102
{ACAD_REACTORS
330
677
102
}
330
677
100
AcDbXrecord
280
     1
102
RTVSPropertyOp0
 70
     1
102
RTVSPropertyOp1
 70
     1
102
RTVSPropertyOp2
 70
     1
102
RTVSPropertyOp3
 70
     1
102
RTVSPropertyOp4
 70
     1
102
RTVSPropertyOp5
 70
     1
102
RTVSPropertyOp6
 70
     1
102
RTVSPropertyOp7
 70
     1
102
RTVSPropertyOp8
 70
     1
102
RTVSPropertyOp9
 70
     1
102
RTVSPropertyOp10
 70
     1
102
RTVSPropertyOp11
 70
     1
102
RTVSPropertyOp12
 70
     1
102
RTVSPropertyOp13
 70
     1
102
RTVSPropertyOp14
 70
     1
102
RTVSPropertyOp15
 70
     1
102
RTVSPropertyOp16
 70
     1
102
RTVSPropertyOp17
 70
     1
102
RTVSPropertyOp18
 70
     1
102
RTVSPropertyOp19
 70
     1
102
RTVSPropertyOp20
 70
     1
102
RTVSPropertyOp21
 70
     1
102
RTVSPropertyOp22
 70
     1
102
RTVSPropertyOp23
 70
     1
102
RTVSPropertyOp24
 70
     1
102
RTVSPropertyOp25
 70
     1
102
RTVSPropertyOp26
 70
     1
102
RTVSPropertyOp27
 70
     1
102
RTVSPropertyOp28
 70
     1
102
RTVSPropertyOp29
 70
     1
102
RTVSPropertyOp30
 70
     1
102
RTVSPropertyOp31
 70
     1
102
RTVSPropertyOp32
 70
     1
102
RTVSPropertyOp33
 70
     1
102
RTVSPropertyOp34
 70
     1
102
RTVSPropertyOp35
 70
     1
102
RTVSPropertyOp36
 70
     1
102
RTVSPropertyOp37
 70
     1
102
RTVSPropertyOp38
 70
     1
102
RTVSPropertyOp39
 70
     1
102
RTVSPropertyOp40
 70
     1
102
RTVSPropertyOp41
 70
     1
102
RTVSPropertyOp42
 70
     1
102
RTVSPropertyOp43
 70
     1
102
RTVSPropertyOp44
 70
     1
102
RTVSPropertyOp45
 70
     1
102
RTVSPropertyOp46
 70
     1
102
RTVSPropertyOp47
 70
     1
102
RTVSPropertyOp48
 70
     1
102
RTVSPropertyOp49
 70
     1
102
RTVSPropertyOp50
 70
     1
102
RTVSPropertyOp51
 70
     0
102
RTVSPropertyOp52
 70
     0
102
RTVSPropertyOp53
 70
     1
102
RTVSPropertyOp54
 70
     1
102
RTVSPropertyOp55
 70
     1
102
RTVSPropertyOp56
 70
     1
102
RTVSPropertyOp57
 70
     1
102
RTVSPost2010Prop28
280
     0
102
RTVSPost2010PropOp28
 70
     1
102
RTVSPost2010Prop29
280
     1
102
RTVSPost2010PropOp29
 70
     1
102
RTVSPost2010Prop30
280
     1
102
RTVSPost2010PropOp30
 70
     1
102
RTVSPost2010Prop31
280
     0
102
RTVSPost2010PropOp31
 70
     1
102
RTVSPost2010Prop32
280
     0
102
RTVSPost2010PropOp32
 70
     1
102
RTVSPost2010Prop33
280
     0
102
RTVSPost2010PropOp33
 70
     1
102
RTVSPost2010Prop34
280
     0
102
RTVSPost2010PropOp34
 70
     1
102
RTVSPost2010Prop35
280
     0
102
RTVSPost2010PropOp35
 70
     1
102
RTVSPost2010Prop36
280
     0
102
RTVSPost2010PropOp36
 70
     1
102
RTVSPost2010Prop37
 90
       50
102
RTVSPost2010PropOp37
 70
     1
102
RTVSPost2010Prop38
140
0.0
102
RTVSPost2010PropOp38
 70
     1
102
RTVSPost2010Prop39
140
1.0
102
RTVSPost2010PropOp39
 70
     1
102
RTVSPost2010Prop40
 90
        0
102
RTVSPost2010PropOp40
 70
     1
102
RTVSPost2010Prop41ColorIndex
 90
       18
102
RTVSPost2010Prop41ColorRGB
 90
        0
102
RTVSPost2010PropOp41
 70
     1
102
RTVSPost2010Prop42
 90
       50
102
RTVSPost2010PropOp42
 70
     1
102
RTVSPost2010Prop43
 90
        3
102
RTVSPost2010PropOp43
 70
     1
102
RTVSPost2010Prop44ColorIndex
 90
        5
102
RTVSPost2010Prop44ColorRGB
 90
      255
102
RTVSPost2010PropOp44
 70
     1
102
RTVSPost2010Prop45
280
     0
102
RTVSPost2010PropOp45
 70
     1
102
RTVSPost2010Prop46
 90
       50
102
RTVSPost2010PropOp46
 70
     1
102
RTVSPost2010Prop47
 90
       50
102
RTVSPost2010PropOp47
 70
     1
102
RTVSPost2010Prop48
 90
       50
102
RTVSPost2010PropOp48
 70
     1
102
RTVSPost2010Prop49
280
     0
102
RTVSPost2010PropOp49
 70
     1
102
RTVSPost2010Prop50
 90
       50
102
RTVSPost2010PropOp50
 70
     1
102
RTVSPost2010Prop51ColorIndex
 90
      256
102
RTVSPost2010Prop51ColorRGB
 90
-16777216
102
RTVSPost2010PropOp51
 70
     0
102
RTVSPost2010Prop52
140
1.0
102
RTVSPost2010PropOp52
 70
     0
102
RTVSPost2010Prop53
 90
        2
102
RTVSPost2010PropOp53
 70
     1
102
RTVSPost2010Prop54
  1
strokes_ogs.tif
102
RTVSPost2010PropOp54
 70
     1
102
RTVSPost2010Prop55
280
     0
102
RTVSPost2010PropOp55
 70
     1
102
RTVSPost2010Prop56
140
1.0
102
RTVSPost2010PropOp56
 70
     1
102
RTVSPost2010Prop57
140
1.0
102
RTVSPost2010PropOp57
 70
     1
  0
XRECORD
  5
67A
102
{ACAD_REACTORS
330
679
102
}
330
679
100
AcDbXrecord
280
     1
102
RTVSPropertyOp0
 70
     1
102
RTVSPropertyOp1
 70
     1
102
RTVSPropertyOp2
 70
     1
102
RTVSPropertyOp3
 70
     1
102
RTVSPropertyOp4
 70
     1
102
RTVSPropertyOp5
 70
     1
102
RTVSPropertyOp6
 70
     1
102
RTVSPropertyOp7
 70
     1
102
RTVSPropertyOp8
 70
     1
102
RTVSPropertyOp9
 70
     1
102
RTVSPropertyOp10
 70
     1
102
RTVSPropertyOp11
 70
     1
102
RTVSPropertyOp12
 70
     1
102
RTVSPropertyOp13
 70
     1
102
RTVSPropertyOp14
 70
     1
102
RTVSPropertyOp15
 70
     1
102
RTVSPropertyOp16
 70
     1
102
RTVSPropertyOp17
 70
     1
102
RTVSPropertyOp18
 70
     1
102
RTVSPropertyOp19
 70
     1
102
RTVSPropertyOp20
 70
     1
102
RTVSPropertyOp21
 70
     1
102
RTVSPropertyOp22
 70
     1
102
RTVSPropertyOp23
 70
     1
102
RTVSPropertyOp24
 70
     1
102
RTVSPropertyOp25
 70
     1
102
RTVSPropertyOp26
 70
     1
102
RTVSPropertyOp27
 70
     1
102
RTVSPropertyOp28
 70
     1
102
RTVSPropertyOp29
 70
     1
102
RTVSPropertyOp30
 70
     1
102
RTVSPropertyOp31
 70
     1
102
RTVSPropertyOp32
 70
     1
102
RTVSPropertyOp33
 70
     1
102
RTVSPropertyOp34
 70
     1
102
RTVSPropertyOp35
 70
     1
102
RTVSPropertyOp36
 70
     1
102
RTVSPropertyOp37
 70
     1
102
RTVSPropertyOp38
 70
     1
102
RTVSPropertyOp39
 70
     1
102
RTVSPropertyOp40
 70
     1
102
RTVSPropertyOp41
 70
     1
102
RTVSPropertyOp42
 70
     1
102
RTVSPropertyOp43
 70
     1
102
RTVSPropertyOp44
 70
     1
102
RTVSPropertyOp45
 70
     1
102
RTVSPropertyOp46
 70
     1
102
RTVSPropertyOp47
 70
     1
102
RTVSPropertyOp48
 70
     1
102
RTVSPropertyOp49
 70
     1
102
RTVSPropertyOp50
 70
     1
102
RTVSPropertyOp51
 70
     0
102
RTVSPropertyOp52
 70
     0
102
RTVSPropertyOp53
 70
     1
102
RTVSPropertyOp54
 70
     1
102
RTVSPropertyOp55
 70
     1
102
RTVSPropertyOp56
 70
     1
102
RTVSPropertyOp57
 70
     1
102
RTVSPost2010Prop28
280
     0
102
RTVSPost2010PropOp28
 70
     1
102
RTVSPost2010Prop29
280
     1
102
RTVSPost2010PropOp29
 70
     1
102
RTVSPost2010Prop30
280
     1
102
RTVSPost2010PropOp30
 70
     1
102
RTVSPost2010Prop31
280
     0
102
RTVSPost2010PropOp31
 70
     1
102
RTVSPost2010Prop32
280
     0
102
RTVSPost2010PropOp32
 70
     1
102
RTVSPost2010Prop33
280
     0
102
RTVSPost2010PropOp33
 70
     1
102
RTVSPost2010Prop34
280
     0
102
RTVSPost2010PropOp34
 70
     1
102
RTVSPost2010Prop35
280
     0
102
RTVSPost2010PropOp35
 70
     1
102
RTVSPost2010Prop36
280
     0
102
RTVSPost2010PropOp36
 70
     1
102
RTVSPost2010Prop37
 90
       50
102
RTVSPost2010PropOp37
 70
     1
102
RTVSPost2010Prop38
140
0.0
102
RTVSPost2010PropOp38
 70
     1
102
RTVSPost2010Prop39
140
1.0
102
RTVSPost2010PropOp39
 70
     1
102
RTVSPost2010Prop40
 90
        0
102
RTVSPost2010PropOp40
 70
     1
102
RTVSPost2010Prop41ColorIndex
 90
       18
102
RTVSPost2010Prop41ColorRGB
 90
        0
102
RTVSPost2010PropOp41
 70
     1
102
RTVSPost2010Prop42
 90
       50
102
RTVSPost2010PropOp42
 70
     1
102
RTVSPost2010Prop43
 90
        3
102
RTVSPost2010PropOp43
 70
     1
102
RTVSPost2010Prop44ColorIndex
 90
        5
102
RTVSPost2010Prop44ColorRGB
 90
      255
102
RTVSPost2010PropOp44
 70
     1
102
RTVSPost2010Prop45
280
     0
102
RTVSPost2010PropOp45
 70
     1
102
RTVSPost2010Prop46
 90
       50
102
RTVSPost2010PropOp46
 70
     1
102
RTVSPost2010Prop47
 90
       50
102
RTVSPost2010PropOp47
 70
     1
102
RTVSPost2010Prop48
 90
       50
102
RTVSPost2010PropOp48
 70
     1
102
RTVSPost2010Prop49
280
     0
102
RTVSPost2010PropOp49
 70
     1
102
RTVSPost2010Prop50
 90
       50
102
RTVSPost2010PropOp50
 70
     1
102
RTVSPost2010Prop51ColorIndex
 90
      256
102
RTVSPost2010Prop51ColorRGB
 90
-16777216
102
RTVSPost2010PropOp51
 70
     0
102
RTVSPost2010Prop52
140
1.0
102
RTVSPost2010PropOp52
 70
     0
102
RTVSPost2010Prop53
 90
        2
102
RTVSPost2010PropOp53
 70
     1
102
RTVSPost2010Prop54
  1
strokes_ogs.tif
102
RTVSPost2010PropOp54
 70
     1
102
RTVSPost2010Prop55
280
     0
102
RTVSPost2010PropOp55
 70
     1
102
RTVSPost2010Prop56
140
1.0
102
RTVSPost2010PropOp56
 70
     1
102
RTVSPost2010Prop57
140
1.0
102
RTVSPost2010PropOp57
 70
     1
  0
XRECORD
  5
67C
102
{ACAD_REACTORS
330
67B
102
}
330
67B
100
AcDbXrecord
280
     1
102
RTVSPropertyOp0
 70
     1
102
RTVSPropertyOp1
 70
     1
102
RTVSPropertyOp2
 70
     1
102
RTVSPropertyOp3
 70
     1
102
RTVSPropertyOp4
 70
     1
102
RTVSPropertyOp5
 70
     1
102
RTVSPropertyOp6
 70
     1
102
RTVSPropertyOp7
 70
     1
102
RTVSPropertyOp8
 70
     1
102
RTVSPropertyOp9
 70
     1
102
RTVSPropertyOp10
 70
     1
102
RTVSPropertyOp11
 70
     1
102
RTVSPropertyOp12
 70
     1
102
RTVSPropertyOp13
 70
     1
102
RTVSPropertyOp14
 70
     1
102
RTVSPropertyOp15
 70
     1
102
RTVSPropertyOp16
 70
     1
102
RTVSPropertyOp17
 70
     1
102
RTVSPropertyOp18
 70
     1
102
RTVSPropertyOp19
 70
     1
102
RTVSPropertyOp20
 70
     1
102
RTVSPropertyOp21
 70
     1
102
RTVSPropertyOp22
 70
     1
102
RTVSPropertyOp23
 70
     1
102
RTVSPropertyOp24
 70
     1
102
RTVSPropertyOp25
 70
     1
102
RTVSPropertyOp26
 70
     1
102
RTVSPropertyOp27
 70
     1
102
RTVSPropertyOp28
 70
     1
102
RTVSPropertyOp29
 70
     1
102
RTVSPropertyOp30
 70
     1
102
RTVSPropertyOp31
 70
     1
102
RTVSPropertyOp32
 70
     1
102
RTVSPropertyOp33
 70
     1
102
RTVSPropertyOp34
 70
     1
102
RTVSPropertyOp35
 70
     1
102
RTVSPropertyOp36
 70
     1
102
RTVSPropertyOp37
 70
     1
102
RTVSPropertyOp38
 70
     1
102
RTVSPropertyOp39
 70
     1
102
RTVSPropertyOp40
 70
     1
102
RTVSPropertyOp41
 70
     1
102
RTVSPropertyOp42
 70
     1
102
RTVSPropertyOp43
 70
     1
102
RTVSPropertyOp44
 70
     1
102
RTVSPropertyOp45
 70
     1
102
RTVSPropertyOp46
 70
     1
102
RTVSPropertyOp47
 70
     1
102
RTVSPropertyOp48
 70
     1
102
RTVSPropertyOp49
 70
     1
102
RTVSPropertyOp50
 70
     1
102
RTVSPropertyOp51
 70
     0
102
RTVSPropertyOp52
 70
     0
102
RTVSPropertyOp53
 70
     1
102
RTVSPropertyOp54
 70
     1
102
RTVSPropertyOp55
 70
     1
102
RTVSPropertyOp56
 70
     1
102
RTVSPropertyOp57
 70
     1
102
RTVSPost2010Prop28
280
     0
102
RTVSPost2010PropOp28
 70
     1
102
RTVSPost2010Prop29
280
     1
102
RTVSPost2010PropOp29
 70
     1
102
RTVSPost2010Prop30
280
     1
102
RTVSPost2010PropOp30
 70
     1
102
RTVSPost2010Prop31
280
     0
102
RTVSPost2010PropOp31
 70
     1
102
RTVSPost2010Prop32
280
     0
102
RTVSPost2010PropOp32
 70
     1
102
RTVSPost2010Prop33
280
     0
102
RTVSPost2010PropOp33
 70
     1
102
RTVSPost2010Prop34
280
     0
102
RTVSPost2010PropOp34
 70
     1
102
RTVSPost2010Prop35
280
     0
102
RTVSPost2010PropOp35
 70
     1
102
RTVSPost2010Prop36
280
     0
102
RTVSPost2010PropOp36
 70
     1
102
RTVSPost2010Prop37
 90
       50
102
RTVSPost2010PropOp37
 70
     1
102
RTVSPost2010Prop38
140
0.0
102
RTVSPost2010PropOp38
 70
     1
102
RTVSPost2010Prop39
140
1.0
102
RTVSPost2010PropOp39
 70
     1
102
RTVSPost2010Prop40
 90
        0
102
RTVSPost2010PropOp40
 70
     1
102
RTVSPost2010Prop41ColorIndex
 90
       18
102
RTVSPost2010Prop41ColorRGB
 90
        0
102
RTVSPost2010PropOp41
 70
     1
102
RTVSPost2010Prop42
 90
       50
102
RTVSPost2010PropOp42
 70
     1
102
RTVSPost2010Prop43
 90
        3
102
RTVSPost2010PropOp43
 70
     1
102
RTVSPost2010Prop44ColorIndex
 90
        5
102
RTVSPost2010Prop44ColorRGB
 90
      255
102
RTVSPost2010PropOp44
 70
     1
102
RTVSPost2010Prop45
280
     0
102
RTVSPost2010PropOp45
 70
     1
102
RTVSPost2010Prop46
 90
       50
102
RTVSPost2010PropOp46
 70
     1
102
RTVSPost2010Prop47
 90
       50
102
RTVSPost2010PropOp47
 70
     1
102
RTVSPost2010Prop48
 90
       50
102
RTVSPost2010PropOp48
 70
     1
102
RTVSPost2010Prop49
280
     0
102
RTVSPost2010PropOp49
 70
     1
102
RTVSPost2010Prop50
 90
       50
102
RTVSPost2010PropOp50
 70
     1
102
RTVSPost2010Prop51ColorIndex
 90
      256
102
RTVSPost2010Prop51ColorRGB
 90
-16777216
102
RTVSPost2010PropOp51
 70
     0
102
RTVSPost2010Prop52
140
1.0
102
RTVSPost2010PropOp52
 70
     0
102
RTVSPost2010Prop53
 90
        2
102
RTVSPost2010PropOp53
 70
     1
102
RTVSPost2010Prop54
  1
strokes_ogs.tif
102
RTVSPost2010PropOp54
 70
     1
102
RTVSPost2010Prop55
280
     0
102
RTVSPost2010PropOp55
 70
     1
102
RTVSPost2010Prop56
140
1.0
102
RTVSPost2010PropOp56
 70
     1
102
RTVSPost2010Prop57
140
1.0
102
RTVSPost2010PropOp57
 70
     1
  0
XRECORD
  5
67E
102
{ACAD_REACTORS
330
67D
102
}
330
67D
100
AcDbXrecord
280
     1
102
RTVSPropertyOp0
 70
     1
102
RTVSPropertyOp1
 70
     1
102
RTVSPropertyOp2
 70
     1
102
RTVSPropertyOp3
 70
     1
102
RTVSPropertyOp4
 70
     1
102
RTVSPropertyOp5
 70
     1
102
RTVSPropertyOp6
 70
     1
102
RTVSPropertyOp7
 70
     1
102
RTVSPropertyOp8
 70
     1
102
RTVSPropertyOp9
 70
     1
102
RTVSPropertyOp10
 70
     1
102
RTVSPropertyOp11
 70
     1
102
RTVSPropertyOp12
 70
     1
102
RTVSPropertyOp13
 70
     1
102
RTVSPropertyOp14
 70
     1
102
RTVSPropertyOp15
 70
     1
102
RTVSPropertyOp16
 70
     1
102
RTVSPropertyOp17
 70
     1
102
RTVSPropertyOp18
 70
     1
102
RTVSPropertyOp19
 70
     1
102
RTVSPropertyOp20
 70
     1
102
RTVSPropertyOp21
 70
     1
102
RTVSPropertyOp22
 70
     1
102
RTVSPropertyOp23
 70
     1
102
RTVSPropertyOp24
 70
     1
102
RTVSPropertyOp25
 70
     1
102
RTVSPropertyOp26
 70
     1
102
RTVSPropertyOp27
 70
     1
102
RTVSPropertyOp28
 70
     1
102
RTVSPropertyOp29
 70
     1
102
RTVSPropertyOp30
 70
     1
102
RTVSPropertyOp31
 70
     1
102
RTVSPropertyOp32
 70
     1
102
RTVSPropertyOp33
 70
     1
102
RTVSPropertyOp34
 70
     1
102
RTVSPropertyOp35
 70
     1
102
RTVSPropertyOp36
 70
     1
102
RTVSPropertyOp37
 70
     1
102
RTVSPropertyOp38
 70
     1
102
RTVSPropertyOp39
 70
     1
102
RTVSPropertyOp40
 70
     1
102
RTVSPropertyOp41
 70
     1
102
RTVSPropertyOp42
 70
     1
102
RTVSPropertyOp43
 70
     1
102
RTVSPropertyOp44
 70
     1
102
RTVSPropertyOp45
 70
     1
102
RTVSPropertyOp46
 70
     1
102
RTVSPropertyOp47
 70
     1
102
RTVSPropertyOp48
 70
     1
102
RTVSPropertyOp49
 70
     1
102
RTVSPropertyOp50
 70
     1
102
RTVSPropertyOp51
 70
     0
102
RTVSPropertyOp52
 70
     0
102
RTVSPropertyOp53
 70
     1
102
RTVSPropertyOp54
 70
     1
102
RTVSPropertyOp55
 70
     1
102
RTVSPropertyOp56
 70
     1
102
RTVSPropertyOp57
 70
     1
102
RTVSPost2010Prop28
280
     0
102
RTVSPost2010PropOp28
 70
     1
102
RTVSPost2010Prop29
280
     1
102
RTVSPost2010PropOp29
 70
     1
102
RTVSPost2010Prop30
280
     1
102
RTVSPost2010PropOp30
 70
     1
102
RTVSPost2010Prop31
280
     0
102
RTVSPost2010PropOp31
 70
     1
102
RTVSPost2010Prop32
280
     0
102
RTVSPost2010PropOp32
 70
     1
102
RTVSPost2010Prop33
280
     0
102
RTVSPost2010PropOp33
 70
     1
102
RTVSPost2010Prop34
280
     0
102
RTVSPost2010PropOp34
 70
     1
102
RTVSPost2010Prop35
280
     0
102
RTVSPost2010PropOp35
 70
     1
102
RTVSPost2010Prop36
280
     0
102
RTVSPost2010PropOp36
 70
     1
102
RTVSPost2010Prop37
 90
       50
102
RTVSPost2010PropOp37
 70
     1
102
RTVSPost2010Prop38
140
0.0
102
RTVSPost2010PropOp38
 70
     1
102
RTVSPost2010Prop39
140
1.0
102
RTVSPost2010PropOp39
 70
     1
102
RTVSPost2010Prop40
 90
        0
102
RTVSPost2010PropOp40
 70
     1
102
RTVSPost2010Prop41ColorIndex
 90
       18
102
RTVSPost2010Prop41ColorRGB
 90
        0
102
RTVSPost2010PropOp41
 70
     1
102
RTVSPost2010Prop42
 90
       50
102
RTVSPost2010PropOp42
 70
     1
102
RTVSPost2010Prop43
 90
        3
102
RTVSPost2010PropOp43
 70
     1
102
RTVSPost2010Prop44ColorIndex
 90
        5
102
RTVSPost2010Prop44ColorRGB
 90
      255
102
RTVSPost2010PropOp44
 70
     1
102
RTVSPost2010Prop45
280
     0
102
RTVSPost2010PropOp45
 70
     1
102
RTVSPost2010Prop46
 90
       50
102
RTVSPost2010PropOp46
 70
     1
102
RTVSPost2010Prop47
 90
       50
102
RTVSPost2010PropOp47
 70
     1
102
RTVSPost2010Prop48
 90
       50
102
RTVSPost2010PropOp48
 70
     1
102
RTVSPost2010Prop49
280
     0
102
RTVSPost2010PropOp49
 70
     1
102
RTVSPost2010Prop50
 90
       50
102
RTVSPost2010PropOp50
 70
     1
102
RTVSPost2010Prop51ColorIndex
 90
      256
102
RTVSPost2010Prop51ColorRGB
 90
-16777216
102
RTVSPost2010PropOp51
 70
     0
102
RTVSPost2010Prop52
140
1.0
102
RTVSPost2010PropOp52
 70
     0
102
RTVSPost2010Prop53
 90
        2
102
RTVSPost2010PropOp53
 70
     1
102
RTVSPost2010Prop54
  1
strokes_ogs.tif
102
RTVSPost2010PropOp54
 70
     1
102
RTVSPost2010Prop55
280
     0
102
RTVSPost2010PropOp55
 70
     1
102
RTVSPost2010Prop56
140
1.0
102
RTVSPost2010PropOp56
 70
     1
102
RTVSPost2010Prop57
140
1.0
102
RTVSPost2010PropOp57
 70
     1
  0
XRECORD
  5
682
102
{ACAD_REACTORS
330
681
102
}
330
681
100
AcDbXrecord
280
     1
102
RTVSPropertyOp0
 70
     1
102
RTVSPropertyOp1
 70
     1
102
RTVSPropertyOp2
 70
     1
102
RTVSPropertyOp3
 70
     1
102
RTVSPropertyOp4
 70
     1
102
RTVSPropertyOp5
 70
     1
102
RTVSPropertyOp6
 70
     1
102
RTVSPropertyOp7
 70
     1
102
RTVSPropertyOp8
 70
     1
102
RTVSPropertyOp9
 70
     1
102
RTVSPropertyOp10
 70
     1
102
RTVSPropertyOp11
 70
     1
102
RTVSPropertyOp12
 70
     1
102
RTVSPropertyOp13
 70
     1
102
RTVSPropertyOp14
 70
     1
102
RTVSPropertyOp15
 70
     1
102
RTVSPropertyOp16
 70
     1
102
RTVSPropertyOp17
 70
     1
102
RTVSPropertyOp18
 70
     1
102
RTVSPropertyOp19
 70
     1
102
RTVSPropertyOp20
 70
     1
102
RTVSPropertyOp21
 70
     1
102
RTVSPropertyOp22
 70
     1
102
RTVSPropertyOp23
 70
     1
102
RTVSPropertyOp24
 70
     1
102
RTVSPropertyOp25
 70
     1
102
RTVSPropertyOp26
 70
     1
102
RTVSPropertyOp27
 70
     1
102
RTVSPropertyOp28
 70
     1
102
RTVSPropertyOp29
 70
     1
102
RTVSPropertyOp30
 70
     1
102
RTVSPropertyOp31
 70
     1
102
RTVSPropertyOp32
 70
     1
102
RTVSPropertyOp33
 70
     1
102
RTVSPropertyOp34
 70
     1
102
RTVSPropertyOp35
 70
     1
102
RTVSPropertyOp36
 70
     1
102
RTVSPropertyOp37
 70
     1
102
RTVSPropertyOp38
 70
     1
102
RTVSPropertyOp39
 70
     1
102
RTVSPropertyOp40
 70
     1
102
RTVSPropertyOp41
 70
     1
102
RTVSPropertyOp42
 70
     1
102
RTVSPropertyOp43
 70
     1
102
RTVSPropertyOp44
 70
     1
102
RTVSPropertyOp45
 70
     1
102
RTVSPropertyOp46
 70
     1
102
RTVSPropertyOp47
 70
     1
102
RTVSPropertyOp48
 70
     1
102
RTVSPropertyOp49
 70
     1
102
RTVSPropertyOp50
 70
     1
102
RTVSPropertyOp51
 70
     0
102
RTVSPropertyOp52
 70
     0
102
RTVSPropertyOp53
 70
     1
102
RTVSPropertyOp54
 70
     1
102
RTVSPropertyOp55
 70
     1
102
RTVSPropertyOp56
 70
     1
102
RTVSPropertyOp57
 70
     1
102
RTVSPost2010Prop28
280
     0
102
RTVSPost2010PropOp28
 70
     1
102
RTVSPost2010Prop29
280
     1
102
RTVSPost2010PropOp29
 70
     1
102
RTVSPost2010Prop30
280
     1
102
RTVSPost2010PropOp30
 70
     1
102
RTVSPost2010Prop31
280
     0
102
RTVSPost2010PropOp31
 70
     1
102
RTVSPost2010Prop32
280
     0
102
RTVSPost2010PropOp32
 70
     1
102
RTVSPost2010Prop33
280
     0
102
RTVSPost2010PropOp33
 70
     1
102
RTVSPost2010Prop34
280
     0
102
RTVSPost2010PropOp34
 70
     1
102
RTVSPost2010Prop35
280
     0
102
RTVSPost2010PropOp35
 70
     1
102
RTVSPost2010Prop36
280
     0
102
RTVSPost2010PropOp36
 70
     1
102
RTVSPost2010Prop37
 90
       50
102
RTVSPost2010PropOp37
 70
     1
102
RTVSPost2010Prop38
140
0.0
102
RTVSPost2010PropOp38
 70
     1
102
RTVSPost2010Prop39
140
1.0
102
RTVSPost2010PropOp39
 70
     1
102
RTVSPost2010Prop40
 90
        0
102
RTVSPost2010PropOp40
 70
     1
102
RTVSPost2010Prop41ColorIndex
 90
       18
102
RTVSPost2010Prop41ColorRGB
 90
        0
102
RTVSPost2010PropOp41
 70
     1
102
RTVSPost2010Prop42
 90
       50
102
RTVSPost2010PropOp42
 70
     1
102
RTVSPost2010Prop43
 90
        3
102
RTVSPost2010PropOp43
 70
     1
102
RTVSPost2010Prop44ColorIndex
 90
        5
102
RTVSPost2010Prop44ColorRGB
 90
      255
102
RTVSPost2010PropOp44
 70
     1
102
RTVSPost2010Prop45
280
     0
102
RTVSPost2010PropOp45
 70
     1
102
RTVSPost2010Prop46
 90
       50
102
RTVSPost2010PropOp46
 70
     1
102
RTVSPost2010Prop47
 90
       50
102
RTVSPost2010PropOp47
 70
     1
102
RTVSPost2010Prop48
 90
       50
102
RTVSPost2010PropOp48
 70
     1
102
RTVSPost2010Prop49
280
     0
102
RTVSPost2010PropOp49
 70
     1
102
RTVSPost2010Prop50
 90
       50
102
RTVSPost2010PropOp50
 70
     1
102
RTVSPost2010Prop51ColorIndex
 90
      256
102
RTVSPost2010Prop51ColorRGB
 90
-16777216
102
RTVSPost2010PropOp51
 70
     0
102
RTVSPost2010Prop52
140
1.0
102
RTVSPost2010PropOp52
 70
     0
102
RTVSPost2010Prop53
 90
        2
102
RTVSPost2010PropOp53
 70
     1
102
RTVSPost2010Prop54
  1
strokes_ogs.tif
102
RTVSPost2010PropOp54
 70
     1
102
RTVSPost2010Prop55
280
     0
102
RTVSPost2010PropOp55
 70
     1
102
RTVSPost2010Prop56
140
1.0
102
RTVSPost2010PropOp56
 70
     1
102
RTVSPost2010Prop57
140
1.0
102
RTVSPost2010PropOp57
 70
     1
  0
XRECORD
  5
694
102
{ACAD_REACTORS
330
693
102
}
330
693
100
AcDbXrecord
280
     1
102
RTVSPropertyOp0
 70
     0
102
RTVSPropertyOp1
 70
     0
102
RTVSPropertyOp2
 70
     0
102
RTVSPropertyOp3
 70
     0
102
RTVSPropertyOp4
 70
     0
102
RTVSPropertyOp5
 70
     0
102
RTVSPropertyOp6
 70
     0
102
RTVSPropertyOp7
 70
     0
102
RTVSPropertyOp8
 70
     0
102
RTVSPropertyOp9
 70
     0
102
RTVSPropertyOp10
 70
     0
102
RTVSPropertyOp11
 70
     0
102
RTVSPropertyOp12
 70
     0
102
RTVSPropertyOp13
 70
     0
102
RTVSPropertyOp14
 70
     0
102
RTVSPropertyOp15
 70
     0
102
RTVSPropertyOp16
 70
     0
102
RTVSPropertyOp17
 70
     0
102
RTVSPropertyOp18
 70
     0
102
RTVSPropertyOp19
 70
     0
102
RTVSPropertyOp20
 70
     0
102
RTVSPropertyOp21
 70
     0
102
RTVSPropertyOp22
 70
     0
102
RTVSPropertyOp23
 70
     0
102
RTVSPropertyOp24
 70
     0
102
RTVSPropertyOp25
 70
     0
102
RTVSPropertyOp26
 70
     0
102
RTVSPropertyOp27
 70
     0
102
RTVSPropertyOp28
 70
     1
102
RTVSPropertyOp29
 70
     1
102
RTVSPropertyOp30
 70
     1
102
RTVSPropertyOp31
 70
     1
102
RTVSPropertyOp32
 70
     1
102
RTVSPropertyOp33
 70
     1
102
RTVSPropertyOp34
 70
     1
102
RTVSPropertyOp35
 70
     1
102
RTVSPropertyOp36
 70
     1
102
RTVSPropertyOp37
 70
     1
102
RTVSPropertyOp38
 70
     1
102
RTVSPropertyOp39
 70
     1
102
RTVSPropertyOp40
 70
     1
102
RTVSPropertyOp41
 70
     1
102
RTVSPropertyOp42
 70
     1
102
RTVSPropertyOp43
 70
     1
102
RTVSPropertyOp44
 70
     1
102
RTVSPropertyOp45
 70
     1
102
RTVSPropertyOp46
 70
     1
102
RTVSPropertyOp47
 70
     1
102
RTVSPropertyOp48
 70
     1
102
RTVSPropertyOp49
 70
     1
102
RTVSPropertyOp50
 70
     1
102
RTVSPropertyOp51
 70
     0
102
RTVSPropertyOp52
 70
     0
102
RTVSPropertyOp53
 70
     1
102
RTVSPropertyOp54
 70
     1
102
RTVSPropertyOp55
 70
     1
102
RTVSPropertyOp56
 70
     1
102
RTVSPropertyOp57
 70
     1
102
RTVSPost2010Prop28
280
     0
102
RTVSPost2010PropOp28
 70
     1
102
RTVSPost2010Prop29
280
     1
102
RTVSPost2010PropOp29
 70
     1
102
RTVSPost2010Prop30
280
     1
102
RTVSPost2010PropOp30
 70
     1
102
RTVSPost2010Prop31
280
     0
102
RTVSPost2010PropOp31
 70
     1
102
RTVSPost2010Prop32
280
     0
102
RTVSPost2010PropOp32
 70
     1
102
RTVSPost2010Prop33
280
     0
102
RTVSPost2010PropOp33
 70
     1
102
RTVSPost2010Prop34
280
     0
102
RTVSPost2010PropOp34
 70
     1
102
RTVSPost2010Prop35
280
     0
102
RTVSPost2010PropOp35
 70
     1
102
RTVSPost2010Prop36
280
     0
102
RTVSPost2010PropOp36
 70
     1
102
RTVSPost2010Prop37
 90
       50
102
RTVSPost2010PropOp37
 70
     1
102
RTVSPost2010Prop38
140
0.0
102
RTVSPost2010PropOp38
 70
     1
102
RTVSPost2010Prop39
140
1.0
102
RTVSPost2010PropOp39
 70
     1
102
RTVSPost2010Prop40
 90
        0
102
RTVSPost2010PropOp40
 70
     1
102
RTVSPost2010Prop41ColorIndex
 90
       18
102
RTVSPost2010Prop41ColorRGB
 90
        0
102
RTVSPost2010PropOp41
 70
     1
102
RTVSPost2010Prop42
 90
       50
102
RTVSPost2010PropOp42
 70
     1
102
RTVSPost2010Prop43
 90
        3
102
RTVSPost2010PropOp43
 70
     1
102
RTVSPost2010Prop44ColorIndex
 90
        5
102
RTVSPost2010Prop44ColorRGB
 90
      255
102
RTVSPost2010PropOp44
 70
     1
102
RTVSPost2010Prop45
280
     0
102
RTVSPost2010PropOp45
 70
     1
102
RTVSPost2010Prop46
 90
       50
102
RTVSPost2010PropOp46
 70
     1
102
RTVSPost2010Prop47
 90
       50
102
RTVSPost2010PropOp47
 70
     1
102
RTVSPost2010Prop48
 90
       50
102
RTVSPost2010PropOp48
 70
     1
102
RTVSPost2010Prop49
280
     0
102
RTVSPost2010PropOp49
 70
     1
102
RTVSPost2010Prop50
 90
       50
102
RTVSPost2010PropOp50
 70
     1
102
RTVSPost2010Prop51ColorIndex
 90
      256
102
RTVSPost2010Prop51ColorRGB
 90
-16777216
102
RTVSPost2010PropOp51
 70
     0
102
RTVSPost2010Prop52
140
1.0
102
RTVSPost2010PropOp52
 70
     0
102
RTVSPost2010Prop53
 90
        2
102
RTVSPost2010PropOp53
 70
     1
102
RTVSPost2010Prop54
  1
strokes_ogs.tif
102
RTVSPost2010PropOp54
 70
     1
102
RTVSPost2010Prop55
280
     0
102
RTVSPost2010PropOp55
 70
     1
102
RTVSPost2010Prop56
140
1.0
102
RTVSPost2010PropOp56
 70
     1
102
RTVSPost2010Prop57
140
1.0
102
RTVSPost2010PropOp57
 70
     1
  0
XRECORD
  5
68E
102
{ACAD_REACTORS
330
68D
102
}
330
68D
100
AcDbXrecord
280
     1
102
RTVSPropertyOp0
 70
     1
102
RTVSPropertyOp1
 70
     1
102
RTVSPropertyOp2
 70
     1
102
RTVSPropertyOp3
 70
     1
102
RTVSPropertyOp4
 70
     1
102
RTVSPropertyOp5
 70
     1
102
RTVSPropertyOp6
 70
     1
102
RTVSPropertyOp7
 70
     1
102
RTVSPropertyOp8
 70
     1
102
RTVSPropertyOp9
 70
     1
102
RTVSPropertyOp10
 70
     1
102
RTVSPropertyOp11
 70
     1
102
RTVSPropertyOp12
 70
     1
102
RTVSPropertyOp13
 70
     1
102
RTVSPropertyOp14
 70
     1
102
RTVSPropertyOp15
 70
     1
102
RTVSPropertyOp16
 70
     1
102
RTVSPropertyOp17
 70
     1
102
RTVSPropertyOp18
 70
     1
102
RTVSPropertyOp19
 70
     1
102
RTVSPropertyOp20
 70
     1
102
RTVSPropertyOp21
 70
     1
102
RTVSPropertyOp22
 70
     1
102
RTVSPropertyOp23
 70
     1
102
RTVSPropertyOp24
 70
     1
102
RTVSPropertyOp25
 70
     1
102
RTVSPropertyOp26
 70
     1
102
RTVSPropertyOp27
 70
     1
102
RTVSPropertyOp28
 70
     1
102
RTVSPropertyOp29
 70
     1
102
RTVSPropertyOp30
 70
     1
102
RTVSPropertyOp31
 70
     1
102
RTVSPropertyOp32
 70
     1
102
RTVSPropertyOp33
 70
     1
102
RTVSPropertyOp34
 70
     1
102
RTVSPropertyOp35
 70
     1
102
RTVSPropertyOp36
 70
     1
102
RTVSPropertyOp37
 70
     1
102
RTVSPropertyOp38
 70
     1
102
RTVSPropertyOp39
 70
     1
102
RTVSPropertyOp40
 70
     1
102
RTVSPropertyOp41
 70
     1
102
RTVSPropertyOp42
 70
     1
102
RTVSPropertyOp43
 70
     1
102
RTVSPropertyOp44
 70
     1
102
RTVSPropertyOp45
 70
     1
102
RTVSPropertyOp46
 70
     1
102
RTVSPropertyOp47
 70
     1
102
RTVSPropertyOp48
 70
     1
102
RTVSPropertyOp49
 70
     1
102
RTVSPropertyOp50
 70
     1
102
RTVSPropertyOp51
 70
     0
102
RTVSPropertyOp52
 70
     0
102
RTVSPropertyOp53
 70
     1
102
RTVSPropertyOp54
 70
     1
102
RTVSPropertyOp55
 70
     1
102
RTVSPropertyOp56
 70
     1
102
RTVSPropertyOp57
 70
     1
102
RTVSPost2010Prop28
280
     0
102
RTVSPost2010PropOp28
 70
     1
102
RTVSPost2010Prop29
280
     1
102
RTVSPost2010PropOp29
 70
     1
102
RTVSPost2010Prop30
280
     1
102
RTVSPost2010PropOp30
 70
     1
102
RTVSPost2010Prop31
280
     0
102
RTVSPost2010PropOp31
 70
     1
102
RTVSPost2010Prop32
280
     0
102
RTVSPost2010PropOp32
 70
     1
102
RTVSPost2010Prop33
280
     0
102
RTVSPost2010PropOp33
 70
     1
102
RTVSPost2010Prop34
280
     0
102
RTVSPost2010PropOp34
 70
     1
102
RTVSPost2010Prop35
280
     0
102
RTVSPost2010PropOp35
 70
     1
102
RTVSPost2010Prop36
280
     0
102
RTVSPost2010PropOp36
 70
     1
102
RTVSPost2010Prop37
 90
       50
102
RTVSPost2010PropOp37
 70
     1
102
RTVSPost2010Prop38
140
0.0
102
RTVSPost2010PropOp38
 70
     1
102
RTVSPost2010Prop39
140
1.0
102
RTVSPost2010PropOp39
 70
     1
102
RTVSPost2010Prop40
 90
        0
102
RTVSPost2010PropOp40
 70
     1
102
RTVSPost2010Prop41ColorIndex
 90
       18
102
RTVSPost2010Prop41ColorRGB
 90
        0
102
RTVSPost2010PropOp41
 70
     1
102
RTVSPost2010Prop42
 90
       50
102
RTVSPost2010PropOp42
 70
     1
102
RTVSPost2010Prop43
 90
        3
102
RTVSPost2010PropOp43
 70
     1
102
RTVSPost2010Prop44ColorIndex
 90
        5
102
RTVSPost2010Prop44ColorRGB
 90
      255
102
RTVSPost2010PropOp44
 70
     1
102
RTVSPost2010Prop45
280
     0
102
RTVSPost2010PropOp45
 70
     1
102
RTVSPost2010Prop46
 90
       50
102
RTVSPost2010PropOp46
 70
     1
102
RTVSPost2010Prop47
 90
       50
102
RTVSPost2010PropOp47
 70
     1
102
RTVSPost2010Prop48
 90
       50
102
RTVSPost2010PropOp48
 70
     1
102
RTVSPost2010Prop49
280
     0
102
RTVSPost2010PropOp49
 70
     1
102
RTVSPost2010Prop50
 90
       50
102
RTVSPost2010PropOp50
 70
     1
102
RTVSPost2010Prop51ColorIndex
 90
      256
102
RTVSPost2010Prop51ColorRGB
 90
-16777216
102
RTVSPost2010PropOp51
 70
     0
102
RTVSPost2010Prop52
140
1.0
102
RTVSPost2010PropOp52
 70
     0
102
RTVSPost2010Prop53
 90
        2
102
RTVSPost2010PropOp53
 70
     1
102
RTVSPost2010Prop54
  1
strokes_ogs.tif
102
RTVSPost2010PropOp54
 70
     1
102
RTVSPost2010Prop55
280
     0
102
RTVSPost2010PropOp55
 70
     1
102
RTVSPost2010Prop56
140
1.0
102
RTVSPost2010PropOp56
 70
     1
102
RTVSPost2010Prop57
140
1.0
102
RTVSPost2010PropOp57
 70
     1
  0
XRECORD
  5
696
102
{ACAD_REACTORS
330
695
102
}
330
695
100
AcDbXrecord
280
     1
102
RTVSPropertyOp0
 70
     0
102
RTVSPropertyOp1
 70
     0
102
RTVSPropertyOp2
 70
     0
102
RTVSPropertyOp3
 70
     0
102
RTVSPropertyOp4
 70
     0
102
RTVSPropertyOp5
 70
     0
102
RTVSPropertyOp6
 70
     0
102
RTVSPropertyOp7
 70
     0
102
RTVSPropertyOp8
 70
     0
102
RTVSPropertyOp9
 70
     0
102
RTVSPropertyOp10
 70
     0
102
RTVSPropertyOp11
 70
     0
102
RTVSPropertyOp12
 70
     0
102
RTVSPropertyOp13
 70
     0
102
RTVSPropertyOp14
 70
     0
102
RTVSPropertyOp15
 70
     0
102
RTVSPropertyOp16
 70
     0
102
RTVSPropertyOp17
 70
     0
102
RTVSPropertyOp18
 70
     0
102
RTVSPropertyOp19
 70
     0
102
RTVSPropertyOp20
 70
     0
102
RTVSPropertyOp21
 70
     0
102
RTVSPropertyOp22
 70
     0
102
RTVSPropertyOp23
 70
     0
102
RTVSPropertyOp24
 70
     0
102
RTVSPropertyOp25
 70
     0
102
RTVSPropertyOp26
 70
     0
102
RTVSPropertyOp27
 70
     0
102
RTVSPropertyOp28
 70
     1
102
RTVSPropertyOp29
 70
     1
102
RTVSPropertyOp30
 70
     1
102
RTVSPropertyOp31
 70
     1
102
RTVSPropertyOp32
 70
     1
102
RTVSPropertyOp33
 70
     1
102
RTVSPropertyOp34
 70
     1
102
RTVSPropertyOp35
 70
     1
102
RTVSPropertyOp36
 70
     1
102
RTVSPropertyOp37
 70
     1
102
RTVSPropertyOp38
 70
     1
102
RTVSPropertyOp39
 70
     1
102
RTVSPropertyOp40
 70
     1
102
RTVSPropertyOp41
 70
     1
102
RTVSPropertyOp42
 70
     1
102
RTVSPropertyOp43
 70
     1
102
RTVSPropertyOp44
 70
     1
102
RTVSPropertyOp45
 70
     1
102
RTVSPropertyOp46
 70
     1
102
RTVSPropertyOp47
 70
     1
102
RTVSPropertyOp48
 70
     1
102
RTVSPropertyOp49
 70
     1
102
RTVSPropertyOp50
 70
     1
102
RTVSPropertyOp51
 70
     0
102
RTVSPropertyOp52
 70
     0
102
RTVSPropertyOp53
 70
     1
102
RTVSPropertyOp54
 70
     1
102
RTVSPropertyOp55
 70
     1
102
RTVSPropertyOp56
 70
     1
102
RTVSPropertyOp57
 70
     1
102
RTVSPost2010Prop28
280
     0
102
RTVSPost2010PropOp28
 70
     1
102
RTVSPost2010Prop29
280
     1
102
RTVSPost2010PropOp29
 70
     1
102
RTVSPost2010Prop30
280
     1
102
RTVSPost2010PropOp30
 70
     1
102
RTVSPost2010Prop31
280
     0
102
RTVSPost2010PropOp31
 70
     1
102
RTVSPost2010Prop32
280
     0
102
RTVSPost2010PropOp32
 70
     1
102
RTVSPost2010Prop33
280
     0
102
RTVSPost2010PropOp33
 70
     1
102
RTVSPost2010Prop34
280
     0
102
RTVSPost2010PropOp34
 70
     1
102
RTVSPost2010Prop35
280
     0
102
RTVSPost2010PropOp35
 70
     1
102
RTVSPost2010Prop36
280
     0
102
RTVSPost2010PropOp36
 70
     1
102
RTVSPost2010Prop37
 90
       50
102
RTVSPost2010PropOp37
 70
     1
102
RTVSPost2010Prop38
140
0.0
102
RTVSPost2010PropOp38
 70
     1
102
RTVSPost2010Prop39
140
1.0
102
RTVSPost2010PropOp39
 70
     1
102
RTVSPost2010Prop40
 90
        0
102
RTVSPost2010PropOp40
 70
     1
102
RTVSPost2010Prop41ColorIndex
 90
       18
102
RTVSPost2010Prop41ColorRGB
 90
        0
102
RTVSPost2010PropOp41
 70
     1
102
RTVSPost2010Prop42
 90
       50
102
RTVSPost2010PropOp42
 70
     1
102
RTVSPost2010Prop43
 90
        3
102
RTVSPost2010PropOp43
 70
     1
102
RTVSPost2010Prop44ColorIndex
 90
        5
102
RTVSPost2010Prop44ColorRGB
 90
      255
102
RTVSPost2010PropOp44
 70
     1
102
RTVSPost2010Prop45
280
     0
102
RTVSPost2010PropOp45
 70
     1
102
RTVSPost2010Prop46
 90
       50
102
RTVSPost2010PropOp46
 70
     1
102
RTVSPost2010Prop47
 90
       50
102
RTVSPost2010PropOp47
 70
     1
102
RTVSPost2010Prop48
 90
       50
102
RTVSPost2010PropOp48
 70
     1
102
RTVSPost2010Prop49
280
     0
102
RTVSPost2010PropOp49
 70
     1
102
RTVSPost2010Prop50
 90
       50
102
RTVSPost2010PropOp50
 70
     1
102
RTVSPost2010Prop51ColorIndex
 90
      256
102
RTVSPost2010Prop51ColorRGB
 90
-16777216
102
RTVSPost2010PropOp51
 70
     0
102
RTVSPost2010Prop52
140
1.0
102
RTVSPost2010PropOp52
 70
     0
102
RTVSPost2010Prop53
 90
        2
102
RTVSPost2010PropOp53
 70
     1
102
RTVSPost2010Prop54
  1
strokes_ogs.tif
102
RTVSPost2010PropOp54
 70
     1
102
RTVSPost2010Prop55
280
     0
102
RTVSPost2010PropOp55
 70
     1
102
RTVSPost2010Prop56
140
1.0
102
RTVSPost2010PropOp56
 70
     1
102
RTVSPost2010Prop57
140
1.0
102
RTVSPost2010PropOp57
 70
     1
  0
XRECORD
  5
674
102
{ACAD_REACTORS
330
673
102
}
330
673
100
AcDbXrecord
280
     1
102
RTVSPropertyOp0
 70
     1
102
RTVSPropertyOp1
 70
     1
102
RTVSPropertyOp2
 70
     1
102
RTVSPropertyOp3
 70
     1
102
RTVSPropertyOp4
 70
     1
102
RTVSPropertyOp5
 70
     1
102
RTVSPropertyOp6
 70
     1
102
RTVSPropertyOp7
 70
     1
102
RTVSPropertyOp8
 70
     1
102
RTVSPropertyOp9
 70
     1
102
RTVSPropertyOp10
 70
     1
102
RTVSPropertyOp11
 70
     1
102
RTVSPropertyOp12
 70
     1
102
RTVSPropertyOp13
 70
     1
102
RTVSPropertyOp14
 70
     1
102
RTVSPropertyOp15
 70
     1
102
RTVSPropertyOp16
 70
     1
102
RTVSPropertyOp17
 70
     1
102
RTVSPropertyOp18
 70
     1
102
RTVSPropertyOp19
 70
     1
102
RTVSPropertyOp20
 70
     1
102
RTVSPropertyOp21
 70
     1
102
RTVSPropertyOp22
 70
     1
102
RTVSPropertyOp23
 70
     1
102
RTVSPropertyOp24
 70
     1
102
RTVSPropertyOp25
 70
     1
102
RTVSPropertyOp26
 70
     1
102
RTVSPropertyOp27
 70
     1
102
RTVSPropertyOp28
 70
     1
102
RTVSPropertyOp29
 70
     1
102
RTVSPropertyOp30
 70
     1
102
RTVSPropertyOp31
 70
     1
102
RTVSPropertyOp32
 70
     1
102
RTVSPropertyOp33
 70
     1
102
RTVSPropertyOp34
 70
     1
102
RTVSPropertyOp35
 70
     1
102
RTVSPropertyOp36
 70
     1
102
RTVSPropertyOp37
 70
     1
102
RTVSPropertyOp38
 70
     1
102
RTVSPropertyOp39
 70
     1
102
RTVSPropertyOp40
 70
     1
102
RTVSPropertyOp41
 70
     1
102
RTVSPropertyOp42
 70
     1
102
RTVSPropertyOp43
 70
     1
102
RTVSPropertyOp44
 70
     1
102
RTVSPropertyOp45
 70
     1
102
RTVSPropertyOp46
 70
     1
102
RTVSPropertyOp47
 70
     1
102
RTVSPropertyOp48
 70
     1
102
RTVSPropertyOp49
 70
     1
102
RTVSPropertyOp50
 70
     1
102
RTVSPropertyOp51
 70
     0
102
RTVSPropertyOp52
 70
     0
102
RTVSPropertyOp53
 70
     1
102
RTVSPropertyOp54
 70
     1
102
RTVSPropertyOp55
 70
     1
102
RTVSPropertyOp56
 70
     1
102
RTVSPropertyOp57
 70
     1
102
RTVSPost2010Prop28
280
     0
102
RTVSPost2010PropOp28
 70
     1
102
RTVSPost2010Prop29
280
     1
102
RTVSPost2010PropOp29
 70
     1
102
RTVSPost2010Prop30
280
     1
102
RTVSPost2010PropOp30
 70
     1
102
RTVSPost2010Prop31
280
     0
102
RTVSPost2010PropOp31
 70
     1
102
RTVSPost2010Prop32
280
     0
102
RTVSPost2010PropOp32
 70
     1
102
RTVSPost2010Prop33
280
     0
102
RTVSPost2010PropOp33
 70
     1
102
RTVSPost2010Prop34
280
     0
102
RTVSPost2010PropOp34
 70
     1
102
RTVSPost2010Prop35
280
     0
102
RTVSPost2010PropOp35
 70
     1
102
RTVSPost2010Prop36
280
     0
102
RTVSPost2010PropOp36
 70
     1
102
RTVSPost2010Prop37
 90
       50
102
RTVSPost2010PropOp37
 70
     1
102
RTVSPost2010Prop38
140
0.0
102
RTVSPost2010PropOp38
 70
     1
102
RTVSPost2010Prop39
140
1.0
102
RTVSPost2010PropOp39
 70
     1
102
RTVSPost2010Prop40
 90
        0
102
RTVSPost2010PropOp40
 70
     1
102
RTVSPost2010Prop41ColorIndex
 90
       18
102
RTVSPost2010Prop41ColorRGB
 90
        0
102
RTVSPost2010PropOp41
 70
     1
102
RTVSPost2010Prop42
 90
       50
102
RTVSPost2010PropOp42
 70
     1
102
RTVSPost2010Prop43
 90
        3
102
RTVSPost2010PropOp43
 70
     1
102
RTVSPost2010Prop44ColorIndex
 90
        5
102
RTVSPost2010Prop44ColorRGB
 90
      255
102
RTVSPost2010PropOp44
 70
     1
102
RTVSPost2010Prop45
280
     0
102
RTVSPost2010PropOp45
 70
     1
102
RTVSPost2010Prop46
 90
       50
102
RTVSPost2010PropOp46
 70
     1
102
RTVSPost2010Prop47
 90
       50
102
RTVSPost2010PropOp47
 70
     1
102
RTVSPost2010Prop48
 90
       50
102
RTVSPost2010PropOp48
 70
     1
102
RTVSPost2010Prop49
280
     0
102
RTVSPost2010PropOp49
 70
     1
102
RTVSPost2010Prop50
 90
       50
102
RTVSPost2010PropOp50
 70
     1
102
RTVSPost2010Prop51ColorIndex
 90
      256
102
RTVSPost2010Prop51ColorRGB
 90
-16777216
102
RTVSPost2010PropOp51
 70
     0
102
RTVSPost2010Prop52
140
1.0
102
RTVSPost2010PropOp52
 70
     0
102
RTVSPost2010Prop53
 90
        2
102
RTVSPost2010PropOp53
 70
     1
102
RTVSPost2010Prop54
  1
strokes_ogs.tif
102
RTVSPost2010PropOp54
 70
     1
102
RTVSPost2010Prop55
280
     0
102
RTVSPost2010PropOp55
 70
     1
102
RTVSPost2010Prop56
140
1.0
102
RTVSPost2010PropOp56
 70
     1
102
RTVSPost2010Prop57
140
1.0
102
RTVSPost2010PropOp57
 70
     1
  0
XRECORD
  5
6A2
102
{ACAD_REACTORS
330
6A1
102
}
330
6A1
100
AcDbXrecord
280
     1
102
RTVSPropertyOp0
 70
     1
102
RTVSPropertyOp1
 70
     1
102
RTVSPropertyOp2
 70
     1
102
RTVSPropertyOp3
 70
     1
102
RTVSPropertyOp4
 70
     1
102
RTVSPropertyOp5
 70
     1
102
RTVSPropertyOp6
 70
     1
102
RTVSPropertyOp7
 70
     1
102
RTVSPropertyOp8
 70
     1
102
RTVSPropertyOp9
 70
     1
102
RTVSPropertyOp10
 70
     1
102
RTVSPropertyOp11
 70
     1
102
RTVSPropertyOp12
 70
     1
102
RTVSPropertyOp13
 70
     1
102
RTVSPropertyOp14
 70
     1
102
RTVSPropertyOp15
 70
     1
102
RTVSPropertyOp16
 70
     1
102
RTVSPropertyOp17
 70
     1
102
RTVSPropertyOp18
 70
     1
102
RTVSPropertyOp19
 70
     1
102
RTVSPropertyOp20
 70
     1
102
RTVSPropertyOp21
 70
     1
102
RTVSPropertyOp22
 70
     1
102
RTVSPropertyOp23
 70
     1
102
RTVSPropertyOp24
 70
     1
102
RTVSPropertyOp25
 70
     1
102
RTVSPropertyOp26
 70
     1
102
RTVSPropertyOp27
 70
     1
102
RTVSPropertyOp28
 70
     1
102
RTVSPropertyOp29
 70
     1
102
RTVSPropertyOp30
 70
     1
102
RTVSPropertyOp31
 70
     1
102
RTVSPropertyOp32
 70
     1
102
RTVSPropertyOp33
 70
     1
102
RTVSPropertyOp34
 70
     1
102
RTVSPropertyOp35
 70
     1
102
RTVSPropertyOp36
 70
     1
102
RTVSPropertyOp37
 70
     1
102
RTVSPropertyOp38
 70
     1
102
RTVSPropertyOp39
 70
     1
102
RTVSPropertyOp40
 70
     1
102
RTVSPropertyOp41
 70
     1
102
RTVSPropertyOp42
 70
     1
102
RTVSPropertyOp43
 70
     1
102
RTVSPropertyOp44
 70
     1
102
RTVSPropertyOp45
 70
     1
102
RTVSPropertyOp46
 70
     1
102
RTVSPropertyOp47
 70
     1
102
RTVSPropertyOp48
 70
     1
102
RTVSPropertyOp49
 70
     1
102
RTVSPropertyOp50
 70
     1
102
RTVSPropertyOp51
 70
     0
102
RTVSPropertyOp52
 70
     0
102
RTVSPropertyOp53
 70
     1
102
RTVSPropertyOp54
 70
     1
102
RTVSPropertyOp55
 70
     1
102
RTVSPropertyOp56
 70
     1
102
RTVSPropertyOp57
 70
     1
102
RTVSPost2010Prop28
280
     0
102
RTVSPost2010PropOp28
 70
     1
102
RTVSPost2010Prop29
280
     1
102
RTVSPost2010PropOp29
 70
     1
102
RTVSPost2010Prop30
280
     1
102
RTVSPost2010PropOp30
 70
     1
102
RTVSPost2010Prop31
280
     0
102
RTVSPost2010PropOp31
 70
     1
102
RTVSPost2010Prop32
280
     0
102
RTVSPost2010PropOp32
 70
     1
102
RTVSPost2010Prop33
280
     0
102
RTVSPost2010PropOp33
 70
     1
102
RTVSPost2010Prop34
280
     0
102
RTVSPost2010PropOp34
 70
     1
102
RTVSPost2010Prop35
280
     0
102
RTVSPost2010PropOp35
 70
     1
102
RTVSPost2010Prop36
280
     0
102
RTVSPost2010PropOp36
 70
     1
102
RTVSPost2010Prop37
 90
       50
102
RTVSPost2010PropOp37
 70
     1
102
RTVSPost2010Prop38
140
0.0
102
RTVSPost2010PropOp38
 70
     1
102
RTVSPost2010Prop39
140
1.0
102
RTVSPost2010PropOp39
 70
     1
102
RTVSPost2010Prop40
 90
        0
102
RTVSPost2010PropOp40
 70
     1
102
RTVSPost2010Prop41ColorIndex
 90
       18
102
RTVSPost2010Prop41ColorRGB
 90
        0
102
RTVSPost2010PropOp41
 70
     1
102
RTVSPost2010Prop42
 90
       50
102
RTVSPost2010PropOp42
 70
     1
102
RTVSPost2010Prop43
 90
        3
102
RTVSPost2010PropOp43
 70
     1
102
RTVSPost2010Prop44ColorIndex
 90
        5
102
RTVSPost2010Prop44ColorRGB
 90
      255
102
RTVSPost2010PropOp44
 70
     1
102
RTVSPost2010Prop45
280
     0
102
RTVSPost2010PropOp45
 70
     1
102
RTVSPost2010Prop46
 90
       50
102
RTVSPost2010PropOp46
 70
     1
102
RTVSPost2010Prop47
 90
       50
102
RTVSPost2010PropOp47
 70
     1
102
RTVSPost2010Prop48
 90
       50
102
RTVSPost2010PropOp48
 70
     1
102
RTVSPost2010Prop49
280
     0
102
RTVSPost2010PropOp49
 70
     1
102
RTVSPost2010Prop50
 90
       50
102
RTVSPost2010PropOp50
 70
     1
102
RTVSPost2010Prop51ColorIndex
 90
      256
102
RTVSPost2010Prop51ColorRGB
 90
-16777216
102
RTVSPost2010PropOp51
 70
     0
102
RTVSPost2010Prop52
140
1.0
102
RTVSPost2010PropOp52
 70
     0
102
RTVSPost2010Prop53
 90
        2
102
RTVSPost2010PropOp53
 70
     1
102
RTVSPost2010Prop54
  1
strokes_ogs.tif
102
RTVSPost2010PropOp54
 70
     1
102
RTVSPost2010Prop55
280
     0
102
RTVSPost2010PropOp55
 70
     1
102
RTVSPost2010Prop56
140
1.0
102
RTVSPost2010PropOp56
 70
     1
102
RTVSPost2010Prop57
140
1.0
102
RTVSPost2010PropOp57
 70
     1
  0
XRECORD
  5
6A0
102
{ACAD_REACTORS
330
69F
102
}
330
69F
100
AcDbXrecord
280
     1
102
RTVSPropertyOp0
 70
     1
102
RTVSPropertyOp1
 70
     1
102
RTVSPropertyOp2
 70
     1
102
RTVSPropertyOp3
 70
     1
102
RTVSPropertyOp4
 70
     1
102
RTVSPropertyOp5
 70
     1
102
RTVSPropertyOp6
 70
     1
102
RTVSPropertyOp7
 70
     1
102
RTVSPropertyOp8
 70
     1
102
RTVSPropertyOp9
 70
     1
102
RTVSPropertyOp10
 70
     1
102
RTVSPropertyOp11
 70
     1
102
RTVSPropertyOp12
 70
     1
102
RTVSPropertyOp13
 70
     1
102
RTVSPropertyOp14
 70
     1
102
RTVSPropertyOp15
 70
     1
102
RTVSPropertyOp16
 70
     1
102
RTVSPropertyOp17
 70
     1
102
RTVSPropertyOp18
 70
     1
102
RTVSPropertyOp19
 70
     1
102
RTVSPropertyOp20
 70
     1
102
RTVSPropertyOp21
 70
     1
102
RTVSPropertyOp22
 70
     1
102
RTVSPropertyOp23
 70
     1
102
RTVSPropertyOp24
 70
     1
102
RTVSPropertyOp25
 70
     1
102
RTVSPropertyOp26
 70
     1
102
RTVSPropertyOp27
 70
     1
102
RTVSPropertyOp28
 70
     1
102
RTVSPropertyOp29
 70
     1
102
RTVSPropertyOp30
 70
     1
102
RTVSPropertyOp31
 70
     1
102
RTVSPropertyOp32
 70
     1
102
RTVSPropertyOp33
 70
     1
102
RTVSPropertyOp34
 70
     1
102
RTVSPropertyOp35
 70
     1
102
RTVSPropertyOp36
 70
     1
102
RTVSPropertyOp37
 70
     1
102
RTVSPropertyOp38
 70
     1
102
RTVSPropertyOp39
 70
     1
102
RTVSPropertyOp40
 70
     1
102
RTVSPropertyOp41
 70
     1
102
RTVSPropertyOp42
 70
     1
102
RTVSPropertyOp43
 70
     1
102
RTVSPropertyOp44
 70
     1
102
RTVSPropertyOp45
 70
     1
102
RTVSPropertyOp46
 70
     1
102
RTVSPropertyOp47
 70
     1
102
RTVSPropertyOp48
 70
     1
102
RTVSPropertyOp49
 70
     1
102
RTVSPropertyOp50
 70
     1
102
RTVSPropertyOp51
 70
     0
102
RTVSPropertyOp52
 70
     0
102
RTVSPropertyOp53
 70
     1
102
RTVSPropertyOp54
 70
     1
102
RTVSPropertyOp55
 70
     1
102
RTVSPropertyOp56
 70
     1
102
RTVSPropertyOp57
 70
     1
102
RTVSPost2010Prop28
280
     0
102
RTVSPost2010PropOp28
 70
     1
102
RTVSPost2010Prop29
280
     1
102
RTVSPost2010PropOp29
 70
     1
102
RTVSPost2010Prop30
280
     1
102
RTVSPost2010PropOp30
 70
     1
102
RTVSPost2010Prop31
280
     0
102
RTVSPost2010PropOp31
 70
     1
102
RTVSPost2010Prop32
280
     0
102
RTVSPost2010PropOp32
 70
     1
102
RTVSPost2010Prop33
280
     0
102
RTVSPost2010PropOp33
 70
     1
102
RTVSPost2010Prop34
280
     0
102
RTVSPost2010PropOp34
 70
     1
102
RTVSPost2010Prop35
280
     0
102
RTVSPost2010PropOp35
 70
     1
102
RTVSPost2010Prop36
280
     0
102
RTVSPost2010PropOp36
 70
     1
102
RTVSPost2010Prop37
 90
       50
102
RTVSPost2010PropOp37
 70
     1
102
RTVSPost2010Prop38
140
0.0
102
RTVSPost2010PropOp38
 70
     1
102
RTVSPost2010Prop39
140
1.0
102
RTVSPost2010PropOp39
 70
     1
102
RTVSPost2010Prop40
 90
        0
102
RTVSPost2010PropOp40
 70
     1
102
RTVSPost2010Prop41ColorIndex
 90
       18
102
RTVSPost2010Prop41ColorRGB
 90
        0
102
RTVSPost2010PropOp41
 70
     1
102
RTVSPost2010Prop42
 90
       50
102
RTVSPost2010PropOp42
 70
     1
102
RTVSPost2010Prop43
 90
        3
102
RTVSPost2010PropOp43
 70
     1
102
RTVSPost2010Prop44ColorIndex
 90
        5
102
RTVSPost2010Prop44ColorRGB
 90
      255
102
RTVSPost2010PropOp44
 70
     1
102
RTVSPost2010Prop45
280
     0
102
RTVSPost2010PropOp45
 70
     1
102
RTVSPost2010Prop46
 90
       50
102
RTVSPost2010PropOp46
 70
     1
102
RTVSPost2010Prop47
 90
       50
102
RTVSPost2010PropOp47
 70
     1
102
RTVSPost2010Prop48
 90
       50
102
RTVSPost2010PropOp48
 70
     1
102
RTVSPost2010Prop49
280
     0
102
RTVSPost2010PropOp49
 70
     1
102
RTVSPost2010Prop50
 90
       50
102
RTVSPost2010PropOp50
 70
     1
102
RTVSPost2010Prop51ColorIndex
 90
      256
102
RTVSPost2010Prop51ColorRGB
 90
-16777216
102
RTVSPost2010PropOp51
 70
     0
102
RTVSPost2010Prop52
140
1.0
102
RTVSPost2010PropOp52
 70
     0
102
RTVSPost2010Prop53
 90
        2
102
RTVSPost2010PropOp53
 70
     1
102
RTVSPost2010Prop54
  1
strokes_ogs.tif
102
RTVSPost2010PropOp54
 70
     1
102
RTVSPost2010Prop55
280
     0
102
RTVSPost2010PropOp55
 70
     1
102
RTVSPost2010Prop56
140
1.0
102
RTVSPost2010PropOp56
 70
     1
102
RTVSPost2010Prop57
140
1.0
102
RTVSPost2010PropOp57
 70
     1
  0
XRECORD
  5
69A
102
{ACAD_REACTORS
330
699
102
}
330
699
100
AcDbXrecord
280
     1
102
RTVSPropertyOp0
 70
     1
102
RTVSPropertyOp1
 70
     1
102
RTVSPropertyOp2
 70
     1
102
RTVSPropertyOp3
 70
     1
102
RTVSPropertyOp4
 70
     1
102
RTVSPropertyOp5
 70
     1
102
RTVSPropertyOp6
 70
     1
102
RTVSPropertyOp7
 70
     1
102
RTVSPropertyOp8
 70
     1
102
RTVSPropertyOp9
 70
     1
102
RTVSPropertyOp10
 70
     1
102
RTVSPropertyOp11
 70
     1
102
RTVSPropertyOp12
 70
     1
102
RTVSPropertyOp13
 70
     1
102
RTVSPropertyOp14
 70
     1
102
RTVSPropertyOp15
 70
     1
102
RTVSPropertyOp16
 70
     1
102
RTVSPropertyOp17
 70
     1
102
RTVSPropertyOp18
 70
     1
102
RTVSPropertyOp19
 70
     1
102
RTVSPropertyOp20
 70
     1
102
RTVSPropertyOp21
 70
     1
102
RTVSPropertyOp22
 70
     1
102
RTVSPropertyOp23
 70
     1
102
RTVSPropertyOp24
 70
     1
102
RTVSPropertyOp25
 70
     1
102
RTVSPropertyOp26
 70
     1
102
RTVSPropertyOp27
 70
     1
102
RTVSPropertyOp28
 70
     1
102
RTVSPropertyOp29
 70
     1
102
RTVSPropertyOp30
 70
     1
102
RTVSPropertyOp31
 70
     1
102
RTVSPropertyOp32
 70
     1
102
RTVSPropertyOp33
 70
     1
102
RTVSPropertyOp34
 70
     1
102
RTVSPropertyOp35
 70
     1
102
RTVSPropertyOp36
 70
     1
102
RTVSPropertyOp37
 70
     1
102
RTVSPropertyOp38
 70
     1
102
RTVSPropertyOp39
 70
     1
102
RTVSPropertyOp40
 70
     1
102
RTVSPropertyOp41
 70
     1
102
RTVSPropertyOp42
 70
     1
102
RTVSPropertyOp43
 70
     1
102
RTVSPropertyOp44
 70
     1
102
RTVSPropertyOp45
 70
     1
102
RTVSPropertyOp46
 70
     1
102
RTVSPropertyOp47
 70
     1
102
RTVSPropertyOp48
 70
     1
102
RTVSPropertyOp49
 70
     1
102
RTVSPropertyOp50
 70
     1
102
RTVSPropertyOp51
 70
     0
102
RTVSPropertyOp52
 70
     0
102
RTVSPropertyOp53
 70
     1
102
RTVSPropertyOp54
 70
     1
102
RTVSPropertyOp55
 70
     1
102
RTVSPropertyOp56
 70
     1
102
RTVSPropertyOp57
 70
     1
102
RTVSPost2010Prop28
280
     0
102
RTVSPost2010PropOp28
 70
     1
102
RTVSPost2010Prop29
280
     1
102
RTVSPost2010PropOp29
 70
     1
102
RTVSPost2010Prop30
280
     1
102
RTVSPost2010PropOp30
 70
     1
102
RTVSPost2010Prop31
280
     0
102
RTVSPost2010PropOp31
 70
     1
102
RTVSPost2010Prop32
280
     0
102
RTVSPost2010PropOp32
 70
     1
102
RTVSPost2010Prop33
280
     0
102
RTVSPost2010PropOp33
 70
     1
102
RTVSPost2010Prop34
280
     0
102
RTVSPost2010PropOp34
 70
     1
102
RTVSPost2010Prop35
280
     0
102
RTVSPost2010PropOp35
 70
     1
102
RTVSPost2010Prop36
280
     0
102
RTVSPost2010PropOp36
 70
     1
102
RTVSPost2010Prop37
 90
       50
102
RTVSPost2010PropOp37
 70
     1
102
RTVSPost2010Prop38
140
0.0
102
RTVSPost2010PropOp38
 70
     1
102
RTVSPost2010Prop39
140
1.0
102
RTVSPost2010PropOp39
 70
     1
102
RTVSPost2010Prop40
 90
        0
102
RTVSPost2010PropOp40
 70
     1
102
RTVSPost2010Prop41ColorIndex
 90
       18
102
RTVSPost2010Prop41ColorRGB
 90
        0
102
RTVSPost2010PropOp41
 70
     1
102
RTVSPost2010Prop42
 90
       50
102
RTVSPost2010PropOp42
 70
     1
102
RTVSPost2010Prop43
 90
        3
102
RTVSPost2010PropOp43
 70
     1
102
RTVSPost2010Prop44ColorIndex
 90
        5
102
RTVSPost2010Prop44ColorRGB
 90
      255
102
RTVSPost2010PropOp44
 70
     1
102
RTVSPost2010Prop45
280
     0
102
RTVSPost2010PropOp45
 70
     1
102
RTVSPost2010Prop46
 90
       50
102
RTVSPost2010PropOp46
 70
     1
102
RTVSPost2010Prop47
 90
       50
102
RTVSPost2010PropOp47
 70
     1
102
RTVSPost2010Prop48
 90
       50
102
RTVSPost2010PropOp48
 70
     1
102
RTVSPost2010Prop49
280
     0
102
RTVSPost2010PropOp49
 70
     1
102
RTVSPost2010Prop50
 90
       50
102
RTVSPost2010PropOp50
 70
     1
102
RTVSPost2010Prop51ColorIndex
 90
      256
102
RTVSPost2010Prop51ColorRGB
 90
-16777216
102
RTVSPost2010PropOp51
 70
     0
102
RTVSPost2010Prop52
140
1.0
102
RTVSPost2010PropOp52
 70
     0
102
RTVSPost2010Prop53
 90
        2
102
RTVSPost2010PropOp53
 70
     1
102
RTVSPost2010Prop54
  1
strokes_ogs.tif
102
RTVSPost2010PropOp54
 70
     1
102
RTVSPost2010Prop55
280
     0
102
RTVSPost2010PropOp55
 70
     1
102
RTVSPost2010Prop56
140
1.0
102
RTVSPost2010PropOp56
 70
     1
102
RTVSPost2010Prop57
140
1.0
102
RTVSPost2010PropOp57
 70
     1
  0
XRECORD
  5
69C
102
{ACAD_REACTORS
330
69B
102
}
330
69B
100
AcDbXrecord
280
     1
102
RTVSPropertyOp0
 70
     1
102
RTVSPropertyOp1
 70
     1
102
RTVSPropertyOp2
 70
     1
102
RTVSPropertyOp3
 70
     1
102
RTVSPropertyOp4
 70
     1
102
RTVSPropertyOp5
 70
     1
102
RTVSPropertyOp6
 70
     1
102
RTVSPropertyOp7
 70
     1
102
RTVSPropertyOp8
 70
     1
102
RTVSPropertyOp9
 70
     1
102
RTVSPropertyOp10
 70
     1
102
RTVSPropertyOp11
 70
     1
102
RTVSPropertyOp12
 70
     1
102
RTVSPropertyOp13
 70
     1
102
RTVSPropertyOp14
 70
     1
102
RTVSPropertyOp15
 70
     1
102
RTVSPropertyOp16
 70
     1
102
RTVSPropertyOp17
 70
     1
102
RTVSPropertyOp18
 70
     1
102
RTVSPropertyOp19
 70
     1
102
RTVSPropertyOp20
 70
     1
102
RTVSPropertyOp21
 70
     1
102
RTVSPropertyOp22
 70
     1
102
RTVSPropertyOp23
 70
     1
102
RTVSPropertyOp24
 70
     1
102
RTVSPropertyOp25
 70
     1
102
RTVSPropertyOp26
 70
     1
102
RTVSPropertyOp27
 70
     1
102
RTVSPropertyOp28
 70
     1
102
RTVSPropertyOp29
 70
     1
102
RTVSPropertyOp30
 70
     1
102
RTVSPropertyOp31
 70
     1
102
RTVSPropertyOp32
 70
     1
102
RTVSPropertyOp33
 70
     1
102
RTVSPropertyOp34
 70
     1
102
RTVSPropertyOp35
 70
     1
102
RTVSPropertyOp36
 70
     1
102
RTVSPropertyOp37
 70
     1
102
RTVSPropertyOp38
 70
     1
102
RTVSPropertyOp39
 70
     1
102
RTVSPropertyOp40
 70
     1
102
RTVSPropertyOp41
 70
     1
102
RTVSPropertyOp42
 70
     1
102
RTVSPropertyOp43
 70
     1
102
RTVSPropertyOp44
 70
     1
102
RTVSPropertyOp45
 70
     1
102
RTVSPropertyOp46
 70
     1
102
RTVSPropertyOp47
 70
     1
102
RTVSPropertyOp48
 70
     1
102
RTVSPropertyOp49
 70
     1
102
RTVSPropertyOp50
 70
     1
102
RTVSPropertyOp51
 70
     0
102
RTVSPropertyOp52
 70
     0
102
RTVSPropertyOp53
 70
     1
102
RTVSPropertyOp54
 70
     1
102
RTVSPropertyOp55
 70
     1
102
RTVSPropertyOp56
 70
     1
102
RTVSPropertyOp57
 70
     1
102
RTVSPost2010Prop28
280
     0
102
RTVSPost2010PropOp28
 70
     1
102
RTVSPost2010Prop29
280
     1
102
RTVSPost2010PropOp29
 70
     1
102
RTVSPost2010Prop30
280
     1
102
RTVSPost2010PropOp30
 70
     1
102
RTVSPost2010Prop31
280
     0
102
RTVSPost2010PropOp31
 70
     1
102
RTVSPost2010Prop32
280
     0
102
RTVSPost2010PropOp32
 70
     1
102
RTVSPost2010Prop33
280
     0
102
RTVSPost2010PropOp33
 70
     1
102
RTVSPost2010Prop34
280
     0
102
RTVSPost2010PropOp34
 70
     1
102
RTVSPost2010Prop35
280
     0
102
RTVSPost2010PropOp35
 70
     1
102
RTVSPost2010Prop36
280
     0
102
RTVSPost2010PropOp36
 70
     1
102
RTVSPost2010Prop37
 90
       50
102
RTVSPost2010PropOp37
 70
     1
102
RTVSPost2010Prop38
140
0.0
102
RTVSPost2010PropOp38
 70
     1
102
RTVSPost2010Prop39
140
1.0
102
RTVSPost2010PropOp39
 70
     1
102
RTVSPost2010Prop40
 90
        0
102
RTVSPost2010PropOp40
 70
     1
102
RTVSPost2010Prop41ColorIndex
 90
       18
102
RTVSPost2010Prop41ColorRGB
 90
        0
102
RTVSPost2010PropOp41
 70
     1
102
RTVSPost2010Prop42
 90
       50
102
RTVSPost2010PropOp42
 70
     1
102
RTVSPost2010Prop43
 90
        3
102
RTVSPost2010PropOp43
 70
     1
102
RTVSPost2010Prop44ColorIndex
 90
        5
102
RTVSPost2010Prop44ColorRGB
 90
      255
102
RTVSPost2010PropOp44
 70
     1
102
RTVSPost2010Prop45
280
     0
102
RTVSPost2010PropOp45
 70
     1
102
RTVSPost2010Prop46
 90
       50
102
RTVSPost2010PropOp46
 70
     1
102
RTVSPost2010Prop47
 90
       50
102
RTVSPost2010PropOp47
 70
     1
102
RTVSPost2010Prop48
 90
       50
102
RTVSPost2010PropOp48
 70
     1
102
RTVSPost2010Prop49
280
     0
102
RTVSPost2010PropOp49
 70
     1
102
RTVSPost2010Prop50
 90
       50
102
RTVSPost2010PropOp50
 70
     1
102
RTVSPost2010Prop51ColorIndex
 90
      256
102
RTVSPost2010Prop51ColorRGB
 90
-16777216
102
RTVSPost2010PropOp51
 70
     0
102
RTVSPost2010Prop52
140
1.0
102
RTVSPost2010PropOp52
 70
     0
102
RTVSPost2010Prop53
 90
        2
102
RTVSPost2010PropOp53
 70
     1
102
RTVSPost2010Prop54
  1
strokes_ogs.tif
102
RTVSPost2010PropOp54
 70
     1
102
RTVSPost2010Prop55
280
     0
102
RTVSPost2010PropOp55
 70
     1
102
RTVSPost2010Prop56
140
1.0
102
RTVSPost2010PropOp56
 70
     1
102
RTVSPost2010Prop57
140
1.0
102
RTVSPost2010PropOp57
 70
     1
  0
XRECORD
  5
68C
102
{ACAD_REACTORS
330
68B
102
}
330
68B
100
AcDbXrecord
280
     1
102
RTVSPropertyOp0
 70
     1
102
RTVSPropertyOp1
 70
     1
102
RTVSPropertyOp2
 70
     1
102
RTVSPropertyOp3
 70
     1
102
RTVSPropertyOp4
 70
     1
102
RTVSPropertyOp5
 70
     1
102
RTVSPropertyOp6
 70
     1
102
RTVSPropertyOp7
 70
     1
102
RTVSPropertyOp8
 70
     1
102
RTVSPropertyOp9
 70
     1
102
RTVSPropertyOp10
 70
     1
102
RTVSPropertyOp11
 70
     1
102
RTVSPropertyOp12
 70
     1
102
RTVSPropertyOp13
 70
     1
102
RTVSPropertyOp14
 70
     1
102
RTVSPropertyOp15
 70
     1
102
RTVSPropertyOp16
 70
     1
102
RTVSPropertyOp17
 70
     1
102
RTVSPropertyOp18
 70
     1
102
RTVSPropertyOp19
 70
     1
102
RTVSPropertyOp20
 70
     1
102
RTVSPropertyOp21
 70
     1
102
RTVSPropertyOp22
 70
     1
102
RTVSPropertyOp23
 70
     1
102
RTVSPropertyOp24
 70
     1
102
RTVSPropertyOp25
 70
     1
102
RTVSPropertyOp26
 70
     1
102
RTVSPropertyOp27
 70
     1
102
RTVSPropertyOp28
 70
     1
102
RTVSPropertyOp29
 70
     1
102
RTVSPropertyOp30
 70
     1
102
RTVSPropertyOp31
 70
     1
102
RTVSPropertyOp32
 70
     1
102
RTVSPropertyOp33
 70
     1
102
RTVSPropertyOp34
 70
     1
102
RTVSPropertyOp35
 70
     1
102
RTVSPropertyOp36
 70
     1
102
RTVSPropertyOp37
 70
     1
102
RTVSPropertyOp38
 70
     1
102
RTVSPropertyOp39
 70
     1
102
RTVSPropertyOp40
 70
     1
102
RTVSPropertyOp41
 70
     1
102
RTVSPropertyOp42
 70
     1
102
RTVSPropertyOp43
 70
     1
102
RTVSPropertyOp44
 70
     1
102
RTVSPropertyOp45
 70
     1
102
RTVSPropertyOp46
 70
     1
102
RTVSPropertyOp47
 70
     1
102
RTVSPropertyOp48
 70
     1
102
RTVSPropertyOp49
 70
     1
102
RTVSPropertyOp50
 70
     1
102
RTVSPropertyOp51
 70
     0
102
RTVSPropertyOp52
 70
     0
102
RTVSPropertyOp53
 70
     1
102
RTVSPropertyOp54
 70
     1
102
RTVSPropertyOp55
 70
     1
102
RTVSPropertyOp56
 70
     1
102
RTVSPropertyOp57
 70
     1
102
RTVSPost2010Prop28
280
     0
102
RTVSPost2010PropOp28
 70
     1
102
RTVSPost2010Prop29
280
     1
102
RTVSPost2010PropOp29
 70
     1
102
RTVSPost2010Prop30
280
     1
102
RTVSPost2010PropOp30
 70
     1
102
RTVSPost2010Prop31
280
     0
102
RTVSPost2010PropOp31
 70
     1
102
RTVSPost2010Prop32
280
     0
102
RTVSPost2010PropOp32
 70
     1
102
RTVSPost2010Prop33
280
     0
102
RTVSPost2010PropOp33
 70
     1
102
RTVSPost2010Prop34
280
     0
102
RTVSPost2010PropOp34
 70
     1
102
RTVSPost2010Prop35
280
     0
102
RTVSPost2010PropOp35
 70
     1
102
RTVSPost2010Prop36
280
     0
102
RTVSPost2010PropOp36
 70
     1
102
RTVSPost2010Prop37
 90
       50
102
RTVSPost2010PropOp37
 70
     1
102
RTVSPost2010Prop38
140
0.0
102
RTVSPost2010PropOp38
 70
     1
102
RTVSPost2010Prop39
140
1.0
102
RTVSPost2010PropOp39
 70
     1
102
RTVSPost2010Prop40
 90
        0
102
RTVSPost2010PropOp40
 70
     1
102
RTVSPost2010Prop41ColorIndex
 90
       18
102
RTVSPost2010Prop41ColorRGB
 90
        0
102
RTVSPost2010PropOp41
 70
     1
102
RTVSPost2010Prop42
 90
       50
102
RTVSPost2010PropOp42
 70
     1
102
RTVSPost2010Prop43
 90
        3
102
RTVSPost2010PropOp43
 70
     1
102
RTVSPost2010Prop44ColorIndex
 90
        5
102
RTVSPost2010Prop44ColorRGB
 90
      255
102
RTVSPost2010PropOp44
 70
     1
102
RTVSPost2010Prop45
280
     0
102
RTVSPost2010PropOp45
 70
     1
102
RTVSPost2010Prop46
 90
       50
102
RTVSPost2010PropOp46
 70
     1
102
RTVSPost2010Prop47
 90
       50
102
RTVSPost2010PropOp47
 70
     1
102
RTVSPost2010Prop48
 90
       50
102
RTVSPost2010PropOp48
 70
     1
102
RTVSPost2010Prop49
280
     0
102
RTVSPost2010PropOp49
 70
     1
102
RTVSPost2010Prop50
 90
       50
102
RTVSPost2010PropOp50
 70
     1
102
RTVSPost2010Prop51ColorIndex
 90
      256
102
RTVSPost2010Prop51ColorRGB
 90
-16777216
102
RTVSPost2010PropOp51
 70
     0
102
RTVSPost2010Prop52
140
1.0
102
RTVSPost2010PropOp52
 70
     0
102
RTVSPost2010Prop53
 90
        2
102
RTVSPost2010PropOp53
 70
     1
102
RTVSPost2010Prop54
  1
strokes_ogs.tif
102
RTVSPost2010PropOp54
 70
     1
102
RTVSPost2010Prop55
280
     0
102
RTVSPost2010PropOp55
 70
     1
102
RTVSPost2010Prop56
140
1.0
102
RTVSPost2010PropOp56
 70
     1
102
RTVSPost2010Prop57
140
1.0
102
RTVSPost2010PropOp57
 70
     1
  0
XRECORD
  5
676
102
{ACAD_REACTORS
330
675
102
}
330
675
100
AcDbXrecord
280
     1
102
RTVSPropertyOp0
 70
     1
102
RTVSPropertyOp1
 70
     1
102
RTVSPropertyOp2
 70
     1
102
RTVSPropertyOp3
 70
     1
102
RTVSPropertyOp4
 70
     1
102
RTVSPropertyOp5
 70
     1
102
RTVSPropertyOp6
 70
     1
102
RTVSPropertyOp7
 70
     1
102
RTVSPropertyOp8
 70
     1
102
RTVSPropertyOp9
 70
     1
102
RTVSPropertyOp10
 70
     1
102
RTVSPropertyOp11
 70
     1
102
RTVSPropertyOp12
 70
     1
102
RTVSPropertyOp13
 70
     1
102
RTVSPropertyOp14
 70
     1
102
RTVSPropertyOp15
 70
     1
102
RTVSPropertyOp16
 70
     1
102
RTVSPropertyOp17
 70
     1
102
RTVSPropertyOp18
 70
     1
102
RTVSPropertyOp19
 70
     1
102
RTVSPropertyOp20
 70
     1
102
RTVSPropertyOp21
 70
     1
102
RTVSPropertyOp22
 70
     1
102
RTVSPropertyOp23
 70
     1
102
RTVSPropertyOp24
 70
     1
102
RTVSPropertyOp25
 70
     1
102
RTVSPropertyOp26
 70
     1
102
RTVSPropertyOp27
 70
     1
102
RTVSPropertyOp28
 70
     1
102
RTVSPropertyOp29
 70
     1
102
RTVSPropertyOp30
 70
     1
102
RTVSPropertyOp31
 70
     1
102
RTVSPropertyOp32
 70
     1
102
RTVSPropertyOp33
 70
     1
102
RTVSPropertyOp34
 70
     1
102
RTVSPropertyOp35
 70
     1
102
RTVSPropertyOp36
 70
     1
102
RTVSPropertyOp37
 70
     1
102
RTVSPropertyOp38
 70
     1
102
RTVSPropertyOp39
 70
     1
102
RTVSPropertyOp40
 70
     1
102
RTVSPropertyOp41
 70
     1
102
RTVSPropertyOp42
 70
     1
102
RTVSPropertyOp43
 70
     1
102
RTVSPropertyOp44
 70
     1
102
RTVSPropertyOp45
 70
     1
102
RTVSPropertyOp46
 70
     1
102
RTVSPropertyOp47
 70
     1
102
RTVSPropertyOp48
 70
     1
102
RTVSPropertyOp49
 70
     1
102
RTVSPropertyOp50
 70
     1
102
RTVSPropertyOp51
 70
     0
102
RTVSPropertyOp52
 70
     0
102
RTVSPropertyOp53
 70
     1
102
RTVSPropertyOp54
 70
     1
102
RTVSPropertyOp55
 70
     1
102
RTVSPropertyOp56
 70
     1
102
RTVSPropertyOp57
 70
     1
102
RTVSPost2010Prop28
280
     0
102
RTVSPost2010PropOp28
 70
     1
102
RTVSPost2010Prop29
280
     1
102
RTVSPost2010PropOp29
 70
     1
102
RTVSPost2010Prop30
280
     1
102
RTVSPost2010PropOp30
 70
     1
102
RTVSPost2010Prop31
280
     0
102
RTVSPost2010PropOp31
 70
     1
102
RTVSPost2010Prop32
280
     0
102
RTVSPost2010PropOp32
 70
     1
102
RTVSPost2010Prop33
280
     0
102
RTVSPost2010PropOp33
 70
     1
102
RTVSPost2010Prop34
280
     0
102
RTVSPost2010PropOp34
 70
     1
102
RTVSPost2010Prop35
280
     0
102
RTVSPost2010PropOp35
 70
     1
102
RTVSPost2010Prop36
280
     0
102
RTVSPost2010PropOp36
 70
     1
102
RTVSPost2010Prop37
 90
       50
102
RTVSPost2010PropOp37
 70
     1
102
RTVSPost2010Prop38
140
0.0
102
RTVSPost2010PropOp38
 70
     1
102
RTVSPost2010Prop39
140
1.0
102
RTVSPost2010PropOp39
 70
     1
102
RTVSPost2010Prop40
 90
        0
102
RTVSPost2010PropOp40
 70
     1
102
RTVSPost2010Prop41ColorIndex
 90
       18
102
RTVSPost2010Prop41ColorRGB
 90
        0
102
RTVSPost2010PropOp41
 70
     1
102
RTVSPost2010Prop42
 90
       50
102
RTVSPost2010PropOp42
 70
     1
102
RTVSPost2010Prop43
 90
        3
102
RTVSPost2010PropOp43
 70
     1
102
RTVSPost2010Prop44ColorIndex
 90
        5
102
RTVSPost2010Prop44ColorRGB
 90
      255
102
RTVSPost2010PropOp44
 70
     1
102
RTVSPost2010Prop45
280
     0
102
RTVSPost2010PropOp45
 70
     1
102
RTVSPost2010Prop46
 90
       50
102
RTVSPost2010PropOp46
 70
     1
102
RTVSPost2010Prop47
 90
       50
102
RTVSPost2010PropOp47
 70
     1
102
RTVSPost2010Prop48
 90
       50
102
RTVSPost2010PropOp48
 70
     1
102
RTVSPost2010Prop49
280
     0
102
RTVSPost2010PropOp49
 70
     1
102
RTVSPost2010Prop50
 90
       50
102
RTVSPost2010PropOp50
 70
     1
102
RTVSPost2010Prop51ColorIndex
 90
      256
102
RTVSPost2010Prop51ColorRGB
 90
-16777216
102
RTVSPost2010PropOp51
 70
     0
102
RTVSPost2010Prop52
140
1.0
102
RTVSPost2010PropOp52
 70
     0
102
RTVSPost2010Prop53
 90
        2
102
RTVSPost2010PropOp53
 70
     1
102
RTVSPost2010Prop54
  1
strokes_ogs.tif
102
RTVSPost2010PropOp54
 70
     1
102
RTVSPost2010Prop55
280
     0
102
RTVSPost2010PropOp55
 70
     1
102
RTVSPost2010Prop56
140
1.0
102
RTVSPost2010PropOp56
 70
     1
102
RTVSPost2010Prop57
140
1.0
102
RTVSPost2010PropOp57
 70
     1
  0
XRECORD
  5
69E
102
{ACAD_REACTORS
330
69D
102
}
330
69D
100
AcDbXrecord
280
     1
102
RTVSPropertyOp0
 70
     1
102
RTVSPropertyOp1
 70
     1
102
RTVSPropertyOp2
 70
     1
102
RTVSPropertyOp3
 70
     1
102
RTVSPropertyOp4
 70
     1
102
RTVSPropertyOp5
 70
     1
102
RTVSPropertyOp6
 70
     1
102
RTVSPropertyOp7
 70
     1
102
RTVSPropertyOp8
 70
     1
102
RTVSPropertyOp9
 70
     1
102
RTVSPropertyOp10
 70
     1
102
RTVSPropertyOp11
 70
     1
102
RTVSPropertyOp12
 70
     1
102
RTVSPropertyOp13
 70
     1
102
RTVSPropertyOp14
 70
     1
102
RTVSPropertyOp15
 70
     1
102
RTVSPropertyOp16
 70
     1
102
RTVSPropertyOp17
 70
     1
102
RTVSPropertyOp18
 70
     1
102
RTVSPropertyOp19
 70
     1
102
RTVSPropertyOp20
 70
     1
102
RTVSPropertyOp21
 70
     1
102
RTVSPropertyOp22
 70
     1
102
RTVSPropertyOp23
 70
     1
102
RTVSPropertyOp24
 70
     1
102
RTVSPropertyOp25
 70
     1
102
RTVSPropertyOp26
 70
     1
102
RTVSPropertyOp27
 70
     1
102
RTVSPropertyOp28
 70
     1
102
RTVSPropertyOp29
 70
     1
102
RTVSPropertyOp30
 70
     1
102
RTVSPropertyOp31
 70
     1
102
RTVSPropertyOp32
 70
     1
102
RTVSPropertyOp33
 70
     1
102
RTVSPropertyOp34
 70
     1
102
RTVSPropertyOp35
 70
     1
102
RTVSPropertyOp36
 70
     1
102
RTVSPropertyOp37
 70
     1
102
RTVSPropertyOp38
 70
     1
102
RTVSPropertyOp39
 70
     1
102
RTVSPropertyOp40
 70
     1
102
RTVSPropertyOp41
 70
     1
102
RTVSPropertyOp42
 70
     1
102
RTVSPropertyOp43
 70
     1
102
RTVSPropertyOp44
 70
     1
102
RTVSPropertyOp45
 70
     1
102
RTVSPropertyOp46
 70
     1
102
RTVSPropertyOp47
 70
     1
102
RTVSPropertyOp48
 70
     1
102
RTVSPropertyOp49
 70
     1
102
RTVSPropertyOp50
 70
     1
102
RTVSPropertyOp51
 70
     0
102
RTVSPropertyOp52
 70
     0
102
RTVSPropertyOp53
 70
     1
102
RTVSPropertyOp54
 70
     1
102
RTVSPropertyOp55
 70
     1
102
RTVSPropertyOp56
 70
     1
102
RTVSPropertyOp57
 70
     1
102
RTVSPost2010Prop28
280
     0
102
RTVSPost2010PropOp28
 70
     1
102
RTVSPost2010Prop29
280
     1
102
RTVSPost2010PropOp29
 70
     1
102
RTVSPost2010Prop30
280
     1
102
RTVSPost2010PropOp30
 70
     1
102
RTVSPost2010Prop31
280
     0
102
RTVSPost2010PropOp31
 70
     1
102
RTVSPost2010Prop32
280
     0
102
RTVSPost2010PropOp32
 70
     1
102
RTVSPost2010Prop33
280
     0
102
RTVSPost2010PropOp33
 70
     1
102
RTVSPost2010Prop34
280
     0
102
RTVSPost2010PropOp34
 70
     1
102
RTVSPost2010Prop35
280
     0
102
RTVSPost2010PropOp35
 70
     1
102
RTVSPost2010Prop36
280
     0
102
RTVSPost2010PropOp36
 70
     1
102
RTVSPost2010Prop37
 90
       50
102
RTVSPost2010PropOp37
 70
     1
102
RTVSPost2010Prop38
140
0.0
102
RTVSPost2010PropOp38
 70
     1
102
RTVSPost2010Prop39
140
1.0
102
RTVSPost2010PropOp39
 70
     1
102
RTVSPost2010Prop40
 90
        0
102
RTVSPost2010PropOp40
 70
     1
102
RTVSPost2010Prop41ColorIndex
 90
       18
102
RTVSPost2010Prop41ColorRGB
 90
        0
102
RTVSPost2010PropOp41
 70
     1
102
RTVSPost2010Prop42
 90
       50
102
RTVSPost2010PropOp42
 70
     1
102
RTVSPost2010Prop43
 90
        3
102
RTVSPost2010PropOp43
 70
     1
102
RTVSPost2010Prop44ColorIndex
 90
        5
102
RTVSPost2010Prop44ColorRGB
 90
      255
102
RTVSPost2010PropOp44
 70
     1
102
RTVSPost2010Prop45
280
     0
102
RTVSPost2010PropOp45
 70
     1
102
RTVSPost2010Prop46
 90
       50
102
RTVSPost2010PropOp46
 70
     1
102
RTVSPost2010Prop47
 90
       50
102
RTVSPost2010PropOp47
 70
     1
102
RTVSPost2010Prop48
 90
       50
102
RTVSPost2010PropOp48
 70
     1
102
RTVSPost2010Prop49
280
     0
102
RTVSPost2010PropOp49
 70
     1
102
RTVSPost2010Prop50
 90
       50
102
RTVSPost2010PropOp50
 70
     1
102
RTVSPost2010Prop51ColorIndex
 90
      256
102
RTVSPost2010Prop51ColorRGB
 90
-16777216
102
RTVSPost2010PropOp51
 70
     0
102
RTVSPost2010Prop52
140
1.0
102
RTVSPost2010PropOp52
 70
     0
102
RTVSPost2010Prop53
 90
        2
102
RTVSPost2010PropOp53
 70
     1
102
RTVSPost2010Prop54
  1
strokes_ogs.tif
102
RTVSPost2010PropOp54
 70
     1
102
RTVSPost2010Prop55
280
     0
102
RTVSPost2010PropOp55
 70
     1
102
RTVSPost2010Prop56
140
1.0
102
RTVSPost2010PropOp56
 70
     1
102
RTVSPost2010Prop57
140
1.0
102
RTVSPost2010PropOp57
 70
     1
  0
ENDSEC
  0
EOF
