  0
SECTION
  2
HEADER
  9
$ACADVER
  1
AC1015
  9
$ACADMAINTVER
 70
     6
  9
$DWGCODEPAGE
  3
ANSI_932
  9
$INSBASE
 10
1722.507507901773
 20
686.4894832533719
 30
0.0
  9
$EXTMIN
 10
109.4279407656852
 20
47.58679498521406
 30
0.0
  9
$EXTMAX
 10
1165.462097133873
 20
730.7243337516006
 30
0.0
  9
$LIMMIN
 10
0.0
 20
0.0
  9
$LIMMAX
 10
816.5000000000001
 20
565.0
  9
$ORTHOMODE
 70
     0
  9
$REGENMODE
 70
     1
  9
$FILLMODE
 70
     1
  9
$QTEXTMODE
 70
     0
  9
$MIRRTEXT
 70
     1
  9
$LTSCALE
 40
5.0
  9
$ATTMODE
 70
     1
  9
$TEXTSIZE
 40
7.5
  9
$TRACEWID
 40
0.05
  9
$TEXTSTYLE
  7
KANJI
  9
$CLAYER
  8
2
  9
$CELTYPE
  6
BYLAYER
  9
$CECOLOR
 62
   256
  9
$CELTSCALE
 40
1.0
  9
$DISPSILH
 70
     0
  9
$DIMSCALE
 40
2.5
  9
$DIMASZ
 40
2.0
  9
$DIMEXO
 40
0.5
  9
$DIMDLI
 40
0.0
  9
$DIMRND
 40
0.0
  9
$DIMDLE
 40
0.0
  9
$DIMEXE
 40
1.0
  9
$DIMTP
 40
0.0
  9
$DIMTM
 40
0.0
  9
$DIMTXT
 40
3.0
  9
$DIMCEN
 40
0.09
  9
$DIMTSZ
 40
0.0
  9
$DIMTOL
 70
     0
  9
$DIMLIM
 70
     0
  9
$DIMTIH
 70
     0
  9
$DIMTOH
 70
     0
  9
$DIMSE1
 70
     0
  9
$DIMSE2
 70
     0
  9
$DIMTAD
 70
     0
  9
$DIMZIN
 70
     8
  9
$DIMBLK
  1

  9
$DIMASO
 70
     0
  9
$DIMSHO
 70
     0
  9
$DIMPOST
  1

  9
$DIMAPOST
  1

  9
$DIMALT
 70
     0
  9
$DIMALTD
 70
     2
  9
$DIMALTF
 40
25.4
  9
$DIMLFAC
 40
1.0
  9
$DIMTOFL
 70
     1
  9
$DIMTVP
 40
1.0
  9
$DIMTIX
 70
     1
  9
$DIMSOXD
 70
     1
  9
$DIMSAH
 70
     0
  9
$DIMBLK1
  1

  9
$DIMBLK2
  1

  9
$DIMSTYLE
  2
STANDARD
  9
$DIMCLRD
 70
   256
  9
$DIMCLRE
 70
   256
  9
$DIMCLRT
 70
   256
  9
$DIMTFAC
 40
1.0
  9
$DIMGAP
 40
0.09
  9
$DIMJUST
 70
     0
  9
$DIMSD1
 70
     0
  9
$DIMSD2
 70
     0
  9
$DIMTOLJ
 70
     1
  9
$DIMTZIN
 70
     0
  9
$DIMALTZ
 70
     0
  9
$DIMALTTZ
 70
     0
  9
$DIMUPT
 70
     0
  9
$DIMDEC
 70
     1
  9
$DIMTDEC
 70
     4
  9
$DIMALTU
 70
     2
  9
$DIMALTTD
 70
     2
  9
$DIMTXSTY
  7
STANDARD
  9
$DIMAUNIT
 70
     0
  9
$DIMADEC
 70
     0
  9
$DIMALTRND
 40
0.0
  9
$DIMAZIN
 70
     0
  9
$DIMDSEP
 70
    46
  9
$DIMATFIT
 70
     3
  9
$DIMFRAC
 70
     0
  9
$DIMLDRBLK
  1

  9
$DIMLUNIT
 70
     2
  9
$DIMLWD
 70
    -2
  9
$DIMLWE
 70
    -2
  9
$DIMTMOVE
 70
     0
  9
$LUNITS
 70
     2
  9
$LUPREC
 70
     3
  9
$SKETCHINC
 40
0.1
  9
$FILLETRAD
 40
2.0
  9
$AUNITS
 70
     0
  9
$AUPREC
 70
     3
  9
$MENU
  1
C:\R13\WIN\SUPPORT\ACADFULL
  9
$ELEVATION
 40
0.0
  9
$PELEVATION
 40
0.0
  9
$THICKNESS
 40
0.0
  9
$LIMCHECK
 70
     0
  9
$CHAMFERA
 40
0.0
  9
$CHAMFERB
 40
0.0
  9
$CHAMFERC
 40
0.0
  9
$CHAMFERD
 40
0.0
  9
$SKPOLY
 70
     0
  9
$TDCREATE
 40
2457648.704660463
  9
$TDUCREATE
 40
2457648.329660463
  9
$TDUPDATE
 40
2457870.601843206
  9
$TDUUPDATE
 40
2457870.226843206
  9
$TDINDWG
 40
0.0341497338
  9
$TDUSRTIMER
 40
0.0341492593
  9
$USRTIMER
 70
     1
  9
$ANGBASE
 50
0.0
  9
$ANGDIR
 70
     0
  9
$PDMODE
 70
     0
  9
$PDSIZE
 40
0.0
  9
$PLINEWID
 40
0.0
  9
$SPLFRAME
 70
     0
  9
$SPLINETYPE
 70
     6
  9
$SPLINESEGS
 70
     8
  9
$HANDSEED
  5
60B
  9
$SURFTAB1
 70
     6
  9
$SURFTAB2
 70
     6
  9
$SURFTYPE
 70
     6
  9
$SURFU
 70
     6
  9
$SURFV
 70
     6
  9
$UCSBASE
  2

  9
$UCSNAME
  2

  9
$UCSORG
 10
0.0
 20
0.0
 30
0.0
  9
$UCSXDIR
 10
1.0
 20
0.0
 30
0.0
  9
$UCSYDIR
 10
0.0
 20
1.0
 30
0.0
  9
$UCSORTHOREF
  2

  9
$UCSORTHOVIEW
 70
     0
  9
$UCSORGTOP
 10
0.0
 20
0.0
 30
0.0
  9
$UCSORGBOTTOM
 10
0.0
 20
0.0
 30
0.0
  9
$UCSORGLEFT
 10
0.0
 20
0.0
 30
0.0
  9
$UCSORGRIGHT
 10
0.0
 20
0.0
 30
0.0
  9
$UCSORGFRONT
 10
0.0
 20
0.0
 30
0.0
  9
$UCSORGBACK
 10
0.0
 20
0.0
 30
0.0
  9
$PUCSBASE
  2

  9
$PUCSNAME
  2

  9
$PUCSORG
 10
0.0
 20
0.0
 30
0.0
  9
$PUCSXDIR
 10
1.0
 20
0.0
 30
0.0
  9
$PUCSYDIR
 10
0.0
 20
1.0
 30
0.0
  9
$PUCSORTHOREF
  2

  9
$PUCSORTHOVIEW
 70
     0
  9
$PUCSORGTOP
 10
0.0
 20
0.0
 30
0.0
  9
$PUCSORGBOTTOM
 10
0.0
 20
0.0
 30
0.0
  9
$PUCSORGLEFT
 10
0.0
 20
0.0
 30
0.0
  9
$PUCSORGRIGHT
 10
0.0
 20
0.0
 30
0.0
  9
$PUCSORGFRONT
 10
0.0
 20
0.0
 30
0.0
  9
$PUCSORGBACK
 10
0.0
 20
0.0
 30
0.0
  9
$USERI1
 70
     0
  9
$USERI2
 70
     0
  9
$USERI3
 70
     0
  9
$USERI4
 70
     0
  9
$USERI5
 70
     0
  9
$USERR1
 40
0.0
  9
$USERR2
 40
0.0
  9
$USERR3
 40
0.0
  9
$USERR4
 40
2448925.372986111
  9
$USERR5
 40
0.04166667
  9
$WORLDVIEW
 70
     1
  9
$SHADEDGE
 70
     3
  9
$SHADEDIF
 70
    70
  9
$TILEMODE
 70
     1
  9
$MAXACTVP
 70
    16
  9
$PINSBASE
 10
0.0
 20
0.0
 30
0.0
  9
$PLIMCHECK
 70
     0
  9
$PEXTMIN
 10
1.000000000000000E+20
 20
1.000000000000000E+20
 30
1.000000000000000E+20
  9
$PEXTMAX
 10
-1.000000000000000E+20
 20
-1.000000000000000E+20
 30
-1.000000000000000E+20
  9
$PLIMMIN
 10
0.0
 20
0.0
  9
$PLIMMAX
 10
12.0
 20
9.0
  9
$UNITMODE
 70
     0
  9
$VISRETAIN
 70
     0
  9
$PLINEGEN
 70
     0
  9
$PSLTSCALE
 70
     0
  9
$TREEDEPTH
 70
  3020
  9
$CMLSTYLE
  2
STANDARD
  9
$CMLJUST
 70
     0
  9
$CMLSCALE
 40
1.0
  9
$PROXYGRAPHICS
 70
     1
  9
$MEASUREMENT
 70
     0
  9
$CELWEIGHT
370
    -1
  9
$ENDCAPS
280
     0
  9
$JOINSTYLE
280
     0
  9
$LWDISPLAY
290
     0
  9
$INSUNITS
 70
     0
  9
$HYPERLINKBASE
  1

  9
$STYLESHEET
  1
monochrome.ctb
  9
$XEDIT
290
     1
  9
$CEPSNTYPE
380
     0
  9
$PSTYLEMODE
290
     1
  9
$FINGERPRINTGUID
  2
{BA8486BD-1A7E-4FFB-8941-E80541FD545D}
  9
$VERSIONGUID
  2
{DB7580A4-391C-4C40-8DB2-EB97648A5FEB}
  9
$EXTNAMES
290
     1
  9
$PSVPSCALE
 40
0.0
  9
$OLESTARTUP
290
     0
  0
ENDSEC
  0
SECTION
  2
CLASSES
  0
CLASS
  1
ACDBDICTIONARYWDFLT
  2
AcDbDictionaryWithDefault
  3
ObjectDBX Classes
 90
        0
280
     0
281
     0
  0
CLASS
  1
MATERIAL
  2
AcDbMaterial
  3
ObjectDBX Classes
 90
     1153
280
     0
281
     0
  0
CLASS
  1
SORTENTSTABLE
  2
AcDbSortentsTable
  3
ObjectDBX Classes
 90
        0
280
     0
281
     0
  0
CLASS
  1
VISUALSTYLE
  2
AcDbVisualStyle
  3
ObjectDBX Classes
 90
     4095
280
     0
281
     0
  0
CLASS
  1
SCALE
  2
AcDbScale
  3
ObjectDBX Classes
 90
     1153
280
     0
281
     0
  0
CLASS
  1
DICTIONARYVAR
  2
AcDbDictionaryVar
  3
ObjectDBX Classes
 90
        0
280
     0
281
     0
  0
CLASS
  1
MLEADERSTYLE
  2
AcDbMLeaderStyle
  3
ACDB_MLEADERSTYLE_CLASS
 90
     4095
280
     0
281
     0
  0
CLASS
  1
TABLESTYLE
  2
AcDbTableStyle
  3
ObjectDBX Classes
 90
     4095
280
     0
281
     0
  0
CLASS
  1
ACDBPLACEHOLDER
  2
AcDbPlaceHolder
  3
ObjectDBX Classes
 90
        0
280
     0
281
     0
  0
CLASS
  1
LAYOUT
  2
AcDbLayout
  3
ObjectDBX Classes
 90
        0
280
     0
281
     0
  0
ENDSEC
  0
SECTION
  2
TABLES
  0
TABLE
  2
VPORT
  5
2D
102
{ACAD_XDICTIONARY
360
5D0
102
}
330
0
100
AcDbSymbolTable
 70
     1
  0
VPORT
  5
34
330
2D
100
AcDbSymbolTableRecord
100
AcDbViewportTableRecord
  2
*ACTIVE
 70
     0
 10
0.0
 20
0.0
 11
1.0
 21
1.0
 12
893.4388879258333
 22
355.0743428153486
 13
0.0
 23
0.0
 14
1.0
 24
1.0
 15
50.0
 25
50.0
 16
0.0
 26
0.0
 36
1.0
 17
0.0
 27
0.0
 37
0.0
 40
788.6285912545322
 41
2.177611940298507
 42
50.0
 43
0.0
 44
0.0
 50
0.0
 51
0.0
 71
     0
 72
  5000
 73
     1
 74
     0
 75
     0
 76
     0
 77
     0
 78
     0
281
     0
 65
     1
110
0.0
120
0.0
130
0.0
111
1.0
121
0.0
131
0.0
112
0.0
122
1.0
132
0.0
 79
     0
146
0.0
1001
ACAD_NAV_VCDISPLAY
1070
     3
  0
ENDTAB
  0
TABLE
  2
LTYPE
  5
F
330
0
100
AcDbSymbolTable
 70
     2
  0
LTYPE
  5
10
330
F
100
AcDbSymbolTableRecord
100
AcDbLinetypeTableRecord
  2
BYBLOCK
 70
     0
  3

 72
    65
 73
     0
 40
0.0
  0
LTYPE
  5
11
330
F
100
AcDbSymbolTableRecord
100
AcDbLinetypeTableRecord
  2
BYLAYER
 70
     0
  3

 72
    65
 73
     0
 40
0.0
  0
LTYPE
  5
E
330
F
100
AcDbSymbolTableRecord
100
AcDbLinetypeTableRecord
  2
CONTINUOUS
 70
     0
  3
Solid line
 72
    65
 73
     0
 40
0.0
  0
LTYPE
  5
77
330
F
100
AcDbSymbolTableRecord
100
AcDbLinetypeTableRecord
  2
CENTER
 70
     0
  3
____ _ ____ _ ____ _ ____ _ ____ _ ____ _ ____
 72
    65
 73
     4
 40
2.0
 49
1.25
 74
     0
 49
-0.25
 74
     0
 49
0.25
 74
     0
 49
-0.25
 74
     0
  0
ENDTAB
  0
TABLE
  2
LAYER
  5
2
102
{ACAD_XDICTIONARY
360
3
102
}
330
0
100
AcDbSymbolTable
 70
     7
  0
LAYER
  5
1F
102
{ACAD_XDICTIONARY
360
20
102
}
330
2
100
AcDbSymbolTableRecord
100
AcDbLayerTableRecord
  2
0
 70
     0
 62
     7
  6
CONTINUOUS
370
    -3
390
7
  0
LAYER
  5
26A
102
{ACAD_XDICTIONARY
360
26B
102
}
330
2
100
AcDbSymbolTableRecord
100
AcDbLayerTableRecord
  2
1
 70
     0
 62
     9
  6
CONTINUOUS
370
    -3
390
7
  0
LAYER
  5
1
102
{ACAD_XDICTIONARY
360
5
102
}
330
2
100
AcDbSymbolTableRecord
100
AcDbLayerTableRecord
  2
2
 70
     0
 62
     4
  6
CONTINUOUS
370
    -3
390
7
  0
LAYER
  5
5C
102
{ACAD_XDICTIONARY
360
5D
102
}
330
2
100
AcDbSymbolTableRecord
100
AcDbLayerTableRecord
  2
4
 70
     0
 62
     3
  6
CONTINUOUS
370
    -3
390
7
  0
LAYER
  5
74
102
{ACAD_XDICTIONARY
360
75
102
}
330
2
100
AcDbSymbolTableRecord
100
AcDbLayerTableRecord
  2
L-CENTER
 70
     0
 62
     1
  6
CENTER
370
    -3
390
7
  0
LAYER
  5
65
102
{ACAD_XDICTIONARY
360
66
102
}
330
2
100
AcDbSymbolTableRecord
100
AcDbLayerTableRecord
  2
3
 70
     0
 62
     2
  6
CONTINUOUS
370
    -3
390
7
  0
LAYER
  5
25C
330
2
100
AcDbSymbolTableRecord
100
AcDbLayerTableRecord
  2
5
 70
     0
 62
     6
  6
CONTINUOUS
370
    -3
390
7
  0
ENDTAB
  0
TABLE
  2
STYLE
  5
13
330
0
100
AcDbSymbolTable
 70
     2
  0
STYLE
  5
17
330
13
100
AcDbSymbolTableRecord
100
AcDbTextStyleTableRecord
  2
STANDARD
 70
     0
 40
0.0
 41
1.0
 50
0.0
 71
     0
 42
4.5
  3
TXT
  4

  0
STYLE
  5
12
330
13
100
AcDbSymbolTableRecord
100
AcDbTextStyleTableRecord
  2
KANJI
 70
     0
 40
0.0
 41
1.0
 50
0.0
 71
     0
 42
7.5
  3
TXT
  4
BIGFONT
  0
ENDTAB
  0
TABLE
  2
VIEW
  5
2B
330
0
100
AcDbSymbolTable
 70
     0
  0
ENDTAB
  0
TABLE
  2
UCS
  5
2C
330
0
100
AcDbSymbolTable
 70
     0
  0
ENDTAB
  0
TABLE
  2
APPID
  5
D
330
0
100
AcDbSymbolTable
 70
     4
  0
APPID
  5
C
330
D
100
AcDbSymbolTableRecord
100
AcDbRegAppTableRecord
  2
ACAD
 70
     0
  0
APPID
  5
35
330
D
100
AcDbSymbolTableRecord
100
AcDbRegAppTableRecord
  2
ACAD_NAV_VCDISPLAY
 70
     0
  0
APPID
  5
26
330
D
100
AcDbSymbolTableRecord
100
AcDbRegAppTableRecord
  2
ACAD_PSEXT
 70
     0
  0
APPID
  5
5BF
330
D
100
AcDbSymbolTableRecord
100
AcDbRegAppTableRecord
  2
ACAD_MLEADERVER
 70
     0
  0
ENDTAB
  0
TABLE
  2
DIMSTYLE
  5
16
330
0
100
AcDbSymbolTable
 70
     1
100
AcDbDimStyleTable
  0
DIMSTYLE
105
15
330
16
100
AcDbSymbolTableRecord
100
AcDbDimStyleTableRecord
  2
STANDARD
 70
     0
178
     0
340
17
  0
ENDTAB
  0
TABLE
  2
BLOCK_RECORD
  5
1A
330
0
100
AcDbSymbolTable
 70
     0
  0
BLOCK_RECORD
  5
1B
102
{ACAD_XDICTIONARY
360
1C
102
}
330
1A
100
AcDbSymbolTableRecord
100
AcDbBlockTableRecord
  2
*MODEL_SPACE
340
23
  0
BLOCK_RECORD
  5
27
330
1A
100
AcDbSymbolTableRecord
100
AcDbBlockTableRecord
  2
*PAPER_SPACE
340
2A
  0
ENDTAB
  0
ENDSEC
  0
SECTION
  2
BLOCKS
  0
BLOCK
  5
1E
330
1B
100
AcDbEntity
  8
0
100
AcDbBlockBegin
  2
*MODEL_SPACE
 70
     0
 10
0.0
 20
0.0
 30
0.0
  3
*MODEL_SPACE
  1

  0
ENDBLK
  5
22
330
1B
100
AcDbEntity
  8
0
100
AcDbBlockEnd
  0
BLOCK
  5
28
330
27
100
AcDbEntity
 67
     1
  8
0
100
AcDbBlockBegin
  2
*PAPER_SPACE
 70
     0
 10
0.0
 20
0.0
 30
0.0
  3
*PAPER_SPACE
  1

  0
ENDBLK
  5
29
330
27
100
AcDbEntity
 67
     1
  8
0
100
AcDbBlockEnd
  0
ENDSEC
  0
SECTION
  2
ENTITIES
  0
CIRCLE
  5
5B
330
1B
100
AcDbEntity
  8
4
100
AcDbCircle
 10
245.9210600073473
 20
174.5867949852141
 30
0.0
 40
105.0
  0
CIRCLE
  5
5F
330
1B
100
AcDbEntity
  8
4
100
AcDbCircle
 10
245.9210600073473
 20
174.5867949852141
 30
0.0
 40
93.0
  0
LINE
  5
69
330
1B
100
AcDbEntity
  8
4
100
AcDbLine
 10
173.4215500073474
 20
326.0867949852141
 30
0.0
 11
198.4215500073476
 21
326.0867949852141
 31
0.0
  0
LINE
  5
6A
330
1B
100
AcDbEntity
  8
4
100
AcDbLine
 10
173.4215500073474
 20
322.0867949852141
 30
0.0
 11
198.4215500073476
 21
322.0867949852141
 31
0.0
  0
LINE
  5
6B
330
1B
100
AcDbEntity
  8
4
100
AcDbLine
 10
173.4215500073474
 20
320.0867949852141
 30
0.0
 11
198.4215500073476
 21
320.0867949852141
 31
0.0
  0
LINE
  5
6C
330
1B
100
AcDbEntity
  8
4
 62
     3
100
AcDbLine
 10
204.9210605073474
 20
318.5867949852141
 30
0.0
 11
166.9210595073473
 21
318.5867949852141
 31
0.0
  0
LINE
  5
6D
330
1B
100
AcDbEntity
  8
4
 62
     3
100
AcDbLine
 10
142.9193274568154
 20
317.5867944852141
 30
0.0
 11
348.9210605073474
 21
317.5867944852141
 31
0.0
  0
ARC
  5
70
330
1B
100
AcDbEntity
  8
4
 62
     3
100
AcDbCircle
 10
245.9210600073473
 20
-48.41320551478609
 30
0.0
 40
330.0
100
AcDbArc
 50
73.92705599999998
 51
106.0734741062263
  0
LINE
  5
71
330
1B
100
AcDbEntity
  8
4
 62
     3
100
AcDbLine
 10
160.9560050073474
 20
196.0406859852142
 30
0.0
 11
202.4388035073478
 21
199.383276985214
 31
0.0
  0
LINE
  5
72
330
1B
100
AcDbEntity
  8
4
 62
     3
100
AcDbLine
 10
160.9560050073474
 20
153.1329039852139
 30
0.0
 11
202.4388035073478
 21
149.7903129852141
 31
0.0
  0
LINE
  5
73
330
1B
100
AcDbEntity
  8
L-CENTER
 48
2.5
100
AcDbLine
 10
132.9943550073474
 20
174.5867949852141
 30
0.0
 11
358.8477650073471
 21
174.5867949852141
 31
0.0
  0
LINE
  5
78
330
1B
100
AcDbEntity
  8
L-CENTER
 48
2.5
100
AcDbLine
 10
429.7297595315511
 20
274.5867954852142
 30
0.0
 11
129.9661199835705
 21
274.5867954852142
 31
0.0
  0
ARC
  5
79
330
1B
100
AcDbEntity
  8
4
 62
     3
100
AcDbCircle
 10
245.9210600073473
 20
397.5867954852142
 30
0.0
 40
330.0
100
AcDbArc
 50
257.413667
 51
270.0
  0
LINE
  5
7A
330
1B
100
AcDbEntity
  8
4
 62
     3
100
AcDbLine
 10
172.9210595073473
 20
64.586795485214
 30
0.0
 11
318.9210605073474
 21
64.586795485214
 31
0.0
  0
LINE
  5
7C
330
1B
100
AcDbEntity
  8
4
 62
     3
100
AcDbLine
 10
141.9210605073474
 20
218.982740485214
 30
0.0
 11
141.9210605073474
 21
263.5867944852139
 31
0.0
  0
LINE
  5
7D
330
1B
100
AcDbEntity
  8
4
 62
     3
100
AcDbLine
 10
135.4210595073473
 20
316.586795485214
 30
0.0
 11
135.4210595073473
 21
232.5867954852142
 31
0.0
  0
ARC
  5
7E
330
1B
100
AcDbEntity
  8
4
 62
     3
100
AcDbCircle
 10
468.9210605073474
 20
174.5867949852141
 30
0.0
 40
330.0
100
AcDbArc
 50
163.927056
 51
195.584349
  0
LINE
  5
7F
330
1B
100
AcDbEntity
  8
4
 62
     3
100
AcDbLine
 10
136.9210595073473
 20
81.58679498521406
 30
0.0
 11
136.9210595073473
 21
155.5867944852141
 31
0.0
  0
LINE
  5
80
330
1B
100
AcDbEntity
  8
4
 62
     3
100
AcDbLine
 10
138.9210605073474
 20
174.5867949852141
 30
0.0
 11
138.9210605073474
 21
84.58679498521406
 31
0.0
  0
LINE
  5
81
330
1B
100
AcDbEntity
  8
4
 62
     3
100
AcDbLine
 10
167.9210600073475
 20
77.58679448521411
 30
0.0
 11
167.9210600073475
 21
54.58679498521406
 31
0.0
  0
LINE
  5
82
330
1B
100
AcDbEntity
  8
4
 62
     3
100
AcDbLine
 10
165.9210605073474
 20
77.58679448521411
 30
0.0
 11
165.9210605073474
 21
54.58679498521406
 31
0.0
  0
LINE
  5
84
330
1B
100
AcDbEntity
  8
4
 62
     3
100
AcDbLine
 10
115.9210595073473
 20
77.58679448521411
 30
0.0
 11
115.9210595073473
 21
54.58679498521406
 31
0.0
  0
LINE
  5
87
330
1B
100
AcDbEntity
  8
4
 62
     3
100
AcDbLine
 10
115.9210595073473
 20
54.58679498521406
 30
0.0
 11
167.9210600073475
 21
54.58679498521406
 31
0.0
  0
LINE
  5
88
330
1B
100
AcDbEntity
  8
4
 62
     3
100
AcDbLine
 10
135.9210605073476
 20
104.5867944852141
 30
0.0
 11
135.9210605073476
 21
84.58679498521406
 31
0.0
  0
ARC
  5
89
330
1B
100
AcDbEntity
  8
4
 62
     3
100
AcDbCircle
 10
146.2370045073476
 20
84.58679498521406
 30
0.0
 40
4.9999995
100
AcDbArc
 50
270.0
 51
15.58434899999998
  0
ARC
  5
8A
330
1B
100
AcDbEntity
  8
4
 62
     3
100
AcDbCircle
 10
172.9210595073475
 20
70.63725698521421
 30
0.0
 40
4.9999995
100
AcDbArc
 50
77.41366699999988
 51
180.0
  0
ARC
  5
8B
330
1B
100
AcDbEntity
  8
4
 62
     3
100
AcDbCircle
 10
165.9210605073474
 20
77.58679448521411
 30
0.0
 40
1.9999995
100
AcDbArc
 50
0.0
 51
90.0
  0
ARC
  5
8C
330
1B
100
AcDbEntity
  8
4
 62
     3
100
AcDbCircle
 10
163.9210595073475
 20
77.58679448521411
 30
0.0
 40
1.9999995
100
AcDbArc
 50
0.0
 51
90.0
  0
ARC
  5
8D
330
1B
100
AcDbEntity
  8
4
 62
     3
100
AcDbCircle
 10
172.9210595073475
 20
59.58679448521411
 30
0.0
 40
4.9999995
100
AcDbArc
 50
90.0
 51
180.0
  0
ARC
  5
8E
330
1B
100
AcDbEntity
  8
4
 62
     3
100
AcDbCircle
 10
133.9210595073475
 20
84.58679498521406
 30
0.0
 40
4.9999995
100
AcDbArc
 50
270.0
 51
0.0
  0
LINE
  5
8F
330
1B
100
AcDbEntity
  8
4
 62
     3
100
AcDbLine
 10
117.9210605073476
 20
79.586795485214
 30
0.0
 11
134.9210600073475
 21
79.586795485214
 31
0.0
  0
ARC
  5
90
330
1B
100
AcDbEntity
  8
4
 62
     3
100
AcDbCircle
 10
117.9210605073476
 20
77.58679448521411
 30
0.0
 40
1.9999995
100
AcDbArc
 50
90.0
 51
180.0
  0
ARC
  5
91
330
1B
100
AcDbEntity
  8
4
 62
     3
100
AcDbCircle
 10
134.9210600073475
 20
81.58679498521406
 30
0.0
 40
1.9999995
100
AcDbArc
 50
270.0
 51
0.0
  0
LINE
  5
92
330
1B
100
AcDbEntity
  8
4
 62
     3
100
AcDbLine
 10
136.4210600073475
 20
84.58679498521406
 30
0.0
 11
135.9210605073476
 21
84.58679498521406
 31
0.0
  0
ARC
  5
93
330
1B
100
AcDbEntity
  8
4
 62
     3
100
AcDbCircle
 10
136.4210600073475
 20
84.086795485214
 30
0.0
 40
0.4999995
100
AcDbArc
 50
0.0
 51
90.0
  0
LINE
  5
94
330
1B
100
AcDbEntity
  8
4
 62
     3
100
AcDbLine
 10
165.9210605073474
 20
79.586795485214
 30
0.0
 11
117.9210605073474
 21
79.586795485214
 31
0.0
  0
LINE
  5
95
330
1B
100
AcDbEntity
  8
4
100
AcDbLine
 10
134.9210605073476
 20
100.586795485214
 30
0.0
 11
135.9210605073476
 21
100.586795485214
 31
0.0
  0
LINE
  5
96
330
1B
100
AcDbEntity
  8
4
 62
     3
100
AcDbLine
 10
135.9210605073476
 20
104.5867944852141
 30
0.0
 11
136.4210600073475
 21
104.5867944852141
 31
0.0
  0
ARC
  5
97
330
1B
100
AcDbEntity
  8
4
 62
     3
100
AcDbCircle
 10
136.4210600073475
 20
105.086795485214
 30
0.0
 40
0.4999995
100
AcDbArc
 50
270.0
 51
0.0
  0
LINE
  5
98
330
1B
100
AcDbEntity
  8
4
100
AcDbLine
 10
134.9210605073476
 20
88.586795485214
 30
0.0
 11
135.9210605073476
 21
88.586795485214
 31
0.0
  0
LINE
  5
99
330
1B
100
AcDbEntity
  8
4
100
AcDbLine
 10
134.9210605073476
 20
88.586795485214
 30
0.0
 11
134.9210605073476
 21
100.586795485214
 31
0.0
  0
LINE
  5
9A
330
1B
100
AcDbEntity
  8
L-CENTER
 48
2.5
100
AcDbLine
 10
150.2557310073475
 20
94.586795485214
 30
0.0
 11
131.6805050073476
 21
94.586795485214
 31
0.0
  0
ARC
  5
9B
330
1B
100
AcDbEntity
  8
4
 62
     3
100
AcDbCircle
 10
160.6347350073474
 20
149.1458259852141
 30
0.0
 40
4.0000005
100
AcDbArc
 50
85.39318800000132
 51
196.6098779999991
  0
LINE
  5
9C
330
1B
100
AcDbEntity
  8
4
100
AcDbLine
 10
136.9210595073473
 20
123.5867944852141
 30
0.0
 11
136.9210595073473
 21
151.5867944852141
 31
0.0
  0
LINE
  5
9D
330
1B
100
AcDbEntity
  8
4
100
AcDbLine
 10
135.4210595073473
 20
122.5867944852141
 30
0.0
 11
135.4210595073473
 21
152.5867944852141
 31
0.0
  0
LINE
  5
9E
330
1B
100
AcDbEntity
  8
4
100
AcDbLine
 10
133.4210595073473
 20
122.5867944852141
 30
0.0
 11
133.4210595073473
 21
152.5867944852141
 31
0.0
  0
LINE
  5
9F
330
1B
100
AcDbEntity
  8
4
100
AcDbLine
 10
128.4210595073473
 20
122.5867944852141
 30
0.0
 11
128.4210595073473
 21
152.5867944852141
 31
0.0
  0
LINE
  5
A0
330
1B
100
AcDbEntity
  8
4
100
AcDbLine
 10
133.4210595073473
 20
145.0867944852141
 30
0.0
 11
128.4210595073473
 21
145.0867944852141
 31
0.0
  0
LINE
  5
A1
330
1B
100
AcDbEntity
  8
L-CENTER
 48
2.5
100
AcDbLine
 10
148.8667850073475
 20
137.5867944852141
 30
0.0
 11
125.295558258048
 21
137.5867944852141
 31
0.0
  0
LINE
  5
A2
330
1B
100
AcDbEntity
  8
4
100
AcDbLine
 10
135.4210595073473
 20
122.5867944852141
 30
0.0
 11
128.4210595073473
 21
122.5867944852141
 31
0.0
  0
LINE
  5
A3
330
1B
100
AcDbEntity
  8
4
100
AcDbLine
 10
135.4210595073473
 20
123.5867944852141
 30
0.0
 11
136.9210595073473
 21
123.5867944852141
 31
0.0
  0
LINE
  5
A4
330
1B
100
AcDbEntity
  8
4
100
AcDbLine
 10
133.4210595073473
 20
130.0867944852141
 30
0.0
 11
128.4210595073473
 21
130.0867944852141
 31
0.0
  0
LINE
  5
A5
330
1B
100
AcDbEntity
  8
4
 62
     3
100
AcDbLine
 10
138.9210605073476
 20
174.5867949852141
 30
0.0
 11
138.9210605073476
 21
157.586795485214
 31
0.0
  0
LINE
  5
A6
330
1B
100
AcDbEntity
  8
4
100
AcDbLine
 10
128.4210595073473
 20
152.5867944852141
 30
0.0
 11
135.4210595073473
 21
152.5867944852141
 31
0.0
  0
LINE
  5
A7
330
1B
100
AcDbEntity
  8
4
100
AcDbLine
 10
135.4210595073473
 20
151.5867944852141
 30
0.0
 11
136.9210595073473
 21
151.5867944852141
 31
0.0
  0
ARC
  5
A8
330
1B
100
AcDbEntity
  8
4
 62
     3
100
AcDbCircle
 10
136.9210595073473
 20
157.586795485214
 30
0.0
 40
1.9999995
100
AcDbArc
 50
270.0
 51
0.0
  0
ARC
  5
A9
330
1B
100
AcDbEntity
  8
4
 62
     3
100
AcDbCircle
 10
160.6347350073474
 20
200.0277639852141
 30
0.0
 40
4.0000005
100
AcDbArc
 50
163.3901219999992
 51
274.6068119999987
  0
ARC
  5
AA
330
1B
100
AcDbEntity
  8
4
 62
     3
100
AcDbCircle
 10
139.9210595073475
 20
230.5867944852139
 30
0.0
 40
1.9999995
100
AcDbArc
 50
0.0
 51
90.0
  0
LINE
  5
AB
330
1B
100
AcDbEntity
  8
4
 62
     3
100
AcDbLine
 10
139.9210595073475
 20
232.5867954852142
 30
0.0
 11
135.4210595073475
 21
232.5867954852142
 31
0.0
  0
LINE
  5
AD
330
1B
100
AcDbEntity
  8
4
100
AcDbLine
 10
134.4210595073473
 20
305.5867954852142
 30
0.0
 11
134.4210595073473
 21
243.5867954852142
 31
0.0
  0
LINE
  5
AE
330
1B
100
AcDbEntity
  8
4
 62
     3
100
AcDbLine
 10
141.9210605073474
 20
285.5867949852141
 30
0.0
 11
141.9210605073474
 21
316.586795485214
 31
0.0
  0
ARC
  5
AF
330
1B
100
AcDbEntity
  8
4
 62
     3
100
AcDbCircle
 10
155.6643995073475
 20
264.843455485214
 30
0.0
 40
4.0000005
100
AcDbArc
 50
106.0729439999987
 51
163.9270560000012
  0
ARC
  5
B0
330
1B
100
AcDbEntity
  8
4
 62
     3
100
AcDbCircle
 10
140.9210600073475
 20
263.5867944852139
 30
0.0
 40
1.0000005
100
AcDbArc
 50
0.0
 51
90.0
  0
LINE
  5
B1
330
1B
100
AcDbEntity
  8
4
100
AcDbLine
 10
135.4210595073473
 20
243.5867954852142
 30
0.0
 11
134.4210595073473
 21
243.5867954852142
 31
0.0
  0
ARC
  5
B2
330
1B
100
AcDbEntity
  8
4
 62
     3
100
AcDbCircle
 10
140.9210600073475
 20
285.5867949852141
 30
0.0
 40
1.0000005
100
AcDbArc
 50
270.0
 51
0.0
  0
ARC
  5
B3
330
1B
100
AcDbEntity
  8
4
 62
     3
100
AcDbCircle
 10
165.9310595073475
 20
318.5767944852141
 30
0.0
 40
0.99
100
AcDbArc
 50
270.0
 51
0.0
  0
LINE
  5
B4
330
1B
100
AcDbEntity
  8
4
 62
     3
100
AcDbLine
 10
166.9210595073473
 20
318.5867949852141
 30
0.0
 11
166.9210595073473
 21
318.5767944852141
 31
0.0
  0
LINE
  5
B5
330
1B
100
AcDbEntity
  8
4
100
AcDbLine
 10
174.4215500073474
 20
318.5867949852141
 30
0.0
 11
174.4215500073474
 21
320.0867949852141
 31
0.0
  0
LINE
  5
B6
330
1B
100
AcDbEntity
  8
4
100
AcDbLine
 10
173.4215500073474
 20
320.0867949852141
 30
0.0
 11
173.4215500073474
 21
326.0867949852141
 31
0.0
  0
ARC
  5
B7
330
1B
100
AcDbEntity
  8
4
 62
     3
100
AcDbCircle
 10
142.9210595073473
 20
316.586795485214
 30
0.0
 40
1.0000005
100
AcDbArc
 50
90.0
 51
150.0849845346778
  0
ARC
  5
B8
330
1B
100
AcDbEntity
  8
4
 62
     3
100
AcDbCircle
 10
141.1890095073475
 20
317.5867944852141
 30
0.0
 40
1.0000005
100
AcDbArc
 50
270.0
 51
330.0000000000098
  0
LINE
  5
B9
330
1B
100
AcDbEntity
  8
4
 62
     3
100
AcDbLine
 10
135.4210595073473
 20
316.586795485214
 30
0.0
 11
141.1890095073475
 21
316.586795485214
 31
0.0
  0
LINE
  5
BA
330
1B
100
AcDbEntity
  8
4
100
AcDbLine
 10
135.4210595073473
 20
305.5867954852142
 30
0.0
 11
134.4210595073473
 21
305.5867954852142
 31
0.0
  0
LINE
  5
BE
330
1B
100
AcDbEntity
  8
4
 62
     3
100
AcDbLine
 10
349.9210595073475
 20
218.982740485214
 30
0.0
 11
349.9210595073475
 21
263.5867944852139
 31
0.0
  0
LINE
  5
BF
330
1B
100
AcDbEntity
  8
4
 62
     3
100
AcDbLine
 10
356.4210605073474
 20
316.586795485214
 30
0.0
 11
356.4210605073474
 21
232.5867954852142
 31
0.0
  0
LINE
  5
C0
330
1B
100
AcDbEntity
  8
L-CENTER
 48
2.5
100
AcDbLine
 10
245.9210600073473
 20
61.66008998521431
 30
0.0
 11
245.9210600073473
 21
324.5867949852141
 31
0.0
  0
ARC
  5
C1
330
1B
100
AcDbEntity
  8
4
 62
     3
100
AcDbCircle
 10
22.92105950734731
 20
174.5867949852141
 30
0.0
 40
330.0
100
AcDbArc
 50
344.4156509999999
 51
16.07294399999999
  0
LINE
  5
C2
330
1B
100
AcDbEntity
  8
4
 62
     3
100
AcDbLine
 10
267.3749510073474
 20
89.62173998521394
 30
0.0
 11
270.7175420073474
 21
131.1045384852141
 31
0.0
  0
LINE
  5
C3
330
1B
100
AcDbEntity
  8
4
 62
     3
100
AcDbLine
 10
224.4671690073471
 20
89.62173998521394
 30
0.0
 11
221.1245780073475
 21
131.1045384852141
 31
0.0
  0
LINE
  5
C4
330
1B
100
AcDbEntity
  8
4
 62
     3
100
AcDbLine
 10
352.9210595073475
 20
174.5867949852141
 30
0.0
 11
352.9210595073475
 21
84.58679498521406
 31
0.0
  0
LINE
  5
C6
330
1B
100
AcDbEntity
  8
4
 62
     3
100
AcDbLine
 10
375.9210605073474
 20
77.58679448521411
 30
0.0
 11
375.9210605073474
 21
54.58679498521406
 31
0.0
  0
LINE
  5
C8
330
1B
100
AcDbEntity
  8
L-CENTER
 48
2.5
100
AcDbLine
 10
355.9210595073475
 20
86.586795485214
 30
0.0
 11
355.9210595073475
 21
47.58679498521406
 31
0.0
  0
LINE
  5
C9
330
1B
100
AcDbEntity
  8
4
 62
     3
100
AcDbLine
 10
325.9210595073475
 20
77.58679448521411
 30
0.0
 11
325.9210595073475
 21
54.58679498521406
 31
0.0
  0
LINE
  5
CA
330
1B
100
AcDbEntity
  8
4
 62
     3
100
AcDbLine
 10
323.9210600073473
 20
77.58679448521411
 30
0.0
 11
323.9210600073473
 21
54.58679498521406
 31
0.0
  0
LINE
  5
CB
330
1B
100
AcDbEntity
  8
4
100
AcDbLine
 10
348.4210595073471
 20
79.58679498521451
 30
0.0
 11
348.4210595073471
 21
54.58679498521451
 31
0.0
  0
LINE
  5
CC
330
1B
100
AcDbEntity
  8
4
100
AcDbLine
 10
363.4210595073471
 20
79.58679498521451
 30
0.0
 11
363.4210595073471
 21
54.58679498521451
 31
0.0
  0
LWPOLYLINE
  5
CD
330
1B
100
AcDbEntity
  8
4
100
AcDbPolyline
 90
       44
 70
     0
 43
0.0
 10
340.6949895073474
 20
79.59604998521445
 10
340.9773820073467
 20
79.23460748521461
 10
341.249907007347
 20
78.87462748521466
 10
341.5027045073473
 20
78.51757498521465
 10
342.0440595073471
 20
77.47859748521455
 10
342.1192820073472
 20
77.14787748521462
 10
342.1254520073469
 20
76.8273949852146
 10
342.0526995073471
 20
76.51861998521463
 10
341.8725045073468
 20
76.18610498521457
 10
341.6139395073471
 20
75.86407998521463
 10
341.3107095073472
 20
75.54641248521466
 10
340.996522007347
 20
75.22697498521461
 10
340.7050795073471
 20
74.89963498521456
 10
340.4700945073471
 20
74.55825998521459
 10
340.3264395073472
 20
74.22622498521469
 10
340.2507120073471
 20
73.87882998521445
 10
340.2338920073469
 20
73.51791998521458
 10
340.446697007347
 20
72.37258248521448
 10
340.8649845073471
 20
71.1721349852146
 10
341.2452295073469
 20
69.96646498521454
 10
341.3214345073472
 20
69.57203748521442
 10
341.3573345073471
 20
69.18441748521445
 10
341.343909507347
 20
68.80545748521445
 10
341.2338620073472
 20
68.2935974852146
 10
341.0340770073469
 20
67.79837998521452
 10
340.7682270073471
 20
67.31602248521449
 10
339.8109270073471
 20
65.9083499852145
 10
339.5174695073472
 20
65.43966248521451
 10
339.2762745073471
 20
64.96494748521445
 10
339.1110145073469
 20
64.48042498521454
 10
339.0425645073472
 20
64.04181248521445
 10
339.0409045073472
 20
63.59382248521456
 10
339.0950770073471
 20
63.13768748521443
 10
339.4830545073471
 20
61.73269498521449
 10
339.979172007347
 20
60.29862998521457
 10
340.117454507347
 20
59.81988498521469
 10
340.2239345073474
 20
59.34282248521458
 10
340.2876570073474
 20
58.86867748521445
 10
340.2848970073471
 20
58.1209524852145
 10
340.1684470073471
 20
57.38199748521447
 10
339.961042007347
 20
56.65005998521451
 10
339.6854220073471
 20
55.92338498521462
 10
339.364324507347
 20
55.20021748521458
 10
339.0719611344764
 20
54.58679498521451
  0
LINE
  5
CE
330
1B
100
AcDbEntity
  8
4
 62
     3
100
AcDbLine
 10
323.9210600073473
 20
54.58679498521406
 30
0.0
 11
375.9210605073474
 21
54.58679498521406
 31
0.0
  0
TEXT
  5
D2
330
1B
100
AcDbEntity
  8
3
100
AcDbText
 10
428.2395975618139
 20
54.07201158282368
 30
0.0
 40
7.5
  1
LB4-05
  7
KANJI
 72
     1
 11
448.8645975618139
 21
54.07201158282368
 31
0.0
100
AcDbText
  0
LINE
  5
D7
330
1B
100
AcDbEntity
  8
4
 62
     3
100
AcDbLine
 10
325.9210595073475
 20
79.586795485214
 30
0.0
 11
373.9210595073475
 21
79.586795485214
 31
0.0
  0
ARC
  5
D8
330
1B
100
AcDbEntity
  8
4
 62
     3
100
AcDbCircle
 10
220.4800910073475
 20
89.30046998521402
 30
0.0
 40
4.0000005
100
AcDbArc
 50
253.3901219999991
 51
4.606812000000274
  0
ARC
  5
D9
330
1B
100
AcDbEntity
  8
4
 62
     3
100
AcDbCircle
 10
271.3620290073475
 20
89.30046998521402
 30
0.0
 40
4.0000005
100
AcDbArc
 50
175.3931879999998
 51
286.6098780000009
  0
ARC
  5
DA
330
1B
100
AcDbEntity
  8
4
 62
     3
100
AcDbCircle
 10
245.9210600073473
 20
397.5867954852142
 30
0.0
 40
330.0
100
AcDbArc
 50
270.0
 51
282.5863330000001
  0
ARC
  5
DB
330
1B
100
AcDbEntity
  8
4
 62
     3
100
AcDbCircle
 10
327.9210605073474
 20
77.58679448521411
 30
0.0
 40
1.9999995
100
AcDbArc
 50
90.0
 51
180.0
  0
ARC
  5
DC
330
1B
100
AcDbEntity
  8
4
 62
     3
100
AcDbCircle
 10
325.9210595073475
 20
77.58679448521411
 30
0.0
 40
1.9999995
100
AcDbArc
 50
90.0
 51
180.0
  0
ARC
  5
DD
330
1B
100
AcDbEntity
  8
4
 62
     3
100
AcDbCircle
 10
318.9210605073474
 20
70.63725698521421
 30
0.0
 40
4.9999995
100
AcDbArc
 50
0.0
 51
102.5863330000001
  0
ARC
  5
DE
330
1B
100
AcDbEntity
  8
4
 62
     3
100
AcDbCircle
 10
318.9210605073474
 20
59.58679448521411
 30
0.0
 40
4.9999995
100
AcDbArc
 50
0.0
 51
90.0
  0
ARC
  5
E0
330
1B
100
AcDbEntity
  8
4
 62
     3
100
AcDbCircle
 10
373.9210595073475
 20
77.58679448521411
 30
0.0
 40
1.9999995
100
AcDbArc
 50
0.0
 51
90.0
  0
ARC
  5
E2
330
1B
100
AcDbEntity
  8
4
 62
     3
100
AcDbCircle
 10
357.9210605073474
 20
84.58679498521406
 30
0.0
 40
4.9999995
100
AcDbArc
 50
180.0
 51
270.0
  0
ARC
  5
E3
330
1B
100
AcDbEntity
  8
4
 62
     3
100
AcDbCircle
 10
345.6051155073471
 20
84.58679498521406
 30
0.0
 40
4.9999995
100
AcDbArc
 50
164.4156509999988
 51
270.0
  0
ARC
  5
E5
330
1B
100
AcDbEntity
  8
4
 62
     3
100
AcDbCircle
 10
505.9210595073471
 20
174.5867949852141
 30
0.0
 40
300.0
100
AcDbArc
 50
173.0929329999999
 51
186.9070669999998
  0
ARC
  5
E6
330
1B
100
AcDbEntity
  8
4
 62
     3
100
AcDbCircle
 10
503.9210600073473
 20
174.5867949852141
 30
0.0
 40
300.0
100
AcDbArc
 50
172.748249
 51
187.251751
  0
ARC
  5
E7
330
1B
100
AcDbEntity
  8
4
 62
     3
100
AcDbCircle
 10
-12.07893999265252
 20
174.5867949852141
 30
0.0
 40
300.0
100
AcDbArc
 50
352.7482490000001
 51
7.251750999999988
  0
ARC
  5
E8
330
1B
100
AcDbEntity
  8
4
 62
     3
100
AcDbCircle
 10
-14.07893949265235
 20
174.5867949852141
 30
0.0
 40
300.0
100
AcDbArc
 50
353.0929330000001
 51
6.907066999999978
  0
ARC
  5
E9
330
1B
100
AcDbEntity
  8
4
 62
     3
100
AcDbCircle
 10
331.2073850073473
 20
149.1458259852141
 30
0.0
 40
4.0000005
100
AcDbArc
 50
343.3901220000026
 51
94.60681200000194
  0
ARC
  5
EA
330
1B
100
AcDbEntity
  8
4
 62
     3
100
AcDbCircle
 10
289.6442675073474
 20
146.800004485214
 30
0.0
 40
3.0
100
AcDbArc
 50
94.60681199999728
 51
174.7382650000002
  0
ARC
  5
EB
330
1B
100
AcDbEntity
  8
4
 62
     3
100
AcDbCircle
 10
202.1978525073475
 20
146.800004485214
 30
0.0
 40
3.0
100
AcDbArc
 50
5.261734999999806
 51
85.39318799999403
  0
ARC
  5
EC
330
1B
100
AcDbEntity
  8
4
 62
     3
100
AcDbCircle
 10
245.9210600073473
 20
434.5867944852139
 30
0.0
 40
300.0
100
AcDbArc
 50
263.0929330000001
 51
276.9070670000001
  0
ARC
  5
ED
330
1B
100
AcDbEntity
  8
4
 62
     3
100
AcDbCircle
 10
245.9210600073473
 20
432.5867949852138
 30
0.0
 40
300.0
100
AcDbArc
 50
262.748249
 51
277.251751
  0
ARC
  5
EE
330
1B
100
AcDbEntity
  8
4
 62
     3
100
AcDbCircle
 10
210.0837905073474
 20
138.7495254852142
 30
0.0
 40
1.9999995
100
AcDbArc
 50
186.9070670000001
 51
263.0929329999934
  0
ARC
  5
EF
330
1B
100
AcDbEntity
  8
4
 62
     3
100
AcDbCircle
 10
208.3047350073473
 20
136.9704699852141
 30
0.0
 40
1.9999995
100
AcDbArc
 50
187.2517509999993
 51
262.7482490000073
  0
ARC
  5
F0
330
1B
100
AcDbEntity
  8
4
 62
     3
100
AcDbCircle
 10
218.1342695073474
 20
130.8635874852141
 30
0.0
 40
3.0
100
AcDbArc
 50
4.606812000001621
 51
84.73826499999808
  0
ARC
  5
F1
330
1B
100
AcDbEntity
  8
4
 62
     3
100
AcDbCircle
 10
281.7583295073475
 20
138.7495254852142
 30
0.0
 40
1.9999995
100
AcDbArc
 50
276.9070669999935
 51
353.0929329999999
  0
ARC
  5
F2
330
1B
100
AcDbEntity
  8
4
 62
     3
100
AcDbCircle
 10
283.5373850073472
 20
136.9704699852141
 30
0.0
 40
1.9999995
100
AcDbArc
 50
277.2517510000059
 51
352.7482490000024
  0
ARC
  5
F3
330
1B
100
AcDbEntity
  8
4
 62
     3
100
AcDbCircle
 10
273.7078505073475
 20
130.8635874852141
 30
0.0
 40
3.0
100
AcDbArc
 50
95.26173499999322
 51
175.3931879999984
  0
LINE
  5
F4
330
1B
100
AcDbEntity
  8
4
 62
     3
100
AcDbLine
 10
330.8861150073478
 20
153.1329039852139
 30
0.0
 11
289.4033165073477
 21
149.7903129852141
 31
0.0
  0
ARC
  5
F5
330
1B
100
AcDbEntity
  8
4
 62
     3
100
AcDbCircle
 10
331.2073850073473
 20
200.0277639852141
 30
0.0
 40
4.0000005
100
AcDbArc
 50
265.3931879999981
 51
16.60987800000092
  0
ARC
  5
F6
330
1B
100
AcDbEntity
  8
4
 62
     3
100
AcDbCircle
 10
202.1978525073475
 20
202.3735854852141
 30
0.0
 40
3.0
100
AcDbArc
 50
274.606812000006
 51
354.7382650000002
  0
LINE
  5
F7
330
1B
100
AcDbEntity
  8
4
 62
     3
100
AcDbLine
 10
330.8861150073478
 20
196.0406859852142
 30
0.0
 11
289.4033165073477
 21
199.383276985214
 31
0.0
  0
ARC
  5
F8
330
1B
100
AcDbEntity
  8
4
 62
     3
100
AcDbCircle
 10
289.6442675073474
 20
202.3735854852141
 30
0.0
 40
3.0
100
AcDbArc
 50
185.2617349999998
 51
265.3931880000027
  0
ARC
  5
F9
330
1B
100
AcDbEntity
  8
4
 62
     3
100
AcDbCircle
 10
245.9210600073473
 20
-83.41320501478569
 30
0.0
 40
300.0
100
AcDbArc
 50
82.74824900000003
 51
97.25175099999998
  0
ARC
  5
FA
330
1B
100
AcDbEntity
  8
4
 62
     3
100
AcDbCircle
 10
245.9210600073473
 20
-85.41320451478575
 30
0.0
 40
300.0
100
AcDbArc
 50
83.0929329999999
 51
96.90706699999993
  0
ARC
  5
FB
330
1B
100
AcDbEntity
  8
4
 62
     3
100
AcDbCircle
 10
210.0837905073474
 20
210.4240644852139
 30
0.0
 40
1.9999995
100
AcDbArc
 50
96.90706700000663
 51
173.0929329999999
  0
ARC
  5
FC
330
1B
100
AcDbEntity
  8
4
 62
     3
100
AcDbCircle
 10
208.3047350073473
 20
212.203119985214
 30
0.0
 40
1.9999995
100
AcDbArc
 50
97.25175099999271
 51
172.7482490000007
  0
ARC
  5
FD
330
1B
100
AcDbEntity
  8
4
 62
     3
100
AcDbCircle
 10
283.5373850073472
 20
212.203119985214
 30
0.0
 40
1.9999995
100
AcDbArc
 50
7.25175099999757
 51
82.74824899999416
  0
ARC
  5
FE
330
1B
100
AcDbEntity
  8
4
 62
     3
100
AcDbCircle
 10
281.7583295073475
 20
210.4240644852139
 30
0.0
 40
1.9999995
100
AcDbArc
 50
6.907067000000085
 51
83.0929330000065
  0
LINE
  5
FF
330
1B
100
AcDbEntity
  8
4
 62
     3
100
AcDbLine
 10
351.9210605073474
 20
232.5867954852142
 30
0.0
 11
356.4210605073474
 21
232.5867954852142
 31
0.0
  0
ARC
  5
100
330
1B
100
AcDbEntity
  8
4
 62
     3
100
AcDbCircle
 10
351.9210605073474
 20
230.5867944852139
 30
0.0
 40
1.9999995
100
AcDbArc
 50
90.0
 51
180.0
  0
LINE
  5
103
330
1B
100
AcDbEntity
  8
4
100
AcDbLine
 10
357.4210600073473
 20
305.5867954852142
 30
0.0
 11
357.4210600073473
 21
243.5867954852142
 31
0.0
  0
LINE
  5
106
330
1B
100
AcDbEntity
  8
4
 62
     3
100
AcDbLine
 10
349.9210595073475
 20
285.5867949852141
 30
0.0
 11
349.9210595073475
 21
316.586795485214
 31
0.0
  0
LINE
  5
107
330
1B
100
AcDbEntity
  8
4
100
AcDbLine
 10
375.9210600073473
 20
289.5867954852142
 30
0.0
 11
375.9210600073473
 21
259.5867954852142
 31
0.0
  0
LINE
  5
108
330
1B
100
AcDbEntity
  8
4
100
AcDbLine
 10
425.9210600073473
 20
263.0867954852142
 30
0.0
 11
425.9210600073473
 21
290.0867954852142
 31
0.0
  0
LINE
  5
109
330
1B
100
AcDbEntity
  8
4
100
AcDbLine
 10
424.9210600073473
 20
287.0867954852142
 30
0.0
 11
424.9210600073473
 21
262.0867954852142
 31
0.0
  0
ARC
  5
10A
330
1B
100
AcDbEntity
  8
4
 62
     3
100
AcDbCircle
 10
336.1777205073474
 20
264.843455485214
 30
0.0
 40
4.0000005
100
AcDbArc
 50
16.07294399999867
 51
73.92705600000133
  0
LINE
  5
10B
330
1B
100
AcDbEntity
  8
4
100
AcDbLine
 10
375.9210600073473
 20
262.0867954852142
 30
0.0
 11
424.9210600073473
 21
262.0867954852142
 31
0.0
  0
ARC
  5
10C
330
1B
100
AcDbEntity
  8
4
 62
     3
100
AcDbCircle
 10
350.9210600073473
 20
263.5867944852139
 30
0.0
 40
1.0000005
100
AcDbArc
 50
90.0
 51
180.0
  0
LINE
  5
10D
330
1B
100
AcDbEntity
  8
4
100
AcDbLine
 10
356.4210600073473
 20
243.5867954852142
 30
0.0
 11
357.4210600073473
 21
243.5867954852142
 31
0.0
  0
LINE
  5
10E
330
1B
100
AcDbEntity
  8
4
100
AcDbLine
 10
357.4210600073473
 20
259.5867954852142
 30
0.0
 11
375.9210600073473
 21
259.5867954852142
 31
0.0
  0
LINE
  5
10F
330
1B
100
AcDbEntity
  8
4
100
AcDbLine
 10
425.9210600073473
 20
263.0867954852142
 30
0.0
 11
424.9210600073473
 21
262.0867954852142
 31
0.0
  0
LINE
  5
110
330
1B
100
AcDbEntity
  8
4
100
AcDbLine
 10
425.9210600073473
 20
290.0867954852142
 30
0.0
 11
380.9210600073473
 21
290.0867954852142
 31
0.0
  0
LINE
  5
111
330
1B
100
AcDbEntity
  8
4
100
AcDbLine
 10
375.9210600073473
 20
287.0867954852142
 30
0.0
 11
424.9210600073473
 21
287.0867954852142
 31
0.0
  0
LINE
  5
112
330
1B
100
AcDbEntity
  8
4
100
AcDbLine
 10
380.9210600073473
 20
287.0867954852142
 30
0.0
 11
380.9210600073473
 21
290.0867954852142
 31
0.0
  0
ARC
  5
113
330
1B
100
AcDbEntity
  8
4
 62
     3
100
AcDbCircle
 10
350.9210600073473
 20
285.5867949852141
 30
0.0
 40
1.0000005
100
AcDbArc
 50
180.0
 51
270.0
  0
LINE
  5
114
330
1B
100
AcDbEntity
  8
4
100
AcDbLine
 10
357.4210600073473
 20
289.5867954852142
 30
0.0
 11
375.9210600073473
 21
289.5867954852142
 31
0.0
  0
LINE
  5
118
330
1B
100
AcDbEntity
  8
4
100
AcDbLine
 10
424.9210600073473
 20
287.0867954852142
 30
0.0
 11
425.9210600073473
 21
286.0867954852142
 31
0.0
  0
LINE
  5
119
330
1B
100
AcDbEntity
  8
L-CENTER
 48
2.5
100
AcDbLine
 10
185.9210600073475
 20
309.4274780408587
 30
0.0
 11
185.9210600073475
 21
332.2228939298539
 31
0.0
  0
ARC
  5
11A
330
1B
100
AcDbEntity
  8
4
 62
     3
100
AcDbCircle
 10
205.9110605073472
 20
318.5767944852141
 30
0.0
 40
0.99
100
AcDbArc
 50
180.0
 51
270.0
  0
LINE
  5
11B
330
1B
100
AcDbEntity
  8
4
 62
     3
100
AcDbLine
 10
204.9210605073474
 20
318.5867949852141
 30
0.0
 11
204.9210605073474
 21
318.5767944852141
 31
0.0
  0
LINE
  5
11C
330
1B
100
AcDbEntity
  8
4
100
AcDbLine
 10
179.6715500073474
 20
322.0867949852141
 30
0.0
 11
179.6715500073474
 21
326.0867949852141
 31
0.0
  0
LINE
  5
11D
330
1B
100
AcDbEntity
  8
4
100
AcDbLine
 10
192.1715500073474
 20
322.0867949852141
 30
0.0
 11
192.1715500073474
 21
326.0867949852141
 31
0.0
  0
LINE
  5
11E
330
1B
100
AcDbEntity
  8
4
100
AcDbLine
 10
197.4215500073476
 20
318.5867949852141
 30
0.0
 11
197.4215500073476
 21
320.0867949852141
 31
0.0
  0
LINE
  5
11F
330
1B
100
AcDbEntity
  8
4
100
AcDbLine
 10
198.4215500073476
 20
320.0867949852141
 30
0.0
 11
198.4215500073476
 21
326.0867949852141
 31
0.0
  0
ARC
  5
123
330
1B
100
AcDbEntity
  8
4
 62
     3
100
AcDbCircle
 10
348.9210605073474
 20
316.586795485214
 30
0.0
 40
1.0000005
100
AcDbArc
 50
0.0
 51
90.0
  0
LINE
  5
124
330
1B
100
AcDbEntity
  8
4
 62
     3
100
AcDbLine
 10
350.6531105073475
 20
316.586795485214
 30
0.0
 11
356.4210605073474
 21
316.586795485214
 31
0.0
  0
ARC
  5
125
330
1B
100
AcDbEntity
  8
4
 62
     3
100
AcDbCircle
 10
350.6531105073475
 20
317.5867944852141
 30
0.0
 40
1.0000005
100
AcDbArc
 50
210.0000000000064
 51
270.0
  0
LINE
  5
126
330
1B
100
AcDbEntity
  8
4
100
AcDbLine
 10
356.4210600073473
 20
305.5867954852142
 30
0.0
 11
357.4210600073473
 21
305.5867954852142
 31
0.0
  0
LINE
  5
133
330
1B
100
AcDbEntity
  8
4
100
AcDbLine
 10
133.4210595073473
 20
552.6255831691633
 30
0.0
 11
133.4210595073473
 21
577.6255831691633
 31
0.0
  0
LINE
  5
134
330
1B
100
AcDbEntity
  8
4
100
AcDbLine
 10
128.4210595073473
 20
554.3002656218578
 30
0.0
 11
128.4210595073473
 21
575.9509007164688
 31
0.0
  0
LINE
  5
135
330
1B
100
AcDbEntity
  8
4
100
AcDbLine
 10
133.4210595073473
 20
552.6255831691633
 30
0.0
 11
134.4210595073473
 21
552.6255831691633
 31
0.0
  0
LWPOLYLINE
  5
136
330
1B
100
AcDbEntity
  8
4
100
AcDbPolyline
 90
        2
 70
     0
 43
0.0
 10
128.4210595073473
 20
554.3002656218578
 10
133.4210595073473
 20
554.3002656218578
  0
LINE
  5
137
330
1B
100
AcDbEntity
  8
4
100
AcDbLine
 10
133.4210595073473
 20
577.6255831691633
 30
0.0
 11
134.4210595073473
 21
577.6255831691633
 31
0.0
  0
LWPOLYLINE
  5
138
330
1B
100
AcDbEntity
  8
4
100
AcDbPolyline
 90
        2
 70
     0
 43
0.0
 10
133.4210595073473
 20
575.9509007164688
 10
128.4210595073473
 20
575.9509007164688
  0
ARC
  5
139
330
1B
100
AcDbEntity
  8
4
 62
     3
100
AcDbCircle
 10
317.4210605073474
 20
296.5867944852141
 30
0.0
 40
1.0000005
100
AcDbArc
 50
180.0
 51
270.0
  0
ARC
  5
13A
330
1B
100
AcDbEntity
  8
4
 62
     3
100
AcDbCircle
 10
317.4210605073474
 20
299.5867944852141
 30
0.0
 40
1.0000005
100
AcDbArc
 50
90.0
 51
180.0
  0
LINE
  5
13B
330
1B
100
AcDbEntity
  8
4
 62
     3
100
AcDbLine
 10
277.9210460073471
 20
311.5867944852141
 30
0.0
 11
341.9210600073473
 21
311.5867944852141
 31
0.0
  0
LINE
  5
13C
330
1B
100
AcDbEntity
  8
4
 62
     3
100
AcDbLine
 10
277.9210460073471
 20
284.5867974852142
 30
0.0
 11
341.9210600073473
 21
284.5867974852142
 31
0.0
  0
ARC
  5
13D
330
1B
100
AcDbEntity
  8
4
 62
     3
100
AcDbCircle
 10
245.9210600073473
 20
249.5867954852142
 30
0.0
 40
18.0
100
AcDbArc
 50
180.0
 51
0.0
  0
ARC
  5
13E
330
1B
100
AcDbEntity
  8
4
 62
     3
100
AcDbCircle
 10
312.4210535073478
 20
298.086791485214
 30
0.0
 40
2.5000005
100
AcDbArc
 50
127.9798720000082
 51
232.0201279999918
  0
ARC
  5
13F
330
1B
100
AcDbEntity
  8
4
 62
     3
100
AcDbCircle
 10
308.4210545073472
 20
303.2102679852142
 30
0.0
 40
4.0000005
100
AcDbArc
 50
307.9798720000153
 51
0.0
  0
LINE
  5
140
330
1B
100
AcDbEntity
  8
4
 62
     3
100
AcDbLine
 10
284.4210440073473
 20
294.0867939852142
 30
0.0
 11
284.4210815073473
 21
307.0867914852142
 31
0.0
  0
LINE
  5
141
330
1B
100
AcDbEntity
  8
4
 62
     3
100
AcDbLine
 10
279.4210460073471
 20
289.0867959852142
 30
0.0
 11
279.4210820073474
 21
307.0867959852142
 31
0.0
  0
LINE
  5
142
330
1B
100
AcDbEntity
  8
4
 62
     3
100
AcDbLine
 10
297.4210505073477
 20
289.086791485214
 30
0.0
 11
297.4210505073477
 21
307.0867914852142
 31
0.0
  0
LINE
  5
143
330
1B
100
AcDbEntity
  8
4
 62
     3
100
AcDbLine
 10
275.9210465073472
 20
286.5867984852141
 30
0.0
 11
275.9210465073472
 21
309.5867934852142
 31
0.0
  0
LINE
  5
144
330
1B
100
AcDbEntity
  8
4
 62
     3
100
AcDbLine
 10
263.9210600073473
 20
249.5867954852141
 30
0.0
 11
263.9210600073473
 21
261.5175690175997
 31
0.0
  0
ARC
  5
145
330
1B
100
AcDbEntity
  8
4
 62
     3
100
AcDbCircle
 10
292.4210435073471
 20
289.0867944852141
 30
0.0
 40
1.0000005
100
AcDbArc
 50
270.0
 51
0.0
  0
ARC
  5
146
330
1B
100
AcDbEntity
  8
4
 62
     3
100
AcDbCircle
 10
292.4210435073471
 20
292.0867944852141
 30
0.0
 40
1.0000005
100
AcDbArc
 50
0.0
 51
90.0
  0
ARC
  5
147
330
1B
100
AcDbEntity
  8
4
 62
     3
100
AcDbCircle
 10
280.4210465073472
 20
289.0867944852141
 30
0.0
 40
1.0000005
100
AcDbArc
 50
179.9998839998386
 51
269.9998840000255
  0
ARC
  5
148
330
1B
100
AcDbEntity
  8
4
 62
     3
100
AcDbCircle
 10
277.9210460073471
 20
286.5867984852141
 30
0.0
 40
1.9999995
100
AcDbArc
 50
180.0
 51
270.0
  0
ARC
  5
149
330
1B
100
AcDbEntity
  8
4
 62
     3
100
AcDbCircle
 10
285.4210460073471
 20
294.0867939852142
 30
0.0
 40
1.0000005
100
AcDbArc
 50
180.0
 51
270.0
  0
LINE
  5
14A
330
1B
100
AcDbEntity
  8
4
 62
     3
100
AcDbLine
 10
285.4210460073471
 20
293.0867934852142
 30
0.0
 11
292.4210435073471
 21
293.0867934852142
 31
0.0
  0
LINE
  5
14B
330
1B
100
AcDbEntity
  8
4
 62
     3
100
AcDbLine
 10
280.4210435073471
 20
288.0867924852143
 30
0.0
 11
292.4210435073471
 21
288.0867939852142
 31
0.0
  0
LINE
  5
14C
330
1B
100
AcDbEntity
  8
4
 62
     3
100
AcDbLine
 10
298.4210510073478
 20
288.0867924852143
 30
0.0
 11
308.4210545073472
 21
288.0867924852143
 31
0.0
  0
ARC
  5
14D
330
1B
100
AcDbEntity
  8
4
 62
     3
100
AcDbCircle
 10
298.4210510073478
 20
289.086791485214
 30
0.0
 40
1.0000005
100
AcDbArc
 50
180.0
 51
270.0
  0
LINE
  5
14E
330
1B
100
AcDbEntity
  8
4
 62
     3
100
AcDbLine
 10
293.4210440073473
 20
289.0867944852141
 30
0.0
 11
293.4210440073473
 21
292.0867944852141
 31
0.0
  0
LINE
  5
14F
330
1B
100
AcDbEntity
  8
4
 62
     3
100
AcDbLine
 10
316.4210600073473
 20
296.5867944852141
 30
0.0
 11
316.4210600073473
 21
299.5867944852141
 31
0.0
  0
LINE
  5
150
330
1B
100
AcDbEntity
  8
4
 62
     3
100
AcDbLine
 10
312.4210535073478
 20
292.9633164852141
 30
0.0
 11
312.4210535073478
 21
292.086791485214
 31
0.0
  0
ARC
  5
151
330
1B
100
AcDbEntity
  8
4
 62
     3
100
AcDbCircle
 10
308.4210545073472
 20
292.086791485214
 30
0.0
 40
4.0000005
100
AcDbArc
 50
270.0
 51
0.0
  0
ARC
  5
152
330
1B
100
AcDbEntity
  8
4
 62
     3
100
AcDbCircle
 10
308.4210545073472
 20
292.9633164852141
 30
0.0
 40
4.0000005
100
AcDbArc
 50
0.0
 51
52.02012799998472
  0
ARC
  5
153
330
1B
100
AcDbEntity
  8
4
 62
     3
100
AcDbCircle
 10
280.4210825073476
 20
307.0867944852141
 30
0.0
 40
1.0000005
100
AcDbArc
 50
89.99988400002549
 51
179.9998839998386
  0
ARC
  5
154
330
1B
100
AcDbEntity
  8
4
 62
     3
100
AcDbCircle
 10
277.9210460073471
 20
309.5867934852142
 30
0.0
 40
1.9999995
100
AcDbArc
 50
90.0
 51
180.0
  0
ARC
  5
155
330
1B
100
AcDbEntity
  8
4
 62
     3
100
AcDbCircle
 10
283.4210810073471
 20
307.0867929852143
 30
0.0
 40
1.0000005
100
AcDbArc
 50
359.9998459985447
 51
89.99984599997813
  0
LINE
  5
156
330
1B
100
AcDbEntity
  8
4
 62
     3
100
AcDbLine
 10
280.4210840073472
 20
308.0867919852142
 30
0.0
 11
283.4210840073472
 21
308.0867964852141
 31
0.0
  0
LINE
  5
157
330
1B
100
AcDbEntity
  8
4
 62
     3
100
AcDbLine
 10
298.4210510073478
 20
308.0867919852142
 30
0.0
 11
308.4210545073472
 21
308.0867919852142
 31
0.0
  0
ARC
  5
158
330
1B
100
AcDbEntity
  8
4
 62
     3
100
AcDbCircle
 10
298.4210510073478
 20
307.0867914852142
 30
0.0
 40
1.0000005
100
AcDbArc
 50
90.0
 51
180.0
  0
LINE
  5
159
330
1B
100
AcDbEntity
  8
4
 62
     3
100
AcDbLine
 10
312.4210535073478
 20
303.2102679852142
 30
0.0
 11
312.4210535073478
 21
304.0867914852142
 31
0.0
  0
ARC
  5
15A
330
1B
100
AcDbEntity
  8
4
 62
     3
100
AcDbCircle
 10
308.4210545073472
 20
304.0867914852142
 30
0.0
 40
4.0000005
100
AcDbArc
 50
0.0
 51
90.0
  0
LINE
  5
15B
330
1B
100
AcDbEntity
  8
4
 62
     3
100
AcDbLine
 10
337.9210595073471
 20
296.5867944852141
 30
0.0
 11
337.9210595073471
 21
307.0867944852141
 31
0.0
  0
LINE
  5
15C
330
1B
100
AcDbEntity
  8
4
 62
     3
100
AcDbLine
 10
325.563567507347
 20
295.8243054852142
 30
0.0
 11
332.6297570073473
 21
307.6012899852142
 31
0.0
  0
LINE
  5
15D
330
1B
100
AcDbEntity
  8
4
 62
     3
100
AcDbLine
 10
343.9210595073471
 20
309.5867934852142
 30
0.0
 11
343.921059507348
 21
286.5867984852141
 31
0.0
  0
ARC
  5
15E
330
1B
100
AcDbEntity
  8
4
 62
     3
100
AcDbCircle
 10
320.4210605073474
 20
299.5867944852141
 30
0.0
 40
1.0000005
100
AcDbArc
 50
0.0
 51
90.0
  0
LINE
  5
15F
330
1B
100
AcDbEntity
  8
4
 62
     3
100
AcDbLine
 10
326.4210605073474
 20
290.5867944852141
 30
0.0
 11
331.9210595073471
 21
290.5867944852141
 31
0.0
  0
ARC
  5
160
330
1B
100
AcDbEntity
  8
4
 62
     3
100
AcDbCircle
 10
326.4210605073474
 20
295.3098099852143
 30
0.0
 40
1.0000005
100
AcDbArc
 50
149.0362430000011
 51
180.0
  0
ARC
  5
161
330
1B
100
AcDbEntity
  8
4
 62
     3
100
AcDbCircle
 10
326.4210605073474
 20
291.5867934852142
 30
0.0
 40
1.0000005
100
AcDbArc
 50
180.0
 51
270.0
  0
LINE
  5
162
330
1B
100
AcDbEntity
  8
4
 62
     3
100
AcDbLine
 10
325.4210600073473
 20
295.3098099852143
 30
0.0
 11
325.4210600073473
 21
291.5867934852142
 31
0.0
  0
ARC
  5
163
330
1B
100
AcDbEntity
  8
4
 62
     3
100
AcDbCircle
 10
320.4210605073474
 20
296.5867944852141
 30
0.0
 40
1.0000005
100
AcDbArc
 50
270.0
 51
0.0
  0
LINE
  5
164
330
1B
100
AcDbEntity
  8
4
 62
     3
100
AcDbLine
 10
321.4210595073471
 20
296.5867944852141
 30
0.0
 11
321.4210595073471
 21
299.5867944852141
 31
0.0
  0
LINE
  5
165
330
1B
100
AcDbEntity
  8
4
 62
     3
100
AcDbLine
 10
320.4210605073474
 20
295.5867939852142
 30
0.0
 11
317.4210605073474
 21
295.5867939852142
 31
0.0
  0
ARC
  5
166
330
1B
100
AcDbEntity
  8
4
 62
     3
100
AcDbCircle
 10
338.9210600073473
 20
296.5867944852141
 30
0.0
 40
1.0000005
100
AcDbArc
 50
180.0
 51
270.0
  0
LINE
  5
167
330
1B
100
AcDbEntity
  8
4
 62
     3
100
AcDbLine
 10
338.9210600073473
 20
295.5867939852142
 30
0.0
 11
339.4210595073471
 21
295.5867939852142
 31
0.0
  0
ARC
  5
168
330
1B
100
AcDbEntity
  8
4
 62
     3
100
AcDbCircle
 10
339.4210595073471
 20
291.5867934852142
 30
0.0
 40
1.0000005
100
AcDbArc
 50
270.0
 51
0.0
  0
ARC
  5
169
330
1B
100
AcDbEntity
  8
4
 62
     3
100
AcDbCircle
 10
338.9210600073473
 20
289.5867939852142
 30
0.0
 40
1.0000005
100
AcDbArc
 50
90.0
 51
180.0
  0
ARC
  5
16A
330
1B
100
AcDbEntity
  8
4
 62
     3
100
AcDbCircle
 10
336.9210605073474
 20
289.0867944852141
 30
0.0
 40
1.0000005
100
AcDbArc
 50
270.0
 51
0.0
  0
LINE
  5
16B
330
1B
100
AcDbEntity
  8
4
 62
     3
100
AcDbLine
 10
337.9210595073471
 20
289.0867944852141
 30
0.0
 11
337.9210595073471
 21
289.5867939852142
 31
0.0
  0
LINE
  5
16C
330
1B
100
AcDbEntity
  8
4
 62
     3
100
AcDbLine
 10
338.9210600073473
 20
290.5867944852141
 30
0.0
 11
339.4210595073471
 21
290.5867944852141
 31
0.0
  0
LINE
  5
16D
330
1B
100
AcDbEntity
  8
4
 62
     3
100
AcDbLine
 10
340.4210600073473
 20
294.5867934852142
 30
0.0
 11
340.4210600073473
 21
291.5867934852142
 31
0.0
  0
ARC
  5
16E
330
1B
100
AcDbEntity
  8
4
 62
     3
100
AcDbCircle
 10
333.9210605073474
 20
289.0867944852141
 30
0.0
 40
1.0000005
100
AcDbArc
 50
180.0
 51
270.0
  0
LINE
  5
16F
330
1B
100
AcDbEntity
  8
4
 62
     3
100
AcDbLine
 10
332.9210600073473
 20
289.5867939852142
 30
0.0
 11
332.9210600073473
 21
289.0867944852141
 31
0.0
  0
ARC
  5
170
330
1B
100
AcDbEntity
  8
4
 62
     3
100
AcDbCircle
 10
331.9210595073471
 20
289.5867939852142
 30
0.0
 40
1.0000005
100
AcDbArc
 50
0.0
 51
90.0
  0
LINE
  5
171
330
1B
100
AcDbEntity
  8
4
 62
     3
100
AcDbLine
 10
333.9210605073474
 20
288.0867939852142
 30
0.0
 11
336.9210605073474
 21
288.0867939852142
 31
0.0
  0
ARC
  5
172
330
1B
100
AcDbEntity
  8
4
 62
     3
100
AcDbCircle
 10
339.4210595073471
 20
294.5867934852142
 30
0.0
 40
1.0000005
100
AcDbArc
 50
0.0
 51
90.0
  0
ARC
  5
173
330
1B
100
AcDbEntity
  8
4
 62
     3
100
AcDbCircle
 10
341.9210600073473
 20
286.5867984852141
 30
0.0
 40
1.9999995
100
AcDbArc
 50
270.0
 51
0.0
  0
LINE
  5
174
330
1B
100
AcDbEntity
  8
4
 62
     3
100
AcDbLine
 10
320.4210605073474
 20
300.5867934852142
 30
0.0
 11
317.4210605073474
 21
300.5867934852142
 31
0.0
  0
ARC
  5
175
330
1B
100
AcDbEntity
  8
4
 62
     3
100
AcDbCircle
 10
336.9210605073474
 20
307.0867944852141
 30
0.0
 40
1.0000005
100
AcDbArc
 50
0.0
 51
90.0
  0
ARC
  5
176
330
1B
100
AcDbEntity
  8
4
 62
     3
100
AcDbCircle
 10
333.4872500073477
 20
307.0867944852141
 30
0.0
 40
1.0000005
100
AcDbArc
 50
90.0
 51
149.0362430000011
  0
LINE
  5
177
330
1B
100
AcDbEntity
  8
4
 62
     3
100
AcDbLine
 10
333.4872500073477
 20
308.0867934852142
 30
0.0
 11
336.9210605073474
 21
308.0867934852142
 31
0.0
  0
ARC
  5
178
330
1B
100
AcDbEntity
  8
4
 62
     3
100
AcDbCircle
 10
341.9210600073473
 20
309.5867934852142
 30
0.0
 40
1.9999995
100
AcDbArc
 50
0.0
 51
90.0
  0
LINE
  5
179
330
1B
100
AcDbEntity
  8
4
 62
     3
100
AcDbLine
 10
227.9210600073473
 20
249.5867954852141
 30
0.0
 11
227.9210600073473
 21
261.5175690175997
 31
0.0
  0
LINE
  5
19B
330
1B
100
AcDbEntity
  8
4
100
AcDbLine
 10
492.5768663150471
 20
191.5867949852141
 30
0.0
 11
491.5768663150471
 21
190.5867949852141
 31
0.0
  0
LINE
  5
19C
330
1B
100
AcDbEntity
  8
4
100
AcDbLine
 10
568.5768668150469
 20
192.0867949852141
 30
0.0
 11
551.5768663150471
 21
192.0867949852141
 31
0.0
  0
LINE
  5
19D
330
1B
100
AcDbEntity
  8
4
100
AcDbLine
 10
568.5768668150469
 20
199.5867949852141
 30
0.0
 11
569.5768668150473
 21
199.5867949852141
 31
0.0
  0
LINE
  5
19E
330
1B
100
AcDbEntity
  8
4
100
AcDbLine
 10
546.5768663150471
 20
195.0867949852141
 30
0.0
 11
546.5768663150471
 21
191.5867949852141
 31
0.0
  0
LINE
  5
19F
330
1B
100
AcDbEntity
  8
4
100
AcDbLine
 10
551.5768663150471
 20
191.5867949852141
 30
0.0
 11
492.5768663150471
 21
191.5867949852141
 31
0.0
  0
LINE
  5
1A0
330
1B
100
AcDbEntity
  8
4
100
AcDbLine
 10
546.5768663150471
 20
195.0867949852141
 30
0.0
 11
491.5768663150471
 21
195.0867949852141
 31
0.0
  0
LINE
  5
1A1
330
1B
100
AcDbEntity
  8
4
100
AcDbLine
 10
491.5768663150471
 20
158.5867949852141
 30
0.0
 11
492.5768663150471
 21
157.5867949852141
 31
0.0
  0
LINE
  5
1A4
330
1B
100
AcDbEntity
  8
4
100
AcDbLine
 10
568.5768668150469
 20
157.0867949852141
 30
0.0
 11
551.5768663150471
 21
157.0867949852141
 31
0.0
  0
LINE
  5
1A5
330
1B
100
AcDbEntity
  8
4
100
AcDbLine
 10
568.5768668150469
 20
149.5867949852141
 30
0.0
 11
569.5768668150473
 21
149.5867949852141
 31
0.0
  0
LINE
  5
1A6
330
1B
100
AcDbEntity
  8
4
100
AcDbLine
 10
551.5768663150471
 20
157.5867949852141
 30
0.0
 11
492.5768663150471
 21
157.5867949852141
 31
0.0
  0
LINE
  5
1A7
330
1B
100
AcDbEntity
  8
4
100
AcDbLine
 10
551.5768663150471
 20
192.0867949852141
 30
0.0
 11
551.5768663150471
 21
157.0867949852141
 31
0.0
  0
LINE
  5
1A8
330
1B
100
AcDbEntity
  8
4
100
AcDbLine
 10
568.5768668150469
 20
199.5867949852141
 30
0.0
 11
568.5768668150469
 21
149.5867949852141
 31
0.0
  0
LINE
  5
1A9
330
1B
100
AcDbEntity
  8
4
100
AcDbLine
 10
492.5768663150471
 20
191.5867949852141
 30
0.0
 11
492.5768663150471
 21
157.5867949852141
 31
0.0
  0
LINE
  5
1AA
330
1B
100
AcDbEntity
  8
4
100
AcDbLine
 10
491.5768663150471
 20
195.0867949852141
 30
0.0
 11
491.5768663150471
 21
158.5867949852141
 31
0.0
  0
LINE
  5
1AD
330
1B
100
AcDbEntity
  8
4
100
AcDbLine
 10
262.9210600073473
 20
411.1255831691633
 30
0.0
 11
261.9210600073473
 21
410.1255831691633
 31
0.0
  0
LINE
  5
1AE
330
1B
100
AcDbEntity
  8
4
100
AcDbLine
 10
228.9210600073473
 20
411.1255831691633
 30
0.0
 11
229.9210600073473
 21
410.1255831691633
 31
0.0
  0
LINE
  5
1AF
330
1B
100
AcDbEntity
  8
4
100
AcDbLine
 10
228.9210600073473
 20
411.1255831691633
 30
0.0
 11
240.9210600073473
 21
411.1255831691633
 31
0.0
  0
LINE
  5
1B0
330
1B
100
AcDbEntity
  8
4
100
AcDbLine
 10
250.9210600073473
 20
411.1255831691633
 30
0.0
 11
262.9210600073473
 21
411.1255831691633
 31
0.0
  0
LINE
  5
1B1
330
1B
100
AcDbEntity
  8
4
100
AcDbLine
 10
229.9210600073473
 20
410.1255831691633
 30
0.0
 11
261.9210600073473
 21
410.1255831691633
 31
0.0
  0
ARC
  5
1B2
330
1B
100
AcDbEntity
  8
4
100
AcDbCircle
 10
263.4210600073473
 20
469.6255831691631
 30
0.0
 40
0.5
100
AcDbArc
 50
90.0
 51
180.0
  0
LINE
  5
1B3
330
1B
100
AcDbEntity
  8
4
100
AcDbLine
 10
263.4210600073473
 20
470.1255831691633
 30
0.0
 11
263.4210600073473
 21
470.1255831691633
 31
0.0
  0
ARC
  5
1B4
330
1B
100
AcDbEntity
  8
4
100
AcDbCircle
 10
228.4210600073473
 20
469.6255831691631
 30
0.0
 40
0.5
100
AcDbArc
 50
0.0
 51
90.0
  0
LINE
  5
1B5
330
1B
100
AcDbEntity
  8
4
100
AcDbLine
 10
228.4210600073473
 20
470.1255831691633
 30
0.0
 11
228.4210600073473
 21
470.1255831691633
 31
0.0
  0
ARC
  5
1B6
330
1B
100
AcDbEntity
  8
4
100
AcDbCircle
 10
245.9210600073473
 20
460.1255831691631
 30
0.0
 40
5.0
100
AcDbArc
 50
0.0
 51
180.0
  0
LINE
  5
1B7
330
1B
100
AcDbEntity
  8
4
100
AcDbLine
 10
263.4210600073473
 20
470.1255831691633
 30
0.0
 11
228.4210600073473
 21
470.1255831691633
 31
0.0
  0
LINE
  5
1B8
330
1B
100
AcDbEntity
  8
4
100
AcDbLine
 10
270.9210600073473
 20
487.1255836691635
 30
0.0
 11
270.9210600073473
 21
488.1255836691635
 31
0.0
  0
LINE
  5
1B9
330
1B
100
AcDbEntity
  8
4
100
AcDbLine
 10
220.9210600073473
 20
487.1255836691635
 30
0.0
 11
220.9210600073473
 21
488.1255836691635
 31
0.0
  0
LINE
  5
1BA
330
1B
100
AcDbEntity
  8
4
100
AcDbLine
 10
220.9210600073473
 20
487.1255836691635
 30
0.0
 11
270.9210600073473
 21
487.1255836691635
 31
0.0
  0
LINE
  5
1BB
330
1B
100
AcDbEntity
  8
4
100
AcDbLine
 10
228.4210600073473
 20
487.1255836691635
 30
0.0
 11
228.4210600073473
 21
470.1255831691633
 31
0.0
  0
LINE
  5
1BC
330
1B
100
AcDbEntity
  8
4
100
AcDbLine
 10
263.4210600073473
 20
487.1255836691635
 30
0.0
 11
263.4210600073473
 21
470.1255831691633
 31
0.0
  0
LINE
  5
1BD
330
1B
100
AcDbEntity
  8
4
100
AcDbLine
 10
250.9210600073473
 20
460.1255831691633
 30
0.0
 11
250.9210600073473
 21
410.1255831691633
 31
0.0
  0
LINE
  5
1BE
330
1B
100
AcDbEntity
  8
4
100
AcDbLine
 10
240.9210600073473
 20
460.1255831691633
 30
0.0
 11
240.9210600073473
 21
410.1255831691633
 31
0.0
  0
LINE
  5
1BF
330
1B
100
AcDbEntity
  8
4
100
AcDbLine
 10
262.9210600073473
 20
469.6255831691633
 30
0.0
 11
262.9210600073473
 21
411.1255831691633
 31
0.0
  0
LINE
  5
1C0
330
1B
100
AcDbEntity
  8
4
100
AcDbLine
 10
228.9210600073473
 20
469.6255831691633
 30
0.0
 11
228.9210600073473
 21
411.1255831691633
 31
0.0
  0
ARC
  5
1C1
330
1B
100
AcDbEntity
  8
4
100
AcDbCircle
 10
245.9210600073473
 20
174.5867949852141
 30
0.0
 40
16.9999725
100
AcDbArc
 50
107.104663698329
 51
72.89533500000049
  0
LINE
  5
1C2
330
1B
100
AcDbEntity
  8
4
100
AcDbLine
 10
250.9210600073473
 20
187.0867949852141
 30
0.0
 11
250.9210600073473
 21
195.0867949852141
 31
0.0
  0
LINE
  5
1C3
330
1B
100
AcDbEntity
  8
4
100
AcDbLine
 10
240.9210600073473
 20
195.0867949852141
 30
0.0
 11
240.9210600073473
 21
187.0867949852141
 31
0.0
  0
LINE
  5
1C4
330
1B
100
AcDbEntity
  8
4
100
AcDbLine
 10
250.9210600073473
 20
187.0867949852141
 30
0.0
 11
240.9210600073473
 21
187.0867949852141
 31
0.0
  0
LINE
  5
1C5
330
1B
100
AcDbEntity
  8
4
100
AcDbLine
 10
250.9210600073473
 20
195.0867949852141
 30
0.0
 11
240.9210600073473
 21
195.0867949852141
 31
0.0
  0
CIRCLE
  5
1C6
330
1B
100
AcDbEntity
  8
4
100
AcDbCircle
 10
245.9210600073473
 20
174.5867949852142
 30
0.0
 40
25.0
  0
LINE
  5
1CF
330
1B
100
AcDbEntity
  8
L-CENTER
 48
2.5
100
AcDbLine
 10
1145.462096133873
 20
86.586795485214
 30
0.0
 11
1145.462096133873
 21
47.58679498521406
 31
0.0
  0
LINE
  5
1D0
330
1B
100
AcDbEntity
  8
L-CENTER
 48
2.5
100
AcDbLine
 10
925.4620971338732
 20
86.586795485214
 30
0.0
 11
925.4620971338732
 21
47.58679498521406
 31
0.0
  0
ARC
  5
1D1
330
1B
100
AcDbEntity
  8
4
100
AcDbCircle
 10
1035.462096633873
 20
174.5867949852141
 30
0.0
 40
16.9999725
100
AcDbArc
 50
107.104663698329
 51
72.89533500000049
  0
LINE
  5
1D2
330
1B
100
AcDbEntity
  8
4
100
AcDbLine
 10
1040.462096633873
 20
187.0867949852141
 30
0.0
 11
1040.462096633873
 21
195.0867949852141
 31
0.0
  0
LINE
  5
1D3
330
1B
100
AcDbEntity
  8
4
100
AcDbLine
 10
1030.462096633873
 20
195.0867949852141
 30
0.0
 11
1030.462096633873
 21
187.0867949852141
 31
0.0
  0
LINE
  5
1D4
330
1B
100
AcDbEntity
  8
4
100
AcDbLine
 10
1040.462096633873
 20
187.0867949852141
 30
0.0
 11
1030.462096633873
 21
187.0867949852141
 31
0.0
  0
LINE
  5
1D5
330
1B
100
AcDbEntity
  8
4
100
AcDbLine
 10
1040.462096633873
 20
195.0867949852141
 30
0.0
 11
1030.462096633873
 21
195.0867949852141
 31
0.0
  0
ARC
  5
279
330
1B
100
AcDbEntity
  8
4
100
AcDbCircle
 10
245.9210600073473
 20
523.6461520510894
 30
0.0
 40
20.36274126524963
100
AcDbArc
 50
207.8752808740772
 51
332.1247191259228
  0
ARC
  5
27A
330
1B
100
AcDbEntity
  8
4
100
AcDbCircle
 10
341.9210595073471
 20
521.1255826691634
 30
0.0
 40
2.0
100
AcDbArc
 50
270.0
 51
0.0
  0
ARC
  5
27B
330
1B
100
AcDbEntity
  8
4
100
AcDbCircle
 10
277.9210465073472
 20
521.1255826691634
 30
0.0
 40
2.0
100
AcDbArc
 50
180.0
 51
270.0
  0
LINE
  5
27C
330
1B
100
AcDbEntity
  8
4
 62
     3
100
AcDbLine
 10
343.9210595073471
 20
522.1255826691634
 30
0.0
 11
343.9210595073471
 21
521.1255826691634
 31
0.0
  0
LINE
  5
27D
330
1B
100
AcDbEntity
  8
4
 62
     3
100
AcDbLine
 10
275.9210465073472
 20
521.1255826691634
 30
0.0
 11
275.9210465073472
 21
522.1255826691634
 31
0.0
  0
ARC
  5
27E
330
1B
100
AcDbEntity
  8
4
 62
     3
100
AcDbCircle
 10
604.3755270442194
 20
310.6958580682581
 30
0.0
 40
1.0
100
AcDbArc
 50
85.9999999999905
 51
175.999999999997
  0
LINE
  5
27F
330
1B
100
AcDbEntity
  8
4
 62
     3
100
AcDbLine
 10
604.4452835179637
 20
311.6934221185179
 30
0.0
 11
606.859553076995
 21
311.5245999450825
 31
0.0
  0
LINE
  5
280
330
1B
100
AcDbEntity
  8
4
 62
     3
100
AcDbLine
 10
602.5618589361417
 20
284.7591957541949
 30
0.0
 11
604.7442401017007
 21
284.6065887968418
 31
0.0
  0
ARC
  5
281
330
1B
100
AcDbEntity
  8
4
 62
     3
100
AcDbCircle
 10
602.631615409886
 20
285.7567598044548
 30
0.0
 40
1.0
100
AcDbArc
 50
175.999999999997
 51
265.9999999999905
  0
LINE
  5
282
330
1B
100
AcDbEntity
  8
4
 62
     3
100
AcDbLine
 10
601.6340513596261
 20
285.8265162781989
 30
0.0
 11
603.3779629939596
 21
310.7656145420023
 31
0.0
  0
LINE
  5
283
330
1B
100
AcDbEntity
  8
2
100
AcDbLine
 10
1086.405472306847
 20
257.8233099598737
 30
0.0
 11
1087.848847979821
 21
260.3233099598737
 31
0.0
  0
LINE
  5
284
330
1B
100
AcDbEntity
  8
2
100
AcDbLine
 10
1083.518720960898
 20
257.8233099598737
 30
0.0
 11
1086.405472306847
 21
257.8233099598737
 31
0.0
  0
LINE
  5
285
330
1B
100
AcDbEntity
  8
2
100
AcDbLine
 10
1082.075345287924
 20
260.3233099598737
 30
0.0
 11
1083.518720960898
 21
257.8233099598737
 31
0.0
  0
LINE
  5
286
330
1B
100
AcDbEntity
  8
2
100
AcDbLine
 10
1083.518720960898
 20
262.8233099598738
 30
0.0
 11
1086.405472306847
 21
262.8233099598738
 31
0.0
  0
LINE
  5
287
330
1B
100
AcDbEntity
  8
2
100
AcDbLine
 10
1082.075345287924
 20
260.3233099598737
 30
0.0
 11
1083.518720960898
 21
262.8233099598738
 31
0.0
  0
LINE
  5
288
330
1B
100
AcDbEntity
  8
2
100
AcDbLine
 10
1086.405472306847
 20
262.8233099598738
 30
0.0
 11
1087.848847979821
 21
260.3233099598737
 31
0.0
  0
CIRCLE
  5
289
330
1B
100
AcDbEntity
  8
4
100
AcDbCircle
 10
1084.962096633872
 20
260.3233099598737
 30
0.0
 40
5.75
  0
CIRCLE
  5
28A
330
1B
100
AcDbEntity
  8
4
100
AcDbCircle
 10
1084.962096633872
 20
260.3233099598737
 30
0.0
 40
5.0
  0
LINE
  5
28B
330
1B
100
AcDbEntity
  8
2
100
AcDbLine
 10
984.518720960898
 20
262.8233099598733
 30
0.0
 11
983.0753452879239
 21
260.3233099598732
 31
0.0
  0
LINE
  5
28C
330
1B
100
AcDbEntity
  8
2
100
AcDbLine
 10
988.8488479798211
 20
260.3233099598732
 30
0.0
 11
987.4054723068471
 21
262.8233099598733
 31
0.0
  0
LINE
  5
28D
330
1B
100
AcDbEntity
  8
2
100
AcDbLine
 10
987.4054723068471
 20
262.8233099598733
 30
0.0
 11
984.518720960898
 21
262.8233099598733
 31
0.0
  0
LINE
  5
28E
330
1B
100
AcDbEntity
  8
2
100
AcDbLine
 10
988.8488479798211
 20
260.3233099598732
 30
0.0
 11
987.4054723068471
 21
257.8233099598732
 31
0.0
  0
LINE
  5
28F
330
1B
100
AcDbEntity
  8
2
100
AcDbLine
 10
987.4054723068471
 20
257.8233099598732
 30
0.0
 11
984.518720960898
 21
257.8233099598732
 31
0.0
  0
LINE
  5
290
330
1B
100
AcDbEntity
  8
2
100
AcDbLine
 10
984.518720960898
 20
257.8233099598732
 30
0.0
 11
983.0753452879239
 21
260.3233099598732
 31
0.0
  0
CIRCLE
  5
291
330
1B
100
AcDbEntity
  8
4
100
AcDbCircle
 10
985.962096633873
 20
260.3233099598732
 30
0.0
 40
5.0
  0
CIRCLE
  5
292
330
1B
100
AcDbEntity
  8
4
100
AcDbCircle
 10
985.962096633873
 20
260.3233099598732
 30
0.0
 40
5.75
  0
LINE
  5
293
330
1B
100
AcDbEntity
  8
2
100
AcDbLine
 10
1086.405472306847
 20
86.35028001055468
 30
0.0
 11
1087.848847979821
 21
88.8502800105548
 31
0.0
  0
LINE
  5
294
330
1B
100
AcDbEntity
  8
2
100
AcDbLine
 10
1082.075345287925
 20
88.8502800105548
 30
0.0
 11
1083.518720960899
 21
86.35028001055468
 31
0.0
  0
LINE
  5
295
330
1B
100
AcDbEntity
  8
2
100
AcDbLine
 10
1083.518720960899
 20
86.35028001055468
 30
0.0
 11
1086.405472306847
 21
86.35028001055468
 31
0.0
  0
LINE
  5
296
330
1B
100
AcDbEntity
  8
2
100
AcDbLine
 10
1082.075345287925
 20
88.8502800105548
 30
0.0
 11
1083.518720960899
 21
91.3502800105548
 31
0.0
  0
LINE
  5
297
330
1B
100
AcDbEntity
  8
2
100
AcDbLine
 10
1083.518720960899
 20
91.3502800105548
 30
0.0
 11
1086.405472306848
 21
91.3502800105548
 31
0.0
  0
LINE
  5
298
330
1B
100
AcDbEntity
  8
2
100
AcDbLine
 10
1086.405472306848
 20
91.3502800105548
 30
0.0
 11
1087.848847979821
 21
88.8502800105548
 31
0.0
  0
CIRCLE
  5
299
330
1B
100
AcDbEntity
  8
4
100
AcDbCircle
 10
1084.962096633873
 20
88.8502800105548
 30
0.0
 40
5.0
  0
CIRCLE
  5
29A
330
1B
100
AcDbEntity
  8
4
100
AcDbCircle
 10
1084.962096633873
 20
88.8502800105548
 30
0.0
 40
5.75
  0
LINE
  5
29B
330
1B
100
AcDbEntity
  8
2
100
AcDbLine
 10
984.5187209608985
 20
91.3502800105548
 30
0.0
 11
983.0753452879248
 21
88.8502800105548
 31
0.0
  0
LINE
  5
29C
330
1B
100
AcDbEntity
  8
2
100
AcDbLine
 10
987.4054723068471
 20
91.3502800105548
 30
0.0
 11
984.5187209608985
 21
91.3502800105548
 31
0.0
  0
LINE
  5
29D
330
1B
100
AcDbEntity
  8
2
100
AcDbLine
 10
988.8488479798211
 20
88.8502800105548
 30
0.0
 11
987.4054723068471
 21
91.3502800105548
 31
0.0
  0
LINE
  5
29E
330
1B
100
AcDbEntity
  8
2
100
AcDbLine
 10
987.4054723068471
 20
86.35028001055468
 30
0.0
 11
984.5187209608989
 21
86.35028001055468
 31
0.0
  0
LINE
  5
29F
330
1B
100
AcDbEntity
  8
2
100
AcDbLine
 10
988.8488479798211
 20
88.8502800105548
 30
0.0
 11
987.4054723068471
 21
86.35028001055468
 31
0.0
  0
LINE
  5
2A0
330
1B
100
AcDbEntity
  8
2
100
AcDbLine
 10
984.5187209608989
 20
86.35028001055468
 30
0.0
 11
983.0753452879248
 21
88.8502800105548
 31
0.0
  0
CIRCLE
  5
2A1
330
1B
100
AcDbEntity
  8
4
100
AcDbCircle
 10
985.962096633873
 20
88.8502800105548
 30
0.0
 40
5.75
  0
CIRCLE
  5
2A2
330
1B
100
AcDbEntity
  8
4
100
AcDbCircle
 10
985.962096633873
 20
88.8502800105548
 30
0.0
 40
5.0
  0
LINE
  5
2A3
330
1B
100
AcDbEntity
  8
2
100
AcDbLine
 10
1135.905472306848
 20
177.0867949852142
 30
0.0
 11
1137.348847979821
 21
174.5867949852142
 31
0.0
  0
LINE
  5
2A4
330
1B
100
AcDbEntity
  8
2
100
AcDbLine
 10
1133.018720960899
 20
177.0867949852142
 30
0.0
 11
1135.905472306848
 21
177.0867949852142
 31
0.0
  0
LINE
  5
2A5
330
1B
100
AcDbEntity
  8
2
100
AcDbLine
 10
1131.575345287925
 20
174.5867949852142
 30
0.0
 11
1133.018720960899
 21
177.0867949852142
 31
0.0
  0
LINE
  5
2A6
330
1B
100
AcDbEntity
  8
2
100
AcDbLine
 10
1133.018720960899
 20
172.0867949852141
 30
0.0
 11
1135.905472306847
 21
172.0867949852139
 31
0.0
  0
LINE
  5
2A7
330
1B
100
AcDbEntity
  8
2
100
AcDbLine
 10
1131.575345287925
 20
174.5867949852142
 30
0.0
 11
1133.018720960899
 21
172.0867949852141
 31
0.0
  0
LINE
  5
2A8
330
1B
100
AcDbEntity
  8
2
100
AcDbLine
 10
1135.905472306847
 20
172.0867949852139
 30
0.0
 11
1137.348847979821
 21
174.5867949852142
 31
0.0
  0
CIRCLE
  5
2A9
330
1B
100
AcDbEntity
  8
4
100
AcDbCircle
 10
1134.462096633873
 20
174.5867949852141
 30
0.0
 40
5.75
  0
CIRCLE
  5
2AA
330
1B
100
AcDbEntity
  8
4
100
AcDbCircle
 10
1134.462096633873
 20
174.5867949852141
 30
0.0
 40
5.0
  0
LINE
  5
2AB
330
1B
100
AcDbEntity
  8
2
100
AcDbLine
 10
939.3488479798211
 20
174.5867949852142
 30
0.0
 11
937.9054723068471
 21
177.0867949852142
 31
0.0
  0
LINE
  5
2AC
330
1B
100
AcDbEntity
  8
2
100
AcDbLine
 10
935.0187209608989
 20
172.0867949852139
 30
0.0
 11
933.5753452879248
 21
174.5867949852142
 31
0.0
  0
LINE
  5
2AD
330
1B
100
AcDbEntity
  8
2
100
AcDbLine
 10
937.9054723068471
 20
172.0867949852141
 30
0.0
 11
935.0187209608989
 21
172.0867949852139
 31
0.0
  0
LINE
  5
2AE
330
1B
100
AcDbEntity
  8
2
100
AcDbLine
 10
937.9054723068471
 20
177.0867949852142
 30
0.0
 11
935.0187209608985
 21
177.0867949852142
 31
0.0
  0
LINE
  5
2AF
330
1B
100
AcDbEntity
  8
2
100
AcDbLine
 10
939.3488479798211
 20
174.5867949852142
 30
0.0
 11
937.9054723068471
 21
172.0867949852141
 31
0.0
  0
LINE
  5
2B0
330
1B
100
AcDbEntity
  8
2
100
AcDbLine
 10
935.0187209608985
 20
177.0867949852142
 30
0.0
 11
933.5753452879248
 21
174.5867949852142
 31
0.0
  0
CIRCLE
  5
2B1
330
1B
100
AcDbEntity
  8
4
100
AcDbCircle
 10
936.462096633873
 20
174.5867949852141
 30
0.0
 40
5.0
  0
CIRCLE
  5
2B2
330
1B
100
AcDbEntity
  8
4
100
AcDbCircle
 10
936.462096633873
 20
174.5867949852141
 30
0.0
 40
5.75
  0
ARC
  5
2B3
330
1B
100
AcDbEntity
  8
4
100
AcDbCircle
 10
950.9036941075396
 20
198.9563777102945
 30
0.0
 40
3.0
100
AcDbArc
 50
163.92311168739
 51
275.1263803664074
  0
ARC
  5
2B4
330
1B
100
AcDbEntity
  8
4
100
AcDbCircle
 10
1011.092513908794
 20
259.1451975115475
 30
0.0
 40
3.0
100
AcDbArc
 50
354.8736196335946
 51
106.0768883126097
  0
ARC
  5
2B5
330
1B
100
AcDbEntity
  8
4
100
AcDbCircle
 10
998.7409452982643
 20
211.3079463208238
 30
0.0
 40
3.0
100
AcDbArc
 50
97.1022381495688
 51
172.8977618504279
  0
ARC
  5
2B6
330
1B
100
AcDbEntity
  8
4
100
AcDbCircle
 10
996.0841472217357
 20
213.9647443973523
 30
0.0
 40
3.0
100
AcDbArc
 50
97.61903501642539
 51
172.3809649835703
  0
ARC
  5
2B7
330
1B
100
AcDbEntity
  8
4
100
AcDbCircle
 10
985.9888314508294
 20
205.1159742859378
 30
0.0
 40
6.0
100
AcDbArc
 50
275.1263803664074
 51
354.2741567175669
  0
ARC
  5
2B8
330
1B
100
AcDbEntity
  8
4
100
AcDbCircle
 10
1004.93291733315
 20
224.0600601682587
 30
0.0
 40
6.0
100
AcDbArc
 50
275.7258432824342
 51
354.8736196335936
  0
LINE
  5
2B9
330
1B
100
AcDbEntity
  8
L-CENTER
 48
2.5
100
AcDbLine
 10
991.962096633873
 20
249.9310051144598
 30
0.0
 11
979.962096633873
 21
270.7156148052868
 31
0.0
  0
LINE
  5
2BA
330
1B
100
AcDbEntity
  8
4
100
AcDbLine
 10
1014.080514001033
 20
258.8771388448772
 30
0.0
 11
1010.908917517629
 21
223.5239428349182
 31
0.0
  0
ARC
  5
2BB
330
1B
100
AcDbEntity
  8
4
100
AcDbCircle
 10
1072.183247969483
 20
211.3079463208238
 30
0.0
 40
3.0
100
AcDbArc
 50
7.102238149571051
 51
82.8977618504312
  0
ARC
  5
2BC
330
1B
100
AcDbEntity
  8
4
100
AcDbCircle
 10
1074.840046046011
 20
213.9647443973523
 30
0.0
 40
3.0
100
AcDbArc
 50
7.619035016426488
 51
82.38096498356579
  0
ARC
  5
2BD
330
1B
100
AcDbEntity
  8
4
100
AcDbCircle
 10
1084.935361816918
 20
205.1159742859378
 30
0.0
 40
6.0
100
AcDbArc
 50
185.725843282432
 51
264.8736196335926
  0
ARC
  5
2BE
330
1B
100
AcDbEntity
  8
4
100
AcDbCircle
 10
1065.991275934597
 20
224.0600601682587
 30
0.0
 40
6.0
100
AcDbArc
 50
185.1263803664064
 51
264.2741567175658
  0
ARC
  5
2BF
330
1B
100
AcDbEntity
  8
4
100
AcDbCircle
 10
1120.020499160207
 20
198.9563777102945
 30
0.0
 40
3.0
100
AcDbArc
 50
264.8736196335926
 51
16.07688831260842
  0
LINE
  5
2C0
330
1B
100
AcDbEntity
  8
4
100
AcDbLine
 10
1119.752440493537
 20
195.9683776180541
 30
0.0
 11
1084.399244483577
 21
199.1399741014579
 31
0.0
  0
LINE
  5
2C1
330
1B
100
AcDbEntity
  8
L-CENTER
 48
2.5
100
AcDbLine
 10
1078.962096633873
 20
249.9310051144598
 30
0.0
 11
1090.962096633873
 21
270.7156148052868
 31
0.0
  0
ARC
  5
2C2
330
1B
100
AcDbEntity
  8
4
100
AcDbCircle
 10
1059.831679358953
 20
259.1451975115475
 30
0.0
 40
3.0
100
AcDbArc
 50
73.92311168739033
 51
185.1263803664054
  0
ARC
  5
2C3
330
1B
100
AcDbEntity
  8
4
100
AcDbCircle
 10
1035.462096633873
 20
-80.4132050147858
 30
0.0
 40
300.0
100
AcDbArc
 50
82.38096498357213
 51
97.61903501642787
  0
ARC
  5
2C4
330
1B
100
AcDbEntity
  8
4
100
AcDbCircle
 10
1035.462096633873
 20
-83.4132050147858
 30
0.0
 40
300.0
100
AcDbArc
 50
82.89776185042847
 51
97.10223814957153
  0
LINE
  5
2C5
330
1B
100
AcDbEntity
  8
4
100
AcDbLine
 10
1056.843679266714
 20
258.8771388448772
 30
0.0
 11
1060.015275750118
 21
223.5239428349182
 31
0.0
  0
LINE
  5
2C6
330
1B
100
AcDbEntity
  8
4
100
AcDbLine
 10
951.1717527742098
 20
195.9683776180541
 30
0.0
 11
986.5249487841697
 21
199.1399741014579
 31
0.0
  0
ARC
  5
2C7
330
1B
100
AcDbEntity
  8
4
100
AcDbCircle
 10
950.9036941075396
 20
150.2172122601338
 30
0.0
 40
3.0
100
AcDbArc
 50
84.87361963359257
 51
196.0768883126073
  0
ARC
  5
2C8
330
1B
100
AcDbEntity
  8
4
100
AcDbCircle
 10
998.7409452982643
 20
137.8656436496045
 30
0.0
 40
3.0
100
AcDbArc
 50
187.102238149571
 51
262.8977618504312
  0
ARC
  5
2C9
330
1B
100
AcDbEntity
  8
4
100
AcDbCircle
 10
996.0841472217357
 20
135.208845573076
 30
0.0
 40
3.0
100
AcDbArc
 50
187.6190350164275
 51
262.3809649835658
  0
ARC
  5
2CA
330
1B
100
AcDbEntity
  8
4
100
AcDbCircle
 10
1004.93291733315
 20
125.1135298021696
 30
0.0
 40
6.0
100
AcDbArc
 50
5.126380366406366
 51
84.2741567175658
  0
ARC
  5
2CB
330
1B
100
AcDbEntity
  8
4
100
AcDbCircle
 10
985.9888314508294
 20
144.0576156844905
 30
0.0
 40
6.0
100
AcDbArc
 50
5.72584328243309
 51
84.87361963359258
  0
LINE
  5
2CC
330
1B
100
AcDbEntity
  8
L-CENTER
 48
2.5
100
AcDbLine
 10
991.9620966338739
 20
99.24258485596829
 30
0.0
 11
979.962096633873
 21
78.4579751651413
 31
0.0
  0
ARC
  5
2CD
330
1B
100
AcDbEntity
  8
4
100
AcDbCircle
 10
1011.092513908794
 20
90.02839245888083
 30
0.0
 40
3.0
100
AcDbArc
 50
253.9231116873902
 51
5.126380366407433
  0
LINE
  5
2CE
330
1B
100
AcDbEntity
  8
4
100
AcDbLine
 10
1014.080514001033
 20
90.2964511255509
 30
0.0
 11
1010.908917517629
 21
125.6496471355099
 31
0.0
  0
CIRCLE
  5
2CF
330
1B
100
AcDbEntity
  8
4
100
AcDbCircle
 10
1100.462096633873
 20
174.5867949852142
 30
0.0
 40
2.5
  0
ARC
  5
2D0
330
1B
100
AcDbEntity
  8
4
100
AcDbCircle
 10
1065.991275934597
 20
125.1135298021696
 30
0.0
 40
6.0
100
AcDbArc
 50
95.7258432824342
 51
174.8736196335936
  0
ARC
  5
2D1
330
1B
100
AcDbEntity
  8
4
100
AcDbCircle
 10
1072.183247969483
 20
137.8656436496045
 30
0.0
 40
3.0
100
AcDbArc
 50
277.1022381495688
 51
352.8977618504289
  0
ARC
  5
2D2
330
1B
100
AcDbEntity
  8
4
100
AcDbCircle
 10
1074.840046046011
 20
135.208845573076
 30
0.0
 40
3.0
100
AcDbArc
 50
277.6190350164342
 51
352.3809649835735
  0
ARC
  5
2D3
330
1B
100
AcDbEntity
  8
4
100
AcDbCircle
 10
1084.935361816918
 20
144.0576156844905
 30
0.0
 40
6.0
100
AcDbArc
 50
95.12638036640742
 51
174.2741567175669
  0
ARC
  5
2D4
330
1B
100
AcDbEntity
  8
4
100
AcDbCircle
 10
1120.020499160207
 20
150.2172122601338
 30
0.0
 40
3.0
100
AcDbArc
 50
343.9231116873916
 51
95.12638036640745
  0
CIRCLE
  5
2D5
330
1B
100
AcDbEntity
  8
4
100
AcDbCircle
 10
1100.462096633873
 20
174.5867949852142
 30
0.0
 40
14.0
  0
LINE
  5
2D6
330
1B
100
AcDbEntity
  8
4
100
AcDbLine
 10
1119.752440493537
 20
153.2052123523731
 30
0.0
 11
1084.399244483577
 21
150.0336158689693
 31
0.0
  0
LINE
  5
2D7
330
1B
100
AcDbEntity
  8
L-CENTER
 48
2.5
100
AcDbLine
 10
1078.962096633873
 20
99.24258485596738
 30
0.0
 11
1090.962096633873
 21
78.4579751651413
 31
0.0
  0
ARC
  5
2D8
330
1B
100
AcDbEntity
  8
4
100
AcDbCircle
 10
1035.462096633873
 20
429.5867949852142
 30
0.0
 40
300.0
100
AcDbArc
 50
262.3809649835721
 51
277.6190350164279
  0
ARC
  5
2D9
330
1B
100
AcDbEntity
  8
4
100
AcDbCircle
 10
1035.462096633873
 20
432.5867949852142
 30
0.0
 40
300.0
100
AcDbArc
 50
262.8977618504285
 51
277.1022381495714
  0
ARC
  5
2DA
330
1B
100
AcDbEntity
  8
4
100
AcDbCircle
 10
1059.831679358953
 20
90.02839245888083
 30
0.0
 40
3.0
100
AcDbArc
 50
174.8736196335926
 51
286.0768883126098
  0
LINE
  5
2DB
330
1B
100
AcDbEntity
  8
4
100
AcDbLine
 10
1056.843679266714
 20
90.2964511255509
 30
0.0
 11
1060.015275750118
 21
125.6496471355099
 31
0.0
  0
LINE
  5
2DC
330
1B
100
AcDbEntity
  8
4
100
AcDbLine
 10
951.1717527742098
 20
153.2052123523731
 30
0.0
 11
986.5249487841697
 21
150.0336158689693
 31
0.0
  0
ARC
  5
2DD
330
1B
100
AcDbEntity
  8
4
100
AcDbCircle
 10
1293.462096633873
 20
174.5867949852142
 30
0.0
 40
300.0
100
AcDbArc
 50
172.8977618504285
 51
187.1022381495714
  0
ARC
  5
2DE
330
1B
100
AcDbEntity
  8
4
100
AcDbCircle
 10
780.4620966338731
 20
174.5867949852142
 30
0.0
 40
300.0
100
AcDbArc
 50
352.3809649835721
 51
7.619035016427832
  0
ARC
  5
2DF
330
1B
100
AcDbEntity
  8
4
100
AcDbCircle
 10
777.4620966338731
 20
174.5867949852142
 30
0.0
 40
300.0
100
AcDbArc
 50
352.8977618504284
 51
7.102238149571463
  0
CIRCLE
  5
2E0
330
1B
100
AcDbEntity
  8
4
100
AcDbCircle
 10
1035.462096633873
 20
174.5867949852142
 30
0.0
 40
25.0
  0
ARC
  5
2E1
330
1B
100
AcDbEntity
  8
4
100
AcDbCircle
 10
1290.462096633873
 20
174.5867949852142
 30
0.0
 40
300.0
100
AcDbArc
 50
172.3809649835721
 51
187.6190350164278
  0
CIRCLE
  5
2E2
330
1B
100
AcDbEntity
  8
4
100
AcDbCircle
 10
1035.462096633873
 20
174.5867949852142
 30
0.0
 40
91.0
  0
CIRCLE
  5
2E3
330
1B
100
AcDbEntity
  8
L-CENTER
 48
2.5
100
AcDbCircle
 10
1035.462096633873
 20
174.5867949852142
 30
0.0
 40
98.99999999999983
  0
CIRCLE
  5
2E4
330
1B
100
AcDbEntity
  8
4
100
AcDbCircle
 10
1035.462096633873
 20
174.5867949852142
 30
0.0
 40
105.0
  0
LINE
  5
2E5
330
1B
100
AcDbEntity
  8
4
100
AcDbLine
 10
856.4620966338731
 20
287.0867954852142
 30
0.0
 11
855.4620966338731
 21
286.0867954852142
 31
0.0
  0
LINE
  5
2E6
330
1B
100
AcDbEntity
  8
4
100
AcDbLine
 10
900.462096633873
 20
287.0867954852142
 30
0.0
 11
900.462096633873
 21
290.0867954852142
 31
0.0
  0
LINE
  5
2E7
330
1B
100
AcDbEntity
  8
4
100
AcDbLine
 10
855.4620966338731
 20
290.0867954852142
 30
0.0
 11
900.462096633873
 21
290.0867954852142
 31
0.0
  0
LINE
  5
2E8
330
1B
100
AcDbEntity
  8
4
100
AcDbLine
 10
905.462096633873
 20
287.0867954852142
 30
0.0
 11
856.4620966338731
 21
287.0867954852142
 31
0.0
  0
LINE
  5
2E9
330
1B
100
AcDbEntity
  8
4
 62
     3
100
AcDbLine
 10
930.7300461338732
 20
316.586795485214
 30
0.0
 11
924.9620961338728
 21
316.586795485214
 31
0.0
  0
ARC
  5
2EA
330
1B
100
AcDbEntity
  8
4
 62
     3
100
AcDbCircle
 10
932.4620961338728
 20
316.586795485214
 30
0.0
 40
1.0000005
100
AcDbArc
 50
90.0
 51
180.0
  0
ARC
  5
2EB
330
1B
100
AcDbEntity
  8
4
 62
     3
100
AcDbCircle
 10
930.7300461338732
 20
317.5867944852141
 30
0.0
 40
1.0000005
100
AcDbArc
 50
270.0
 51
330.0000000000009
  0
LINE
  5
2EC
330
1B
100
AcDbEntity
  8
4
100
AcDbLine
 10
924.962096633873
 20
305.5867954852142
 30
0.0
 11
923.962096633873
 21
305.5867954852142
 31
0.0
  0
ARC
  5
2ED
330
1B
100
AcDbEntity
  8
4
 62
     3
100
AcDbCircle
 10
930.462096633873
 20
285.5867949852141
 30
0.0
 40
1.0000005
100
AcDbArc
 50
270.0
 51
0.0
  0
LINE
  5
2EE
330
1B
100
AcDbEntity
  8
4
 62
     3
100
AcDbLine
 10
931.4620971338732
 20
285.5867949852141
 30
0.0
 11
931.4620971338732
 21
316.586795485214
 31
0.0
  0
LINE
  5
2EF
330
1B
100
AcDbEntity
  8
4
100
AcDbLine
 10
923.962096633873
 20
289.5867954852142
 30
0.0
 11
905.462096633873
 21
289.5867954852142
 31
0.0
  0
ARC
  5
2F0
330
1B
100
AcDbEntity
  8
4
 62
     3
100
AcDbCircle
 10
1075.472096133873
 20
318.5767944852141
 30
0.0
 40
0.99
100
AcDbArc
 50
270.0
 51
0.0
  0
LINE
  5
2F1
330
1B
100
AcDbEntity
  8
4
 62
     3
100
AcDbLine
 10
1076.462096133873
 20
318.5867949852141
 30
0.0
 11
1076.462096133873
 21
318.5767944852141
 31
0.0
  0
LINE
  5
2F2
330
1B
100
AcDbEntity
  8
4
100
AcDbLine
 10
1089.211606633873
 20
322.0867949852141
 30
0.0
 11
1089.211606633873
 21
326.0867949852141
 31
0.0
  0
LINE
  5
2F3
330
1B
100
AcDbEntity
  8
4
100
AcDbLine
 10
1083.961606633873
 20
318.5867949852141
 30
0.0
 11
1083.961606633873
 21
320.0867949852141
 31
0.0
  0
LINE
  5
2F4
330
1B
100
AcDbEntity
  8
4
100
AcDbLine
 10
1082.961606633873
 20
320.0867949852141
 30
0.0
 11
1082.961606633873
 21
326.0867949852141
 31
0.0
  0
LINE
  5
2F5
330
1B
100
AcDbEntity
  8
4
100
AcDbLine
 10
1106.961606633873
 20
318.5867949852141
 30
0.0
 11
1106.961606633873
 21
320.0867949852141
 31
0.0
  0
LINE
  5
2F6
330
1B
100
AcDbEntity
  8
4
100
AcDbLine
 10
1107.961606633873
 20
320.0867949852141
 30
0.0
 11
1107.961606633873
 21
326.0867949852141
 31
0.0
  0
LINE
  5
2F7
330
1B
100
AcDbEntity
  8
4
100
AcDbLine
 10
1101.711606633873
 20
322.0867949852141
 30
0.0
 11
1101.711606633873
 21
326.0867949852141
 31
0.0
  0
ARC
  5
2F8
330
1B
100
AcDbEntity
  8
4
 62
     3
100
AcDbCircle
 10
1115.452097133873
 20
318.5767944852141
 30
0.0
 40
0.99
100
AcDbArc
 50
180.0
 51
270.0
  0
LINE
  5
2F9
330
1B
100
AcDbEntity
  8
4
 62
     3
100
AcDbLine
 10
1114.462097133873
 20
318.5867949852141
 30
0.0
 11
1114.462097133873
 21
318.5767944852141
 31
0.0
  0
LINE
  5
2FA
330
1B
100
AcDbEntity
  8
4
100
AcDbLine
 10
1107.961606633873
 20
326.0867949852141
 30
0.0
 11
1082.961606633873
 21
326.0867949852141
 31
0.0
  0
LINE
  5
2FB
330
1B
100
AcDbEntity
  8
4
100
AcDbLine
 10
1107.961606633873
 20
322.0867949852141
 30
0.0
 11
1082.961606633873
 21
322.0867949852141
 31
0.0
  0
LINE
  5
2FC
330
1B
100
AcDbEntity
  8
4
100
AcDbLine
 10
1107.961606633873
 20
320.0867949852141
 30
0.0
 11
1082.961606633873
 21
320.0867949852141
 31
0.0
  0
LINE
  5
2FD
330
1B
100
AcDbEntity
  8
L-CENTER
 48
2.5
100
AcDbLine
 10
1095.462096633873
 20
309.4274780408587
 30
0.0
 11
1095.462096633873
 21
332.2228939298539
 31
0.0
  0
ARC
  5
2FE
330
1B
100
AcDbEntity
  8
4
 62
     3
100
AcDbCircle
 10
1140.194147133873
 20
317.5867944852141
 30
0.0
 40
1.0000005
100
AcDbArc
 50
209.9999999999931
 51
270.0
  0
LINE
  5
2FF
330
1B
100
AcDbEntity
  8
4
 62
     3
100
AcDbLine
 10
1145.962097133873
 20
316.586795485214
 30
0.0
 11
1140.194147133873
 21
316.586795485214
 31
0.0
  0
ARC
  5
300
330
1B
100
AcDbEntity
  8
4
 62
     3
100
AcDbCircle
 10
1140.462096633873
 20
285.5867949852141
 30
0.0
 40
1.0000005
100
AcDbArc
 50
180.0
 51
270.0
  0
LINE
  5
301
330
1B
100
AcDbEntity
  8
4
100
AcDbLine
 10
1145.962097133873
 20
305.5867954852142
 30
0.0
 11
1146.962097133873
 21
305.5867954852142
 31
0.0
  0
LINE
  5
302
330
1B
100
AcDbEntity
  8
4
 62
     3
100
AcDbLine
 10
1139.462096133873
 20
285.5867949852141
 30
0.0
 11
1139.462096133873
 21
316.586795485214
 31
0.0
  0
ARC
  5
303
330
1B
100
AcDbEntity
  8
4
 62
     3
100
AcDbCircle
 10
1138.462097133873
 20
316.586795485214
 30
0.0
 40
1.0000005
100
AcDbArc
 50
29.91501546532661
 51
90.0
  0
LINE
  5
304
330
1B
100
AcDbEntity
  8
4
 62
     3
100
AcDbLine
 10
1076.462096133873
 20
318.5867949852141
 30
0.0
 11
1114.462097133873
 21
318.5867949852141
 31
0.0
  0
LINE
  5
305
330
1B
100
AcDbEntity
  8
4
 62
     3
100
AcDbLine
 10
1138.463829184405
 20
317.5867944852141
 30
0.0
 11
932.4620961338728
 21
317.5867944852141
 31
0.0
  0
LINE
  5
306
330
1B
100
AcDbEntity
  8
4
100
AcDbLine
 10
855.4620966338731
 20
263.0867954852142
 30
0.0
 11
856.4620966338731
 21
262.0867954852142
 31
0.0
  0
LINE
  5
307
330
1B
100
AcDbEntity
  8
4
100
AcDbLine
 10
905.462096633873
 20
262.0867954852142
 30
0.0
 11
856.4620966338731
 21
262.0867954852142
 31
0.0
  0
ARC
  5
308
330
1B
100
AcDbEntity
  8
4
 62
     3
100
AcDbCircle
 10
930.462096633873
 20
263.5867944852139
 30
0.0
 40
1.0000005
100
AcDbArc
 50
0.0
 51
90.0
  0
LINE
  5
309
330
1B
100
AcDbEntity
  8
4
100
AcDbLine
 10
924.962096633873
 20
243.5867954852142
 30
0.0
 11
923.962096633873
 21
243.5867954852142
 31
0.0
  0
ARC
  5
30A
330
1B
100
AcDbEntity
  8
4
 62
     3
100
AcDbCircle
 10
945.2054361338728
 20
264.843455485214
 30
0.0
 40
4.0000005
100
AcDbArc
 50
106.0729439999987
 51
163.9270559999977
  0
LINE
  5
30B
330
1B
100
AcDbEntity
  8
4
 62
     3
100
AcDbLine
 10
929.4620961338728
 20
232.5867954852142
 30
0.0
 11
924.9620961338728
 21
232.5867954852142
 31
0.0
  0
ARC
  5
30C
330
1B
100
AcDbEntity
  8
4
 62
     3
100
AcDbCircle
 10
929.4620961338728
 20
230.5867944852139
 30
0.0
 40
1.9999995
100
AcDbArc
 50
0.0
 51
90.0
  0
LINE
  5
30D
330
1B
100
AcDbEntity
  8
4
 62
     3
100
AcDbLine
 10
931.4620971338732
 20
218.982740485214
 30
0.0
 11
931.4620971338732
 21
263.5867944852139
 31
0.0
  0
LINE
  5
30E
330
1B
100
AcDbEntity
  8
4
100
AcDbLine
 10
923.962096633873
 20
259.5867954852142
 30
0.0
 11
905.462096633873
 21
259.5867954852142
 31
0.0
  0
ARC
  5
30F
330
1B
100
AcDbEntity
  8
4
 62
     3
100
AcDbCircle
 10
907.4620971338732
 20
77.58679448521411
 30
0.0
 40
1.9999995
100
AcDbArc
 50
90.0
 51
180.0
  0
LINE
  5
310
330
1B
100
AcDbEntity
  8
4
 62
     3
100
AcDbLine
 10
905.4620961338728
 20
77.58679448521411
 30
0.0
 11
905.4620961338728
 21
54.58679498521406
 31
0.0
  0
ARC
  5
311
330
1B
100
AcDbEntity
  8
4
 62
     3
100
AcDbCircle
 10
923.4620961338728
 20
84.58679498521406
 30
0.0
 40
4.9999995
100
AcDbArc
 50
270.0
 51
0.0
  0
ARC
  5
312
330
1B
100
AcDbEntity
  8
4
 62
     3
100
AcDbCircle
 10
953.4620961338728
 20
77.58679448521411
 30
0.0
 40
1.9999995
100
AcDbArc
 50
0.0
 51
90.0
  0
ARC
  5
313
330
1B
100
AcDbEntity
  8
4
 62
     3
100
AcDbCircle
 10
955.4620971338732
 20
77.58679448521411
 30
0.0
 40
1.9999995
100
AcDbArc
 50
0.0
 51
90.0
  0
ARC
  5
314
330
1B
100
AcDbEntity
  8
4
 62
     3
100
AcDbCircle
 10
935.7780411338731
 20
84.58679498521406
 30
0.0
 40
4.9999995
100
AcDbArc
 50
270.0
 51
15.58434900000154
  0
LINE
  5
315
330
1B
100
AcDbEntity
  8
4
 62
     3
100
AcDbLine
 10
955.4620971338732
 20
77.58679448521411
 30
0.0
 11
955.4620971338732
 21
54.58679498521406
 31
0.0
  0
LINE
  5
316
330
1B
100
AcDbEntity
  8
4
 62
     3
100
AcDbLine
 10
957.462096633873
 20
77.58679448521411
 30
0.0
 11
957.462096633873
 21
54.58679498521406
 31
0.0
  0
ARC
  5
317
330
1B
100
AcDbEntity
  8
4
 62
     3
100
AcDbCircle
 10
962.4620961338728
 20
70.63725698521421
 30
0.0
 40
4.9999995
100
AcDbArc
 50
77.41366699999455
 51
180.0
  0
ARC
  5
318
330
1B
100
AcDbEntity
  8
4
 62
     3
100
AcDbCircle
 10
962.4620961338728
 20
59.58679448521411
 30
0.0
 40
4.9999995
100
AcDbArc
 50
90.0
 51
180.0
  0
LINE
  5
319
330
1B
100
AcDbEntity
  8
4
 62
     3
100
AcDbLine
 10
957.462096633873
 20
54.58679498521406
 30
0.0
 11
905.4620961338728
 21
54.58679498521406
 31
0.0
  0
LINE
  5
31A
330
1B
100
AcDbEntity
  8
4
 62
     3
100
AcDbLine
 10
955.4620971338732
 20
79.586795485214
 30
0.0
 11
907.4620971338732
 21
79.586795485214
 31
0.0
  0
ARC
  5
31B
330
1B
100
AcDbEntity
  8
4
 62
     3
100
AcDbCircle
 10
1258.462097133873
 20
174.5867949852141
 30
0.0
 40
330.0
100
AcDbArc
 50
163.927056
 51
195.5843489999999
  0
LINE
  5
31C
330
1B
100
AcDbEntity
  8
4
 62
     3
100
AcDbLine
 10
928.4620971338732
 20
174.5867949852141
 30
0.0
 11
928.4620971338732
 21
84.58679498521406
 31
0.0
  0
ARC
  5
31D
330
1B
100
AcDbEntity
  8
4
 62
     3
100
AcDbCircle
 10
1125.718757133873
 20
264.843455485214
 30
0.0
 40
4.0000005
100
AcDbArc
 50
16.07294400000068
 51
73.92705600000133
  0
ARC
  5
31E
330
1B
100
AcDbEntity
  8
4
 62
     3
100
AcDbCircle
 10
1140.462096633873
 20
263.5867944852139
 30
0.0
 40
1.0000005
100
AcDbArc
 50
90.0
 51
180.0
  0
LINE
  5
31F
330
1B
100
AcDbEntity
  8
4
100
AcDbLine
 10
1145.962097133873
 20
243.5867954852142
 30
0.0
 11
1146.962097133873
 21
243.5867954852142
 31
0.0
  0
ARC
  5
320
330
1B
100
AcDbEntity
  8
4
 62
     3
100
AcDbCircle
 10
1141.462097133873
 20
230.5867944852139
 30
0.0
 40
1.9999995
100
AcDbArc
 50
90.0
 51
180.0
  0
LINE
  5
321
330
1B
100
AcDbEntity
  8
4
 62
     3
100
AcDbLine
 10
1141.462097133873
 20
232.5867954852142
 30
0.0
 11
1145.962097133873
 21
232.5867954852142
 31
0.0
  0
LINE
  5
322
330
1B
100
AcDbEntity
  8
4
 62
     3
100
AcDbLine
 10
1139.462096133873
 20
218.982740485214
 30
0.0
 11
1139.462096133873
 21
263.5867944852139
 31
0.0
  0
LINE
  5
323
330
1B
100
AcDbEntity
  8
4
100
AcDbLine
 10
1145.962097133873
 20
151.5867944852141
 30
0.0
 11
1144.462097133873
 21
151.5867944852141
 31
0.0
  0
ARC
  5
324
330
1B
100
AcDbEntity
  8
4
 62
     3
100
AcDbCircle
 10
1144.462097133873
 20
157.586795485214
 30
0.0
 40
1.9999995
100
AcDbArc
 50
180.0
 51
270.0
  0
LINE
  5
325
330
1B
100
AcDbEntity
  8
4
100
AcDbLine
 10
1152.962097133873
 20
152.5867944852141
 30
0.0
 11
1145.962097133873
 21
152.5867944852141
 31
0.0
  0
LINE
  5
326
330
1B
100
AcDbEntity
  8
4
 62
     3
100
AcDbLine
 10
1142.462096133873
 20
174.5867949852141
 30
0.0
 11
1142.462096133873
 21
157.586795485214
 31
0.0
  0
LINE
  5
327
330
1B
100
AcDbEntity
  8
4
100
AcDbLine
 10
1147.962097133873
 20
145.0867944852141
 30
0.0
 11
1152.962097133873
 21
145.0867944852141
 31
0.0
  0
LINE
  5
328
330
1B
100
AcDbEntity
  8
4
100
AcDbLine
 10
1147.962097133873
 20
130.0867944852141
 30
0.0
 11
1152.962097133873
 21
130.0867944852141
 31
0.0
  0
LINE
  5
329
330
1B
100
AcDbEntity
  8
4
100
AcDbLine
 10
1145.962097133873
 20
123.5867944852141
 30
0.0
 11
1144.462097133873
 21
123.5867944852141
 31
0.0
  0
LINE
  5
32A
330
1B
100
AcDbEntity
  8
4
100
AcDbLine
 10
1145.962097133873
 20
122.5867944852141
 30
0.0
 11
1152.962097133873
 21
122.5867944852141
 31
0.0
  0
LINE
  5
32B
330
1B
100
AcDbEntity
  8
L-CENTER
 48
2.5
100
AcDbLine
 10
1132.516371633873
 20
137.5867944852141
 30
0.0
 11
1156.087598383172
 21
137.5867944852141
 31
0.0
  0
LINE
  5
32C
330
1B
100
AcDbEntity
  8
4
100
AcDbLine
 10
1144.462097133873
 20
123.5867944852141
 30
0.0
 11
1144.462097133873
 21
151.5867944852141
 31
0.0
  0
LINE
  5
32D
330
1B
100
AcDbEntity
  8
4
100
AcDbLine
 10
1145.962097133873
 20
122.5867944852141
 30
0.0
 11
1145.962097133873
 21
152.5867944852141
 31
0.0
  0
LINE
  5
32E
330
1B
100
AcDbEntity
  8
4
100
AcDbLine
 10
1147.962097133873
 20
122.5867944852141
 30
0.0
 11
1147.962097133873
 21
152.5867944852141
 31
0.0
  0
LINE
  5
32F
330
1B
100
AcDbEntity
  8
4
100
AcDbLine
 10
1152.962097133873
 20
122.5867944852141
 30
0.0
 11
1152.962097133873
 21
152.5867944852141
 31
0.0
  0
ARC
  5
330
330
1B
100
AcDbEntity
  8
4
 62
     3
100
AcDbCircle
 10
1115.462096133873
 20
77.58679448521411
 30
0.0
 40
1.9999995
100
AcDbArc
 50
90.0
 51
180.0
  0
ARC
  5
331
330
1B
100
AcDbEntity
  8
4
 62
     3
100
AcDbCircle
 10
1117.462097133873
 20
77.58679448521411
 30
0.0
 40
1.9999995
100
AcDbArc
 50
90.0
 51
180.0
  0
ARC
  5
332
330
1B
100
AcDbEntity
  8
4
 62
     3
100
AcDbCircle
 10
1108.462097133873
 20
70.63725698521421
 30
0.0
 40
4.9999995
100
AcDbArc
 50
0.0
 51
102.5863330000055
  0
LINE
  5
333
330
1B
100
AcDbEntity
  8
4
 62
     3
100
AcDbLine
 10
1113.462096633873
 20
77.58679448521411
 30
0.0
 11
1113.462096633873
 21
54.58679498521406
 31
0.0
  0
LINE
  5
334
330
1B
100
AcDbEntity
  8
4
 62
     3
100
AcDbLine
 10
1115.462096133873
 20
77.58679448521411
 30
0.0
 11
1115.462096133873
 21
54.58679498521406
 31
0.0
  0
ARC
  5
335
330
1B
100
AcDbEntity
  8
4
 62
     3
100
AcDbCircle
 10
1108.462097133873
 20
59.58679448521411
 30
0.0
 40
4.9999995
100
AcDbArc
 50
0.0
 51
90.0
  0
ARC
  5
336
330
1B
100
AcDbEntity
  8
4
 62
     3
100
AcDbCircle
 10
1135.146152133873
 20
84.58679498521406
 30
0.0
 40
4.9999995
100
AcDbArc
 50
164.4156509999987
 51
270.0
  0
LINE
  5
337
330
1B
100
AcDbEntity
  8
4
 62
     3
100
AcDbLine
 10
1145.462096133873
 20
104.5867944852141
 30
0.0
 11
1145.462096133873
 21
84.58679498521406
 31
0.0
  0
LINE
  5
338
330
1B
100
AcDbEntity
  8
4
 62
     3
100
AcDbLine
 10
1144.962096633873
 20
84.58679498521406
 30
0.0
 11
1145.462096133873
 21
84.58679498521406
 31
0.0
  0
ARC
  5
339
330
1B
100
AcDbEntity
  8
4
 62
     3
100
AcDbCircle
 10
1144.962096633873
 20
84.086795485214
 30
0.0
 40
0.4999995
100
AcDbArc
 50
90.0
 51
180.0
  0
LINE
  5
33A
330
1B
100
AcDbEntity
  8
4
100
AcDbLine
 10
1146.462096133873
 20
100.586795485214
 30
0.0
 11
1145.462096133873
 21
100.586795485214
 31
0.0
  0
LINE
  5
33B
330
1B
100
AcDbEntity
  8
4
 62
     3
100
AcDbLine
 10
1145.462096133873
 20
104.5867944852141
 30
0.0
 11
1144.962096633873
 21
104.5867944852141
 31
0.0
  0
LINE
  5
33C
330
1B
100
AcDbEntity
  8
4
100
AcDbLine
 10
1146.462096133873
 20
88.586795485214
 30
0.0
 11
1145.462096133873
 21
88.586795485214
 31
0.0
  0
LINE
  5
33D
330
1B
100
AcDbEntity
  8
4
100
AcDbLine
 10
1146.462096133873
 20
88.586795485214
 30
0.0
 11
1146.462096133873
 21
100.586795485214
 31
0.0
  0
ARC
  5
33E
330
1B
100
AcDbEntity
  8
4
 62
     3
100
AcDbCircle
 10
1146.462096633873
 20
81.58679498521406
 30
0.0
 40
1.9999995
100
AcDbArc
 50
180.0
 51
270.0
  0
ARC
  5
33F
330
1B
100
AcDbEntity
  8
4
 62
     3
100
AcDbCircle
 10
1147.462097133873
 20
84.58679498521406
 30
0.0
 40
4.9999995
100
AcDbArc
 50
180.0
 51
270.0
  0
LINE
  5
340
330
1B
100
AcDbEntity
  8
L-CENTER
 48
2.5
100
AcDbLine
 10
1131.127425633873
 20
94.586795485214
 30
0.0
 11
1149.702651633873
 21
94.586795485214
 31
0.0
  0
ARC
  5
341
330
1B
100
AcDbEntity
  8
4
 62
     3
100
AcDbCircle
 10
1035.462096633873
 20
397.5867954852142
 30
0.0
 40
330.0
100
AcDbArc
 50
270.0
 51
282.586333
  0
ARC
  5
342
330
1B
100
AcDbEntity
  8
4
 62
     3
100
AcDbCircle
 10
812.4620961338729
 20
174.5867949852141
 30
0.0
 40
330.0
100
AcDbArc
 50
344.4156509999999
 51
16.07294400000001
  0
LINE
  5
343
330
1B
100
AcDbEntity
  8
4
 62
     3
100
AcDbLine
 10
1144.462097133873
 20
81.58679498521406
 30
0.0
 11
1144.462097133873
 21
155.5867944852141
 31
0.0
  0
LINE
  5
344
330
1B
100
AcDbEntity
  8
4
 62
     3
100
AcDbLine
 10
1142.462096133873
 20
174.5867949852141
 30
0.0
 11
1142.462096133873
 21
84.58679498521406
 31
0.0
  0
ARC
  5
345
330
1B
100
AcDbEntity
  8
4
 62
     3
100
AcDbCircle
 10
1144.962096633873
 20
105.086795485214
 30
0.0
 40
0.4999995
100
AcDbArc
 50
180.0
 51
270.0
  0
ARC
  5
346
330
1B
100
AcDbEntity
  8
4
 62
     3
100
AcDbCircle
 10
1035.462096633873
 20
-48.41320551478609
 30
0.0
 40
330.0
100
AcDbArc
 50
73.92652589377367
 51
106.072944
  0
LINE
  5
347
330
1B
100
AcDbEntity
  8
L-CENTER
 48
2.5
100
AcDbLine
 10
1148.388801633873
 20
174.5867949852141
 30
0.0
 11
922.5353916338731
 21
174.5867949852141
 31
0.0
  0
LINE
  5
348
330
1B
100
AcDbEntity
  8
L-CENTER
 48
2.5
100
AcDbLine
 10
851.6533971096693
 20
274.5867954852142
 30
0.0
 11
1152.417655240044
 21
274.5867954852142
 31
0.0
  0
LINE
  5
349
330
1B
100
AcDbEntity
  8
4
 62
     3
100
AcDbLine
 10
1108.462097133873
 20
64.586795485214
 30
0.0
 11
962.4620961338728
 21
64.586795485214
 31
0.0
  0
ARC
  5
34A
330
1B
100
AcDbEntity
  8
4
 62
     3
100
AcDbCircle
 10
1035.462096633873
 20
397.5867954852142
 30
0.0
 40
330.0
100
AcDbArc
 50
257.413667
 51
270.0
  0
ARC
  5
34B
330
1B
100
AcDbEntity
  8
4
 62
     3
100
AcDbCircle
 10
1163.462096133873
 20
77.58679448521411
 30
0.0
 40
1.9999995
100
AcDbArc
 50
0.0
 51
90.0
  0
LINE
  5
34C
330
1B
100
AcDbEntity
  8
4
 62
     3
100
AcDbLine
 10
1165.462097133873
 20
77.58679448521411
 30
0.0
 11
1165.462097133873
 21
54.58679498521406
 31
0.0
  0
LINE
  5
34D
330
1B
100
AcDbEntity
  8
4
 62
     3
100
AcDbLine
 10
1165.462097133873
 20
54.58679498521406
 30
0.0
 11
1113.462096633873
 21
54.58679498521406
 31
0.0
  0
LINE
  5
34E
330
1B
100
AcDbEntity
  8
4
 62
     3
100
AcDbLine
 10
1163.462096133873
 20
79.586795485214
 30
0.0
 11
1146.462096633873
 21
79.586795485214
 31
0.0
  0
LINE
  5
34F
330
1B
100
AcDbEntity
  8
4
 62
     3
100
AcDbLine
 10
1115.462096133873
 20
79.586795485214
 30
0.0
 11
1163.462096133873
 21
79.586795485214
 31
0.0
  0
LINE
  5
350
330
1B
100
AcDbEntity
  8
4
 62
     3
100
AcDbLine
 10
1145.962097133873
 20
316.586795485214
 30
0.0
 11
1145.962097133873
 21
232.5867954852142
 31
0.0
  0
LINE
  5
351
330
1B
100
AcDbEntity
  8
4
100
AcDbLine
 10
1146.962097133873
 20
305.5867954852142
 30
0.0
 11
1146.962097133873
 21
243.5867954852142
 31
0.0
  0
LINE
  5
352
330
1B
100
AcDbEntity
  8
4
 62
     3
100
AcDbLine
 10
924.9620961338728
 20
316.586795485214
 30
0.0
 11
924.9620961338728
 21
232.5867954852142
 31
0.0
  0
LINE
  5
353
330
1B
100
AcDbEntity
  8
L-CENTER
 48
2.5
100
AcDbLine
 10
1035.462096633873
 20
61.6600899852142
 30
0.0
 11
1035.462096633873
 21
324.5867949852141
 31
0.0
  0
LINE
  5
354
330
1B
100
AcDbEntity
  8
4
100
AcDbLine
 10
923.962096633873
 20
305.5867954852142
 30
0.0
 11
923.962096633873
 21
243.5867954852142
 31
0.0
  0
LINE
  5
355
330
1B
100
AcDbEntity
  8
4
100
AcDbLine
 10
905.462096633873
 20
289.5867954852142
 30
0.0
 11
905.462096633873
 21
259.5867954852142
 31
0.0
  0
LINE
  5
356
330
1B
100
AcDbEntity
  8
4
100
AcDbLine
 10
855.4620966338731
 20
263.0867954852142
 30
0.0
 11
855.4620966338731
 21
290.0867954852142
 31
0.0
  0
LINE
  5
357
330
1B
100
AcDbEntity
  8
4
100
AcDbLine
 10
856.4620966338731
 20
287.0867954852142
 30
0.0
 11
856.4620966338731
 21
262.0867954852142
 31
0.0
  0
LINE
  5
358
330
1B
100
AcDbEntity
  8
4
100
AcDbLine
 10
262.9210600073473
 20
719.1255831691633
 30
0.0
 11
261.9210600073473
 21
720.1255831691633
 31
0.0
  0
LINE
  5
359
330
1B
100
AcDbEntity
  8
4
100
AcDbLine
 10
228.9210600073473
 20
719.1255831691633
 30
0.0
 11
229.9210600073473
 21
720.1255831691633
 31
0.0
  0
LINE
  5
35A
330
1B
100
AcDbEntity
  8
4
100
AcDbLine
 10
228.9210600073473
 20
719.1255831691633
 30
0.0
 11
240.9210600073473
 21
719.1255831691633
 31
0.0
  0
LINE
  5
35B
330
1B
100
AcDbEntity
  8
4
100
AcDbLine
 10
250.9210600073473
 20
719.1255831691633
 30
0.0
 11
262.9210600073473
 21
719.1255831691633
 31
0.0
  0
LINE
  5
35C
330
1B
100
AcDbEntity
  8
4
100
AcDbLine
 10
229.9210600073473
 20
720.1255831691633
 30
0.0
 11
261.9210600073473
 21
720.1255831691633
 31
0.0
  0
ARC
  5
35D
330
1B
100
AcDbEntity
  8
4
100
AcDbCircle
 10
263.4210600073473
 20
660.6255831691635
 30
0.0
 40
0.5
100
AcDbArc
 50
180.0
 51
270.0
  0
LINE
  5
35E
330
1B
100
AcDbEntity
  8
4
100
AcDbLine
 10
263.4210600073473
 20
660.1255831691633
 30
0.0
 11
263.4210600073473
 21
660.1255831691633
 31
0.0
  0
ARC
  5
35F
330
1B
100
AcDbEntity
  8
4
100
AcDbCircle
 10
228.4210600073473
 20
660.6255831691635
 30
0.0
 40
0.5
100
AcDbArc
 50
270.0
 51
0.0
  0
LINE
  5
360
330
1B
100
AcDbEntity
  8
4
100
AcDbLine
 10
228.4210600073473
 20
660.1255831691633
 30
0.0
 11
228.4210600073473
 21
660.1255831691633
 31
0.0
  0
ARC
  5
361
330
1B
100
AcDbEntity
  8
4
100
AcDbCircle
 10
245.9210600073473
 20
670.1255831691635
 30
0.0
 40
5.0
100
AcDbArc
 50
180.0
 51
0.0
  0
LINE
  5
362
330
1B
100
AcDbEntity
  8
4
100
AcDbLine
 10
263.4210600073473
 20
660.1255831691633
 30
0.0
 11
228.4210600073473
 21
660.1255831691633
 31
0.0
  0
LINE
  5
363
330
1B
100
AcDbEntity
  8
4
100
AcDbLine
 10
339.9210600073473
 20
631.9255831691632
 30
0.0
 11
339.9210600073473
 21
625.9255831691632
 31
0.0
  0
LINE
  5
364
330
1B
100
AcDbEntity
  8
4
100
AcDbLine
 10
349.9210600073473
 20
631.9255831691632
 30
0.0
 11
349.9210600073473
 21
625.9255831691632
 31
0.0
  0
LINE
  5
365
330
1B
100
AcDbEntity
  8
4
100
AcDbLine
 10
339.1710600073473
 20
625.9255831691632
 30
0.0
 11
339.1710600073473
 21
624.4255831691632
 31
0.0
  0
LINE
  5
366
330
1B
100
AcDbEntity
  8
4
100
AcDbLine
 10
350.6710600073473
 20
625.9255831691632
 30
0.0
 11
350.6710600073473
 21
624.4255831691632
 31
0.0
  0
LINE
  5
367
330
1B
100
AcDbEntity
  8
4
100
AcDbLine
 10
339.1710600073473
 20
625.9255831691632
 30
0.0
 11
350.6710600073473
 21
625.9255831691632
 31
0.0
  0
ARC
  5
368
330
1B
100
AcDbEntity
  8
4
100
AcDbCircle
 10
349.9210600073473
 20
623.4255831691632
 30
0.0
 40
1.0
100
AcDbArc
 50
0.0
 51
90.0
  0
LINE
  5
369
330
1B
100
AcDbEntity
  8
4
100
AcDbLine
 10
339.9210600073473
 20
631.9255831691632
 30
0.0
 11
349.9210600073473
 21
631.9255831691632
 31
0.0
  0
ARC
  5
36A
330
1B
100
AcDbEntity
  8
4
100
AcDbCircle
 10
371.9210600073473
 20
636.1255826691634
 30
0.0
 40
4.0000005
100
AcDbArc
 50
0.0
 51
90.0
  0
LINE
  5
36B
330
1B
100
AcDbEntity
  8
4
100
AcDbLine
 10
350.9210600073473
 20
608.1255836691632
 30
0.0
 11
350.9210600073473
 21
613.1255831691631
 31
0.0
  0
LINE
  5
36C
330
1B
100
AcDbEntity
  8
4
100
AcDbLine
 10
356.4210600073473
 20
596.1255831691633
 30
0.0
 11
357.4210600073473
 21
596.1255831691633
 31
0.0
  0
LINE
  5
36D
330
1B
100
AcDbEntity
  8
4
100
AcDbLine
 10
352.9210600073473
 20
607.1255831691633
 30
0.0
 11
352.9210600073473
 21
608.1255836691632
 31
0.0
  0
LINE
  5
36E
330
1B
100
AcDbEntity
  8
L-CENTER
 48
2.5
100
AcDbLine
 10
342.5486540073473
 20
620.1255836691632
 30
0.0
 11
369.5637605073473
 21
620.1255836691632
 31
0.0
  0
LINE
  5
36F
330
1B
100
AcDbEntity
  8
L-CENTER
 48
2.5
100
AcDbLine
 10
344.9210600073473
 20
602.3987531667028
 30
0.0
 11
344.9210600073473
 21
633.1583470934345
 31
0.0
  0
LINE
  5
370
330
1B
100
AcDbEntity
  8
L-CENTER
 48
2.5
100
AcDbLine
 10
355.9210595073471
 20
606.9078941691632
 30
0.0
 11
355.9210595073471
 21
633.9228626691634
 31
0.0
  0
LINE
  5
371
330
1B
100
AcDbEntity
  8
4
100
AcDbLine
 10
350.9210600073473
 20
623.4255831691632
 30
0.0
 11
350.9210600073473
 21
613.4255831691632
 31
0.0
  0
ARC
  5
372
330
1B
100
AcDbEntity
  8
4
100
AcDbCircle
 10
355.9210595073471
 20
620.1255836691632
 30
0.0
 40
7.5
100
AcDbArc
 50
228.1896902289132
 51
134.176119687506
  0
LINE
  5
373
330
1B
100
AcDbEntity
  8
4
100
AcDbLine
 10
300.4210601735615
 20
631.9255831691632
 30
0.0
 11
300.4210601735615
 21
625.9255831691632
 31
0.0
  0
LINE
  5
374
330
1B
100
AcDbEntity
  8
4
100
AcDbLine
 10
290.4210601735615
 20
631.9255831691632
 30
0.0
 11
290.4210601735615
 21
625.9255831691632
 31
0.0
  0
LINE
  5
375
330
1B
100
AcDbEntity
  8
4
100
AcDbLine
 10
325.968679054967
 20
624.4255831691632
 30
0.0
 11
300.4210601735615
 21
631.4234092105914
 31
0.0
  0
LINE
  5
376
330
1B
100
AcDbEntity
  8
4
100
AcDbLine
 10
325.8172370073473
 20
636.2322116691632
 30
0.0
 11
325.5469474504687
 21
626.09635456912
 31
0.0
  0
LINE
  5
377
330
1B
100
AcDbEntity
  8
4
100
AcDbLine
 10
289.6710601735615
 20
625.9255831691632
 30
0.0
 11
289.6710601735615
 21
624.4255831691632
 31
0.0
  0
LINE
  5
378
330
1B
100
AcDbEntity
  8
4
100
AcDbLine
 10
301.1710601735615
 20
625.9255831691632
 30
0.0
 11
301.1710601735615
 21
624.4255831691632
 31
0.0
  0
LINE
  5
379
330
1B
100
AcDbEntity
  8
4
100
AcDbLine
 10
289.6710601735615
 20
625.9255831691632
 30
0.0
 11
301.1710601735615
 21
625.9255831691632
 31
0.0
  0
LINE
  5
37A
330
1B
100
AcDbEntity
  8
4
100
AcDbLine
 10
298.587726674014
 20
631.9255831691632
 30
0.0
 11
292.0219035983348
 21
633.7240477507626
 31
0.0
  0
LINE
  5
37B
330
1B
100
AcDbEntity
  8
4
100
AcDbLine
 10
290.4210601735615
 20
631.9255831691632
 30
0.0
 11
300.4210601735615
 21
631.9255831691632
 31
0.0
  0
ARC
  5
37C
330
1B
100
AcDbEntity
  8
4
100
AcDbCircle
 10
287.1572641663481
 20
644.0255831691636
 30
0.0
 40
1.0
100
AcDbArc
 50
15.2551187030612
 51
90.0
  0
LINE
  5
37D
330
1B
100
AcDbEntity
  8
4
100
AcDbLine
 10
270.9210600073473
 20
646.0255831691636
 30
0.0
 11
270.9210600073473
 21
645.0255831691636
 31
0.0
  0
ARC
  5
37E
330
1B
100
AcDbEntity
  8
4
100
AcDbCircle
 10
292.5502670264971
 20
635.6529935996086
 30
0.0
 40
2.0
100
AcDbArc
 50
195.2551187030549
 51
254.6816642065432
  0
LINE
  5
37F
330
1B
100
AcDbEntity
  8
4
100
AcDbLine
 10
288.1220279875859
 20
644.2887005749556
 30
0.0
 11
290.6207393840216
 21
635.1267587880245
 31
0.0
  0
ARC
  5
380
330
1B
100
AcDbEntity
  8
4
100
AcDbCircle
 10
329.8158155073472
 20
636.1255826691634
 30
0.0
 40
4.0000005
100
AcDbArc
 50
90.0
 51
178.4724749999995
  0
LINE
  5
381
330
1B
100
AcDbEntity
  8
4
100
AcDbLine
 10
201.421059841133
 20
631.9255831691632
 30
0.0
 11
201.421059841133
 21
625.9255831691632
 31
0.0
  0
LINE
  5
382
330
1B
100
AcDbEntity
  8
4
100
AcDbLine
 10
191.421059841133
 20
631.9255831691632
 30
0.0
 11
191.421059841133
 21
625.9255831691632
 31
0.0
  0
LINE
  5
383
330
1B
100
AcDbEntity
  8
4
100
AcDbLine
 10
202.171059841133
 20
625.9255831691632
 30
0.0
 11
190.671059841133
 21
625.9255831691632
 31
0.0
  0
LINE
  5
384
330
1B
100
AcDbEntity
  8
4
100
AcDbLine
 10
190.671059841133
 20
625.9255831691632
 30
0.0
 11
190.671059841133
 21
624.4255831691632
 31
0.0
  0
LINE
  5
385
330
1B
100
AcDbEntity
  8
4
100
AcDbLine
 10
202.171059841133
 20
625.9255831691632
 30
0.0
 11
202.171059841133
 21
624.4255831691632
 31
0.0
  0
ARC
  5
386
330
1B
100
AcDbEntity
  8
4
100
AcDbCircle
 10
200.5648610226419
 20
636.5201049755749
 30
0.0
 40
1.0
100
AcDbArc
 50
285.3183357934568
 51
344.7448812969518
  0
LINE
  5
387
330
1B
100
AcDbEntity
  8
4
100
AcDbLine
 10
203.7200920271086
 20
644.2887005749558
 30
0.0
 11
201.5296248438797
 21
636.2569875697827
 31
0.0
  0
LINE
  5
388
330
1B
100
AcDbEntity
  8
4
100
AcDbLine
 10
193.2543933406801
 20
631.9255831691632
 30
0.0
 11
199.8202164163597
 21
633.7240477507626
 31
0.0
  0
LINE
  5
389
330
1B
100
AcDbEntity
  8
4
100
AcDbLine
 10
201.421059841133
 20
631.9255831691632
 30
0.0
 11
191.421059841133
 21
631.9255831691632
 31
0.0
  0
LINE
  5
38A
330
1B
100
AcDbEntity
  8
4
100
AcDbLine
 10
201.2213806306729
 20
635.1267587880245
 30
0.0
 11
201.4894229912059
 21
636.1095807766449
 31
0.0
  0
ARC
  5
38B
330
1B
100
AcDbEntity
  8
4
100
AcDbCircle
 10
199.2918529881974
 20
635.6529935996086
 30
0.0
 40
2.0
100
AcDbArc
 50
285.3183357934568
 51
344.7448812969451
  0
ARC
  5
38C
330
1B
100
AcDbEntity
  8
4
100
AcDbCircle
 10
204.6848558483464
 20
644.0255831691636
 30
0.0
 40
1.0
100
AcDbArc
 50
90.0
 51
164.7448812969384
  0
LINE
  5
38D
330
1B
100
AcDbEntity
  8
4
100
AcDbLine
 10
220.9210600073473
 20
646.0255831691636
 30
0.0
 11
220.9210600073473
 21
645.0255831691636
 31
0.0
  0
LINE
  5
38E
330
1B
100
AcDbEntity
  8
4
100
AcDbLine
 10
204.6848558483464
 20
645.0255831691636
 30
0.0
 11
287.1572641663481
 21
645.0255831691636
 31
0.0
  0
LINE
  5
38F
330
1B
100
AcDbEntity
  8
4
100
AcDbLine
 10
220.9210600073473
 20
646.0255831691636
 30
0.0
 11
270.9210600073473
 21
646.0255831691636
 31
0.0
  0
LINE
  5
390
330
1B
100
AcDbEntity
  8
4
100
AcDbLine
 10
204.6848558483464
 20
634.0255831691636
 30
0.0
 11
287.1572641663481
 21
634.0255831691636
 31
0.0
  0
LINE
  5
391
330
1B
100
AcDbEntity
  8
L-CENTER
 48
2.5
100
AcDbLine
 10
295.4210601735615
 20
602.3987531667028
 30
0.0
 11
295.4210601735615
 21
633.1583470934345
 31
0.0
  0
LINE
  5
392
330
1B
100
AcDbEntity
  8
L-CENTER
 48
2.5
100
AcDbLine
 10
196.421059841133
 20
602.3987531667028
 30
0.0
 11
196.421059841133
 21
633.1583470934345
 31
0.0
  0
LINE
  5
393
330
1B
100
AcDbEntity
  8
L-CENTER
 48
2.5
100
AcDbLine
 10
180.9210600073473
 20
640.0255831691636
 30
0.0
 11
180.9210600073473
 21
613.0255831691636
 31
0.0
  0
LINE
  5
394
330
1B
100
AcDbEntity
  8
4
100
AcDbLine
 10
329.8158155073472
 20
640.1255831691633
 30
0.0
 11
371.9210600073473
 21
640.1255831691633
 31
0.0
  0
LINE
  5
395
330
1B
100
AcDbEntity
  8
4
100
AcDbLine
 10
290.4626554824777
 20
635.7063997603523
 30
0.0
 11
331.6465890693573
 21
624.4255831691632
 31
0.0
  0
LINE
  5
396
330
1B
100
AcDbEntity
  8
4
100
AcDbLine
 10
228.4210600073473
 20
646.0255831691636
 30
0.0
 11
228.4210600073473
 21
660.1255831691633
 31
0.0
  0
LINE
  5
397
330
1B
100
AcDbEntity
  8
4
100
AcDbLine
 10
263.4210600073473
 20
646.0255831691636
 30
0.0
 11
263.4210600073473
 21
660.1255831691633
 31
0.0
  0
LINE
  5
398
330
1B
100
AcDbEntity
  8
4
100
AcDbLine
 10
250.9210600073473
 20
670.1255831691633
 30
0.0
 11
250.9210600073473
 21
720.1255831691633
 31
0.0
  0
LINE
  5
399
330
1B
100
AcDbEntity
  8
4
100
AcDbLine
 10
240.9210600073473
 20
670.1255831691633
 30
0.0
 11
240.9210600073473
 21
720.1255831691633
 31
0.0
  0
LINE
  5
39A
330
1B
100
AcDbEntity
  8
4
100
AcDbLine
 10
262.9210600073473
 20
660.6255831691633
 30
0.0
 11
262.9210600073473
 21
719.1255831691633
 31
0.0
  0
LINE
  5
39B
330
1B
100
AcDbEntity
  8
4
100
AcDbLine
 10
228.9210600073473
 20
660.6255831691633
 30
0.0
 11
228.9210600073473
 21
719.1255831691633
 31
0.0
  0
LINE
  5
39C
330
1B
100
AcDbEntity
  8
4
100
AcDbLine
 10
424.9210600073473
 20
577.6255831691633
 30
0.0
 11
425.9210600073473
 21
576.6255831691633
 31
0.0
  0
LINE
  5
39D
330
1B
100
AcDbEntity
  8
4
100
AcDbLine
 10
424.9210600073473
 20
577.6255831691633
 30
0.0
 11
425.9210600073473
 21
576.6255831691633
 31
0.0
  0
LINE
  5
39E
330
1B
100
AcDbEntity
  8
4
100
AcDbLine
 10
424.9210600073473
 20
577.6255831691633
 30
0.0
 11
424.9210600073473
 21
568.6255831691633
 31
0.0
  0
LINE
  5
39F
330
1B
100
AcDbEntity
  8
4
100
AcDbLine
 10
424.9210600073473
 20
577.6255831691633
 30
0.0
 11
424.9210600073473
 21
568.6255831691633
 31
0.0
  0
LINE
  5
3A0
330
1B
100
AcDbEntity
  8
4
100
AcDbLine
 10
357.4210600073473
 20
580.1255831691633
 30
0.0
 11
375.9210600073473
 21
580.1255831691633
 31
0.0
  0
LINE
  5
3A1
330
1B
100
AcDbEntity
  8
4
100
AcDbLine
 10
357.4210600073473
 20
580.1255831691633
 30
0.0
 11
375.9210600073473
 21
580.1255831691633
 31
0.0
  0
ARC
  5
3A2
330
1B
100
AcDbEntity
  8
4
100
AcDbCircle
 10
384.4210600073473
 20
565.1255831691633
 30
0.0
 40
3.5
100
AcDbArc
 50
90.0
 51
270.0
  0
ARC
  5
3A3
330
1B
100
AcDbEntity
  8
4
100
AcDbCircle
 10
384.4210600073473
 20
565.1255831691633
 30
0.0
 40
3.5
100
AcDbArc
 50
90.0
 51
270.0
  0
ARC
  5
3A4
330
1B
100
AcDbEntity
  8
4
100
AcDbCircle
 10
376.9210600073473
 20
578.6255831691633
 30
0.0
 40
1.0
100
AcDbArc
 50
180.0
 51
270.0
  0
ARC
  5
3A5
330
1B
100
AcDbEntity
  8
4
100
AcDbCircle
 10
376.9210600073473
 20
578.6255831691633
 30
0.0
 40
1.0
100
AcDbArc
 50
180.0
 51
270.0
  0
LINE
  5
3A6
330
1B
100
AcDbEntity
  8
4
100
AcDbLine
 10
384.4210600073473
 20
561.6255831691633
 30
0.0
 11
425.9210600073473
 21
561.6255831691633
 31
0.0
  0
LINE
  5
3A7
330
1B
100
AcDbEntity
  8
4
100
AcDbLine
 10
384.4210600073473
 20
561.6255831691633
 30
0.0
 11
425.9210600073473
 21
561.6255831691633
 31
0.0
  0
LINE
  5
3A8
330
1B
100
AcDbEntity
  8
4
100
AcDbLine
 10
384.4210600073473
 20
568.6255831691633
 30
0.0
 11
425.9210600073473
 21
568.6255831691633
 31
0.0
  0
LINE
  5
3A9
330
1B
100
AcDbEntity
  8
4
100
AcDbLine
 10
384.4210600073473
 20
568.6255831691633
 30
0.0
 11
425.9210600073473
 21
568.6255831691633
 31
0.0
  0
LINE
  5
3AA
330
1B
100
AcDbEntity
  8
4
100
AcDbLine
 10
376.9210600073473
 20
577.6255831691633
 30
0.0
 11
424.9210600073473
 21
577.6255831691633
 31
0.0
  0
LINE
  5
3AB
330
1B
100
AcDbEntity
  8
4
100
AcDbLine
 10
376.9210600073473
 20
577.6255831691633
 30
0.0
 11
424.9210600073473
 21
577.6255831691633
 31
0.0
  0
LINE
  5
3AC
330
1B
100
AcDbEntity
  8
4
100
AcDbLine
 10
424.9210600073473
 20
552.6255831691633
 30
0.0
 11
425.9210600073473
 21
553.6255831691633
 31
0.0
  0
LINE
  5
3AD
330
1B
100
AcDbEntity
  8
4
100
AcDbLine
 10
424.9210600073473
 20
552.6255831691633
 30
0.0
 11
425.9210600073473
 21
553.6255831691633
 31
0.0
  0
LINE
  5
3AE
330
1B
100
AcDbEntity
  8
4
100
AcDbLine
 10
356.4210600073473
 20
534.1255831691633
 30
0.0
 11
357.4210600073473
 21
534.1255831691633
 31
0.0
  0
LINE
  5
3AF
330
1B
100
AcDbEntity
  8
4
100
AcDbLine
 10
357.4210600073473
 20
550.1255831691633
 30
0.0
 11
375.9210600073473
 21
550.1255831691633
 31
0.0
  0
LINE
  5
3B0
330
1B
100
AcDbEntity
  8
4
100
AcDbLine
 10
357.4210600073473
 20
550.1255831691633
 30
0.0
 11
375.9210600073473
 21
550.1255831691633
 31
0.0
  0
ARC
  5
3B1
330
1B
100
AcDbEntity
  8
4
100
AcDbCircle
 10
376.9210600073473
 20
551.6255831691633
 30
0.0
 40
1.0
100
AcDbArc
 50
90.0
 51
180.0
  0
ARC
  5
3B2
330
1B
100
AcDbEntity
  8
4
100
AcDbCircle
 10
376.9210600073473
 20
551.6255831691633
 30
0.0
 40
1.0
100
AcDbArc
 50
90.0
 51
180.0
  0
LINE
  5
3B3
330
1B
100
AcDbEntity
  8
4
100
AcDbLine
 10
376.9210600073473
 20
552.6255831691633
 30
0.0
 11
424.9210600073473
 21
552.6255831691633
 31
0.0
  0
LINE
  5
3B4
330
1B
100
AcDbEntity
  8
4
100
AcDbLine
 10
376.9210600073473
 20
552.6255831691633
 30
0.0
 11
424.9210600073473
 21
552.6255831691633
 31
0.0
  0
LINE
  5
3B5
330
1B
100
AcDbEntity
  8
4
100
AcDbLine
 10
425.9210600073473
 20
576.6255831691633
 30
0.0
 11
425.9210600073473
 21
553.6255831691633
 31
0.0
  0
LINE
  5
3B6
330
1B
100
AcDbEntity
  8
4
100
AcDbLine
 10
425.9210600073473
 20
576.6255831691633
 30
0.0
 11
425.9210600073473
 21
553.6255831691633
 31
0.0
  0
LINE
  5
3B7
330
1B
100
AcDbEntity
  8
4
100
AcDbLine
 10
375.9210600073473
 20
580.1255831691633
 30
0.0
 11
375.9210600073473
 21
550.1255831691633
 31
0.0
  0
LINE
  5
3B8
330
1B
100
AcDbEntity
  8
4
100
AcDbLine
 10
375.9210600073473
 20
580.1255831691633
 30
0.0
 11
375.9210600073473
 21
550.1255831691633
 31
0.0
  0
LINE
  5
3B9
330
1B
100
AcDbEntity
  8
4
100
AcDbLine
 10
424.9210600073473
 20
561.6255831691633
 30
0.0
 11
424.9210600073473
 21
552.6255831691633
 31
0.0
  0
LINE
  5
3BA
330
1B
100
AcDbEntity
  8
4
100
AcDbLine
 10
424.9210600073473
 20
561.6255831691633
 30
0.0
 11
424.9210600073473
 21
552.6255831691633
 31
0.0
  0
LINE
  5
3BB
330
1B
100
AcDbEntity
  8
L-CENTER
 48
2.5
100
AcDbLine
 10
185.9210600073473
 20
539.6275052968288
 30
0.0
 11
185.9210600073473
 21
589.3443078297653
 31
0.0
  0
LINE
  5
3BC
330
1B
100
AcDbEntity
  8
4
100
AcDbLine
 10
350.9210600073473
 20
514.1255831691633
 30
0.0
 11
350.9210600073473
 21
522.1255826691634
 31
0.0
  0
LINE
  5
3BD
330
1B
100
AcDbEntity
  8
L-CENTER
 48
2.5
100
AcDbLine
 10
342.1835420073473
 20
510.1255826691634
 30
0.0
 11
369.5637605073473
 21
510.1255826691634
 31
0.0
  0
ARC
  5
3BE
330
1B
100
AcDbEntity
  8
4
100
AcDbCircle
 10
355.9210595073471
 20
510.1255826691634
 30
0.0
 40
7.5
100
AcDbArc
 50
147.7690428489584
 51
131.8103097710868
  0
LINE
  5
3BF
330
1B
100
AcDbEntity
  8
4
100
AcDbLine
 10
352.9210600073473
 20
522.1255826691634
 30
0.0
 11
352.9210600073473
 21
523.1255831691631
 31
0.0
  0
ARC
  5
3C0
330
1B
100
AcDbEntity
  8
4
100
AcDbCircle
 10
371.9210600073473
 20
494.1255836691635
 30
0.0
 40
4.0000005
100
AcDbArc
 50
270.0
 51
0.0
  0
LINE
  5
3C1
330
1B
100
AcDbEntity
  8
L-CENTER
 48
2.5
100
AcDbLine
 10
355.9210595073471
 20
496.2925631691633
 30
0.0
 11
355.9210595073471
 21
523.6726106691633
 31
0.0
  0
LINE
  5
3C2
330
1B
100
AcDbEntity
  8
4
100
AcDbLine
 10
285.9210605073474
 20
488.1255836691635
 30
0.0
 11
287.9210600073473
 21
498.1255826691634
 31
0.0
  0
ARC
  5
3C3
330
1B
100
AcDbEntity
  8
4
100
AcDbCircle
 10
329.8158155073472
 20
494.1255836691635
 30
0.0
 40
4.0000005
100
AcDbArc
 50
181.5275250000005
 51
270.0
  0
LINE
  5
3C4
330
1B
100
AcDbEntity
  8
4
100
AcDbLine
 10
205.9210595073471
 20
488.1255836691635
 30
0.0
 11
203.9210600073473
 21
498.1255826691634
 31
0.0
  0
LINE
  5
3C5
330
1B
100
AcDbEntity
  8
4
100
AcDbLine
 10
205.9210595073471
 20
488.1255836691635
 30
0.0
 11
285.9210605073474
 21
488.1255836691635
 31
0.0
  0
LINE
  5
3C6
330
1B
100
AcDbEntity
  8
4
100
AcDbLine
 10
203.9210600073473
 20
498.1255826691634
 30
0.0
 11
287.9210600073473
 21
498.1255826691634
 31
0.0
  0
LINE
  5
3C7
330
1B
100
AcDbEntity
  8
4
100
AcDbLine
 10
325.3893072473168
 20
510.0662979054794
 30
0.0
 11
325.813912926518
 21
494.1435809547495
 31
0.0
  0
LINE
  5
3C8
330
1B
100
AcDbEntity
  8
4
100
AcDbLine
 10
329.8158155073472
 20
490.1255831691633
 30
0.0
 11
371.9210600073473
 21
490.1255831691633
 31
0.0
  0
LINE
  5
3C9
330
1B
100
AcDbEntity
  8
4
100
AcDbLine
 10
337.0895996553638
 20
514.1255831691633
 30
0.0
 11
287.6935805073474
 21
496.9881881691633
 31
0.0
  0
LINE
  5
3CA
330
1B
100
AcDbEntity
  8
4
100
AcDbLine
 10
334.0387069857538
 20
514.1255831691633
 30
0.0
 11
287.9210600073473
 21
498.1255826691634
 31
0.0
  0
LINE
  5
3CB
330
1B
100
AcDbEntity
  8
L-CENTER
 48
2.5
100
AcDbLine
 10
245.9210600073473
 20
404.3532026691726
 30
0.0
 11
245.9210600073473
 21
730.7243337516004
 31
0.0
  0
LINE
  5
3CC
330
1B
100
AcDbEntity
  8
4
100
AcDbLine
 10
357.4210600073473
 20
596.1255831691633
 30
0.0
 11
357.4210600073473
 21
534.1255831691633
 31
0.0
  0
LINE
  5
3CD
330
1B
100
AcDbEntity
  8
4
100
AcDbLine
 10
356.4210600073473
 20
523.1255831691633
 30
0.0
 11
356.4210600073473
 21
607.1255831691633
 31
0.0
  0
LINE
  5
3CE
330
1B
100
AcDbEntity
  8
4
100
AcDbLine
 10
349.9210600073473
 20
523.1255831691631
 30
0.0
 11
349.9210600073473
 21
607.1255831691635
 31
0.0
  0
LINE
  5
3CF
330
1B
100
AcDbEntity
  8
4
100
AcDbLine
 10
375.9210605073474
 20
494.1255836691635
 30
0.0
 11
375.9210605073474
 21
636.1255826691634
 31
0.0
  0
LINE
  5
3D0
330
1B
100
AcDbEntity
  8
4
100
AcDbLine
 10
141.9210600073473
 20
631.9255831691632
 30
0.0
 11
141.9210600073473
 21
625.9255831691632
 31
0.0
  0
LINE
  5
3D1
330
1B
100
AcDbEntity
  8
4
100
AcDbLine
 10
151.9210600073473
 20
631.9255831691632
 30
0.0
 11
151.9210600073473
 21
625.9255831691632
 31
0.0
  0
LINE
  5
3D2
330
1B
100
AcDbEntity
  8
4
100
AcDbLine
 10
166.9210600073473
 20
632.5255831691638
 30
0.0
 11
166.9210600073473
 21
627.0307160018201
 31
0.0
  0
LINE
  5
3D3
330
1B
100
AcDbEntity
  8
4
100
AcDbLine
 10
166.0248830073472
 20
636.2322116691632
 30
0.0
 11
166.2951725642256
 21
626.0963545691195
 31
0.0
  0
LINE
  5
3D4
330
1B
100
AcDbEntity
  8
4
100
AcDbLine
 10
152.6710600073473
 20
625.9255831691632
 30
0.0
 11
141.1710600073473
 21
625.9255831691632
 31
0.0
  0
LINE
  5
3D5
330
1B
100
AcDbEntity
  8
4
100
AcDbLine
 10
141.1710600073473
 20
625.9255831691632
 30
0.0
 11
141.1710600073473
 21
624.4255831691632
 31
0.0
  0
ARC
  5
3D6
330
1B
100
AcDbEntity
  8
4
100
AcDbCircle
 10
141.9210600073473
 20
623.4255831691632
 30
0.0
 40
1.0
100
AcDbArc
 50
90.0
 51
180.0
  0
LINE
  5
3D7
330
1B
100
AcDbEntity
  8
4
100
AcDbLine
 10
152.6710600073473
 20
625.9255831691632
 30
0.0
 11
152.6710600073473
 21
624.4255831691632
 31
0.0
  0
ARC
  5
3D8
330
1B
100
AcDbEntity
  8
4
100
AcDbCircle
 10
165.9210600073473
 20
627.0307160018201
 30
0.0
 40
1.0
100
AcDbArc
 50
285.3183357934568
 51
0.0
  0
LINE
  5
3D9
330
1B
100
AcDbEntity
  8
4
100
AcDbLine
 10
151.9210600073473
 20
631.9255831691632
 30
0.0
 11
141.9210600073473
 21
631.9255831691632
 31
0.0
  0
LINE
  5
3DA
330
1B
100
AcDbEntity
  8
4
100
AcDbLine
 10
119.9210600073473
 20
640.1255831691633
 30
0.0
 11
162.0263045073473
 21
640.1255831691633
 31
0.0
  0
ARC
  5
3DB
330
1B
100
AcDbEntity
  8
4
100
AcDbCircle
 10
119.9210600073473
 20
636.1255826691634
 30
0.0
 40
4.0000005
100
AcDbArc
 50
90.0
 51
180.0
  0
ARC
  5
3DC
330
1B
100
AcDbEntity
  8
4
100
AcDbCircle
 10
167.9210600073473
 20
632.5255831691638
 30
0.0
 40
1.0
100
AcDbArc
 50
90.0
 51
180.0
  0
ARC
  5
3DD
330
1B
100
AcDbEntity
  8
4
100
AcDbCircle
 10
162.0263045073473
 20
636.1255826691634
 30
0.0
 40
4.0000005
100
AcDbArc
 50
1.527525000000444
 51
90.0
  0
LINE
  5
3DE
330
1B
100
AcDbEntity
  8
L-CENTER
 48
2.5
100
AcDbLine
 10
123.1420910073473
 20
620.1255836691632
 30
0.0
 11
149.4270410073475
 21
620.1255836691632
 31
0.0
  0
LINE
  5
3DF
330
1B
100
AcDbEntity
  8
4
100
AcDbLine
 10
140.9210600073473
 20
608.1255836691632
 30
0.0
 11
140.9210600073473
 21
613.1255831691635
 31
0.0
  0
LINE
  5
3E0
330
1B
100
AcDbEntity
  8
4
100
AcDbLine
 10
135.4210595073471
 20
596.1255831691633
 30
0.0
 11
134.4210595073471
 21
596.1255831691633
 31
0.0
  0
LINE
  5
3E1
330
1B
100
AcDbEntity
  8
4
100
AcDbLine
 10
138.9210600073473
 20
607.1255831691633
 30
0.0
 11
138.9210600073473
 21
608.1255836691632
 31
0.0
  0
LINE
  5
3E2
330
1B
100
AcDbEntity
  8
L-CENTER
 48
2.5
100
AcDbLine
 10
146.9210600073473
 20
602.3987531667028
 30
0.0
 11
146.9210600073473
 21
633.1583470934345
 31
0.0
  0
LINE
  5
3E3
330
1B
100
AcDbEntity
  8
L-CENTER
 48
2.5
100
AcDbLine
 10
135.9210605073474
 20
605.8127171691633
 30
0.0
 11
135.9210605073474
 21
634.6530191691634
 31
0.0
  0
LINE
  5
3E4
330
1B
100
AcDbEntity
  8
4
100
AcDbLine
 10
140.9210600073473
 20
623.4255831691632
 30
0.0
 11
140.9210600073473
 21
613.4255831691632
 31
0.0
  0
ARC
  5
3E5
330
1B
100
AcDbEntity
  8
4
100
AcDbCircle
 10
135.9210605073474
 20
620.1255836691632
 30
0.0
 40
7.5
100
AcDbArc
 50
45.82388031249412
 51
311.8103097710868
  0
LINE
  5
3E6
330
1B
100
AcDbEntity
  8
4
100
AcDbLine
 10
135.4210595073471
 20
534.1255831691633
 30
0.0
 11
134.4210595073471
 21
534.1255831691633
 31
0.0
  0
LINE
  5
3E7
330
1B
100
AcDbEntity
  8
L-CENTER
 48
2.5
100
AcDbLine
 10
122.7770240073476
 20
510.1255826691634
 30
0.0
 11
149.4270410073475
 21
510.1255826691634
 31
0.0
  0
LINE
  5
3E8
330
1B
100
AcDbEntity
  8
4
100
AcDbLine
 10
140.9210600073473
 20
514.1255831691633
 30
0.0
 11
140.9210600073473
 21
522.1255826691634
 31
0.0
  0
ARC
  5
3E9
330
1B
100
AcDbEntity
  8
4
100
AcDbCircle
 10
135.9210605073474
 20
510.1255826691634
 30
0.0
 40
7.5
100
AcDbArc
 50
48.18969022891324
 51
32.23095715104168
  0
LINE
  5
3EA
330
1B
100
AcDbEntity
  8
4
100
AcDbLine
 10
138.9210600073473
 20
522.1255826691634
 30
0.0
 11
138.9210600073473
 21
523.1255831691631
 31
0.0
  0
LINE
  5
3EB
330
1B
100
AcDbEntity
  8
4
100
AcDbLine
 10
119.9210600073473
 20
490.1255831691633
 30
0.0
 11
162.0263045073473
 21
490.1255831691633
 31
0.0
  0
ARC
  5
3EC
330
1B
100
AcDbEntity
  8
4
100
AcDbCircle
 10
119.9210600073473
 20
494.1255836691635
 30
0.0
 40
4.0000005
100
AcDbArc
 50
180.0
 51
270.0
  0
ARC
  5
3ED
330
1B
100
AcDbEntity
  8
4
100
AcDbCircle
 10
162.0263045073473
 20
494.1255836691635
 30
0.0
 40
4.0000005
100
AcDbArc
 50
270.0
 51
358.4724749999996
  0
LINE
  5
3EE
330
1B
100
AcDbEntity
  8
L-CENTER
 48
2.5
100
AcDbLine
 10
135.9210605073474
 20
497.0227316691632
 30
0.0
 11
135.9210605073474
 21
523.6726106691633
 31
0.0
  0
LINE
  5
3EF
330
1B
100
AcDbEntity
  8
4
100
AcDbLine
 10
166.0248830073472
 20
494.0189546691633
 30
0.0
 11
166.4528122195472
 21
510.0662980955431
 31
0.0
  0
LINE
  5
3F0
330
1B
100
AcDbEntity
  8
4
100
AcDbLine
 10
134.4210595073471
 20
596.1255831691633
 30
0.0
 11
134.4210595073471
 21
534.1255831691633
 31
0.0
  0
LINE
  5
3F1
330
1B
100
AcDbEntity
  8
4
100
AcDbLine
 10
141.9210600073473
 20
523.1255831691633
 30
0.0
 11
141.9210600073473
 21
607.1255831691633
 31
0.0
  0
LINE
  5
3F2
330
1B
100
AcDbEntity
  8
4
100
AcDbLine
 10
135.4210595073471
 20
523.1255831691633
 30
0.0
 11
135.4210595073471
 21
607.1255831691633
 31
0.0
  0
LINE
  5
3F3
330
1B
100
AcDbEntity
  8
4
100
AcDbLine
 10
115.9210595073471
 20
494.1255836691635
 30
0.0
 11
115.9210595073471
 21
636.1255826691634
 31
0.0
  0
LINE
  5
3F4
330
1B
100
AcDbEntity
  8
4
100
AcDbLine
 10
140.9210600073473
 20
514.1255831691633
 30
0.0
 11
350.9210600073473
 21
514.1255831691633
 31
0.0
  0
LINE
  5
3F5
330
1B
100
AcDbEntity
  8
4
100
AcDbLine
 10
277.9210465073472
 20
519.1255826691634
 30
0.0
 11
341.9210595073471
 21
519.1255826691634
 31
0.0
  0
LINE
  5
3F6
330
1B
100
AcDbEntity
  8
4
100
AcDbLine
 10
138.9210600073473
 20
522.1255826691634
 30
0.0
 11
352.9210600073473
 21
522.1255826691634
 31
0.0
  0
LINE
  5
3F7
330
1B
100
AcDbEntity
  8
4
100
AcDbLine
 10
135.4210595073471
 20
523.1255831691633
 30
0.0
 11
356.4210600073473
 21
523.1255831691633
 31
0.0
  0
LINE
  5
3F8
330
1B
100
AcDbEntity
  8
4
100
AcDbLine
 10
154.7525203593309
 20
514.1255831691633
 30
0.0
 11
204.1485395073476
 21
496.9881881691633
 31
0.0
  0
LINE
  5
3F9
330
1B
100
AcDbEntity
  8
4
100
AcDbLine
 10
157.8034130289409
 20
514.1255831691633
 30
0.0
 11
203.9210600073473
 21
498.1255826691634
 31
0.0
  0
LINE
  5
3FA
330
1B
100
AcDbEntity
  8
L-CENTER
 48
2.5
100
AcDbLine
 10
433.5278863673564
 20
565.1255831691633
 30
0.0
 11
109.4279407656855
 21
565.1255831691633
 31
0.0
  0
LINE
  5
3FB
330
1B
100
AcDbEntity
  8
4
100
AcDbLine
 10
160.1955309453372
 20
624.4255831691632
 30
0.0
 11
200.8290427367231
 21
635.5556320511519
 31
0.0
  0
LINE
  5
3FC
330
1B
100
AcDbEntity
  8
4
100
AcDbLine
 10
165.873440959728
 20
624.4255831691632
 30
0.0
 11
191.421059841133
 21
631.4234092105917
 31
0.0
  0
LINE
  5
3FD
330
1B
100
AcDbEntity
  8
4
100
AcDbLine
 10
350.9210600073473
 20
613.4255831691632
 30
0.0
 11
140.9210600073473
 21
613.4255831691632
 31
0.0
  0
LINE
  5
3FE
330
1B
100
AcDbEntity
  8
4
100
AcDbLine
 10
349.9210600073473
 20
624.4255831691632
 30
0.0
 11
141.9210600073473
 21
624.4255831691632
 31
0.0
  0
LINE
  5
3FF
330
1B
100
AcDbEntity
  8
4
100
AcDbLine
 10
140.9210600073473
 20
613.1255831691635
 30
0.0
 11
350.9210600073473
 21
613.1255831691631
 31
0.0
  0
LINE
  5
400
330
1B
100
AcDbEntity
  8
4
100
AcDbLine
 10
138.9210600073473
 20
608.1255836691632
 30
0.0
 11
352.9210600073473
 21
608.1255836691632
 31
0.0
  0
LINE
  5
401
330
1B
100
AcDbEntity
  8
4
100
AcDbLine
 10
135.4210595073471
 20
607.1255831691633
 30
0.0
 11
356.4210600073473
 21
607.1255831691633
 31
0.0
  0
LWPOLYLINE
  5
402
330
1B
100
AcDbEntity
  8
4
100
AcDbPolyline
 90
        6
 70
     1
 43
0.0
 10
198.4210600073473
 20
565.1255831691633
 10
192.1710600073473
 20
575.9509007164688
 10
179.6710600073473
 20
575.9509007164688
 10
173.4210600073473
 20
565.1255831691633
 10
179.6710600073473
 20
554.3002656218578
 10
192.1710600073473
 20
554.3002656218578
  0
CIRCLE
  5
403
330
1B
100
AcDbEntity
  8
4
100
AcDbCircle
 10
185.9210600073473
 20
565.1255831691633
 30
0.0
 40
12.5
  0
CIRCLE
  5
404
330
1B
100
AcDbEntity
  8
4
100
AcDbCircle
 10
185.9210600073473
 20
565.1255831691633
 30
0.0
 40
19.0
  0
LINE
  5
405
330
1B
100
AcDbEntity
  8
4
100
AcDbLine
 10
167.9210600073473
 20
633.5255831691638
 30
0.0
 11
193.4177531675612
 21
633.5255831691636
 31
0.0
  0
LINE
  5
408
330
1B
100
AcDbEntity
  8
4
100
AcDbLine
 10
713.3768663150473
 20
255.3233674852141
 30
0.0
 11
713.3768663150473
 21
265.323367485214
 31
0.0
  0
ARC
  5
40C
330
1B
100
AcDbEntity
  8
4
 62
     3
100
AcDbCircle
 10
666.576865815047
 20
317.921607985214
 30
0.0
 40
1.0000005
100
AcDbArc
 50
180.0
 51
266.1901650000002
  0
LINE
  5
40D
330
1B
100
AcDbEntity
  8
4
100
AcDbLine
 10
659.0769888150472
 20
322.0867949852141
 30
0.0
 11
634.0769888150472
 21
322.0867949852141
 31
0.0
  0
LINE
  5
40E
330
1B
100
AcDbEntity
  8
4
100
AcDbLine
 10
657.4021838150471
 20
326.0867949852141
 30
0.0
 11
635.7515488150472
 21
326.0867949852141
 31
0.0
  0
LINE
  5
40F
330
1B
100
AcDbEntity
  8
4
100
AcDbLine
 10
659.0769888150472
 20
320.0867949852141
 30
0.0
 11
634.0769888150472
 21
320.0867949852141
 31
0.0
  0
LINE
  5
410
330
1B
100
AcDbEntity
  8
4
100
AcDbLine
 10
635.7515488150472
 20
322.0867949852141
 30
0.0
 11
635.7515488150472
 21
326.0867949852141
 31
0.0
  0
LINE
  5
411
330
1B
100
AcDbEntity
  8
4
100
AcDbLine
 10
635.0769888150472
 20
318.5867949852141
 30
0.0
 11
635.0769888150472
 21
320.0867949852141
 31
0.0
  0
LINE
  5
412
330
1B
100
AcDbEntity
  8
4
100
AcDbLine
 10
634.0769888150472
 20
320.0867949852141
 30
0.0
 11
634.0769888150472
 21
322.0867949852141
 31
0.0
  0
LINE
  5
413
330
1B
100
AcDbEntity
  8
4
100
AcDbLine
 10
657.4021838150471
 20
322.0867949852141
 30
0.0
 11
657.4021838150471
 21
326.0867949852141
 31
0.0
  0
LINE
  5
414
330
1B
100
AcDbEntity
  8
4
100
AcDbLine
 10
658.0769888150472
 20
318.5867949852141
 30
0.0
 11
658.0769888150472
 21
320.0867949852141
 31
0.0
  0
LINE
  5
415
330
1B
100
AcDbEntity
  8
4
100
AcDbLine
 10
659.0769888150472
 20
320.0867949852141
 30
0.0
 11
659.0769888150472
 21
322.0867949852141
 31
0.0
  0
LINE
  5
416
330
1B
100
AcDbEntity
  8
4
 62
     3
100
AcDbLine
 10
665.5768668150473
 20
318.5867949852141
 30
0.0
 11
665.5768668150473
 21
317.921607985214
 31
0.0
  0
ARC
  5
417
330
1B
100
AcDbEntity
  8
4
 62
     3
100
AcDbCircle
 10
682.2754473150472
 20
311.4262254852142
 30
0.0
 40
4.0000005
100
AcDbArc
 50
7.149430000000284
 51
83.07307699999917
  0
ARC
  5
418
330
1B
100
AcDbEntity
  8
4
 62
     3
100
AcDbCircle
 10
626.5768668150473
 20
317.921607985214
 30
0.0
 40
1.0000005
100
AcDbArc
 50
273.8098349999998
 51
0.0
  0
ARC
  5
419
330
1B
100
AcDbEntity
  8
4
 62
     3
100
AcDbCircle
 10
610.878285315047
 20
311.4262254852142
 30
0.0
 40
4.0000005
100
AcDbArc
 50
96.92692300000083
 51
172.8505699999997
  0
LINE
  5
41A
330
1B
100
AcDbEntity
  8
4
 62
     3
100
AcDbLine
 10
627.576865815047
 20
318.5867949852141
 30
0.0
 11
627.576865815047
 21
317.921607985214
 31
0.0
  0
ARC
  5
41B
330
1B
100
AcDbEntity
  8
4
 62
     3
100
AcDbCircle
 10
646.5768663150471
 20
17.58679448521411
 30
0.0
 40
300.0
100
AcDbArc
 50
83.07307699999998
 51
96.926923
  0
LINE
  5
41C
330
1B
100
AcDbEntity
  8
4
 62
     3
100
AcDbLine
 10
665.5768668150473
 20
318.5867949852141
 30
0.0
 11
627.576865815047
 21
318.5867949852141
 31
0.0
  0
LINE
  5
421
330
1B
100
AcDbEntity
  8
4
100
AcDbLine
 10
704.8768663150473
 20
279.5867949852141
 30
0.0
 11
694.5768663150471
 21
279.5867949852141
 31
0.0
  0
ARC
  5
422
330
1B
100
AcDbEntity
  8
4
 62
     3
100
AcDbCircle
 10
690.576865815047
 20
280.5867954852142
 30
0.0
 40
1.0000005
100
AcDbArc
 50
180.0
 51
270.0
  0
LINE
  5
423
330
1B
100
AcDbEntity
  8
4
 62
     3
100
AcDbLine
 10
688.9735038150471
 20
281.5867944852139
 30
0.0
 11
689.0868663150474
 21
281.5867944852139
 31
0.0
  0
ARC
  5
424
330
1B
100
AcDbEntity
  8
4
 62
     3
100
AcDbCircle
 10
688.9735038150471
 20
282.0767949852141
 30
0.0
 40
0.4900004999999999
100
AcDbArc
 50
181.4282999999998
 51
270.0
  0
LINE
  5
425
330
1B
100
AcDbEntity
  8
4
 62
     3
100
AcDbLine
 10
689.5768668150473
 20
281.096795485214
 30
0.0
 11
689.5768668150473
 21
280.5867954852142
 31
0.0
  0
ARC
  5
426
330
1B
100
AcDbEntity
  8
4
 62
     3
100
AcDbCircle
 10
689.0868663150474
 20
281.096795485214
 30
0.0
 40
0.4900004999999999
100
AcDbArc
 50
0.0
 51
90.0
  0
LINE
  5
427
330
1B
100
AcDbEntity
  8
4
 62
     3
100
AcDbLine
 10
690.576865815047
 20
279.5867949852141
 30
0.0
 11
694.5768663150471
 21
279.5867949852141
 31
0.0
  0
ARC
  5
428
330
1B
100
AcDbEntity
  8
4
100
AcDbCircle
 10
704.8768663150473
 20
278.5867949852141
 30
0.0
 40
1.0
100
AcDbArc
 50
0.0
 51
90.0
  0
LINE
  5
429
330
1B
100
AcDbEntity
  8
4
100
AcDbLine
 10
650.0768663150471
 20
283.0867954852142
 30
0.0
 11
643.0768663150471
 21
283.0867954852142
 31
0.0
  0
LINE
  5
42A
330
1B
100
AcDbEntity
  8
4
100
AcDbLine
 10
650.0768663150471
 20
283.0867954852142
 30
0.0
 11
650.0768663150471
 21
290.0867954852142
 31
0.0
  0
LINE
  5
42B
330
1B
100
AcDbEntity
  8
4
100
AcDbLine
 10
650.0768663150471
 20
290.0867954852142
 30
0.0
 11
643.0768663150471
 21
290.0867954852142
 31
0.0
  0
LINE
  5
42C
330
1B
100
AcDbEntity
  8
4
100
AcDbLine
 10
643.0768663150471
 20
290.0867954852142
 30
0.0
 11
643.0768663150471
 21
283.0867954852142
 31
0.0
  0
ARC
  5
42D
330
1B
100
AcDbEntity
  8
4
 62
     3
100
AcDbCircle
 10
602.5768668150473
 20
280.5867954852142
 30
0.0
 40
1.0000005
100
AcDbArc
 50
270.0
 51
0.0
  0
LINE
  5
42E
330
1B
100
AcDbEntity
  8
4
 62
     3
100
AcDbLine
 10
596.5768668150473
 20
279.5867949852141
 30
0.0
 11
602.5768668150473
 21
279.5867949852141
 31
0.0
  0
ARC
  5
42F
330
1B
100
AcDbEntity
  8
4
 62
     3
100
AcDbCircle
 10
596.5768668150473
 20
278.5867944852139
 30
0.0
 40
1.0000005
100
AcDbArc
 50
90.0
 51
180.0
  0
LINE
  5
430
330
1B
100
AcDbEntity
  8
4
 62
     3
100
AcDbLine
 10
603.576865815047
 20
281.096795485214
 30
0.0
 11
603.576865815047
 21
280.5867954852142
 31
0.0
  0
LINE
  5
431
330
1B
100
AcDbEntity
  8
4
 62
     3
100
AcDbLine
 10
604.0668663150469
 20
281.5867944852139
 30
0.0
 11
604.1802288150471
 21
281.5867944852139
 31
0.0
  0
ARC
  5
432
330
1B
100
AcDbEntity
  8
4
 62
     3
100
AcDbCircle
 10
604.1802288150471
 20
282.0767949852141
 30
0.0
 40
0.4900004999999999
100
AcDbArc
 50
270.0
 51
358.5717000000002
  0
ARC
  5
433
330
1B
100
AcDbEntity
  8
4
 62
     3
100
AcDbCircle
 10
604.0668663150469
 20
281.096795485214
 30
0.0
 40
0.4900004999999999
100
AcDbArc
 50
90.0
 51
180.0
  0
LINE
  5
434
330
1B
100
AcDbEntity
  8
L-CENTER
 48
2.5
100
AcDbLine
 10
692.090829315047
 20
274.5867954852142
 30
0.0
 11
600.0169443150472
 21
274.5867954852142
 31
0.0
  0
LINE
  5
435
330
1B
100
AcDbEntity
  8
4
100
AcDbLine
 10
707.3768663150473
 20
254.5733674852141
 30
0.0
 11
707.3768663150473
 21
266.073367485214
 31
0.0
  0
LINE
  5
436
330
1B
100
AcDbEntity
  8
4
100
AcDbLine
 10
707.3768663150473
 20
266.073367485214
 30
0.0
 11
705.8768663150473
 21
266.073367485214
 31
0.0
  0
LINE
  5
437
330
1B
100
AcDbEntity
  8
4
100
AcDbLine
 10
707.3768663150473
 20
254.5733674852141
 30
0.0
 11
705.8768663150473
 21
254.5733674852141
 31
0.0
  0
LINE
  5
438
330
1B
100
AcDbEntity
  8
2
100
AcDbLine
 10
705.8768663150473
 20
260.323367485214
 30
0.0
 11
707.3768663150473
 21
261.823367485214
 31
0.0
  0
LINE
  5
439
330
1B
100
AcDbEntity
  8
2
100
AcDbLine
 10
705.8768663150473
 20
258.2020471416545
 30
0.0
 11
707.3768663150473
 21
259.7020471416545
 31
0.0
  0
ARC
  5
43A
330
1B
100
AcDbEntity
  8
4
100
AcDbCircle
 10
646.5768663150471
 20
274.5867954852142
 30
0.0
 40
12.5
100
AcDbArc
 50
106.260204708312
 51
73.73979500000115
  0
CIRCLE
  5
443
330
1B
100
AcDbEntity
  8
4
 62
     3
100
AcDbCircle
 10
646.5768663150471
 20
274.5867954852142
 30
0.0
 40
31.0000005
  0
LINE
  5
446
330
1B
100
AcDbEntity
  8
L-CENTER
 48
2.5
100
AcDbLine
 10
683.8500363125869
 20
260.323367485214
 30
0.0
 11
714.6096302393186
 21
260.323367485214
 31
0.0
  0
LINE
  5
447
330
1B
100
AcDbEntity
  8
4
100
AcDbLine
 10
713.3768663150473
 20
265.323367485214
 30
0.0
 11
707.3768663150473
 21
265.323367485214
 31
0.0
  0
LINE
  5
448
330
1B
100
AcDbEntity
  8
4
100
AcDbLine
 10
713.3768663150473
 20
255.3233674852141
 30
0.0
 11
707.3768663150473
 21
255.323367485214
 31
0.0
  0
LINE
  5
44A
330
1B
100
AcDbEntity
  8
4
100
AcDbLine
 10
725.7399837208401
 20
216.7877629654527
 30
0.0
 11
716.5780419339086
 21
219.2864743618884
 31
0.0
  0
ARC
  5
44B
330
1B
100
AcDbEntity
  8
4
100
AcDbCircle
 10
717.1042767454934
 20
221.2160020043639
 30
0.0
 40
2.0
100
AcDbArc
 50
195.3183357934497
 51
254.7448812969384
  0
ARC
  5
44C
330
1B
100
AcDbEntity
  8
4
100
AcDbCircle
 10
725.4768663150477
 20
215.8229991442149
 30
0.0
 40
1.0
100
AcDbArc
 50
0.0
 51
74.74488129692494
  0
LINE
  5
450
330
1B
100
AcDbEntity
  8
4
100
AcDbLine
 10
800.5768663150471
 20
191.5867949852141
 30
0.0
 11
801.5768663150471
 21
190.5867949852141
 31
0.0
  0
LINE
  5
452
330
1B
100
AcDbEntity
  8
4
100
AcDbLine
 10
717.1576829062375
 20
199.5867949852138
 30
0.0
 11
715.4768663150459
 21
199.5867949852138
 31
0.0
  0
LINE
  5
453
330
1B
100
AcDbEntity
  8
4
100
AcDbLine
 10
727.4766213150475
 20
192.0867949852141
 30
0.0
 11
741.5768663150471
 21
192.0867949852141
 31
0.0
  0
LINE
  5
454
330
1B
100
AcDbEntity
  8
4
100
AcDbLine
 10
727.4766213150475
 20
199.5867949852141
 30
0.0
 11
726.476621315047
 21
199.5867949852141
 31
0.0
  0
LINE
  5
455
330
1B
100
AcDbEntity
  8
4
100
AcDbLine
 10
746.5768663150471
 20
195.0867949852141
 30
0.0
 11
746.5768663150471
 21
191.5867949852141
 31
0.0
  0
LINE
  5
456
330
1B
100
AcDbEntity
  8
4
100
AcDbLine
 10
741.5768663150471
 20
191.5867949852141
 30
0.0
 11
800.5768663150471
 21
191.5867949852141
 31
0.0
  0
LINE
  5
457
330
1B
100
AcDbEntity
  8
4
100
AcDbLine
 10
746.5768663150471
 20
195.0867949852141
 30
0.0
 11
801.5768663150471
 21
195.0867949852141
 31
0.0
  0
LINE
  5
45A
330
1B
100
AcDbEntity
  8
4
100
AcDbLine
 10
715.4768663150477
 20
199.5867949852138
 30
0.0
 11
715.4768663150477
 21
219.0986550456114
 31
0.0
  0
LINE
  5
45B
330
1B
100
AcDbEntity
  8
4
100
AcDbLine
 10
801.5768663150471
 20
158.5867949852141
 30
0.0
 11
800.5768663150471
 21
157.5867949852141
 31
0.0
  0
LINE
  5
45E
330
1B
100
AcDbEntity
  8
4
100
AcDbLine
 10
717.1576829062375
 20
149.5867949852141
 30
0.0
 11
715.4768663150477
 21
149.5867949852141
 31
0.0
  0
LINE
  5
45F
330
1B
100
AcDbEntity
  8
4
100
AcDbLine
 10
727.4766213150475
 20
157.0867949852141
 30
0.0
 11
741.5768663150471
 21
157.0867949852141
 31
0.0
  0
LINE
  5
460
330
1B
100
AcDbEntity
  8
4
100
AcDbLine
 10
727.4766213150475
 20
149.5867949852141
 30
0.0
 11
726.476621315047
 21
149.5867949852141
 31
0.0
  0
LINE
  5
461
330
1B
100
AcDbEntity
  8
4
100
AcDbLine
 10
741.5768663150471
 20
157.5867949852141
 30
0.0
 11
800.5768663150471
 21
157.5867949852141
 31
0.0
  0
LINE
  5
462
330
1B
100
AcDbEntity
  8
4
100
AcDbLine
 10
725.7399837208401
 20
132.3858270049755
 30
0.0
 11
716.5780419339086
 21
129.8871156085399
 31
0.0
  0
ARC
  5
463
330
1B
100
AcDbEntity
  8
4
100
AcDbCircle
 10
717.1042767454934
 20
127.9575879660642
 30
0.0
 40
2.0
100
AcDbArc
 50
105.2551187030616
 51
164.6816642065472
  0
ARC
  5
464
330
1B
100
AcDbEntity
  8
4
100
AcDbCircle
 10
725.4768663150477
 20
133.3505908262132
 30
0.0
 40
1.0
100
AcDbArc
 50
285.2551187030751
 51
0.0
  0
LINE
  5
465
330
1B
100
AcDbEntity
  8
4
100
AcDbLine
 10
715.4768663150477
 20
129.5867949852138
 30
0.0
 11
715.4768663150477
 21
149.5867949852141
 31
0.0
  0
LINE
  5
466
330
1B
100
AcDbEntity
  8
4
100
AcDbLine
 10
726.4768663150477
 20
133.3505908262132
 30
0.0
 11
726.4768663150477
 21
215.8229991442149
 31
0.0
  0
LINE
  5
467
330
1B
100
AcDbEntity
  8
4
100
AcDbLine
 10
717.1576829062375
 20
149.5867949852141
 30
0.0
 11
717.1576829062375
 21
199.5867949852138
 31
0.0
  0
LINE
  5
468
330
1B
100
AcDbEntity
  8
4
100
AcDbLine
 10
741.5768663150471
 20
192.0867949852141
 30
0.0
 11
741.5768663150471
 21
157.0867949852141
 31
0.0
  0
LINE
  5
469
330
1B
100
AcDbEntity
  8
4
100
AcDbLine
 10
727.4766213150475
 20
199.5867949852141
 30
0.0
 11
727.4766213150475
 21
149.5867949852141
 31
0.0
  0
LINE
  5
46A
330
1B
100
AcDbEntity
  8
4
100
AcDbLine
 10
800.5768663150471
 20
191.5867949852141
 30
0.0
 11
800.5768663150471
 21
157.5867949852141
 31
0.0
  0
LINE
  5
46B
330
1B
100
AcDbEntity
  8
4
100
AcDbLine
 10
801.5768663150471
 20
195.0867949852141
 30
0.0
 11
801.5768663150471
 21
158.5867949852141
 31
0.0
  0
LINE
  5
46C
330
1B
100
AcDbEntity
  8
4
100
AcDbLine
 10
713.3768663150473
 20
169.5867949852142
 30
0.0
 11
713.3768663150473
 21
179.5867949852141
 31
0.0
  0
ARC
  5
46D
330
1B
100
AcDbEntity
  8
4
 62
     3
100
AcDbCircle
 10
719.5768668150473
 20
77.58679448521411
 30
0.0
 40
1.9999995
100
AcDbArc
 50
0.0
 51
90.0
  0
LINE
  5
46E
330
1B
100
AcDbEntity
  8
4
100
AcDbLine
 10
713.3768663150473
 20
83.850222485215
 30
0.0
 11
713.3768663150473
 21
93.85022248521489
 31
0.0
  0
LINE
  5
46F
330
1B
100
AcDbEntity
  8
4
 62
     3
100
AcDbLine
 10
721.5768663150471
 20
77.58679448521411
 30
0.0
 11
721.5768663150471
 21
54.58679498521406
 31
0.0
  0
ARC
  5
470
330
1B
100
AcDbEntity
  8
4
 62
     3
100
AcDbCircle
 10
682.2754473150472
 20
237.7473654852142
 30
0.0
 40
4.0000005
100
AcDbArc
 50
276.9269230000008
 51
352.8505699999997
  0
LINE
  5
471
330
1B
100
AcDbEntity
  8
4
 62
     3
100
AcDbLine
 10
570.3807498150469
 20
214.7475714852141
 30
0.0
 11
577.9690983150473
 21
216.2652414852141
 31
0.0
  0
ARC
  5
472
330
1B
100
AcDbEntity
  8
4
 62
     3
100
AcDbCircle
 10
570.576865815047
 20
213.766991485214
 30
0.0
 40
1.0000005
100
AcDbArc
 50
101.3099319999969
 51
180.0
  0
ARC
  5
473
330
1B
100
AcDbEntity
  8
4
100
AcDbCircle
 10
578.074243815047
 20
218.325878485214
 30
0.0
 40
1.9999995
100
AcDbArc
 50
281.3099320000086
 51
340.3461760000039
  0
LINE
  5
474
330
1B
100
AcDbEntity
  8
4
100
AcDbLine
 10
577.9690983150473
 20
216.2652414852141
 30
0.0
 11
578.4664758150471
 21
216.364716985214
 31
0.0
  0
ARC
  5
475
330
1B
100
AcDbEntity
  8
4
 62
     3
100
AcDbCircle
 10
610.878285315047
 20
237.7473654852142
 30
0.0
 40
4.0000005
100
AcDbArc
 50
187.1494300000003
 51
263.0730769999992
  0
ARC
  5
476
330
1B
100
AcDbEntity
  8
4
 62
     3
100
AcDbCircle
 10
646.5768663150471
 20
531.5867964852143
 30
0.0
 40
300.0
100
AcDbArc
 50
263.073077
 51
276.926923
  0
LINE
  5
477
330
1B
100
AcDbEntity
  8
4
100
AcDbLine
 10
707.3768663150473
 20
180.3367949852141
 30
0.0
 11
705.8768663150473
 21
180.3367949852141
 31
0.0
  0
LINE
  5
478
330
1B
100
AcDbEntity
  8
4
100
AcDbLine
 10
577.8908060107821
 20
199.5867952925411
 30
0.0
 11
595.5768663150471
 21
195.5867948239082
 31
0.0
  0
LINE
  5
479
330
1B
100
AcDbEntity
  8
4
100
AcDbLine
 10
579.5932436591562
 20
199.5867952925408
 30
0.0
 11
595.5768663150471
 21
195.9718297765296
 31
0.0
  0
LINE
  5
47A
330
1B
100
AcDbEntity
  8
4
100
AcDbLine
 10
577.8908060107821
 20
199.5867952925407
 30
0.0
 11
579.5932436591562
 21
199.5867952925407
 31
0.0
  0
LINE
  5
47B
330
1B
100
AcDbEntity
  8
4
100
AcDbLine
 10
579.5932436591562
 20
199.5867952925407
 30
0.0
 11
579.5932436591562
 21
216.0442412031116
 31
0.0
  0
LINE
  5
47E
330
1B
100
AcDbEntity
  8
2
100
AcDbLine
 10
705.8768663150473
 20
172.4654746416545
 30
0.0
 11
707.3768663150473
 21
173.9654746416545
 31
0.0
  0
LINE
  5
47F
330
1B
100
AcDbEntity
  8
2
100
AcDbLine
 10
705.8768663150473
 20
174.5867949852141
 30
0.0
 11
707.3768663150473
 21
176.0867949852141
 31
0.0
  0
LINE
  5
480
330
1B
100
AcDbEntity
  8
4
100
AcDbLine
 10
707.3768663150473
 20
168.8367949852142
 30
0.0
 11
705.8768663150473
 21
168.8367949852142
 31
0.0
  0
LINE
  5
481
330
1B
100
AcDbEntity
  8
4
100
AcDbLine
 10
579.5932436591562
 20
149.5867946778873
 30
0.0
 11
595.5768663150471
 21
153.2017601938985
 31
0.0
  0
LINE
  5
482
330
1B
100
AcDbEntity
  8
4
100
AcDbLine
 10
577.8908060107821
 20
149.5867946778873
 30
0.0
 11
595.5768663150471
 21
153.5867951465199
 31
0.0
  0
LINE
  5
483
330
1B
100
AcDbEntity
  8
4
100
AcDbLine
 10
577.8908060107821
 20
149.5867946778874
 30
0.0
 11
579.5932436591562
 21
149.5867946778874
 31
0.0
  0
LINE
  5
484
330
1B
100
AcDbEntity
  8
4
 62
     3
100
AcDbLine
 10
570.3807498150469
 20
134.4260184852141
 30
0.0
 11
578.4676023524449
 21
132.8086472175852
 31
0.0
  0
ARC
  5
485
330
1B
100
AcDbEntity
  8
4
 62
     3
100
AcDbCircle
 10
570.576865815047
 20
135.4065984852141
 30
0.0
 40
1.0000005
100
AcDbArc
 50
180.0
 51
258.6900680000031
  0
ARC
  5
486
330
1B
100
AcDbEntity
  8
4
100
AcDbCircle
 10
578.0740593150473
 20
130.8477489852141
 30
0.0
 40
1.9999995
100
AcDbArc
 50
18.92367000000244
 51
78.6900680000046
  0
ARC
  5
487
330
1B
100
AcDbEntity
  8
4
 62
     3
100
AcDbCircle
 10
576.3716223150474
 20
131.1882354852141
 30
0.0
 40
1.9999995
100
AcDbArc
 50
18.92367000000244
 51
78.6900680000046
  0
LINE
  5
488
330
1B
100
AcDbEntity
  8
4
100
AcDbLine
 10
576.7638543150471
 20
133.149396985214
 30
0.0
 11
578.466291315047
 21
132.808910485214
 31
0.0
  0
LINE
  5
489
330
1B
100
AcDbEntity
  8
4
100
AcDbLine
 10
579.5932436591562
 20
132.5835188504345
 30
0.0
 11
579.5932436591562
 21
149.5867946778873
 31
0.0
  0
LINE
  5
48F
330
1B
100
AcDbEntity
  8
4
 62
     3
100
AcDbLine
 10
569.5768668150473
 20
213.766991485214
 30
0.0
 11
569.5768668150473
 21
135.4065984852141
 31
0.0
  0
LINE
  5
490
330
1B
100
AcDbEntity
  8
4
100
AcDbLine
 10
577.8908060107821
 20
149.5867946778874
 30
0.0
 11
577.8908060107821
 21
199.5867952925411
 31
0.0
  0
LINE
  5
491
330
1B
100
AcDbEntity
  8
4
100
AcDbLine
 10
707.3768663150473
 20
168.8367949852142
 30
0.0
 11
707.3768663150473
 21
180.3367949852141
 31
0.0
  0
LINE
  5
492
330
1B
100
AcDbEntity
  8
4
100
AcDbLine
 10
707.3768663150473
 20
94.60022248521477
 30
0.0
 11
705.8768663150473
 21
94.60022248521477
 31
0.0
  0
LINE
  5
493
330
1B
100
AcDbEntity
  8
2
100
AcDbLine
 10
705.8768663150473
 20
88.85022248521489
 30
0.0
 11
707.3768663150473
 21
90.35022248521489
 31
0.0
  0
ARC
  5
494
330
1B
100
AcDbEntity
  8
4
 62
     3
100
AcDbCircle
 10
678.576865815047
 20
81.58679498521406
 30
0.0
 40
1.9999995
100
AcDbArc
 50
180.0
 51
270.0
  0
LINE
  5
495
330
1B
100
AcDbEntity
  8
4
100
AcDbLine
 10
707.3768663150473
 20
83.100222485215
 30
0.0
 11
705.8768663150473
 21
83.100222485215
 31
0.0
  0
LINE
  5
496
330
1B
100
AcDbEntity
  8
2
100
AcDbLine
 10
705.8768663150473
 20
86.72890214165523
 30
0.0
 11
707.3768663150473
 21
88.22890214165523
 31
0.0
  0
ARC
  5
497
330
1B
100
AcDbEntity
  8
4
 62
     3
100
AcDbCircle
 10
573.576865815047
 20
77.58679448521411
 30
0.0
 40
1.9999995
100
AcDbArc
 50
90.0
 51
180.0
  0
ARC
  5
498
330
1B
100
AcDbEntity
  8
4
 62
     3
100
AcDbCircle
 10
614.5768668150473
 20
81.58679498521406
 30
0.0
 40
1.9999995
100
AcDbArc
 50
270.0
 51
0.0
  0
LINE
  5
499
330
1B
100
AcDbEntity
  8
4
100
AcDbLine
 10
707.3768663150473
 20
83.100222485215
 30
0.0
 11
707.3768663150473
 21
94.60022248521477
 31
0.0
  0
LINE
  5
4A3
330
1B
100
AcDbEntity
  8
L-CENTER
 48
2.5
100
AcDbLine
 10
701.5768668150473
 20
86.586795485214
 30
0.0
 11
701.5768668150473
 21
47.58679498521406
 31
0.0
  0
LINE
  5
4A4
330
1B
100
AcDbEntity
  8
L-CENTER
 48
2.5
100
AcDbLine
 10
591.576865815047
 20
86.586795485214
 30
0.0
 11
591.576865815047
 21
47.58679498521406
 31
0.0
  0
LINE
  5
4A8
330
1B
100
AcDbEntity
  8
4
 62
     3
100
AcDbLine
 10
571.5768663150471
 20
77.58679448521411
 30
0.0
 11
571.5768663150471
 21
54.58679498521406
 31
0.0
  0
LINE
  5
4A9
330
1B
100
AcDbEntity
  8
4
 62
     3
100
AcDbLine
 10
676.5768663150471
 20
162.3186594852141
 30
0.0
 11
676.5768663150471
 21
81.58679498521406
 31
0.0
  0
LINE
  5
4AA
330
1B
100
AcDbEntity
  8
4
 62
     3
100
AcDbLine
 10
616.5768663150471
 20
162.3186594852141
 30
0.0
 11
616.5768663150471
 21
81.58679498521406
 31
0.0
  0
LINE
  5
4AC
330
1B
100
AcDbEntity
  8
4
 62
     3
100
AcDbLine
 10
578.2631327703185
 20
131.8379940539146
 30
0.0
 11
595.5768663150471
 21
81.33680798521402
 31
0.0
  0
LINE
  5
4AE
330
1B
100
AcDbEntity
  8
4
100
AcDbLine
 10
579.9655697704808
 20
131.4975075534422
 30
0.0
 11
595.5768663150476
 21
85.96203772622118
 31
0.0
  0
LINE
  5
4AF
330
1B
100
AcDbEntity
  8
4
 62
     3
100
AcDbLine
 10
571.5768663150471
 20
54.58679498521406
 30
0.0
 11
721.5768663150471
 21
54.58679498521406
 31
0.0
  0
LINE
  5
4B0
330
1B
100
AcDbEntity
  8
4
 62
     3
100
AcDbLine
 10
719.5768668150473
 20
79.586795485214
 30
0.0
 11
573.5979855715028
 21
79.586795485214
 31
0.0
  0
LINE
  5
4B1
330
1B
100
AcDbEntity
  8
L-CENTER
 48
2.5
100
AcDbLine
 10
807.6605850815628
 20
174.5867949852141
 30
0.0
 11
487.7073374549866
 21
174.5867949852142
 31
0.0
  0
LINE
  5
4B2
330
1B
100
AcDbEntity
  8
4
100
AcDbLine
 10
717.1576829062366
 20
130.0451995100836
 30
0.0
 11
707.3768663150473
 21
94.33745639939332
 31
0.0
  0
LINE
  5
4B3
330
1B
100
AcDbEntity
  8
4
100
AcDbLine
 10
705.8935877606997
 20
94.60022248521477
 30
0.0
 11
715.175330896646
 21
128.4859513942267
 31
0.0
  0
LINE
  5
4B4
330
1B
100
AcDbEntity
  8
4
100
AcDbLine
 10
717.1576829062375
 20
149.5867949852141
 30
0.0
 11
705.8768663150473
 21
153.5867949852145
 31
0.0
  0
LINE
  5
4B5
330
1B
100
AcDbEntity
  8
4
100
AcDbLine
 10
715.4768663150477
 20
149.5867949852141
 30
0.0
 11
705.8768663150482
 21
152.9908038785056
 31
0.0
  0
LINE
  5
4B6
330
1B
100
AcDbEntity
  8
4
100
AcDbLine
 10
717.1576829062375
 20
199.5867949852141
 30
0.0
 11
705.8768663150473
 21
195.5867949852136
 31
0.0
  0
LINE
  5
4B7
330
1B
100
AcDbEntity
  8
4
100
AcDbLine
 10
715.4768663150459
 20
199.5867949852138
 30
0.0
 11
705.8768663150482
 21
196.182786091922
 31
0.0
  0
LINE
  5
4B8
330
1B
100
AcDbEntity
  8
L-CENTER
 48
2.5
100
AcDbLine
 10
683.8500363125892
 20
88.85022248521432
 30
0.0
 11
714.6096302393208
 21
88.85022248521511
 31
0.0
  0
LINE
  5
4B9
330
1B
100
AcDbEntity
  8
4
100
AcDbLine
 10
713.3768663150473
 20
169.5867949852142
 30
0.0
 11
707.3768663150473
 21
169.5867949852141
 31
0.0
  0
LINE
  5
4BA
330
1B
100
AcDbEntity
  8
4
100
AcDbLine
 10
713.3768663150473
 20
179.5867949852141
 30
0.0
 11
707.3768663150473
 21
179.5867949852141
 31
0.0
  0
LINE
  5
4BB
330
1B
100
AcDbEntity
  8
4
100
AcDbLine
 10
713.3768663150473
 20
83.850222485215
 30
0.0
 11
707.3768663150473
 21
83.85022248521477
 31
0.0
  0
LINE
  5
4BC
330
1B
100
AcDbEntity
  8
4
100
AcDbLine
 10
713.3768663150473
 20
93.85022248521489
 30
0.0
 11
707.3768663150473
 21
93.85022248521477
 31
0.0
  0
LINE
  5
4BF
330
1B
100
AcDbEntity
  8
L-CENTER
 48
2.5
100
AcDbLine
 10
646.5768663150471
 20
47.84780348521406
 30
0.0
 11
646.5768663150471
 21
331.6419306373718
 31
0.0
  0
LINE
  5
4C0
330
1B
100
AcDbEntity
  8
4
 62
     3
100
AcDbLine
 10
694.5768663150471
 20
279.5867949852141
 30
0.0
 11
694.5768663150471
 21
79.58679548521411
 31
0.0
  0
LINE
  5
4C1
330
1B
100
AcDbEntity
  8
4
 62
     3
100
AcDbLine
 10
595.5768663150471
 20
278.5867944852139
 30
0.0
 11
595.5768663150471
 21
79.586795485214
 31
0.0
  0
LINE
  5
4C2
330
1B
100
AcDbEntity
  8
4
100
AcDbLine
 10
603.5768673150475
 20
280.5867954852142
 30
0.0
 11
603.5768673150475
 21
79.586795485214
 31
0.0
  0
LINE
  5
4C3
330
1B
100
AcDbEntity
  8
4
100
AcDbLine
 10
604.5768663150471
 20
274.5867954852142
 30
0.0
 11
604.5768663150471
 21
79.586795485214
 31
0.0
  0
LINE
  5
4C4
330
1B
100
AcDbEntity
  8
4
100
AcDbLine
 10
689.5768653150468
 20
280.5867954852142
 30
0.0
 11
689.5768653150468
 21
79.586795485214
 31
0.0
  0
LINE
  5
4C5
330
1B
100
AcDbEntity
  8
4
100
AcDbLine
 10
688.5768663150471
 20
274.5867954852142
 30
0.0
 11
688.5768663150471
 21
79.586795485214
 31
0.0
  0
LINE
  5
4C6
330
1B
100
AcDbEntity
  8
4
100
AcDbLine
 10
705.8768663150473
 20
278.5867949852141
 30
0.0
 11
705.8768663150473
 21
79.586795485214
 31
0.0
  0
LINE
  5
4C7
330
1B
100
AcDbEntity
  8
4
100
AcDbLine
 10
694.5768663150476
 20
79.58679548521411
 30
0.0
 11
694.5768663150471
 21
279.5867949852141
 31
0.0
  0
CIRCLE
  5
4C8
330
1B
100
AcDbEntity
  8
4
100
AcDbCircle
 10
646.5768663150471
 20
274.5867954852142
 30
0.0
 40
42.0
  0
LINE
  5
4CA
330
1B
100
AcDbEntity
  8
4
100
AcDbLine
 10
579.957727815047
 20
217.6532049852141
 30
0.0
 11
595.5768663150471
 21
263.2115519582089
 31
0.0
  0
ARC
  5
4CB
330
1B
100
AcDbEntity
  8
4
 62
     3
100
AcDbCircle
 10
904.5768663150471
 20
274.5867954852142
 30
0.0
 40
300.0
100
AcDbArc
 50
172.85057
 51
187.1498659109533
  0
ARC
  5
4CD
330
1B
100
AcDbEntity
  8
4
 62
     3
100
AcDbCircle
 10
388.5768663150471
 20
274.5867954852142
 30
0.0
 40
300.0
100
AcDbArc
 50
352.8501340890467
 51
7.149430000000029
  0
LINE
  5
4CE
330
1B
100
AcDbEntity
  8
4
100
AcDbLine
 10
705.8935877607001
 20
254.5733674852141
 30
0.0
 11
715.1753308966469
 21
220.6876385762016
 31
0.0
  0
LINE
  5
4CF
330
1B
100
AcDbEntity
  8
4
100
AcDbLine
 10
717.1576829062366
 20
219.1283904603445
 30
0.0
 11
707.3768663150473
 21
254.836133571034
 31
0.0
  0
LINE
  5
5C4
330
1B
100
AcDbEntity
  8
L-CENTER
 48
2.5
100
AcDbLine
 10
135.921060507347
 20
86.586795485214
 30
0.0
 11
135.921060507347
 21
47.58679498521406
 31
0.0
  0
ENDSEC
  0
SECTION
  2
OBJECTS
  0
DICTIONARY
  5
9
330
0
100
AcDbDictionary
281
     1
  3
ACAD_COLOR
350
30
  3
ACAD_GROUP
350
2E
  3
ACAD_LAYOUT
350
24
  3
ACAD_MATERIAL
350
B
  3
ACAD_MLEADERSTYLE
350
5A4
  3
ACAD_MLINESTYLE
350
19
  3
ACAD_PLOTSETTINGS
350
2F
  3
ACAD_PLOTSTYLENAME
350
8
  3
ACAD_SCALELIST
350
37
  3
ACAD_TABLESTYLE
350
5A3
  3
ACAD_VISUALSTYLE
350
31
  3
ACDBHEADERROUNDTRIPXREC
350
5CC
  3
AcDbVariableDictionary
350
5A1
  3
DWGPROPS
350
5CF
  0
DICTIONARY
  5
5D0
330
2D
100
AcDbDictionary
280
     1
281
     1
  3
ACAD_XREC_ROUNDTRIP
360
5D1
  0
DICTIONARY
  5
3
330
2
100
AcDbDictionary
280
     1
281
     1
  3
ACAD_LAYERSTATES
360
4
  0
DICTIONARY
  5
20
330
1F
100
AcDbDictionary
280
     1
281
     1
  3
ADSK_XREC_LAYER_RECONCILED
360
21
  0
DICTIONARY
  5
26B
330
26A
100
AcDbDictionary
280
     1
281
     1
  3
ADSK_XREC_LAYER_RECONCILED
360
26C
  0
DICTIONARY
  5
5
330
1
100
AcDbDictionary
280
     1
281
     1
  3
ADSK_XREC_LAYER_RECONCILED
360
6
  0
DICTIONARY
  5
5D
330
5C
100
AcDbDictionary
280
     1
281
     1
  3
ADSK_XREC_LAYER_RECONCILED
360
5E
  0
DICTIONARY
  5
75
330
74
100
AcDbDictionary
280
     1
281
     1
  3
ADSK_XREC_LAYER_RECONCILED
360
76
  0
DICTIONARY
  5
66
330
65
100
AcDbDictionary
280
     1
281
     1
  3
ADSK_XREC_LAYER_RECONCILED
360
67
  0
DICTIONARY
  5
1C
330
1B
100
AcDbDictionary
280
     1
281
     1
  3
ACAD_SORTENTS
360
1D
  0
DICTIONARY
  5
30
102
{ACAD_REACTORS
330
9
102
}
330
9
100
AcDbDictionary
281
     1
  0
DICTIONARY
  5
2E
102
{ACAD_REACTORS
330
9
102
}
330
9
100
AcDbDictionary
281
     1
  0
DICTIONARY
  5
24
102
{ACAD_REACTORS
330
9
102
}
330
9
100
AcDbDictionary
281
     1
  3
Model
350
23
  3
ﾚｲｱｳﾄ1
350
2A
  0
DICTIONARY
  5
B
102
{ACAD_REACTORS
330
9
102
}
330
9
100
AcDbDictionary
281
     1
  3
ByBlock
350
5A
  3
ByLayer
350
14
  3
Global
350
A
  0
DICTIONARY
  5
5A4
102
{ACAD_REACTORS
330
9
102
}
330
9
100
AcDbDictionary
281
     1
  3
Standard
350
5BE
  0
DICTIONARY
  5
19
102
{ACAD_REACTORS
330
9
102
}
330
9
100
AcDbDictionary
281
     1
  3
STANDARD
350
18
  0
DICTIONARY
  5
2F
102
{ACAD_REACTORS
330
9
102
}
330
9
100
AcDbDictionary
281
     1
  0
ACDBDICTIONARYWDFLT
  5
8
102
{ACAD_REACTORS
330
9
102
}
330
9
100
AcDbDictionary
281
     1
  3
Normal
350
7
100
AcDbDictionaryWithDefault
340
7
  0
DICTIONARY
  5
37
102
{ACAD_REACTORS
330
9
102
}
330
9
100
AcDbDictionary
281
     1
  3
*A1
350
59
  0
DICTIONARY
  5
5A3
102
{ACAD_REACTORS
330
9
102
}
330
9
100
AcDbDictionary
281
     1
  3
Standard
350
5C8
  0
DICTIONARY
  5
31
102
{ACAD_REACTORS
330
9
102
}
330
9
100
AcDbDictionary
281
     1
  3
2dWireframe
350
5AC
  3
Basic
350
5AE
  3
Brighten
350
5B1
  3
ColorChange
350
5B5
  3
Conceptual
350
5AF
  3
Dim
350
5B0
  3
EdgeColorOff
350
5B8
  3
Facepattern
350
5B4
  3
Flat
350
5A8
  3
FlatWithEdges
350
5A9
  3
Gouraud
350
5AA
  3
GouraudWithEdges
350
5AB
  3
Hidden
350
5AD
  3
JitterOff
350
5B6
  3
Linepattern
350
5B3
  3
OverhangOff
350
5B7
  3
Realistic
350
32
  3
Shaded
350
5BD
  3
Shaded with edges
350
5BC
  3
Shades of Gray
350
5B9
  3
Sketchy
350
5BA
  3
Thicken
350
5B2
  3
Wireframe
350
33
  3
X-Ray
350
5BB
  0
DICTIONARY
  5
5CC
102
{ACAD_REACTORS
330
9
102
}
330
9
100
AcDbDictionary
281
     1
  3
COLORDICT
350
5CD
  3
MATERIALDICT
350
5CE
  0
DICTIONARY
  5
5A1
102
{ACAD_REACTORS
330
9
102
}
330
9
100
AcDbDictionary
281
     1
  3
CANNOSCALE
350
5A2
  3
CMLEADERSTYLE
350
5C5
  3
CTABLESTYLE
350
5C9
  3
DIMASSOC
350
5CA
  3
HIDETEXT
350
5CB
  3
MSLTSCALE
350
5D2
  3
XCLIPFRAME
350
5A5
  0
XRECORD
  5
5CF
102
{ACAD_REACTORS
330
9
102
}
330
9
100
AcDbXrecord
280
     1
  1
DWGPROPS COOKIE
  2

  3

  4

  6

  7

  8
sg-d04
  9

300
=
301
=
302
=
303
=
304
=
305
=
306
=
307
=
308
=
309
=
 40
0.0
 41
2457648.329660463
 42
2457870.226843206
  1

 90
        0
  0
XRECORD
  5
5D1
102
{ACAD_REACTORS
330
5D0
102
}
330
5D0
100
AcDbXrecord
280
     1
102
VTR_0.000_0.000_1.000_1.000_VISUALSTYLE
340
5AC
102
VTR_0.000_0.000_1.000_1.000_GRIDDISPLAY
 70
     3
102
VTR_0.000_0.000_1.000_1.000_GRIDMAJOR
 70
     5
102
VTR_0.000_0.000_1.000_1.000_DEFAULTLIGHTING
280
     1
102
VTR_0.000_0.000_1.000_1.000_DEFAULTLIGHTINGTYPE
 70
     1
102
VTR_0.000_0.000_1.000_1.000_BRIGHTNESS
141
0.0
102
VTR_0.000_0.000_1.000_1.000_CONTRAST
142
0.0
  0
DICTIONARY
  5
4
102
{ACAD_REACTORS
330
3
102
}
330
3
100
AcDbDictionary
281
     1
  0
XRECORD
  5
21
102
{ACAD_REACTORS
330
20
102
}
330
20
100
AcDbXrecord
280
     1
290
     1
  0
XRECORD
  5
26C
102
{ACAD_REACTORS
330
26B
102
}
330
26B
100
AcDbXrecord
280
     1
290
     1
  0
XRECORD
  5
6
102
{ACAD_REACTORS
330
5
102
}
330
5
100
AcDbXrecord
280
     1
290
     1
  0
XRECORD
  5
5E
102
{ACAD_REACTORS
330
5D
102
}
330
5D
100
AcDbXrecord
280
     1
290
     1
  0
XRECORD
  5
76
102
{ACAD_REACTORS
330
75
102
}
330
75
100
AcDbXrecord
280
     1
290
     1
  0
XRECORD
  5
67
102
{ACAD_REACTORS
330
66
102
}
330
66
100
AcDbXrecord
280
     1
290
     1
  0
SORTENTSTABLE
  5
1D
102
{ACAD_REACTORS
330
1C
102
}
330
1C
100
AcDbSortentsTable
330
1B
331
0
  5
5C2
331
88
  5
89
331
89
  5
8A
331
8A
  5
8B
331
8B
  5
8C
331
8C
  5
8D
331
8D
  5
8E
331
8E
  5
8F
331
8F
  5
90
331
90
  5
91
331
91
  5
92
331
92
  5
93
331
93
  5
94
331
94
  5
95
331
95
  5
97
331
96
  5
98
331
97
  5
99
331
98
  5
9A
331
99
  5
9B
331
9A
  5
9C
331
9B
  5
9D
331
9C
  5
9E
331
9D
  5
9F
331
9E
  5
A0
331
9F
  5
A1
331
A0
  5
A2
331
A1
  5
A3
331
A2
  5
A4
331
A3
  5
A5
331
A4
  5
A6
331
A5
  5
A7
331
A6
  5
A8
331
A7
  5
A9
331
A8
  5
AA
331
A9
  5
AB
331
AA
  5
AC
331
AB
  5
AD
331
AD
  5
AF
331
AE
  5
B0
331
AF
  5
B1
331
B0
  5
B2
331
B1
  5
B3
331
B2
  5
B4
331
B3
  5
B5
331
B4
  5
B6
331
B5
  5
B7
331
B6
  5
B8
331
B7
  5
B9
331
B8
  5
BA
331
B9
  5
BB
331
BA
  5
BC
331
BE
  5
C0
331
BF
  5
C1
331
C0
  5
C2
331
C1
  5
C3
331
C2
  5
C4
331
C3
  5
C5
331
C4
  5
C6
331
C6
  5
C8
331
C8
  5
CA
331
C9
  5
CB
331
CA
  5
CC
331
CB
  5
CD
331
CC
  5
CE
331
CD
  5
CF
331
CE
  5
D0
331
D2
  5
D4
331
D7
  5
D9
331
D8
  5
DA
331
D9
  5
DB
331
DA
  5
DC
331
DB
  5
DD
331
DC
  5
DE
331
DD
  5
DF
331
DE
  5
E0
331
E0
  5
E2
331
E2
  5
E4
331
E3
  5
E5
331
E5
  5
E7
331
E6
  5
E8
331
E7
  5
E9
331
E8
  5
EA
331
E9
  5
EB
331
EA
  5
EC
331
EB
  5
ED
331
EC
  5
EE
331
ED
  5
EF
331
EE
  5
F0
331
EF
  5
F1
331
F0
  5
F2
331
F1
  5
F3
331
F2
  5
F4
331
F3
  5
F5
331
F4
  5
F6
331
F5
  5
F7
331
F6
  5
F8
331
F7
  5
F9
331
F8
  5
FA
331
F9
  5
FB
331
FA
  5
FC
331
FB
  5
FD
331
FC
  5
FE
331
FD
  5
FF
331
FE
  5
100
331
FF
  5
101
331
100
  5
102
331
103
  5
105
331
106
  5
108
331
107
  5
109
331
108
  5
10A
331
109
  5
10B
331
10A
  5
10C
331
10B
  5
10D
331
10C
  5
10E
331
10D
  5
10F
331
10E
  5
110
331
10F
  5
111
331
110
  5
112
331
111
  5
113
331
112
  5
114
331
113
  5
115
331
114
  5
116
331
118
  5
11A
331
119
  5
11B
331
11A
  5
11C
331
11B
  5
11D
331
11C
  5
11E
331
11D
  5
11F
331
11E
  5
120
331
11F
  5
121
331
123
  5
125
331
124
  5
126
331
125
  5
127
331
126
  5
128
331
133
  5
135
331
134
  5
136
331
135
  5
137
331
136
  5
138
331
137
  5
139
331
138
  5
13A
331
139
  5
13B
331
13A
  5
13C
331
13B
  5
13D
331
13C
  5
13E
331
13D
  5
13F
331
13E
  5
140
331
13F
  5
141
331
140
  5
142
331
141
  5
143
331
142
  5
144
331
143
  5
145
331
144
  5
146
331
145
  5
147
331
146
  5
148
331
147
  5
149
331
148
  5
14A
331
149
  5
14B
331
14A
  5
14C
331
14B
  5
4D1
331
14C
  5
4D0
331
14D
  5
4CF
331
14E
  5
4CE
331
14F
  5
4CD
331
150
  5
4CC
331
151
  5
4CB
331
152
  5
4CA
331
153
  5
4C9
331
154
  5
4C8
331
155
  5
4C7
331
156
  5
4C6
331
157
  5
4C5
331
158
  5
4C4
331
159
  5
4C3
331
15A
  5
4C2
331
15B
  5
4C1
331
15C
  5
4C0
331
15D
  5
4BF
331
15E
  5
4BE
331
15F
  5
4BD
331
160
  5
4BC
331
161
  5
4BB
331
162
  5
4BA
331
163
  5
4B9
331
164
  5
4B8
331
165
  5
4B7
331
166
  5
4B6
331
167
  5
4B5
331
168
  5
4B4
331
169
  5
4B3
331
16A
  5
4B2
331
16B
  5
4B1
331
16C
  5
4B0
331
16D
  5
4AF
331
16E
  5
4AE
331
16F
  5
4AD
331
170
  5
4AC
331
171
  5
4AB
331
172
  5
4AA
331
173
  5
4A9
331
174
  5
4A8
331
175
  5
4A7
331
176
  5
4A6
331
177
  5
4A5
331
178
  5
4A4
331
179
  5
4A3
331
19B
  5
481
331
19C
  5
480
331
19D
  5
47F
331
19E
  5
47E
331
19F
  5
47D
331
1A0
  5
47C
331
1A1
  5
47B
331
1A4
  5
478
331
1A5
  5
477
331
1A6
  5
476
331
1A7
  5
475
331
1A8
  5
474
331
1A9
  5
473
331
1AA
  5
472
331
1AD
  5
46F
331
1AE
  5
46E
331
1AF
  5
46D
331
1B0
  5
46C
331
1B1
  5
46B
331
1B2
  5
46A
331
1B3
  5
469
331
1B4
  5
468
331
1B5
  5
467
331
1B6
  5
466
331
1B7
  5
465
331
1B8
  5
464
331
1B9
  5
463
331
1BA
  5
462
331
1BB
  5
461
331
1BC
  5
460
331
1BD
  5
45F
331
1BE
  5
45E
331
1BF
  5
45D
331
1C0
  5
45C
331
1C1
  5
45B
331
1C2
  5
45A
331
1C3
  5
459
331
1C4
  5
458
331
1C5
  5
457
331
1C6
  5
456
331
1CF
  5
44D
331
1D0
  5
44C
331
1D1
  5
44B
331
1D2
  5
44A
331
1D3
  5
449
331
1D4
  5
448
331
1D5
  5
447
331
279
  5
3A7
331
27A
  5
3A6
331
27B
  5
3A5
331
27C
  5
3A4
331
27D
  5
3A3
331
27E
  5
3A2
331
27F
  5
3A1
331
280
  5
3A0
331
281
  5
39F
331
282
  5
39E
331
283
  5
39D
331
284
  5
39C
331
285
  5
39B
331
286
  5
39A
331
287
  5
399
331
288
  5
398
331
289
  5
397
331
28A
  5
396
331
28B
  5
395
331
28C
  5
394
331
28D
  5
393
331
28E
  5
392
331
28F
  5
391
331
290
  5
390
331
291
  5
38F
331
292
  5
38E
331
293
  5
38D
331
294
  5
38C
331
295
  5
38B
331
296
  5
38A
331
297
  5
389
331
298
  5
388
331
299
  5
387
331
29A
  5
386
331
29B
  5
385
331
29C
  5
384
331
29D
  5
383
331
29E
  5
382
331
29F
  5
381
331
2A0
  5
380
331
2A1
  5
37F
331
2A2
  5
37E
331
2A3
  5
37D
331
2A4
  5
37C
331
2A5
  5
37B
331
2A6
  5
37A
331
2A7
  5
379
331
2A8
  5
378
331
2A9
  5
377
331
2AA
  5
376
331
2AB
  5
375
331
2AC
  5
374
331
2AD
  5
373
331
2AE
  5
372
331
2AF
  5
371
331
2B0
  5
370
331
2B1
  5
36F
331
2B2
  5
36E
331
2B3
  5
36D
331
2B4
  5
36C
331
2B5
  5
36B
331
2B6
  5
36A
331
2B7
  5
369
331
2B8
  5
368
331
2B9
  5
367
331
2BA
  5
366
331
2BB
  5
365
331
2BC
  5
364
331
2BD
  5
363
331
2BE
  5
362
331
2BF
  5
361
331
2C0
  5
360
331
2C1
  5
35F
331
2C2
  5
35E
331
2C3
  5
35D
331
2C4
  5
35C
331
2C5
  5
35B
331
2C6
  5
35A
331
2C7
  5
359
331
2C8
  5
358
331
2C9
  5
357
331
2CA
  5
356
331
2CB
  5
355
331
2CC
  5
354
331
2CD
  5
353
331
2CE
  5
352
331
2CF
  5
351
331
2D0
  5
350
331
2D1
  5
34F
331
2D2
  5
34E
331
2D3
  5
34D
331
2D4
  5
34C
331
2D5
  5
34B
331
2D6
  5
34A
331
2D7
  5
349
331
2D8
  5
348
331
2D9
  5
347
331
2DA
  5
346
331
2DB
  5
345
331
2DC
  5
344
331
2DD
  5
343
331
2DE
  5
342
331
2DF
  5
341
331
2E0
  5
340
331
2E1
  5
33F
331
2E2
  5
33E
331
2E3
  5
33D
331
2E4
  5
33C
331
2E5
  5
33B
331
2E6
  5
33A
331
2E7
  5
339
331
2E8
  5
338
331
2E9
  5
337
331
2EA
  5
336
331
2EB
  5
335
331
2EC
  5
334
331
2ED
  5
333
331
2EE
  5
332
331
2EF
  5
331
331
2F0
  5
330
331
2F1
  5
32F
331
2F2
  5
32E
331
2F3
  5
32D
331
2F4
  5
32C
331
2F5
  5
32B
331
2F6
  5
32A
331
2F7
  5
329
331
2F8
  5
328
331
2F9
  5
327
331
2FA
  5
326
331
2FB
  5
325
331
2FC
  5
324
331
2FD
  5
323
331
2FE
  5
322
331
2FF
  5
321
331
300
  5
320
331
301
  5
31F
331
302
  5
31E
331
303
  5
31D
331
304
  5
31C
331
305
  5
31B
331
306
  5
31A
331
307
  5
319
331
308
  5
318
331
309
  5
317
331
30A
  5
316
331
30B
  5
315
331
30C
  5
314
331
30D
  5
313
331
30E
  5
312
331
30F
  5
311
331
311
  5
30F
331
312
  5
30E
331
313
  5
30D
331
314
  5
30C
331
315
  5
30B
331
316
  5
30A
331
317
  5
309
331
318
  5
308
331
319
  5
307
331
31A
  5
306
331
31B
  5
305
331
31C
  5
304
331
31D
  5
303
331
31E
  5
302
331
31F
  5
301
331
320
  5
300
331
321
  5
2FF
331
322
  5
2FE
331
323
  5
2FD
331
324
  5
2FC
331
325
  5
2FB
331
326
  5
2FA
331
327
  5
2F9
331
328
  5
2F8
331
329
  5
2F7
331
32A
  5
2F6
331
32B
  5
2F5
331
32C
  5
2F4
331
32D
  5
2F3
331
32E
  5
2F2
331
32F
  5
2F1
331
330
  5
2F0
331
331
  5
2EF
331
332
  5
2EE
331
333
  5
2ED
331
334
  5
2EC
331
335
  5
2EB
331
336
  5
2EA
331
337
  5
2E9
331
338
  5
2E8
331
339
  5
2E7
331
33A
  5
2E6
331
33B
  5
2E5
331
33C
  5
2E4
331
33D
  5
2E3
331
33E
  5
2E2
331
33F
  5
2E1
331
340
  5
2E0
331
341
  5
2DF
331
342
  5
2DE
331
343
  5
2DD
331
344
  5
2DC
331
345
  5
2DB
331
346
  5
2DA
331
347
  5
2D9
331
348
  5
2D8
331
349
  5
2D7
331
34A
  5
2D6
331
34B
  5
2D5
331
34C
  5
2D4
331
34D
  5
2D3
331
34E
  5
2D2
331
34F
  5
2D1
331
350
  5
2D0
331
351
  5
2CF
331
352
  5
2CE
331
353
  5
2CD
331
354
  5
2CC
331
355
  5
2CB
331
356
  5
2CA
331
357
  5
2C9
331
358
  5
2C8
331
359
  5
2C7
331
35A
  5
2C6
331
35B
  5
2C5
331
35C
  5
2C4
331
35D
  5
2C3
331
35E
  5
2C2
331
35F
  5
2C1
331
360
  5
2C0
331
361
  5
2BF
331
362
  5
2BE
331
363
  5
2BD
331
364
  5
2BC
331
365
  5
2BB
331
366
  5
2BA
331
367
  5
2B9
331
368
  5
2B8
331
369
  5
2B7
331
36A
  5
2B6
331
36B
  5
2B5
331
36C
  5
2B4
331
36D
  5
2B3
331
36E
  5
2B2
331
36F
  5
2B1
331
370
  5
2B0
331
371
  5
2AF
331
372
  5
2AE
331
373
  5
2AD
331
374
  5
2AC
331
375
  5
2AB
331
376
  5
2AA
331
377
  5
2A9
331
378
  5
2A8
331
379
  5
2A7
331
37A
  5
2A6
331
37B
  5
2A5
331
37C
  5
2A4
331
37D
  5
2A3
331
37E
  5
2A2
331
37F
  5
2A1
331
380
  5
2A0
331
381
  5
29F
331
382
  5
29E
331
383
  5
29D
331
384
  5
29C
331
385
  5
29B
331
386
  5
29A
331
387
  5
299
331
388
  5
298
331
389
  5
297
331
38A
  5
296
331
38B
  5
295
331
38C
  5
294
331
38D
  5
293
331
38E
  5
292
331
38F
  5
291
331
390
  5
290
331
391
  5
28F
331
392
  5
28E
331
393
  5
28D
331
394
  5
28C
331
395
  5
28B
331
396
  5
28A
331
397
  5
289
331
398
  5
288
331
399
  5
287
331
39A
  5
286
331
39B
  5
285
331
39C
  5
284
331
39D
  5
283
331
39E
  5
282
331
39F
  5
281
331
3A0
  5
280
331
3A1
  5
27F
331
3A2
  5
27E
331
3A3
  5
27D
331
3A4
  5
27C
331
3A5
  5
27B
331
3A6
  5
27A
331
3A7
  5
279
331
3A8
  5
278
331
3A9
  5
277
331
3AA
  5
276
331
3AB
  5
275
331
3AC
  5
274
331
3AD
  5
273
331
3AE
  5
272
331
3AF
  5
271
331
3B0
  5
270
331
3B1
  5
26F
331
3B2
  5
26E
331
3B3
  5
26D
331
3B4
  5
269
331
3B5
  5
268
331
3B6
  5
267
331
3B7
  5
266
331
3B8
  5
265
331
3B9
  5
264
331
3BA
  5
263
331
3BB
  5
262
331
3BC
  5
261
331
3BD
  5
260
331
3BE
  5
25F
331
3BF
  5
25E
331
3C0
  5
25D
331
3C1
  5
25B
331
3C2
  5
25A
331
3C3
  5
259
331
3C4
  5
258
331
3C5
  5
257
331
3C6
  5
256
331
3C7
  5
255
331
3C8
  5
254
331
3C9
  5
253
331
3CA
  5
252
331
3CB
  5
251
331
3CC
  5
250
331
3CD
  5
24F
331
3CE
  5
24E
331
3CF
  5
24D
331
3D0
  5
24C
331
3D1
  5
24B
331
3D2
  5
24A
331
3D3
  5
249
331
3D4
  5
248
331
3D5
  5
247
331
3D6
  5
246
331
3D7
  5
245
331
3D8
  5
244
331
3D9
  5
243
331
3DA
  5
242
331
3DB
  5
241
331
3DC
  5
240
331
3DD
  5
23F
331
3DE
  5
23E
331
3DF
  5
23D
331
3E0
  5
23C
331
3E1
  5
23B
331
3E2
  5
23A
331
3E3
  5
239
331
3E4
  5
238
331
3E5
  5
237
331
3E6
  5
236
331
3E7
  5
235
331
3E8
  5
234
331
3E9
  5
233
331
3EA
  5
232
331
3EB
  5
231
331
3EC
  5
230
331
3ED
  5
22F
331
3EE
  5
22E
331
3EF
  5
22D
331
3F0
  5
22C
331
3F1
  5
22B
331
3F2
  5
22A
331
3F3
  5
229
331
3F4
  5
228
331
3F5
  5
227
331
3F6
  5
226
331
3F7
  5
225
331
3F8
  5
224
331
3F9
  5
223
331
3FA
  5
222
331
3FB
  5
221
331
3FC
  5
220
331
3FD
  5
21F
331
3FE
  5
21E
331
3FF
  5
21D
331
400
  5
21C
331
401
  5
21B
331
402
  5
21A
331
403
  5
219
331
404
  5
218
331
405
  5
217
331
408
  5
214
331
40C
  5
210
331
40D
  5
20F
331
40E
  5
20E
331
40F
  5
20D
331
410
  5
20C
331
411
  5
20B
331
412
  5
20A
331
413
  5
209
331
414
  5
208
331
415
  5
207
331
416
  5
206
331
417
  5
205
331
418
  5
204
331
419
  5
203
331
41A
  5
202
331
41B
  5
201
331
41C
  5
200
331
421
  5
1FB
331
422
  5
1FA
331
423
  5
1F9
331
424
  5
1F8
331
425
  5
1F7
331
426
  5
1F6
331
427
  5
1F5
331
428
  5
1F4
331
429
  5
1F3
331
42A
  5
1F2
331
42B
  5
1F1
331
42C
  5
1F0
331
42D
  5
1EF
331
42E
  5
1EE
331
42F
  5
1ED
331
430
  5
1EC
331
431
  5
1EB
331
432
  5
1EA
331
433
  5
1E9
331
434
  5
1E8
331
435
  5
1E7
331
436
  5
1E6
331
437
  5
1E5
331
438
  5
1E4
331
439
  5
1E3
331
43A
  5
1E2
331
443
  5
1D9
331
446
  5
1D6
331
447
  5
1D5
331
448
  5
1D4
331
44A
  5
1D2
331
44B
  5
1D1
331
44C
  5
1D0
331
450
  5
1CC
331
452
  5
1CA
331
453
  5
1C9
331
454
  5
1C8
331
455
  5
1C7
331
456
  5
1C6
331
457
  5
1C5
331
45A
  5
1C2
331
45B
  5
1C1
331
45E
  5
1BE
331
45F
  5
1BD
331
460
  5
1BC
331
461
  5
1BB
331
462
  5
1BA
331
463
  5
1B9
331
464
  5
1B8
331
465
  5
1B7
331
466
  5
1B6
331
467
  5
1B5
331
468
  5
1B4
331
469
  5
1B3
331
46A
  5
1B2
331
46B
  5
1B1
331
46C
  5
1B0
331
46D
  5
1AF
331
46E
  5
1AE
331
46F
  5
1AD
331
470
  5
1AC
331
471
  5
1AB
331
472
  5
1AA
331
473
  5
1A9
331
474
  5
1A8
331
475
  5
1A7
331
476
  5
1A6
331
477
  5
1A5
331
478
  5
1A4
331
479
  5
1A3
331
47A
  5
1A2
331
47B
  5
1A1
331
47E
  5
19E
331
47F
  5
19D
331
480
  5
19C
331
481
  5
19B
331
482
  5
19A
331
483
  5
199
331
484
  5
198
331
485
  5
197
331
486
  5
196
331
487
  5
195
331
488
  5
194
331
489
  5
193
331
48F
  5
18D
331
490
  5
18C
331
491
  5
18B
331
492
  5
18A
331
493
  5
189
331
494
  5
188
331
495
  5
187
331
496
  5
186
331
497
  5
185
331
498
  5
184
331
499
  5
183
331
4A3
  5
179
331
4A4
  5
178
331
4A8
  5
174
331
4A9
  5
173
331
4AA
  5
172
331
4AC
  5
170
331
4AE
  5
16E
331
4AF
  5
16D
331
4B0
  5
16C
331
4B1
  5
16B
331
4B2
  5
16A
331
4B3
  5
169
331
4B4
  5
168
331
4B5
  5
167
331
4B6
  5
166
331
4B7
  5
165
331
4B8
  5
164
331
4B9
  5
163
331
4BA
  5
162
331
4BB
  5
161
331
4BC
  5
160
331
4BF
  5
15D
331
4C0
  5
15C
331
4C1
  5
15B
331
4C2
  5
15A
331
4C3
  5
159
331
4C4
  5
158
331
4C5
  5
157
331
4C6
  5
156
331
4C7
  5
155
331
4C8
  5
154
331
4CA
  5
152
331
4CB
  5
151
331
4CD
  5
14F
331
4CE
  5
14E
331
4CF
  5
14D
  0
LAYOUT
  5
23
102
{ACAD_REACTORS
330
24
102
}
102
{ACAD_XDICTIONARY
360
25
102
}
330
24
100
AcDbPlotSettings
  1

  2
Bullzip PDF Printer.pc3
  4
A3
  6

 40
0.2
 41
0.0
 42
0.0
 43
0.0
 44
420.2
 45
297.1
 46
25.0
 47
12.0
 48
57.49999988333343
 49
33.42165154864122
140
1012.499997695834
141
714.6716499590577
142
1.0
143
2.5
 70
 11936
 72
     1
 73
     0
 74
     4
  7
monochrome.ctb
 75
     0
147
0.4
148
-57.49999988333343
149
-33.42165154864122
100
AcDbLayout
  1
Model
 70
     0
 71
     0
 10
0.0
 20
0.0
 11
12.0
 21
9.0
 12
0.0
 22
0.0
 32
0.0
 14
109.4279407656852
 24
47.58679498521406
 34
0.0
 15
1165.462097133873
 25
730.7243337516006
 35
0.0
146
0.0
 13
0.0
 23
0.0
 33
0.0
 16
1.0
 26
0.0
 36
0.0
 17
0.0
 27
1.0
 37
0.0
 76
     0
330
1B
331
34
1001
ACAD_PSEXT
1000
Bullzip PDF Printer.pc3
1000
Bullzip PDF Printer
1000
BULLZIP
1000
Bullzip PDF Printer 10.1.0.1871
1070
     0
  0
LAYOUT
  5
2A
102
{ACAD_REACTORS
330
24
102
}
330
24
100
AcDbPlotSettings
  1

  2
SR-LP8300F
  4

  6

 40
0.0
 41
0.0
 42
0.0
 43
0.0
 44
0.0
 45
0.0
 46
0.0
 47
0.0
 48
0.0
 49
0.0
140
0.0
141
0.0
142
1.0
143
1.0
 70
   688
 72
     0
 73
     0
 74
     5
  7
monochrome.ctb
 75
    16
147
1.0
148
0.0
149
0.0
100
AcDbLayout
  1
ﾚｲｱｳﾄ1
 70
     0
 71
     1
 10
0.0
 20
0.0
 11
12.0
 21
9.0
 12
0.0
 22
0.0
 32
0.0
 14
1.000000000000000E+20
 24
1.000000000000000E+20
 34
1.000000000000000E+20
 15
-1.000000000000000E+20
 25
-1.000000000000000E+20
 35
-1.000000000000000E+20
146
0.0
 13
0.0
 23
0.0
 33
0.0
 16
1.0
 26
0.0
 36
0.0
 17
0.0
 27
1.0
 37
0.0
 76
     0
330
27
  0
MATERIAL
  5
5A
102
{ACAD_REACTORS
330
B
102
}
102
{ACAD_XDICTIONARY
360
5D7
102
}
330
B
100
AcDbMaterial
  1
ByBlock
 72
     0
 73
     2
 43
0.0208333333333333
 43
0.0
 43
0.0
 43
0.0
 43
0.0
 43
0.0208333333333333
 43
0.0
 43
0.0
 43
0.0
 43
0.0
 43
1.0
 43
0.0
 43
0.0
 43
0.0
 43
0.0
 43
1.0
 77
     0
 78
     2
 47
0.0208333333333333
 47
0.0
 47
0.0
 47
0.0
 47
0.0
 47
0.0208333333333333
 47
0.0
 47
0.0
 47
0.0
 47
0.0
 47
1.0
 47
0.0
 47
0.0
 47
0.0
 47
0.0
 47
1.0
171
     0
172
     2
 49
0.0208333333333333
 49
0.0
 49
0.0
 49
0.0
 49
0.0
 49
0.0208333333333333
 49
0.0
 49
0.0
 49
0.0
 49
0.0
 49
1.0
 49
0.0
 49
0.0
 49
0.0
 49
0.0
 49
1.0
175
     0
176
     2
142
0.0208333333333333
142
0.0
142
0.0
142
0.0
142
0.0
142
0.0208333333333333
142
0.0
142
0.0
142
0.0
142
0.0
142
1.0
142
0.0
142
0.0
142
0.0
142
0.0
142
1.0
179
     0
270
     2
144
0.0208333333333333
144
0.0
144
0.0
144
0.0
144
0.0
144
0.0208333333333333
144
0.0
144
0.0
144
0.0
144
0.0
144
1.0
144
0.0
144
0.0
144
0.0
144
0.0
144
1.0
274
     2
147
0.0208333333333333
147
0.0
147
0.0
147
0.0
147
0.0
147
0.0208333333333333
147
0.0
147
0.0
147
0.0
147
0.0
147
1.0
147
0.0
147
0.0
147
0.0
147
0.0
147
1.0
  0
MATERIAL
  5
14
102
{ACAD_REACTORS
330
B
102
}
102
{ACAD_XDICTIONARY
360
5D3
102
}
330
B
100
AcDbMaterial
  1
ByLayer
 72
     0
 73
     2
 43
0.0208333333333333
 43
0.0
 43
0.0
 43
0.0
 43
0.0
 43
0.0208333333333333
 43
0.0
 43
0.0
 43
0.0
 43
0.0
 43
1.0
 43
0.0
 43
0.0
 43
0.0
 43
0.0
 43
1.0
 77
     0
 78
     2
 47
0.0208333333333333
 47
0.0
 47
0.0
 47
0.0
 47
0.0
 47
0.0208333333333333
 47
0.0
 47
0.0
 47
0.0
 47
0.0
 47
1.0
 47
0.0
 47
0.0
 47
0.0
 47
0.0
 47
1.0
171
     0
172
     2
 49
0.0208333333333333
 49
0.0
 49
0.0
 49
0.0
 49
0.0
 49
0.0208333333333333
 49
0.0
 49
0.0
 49
0.0
 49
0.0
 49
1.0
 49
0.0
 49
0.0
 49
0.0
 49
0.0
 49
1.0
175
     0
176
     2
142
0.0208333333333333
142
0.0
142
0.0
142
0.0
142
0.0
142
0.0208333333333333
142
0.0
142
0.0
142
0.0
142
0.0
142
1.0
142
0.0
142
0.0
142
0.0
142
0.0
142
1.0
179
     0
270
     2
144
0.0208333333333333
144
0.0
144
0.0
144
0.0
144
0.0
144
0.0208333333333333
144
0.0
144
0.0
144
0.0
144
0.0
144
1.0
144
0.0
144
0.0
144
0.0
144
0.0
144
1.0
274
     2
147
0.0208333333333333
147
0.0
147
0.0
147
0.0
147
0.0
147
0.0208333333333333
147
0.0
147
0.0
147
0.0
147
0.0
147
1.0
147
0.0
147
0.0
147
0.0
147
0.0
147
1.0
  0
MATERIAL
  5
A
102
{ACAD_REACTORS
330
B
102
}
102
{ACAD_XDICTIONARY
360
5D5
102
}
330
B
100
AcDbMaterial
  1
Global
 72
     0
 73
     2
 43
0.0208333333333333
 43
0.0
 43
0.0
 43
0.0
 43
0.0
 43
0.0208333333333333
 43
0.0
 43
0.0
 43
0.0
 43
0.0
 43
1.0
 43
0.0
 43
0.0
 43
0.0
 43
0.0
 43
1.0
 77
     0
 78
     2
 47
0.0208333333333333
 47
0.0
 47
0.0
 47
0.0
 47
0.0
 47
0.0208333333333333
 47
0.0
 47
0.0
 47
0.0
 47
0.0
 47
1.0
 47
0.0
 47
0.0
 47
0.0
 47
0.0
 47
1.0
171
     0
172
     2
 49
0.0208333333333333
 49
0.0
 49
0.0
 49
0.0
 49
0.0
 49
0.0208333333333333
 49
0.0
 49
0.0
 49
0.0
 49
0.0
 49
1.0
 49
0.0
 49
0.0
 49
0.0
 49
0.0
 49
1.0
175
     0
176
     2
142
0.0208333333333333
142
0.0
142
0.0
142
0.0
142
0.0
142
0.0208333333333333
142
0.0
142
0.0
142
0.0
142
0.0
142
1.0
142
0.0
142
0.0
142
0.0
142
0.0
142
1.0
179
     0
270
     2
144
0.0208333333333333
144
0.0
144
0.0
144
0.0
144
0.0
144
0.0208333333333333
144
0.0
144
0.0
144
0.0
144
0.0
144
1.0
144
0.0
144
0.0
144
0.0
144
0.0
144
1.0
274
     2
147
0.0208333333333333
147
0.0
147
0.0
147
0.0
147
0.0
147
0.0208333333333333
147
0.0
147
0.0
147
0.0
147
0.0
147
1.0
147
0.0
147
0.0
147
0.0
147
0.0
147
1.0
1001
ACAD
1070
    -1
1070
     3
1070
     0
1000

1071
        0
  0
MLEADERSTYLE
  5
5BE
102
{ACAD_REACTORS
330
5A4
102
}
102
{ACAD_XDICTIONARY
360
609
102
}
330
5A4
100
AcDbMLeaderStyle
170
     2
171
     1
172
     0
 90
        2
 40
0.0
 41
0.0
173
     1
 91
-1056964608
340
11
 92
       -2
290
     1
 42
0.09
291
     1
 43
0.36
  3
Standard
341
0
 44
0.18
300

342
12
174
     1
178
     6
175
     1
176
     0
 93
-1056964608
 45
0.18
292
     0
297
     0
 46
0.18
343
0
 94
-1056964608
 47
1.0
 49
1.0
140
1.0
293
     1
141
0.0
294
     1
177
     0
142
1.0
295
     0
296
     0
143
0.125
1001
ACAD_MLEADERVER
1070
     2
  0
MLINESTYLE
  5
18
102
{ACAD_REACTORS
330
19
102
}
330
19
100
AcDbMlineStyle
  2
STANDARD
 70
     0
  3

 62
     0
 51
90.0
 52
90.0
 71
     2
 49
0.5
 62
   256
  6
BYLAYER
 49
-0.5
 62
   256
  6
BYLAYER
  0
ACDBPLACEHOLDER
  5
7
102
{ACAD_REACTORS
330
8
102
}
330
8
  0
SCALE
  5
59
102
{ACAD_REACTORS
330
37
102
}
330
37
100
AcDbScale
 70
     0
300
1:1
140
1.0
141
1.0
290
     1
  0
TABLESTYLE
  5
5C8
102
{ACAD_REACTORS
330
5A3
102
}
330
5A3
100
AcDbTableStyle
  3
Standard
 70
     0
 71
     0
 40
0.06
 41
0.06
280
     0
281
     0
  7
STANDARD
140
0.18
170
     2
 62
     0
 63
   257
283
     0
274
    -2
284
     1
 64
     0
275
    -2
285
     1
 65
     0
276
    -2
286
     1
 66
     0
277
    -2
287
     1
 67
     0
278
    -2
288
     1
 68
     0
279
    -2
289
     1
 69
     0
  7
STANDARD
140
0.25
170
     5
 62
     0
 63
   257
283
     0
274
    -2
284
     1
 64
     0
275
    -2
285
     1
 65
     0
276
    -2
286
     1
 66
     0
277
    -2
287
     1
 67
     0
278
    -2
288
     1
 68
     0
279
    -2
289
     1
 69
     0
  7
STANDARD
140
0.18
170
     5
 62
     0
 63
   257
283
     0
274
    -2
284
     1
 64
     0
275
    -2
285
     1
 65
     0
276
    -2
286
     1
 66
     0
277
    -2
287
     1
 67
     0
278
    -2
288
     1
 68
     0
279
    -2
289
     1
 69
     0
  0
VISUALSTYLE
  5
5AC
102
{ACAD_REACTORS
330
31
102
}
102
{ACAD_XDICTIONARY
360
5E5
102
}
330
31
100
AcDbVisualStyle
  2
2dWireframe
 70
     4
 71
     0
 72
     2
 73
     0
 90
        0
 40
0.6
 41
30.0
 62
     5
 63
     7
 74
     1
 91
        4
 64
     7
 65
   257
 75
     1
175
     1
 42
1.0
 92
        0
 66
   257
 43
1.0
 76
     1
 77
     6
 78
     2
 67
     7
 79
     5
170
     0
171
     0
290
     0
174
     0
 93
        1
 44
0.0
173
     0
291
     0
 45
0.0
1001
ACAD
1000
AcDbSavedByObjectVersion
1070
     0
  0
VISUALSTYLE
  5
5AE
102
{ACAD_REACTORS
330
31
102
}
102
{ACAD_XDICTIONARY
360
5E9
102
}
330
31
100
AcDbVisualStyle
  2
Basic
 70
     7
 71
     1
 72
     0
 73
     1
 90
        0
 40
0.6
 41
30.0
 62
     5
 63
     7
 74
     0
 91
        4
 64
     7
 65
   257
 75
     1
175
     1
 42
1.0
 92
        8
 66
     7
 43
1.0
 76
     1
 77
     6
 78
     2
 67
     7
 79
     5
170
     0
171
     0
290
     0
174
     0
 93
        1
 44
0.0
173
     0
291
     1
 45
0.0
1001
ACAD
1000
AcDbSavedByObjectVersion
1070
     0
  0
VISUALSTYLE
  5
5B1
102
{ACAD_REACTORS
330
31
102
}
102
{ACAD_XDICTIONARY
360
5EF
102
}
330
31
100
AcDbVisualStyle
  2
Brighten
 70
    12
 71
     2
 72
     2
 73
     0
 90
        0
 40
0.6
 41
30.0
 62
     5
 63
     7
 74
     1
 91
        4
 64
     7
 65
   257
 75
     1
175
     1
 42
1.0
 92
        8
 66
     7
 43
1.0
 76
     1
 77
     6
 78
     2
 67
     7
 79
     5
170
     0
171
     0
290
     0
174
     0
 93
        1
 44
50.0
173
     0
291
     1
 45
0.0
1001
ACAD
1000
AcDbSavedByObjectVersion
1070
     0
  0
VISUALSTYLE
  5
5B5
102
{ACAD_REACTORS
330
31
102
}
102
{ACAD_XDICTIONARY
360
5F7
102
}
330
31
100
AcDbVisualStyle
  2
ColorChange
 70
    16
 71
     2
 72
     2
 73
     3
 90
        0
 40
0.6
 41
30.0
 62
     5
 63
     8
 74
     1
 91
        4
 64
     7
 65
   257
 75
     1
175
     1
 42
1.0
 92
        8
 66
     8
 43
1.0
 76
     1
 77
     6
 78
     2
 67
     7
 79
     5
170
     0
171
     0
290
     0
174
     0
 93
        1
 44
0.0
173
     0
291
     1
 45
0.0
1001
ACAD
1000
AcDbSavedByObjectVersion
1070
     0
  0
VISUALSTYLE
  5
5AF
102
{ACAD_REACTORS
330
31
102
}
102
{ACAD_XDICTIONARY
360
5EB
102
}
330
31
100
AcDbVisualStyle
  2
Conceptual
 70
     9
 71
     3
 72
     2
 73
     0
 90
        0
 40
0.6
 41
30.0
 62
     5
 63
     7
 74
     2
 91
        2
 64
     7
 65
   257
 75
     1
175
     1
 42
40.0
 92
        8
 66
     7
 43
1.0
 76
     1
 77
     6
 78
     2
 67
     7
 79
     3
170
     0
171
     0
290
     0
174
     0
 93
        1
 44
0.0
173
     0
291
     0
 45
0.0
1001
ACAD
1000
AcDbSavedByObjectVersion
1070
     0
  0
VISUALSTYLE
  5
5B0
102
{ACAD_REACTORS
330
31
102
}
102
{ACAD_XDICTIONARY
360
5ED
102
}
330
31
100
AcDbVisualStyle
  2
Dim
 70
    11
 71
     2
 72
     2
 73
     0
 90
        0
 40
0.6
 41
30.0
 62
     5
 63
     7
 74
     1
 91
        4
 64
     7
 65
   257
 75
     1
175
     1
 42
1.0
 92
        8
 66
     7
 43
1.0
 76
     1
 77
     6
 78
     2
 67
     7
 79
     5
170
     0
171
     0
290
     0
174
     0
 93
        1
 44
-50.0
173
     0
291
     1
 45
0.0
1001
ACAD
1000
AcDbSavedByObjectVersion
1070
     0
  0
VISUALSTYLE
  5
5B8
102
{ACAD_REACTORS
330
31
102
}
102
{ACAD_XDICTIONARY
360
5FD
102
}
330
31
100
AcDbVisualStyle
  2
EdgeColorOff
 70
    22
 71
     2
 72
     2
 73
     0
 90
        0
 40
0.6
 41
30.0
 62
     5
 63
     7
 74
     1
 91
        4
 64
     7
 65
   257
 75
     1
175
     1
 42
1.0
 92
        8
 66
     7
 43
1.0
 76
     1
 77
     6
 78
     2
 67
     7
 79
     5
170
     0
171
     0
290
     0
174
     0
 93
        1
 44
0.0
173
     0
291
     1
 45
0.0
1001
ACAD
1000
AcDbSavedByObjectVersion
1070
     0
  0
VISUALSTYLE
  5
5B4
102
{ACAD_REACTORS
330
31
102
}
102
{ACAD_XDICTIONARY
360
5F5
102
}
330
31
100
AcDbVisualStyle
  2
Facepattern
 70
    15
 71
     2
 72
     2
 73
     0
 90
        0
 40
0.6
 41
30.0
 62
     5
 63
     7
 74
     1
 91
        4
 64
     7
 65
   257
 75
     1
175
     1
 42
1.0
 92
        8
 66
     7
 43
1.0
 76
     1
 77
     6
 78
     2
 67
     7
 79
     5
170
     0
171
     0
290
     0
174
     0
 93
        1
 44
0.0
173
     0
291
     1
 45
0.0
1001
ACAD
1000
AcDbSavedByObjectVersion
1070
     0
  0
VISUALSTYLE
  5
5A8
102
{ACAD_REACTORS
330
31
102
}
102
{ACAD_XDICTIONARY
360
5DD
102
}
330
31
100
AcDbVisualStyle
  2
Flat
 70
     0
 71
     2
 72
     1
 73
     1
 90
        2
 40
0.6
 41
30.0
 62
     5
 63
     7
 74
     0
 91
        4
 64
     7
 65
   257
 75
     1
175
     1
 42
1.0
 92
        8
 66
     7
 43
1.0
 76
     1
 77
     6
 78
     2
 67
     7
 79
     5
170
     0
171
     0
290
     0
174
     0
 93
       13
 44
0.0
173
     0
291
     1
 45
0.0
1001
ACAD
1000
AcDbSavedByObjectVersion
1070
     0
  0
VISUALSTYLE
  5
5A9
102
{ACAD_REACTORS
330
31
102
}
102
{ACAD_XDICTIONARY
360
5DF
102
}
330
31
100
AcDbVisualStyle
  2
FlatWithEdges
 70
     1
 71
     2
 72
     1
 73
     1
 90
        2
 40
0.6
 41
30.0
 62
     5
 63
     7
 74
     1
 91
        4
 64
     7
 65
   257
 75
     1
175
     1
 42
1.0
 92
        0
 66
   257
 43
1.0
 76
     1
 77
     6
 78
     2
 67
     7
 79
     5
170
     0
171
     0
290
     0
174
     0
 93
       13
 44
0.0
173
     0
291
     1
 45
0.0
1001
ACAD
1000
AcDbSavedByObjectVersion
1070
     0
  0
VISUALSTYLE
  5
5AA
102
{ACAD_REACTORS
330
31
102
}
102
{ACAD_XDICTIONARY
360
5E1
102
}
330
31
100
AcDbVisualStyle
  2
Gouraud
 70
     2
 71
     2
 72
     2
 73
     1
 90
        2
 40
0.6
 41
30.0
 62
     5
 63
     7
 74
     0
 91
        4
 64
     7
 65
   257
 75
     1
175
     1
 42
1.0
 92
        0
 66
     7
 43
1.0
 76
     1
 77
     6
 78
     2
 67
     7
 79
     5
170
     0
171
     0
290
     0
174
     0
 93
       13
 44
0.0
173
     0
291
     1
 45
0.0
1001
ACAD
1000
AcDbSavedByObjectVersion
1070
     0
  0
VISUALSTYLE
  5
5AB
102
{ACAD_REACTORS
330
31
102
}
102
{ACAD_XDICTIONARY
360
5E3
102
}
330
31
100
AcDbVisualStyle
  2
GouraudWithEdges
 70
     3
 71
     2
 72
     2
 73
     1
 90
        2
 40
0.6
 41
30.0
 62
     5
 63
     7
 74
     1
 91
        4
 64
     7
 65
   257
 75
     1
175
     1
 42
1.0
 92
        0
 66
   257
 43
1.0
 76
     1
 77
     6
 78
     2
 67
     7
 79
     5
170
     0
171
     0
290
     0
174
     0
 93
       13
 44
0.0
173
     0
291
     1
 45
0.0
1001
ACAD
1000
AcDbSavedByObjectVersion
1070
     0
  0
VISUALSTYLE
  5
5AD
102
{ACAD_REACTORS
330
31
102
}
102
{ACAD_XDICTIONARY
360
5E7
102
}
330
31
100
AcDbVisualStyle
  2
Hidden
 70
     6
 71
     1
 72
     2
 73
     2
 90
        0
 40
0.6
 41
30.0
 62
     5
 63
     7
 74
     2
 91
        2
 64
     7
 65
   257
 75
     2
175
     1
 42
40.0
 92
        0
 66
   257
 43
1.0
 76
     1
 77
     6
 78
     2
 67
     7
 79
     3
170
     0
171
     0
290
     0
174
     0
 93
        1
 44
0.0
173
     0
291
     0
 45
0.0
1001
ACAD
1000
AcDbSavedByObjectVersion
1070
     0
  0
VISUALSTYLE
  5
5B6
102
{ACAD_REACTORS
330
31
102
}
102
{ACAD_XDICTIONARY
360
5F9
102
}
330
31
100
AcDbVisualStyle
  2
JitterOff
 70
    20
 71
     2
 72
     2
 73
     0
 90
        0
 40
0.6
 41
30.0
 62
     5
 63
     7
 74
     1
 91
        4
 64
     7
 65
   257
 75
     1
175
     1
 42
1.0
 92
       10
 66
     7
 43
1.0
 76
     1
 77
     6
 78
     2
 67
     7
 79
     5
170
     0
171
     0
290
     0
174
     0
 93
        1
 44
0.0
173
     0
291
     1
 45
0.0
1001
ACAD
1000
AcDbSavedByObjectVersion
1070
     0
  0
VISUALSTYLE
  5
5B3
102
{ACAD_REACTORS
330
31
102
}
102
{ACAD_XDICTIONARY
360
5F3
102
}
330
31
100
AcDbVisualStyle
  2
Linepattern
 70
    14
 71
     2
 72
     2
 73
     0
 90
        0
 40
0.6
 41
30.0
 62
     5
 63
     7
 74
     1
 91
        4
 64
     7
 65
   257
 75
     7
175
     7
 42
1.0
 92
        8
 66
     7
 43
1.0
 76
     1
 77
     6
 78
     2
 67
     7
 79
     5
170
     0
171
     0
290
     0
174
     0
 93
        1
 44
0.0
173
     0
291
     1
 45
0.0
1001
ACAD
1000
AcDbSavedByObjectVersion
1070
     0
  0
VISUALSTYLE
  5
5B7
102
{ACAD_REACTORS
330
31
102
}
102
{ACAD_XDICTIONARY
360
5FB
102
}
330
31
100
AcDbVisualStyle
  2
OverhangOff
 70
    21
 71
     2
 72
     2
 73
     0
 90
        0
 40
0.6
 41
30.0
 62
     5
 63
     7
 74
     1
 91
        4
 64
     7
 65
   257
 75
     1
175
     1
 42
1.0
 92
        9
 66
     7
 43
1.0
 76
     1
 77
     6
 78
     2
 67
     7
 79
     5
170
     0
171
     0
290
     0
174
     0
 93
        1
 44
0.0
173
     0
291
     1
 45
0.0
1001
ACAD
1000
AcDbSavedByObjectVersion
1070
     0
  0
VISUALSTYLE
  5
32
102
{ACAD_REACTORS
330
31
102
}
102
{ACAD_XDICTIONARY
360
5D9
102
}
330
31
100
AcDbVisualStyle
  2
Realistic
 70
     8
 71
     2
 72
     3
 73
     0
 90
        2
 40
0.6
 41
30.0
 62
     5
 63
     7
 74
     0
 91
        0
 64
     7
 65
   257
 75
     1
175
     1
 42
1.0
 92
        8
 66
   257
 43
1.0
 76
     1
 77
     6
 78
     2
 67
     7
 79
     3
170
     0
171
     0
290
     0
174
     0
 93
       13
 44
0.0
173
     0
291
     0
 45
0.0
1001
ACAD
1000
AcDbSavedByObjectVersion
1070
     0
  0
VISUALSTYLE
  5
5BD
102
{ACAD_REACTORS
330
31
102
}
102
{ACAD_XDICTIONARY
360
607
102
}
330
31
100
AcDbVisualStyle
  2
Shaded
 70
    27
 71
     2
 72
     2
 73
     1
 90
        2
 40
0.6
 41
30.0
 62
     5
 63
     7
 74
     0
 91
        4
 64
     7
 65
   257
 75
     1
175
     1
 42
1.0
 92
        8
 66
   257
 43
1.0
 76
     1
 77
     6
 78
     2
 67
   251
 79
     3
170
     0
171
     0
290
     0
174
     0
 93
        5
 44
0.0
173
     0
291
     0
 45
0.0
1001
ACAD
1000
AcDbSavedByObjectVersion
1070
     0
  0
VISUALSTYLE
  5
5BC
102
{ACAD_REACTORS
330
31
102
}
102
{ACAD_XDICTIONARY
360
605
102
}
330
31
100
AcDbVisualStyle
  2
Shaded with edges
 70
    26
 71
     2
 72
     2
 73
     1
 90
        2
 40
0.6
 41
30.0
 62
     5
 63
     7
 74
     1
 91
       10
 64
     7
 65
   257
 75
     2
175
     1
 42
1.0
 92
        8
 66
   257
 43
1.0
 76
     1
 77
     6
 78
     2
 67
     7
 79
     3
170
     0
171
     0
290
     0
174
     0
 93
        5
 44
0.0
173
     0
291
     0
 45
0.0
1001
ACAD
1000
AcDbSavedByObjectVersion
1070
     0
  0
VISUALSTYLE
  5
5B9
102
{ACAD_REACTORS
330
31
102
}
102
{ACAD_XDICTIONARY
360
5FF
102
}
330
31
100
AcDbVisualStyle
  2
Shades of Gray
 70
    23
 71
     2
 72
     2
 73
     3
 90
        0
 40
0.6
 41
30.0
 62
     5
 63
     7
 74
     2
 91
        2
 64
     7
 65
     7
 75
     1
175
     1
 42
40.0
 92
        8
 66
     7
 43
1.0
 76
     1
 77
     6
 78
     2
 67
     7
 79
     3
170
     0
171
     0
290
     0
174
     0
 93
        1
 44
0.0
173
     0
291
     0
 45
0.0
1001
ACAD
1000
AcDbSavedByObjectVersion
1070
     0
  0
VISUALSTYLE
  5
5BA
102
{ACAD_REACTORS
330
31
102
}
102
{ACAD_XDICTIONARY
360
601
102
}
330
31
100
AcDbVisualStyle
  2
Sketchy
 70
    24
 71
     1
 72
     2
 73
     2
 90
        0
 40
0.6
 41
30.0
 62
     5
 63
     7
 74
     2
 91
        2
 64
     7
 65
     7
 75
     1
175
     1
 42
40.0
 92
       11
 66
     7
 43
1.0
 76
     1
 77
     6
 78
     2
 67
     7
 79
     6
170
     0
171
     0
290
     0
174
     0
 93
        1
 44
0.0
173
     0
291
     0
 45
0.0
1001
ACAD
1000
AcDbSavedByObjectVersion
1070
     0
  0
VISUALSTYLE
  5
5B2
102
{ACAD_REACTORS
330
31
102
}
102
{ACAD_XDICTIONARY
360
5F1
102
}
330
31
100
AcDbVisualStyle
  2
Thicken
 70
    13
 71
     2
 72
     2
 73
     0
 90
        0
 40
0.6
 41
30.0
 62
     5
 63
     7
 74
     1
 91
        4
 64
     7
 65
   257
 75
     1
175
     1
 42
1.0
 92
       12
 66
     7
 43
1.0
 76
     1
 77
     6
 78
     2
 67
     7
 79
     5
170
     0
171
     0
290
     0
174
     0
 93
        1
 44
0.0
173
     0
291
     1
 45
0.0
1001
ACAD
1000
AcDbSavedByObjectVersion
1070
     0
  0
VISUALSTYLE
  5
33
102
{ACAD_REACTORS
330
31
102
}
102
{ACAD_XDICTIONARY
360
5DB
102
}
330
31
100
AcDbVisualStyle
  2
Wireframe
 70
     5
 71
     0
 72
     2
 73
     0
 90
        0
 40
0.6
 41
30.0
 62
     5
 63
     7
 74
     1
 91
        4
 64
     7
 65
   257
 75
     1
175
     1
 42
1.0
 92
        0
 66
   257
 43
1.0
 76
     1
 77
     6
 78
     2
 67
     7
 79
     3
170
     0
171
     0
290
     0
174
     0
 93
        1
 44
0.0
173
     0
291
     0
 45
0.0
1001
ACAD
1000
AcDbSavedByObjectVersion
1070
     0
  0
VISUALSTYLE
  5
5BB
102
{ACAD_REACTORS
330
31
102
}
102
{ACAD_XDICTIONARY
360
603
102
}
330
31
100
AcDbVisualStyle
  2
X-Ray
 70
    25
 71
     2
 72
     2
 73
     1
 90
        1
 40
0.5
 41
30.0
 62
     5
 63
     7
 74
     1
 91
        0
 64
     7
 65
   257
 75
     1
175
     1
 42
1.0
 92
        8
 66
     7
 43
1.0
 76
     1
 77
     6
 78
     2
 67
     7
 79
     3
170
     0
171
     0
290
     0
174
     0
 93
       13
 44
0.0
173
     0
291
     0
 45
0.0
1001
ACAD
1000
AcDbSavedByObjectVersion
1070
     0
  0
XRECORD
  5
5CD
102
{ACAD_REACTORS
330
5CC
102
}
330
5CC
100
AcDbXrecord
280
     1
340
30
  0
XRECORD
  5
5CE
102
{ACAD_REACTORS
330
5CC
102
}
330
5CC
100
AcDbXrecord
280
     1
340
B
  0
DICTIONARYVAR
  5
5A2
102
{ACAD_REACTORS
330
5A1
102
}
330
5A1
100
DictionaryVariables
280
     0
  1
1:1
  0
DICTIONARYVAR
  5
5C5
102
{ACAD_REACTORS
330
5A1
102
}
330
5A1
100
DictionaryVariables
280
     0
  1
Standard
  0
DICTIONARYVAR
  5
5C9
102
{ACAD_REACTORS
330
5A1
102
}
330
5A1
100
DictionaryVariables
280
     0
  1
Standard
  0
DICTIONARYVAR
  5
5CA
102
{ACAD_REACTORS
330
5A1
102
}
330
5A1
100
DictionaryVariables
280
     0
  1
0
  0
DICTIONARYVAR
  5
5CB
102
{ACAD_REACTORS
330
5A1
102
}
330
5A1
100
DictionaryVariables
280
     0
  1
1
  0
DICTIONARYVAR
  5
5D2
102
{ACAD_REACTORS
330
5A1
102
}
330
5A1
100
DictionaryVariables
280
     0
  1
1
  0
DICTIONARYVAR
  5
5A5
102
{ACAD_REACTORS
330
5A1
102
}
330
5A1
100
DictionaryVariables
280
     0
  1
0
  0
DICTIONARY
  5
25
330
23
100
AcDbDictionary
280
     1
281
     1
  0
DICTIONARY
  5
5D7
330
5A
100
AcDbDictionary
280
     1
281
     1
  3
ACAD_XREC_ROUNDTRIP
360
5D8
  0
DICTIONARY
  5
5D3
330
14
100
AcDbDictionary
280
     1
281
     1
  3
ACAD_XREC_ROUNDTRIP
360
5D4
  0
DICTIONARY
  5
5D5
330
A
100
AcDbDictionary
280
     1
281
     1
  3
ACAD_XREC_ROUNDTRIP
360
5D6
  0
DICTIONARY
  5
609
330
5BE
100
AcDbDictionary
280
     1
281
     1
  3
ACAD_XREC_ROUNDTRIP
360
60A
  0
DICTIONARY
  5
5E5
330
5AC
100
AcDbDictionary
280
     1
281
     1
  3
ACAD_XREC_ROUNDTRIP
360
5E6
  0
DICTIONARY
  5
5E9
330
5AE
100
AcDbDictionary
280
     1
281
     1
  3
ACAD_XREC_ROUNDTRIP
360
5EA
  0
DICTIONARY
  5
5EF
330
5B1
100
AcDbDictionary
280
     1
281
     1
  3
ACAD_XREC_ROUNDTRIP
360
5F0
  0
DICTIONARY
  5
5F7
330
5B5
100
AcDbDictionary
280
     1
281
     1
  3
ACAD_XREC_ROUNDTRIP
360
5F8
  0
DICTIONARY
  5
5EB
330
5AF
100
AcDbDictionary
280
     1
281
     1
  3
ACAD_XREC_ROUNDTRIP
360
5EC
  0
DICTIONARY
  5
5ED
330
5B0
100
AcDbDictionary
280
     1
281
     1
  3
ACAD_XREC_ROUNDTRIP
360
5EE
  0
DICTIONARY
  5
5FD
330
5B8
100
AcDbDictionary
280
     1
281
     1
  3
ACAD_XREC_ROUNDTRIP
360
5FE
  0
DICTIONARY
  5
5F5
330
5B4
100
AcDbDictionary
280
     1
281
     1
  3
ACAD_XREC_ROUNDTRIP
360
5F6
  0
DICTIONARY
  5
5DD
330
5A8
100
AcDbDictionary
280
     1
281
     1
  3
ACAD_XREC_ROUNDTRIP
360
5DE
  0
DICTIONARY
  5
5DF
330
5A9
100
AcDbDictionary
280
     1
281
     1
  3
ACAD_XREC_ROUNDTRIP
360
5E0
  0
DICTIONARY
  5
5E1
330
5AA
100
AcDbDictionary
280
     1
281
     1
  3
ACAD_XREC_ROUNDTRIP
360
5E2
  0
DICTIONARY
  5
5E3
330
5AB
100
AcDbDictionary
280
     1
281
     1
  3
ACAD_XREC_ROUNDTRIP
360
5E4
  0
DICTIONARY
  5
5E7
330
5AD
100
AcDbDictionary
280
     1
281
     1
  3
ACAD_XREC_ROUNDTRIP
360
5E8
  0
DICTIONARY
  5
5F9
330
5B6
100
AcDbDictionary
280
     1
281
     1
  3
ACAD_XREC_ROUNDTRIP
360
5FA
  0
DICTIONARY
  5
5F3
330
5B3
100
AcDbDictionary
280
     1
281
     1
  3
ACAD_XREC_ROUNDTRIP
360
5F4
  0
DICTIONARY
  5
5FB
330
5B7
100
AcDbDictionary
280
     1
281
     1
  3
ACAD_XREC_ROUNDTRIP
360
5FC
  0
DICTIONARY
  5
5D9
330
32
100
AcDbDictionary
280
     1
281
     1
  3
ACAD_XREC_ROUNDTRIP
360
5DA
  0
DICTIONARY
  5
607
330
5BD
100
AcDbDictionary
280
     1
281
     1
  3
ACAD_XREC_ROUNDTRIP
360
608
  0
DICTIONARY
  5
605
330
5BC
100
AcDbDictionary
280
     1
281
     1
  3
ACAD_XREC_ROUNDTRIP
360
606
  0
DICTIONARY
  5
5FF
330
5B9
100
AcDbDictionary
280
     1
281
     1
  3
ACAD_XREC_ROUNDTRIP
360
600
  0
DICTIONARY
  5
601
330
5BA
100
AcDbDictionary
280
     1
281
     1
  3
ACAD_XREC_ROUNDTRIP
360
602
  0
DICTIONARY
  5
5F1
330
5B2
100
AcDbDictionary
280
     1
281
     1
  3
ACAD_XREC_ROUNDTRIP
360
5F2
  0
DICTIONARY
  5
5DB
330
33
100
AcDbDictionary
280
     1
281
     1
  3
ACAD_XREC_ROUNDTRIP
360
5DC
  0
DICTIONARY
  5
603
330
5BB
100
AcDbDictionary
280
     1
281
     1
  3
ACAD_XREC_ROUNDTRIP
360
604
  0
XRECORD
  5
5D8
102
{ACAD_REACTORS
330
5D7
102
}
330
5D7
100
AcDbXrecord
280
     1
102
MATERIAL
148
0.0
149
0.0
149
0.0
 93
        0
 94
      127
282
     0
 72
     0
 77
     0
171
     0
175
     0
179
     0
273
     0
  0
XRECORD
  5
5D4
102
{ACAD_REACTORS
330
5D3
102
}
330
5D3
100
AcDbXrecord
280
     1
102
MATERIAL
148
0.0
149
0.0
149
0.0
 93
        0
 94
      127
282
     0
 72
     0
 77
     0
171
     0
175
     0
179
     0
273
     0
  0
XRECORD
  5
5D6
102
{ACAD_REACTORS
330
5D5
102
}
330
5D5
100
AcDbXrecord
280
     1
102
MATERIAL
148
0.0
149
0.0
149
0.0
 93
        0
 94
      127
282
     0
 72
     0
 77
     0
171
     0
175
     0
179
     0
273
     0
  0
XRECORD
  5
60A
102
{ACAD_REACTORS
330
609
102
}
330
609
100
AcDbXrecord
280
     1
102
ACAD_ROUNDTRIP_2010_MLEADER_STYLE
  0
XRECORD
  5
5E6
102
{ACAD_REACTORS
330
5E5
102
}
330
5E5
100
AcDbXrecord
280
     1
102
RTVSPropertyOp0
 70
     1
102
RTVSPropertyOp1
 70
     1
102
RTVSPropertyOp2
 70
     1
102
RTVSPropertyOp3
 70
     1
102
RTVSPropertyOp4
 70
     1
102
RTVSPropertyOp5
 70
     1
102
RTVSPropertyOp6
 70
     1
102
RTVSPropertyOp7
 70
     1
102
RTVSPropertyOp8
 70
     1
102
RTVSPropertyOp9
 70
     1
102
RTVSPropertyOp10
 70
     1
102
RTVSPropertyOp11
 70
     1
102
RTVSPropertyOp12
 70
     1
102
RTVSPropertyOp13
 70
     1
102
RTVSPropertyOp14
 70
     1
102
RTVSPropertyOp15
 70
     1
102
RTVSPropertyOp16
 70
     1
102
RTVSPropertyOp17
 70
     1
102
RTVSPropertyOp18
 70
     1
102
RTVSPropertyOp19
 70
     1
102
RTVSPropertyOp20
 70
     1
102
RTVSPropertyOp21
 70
     1
102
RTVSPropertyOp22
 70
     1
102
RTVSPropertyOp23
 70
     1
102
RTVSPropertyOp24
 70
     1
102
RTVSPropertyOp25
 70
     1
102
RTVSPropertyOp26
 70
     1
102
RTVSPropertyOp27
 70
     1
102
RTVSPropertyOp28
 70
     1
102
RTVSPropertyOp29
 70
     1
102
RTVSPropertyOp30
 70
     1
102
RTVSPropertyOp31
 70
     1
102
RTVSPropertyOp32
 70
     1
102
RTVSPropertyOp33
 70
     1
102
RTVSPropertyOp34
 70
     1
102
RTVSPropertyOp35
 70
     1
102
RTVSPropertyOp36
 70
     1
102
RTVSPropertyOp37
 70
     1
102
RTVSPropertyOp38
 70
     1
102
RTVSPropertyOp39
 70
     1
102
RTVSPropertyOp40
 70
     1
102
RTVSPropertyOp41
 70
     1
102
RTVSPropertyOp42
 70
     1
102
RTVSPropertyOp43
 70
     1
102
RTVSPropertyOp44
 70
     1
102
RTVSPropertyOp45
 70
     1
102
RTVSPropertyOp46
 70
     1
102
RTVSPropertyOp47
 70
     1
102
RTVSPropertyOp48
 70
     1
102
RTVSPropertyOp49
 70
     1
102
RTVSPropertyOp50
 70
     1
102
RTVSPropertyOp51
 70
     0
102
RTVSPropertyOp52
 70
     0
102
RTVSPropertyOp53
 70
     1
102
RTVSPropertyOp54
 70
     1
102
RTVSPropertyOp55
 70
     1
102
RTVSPropertyOp56
 70
     1
102
RTVSPropertyOp57
 70
     1
102
RTVSPost2010Prop28
280
     1
102
RTVSPost2010PropOp28
 70
     1
102
RTVSPost2010Prop29
280
     1
102
RTVSPost2010PropOp29
 70
     1
102
RTVSPost2010Prop30
280
     0
102
RTVSPost2010PropOp30
 70
     1
102
RTVSPost2010Prop31
280
     0
102
RTVSPost2010PropOp31
 70
     1
102
RTVSPost2010Prop32
280
     0
102
RTVSPost2010PropOp32
 70
     1
102
RTVSPost2010Prop33
280
     0
102
RTVSPost2010PropOp33
 70
     1
102
RTVSPost2010Prop34
280
     0
102
RTVSPost2010PropOp34
 70
     1
102
RTVSPost2010Prop35
280
     0
102
RTVSPost2010PropOp35
 70
     1
102
RTVSPost2010Prop36
280
     0
102
RTVSPost2010PropOp36
 70
     1
102
RTVSPost2010Prop37
 90
       50
102
RTVSPost2010PropOp37
 70
     1
102
RTVSPost2010Prop38
140
0.0
102
RTVSPost2010PropOp38
 70
     1
102
RTVSPost2010Prop39
140
1.0
102
RTVSPost2010PropOp39
 70
     1
102
RTVSPost2010Prop40
 90
        0
102
RTVSPost2010PropOp40
 70
     1
102
RTVSPost2010Prop41ColorIndex
 90
       18
102
RTVSPost2010Prop41ColorRGB
 90
        0
102
RTVSPost2010PropOp41
 70
     1
102
RTVSPost2010Prop42
 90
       50
102
RTVSPost2010PropOp42
 70
     1
102
RTVSPost2010Prop43
 90
        3
102
RTVSPost2010PropOp43
 70
     1
102
RTVSPost2010Prop44ColorIndex
 90
        5
102
RTVSPost2010Prop44ColorRGB
 90
      255
102
RTVSPost2010PropOp44
 70
     1
102
RTVSPost2010Prop45
280
     0
102
RTVSPost2010PropOp45
 70
     1
102
RTVSPost2010Prop46
 90
       50
102
RTVSPost2010PropOp46
 70
     1
102
RTVSPost2010Prop47
 90
       50
102
RTVSPost2010PropOp47
 70
     1
102
RTVSPost2010Prop48
 90
       50
102
RTVSPost2010PropOp48
 70
     1
102
RTVSPost2010Prop49
280
     0
102
RTVSPost2010PropOp49
 70
     1
102
RTVSPost2010Prop50
 90
       50
102
RTVSPost2010PropOp50
 70
     1
102
RTVSPost2010Prop51ColorIndex
 90
      256
102
RTVSPost2010Prop51ColorRGB
 90
-16777216
102
RTVSPost2010PropOp51
 70
     0
102
RTVSPost2010Prop52
140
1.0
102
RTVSPost2010PropOp52
 70
     0
102
RTVSPost2010Prop53
 90
        2
102
RTVSPost2010PropOp53
 70
     1
102
RTVSPost2010Prop54
  1
strokes_ogs.tif
102
RTVSPost2010PropOp54
 70
     1
102
RTVSPost2010Prop55
280
     0
102
RTVSPost2010PropOp55
 70
     1
102
RTVSPost2010Prop56
140
1.0
102
RTVSPost2010PropOp56
 70
     1
102
RTVSPost2010Prop57
140
1.0
102
RTVSPost2010PropOp57
 70
     1
  0
XRECORD
  5
5EA
102
{ACAD_REACTORS
330
5E9
102
}
330
5E9
100
AcDbXrecord
280
     1
102
RTVSPropertyOp0
 70
     1
102
RTVSPropertyOp1
 70
     1
102
RTVSPropertyOp2
 70
     1
102
RTVSPropertyOp3
 70
     1
102
RTVSPropertyOp4
 70
     1
102
RTVSPropertyOp5
 70
     1
102
RTVSPropertyOp6
 70
     1
102
RTVSPropertyOp7
 70
     1
102
RTVSPropertyOp8
 70
     1
102
RTVSPropertyOp9
 70
     1
102
RTVSPropertyOp10
 70
     1
102
RTVSPropertyOp11
 70
     1
102
RTVSPropertyOp12
 70
     1
102
RTVSPropertyOp13
 70
     1
102
RTVSPropertyOp14
 70
     1
102
RTVSPropertyOp15
 70
     1
102
RTVSPropertyOp16
 70
     1
102
RTVSPropertyOp17
 70
     1
102
RTVSPropertyOp18
 70
     1
102
RTVSPropertyOp19
 70
     1
102
RTVSPropertyOp20
 70
     1
102
RTVSPropertyOp21
 70
     1
102
RTVSPropertyOp22
 70
     1
102
RTVSPropertyOp23
 70
     1
102
RTVSPropertyOp24
 70
     1
102
RTVSPropertyOp25
 70
     1
102
RTVSPropertyOp26
 70
     1
102
RTVSPropertyOp27
 70
     1
102
RTVSPropertyOp28
 70
     1
102
RTVSPropertyOp29
 70
     1
102
RTVSPropertyOp30
 70
     1
102
RTVSPropertyOp31
 70
     1
102
RTVSPropertyOp32
 70
     1
102
RTVSPropertyOp33
 70
     1
102
RTVSPropertyOp34
 70
     1
102
RTVSPropertyOp35
 70
     1
102
RTVSPropertyOp36
 70
     1
102
RTVSPropertyOp37
 70
     1
102
RTVSPropertyOp38
 70
     1
102
RTVSPropertyOp39
 70
     1
102
RTVSPropertyOp40
 70
     1
102
RTVSPropertyOp41
 70
     1
102
RTVSPropertyOp42
 70
     1
102
RTVSPropertyOp43
 70
     1
102
RTVSPropertyOp44
 70
     1
102
RTVSPropertyOp45
 70
     1
102
RTVSPropertyOp46
 70
     1
102
RTVSPropertyOp47
 70
     1
102
RTVSPropertyOp48
 70
     1
102
RTVSPropertyOp49
 70
     1
102
RTVSPropertyOp50
 70
     1
102
RTVSPropertyOp51
 70
     0
102
RTVSPropertyOp52
 70
     0
102
RTVSPropertyOp53
 70
     1
102
RTVSPropertyOp54
 70
     1
102
RTVSPropertyOp55
 70
     1
102
RTVSPropertyOp56
 70
     1
102
RTVSPropertyOp57
 70
     1
102
RTVSPost2010Prop28
280
     0
102
RTVSPost2010PropOp28
 70
     1
102
RTVSPost2010Prop29
280
     1
102
RTVSPost2010PropOp29
 70
     1
102
RTVSPost2010Prop30
280
     1
102
RTVSPost2010PropOp30
 70
     1
102
RTVSPost2010Prop31
280
     0
102
RTVSPost2010PropOp31
 70
     1
102
RTVSPost2010Prop32
280
     0
102
RTVSPost2010PropOp32
 70
     1
102
RTVSPost2010Prop33
280
     0
102
RTVSPost2010PropOp33
 70
     1
102
RTVSPost2010Prop34
280
     0
102
RTVSPost2010PropOp34
 70
     1
102
RTVSPost2010Prop35
280
     0
102
RTVSPost2010PropOp35
 70
     1
102
RTVSPost2010Prop36
280
     0
102
RTVSPost2010PropOp36
 70
     1
102
RTVSPost2010Prop37
 90
       50
102
RTVSPost2010PropOp37
 70
     1
102
RTVSPost2010Prop38
140
0.0
102
RTVSPost2010PropOp38
 70
     1
102
RTVSPost2010Prop39
140
1.0
102
RTVSPost2010PropOp39
 70
     1
102
RTVSPost2010Prop40
 90
        0
102
RTVSPost2010PropOp40
 70
     1
102
RTVSPost2010Prop41ColorIndex
 90
       18
102
RTVSPost2010Prop41ColorRGB
 90
        0
102
RTVSPost2010PropOp41
 70
     1
102
RTVSPost2010Prop42
 90
       50
102
RTVSPost2010PropOp42
 70
     1
102
RTVSPost2010Prop43
 90
        3
102
RTVSPost2010PropOp43
 70
     1
102
RTVSPost2010Prop44ColorIndex
 90
        5
102
RTVSPost2010Prop44ColorRGB
 90
      255
102
RTVSPost2010PropOp44
 70
     1
102
RTVSPost2010Prop45
280
     0
102
RTVSPost2010PropOp45
 70
     1
102
RTVSPost2010Prop46
 90
       50
102
RTVSPost2010PropOp46
 70
     1
102
RTVSPost2010Prop47
 90
       50
102
RTVSPost2010PropOp47
 70
     1
102
RTVSPost2010Prop48
 90
       50
102
RTVSPost2010PropOp48
 70
     1
102
RTVSPost2010Prop49
280
     0
102
RTVSPost2010PropOp49
 70
     1
102
RTVSPost2010Prop50
 90
       50
102
RTVSPost2010PropOp50
 70
     1
102
RTVSPost2010Prop51ColorIndex
 90
      256
102
RTVSPost2010Prop51ColorRGB
 90
-16777216
102
RTVSPost2010PropOp51
 70
     0
102
RTVSPost2010Prop52
140
1.0
102
RTVSPost2010PropOp52
 70
     0
102
RTVSPost2010Prop53
 90
        2
102
RTVSPost2010PropOp53
 70
     1
102
RTVSPost2010Prop54
  1
strokes_ogs.tif
102
RTVSPost2010PropOp54
 70
     1
102
RTVSPost2010Prop55
280
     0
102
RTVSPost2010PropOp55
 70
     1
102
RTVSPost2010Prop56
140
1.0
102
RTVSPost2010PropOp56
 70
     1
102
RTVSPost2010Prop57
140
1.0
102
RTVSPost2010PropOp57
 70
     1
  0
XRECORD
  5
5F0
102
{ACAD_REACTORS
330
5EF
102
}
330
5EF
100
AcDbXrecord
280
     1
102
RTVSPropertyOp0
 70
     1
102
RTVSPropertyOp1
 70
     1
102
RTVSPropertyOp2
 70
     1
102
RTVSPropertyOp3
 70
     1
102
RTVSPropertyOp4
 70
     1
102
RTVSPropertyOp5
 70
     1
102
RTVSPropertyOp6
 70
     1
102
RTVSPropertyOp7
 70
     1
102
RTVSPropertyOp8
 70
     1
102
RTVSPropertyOp9
 70
     1
102
RTVSPropertyOp10
 70
     1
102
RTVSPropertyOp11
 70
     1
102
RTVSPropertyOp12
 70
     1
102
RTVSPropertyOp13
 70
     1
102
RTVSPropertyOp14
 70
     1
102
RTVSPropertyOp15
 70
     1
102
RTVSPropertyOp16
 70
     1
102
RTVSPropertyOp17
 70
     1
102
RTVSPropertyOp18
 70
     1
102
RTVSPropertyOp19
 70
     1
102
RTVSPropertyOp20
 70
     1
102
RTVSPropertyOp21
 70
     1
102
RTVSPropertyOp22
 70
     1
102
RTVSPropertyOp23
 70
     1
102
RTVSPropertyOp24
 70
     1
102
RTVSPropertyOp25
 70
     1
102
RTVSPropertyOp26
 70
     1
102
RTVSPropertyOp27
 70
     1
102
RTVSPropertyOp28
 70
     1
102
RTVSPropertyOp29
 70
     1
102
RTVSPropertyOp30
 70
     1
102
RTVSPropertyOp31
 70
     1
102
RTVSPropertyOp32
 70
     1
102
RTVSPropertyOp33
 70
     1
102
RTVSPropertyOp34
 70
     1
102
RTVSPropertyOp35
 70
     1
102
RTVSPropertyOp36
 70
     1
102
RTVSPropertyOp37
 70
     1
102
RTVSPropertyOp38
 70
     1
102
RTVSPropertyOp39
 70
     1
102
RTVSPropertyOp40
 70
     1
102
RTVSPropertyOp41
 70
     1
102
RTVSPropertyOp42
 70
     1
102
RTVSPropertyOp43
 70
     1
102
RTVSPropertyOp44
 70
     1
102
RTVSPropertyOp45
 70
     1
102
RTVSPropertyOp46
 70
     1
102
RTVSPropertyOp47
 70
     1
102
RTVSPropertyOp48
 70
     1
102
RTVSPropertyOp49
 70
     1
102
RTVSPropertyOp50
 70
     1
102
RTVSPropertyOp51
 70
     0
102
RTVSPropertyOp52
 70
     0
102
RTVSPropertyOp53
 70
     1
102
RTVSPropertyOp54
 70
     1
102
RTVSPropertyOp55
 70
     1
102
RTVSPropertyOp56
 70
     1
102
RTVSPropertyOp57
 70
     1
102
RTVSPost2010Prop28
280
     0
102
RTVSPost2010PropOp28
 70
     1
102
RTVSPost2010Prop29
280
     1
102
RTVSPost2010PropOp29
 70
     1
102
RTVSPost2010Prop30
280
     1
102
RTVSPost2010PropOp30
 70
     1
102
RTVSPost2010Prop31
280
     0
102
RTVSPost2010PropOp31
 70
     1
102
RTVSPost2010Prop32
280
     0
102
RTVSPost2010PropOp32
 70
     1
102
RTVSPost2010Prop33
280
     0
102
RTVSPost2010PropOp33
 70
     1
102
RTVSPost2010Prop34
280
     0
102
RTVSPost2010PropOp34
 70
     1
102
RTVSPost2010Prop35
280
     0
102
RTVSPost2010PropOp35
 70
     1
102
RTVSPost2010Prop36
280
     0
102
RTVSPost2010PropOp36
 70
     1
102
RTVSPost2010Prop37
 90
       50
102
RTVSPost2010PropOp37
 70
     1
102
RTVSPost2010Prop38
140
0.0
102
RTVSPost2010PropOp38
 70
     1
102
RTVSPost2010Prop39
140
1.0
102
RTVSPost2010PropOp39
 70
     1
102
RTVSPost2010Prop40
 90
        0
102
RTVSPost2010PropOp40
 70
     1
102
RTVSPost2010Prop41ColorIndex
 90
       18
102
RTVSPost2010Prop41ColorRGB
 90
        0
102
RTVSPost2010PropOp41
 70
     1
102
RTVSPost2010Prop42
 90
       50
102
RTVSPost2010PropOp42
 70
     1
102
RTVSPost2010Prop43
 90
        3
102
RTVSPost2010PropOp43
 70
     1
102
RTVSPost2010Prop44ColorIndex
 90
        5
102
RTVSPost2010Prop44ColorRGB
 90
      255
102
RTVSPost2010PropOp44
 70
     1
102
RTVSPost2010Prop45
280
     0
102
RTVSPost2010PropOp45
 70
     1
102
RTVSPost2010Prop46
 90
       50
102
RTVSPost2010PropOp46
 70
     1
102
RTVSPost2010Prop47
 90
       50
102
RTVSPost2010PropOp47
 70
     1
102
RTVSPost2010Prop48
 90
       50
102
RTVSPost2010PropOp48
 70
     1
102
RTVSPost2010Prop49
280
     0
102
RTVSPost2010PropOp49
 70
     1
102
RTVSPost2010Prop50
 90
       50
102
RTVSPost2010PropOp50
 70
     1
102
RTVSPost2010Prop51ColorIndex
 90
      256
102
RTVSPost2010Prop51ColorRGB
 90
-16777216
102
RTVSPost2010PropOp51
 70
     0
102
RTVSPost2010Prop52
140
1.0
102
RTVSPost2010PropOp52
 70
     0
102
RTVSPost2010Prop53
 90
        2
102
RTVSPost2010PropOp53
 70
     1
102
RTVSPost2010Prop54
  1
strokes_ogs.tif
102
RTVSPost2010PropOp54
 70
     1
102
RTVSPost2010Prop55
280
     0
102
RTVSPost2010PropOp55
 70
     1
102
RTVSPost2010Prop56
140
1.0
102
RTVSPost2010PropOp56
 70
     1
102
RTVSPost2010Prop57
140
1.0
102
RTVSPost2010PropOp57
 70
     1
  0
XRECORD
  5
5F8
102
{ACAD_REACTORS
330
5F7
102
}
330
5F7
100
AcDbXrecord
280
     1
102
RTVSPropertyOp0
 70
     1
102
RTVSPropertyOp1
 70
     1
102
RTVSPropertyOp2
 70
     1
102
RTVSPropertyOp3
 70
     1
102
RTVSPropertyOp4
 70
     1
102
RTVSPropertyOp5
 70
     1
102
RTVSPropertyOp6
 70
     1
102
RTVSPropertyOp7
 70
     1
102
RTVSPropertyOp8
 70
     1
102
RTVSPropertyOp9
 70
     1
102
RTVSPropertyOp10
 70
     1
102
RTVSPropertyOp11
 70
     1
102
RTVSPropertyOp12
 70
     1
102
RTVSPropertyOp13
 70
     1
102
RTVSPropertyOp14
 70
     1
102
RTVSPropertyOp15
 70
     1
102
RTVSPropertyOp16
 70
     1
102
RTVSPropertyOp17
 70
     1
102
RTVSPropertyOp18
 70
     1
102
RTVSPropertyOp19
 70
     1
102
RTVSPropertyOp20
 70
     1
102
RTVSPropertyOp21
 70
     1
102
RTVSPropertyOp22
 70
     1
102
RTVSPropertyOp23
 70
     1
102
RTVSPropertyOp24
 70
     1
102
RTVSPropertyOp25
 70
     1
102
RTVSPropertyOp26
 70
     1
102
RTVSPropertyOp27
 70
     1
102
RTVSPropertyOp28
 70
     1
102
RTVSPropertyOp29
 70
     1
102
RTVSPropertyOp30
 70
     1
102
RTVSPropertyOp31
 70
     1
102
RTVSPropertyOp32
 70
     1
102
RTVSPropertyOp33
 70
     1
102
RTVSPropertyOp34
 70
     1
102
RTVSPropertyOp35
 70
     1
102
RTVSPropertyOp36
 70
     1
102
RTVSPropertyOp37
 70
     1
102
RTVSPropertyOp38
 70
     1
102
RTVSPropertyOp39
 70
     1
102
RTVSPropertyOp40
 70
     1
102
RTVSPropertyOp41
 70
     1
102
RTVSPropertyOp42
 70
     1
102
RTVSPropertyOp43
 70
     1
102
RTVSPropertyOp44
 70
     1
102
RTVSPropertyOp45
 70
     1
102
RTVSPropertyOp46
 70
     1
102
RTVSPropertyOp47
 70
     1
102
RTVSPropertyOp48
 70
     1
102
RTVSPropertyOp49
 70
     1
102
RTVSPropertyOp50
 70
     1
102
RTVSPropertyOp51
 70
     0
102
RTVSPropertyOp52
 70
     0
102
RTVSPropertyOp53
 70
     1
102
RTVSPropertyOp54
 70
     1
102
RTVSPropertyOp55
 70
     1
102
RTVSPropertyOp56
 70
     1
102
RTVSPropertyOp57
 70
     1
102
RTVSPost2010Prop28
280
     0
102
RTVSPost2010PropOp28
 70
     1
102
RTVSPost2010Prop29
280
     1
102
RTVSPost2010PropOp29
 70
     1
102
RTVSPost2010Prop30
280
     1
102
RTVSPost2010PropOp30
 70
     1
102
RTVSPost2010Prop31
280
     0
102
RTVSPost2010PropOp31
 70
     1
102
RTVSPost2010Prop32
280
     0
102
RTVSPost2010PropOp32
 70
     1
102
RTVSPost2010Prop33
280
     0
102
RTVSPost2010PropOp33
 70
     1
102
RTVSPost2010Prop34
280
     0
102
RTVSPost2010PropOp34
 70
     1
102
RTVSPost2010Prop35
280
     0
102
RTVSPost2010PropOp35
 70
     1
102
RTVSPost2010Prop36
280
     0
102
RTVSPost2010PropOp36
 70
     1
102
RTVSPost2010Prop37
 90
       50
102
RTVSPost2010PropOp37
 70
     1
102
RTVSPost2010Prop38
140
0.0
102
RTVSPost2010PropOp38
 70
     1
102
RTVSPost2010Prop39
140
1.0
102
RTVSPost2010PropOp39
 70
     1
102
RTVSPost2010Prop40
 90
        0
102
RTVSPost2010PropOp40
 70
     1
102
RTVSPost2010Prop41ColorIndex
 90
       18
102
RTVSPost2010Prop41ColorRGB
 90
        0
102
RTVSPost2010PropOp41
 70
     1
102
RTVSPost2010Prop42
 90
       50
102
RTVSPost2010PropOp42
 70
     1
102
RTVSPost2010Prop43
 90
        3
102
RTVSPost2010PropOp43
 70
     1
102
RTVSPost2010Prop44ColorIndex
 90
        5
102
RTVSPost2010Prop44ColorRGB
 90
      255
102
RTVSPost2010PropOp44
 70
     1
102
RTVSPost2010Prop45
280
     0
102
RTVSPost2010PropOp45
 70
     1
102
RTVSPost2010Prop46
 90
       50
102
RTVSPost2010PropOp46
 70
     1
102
RTVSPost2010Prop47
 90
       50
102
RTVSPost2010PropOp47
 70
     1
102
RTVSPost2010Prop48
 90
       50
102
RTVSPost2010PropOp48
 70
     1
102
RTVSPost2010Prop49
280
     0
102
RTVSPost2010PropOp49
 70
     1
102
RTVSPost2010Prop50
 90
       50
102
RTVSPost2010PropOp50
 70
     1
102
RTVSPost2010Prop51ColorIndex
 90
      256
102
RTVSPost2010Prop51ColorRGB
 90
-16777216
102
RTVSPost2010PropOp51
 70
     0
102
RTVSPost2010Prop52
140
1.0
102
RTVSPost2010PropOp52
 70
     0
102
RTVSPost2010Prop53
 90
        2
102
RTVSPost2010PropOp53
 70
     1
102
RTVSPost2010Prop54
  1
strokes_ogs.tif
102
RTVSPost2010PropOp54
 70
     1
102
RTVSPost2010Prop55
280
     0
102
RTVSPost2010PropOp55
 70
     1
102
RTVSPost2010Prop56
140
1.0
102
RTVSPost2010PropOp56
 70
     1
102
RTVSPost2010Prop57
140
1.0
102
RTVSPost2010PropOp57
 70
     1
  0
XRECORD
  5
5EC
102
{ACAD_REACTORS
330
5EB
102
}
330
5EB
100
AcDbXrecord
280
     1
102
RTVSPropertyOp0
 70
     1
102
RTVSPropertyOp1
 70
     1
102
RTVSPropertyOp2
 70
     1
102
RTVSPropertyOp3
 70
     1
102
RTVSPropertyOp4
 70
     1
102
RTVSPropertyOp5
 70
     1
102
RTVSPropertyOp6
 70
     1
102
RTVSPropertyOp7
 70
     1
102
RTVSPropertyOp8
 70
     1
102
RTVSPropertyOp9
 70
     1
102
RTVSPropertyOp10
 70
     1
102
RTVSPropertyOp11
 70
     1
102
RTVSPropertyOp12
 70
     1
102
RTVSPropertyOp13
 70
     1
102
RTVSPropertyOp14
 70
     1
102
RTVSPropertyOp15
 70
     1
102
RTVSPropertyOp16
 70
     1
102
RTVSPropertyOp17
 70
     1
102
RTVSPropertyOp18
 70
     1
102
RTVSPropertyOp19
 70
     1
102
RTVSPropertyOp20
 70
     1
102
RTVSPropertyOp21
 70
     1
102
RTVSPropertyOp22
 70
     1
102
RTVSPropertyOp23
 70
     1
102
RTVSPropertyOp24
 70
     1
102
RTVSPropertyOp25
 70
     1
102
RTVSPropertyOp26
 70
     1
102
RTVSPropertyOp27
 70
     1
102
RTVSPropertyOp28
 70
     1
102
RTVSPropertyOp29
 70
     1
102
RTVSPropertyOp30
 70
     1
102
RTVSPropertyOp31
 70
     1
102
RTVSPropertyOp32
 70
     1
102
RTVSPropertyOp33
 70
     1
102
RTVSPropertyOp34
 70
     1
102
RTVSPropertyOp35
 70
     1
102
RTVSPropertyOp36
 70
     1
102
RTVSPropertyOp37
 70
     1
102
RTVSPropertyOp38
 70
     1
102
RTVSPropertyOp39
 70
     1
102
RTVSPropertyOp40
 70
     1
102
RTVSPropertyOp41
 70
     1
102
RTVSPropertyOp42
 70
     1
102
RTVSPropertyOp43
 70
     1
102
RTVSPropertyOp44
 70
     1
102
RTVSPropertyOp45
 70
     1
102
RTVSPropertyOp46
 70
     1
102
RTVSPropertyOp47
 70
     1
102
RTVSPropertyOp48
 70
     1
102
RTVSPropertyOp49
 70
     1
102
RTVSPropertyOp50
 70
     1
102
RTVSPropertyOp51
 70
     0
102
RTVSPropertyOp52
 70
     0
102
RTVSPropertyOp53
 70
     1
102
RTVSPropertyOp54
 70
     1
102
RTVSPropertyOp55
 70
     1
102
RTVSPropertyOp56
 70
     1
102
RTVSPropertyOp57
 70
     1
102
RTVSPost2010Prop28
280
     0
102
RTVSPost2010PropOp28
 70
     1
102
RTVSPost2010Prop29
280
     1
102
RTVSPost2010PropOp29
 70
     1
102
RTVSPost2010Prop30
280
     1
102
RTVSPost2010PropOp30
 70
     1
102
RTVSPost2010Prop31
280
     0
102
RTVSPost2010PropOp31
 70
     1
102
RTVSPost2010Prop32
280
     0
102
RTVSPost2010PropOp32
 70
     1
102
RTVSPost2010Prop33
280
     0
102
RTVSPost2010PropOp33
 70
     1
102
RTVSPost2010Prop34
280
     0
102
RTVSPost2010PropOp34
 70
     1
102
RTVSPost2010Prop35
280
     0
102
RTVSPost2010PropOp35
 70
     1
102
RTVSPost2010Prop36
280
     0
102
RTVSPost2010PropOp36
 70
     1
102
RTVSPost2010Prop37
 90
       50
102
RTVSPost2010PropOp37
 70
     1
102
RTVSPost2010Prop38
140
0.0
102
RTVSPost2010PropOp38
 70
     1
102
RTVSPost2010Prop39
140
1.0
102
RTVSPost2010PropOp39
 70
     1
102
RTVSPost2010Prop40
 90
        0
102
RTVSPost2010PropOp40
 70
     1
102
RTVSPost2010Prop41ColorIndex
 90
       18
102
RTVSPost2010Prop41ColorRGB
 90
        0
102
RTVSPost2010PropOp41
 70
     1
102
RTVSPost2010Prop42
 90
       50
102
RTVSPost2010PropOp42
 70
     1
102
RTVSPost2010Prop43
 90
        3
102
RTVSPost2010PropOp43
 70
     1
102
RTVSPost2010Prop44ColorIndex
 90
        5
102
RTVSPost2010Prop44ColorRGB
 90
      255
102
RTVSPost2010PropOp44
 70
     1
102
RTVSPost2010Prop45
280
     0
102
RTVSPost2010PropOp45
 70
     1
102
RTVSPost2010Prop46
 90
       50
102
RTVSPost2010PropOp46
 70
     1
102
RTVSPost2010Prop47
 90
       50
102
RTVSPost2010PropOp47
 70
     1
102
RTVSPost2010Prop48
 90
       50
102
RTVSPost2010PropOp48
 70
     1
102
RTVSPost2010Prop49
280
     0
102
RTVSPost2010PropOp49
 70
     1
102
RTVSPost2010Prop50
 90
       50
102
RTVSPost2010PropOp50
 70
     1
102
RTVSPost2010Prop51ColorIndex
 90
      256
102
RTVSPost2010Prop51ColorRGB
 90
-16777216
102
RTVSPost2010PropOp51
 70
     0
102
RTVSPost2010Prop52
140
1.0
102
RTVSPost2010PropOp52
 70
     0
102
RTVSPost2010Prop53
 90
        2
102
RTVSPost2010PropOp53
 70
     1
102
RTVSPost2010Prop54
  1
strokes_ogs.tif
102
RTVSPost2010PropOp54
 70
     1
102
RTVSPost2010Prop55
280
     0
102
RTVSPost2010PropOp55
 70
     1
102
RTVSPost2010Prop56
140
1.0
102
RTVSPost2010PropOp56
 70
     1
102
RTVSPost2010Prop57
140
1.0
102
RTVSPost2010PropOp57
 70
     1
  0
XRECORD
  5
5EE
102
{ACAD_REACTORS
330
5ED
102
}
330
5ED
100
AcDbXrecord
280
     1
102
RTVSPropertyOp0
 70
     1
102
RTVSPropertyOp1
 70
     1
102
RTVSPropertyOp2
 70
     1
102
RTVSPropertyOp3
 70
     1
102
RTVSPropertyOp4
 70
     1
102
RTVSPropertyOp5
 70
     1
102
RTVSPropertyOp6
 70
     1
102
RTVSPropertyOp7
 70
     1
102
RTVSPropertyOp8
 70
     1
102
RTVSPropertyOp9
 70
     1
102
RTVSPropertyOp10
 70
     1
102
RTVSPropertyOp11
 70
     1
102
RTVSPropertyOp12
 70
     1
102
RTVSPropertyOp13
 70
     1
102
RTVSPropertyOp14
 70
     1
102
RTVSPropertyOp15
 70
     1
102
RTVSPropertyOp16
 70
     1
102
RTVSPropertyOp17
 70
     1
102
RTVSPropertyOp18
 70
     1
102
RTVSPropertyOp19
 70
     1
102
RTVSPropertyOp20
 70
     1
102
RTVSPropertyOp21
 70
     1
102
RTVSPropertyOp22
 70
     1
102
RTVSPropertyOp23
 70
     1
102
RTVSPropertyOp24
 70
     1
102
RTVSPropertyOp25
 70
     1
102
RTVSPropertyOp26
 70
     1
102
RTVSPropertyOp27
 70
     1
102
RTVSPropertyOp28
 70
     1
102
RTVSPropertyOp29
 70
     1
102
RTVSPropertyOp30
 70
     1
102
RTVSPropertyOp31
 70
     1
102
RTVSPropertyOp32
 70
     1
102
RTVSPropertyOp33
 70
     1
102
RTVSPropertyOp34
 70
     1
102
RTVSPropertyOp35
 70
     1
102
RTVSPropertyOp36
 70
     1
102
RTVSPropertyOp37
 70
     1
102
RTVSPropertyOp38
 70
     1
102
RTVSPropertyOp39
 70
     1
102
RTVSPropertyOp40
 70
     1
102
RTVSPropertyOp41
 70
     1
102
RTVSPropertyOp42
 70
     1
102
RTVSPropertyOp43
 70
     1
102
RTVSPropertyOp44
 70
     1
102
RTVSPropertyOp45
 70
     1
102
RTVSPropertyOp46
 70
     1
102
RTVSPropertyOp47
 70
     1
102
RTVSPropertyOp48
 70
     1
102
RTVSPropertyOp49
 70
     1
102
RTVSPropertyOp50
 70
     1
102
RTVSPropertyOp51
 70
     0
102
RTVSPropertyOp52
 70
     0
102
RTVSPropertyOp53
 70
     1
102
RTVSPropertyOp54
 70
     1
102
RTVSPropertyOp55
 70
     1
102
RTVSPropertyOp56
 70
     1
102
RTVSPropertyOp57
 70
     1
102
RTVSPost2010Prop28
280
     0
102
RTVSPost2010PropOp28
 70
     1
102
RTVSPost2010Prop29
280
     1
102
RTVSPost2010PropOp29
 70
     1
102
RTVSPost2010Prop30
280
     1
102
RTVSPost2010PropOp30
 70
     1
102
RTVSPost2010Prop31
280
     0
102
RTVSPost2010PropOp31
 70
     1
102
RTVSPost2010Prop32
280
     0
102
RTVSPost2010PropOp32
 70
     1
102
RTVSPost2010Prop33
280
     0
102
RTVSPost2010PropOp33
 70
     1
102
RTVSPost2010Prop34
280
     0
102
RTVSPost2010PropOp34
 70
     1
102
RTVSPost2010Prop35
280
     0
102
RTVSPost2010PropOp35
 70
     1
102
RTVSPost2010Prop36
280
     0
102
RTVSPost2010PropOp36
 70
     1
102
RTVSPost2010Prop37
 90
       50
102
RTVSPost2010PropOp37
 70
     1
102
RTVSPost2010Prop38
140
0.0
102
RTVSPost2010PropOp38
 70
     1
102
RTVSPost2010Prop39
140
1.0
102
RTVSPost2010PropOp39
 70
     1
102
RTVSPost2010Prop40
 90
        0
102
RTVSPost2010PropOp40
 70
     1
102
RTVSPost2010Prop41ColorIndex
 90
       18
102
RTVSPost2010Prop41ColorRGB
 90
        0
102
RTVSPost2010PropOp41
 70
     1
102
RTVSPost2010Prop42
 90
       50
102
RTVSPost2010PropOp42
 70
     1
102
RTVSPost2010Prop43
 90
        3
102
RTVSPost2010PropOp43
 70
     1
102
RTVSPost2010Prop44ColorIndex
 90
        5
102
RTVSPost2010Prop44ColorRGB
 90
      255
102
RTVSPost2010PropOp44
 70
     1
102
RTVSPost2010Prop45
280
     0
102
RTVSPost2010PropOp45
 70
     1
102
RTVSPost2010Prop46
 90
       50
102
RTVSPost2010PropOp46
 70
     1
102
RTVSPost2010Prop47
 90
       50
102
RTVSPost2010PropOp47
 70
     1
102
RTVSPost2010Prop48
 90
       50
102
RTVSPost2010PropOp48
 70
     1
102
RTVSPost2010Prop49
280
     0
102
RTVSPost2010PropOp49
 70
     1
102
RTVSPost2010Prop50
 90
       50
102
RTVSPost2010PropOp50
 70
     1
102
RTVSPost2010Prop51ColorIndex
 90
      256
102
RTVSPost2010Prop51ColorRGB
 90
-16777216
102
RTVSPost2010PropOp51
 70
     0
102
RTVSPost2010Prop52
140
1.0
102
RTVSPost2010PropOp52
 70
     0
102
RTVSPost2010Prop53
 90
        2
102
RTVSPost2010PropOp53
 70
     1
102
RTVSPost2010Prop54
  1
strokes_ogs.tif
102
RTVSPost2010PropOp54
 70
     1
102
RTVSPost2010Prop55
280
     0
102
RTVSPost2010PropOp55
 70
     1
102
RTVSPost2010Prop56
140
1.0
102
RTVSPost2010PropOp56
 70
     1
102
RTVSPost2010Prop57
140
1.0
102
RTVSPost2010PropOp57
 70
     1
  0
XRECORD
  5
5FE
102
{ACAD_REACTORS
330
5FD
102
}
330
5FD
100
AcDbXrecord
280
     1
102
RTVSPropertyOp0
 70
     0
102
RTVSPropertyOp1
 70
     0
102
RTVSPropertyOp2
 70
     0
102
RTVSPropertyOp3
 70
     0
102
RTVSPropertyOp4
 70
     0
102
RTVSPropertyOp5
 70
     0
102
RTVSPropertyOp6
 70
     0
102
RTVSPropertyOp7
 70
     0
102
RTVSPropertyOp8
 70
     0
102
RTVSPropertyOp9
 70
     0
102
RTVSPropertyOp10
 70
     0
102
RTVSPropertyOp11
 70
     0
102
RTVSPropertyOp12
 70
     0
102
RTVSPropertyOp13
 70
     0
102
RTVSPropertyOp14
 70
     0
102
RTVSPropertyOp15
 70
     0
102
RTVSPropertyOp16
 70
     0
102
RTVSPropertyOp17
 70
     0
102
RTVSPropertyOp18
 70
     0
102
RTVSPropertyOp19
 70
     0
102
RTVSPropertyOp20
 70
     0
102
RTVSPropertyOp21
 70
     0
102
RTVSPropertyOp22
 70
     0
102
RTVSPropertyOp23
 70
     0
102
RTVSPropertyOp24
 70
     0
102
RTVSPropertyOp25
 70
     0
102
RTVSPropertyOp26
 70
     0
102
RTVSPropertyOp27
 70
     0
102
RTVSPropertyOp28
 70
     1
102
RTVSPropertyOp29
 70
     1
102
RTVSPropertyOp30
 70
     1
102
RTVSPropertyOp31
 70
     1
102
RTVSPropertyOp32
 70
     1
102
RTVSPropertyOp33
 70
     1
102
RTVSPropertyOp34
 70
     1
102
RTVSPropertyOp35
 70
     1
102
RTVSPropertyOp36
 70
     1
102
RTVSPropertyOp37
 70
     1
102
RTVSPropertyOp38
 70
     1
102
RTVSPropertyOp39
 70
     1
102
RTVSPropertyOp40
 70
     1
102
RTVSPropertyOp41
 70
     1
102
RTVSPropertyOp42
 70
     1
102
RTVSPropertyOp43
 70
     1
102
RTVSPropertyOp44
 70
     1
102
RTVSPropertyOp45
 70
     1
102
RTVSPropertyOp46
 70
     1
102
RTVSPropertyOp47
 70
     1
102
RTVSPropertyOp48
 70
     1
102
RTVSPropertyOp49
 70
     1
102
RTVSPropertyOp50
 70
     1
102
RTVSPropertyOp51
 70
     0
102
RTVSPropertyOp52
 70
     0
102
RTVSPropertyOp53
 70
     1
102
RTVSPropertyOp54
 70
     1
102
RTVSPropertyOp55
 70
     1
102
RTVSPropertyOp56
 70
     1
102
RTVSPropertyOp57
 70
     1
102
RTVSPost2010Prop28
280
     0
102
RTVSPost2010PropOp28
 70
     1
102
RTVSPost2010Prop29
280
     1
102
RTVSPost2010PropOp29
 70
     1
102
RTVSPost2010Prop30
280
     1
102
RTVSPost2010PropOp30
 70
     1
102
RTVSPost2010Prop31
280
     0
102
RTVSPost2010PropOp31
 70
     1
102
RTVSPost2010Prop32
280
     0
102
RTVSPost2010PropOp32
 70
     1
102
RTVSPost2010Prop33
280
     0
102
RTVSPost2010PropOp33
 70
     1
102
RTVSPost2010Prop34
280
     0
102
RTVSPost2010PropOp34
 70
     1
102
RTVSPost2010Prop35
280
     0
102
RTVSPost2010PropOp35
 70
     1
102
RTVSPost2010Prop36
280
     0
102
RTVSPost2010PropOp36
 70
     1
102
RTVSPost2010Prop37
 90
       50
102
RTVSPost2010PropOp37
 70
     1
102
RTVSPost2010Prop38
140
0.0
102
RTVSPost2010PropOp38
 70
     1
102
RTVSPost2010Prop39
140
1.0
102
RTVSPost2010PropOp39
 70
     1
102
RTVSPost2010Prop40
 90
        0
102
RTVSPost2010PropOp40
 70
     1
102
RTVSPost2010Prop41ColorIndex
 90
       18
102
RTVSPost2010Prop41ColorRGB
 90
        0
102
RTVSPost2010PropOp41
 70
     1
102
RTVSPost2010Prop42
 90
       50
102
RTVSPost2010PropOp42
 70
     1
102
RTVSPost2010Prop43
 90
        3
102
RTVSPost2010PropOp43
 70
     1
102
RTVSPost2010Prop44ColorIndex
 90
        5
102
RTVSPost2010Prop44ColorRGB
 90
      255
102
RTVSPost2010PropOp44
 70
     1
102
RTVSPost2010Prop45
280
     0
102
RTVSPost2010PropOp45
 70
     1
102
RTVSPost2010Prop46
 90
       50
102
RTVSPost2010PropOp46
 70
     1
102
RTVSPost2010Prop47
 90
       50
102
RTVSPost2010PropOp47
 70
     1
102
RTVSPost2010Prop48
 90
       50
102
RTVSPost2010PropOp48
 70
     1
102
RTVSPost2010Prop49
280
     0
102
RTVSPost2010PropOp49
 70
     1
102
RTVSPost2010Prop50
 90
       50
102
RTVSPost2010PropOp50
 70
     1
102
RTVSPost2010Prop51ColorIndex
 90
      256
102
RTVSPost2010Prop51ColorRGB
 90
-16777216
102
RTVSPost2010PropOp51
 70
     0
102
RTVSPost2010Prop52
140
1.0
102
RTVSPost2010PropOp52
 70
     0
102
RTVSPost2010Prop53
 90
        2
102
RTVSPost2010PropOp53
 70
     1
102
RTVSPost2010Prop54
  1
strokes_ogs.tif
102
RTVSPost2010PropOp54
 70
     1
102
RTVSPost2010Prop55
280
     0
102
RTVSPost2010PropOp55
 70
     1
102
RTVSPost2010Prop56
140
1.0
102
RTVSPost2010PropOp56
 70
     1
102
RTVSPost2010Prop57
140
1.0
102
RTVSPost2010PropOp57
 70
     1
  0
XRECORD
  5
5F6
102
{ACAD_REACTORS
330
5F5
102
}
330
5F5
100
AcDbXrecord
280
     1
102
RTVSPropertyOp0
 70
     1
102
RTVSPropertyOp1
 70
     1
102
RTVSPropertyOp2
 70
     1
102
RTVSPropertyOp3
 70
     1
102
RTVSPropertyOp4
 70
     1
102
RTVSPropertyOp5
 70
     1
102
RTVSPropertyOp6
 70
     1
102
RTVSPropertyOp7
 70
     1
102
RTVSPropertyOp8
 70
     1
102
RTVSPropertyOp9
 70
     1
102
RTVSPropertyOp10
 70
     1
102
RTVSPropertyOp11
 70
     1
102
RTVSPropertyOp12
 70
     1
102
RTVSPropertyOp13
 70
     1
102
RTVSPropertyOp14
 70
     1
102
RTVSPropertyOp15
 70
     1
102
RTVSPropertyOp16
 70
     1
102
RTVSPropertyOp17
 70
     1
102
RTVSPropertyOp18
 70
     1
102
RTVSPropertyOp19
 70
     1
102
RTVSPropertyOp20
 70
     1
102
RTVSPropertyOp21
 70
     1
102
RTVSPropertyOp22
 70
     1
102
RTVSPropertyOp23
 70
     1
102
RTVSPropertyOp24
 70
     1
102
RTVSPropertyOp25
 70
     1
102
RTVSPropertyOp26
 70
     1
102
RTVSPropertyOp27
 70
     1
102
RTVSPropertyOp28
 70
     1
102
RTVSPropertyOp29
 70
     1
102
RTVSPropertyOp30
 70
     1
102
RTVSPropertyOp31
 70
     1
102
RTVSPropertyOp32
 70
     1
102
RTVSPropertyOp33
 70
     1
102
RTVSPropertyOp34
 70
     1
102
RTVSPropertyOp35
 70
     1
102
RTVSPropertyOp36
 70
     1
102
RTVSPropertyOp37
 70
     1
102
RTVSPropertyOp38
 70
     1
102
RTVSPropertyOp39
 70
     1
102
RTVSPropertyOp40
 70
     1
102
RTVSPropertyOp41
 70
     1
102
RTVSPropertyOp42
 70
     1
102
RTVSPropertyOp43
 70
     1
102
RTVSPropertyOp44
 70
     1
102
RTVSPropertyOp45
 70
     1
102
RTVSPropertyOp46
 70
     1
102
RTVSPropertyOp47
 70
     1
102
RTVSPropertyOp48
 70
     1
102
RTVSPropertyOp49
 70
     1
102
RTVSPropertyOp50
 70
     1
102
RTVSPropertyOp51
 70
     0
102
RTVSPropertyOp52
 70
     0
102
RTVSPropertyOp53
 70
     1
102
RTVSPropertyOp54
 70
     1
102
RTVSPropertyOp55
 70
     1
102
RTVSPropertyOp56
 70
     1
102
RTVSPropertyOp57
 70
     1
102
RTVSPost2010Prop28
280
     0
102
RTVSPost2010PropOp28
 70
     1
102
RTVSPost2010Prop29
280
     1
102
RTVSPost2010PropOp29
 70
     1
102
RTVSPost2010Prop30
280
     1
102
RTVSPost2010PropOp30
 70
     1
102
RTVSPost2010Prop31
280
     0
102
RTVSPost2010PropOp31
 70
     1
102
RTVSPost2010Prop32
280
     0
102
RTVSPost2010PropOp32
 70
     1
102
RTVSPost2010Prop33
280
     0
102
RTVSPost2010PropOp33
 70
     1
102
RTVSPost2010Prop34
280
     0
102
RTVSPost2010PropOp34
 70
     1
102
RTVSPost2010Prop35
280
     0
102
RTVSPost2010PropOp35
 70
     1
102
RTVSPost2010Prop36
280
     0
102
RTVSPost2010PropOp36
 70
     1
102
RTVSPost2010Prop37
 90
       50
102
RTVSPost2010PropOp37
 70
     1
102
RTVSPost2010Prop38
140
0.0
102
RTVSPost2010PropOp38
 70
     1
102
RTVSPost2010Prop39
140
1.0
102
RTVSPost2010PropOp39
 70
     1
102
RTVSPost2010Prop40
 90
        0
102
RTVSPost2010PropOp40
 70
     1
102
RTVSPost2010Prop41ColorIndex
 90
       18
102
RTVSPost2010Prop41ColorRGB
 90
        0
102
RTVSPost2010PropOp41
 70
     1
102
RTVSPost2010Prop42
 90
       50
102
RTVSPost2010PropOp42
 70
     1
102
RTVSPost2010Prop43
 90
        3
102
RTVSPost2010PropOp43
 70
     1
102
RTVSPost2010Prop44ColorIndex
 90
        5
102
RTVSPost2010Prop44ColorRGB
 90
      255
102
RTVSPost2010PropOp44
 70
     1
102
RTVSPost2010Prop45
280
     0
102
RTVSPost2010PropOp45
 70
     1
102
RTVSPost2010Prop46
 90
       50
102
RTVSPost2010PropOp46
 70
     1
102
RTVSPost2010Prop47
 90
       50
102
RTVSPost2010PropOp47
 70
     1
102
RTVSPost2010Prop48
 90
       50
102
RTVSPost2010PropOp48
 70
     1
102
RTVSPost2010Prop49
280
     0
102
RTVSPost2010PropOp49
 70
     1
102
RTVSPost2010Prop50
 90
       50
102
RTVSPost2010PropOp50
 70
     1
102
RTVSPost2010Prop51ColorIndex
 90
      256
102
RTVSPost2010Prop51ColorRGB
 90
-16777216
102
RTVSPost2010PropOp51
 70
     0
102
RTVSPost2010Prop52
140
1.0
102
RTVSPost2010PropOp52
 70
     0
102
RTVSPost2010Prop53
 90
        2
102
RTVSPost2010PropOp53
 70
     1
102
RTVSPost2010Prop54
  1
strokes_ogs.tif
102
RTVSPost2010PropOp54
 70
     1
102
RTVSPost2010Prop55
280
     0
102
RTVSPost2010PropOp55
 70
     1
102
RTVSPost2010Prop56
140
1.0
102
RTVSPost2010PropOp56
 70
     1
102
RTVSPost2010Prop57
140
1.0
102
RTVSPost2010PropOp57
 70
     1
  0
XRECORD
  5
5DE
102
{ACAD_REACTORS
330
5DD
102
}
330
5DD
100
AcDbXrecord
280
     1
102
RTVSPropertyOp0
 70
     1
102
RTVSPropertyOp1
 70
     1
102
RTVSPropertyOp2
 70
     1
102
RTVSPropertyOp3
 70
     1
102
RTVSPropertyOp4
 70
     1
102
RTVSPropertyOp5
 70
     1
102
RTVSPropertyOp6
 70
     1
102
RTVSPropertyOp7
 70
     1
102
RTVSPropertyOp8
 70
     1
102
RTVSPropertyOp9
 70
     1
102
RTVSPropertyOp10
 70
     1
102
RTVSPropertyOp11
 70
     1
102
RTVSPropertyOp12
 70
     1
102
RTVSPropertyOp13
 70
     1
102
RTVSPropertyOp14
 70
     1
102
RTVSPropertyOp15
 70
     1
102
RTVSPropertyOp16
 70
     1
102
RTVSPropertyOp17
 70
     1
102
RTVSPropertyOp18
 70
     1
102
RTVSPropertyOp19
 70
     1
102
RTVSPropertyOp20
 70
     1
102
RTVSPropertyOp21
 70
     1
102
RTVSPropertyOp22
 70
     1
102
RTVSPropertyOp23
 70
     1
102
RTVSPropertyOp24
 70
     1
102
RTVSPropertyOp25
 70
     1
102
RTVSPropertyOp26
 70
     1
102
RTVSPropertyOp27
 70
     1
102
RTVSPropertyOp28
 70
     1
102
RTVSPropertyOp29
 70
     1
102
RTVSPropertyOp30
 70
     1
102
RTVSPropertyOp31
 70
     1
102
RTVSPropertyOp32
 70
     1
102
RTVSPropertyOp33
 70
     1
102
RTVSPropertyOp34
 70
     1
102
RTVSPropertyOp35
 70
     1
102
RTVSPropertyOp36
 70
     1
102
RTVSPropertyOp37
 70
     1
102
RTVSPropertyOp38
 70
     1
102
RTVSPropertyOp39
 70
     1
102
RTVSPropertyOp40
 70
     1
102
RTVSPropertyOp41
 70
     1
102
RTVSPropertyOp42
 70
     1
102
RTVSPropertyOp43
 70
     1
102
RTVSPropertyOp44
 70
     1
102
RTVSPropertyOp45
 70
     1
102
RTVSPropertyOp46
 70
     1
102
RTVSPropertyOp47
 70
     1
102
RTVSPropertyOp48
 70
     1
102
RTVSPropertyOp49
 70
     1
102
RTVSPropertyOp50
 70
     1
102
RTVSPropertyOp51
 70
     0
102
RTVSPropertyOp52
 70
     0
102
RTVSPropertyOp53
 70
     1
102
RTVSPropertyOp54
 70
     1
102
RTVSPropertyOp55
 70
     1
102
RTVSPropertyOp56
 70
     1
102
RTVSPropertyOp57
 70
     1
102
RTVSPost2010Prop28
280
     0
102
RTVSPost2010PropOp28
 70
     1
102
RTVSPost2010Prop29
280
     1
102
RTVSPost2010PropOp29
 70
     1
102
RTVSPost2010Prop30
280
     1
102
RTVSPost2010PropOp30
 70
     1
102
RTVSPost2010Prop31
280
     0
102
RTVSPost2010PropOp31
 70
     1
102
RTVSPost2010Prop32
280
     0
102
RTVSPost2010PropOp32
 70
     1
102
RTVSPost2010Prop33
280
     0
102
RTVSPost2010PropOp33
 70
     1
102
RTVSPost2010Prop34
280
     0
102
RTVSPost2010PropOp34
 70
     1
102
RTVSPost2010Prop35
280
     0
102
RTVSPost2010PropOp35
 70
     1
102
RTVSPost2010Prop36
280
     0
102
RTVSPost2010PropOp36
 70
     1
102
RTVSPost2010Prop37
 90
       50
102
RTVSPost2010PropOp37
 70
     1
102
RTVSPost2010Prop38
140
0.0
102
RTVSPost2010PropOp38
 70
     1
102
RTVSPost2010Prop39
140
1.0
102
RTVSPost2010PropOp39
 70
     1
102
RTVSPost2010Prop40
 90
        0
102
RTVSPost2010PropOp40
 70
     1
102
RTVSPost2010Prop41ColorIndex
 90
       18
102
RTVSPost2010Prop41ColorRGB
 90
        0
102
RTVSPost2010PropOp41
 70
     1
102
RTVSPost2010Prop42
 90
       50
102
RTVSPost2010PropOp42
 70
     1
102
RTVSPost2010Prop43
 90
        3
102
RTVSPost2010PropOp43
 70
     1
102
RTVSPost2010Prop44ColorIndex
 90
        5
102
RTVSPost2010Prop44ColorRGB
 90
      255
102
RTVSPost2010PropOp44
 70
     1
102
RTVSPost2010Prop45
280
     0
102
RTVSPost2010PropOp45
 70
     1
102
RTVSPost2010Prop46
 90
       50
102
RTVSPost2010PropOp46
 70
     1
102
RTVSPost2010Prop47
 90
       50
102
RTVSPost2010PropOp47
 70
     1
102
RTVSPost2010Prop48
 90
       50
102
RTVSPost2010PropOp48
 70
     1
102
RTVSPost2010Prop49
280
     0
102
RTVSPost2010PropOp49
 70
     1
102
RTVSPost2010Prop50
 90
       50
102
RTVSPost2010PropOp50
 70
     1
102
RTVSPost2010Prop51ColorIndex
 90
      256
102
RTVSPost2010Prop51ColorRGB
 90
-16777216
102
RTVSPost2010PropOp51
 70
     0
102
RTVSPost2010Prop52
140
1.0
102
RTVSPost2010PropOp52
 70
     0
102
RTVSPost2010Prop53
 90
        2
102
RTVSPost2010PropOp53
 70
     1
102
RTVSPost2010Prop54
  1
strokes_ogs.tif
102
RTVSPost2010PropOp54
 70
     1
102
RTVSPost2010Prop55
280
     0
102
RTVSPost2010PropOp55
 70
     1
102
RTVSPost2010Prop56
140
1.0
102
RTVSPost2010PropOp56
 70
     1
102
RTVSPost2010Prop57
140
1.0
102
RTVSPost2010PropOp57
 70
     1
  0
XRECORD
  5
5E0
102
{ACAD_REACTORS
330
5DF
102
}
330
5DF
100
AcDbXrecord
280
     1
102
RTVSPropertyOp0
 70
     1
102
RTVSPropertyOp1
 70
     1
102
RTVSPropertyOp2
 70
     1
102
RTVSPropertyOp3
 70
     1
102
RTVSPropertyOp4
 70
     1
102
RTVSPropertyOp5
 70
     1
102
RTVSPropertyOp6
 70
     1
102
RTVSPropertyOp7
 70
     1
102
RTVSPropertyOp8
 70
     1
102
RTVSPropertyOp9
 70
     1
102
RTVSPropertyOp10
 70
     1
102
RTVSPropertyOp11
 70
     1
102
RTVSPropertyOp12
 70
     1
102
RTVSPropertyOp13
 70
     1
102
RTVSPropertyOp14
 70
     1
102
RTVSPropertyOp15
 70
     1
102
RTVSPropertyOp16
 70
     1
102
RTVSPropertyOp17
 70
     1
102
RTVSPropertyOp18
 70
     1
102
RTVSPropertyOp19
 70
     1
102
RTVSPropertyOp20
 70
     1
102
RTVSPropertyOp21
 70
     1
102
RTVSPropertyOp22
 70
     1
102
RTVSPropertyOp23
 70
     1
102
RTVSPropertyOp24
 70
     1
102
RTVSPropertyOp25
 70
     1
102
RTVSPropertyOp26
 70
     1
102
RTVSPropertyOp27
 70
     1
102
RTVSPropertyOp28
 70
     1
102
RTVSPropertyOp29
 70
     1
102
RTVSPropertyOp30
 70
     1
102
RTVSPropertyOp31
 70
     1
102
RTVSPropertyOp32
 70
     1
102
RTVSPropertyOp33
 70
     1
102
RTVSPropertyOp34
 70
     1
102
RTVSPropertyOp35
 70
     1
102
RTVSPropertyOp36
 70
     1
102
RTVSPropertyOp37
 70
     1
102
RTVSPropertyOp38
 70
     1
102
RTVSPropertyOp39
 70
     1
102
RTVSPropertyOp40
 70
     1
102
RTVSPropertyOp41
 70
     1
102
RTVSPropertyOp42
 70
     1
102
RTVSPropertyOp43
 70
     1
102
RTVSPropertyOp44
 70
     1
102
RTVSPropertyOp45
 70
     1
102
RTVSPropertyOp46
 70
     1
102
RTVSPropertyOp47
 70
     1
102
RTVSPropertyOp48
 70
     1
102
RTVSPropertyOp49
 70
     1
102
RTVSPropertyOp50
 70
     1
102
RTVSPropertyOp51
 70
     0
102
RTVSPropertyOp52
 70
     0
102
RTVSPropertyOp53
 70
     1
102
RTVSPropertyOp54
 70
     1
102
RTVSPropertyOp55
 70
     1
102
RTVSPropertyOp56
 70
     1
102
RTVSPropertyOp57
 70
     1
102
RTVSPost2010Prop28
280
     0
102
RTVSPost2010PropOp28
 70
     1
102
RTVSPost2010Prop29
280
     1
102
RTVSPost2010PropOp29
 70
     1
102
RTVSPost2010Prop30
280
     1
102
RTVSPost2010PropOp30
 70
     1
102
RTVSPost2010Prop31
280
     0
102
RTVSPost2010PropOp31
 70
     1
102
RTVSPost2010Prop32
280
     0
102
RTVSPost2010PropOp32
 70
     1
102
RTVSPost2010Prop33
280
     0
102
RTVSPost2010PropOp33
 70
     1
102
RTVSPost2010Prop34
280
     0
102
RTVSPost2010PropOp34
 70
     1
102
RTVSPost2010Prop35
280
     0
102
RTVSPost2010PropOp35
 70
     1
102
RTVSPost2010Prop36
280
     0
102
RTVSPost2010PropOp36
 70
     1
102
RTVSPost2010Prop37
 90
       50
102
RTVSPost2010PropOp37
 70
     1
102
RTVSPost2010Prop38
140
0.0
102
RTVSPost2010PropOp38
 70
     1
102
RTVSPost2010Prop39
140
1.0
102
RTVSPost2010PropOp39
 70
     1
102
RTVSPost2010Prop40
 90
        0
102
RTVSPost2010PropOp40
 70
     1
102
RTVSPost2010Prop41ColorIndex
 90
       18
102
RTVSPost2010Prop41ColorRGB
 90
        0
102
RTVSPost2010PropOp41
 70
     1
102
RTVSPost2010Prop42
 90
       50
102
RTVSPost2010PropOp42
 70
     1
102
RTVSPost2010Prop43
 90
        3
102
RTVSPost2010PropOp43
 70
     1
102
RTVSPost2010Prop44ColorIndex
 90
        5
102
RTVSPost2010Prop44ColorRGB
 90
      255
102
RTVSPost2010PropOp44
 70
     1
102
RTVSPost2010Prop45
280
     0
102
RTVSPost2010PropOp45
 70
     1
102
RTVSPost2010Prop46
 90
       50
102
RTVSPost2010PropOp46
 70
     1
102
RTVSPost2010Prop47
 90
       50
102
RTVSPost2010PropOp47
 70
     1
102
RTVSPost2010Prop48
 90
       50
102
RTVSPost2010PropOp48
 70
     1
102
RTVSPost2010Prop49
280
     0
102
RTVSPost2010PropOp49
 70
     1
102
RTVSPost2010Prop50
 90
       50
102
RTVSPost2010PropOp50
 70
     1
102
RTVSPost2010Prop51ColorIndex
 90
      256
102
RTVSPost2010Prop51ColorRGB
 90
-16777216
102
RTVSPost2010PropOp51
 70
     0
102
RTVSPost2010Prop52
140
1.0
102
RTVSPost2010PropOp52
 70
     0
102
RTVSPost2010Prop53
 90
        2
102
RTVSPost2010PropOp53
 70
     1
102
RTVSPost2010Prop54
  1
strokes_ogs.tif
102
RTVSPost2010PropOp54
 70
     1
102
RTVSPost2010Prop55
280
     0
102
RTVSPost2010PropOp55
 70
     1
102
RTVSPost2010Prop56
140
1.0
102
RTVSPost2010PropOp56
 70
     1
102
RTVSPost2010Prop57
140
1.0
102
RTVSPost2010PropOp57
 70
     1
  0
XRECORD
  5
5E2
102
{ACAD_REACTORS
330
5E1
102
}
330
5E1
100
AcDbXrecord
280
     1
102
RTVSPropertyOp0
 70
     1
102
RTVSPropertyOp1
 70
     1
102
RTVSPropertyOp2
 70
     1
102
RTVSPropertyOp3
 70
     1
102
RTVSPropertyOp4
 70
     1
102
RTVSPropertyOp5
 70
     1
102
RTVSPropertyOp6
 70
     1
102
RTVSPropertyOp7
 70
     1
102
RTVSPropertyOp8
 70
     1
102
RTVSPropertyOp9
 70
     1
102
RTVSPropertyOp10
 70
     1
102
RTVSPropertyOp11
 70
     1
102
RTVSPropertyOp12
 70
     1
102
RTVSPropertyOp13
 70
     1
102
RTVSPropertyOp14
 70
     1
102
RTVSPropertyOp15
 70
     1
102
RTVSPropertyOp16
 70
     1
102
RTVSPropertyOp17
 70
     1
102
RTVSPropertyOp18
 70
     1
102
RTVSPropertyOp19
 70
     1
102
RTVSPropertyOp20
 70
     1
102
RTVSPropertyOp21
 70
     1
102
RTVSPropertyOp22
 70
     1
102
RTVSPropertyOp23
 70
     1
102
RTVSPropertyOp24
 70
     1
102
RTVSPropertyOp25
 70
     1
102
RTVSPropertyOp26
 70
     1
102
RTVSPropertyOp27
 70
     1
102
RTVSPropertyOp28
 70
     1
102
RTVSPropertyOp29
 70
     1
102
RTVSPropertyOp30
 70
     1
102
RTVSPropertyOp31
 70
     1
102
RTVSPropertyOp32
 70
     1
102
RTVSPropertyOp33
 70
     1
102
RTVSPropertyOp34
 70
     1
102
RTVSPropertyOp35
 70
     1
102
RTVSPropertyOp36
 70
     1
102
RTVSPropertyOp37
 70
     1
102
RTVSPropertyOp38
 70
     1
102
RTVSPropertyOp39
 70
     1
102
RTVSPropertyOp40
 70
     1
102
RTVSPropertyOp41
 70
     1
102
RTVSPropertyOp42
 70
     1
102
RTVSPropertyOp43
 70
     1
102
RTVSPropertyOp44
 70
     1
102
RTVSPropertyOp45
 70
     1
102
RTVSPropertyOp46
 70
     1
102
RTVSPropertyOp47
 70
     1
102
RTVSPropertyOp48
 70
     1
102
RTVSPropertyOp49
 70
     1
102
RTVSPropertyOp50
 70
     1
102
RTVSPropertyOp51
 70
     0
102
RTVSPropertyOp52
 70
     0
102
RTVSPropertyOp53
 70
     1
102
RTVSPropertyOp54
 70
     1
102
RTVSPropertyOp55
 70
     1
102
RTVSPropertyOp56
 70
     1
102
RTVSPropertyOp57
 70
     1
102
RTVSPost2010Prop28
280
     0
102
RTVSPost2010PropOp28
 70
     1
102
RTVSPost2010Prop29
280
     1
102
RTVSPost2010PropOp29
 70
     1
102
RTVSPost2010Prop30
280
     1
102
RTVSPost2010PropOp30
 70
     1
102
RTVSPost2010Prop31
280
     0
102
RTVSPost2010PropOp31
 70
     1
102
RTVSPost2010Prop32
280
     0
102
RTVSPost2010PropOp32
 70
     1
102
RTVSPost2010Prop33
280
     0
102
RTVSPost2010PropOp33
 70
     1
102
RTVSPost2010Prop34
280
     0
102
RTVSPost2010PropOp34
 70
     1
102
RTVSPost2010Prop35
280
     0
102
RTVSPost2010PropOp35
 70
     1
102
RTVSPost2010Prop36
280
     0
102
RTVSPost2010PropOp36
 70
     1
102
RTVSPost2010Prop37
 90
       50
102
RTVSPost2010PropOp37
 70
     1
102
RTVSPost2010Prop38
140
0.0
102
RTVSPost2010PropOp38
 70
     1
102
RTVSPost2010Prop39
140
1.0
102
RTVSPost2010PropOp39
 70
     1
102
RTVSPost2010Prop40
 90
        0
102
RTVSPost2010PropOp40
 70
     1
102
RTVSPost2010Prop41ColorIndex
 90
       18
102
RTVSPost2010Prop41ColorRGB
 90
        0
102
RTVSPost2010PropOp41
 70
     1
102
RTVSPost2010Prop42
 90
       50
102
RTVSPost2010PropOp42
 70
     1
102
RTVSPost2010Prop43
 90
        3
102
RTVSPost2010PropOp43
 70
     1
102
RTVSPost2010Prop44ColorIndex
 90
        5
102
RTVSPost2010Prop44ColorRGB
 90
      255
102
RTVSPost2010PropOp44
 70
     1
102
RTVSPost2010Prop45
280
     0
102
RTVSPost2010PropOp45
 70
     1
102
RTVSPost2010Prop46
 90
       50
102
RTVSPost2010PropOp46
 70
     1
102
RTVSPost2010Prop47
 90
       50
102
RTVSPost2010PropOp47
 70
     1
102
RTVSPost2010Prop48
 90
       50
102
RTVSPost2010PropOp48
 70
     1
102
RTVSPost2010Prop49
280
     0
102
RTVSPost2010PropOp49
 70
     1
102
RTVSPost2010Prop50
 90
       50
102
RTVSPost2010PropOp50
 70
     1
102
RTVSPost2010Prop51ColorIndex
 90
      256
102
RTVSPost2010Prop51ColorRGB
 90
-16777216
102
RTVSPost2010PropOp51
 70
     0
102
RTVSPost2010Prop52
140
1.0
102
RTVSPost2010PropOp52
 70
     0
102
RTVSPost2010Prop53
 90
        2
102
RTVSPost2010PropOp53
 70
     1
102
RTVSPost2010Prop54
  1
strokes_ogs.tif
102
RTVSPost2010PropOp54
 70
     1
102
RTVSPost2010Prop55
280
     0
102
RTVSPost2010PropOp55
 70
     1
102
RTVSPost2010Prop56
140
1.0
102
RTVSPost2010PropOp56
 70
     1
102
RTVSPost2010Prop57
140
1.0
102
RTVSPost2010PropOp57
 70
     1
  0
XRECORD
  5
5E4
102
{ACAD_REACTORS
330
5E3
102
}
330
5E3
100
AcDbXrecord
280
     1
102
RTVSPropertyOp0
 70
     1
102
RTVSPropertyOp1
 70
     1
102
RTVSPropertyOp2
 70
     1
102
RTVSPropertyOp3
 70
     1
102
RTVSPropertyOp4
 70
     1
102
RTVSPropertyOp5
 70
     1
102
RTVSPropertyOp6
 70
     1
102
RTVSPropertyOp7
 70
     1
102
RTVSPropertyOp8
 70
     1
102
RTVSPropertyOp9
 70
     1
102
RTVSPropertyOp10
 70
     1
102
RTVSPropertyOp11
 70
     1
102
RTVSPropertyOp12
 70
     1
102
RTVSPropertyOp13
 70
     1
102
RTVSPropertyOp14
 70
     1
102
RTVSPropertyOp15
 70
     1
102
RTVSPropertyOp16
 70
     1
102
RTVSPropertyOp17
 70
     1
102
RTVSPropertyOp18
 70
     1
102
RTVSPropertyOp19
 70
     1
102
RTVSPropertyOp20
 70
     1
102
RTVSPropertyOp21
 70
     1
102
RTVSPropertyOp22
 70
     1
102
RTVSPropertyOp23
 70
     1
102
RTVSPropertyOp24
 70
     1
102
RTVSPropertyOp25
 70
     1
102
RTVSPropertyOp26
 70
     1
102
RTVSPropertyOp27
 70
     1
102
RTVSPropertyOp28
 70
     1
102
RTVSPropertyOp29
 70
     1
102
RTVSPropertyOp30
 70
     1
102
RTVSPropertyOp31
 70
     1
102
RTVSPropertyOp32
 70
     1
102
RTVSPropertyOp33
 70
     1
102
RTVSPropertyOp34
 70
     1
102
RTVSPropertyOp35
 70
     1
102
RTVSPropertyOp36
 70
     1
102
RTVSPropertyOp37
 70
     1
102
RTVSPropertyOp38
 70
     1
102
RTVSPropertyOp39
 70
     1
102
RTVSPropertyOp40
 70
     1
102
RTVSPropertyOp41
 70
     1
102
RTVSPropertyOp42
 70
     1
102
RTVSPropertyOp43
 70
     1
102
RTVSPropertyOp44
 70
     1
102
RTVSPropertyOp45
 70
     1
102
RTVSPropertyOp46
 70
     1
102
RTVSPropertyOp47
 70
     1
102
RTVSPropertyOp48
 70
     1
102
RTVSPropertyOp49
 70
     1
102
RTVSPropertyOp50
 70
     1
102
RTVSPropertyOp51
 70
     0
102
RTVSPropertyOp52
 70
     0
102
RTVSPropertyOp53
 70
     1
102
RTVSPropertyOp54
 70
     1
102
RTVSPropertyOp55
 70
     1
102
RTVSPropertyOp56
 70
     1
102
RTVSPropertyOp57
 70
     1
102
RTVSPost2010Prop28
280
     0
102
RTVSPost2010PropOp28
 70
     1
102
RTVSPost2010Prop29
280
     1
102
RTVSPost2010PropOp29
 70
     1
102
RTVSPost2010Prop30
280
     1
102
RTVSPost2010PropOp30
 70
     1
102
RTVSPost2010Prop31
280
     0
102
RTVSPost2010PropOp31
 70
     1
102
RTVSPost2010Prop32
280
     0
102
RTVSPost2010PropOp32
 70
     1
102
RTVSPost2010Prop33
280
     0
102
RTVSPost2010PropOp33
 70
     1
102
RTVSPost2010Prop34
280
     0
102
RTVSPost2010PropOp34
 70
     1
102
RTVSPost2010Prop35
280
     0
102
RTVSPost2010PropOp35
 70
     1
102
RTVSPost2010Prop36
280
     0
102
RTVSPost2010PropOp36
 70
     1
102
RTVSPost2010Prop37
 90
       50
102
RTVSPost2010PropOp37
 70
     1
102
RTVSPost2010Prop38
140
0.0
102
RTVSPost2010PropOp38
 70
     1
102
RTVSPost2010Prop39
140
1.0
102
RTVSPost2010PropOp39
 70
     1
102
RTVSPost2010Prop40
 90
        0
102
RTVSPost2010PropOp40
 70
     1
102
RTVSPost2010Prop41ColorIndex
 90
       18
102
RTVSPost2010Prop41ColorRGB
 90
        0
102
RTVSPost2010PropOp41
 70
     1
102
RTVSPost2010Prop42
 90
       50
102
RTVSPost2010PropOp42
 70
     1
102
RTVSPost2010Prop43
 90
        3
102
RTVSPost2010PropOp43
 70
     1
102
RTVSPost2010Prop44ColorIndex
 90
        5
102
RTVSPost2010Prop44ColorRGB
 90
      255
102
RTVSPost2010PropOp44
 70
     1
102
RTVSPost2010Prop45
280
     0
102
RTVSPost2010PropOp45
 70
     1
102
RTVSPost2010Prop46
 90
       50
102
RTVSPost2010PropOp46
 70
     1
102
RTVSPost2010Prop47
 90
       50
102
RTVSPost2010PropOp47
 70
     1
102
RTVSPost2010Prop48
 90
       50
102
RTVSPost2010PropOp48
 70
     1
102
RTVSPost2010Prop49
280
     0
102
RTVSPost2010PropOp49
 70
     1
102
RTVSPost2010Prop50
 90
       50
102
RTVSPost2010PropOp50
 70
     1
102
RTVSPost2010Prop51ColorIndex
 90
      256
102
RTVSPost2010Prop51ColorRGB
 90
-16777216
102
RTVSPost2010PropOp51
 70
     0
102
RTVSPost2010Prop52
140
1.0
102
RTVSPost2010PropOp52
 70
     0
102
RTVSPost2010Prop53
 90
        2
102
RTVSPost2010PropOp53
 70
     1
102
RTVSPost2010Prop54
  1
strokes_ogs.tif
102
RTVSPost2010PropOp54
 70
     1
102
RTVSPost2010Prop55
280
     0
102
RTVSPost2010PropOp55
 70
     1
102
RTVSPost2010Prop56
140
1.0
102
RTVSPost2010PropOp56
 70
     1
102
RTVSPost2010Prop57
140
1.0
102
RTVSPost2010PropOp57
 70
     1
  0
XRECORD
  5
5E8
102
{ACAD_REACTORS
330
5E7
102
}
330
5E7
100
AcDbXrecord
280
     1
102
RTVSPropertyOp0
 70
     1
102
RTVSPropertyOp1
 70
     1
102
RTVSPropertyOp2
 70
     1
102
RTVSPropertyOp3
 70
     1
102
RTVSPropertyOp4
 70
     1
102
RTVSPropertyOp5
 70
     1
102
RTVSPropertyOp6
 70
     1
102
RTVSPropertyOp7
 70
     1
102
RTVSPropertyOp8
 70
     1
102
RTVSPropertyOp9
 70
     1
102
RTVSPropertyOp10
 70
     1
102
RTVSPropertyOp11
 70
     1
102
RTVSPropertyOp12
 70
     1
102
RTVSPropertyOp13
 70
     1
102
RTVSPropertyOp14
 70
     1
102
RTVSPropertyOp15
 70
     1
102
RTVSPropertyOp16
 70
     1
102
RTVSPropertyOp17
 70
     1
102
RTVSPropertyOp18
 70
     1
102
RTVSPropertyOp19
 70
     1
102
RTVSPropertyOp20
 70
     1
102
RTVSPropertyOp21
 70
     1
102
RTVSPropertyOp22
 70
     1
102
RTVSPropertyOp23
 70
     1
102
RTVSPropertyOp24
 70
     1
102
RTVSPropertyOp25
 70
     1
102
RTVSPropertyOp26
 70
     1
102
RTVSPropertyOp27
 70
     1
102
RTVSPropertyOp28
 70
     1
102
RTVSPropertyOp29
 70
     1
102
RTVSPropertyOp30
 70
     1
102
RTVSPropertyOp31
 70
     1
102
RTVSPropertyOp32
 70
     1
102
RTVSPropertyOp33
 70
     1
102
RTVSPropertyOp34
 70
     1
102
RTVSPropertyOp35
 70
     1
102
RTVSPropertyOp36
 70
     1
102
RTVSPropertyOp37
 70
     1
102
RTVSPropertyOp38
 70
     1
102
RTVSPropertyOp39
 70
     1
102
RTVSPropertyOp40
 70
     1
102
RTVSPropertyOp41
 70
     1
102
RTVSPropertyOp42
 70
     1
102
RTVSPropertyOp43
 70
     1
102
RTVSPropertyOp44
 70
     1
102
RTVSPropertyOp45
 70
     1
102
RTVSPropertyOp46
 70
     1
102
RTVSPropertyOp47
 70
     1
102
RTVSPropertyOp48
 70
     1
102
RTVSPropertyOp49
 70
     1
102
RTVSPropertyOp50
 70
     1
102
RTVSPropertyOp51
 70
     0
102
RTVSPropertyOp52
 70
     0
102
RTVSPropertyOp53
 70
     1
102
RTVSPropertyOp54
 70
     1
102
RTVSPropertyOp55
 70
     1
102
RTVSPropertyOp56
 70
     1
102
RTVSPropertyOp57
 70
     1
102
RTVSPost2010Prop28
280
     0
102
RTVSPost2010PropOp28
 70
     1
102
RTVSPost2010Prop29
280
     1
102
RTVSPost2010PropOp29
 70
     1
102
RTVSPost2010Prop30
280
     1
102
RTVSPost2010PropOp30
 70
     1
102
RTVSPost2010Prop31
280
     0
102
RTVSPost2010PropOp31
 70
     1
102
RTVSPost2010Prop32
280
     0
102
RTVSPost2010PropOp32
 70
     1
102
RTVSPost2010Prop33
280
     0
102
RTVSPost2010PropOp33
 70
     1
102
RTVSPost2010Prop34
280
     0
102
RTVSPost2010PropOp34
 70
     1
102
RTVSPost2010Prop35
280
     0
102
RTVSPost2010PropOp35
 70
     1
102
RTVSPost2010Prop36
280
     0
102
RTVSPost2010PropOp36
 70
     1
102
RTVSPost2010Prop37
 90
       50
102
RTVSPost2010PropOp37
 70
     1
102
RTVSPost2010Prop38
140
0.0
102
RTVSPost2010PropOp38
 70
     1
102
RTVSPost2010Prop39
140
1.0
102
RTVSPost2010PropOp39
 70
     1
102
RTVSPost2010Prop40
 90
        0
102
RTVSPost2010PropOp40
 70
     1
102
RTVSPost2010Prop41ColorIndex
 90
       18
102
RTVSPost2010Prop41ColorRGB
 90
        0
102
RTVSPost2010PropOp41
 70
     1
102
RTVSPost2010Prop42
 90
       50
102
RTVSPost2010PropOp42
 70
     1
102
RTVSPost2010Prop43
 90
        3
102
RTVSPost2010PropOp43
 70
     1
102
RTVSPost2010Prop44ColorIndex
 90
        5
102
RTVSPost2010Prop44ColorRGB
 90
      255
102
RTVSPost2010PropOp44
 70
     1
102
RTVSPost2010Prop45
280
     0
102
RTVSPost2010PropOp45
 70
     1
102
RTVSPost2010Prop46
 90
       50
102
RTVSPost2010PropOp46
 70
     1
102
RTVSPost2010Prop47
 90
       50
102
RTVSPost2010PropOp47
 70
     1
102
RTVSPost2010Prop48
 90
       50
102
RTVSPost2010PropOp48
 70
     1
102
RTVSPost2010Prop49
280
     0
102
RTVSPost2010PropOp49
 70
     1
102
RTVSPost2010Prop50
 90
       50
102
RTVSPost2010PropOp50
 70
     1
102
RTVSPost2010Prop51ColorIndex
 90
      256
102
RTVSPost2010Prop51ColorRGB
 90
-16777216
102
RTVSPost2010PropOp51
 70
     0
102
RTVSPost2010Prop52
140
1.0
102
RTVSPost2010PropOp52
 70
     0
102
RTVSPost2010Prop53
 90
        2
102
RTVSPost2010PropOp53
 70
     1
102
RTVSPost2010Prop54
  1
strokes_ogs.tif
102
RTVSPost2010PropOp54
 70
     1
102
RTVSPost2010Prop55
280
     0
102
RTVSPost2010PropOp55
 70
     1
102
RTVSPost2010Prop56
140
1.0
102
RTVSPost2010PropOp56
 70
     1
102
RTVSPost2010Prop57
140
1.0
102
RTVSPost2010PropOp57
 70
     1
  0
XRECORD
  5
5FA
102
{ACAD_REACTORS
330
5F9
102
}
330
5F9
100
AcDbXrecord
280
     1
102
RTVSPropertyOp0
 70
     0
102
RTVSPropertyOp1
 70
     0
102
RTVSPropertyOp2
 70
     0
102
RTVSPropertyOp3
 70
     0
102
RTVSPropertyOp4
 70
     0
102
RTVSPropertyOp5
 70
     0
102
RTVSPropertyOp6
 70
     0
102
RTVSPropertyOp7
 70
     0
102
RTVSPropertyOp8
 70
     0
102
RTVSPropertyOp9
 70
     0
102
RTVSPropertyOp10
 70
     0
102
RTVSPropertyOp11
 70
     0
102
RTVSPropertyOp12
 70
     0
102
RTVSPropertyOp13
 70
     0
102
RTVSPropertyOp14
 70
     0
102
RTVSPropertyOp15
 70
     0
102
RTVSPropertyOp16
 70
     0
102
RTVSPropertyOp17
 70
     0
102
RTVSPropertyOp18
 70
     0
102
RTVSPropertyOp19
 70
     0
102
RTVSPropertyOp20
 70
     0
102
RTVSPropertyOp21
 70
     0
102
RTVSPropertyOp22
 70
     0
102
RTVSPropertyOp23
 70
     0
102
RTVSPropertyOp24
 70
     0
102
RTVSPropertyOp25
 70
     0
102
RTVSPropertyOp26
 70
     0
102
RTVSPropertyOp27
 70
     0
102
RTVSPropertyOp28
 70
     1
102
RTVSPropertyOp29
 70
     1
102
RTVSPropertyOp30
 70
     1
102
RTVSPropertyOp31
 70
     1
102
RTVSPropertyOp32
 70
     1
102
RTVSPropertyOp33
 70
     1
102
RTVSPropertyOp34
 70
     1
102
RTVSPropertyOp35
 70
     1
102
RTVSPropertyOp36
 70
     1
102
RTVSPropertyOp37
 70
     1
102
RTVSPropertyOp38
 70
     1
102
RTVSPropertyOp39
 70
     1
102
RTVSPropertyOp40
 70
     1
102
RTVSPropertyOp41
 70
     1
102
RTVSPropertyOp42
 70
     1
102
RTVSPropertyOp43
 70
     1
102
RTVSPropertyOp44
 70
     1
102
RTVSPropertyOp45
 70
     1
102
RTVSPropertyOp46
 70
     1
102
RTVSPropertyOp47
 70
     1
102
RTVSPropertyOp48
 70
     1
102
RTVSPropertyOp49
 70
     1
102
RTVSPropertyOp50
 70
     1
102
RTVSPropertyOp51
 70
     0
102
RTVSPropertyOp52
 70
     0
102
RTVSPropertyOp53
 70
     1
102
RTVSPropertyOp54
 70
     1
102
RTVSPropertyOp55
 70
     1
102
RTVSPropertyOp56
 70
     1
102
RTVSPropertyOp57
 70
     1
102
RTVSPost2010Prop28
280
     0
102
RTVSPost2010PropOp28
 70
     1
102
RTVSPost2010Prop29
280
     1
102
RTVSPost2010PropOp29
 70
     1
102
RTVSPost2010Prop30
280
     1
102
RTVSPost2010PropOp30
 70
     1
102
RTVSPost2010Prop31
280
     0
102
RTVSPost2010PropOp31
 70
     1
102
RTVSPost2010Prop32
280
     0
102
RTVSPost2010PropOp32
 70
     1
102
RTVSPost2010Prop33
280
     0
102
RTVSPost2010PropOp33
 70
     1
102
RTVSPost2010Prop34
280
     0
102
RTVSPost2010PropOp34
 70
     1
102
RTVSPost2010Prop35
280
     0
102
RTVSPost2010PropOp35
 70
     1
102
RTVSPost2010Prop36
280
     0
102
RTVSPost2010PropOp36
 70
     1
102
RTVSPost2010Prop37
 90
       50
102
RTVSPost2010PropOp37
 70
     1
102
RTVSPost2010Prop38
140
0.0
102
RTVSPost2010PropOp38
 70
     1
102
RTVSPost2010Prop39
140
1.0
102
RTVSPost2010PropOp39
 70
     1
102
RTVSPost2010Prop40
 90
        0
102
RTVSPost2010PropOp40
 70
     1
102
RTVSPost2010Prop41ColorIndex
 90
       18
102
RTVSPost2010Prop41ColorRGB
 90
        0
102
RTVSPost2010PropOp41
 70
     1
102
RTVSPost2010Prop42
 90
       50
102
RTVSPost2010PropOp42
 70
     1
102
RTVSPost2010Prop43
 90
        3
102
RTVSPost2010PropOp43
 70
     1
102
RTVSPost2010Prop44ColorIndex
 90
        5
102
RTVSPost2010Prop44ColorRGB
 90
      255
102
RTVSPost2010PropOp44
 70
     1
102
RTVSPost2010Prop45
280
     0
102
RTVSPost2010PropOp45
 70
     1
102
RTVSPost2010Prop46
 90
       50
102
RTVSPost2010PropOp46
 70
     1
102
RTVSPost2010Prop47
 90
       50
102
RTVSPost2010PropOp47
 70
     1
102
RTVSPost2010Prop48
 90
       50
102
RTVSPost2010PropOp48
 70
     1
102
RTVSPost2010Prop49
280
     0
102
RTVSPost2010PropOp49
 70
     1
102
RTVSPost2010Prop50
 90
       50
102
RTVSPost2010PropOp50
 70
     1
102
RTVSPost2010Prop51ColorIndex
 90
      256
102
RTVSPost2010Prop51ColorRGB
 90
-16777216
102
RTVSPost2010PropOp51
 70
     0
102
RTVSPost2010Prop52
140
1.0
102
RTVSPost2010PropOp52
 70
     0
102
RTVSPost2010Prop53
 90
        2
102
RTVSPost2010PropOp53
 70
     1
102
RTVSPost2010Prop54
  1
strokes_ogs.tif
102
RTVSPost2010PropOp54
 70
     1
102
RTVSPost2010Prop55
280
     0
102
RTVSPost2010PropOp55
 70
     1
102
RTVSPost2010Prop56
140
1.0
102
RTVSPost2010PropOp56
 70
     1
102
RTVSPost2010Prop57
140
1.0
102
RTVSPost2010PropOp57
 70
     1
  0
XRECORD
  5
5F4
102
{ACAD_REACTORS
330
5F3
102
}
330
5F3
100
AcDbXrecord
280
     1
102
RTVSPropertyOp0
 70
     1
102
RTVSPropertyOp1
 70
     1
102
RTVSPropertyOp2
 70
     1
102
RTVSPropertyOp3
 70
     1
102
RTVSPropertyOp4
 70
     1
102
RTVSPropertyOp5
 70
     1
102
RTVSPropertyOp6
 70
     1
102
RTVSPropertyOp7
 70
     1
102
RTVSPropertyOp8
 70
     1
102
RTVSPropertyOp9
 70
     1
102
RTVSPropertyOp10
 70
     1
102
RTVSPropertyOp11
 70
     1
102
RTVSPropertyOp12
 70
     1
102
RTVSPropertyOp13
 70
     1
102
RTVSPropertyOp14
 70
     1
102
RTVSPropertyOp15
 70
     1
102
RTVSPropertyOp16
 70
     1
102
RTVSPropertyOp17
 70
     1
102
RTVSPropertyOp18
 70
     1
102
RTVSPropertyOp19
 70
     1
102
RTVSPropertyOp20
 70
     1
102
RTVSPropertyOp21
 70
     1
102
RTVSPropertyOp22
 70
     1
102
RTVSPropertyOp23
 70
     1
102
RTVSPropertyOp24
 70
     1
102
RTVSPropertyOp25
 70
     1
102
RTVSPropertyOp26
 70
     1
102
RTVSPropertyOp27
 70
     1
102
RTVSPropertyOp28
 70
     1
102
RTVSPropertyOp29
 70
     1
102
RTVSPropertyOp30
 70
     1
102
RTVSPropertyOp31
 70
     1
102
RTVSPropertyOp32
 70
     1
102
RTVSPropertyOp33
 70
     1
102
RTVSPropertyOp34
 70
     1
102
RTVSPropertyOp35
 70
     1
102
RTVSPropertyOp36
 70
     1
102
RTVSPropertyOp37
 70
     1
102
RTVSPropertyOp38
 70
     1
102
RTVSPropertyOp39
 70
     1
102
RTVSPropertyOp40
 70
     1
102
RTVSPropertyOp41
 70
     1
102
RTVSPropertyOp42
 70
     1
102
RTVSPropertyOp43
 70
     1
102
RTVSPropertyOp44
 70
     1
102
RTVSPropertyOp45
 70
     1
102
RTVSPropertyOp46
 70
     1
102
RTVSPropertyOp47
 70
     1
102
RTVSPropertyOp48
 70
     1
102
RTVSPropertyOp49
 70
     1
102
RTVSPropertyOp50
 70
     1
102
RTVSPropertyOp51
 70
     0
102
RTVSPropertyOp52
 70
     0
102
RTVSPropertyOp53
 70
     1
102
RTVSPropertyOp54
 70
     1
102
RTVSPropertyOp55
 70
     1
102
RTVSPropertyOp56
 70
     1
102
RTVSPropertyOp57
 70
     1
102
RTVSPost2010Prop28
280
     0
102
RTVSPost2010PropOp28
 70
     1
102
RTVSPost2010Prop29
280
     1
102
RTVSPost2010PropOp29
 70
     1
102
RTVSPost2010Prop30
280
     1
102
RTVSPost2010PropOp30
 70
     1
102
RTVSPost2010Prop31
280
     0
102
RTVSPost2010PropOp31
 70
     1
102
RTVSPost2010Prop32
280
     0
102
RTVSPost2010PropOp32
 70
     1
102
RTVSPost2010Prop33
280
     0
102
RTVSPost2010PropOp33
 70
     1
102
RTVSPost2010Prop34
280
     0
102
RTVSPost2010PropOp34
 70
     1
102
RTVSPost2010Prop35
280
     0
102
RTVSPost2010PropOp35
 70
     1
102
RTVSPost2010Prop36
280
     0
102
RTVSPost2010PropOp36
 70
     1
102
RTVSPost2010Prop37
 90
       50
102
RTVSPost2010PropOp37
 70
     1
102
RTVSPost2010Prop38
140
0.0
102
RTVSPost2010PropOp38
 70
     1
102
RTVSPost2010Prop39
140
1.0
102
RTVSPost2010PropOp39
 70
     1
102
RTVSPost2010Prop40
 90
        0
102
RTVSPost2010PropOp40
 70
     1
102
RTVSPost2010Prop41ColorIndex
 90
       18
102
RTVSPost2010Prop41ColorRGB
 90
        0
102
RTVSPost2010PropOp41
 70
     1
102
RTVSPost2010Prop42
 90
       50
102
RTVSPost2010PropOp42
 70
     1
102
RTVSPost2010Prop43
 90
        3
102
RTVSPost2010PropOp43
 70
     1
102
RTVSPost2010Prop44ColorIndex
 90
        5
102
RTVSPost2010Prop44ColorRGB
 90
      255
102
RTVSPost2010PropOp44
 70
     1
102
RTVSPost2010Prop45
280
     0
102
RTVSPost2010PropOp45
 70
     1
102
RTVSPost2010Prop46
 90
       50
102
RTVSPost2010PropOp46
 70
     1
102
RTVSPost2010Prop47
 90
       50
102
RTVSPost2010PropOp47
 70
     1
102
RTVSPost2010Prop48
 90
       50
102
RTVSPost2010PropOp48
 70
     1
102
RTVSPost2010Prop49
280
     0
102
RTVSPost2010PropOp49
 70
     1
102
RTVSPost2010Prop50
 90
       50
102
RTVSPost2010PropOp50
 70
     1
102
RTVSPost2010Prop51ColorIndex
 90
      256
102
RTVSPost2010Prop51ColorRGB
 90
-16777216
102
RTVSPost2010PropOp51
 70
     0
102
RTVSPost2010Prop52
140
1.0
102
RTVSPost2010PropOp52
 70
     0
102
RTVSPost2010Prop53
 90
        2
102
RTVSPost2010PropOp53
 70
     1
102
RTVSPost2010Prop54
  1
strokes_ogs.tif
102
RTVSPost2010PropOp54
 70
     1
102
RTVSPost2010Prop55
280
     0
102
RTVSPost2010PropOp55
 70
     1
102
RTVSPost2010Prop56
140
1.0
102
RTVSPost2010PropOp56
 70
     1
102
RTVSPost2010Prop57
140
1.0
102
RTVSPost2010PropOp57
 70
     1
  0
XRECORD
  5
5FC
102
{ACAD_REACTORS
330
5FB
102
}
330
5FB
100
AcDbXrecord
280
     1
102
RTVSPropertyOp0
 70
     0
102
RTVSPropertyOp1
 70
     0
102
RTVSPropertyOp2
 70
     0
102
RTVSPropertyOp3
 70
     0
102
RTVSPropertyOp4
 70
     0
102
RTVSPropertyOp5
 70
     0
102
RTVSPropertyOp6
 70
     0
102
RTVSPropertyOp7
 70
     0
102
RTVSPropertyOp8
 70
     0
102
RTVSPropertyOp9
 70
     0
102
RTVSPropertyOp10
 70
     0
102
RTVSPropertyOp11
 70
     0
102
RTVSPropertyOp12
 70
     0
102
RTVSPropertyOp13
 70
     0
102
RTVSPropertyOp14
 70
     0
102
RTVSPropertyOp15
 70
     0
102
RTVSPropertyOp16
 70
     0
102
RTVSPropertyOp17
 70
     0
102
RTVSPropertyOp18
 70
     0
102
RTVSPropertyOp19
 70
     0
102
RTVSPropertyOp20
 70
     0
102
RTVSPropertyOp21
 70
     0
102
RTVSPropertyOp22
 70
     0
102
RTVSPropertyOp23
 70
     0
102
RTVSPropertyOp24
 70
     0
102
RTVSPropertyOp25
 70
     0
102
RTVSPropertyOp26
 70
     0
102
RTVSPropertyOp27
 70
     0
102
RTVSPropertyOp28
 70
     1
102
RTVSPropertyOp29
 70
     1
102
RTVSPropertyOp30
 70
     1
102
RTVSPropertyOp31
 70
     1
102
RTVSPropertyOp32
 70
     1
102
RTVSPropertyOp33
 70
     1
102
RTVSPropertyOp34
 70
     1
102
RTVSPropertyOp35
 70
     1
102
RTVSPropertyOp36
 70
     1
102
RTVSPropertyOp37
 70
     1
102
RTVSPropertyOp38
 70
     1
102
RTVSPropertyOp39
 70
     1
102
RTVSPropertyOp40
 70
     1
102
RTVSPropertyOp41
 70
     1
102
RTVSPropertyOp42
 70
     1
102
RTVSPropertyOp43
 70
     1
102
RTVSPropertyOp44
 70
     1
102
RTVSPropertyOp45
 70
     1
102
RTVSPropertyOp46
 70
     1
102
RTVSPropertyOp47
 70
     1
102
RTVSPropertyOp48
 70
     1
102
RTVSPropertyOp49
 70
     1
102
RTVSPropertyOp50
 70
     1
102
RTVSPropertyOp51
 70
     0
102
RTVSPropertyOp52
 70
     0
102
RTVSPropertyOp53
 70
     1
102
RTVSPropertyOp54
 70
     1
102
RTVSPropertyOp55
 70
     1
102
RTVSPropertyOp56
 70
     1
102
RTVSPropertyOp57
 70
     1
102
RTVSPost2010Prop28
280
     0
102
RTVSPost2010PropOp28
 70
     1
102
RTVSPost2010Prop29
280
     1
102
RTVSPost2010PropOp29
 70
     1
102
RTVSPost2010Prop30
280
     1
102
RTVSPost2010PropOp30
 70
     1
102
RTVSPost2010Prop31
280
     0
102
RTVSPost2010PropOp31
 70
     1
102
RTVSPost2010Prop32
280
     0
102
RTVSPost2010PropOp32
 70
     1
102
RTVSPost2010Prop33
280
     0
102
RTVSPost2010PropOp33
 70
     1
102
RTVSPost2010Prop34
280
     0
102
RTVSPost2010PropOp34
 70
     1
102
RTVSPost2010Prop35
280
     0
102
RTVSPost2010PropOp35
 70
     1
102
RTVSPost2010Prop36
280
     0
102
RTVSPost2010PropOp36
 70
     1
102
RTVSPost2010Prop37
 90
       50
102
RTVSPost2010PropOp37
 70
     1
102
RTVSPost2010Prop38
140
0.0
102
RTVSPost2010PropOp38
 70
     1
102
RTVSPost2010Prop39
140
1.0
102
RTVSPost2010PropOp39
 70
     1
102
RTVSPost2010Prop40
 90
        0
102
RTVSPost2010PropOp40
 70
     1
102
RTVSPost2010Prop41ColorIndex
 90
       18
102
RTVSPost2010Prop41ColorRGB
 90
        0
102
RTVSPost2010PropOp41
 70
     1
102
RTVSPost2010Prop42
 90
       50
102
RTVSPost2010PropOp42
 70
     1
102
RTVSPost2010Prop43
 90
        3
102
RTVSPost2010PropOp43
 70
     1
102
RTVSPost2010Prop44ColorIndex
 90
        5
102
RTVSPost2010Prop44ColorRGB
 90
      255
102
RTVSPost2010PropOp44
 70
     1
102
RTVSPost2010Prop45
280
     0
102
RTVSPost2010PropOp45
 70
     1
102
RTVSPost2010Prop46
 90
       50
102
RTVSPost2010PropOp46
 70
     1
102
RTVSPost2010Prop47
 90
       50
102
RTVSPost2010PropOp47
 70
     1
102
RTVSPost2010Prop48
 90
       50
102
RTVSPost2010PropOp48
 70
     1
102
RTVSPost2010Prop49
280
     0
102
RTVSPost2010PropOp49
 70
     1
102
RTVSPost2010Prop50
 90
       50
102
RTVSPost2010PropOp50
 70
     1
102
RTVSPost2010Prop51ColorIndex
 90
      256
102
RTVSPost2010Prop51ColorRGB
 90
-16777216
102
RTVSPost2010PropOp51
 70
     0
102
RTVSPost2010Prop52
140
1.0
102
RTVSPost2010PropOp52
 70
     0
102
RTVSPost2010Prop53
 90
        2
102
RTVSPost2010PropOp53
 70
     1
102
RTVSPost2010Prop54
  1
strokes_ogs.tif
102
RTVSPost2010PropOp54
 70
     1
102
RTVSPost2010Prop55
280
     0
102
RTVSPost2010PropOp55
 70
     1
102
RTVSPost2010Prop56
140
1.0
102
RTVSPost2010PropOp56
 70
     1
102
RTVSPost2010Prop57
140
1.0
102
RTVSPost2010PropOp57
 70
     1
  0
XRECORD
  5
5DA
102
{ACAD_REACTORS
330
5D9
102
}
330
5D9
100
AcDbXrecord
280
     1
102
RTVSPropertyOp0
 70
     1
102
RTVSPropertyOp1
 70
     1
102
RTVSPropertyOp2
 70
     1
102
RTVSPropertyOp3
 70
     1
102
RTVSPropertyOp4
 70
     1
102
RTVSPropertyOp5
 70
     1
102
RTVSPropertyOp6
 70
     1
102
RTVSPropertyOp7
 70
     1
102
RTVSPropertyOp8
 70
     1
102
RTVSPropertyOp9
 70
     1
102
RTVSPropertyOp10
 70
     1
102
RTVSPropertyOp11
 70
     1
102
RTVSPropertyOp12
 70
     1
102
RTVSPropertyOp13
 70
     1
102
RTVSPropertyOp14
 70
     1
102
RTVSPropertyOp15
 70
     1
102
RTVSPropertyOp16
 70
     1
102
RTVSPropertyOp17
 70
     1
102
RTVSPropertyOp18
 70
     1
102
RTVSPropertyOp19
 70
     1
102
RTVSPropertyOp20
 70
     1
102
RTVSPropertyOp21
 70
     1
102
RTVSPropertyOp22
 70
     1
102
RTVSPropertyOp23
 70
     1
102
RTVSPropertyOp24
 70
     1
102
RTVSPropertyOp25
 70
     1
102
RTVSPropertyOp26
 70
     1
102
RTVSPropertyOp27
 70
     1
102
RTVSPropertyOp28
 70
     1
102
RTVSPropertyOp29
 70
     1
102
RTVSPropertyOp30
 70
     1
102
RTVSPropertyOp31
 70
     1
102
RTVSPropertyOp32
 70
     1
102
RTVSPropertyOp33
 70
     1
102
RTVSPropertyOp34
 70
     1
102
RTVSPropertyOp35
 70
     1
102
RTVSPropertyOp36
 70
     1
102
RTVSPropertyOp37
 70
     1
102
RTVSPropertyOp38
 70
     1
102
RTVSPropertyOp39
 70
     1
102
RTVSPropertyOp40
 70
     1
102
RTVSPropertyOp41
 70
     1
102
RTVSPropertyOp42
 70
     1
102
RTVSPropertyOp43
 70
     1
102
RTVSPropertyOp44
 70
     1
102
RTVSPropertyOp45
 70
     1
102
RTVSPropertyOp46
 70
     1
102
RTVSPropertyOp47
 70
     1
102
RTVSPropertyOp48
 70
     1
102
RTVSPropertyOp49
 70
     1
102
RTVSPropertyOp50
 70
     1
102
RTVSPropertyOp51
 70
     0
102
RTVSPropertyOp52
 70
     0
102
RTVSPropertyOp53
 70
     1
102
RTVSPropertyOp54
 70
     1
102
RTVSPropertyOp55
 70
     1
102
RTVSPropertyOp56
 70
     1
102
RTVSPropertyOp57
 70
     1
102
RTVSPost2010Prop28
280
     0
102
RTVSPost2010PropOp28
 70
     1
102
RTVSPost2010Prop29
280
     1
102
RTVSPost2010PropOp29
 70
     1
102
RTVSPost2010Prop30
280
     1
102
RTVSPost2010PropOp30
 70
     1
102
RTVSPost2010Prop31
280
     0
102
RTVSPost2010PropOp31
 70
     1
102
RTVSPost2010Prop32
280
     0
102
RTVSPost2010PropOp32
 70
     1
102
RTVSPost2010Prop33
280
     0
102
RTVSPost2010PropOp33
 70
     1
102
RTVSPost2010Prop34
280
     0
102
RTVSPost2010PropOp34
 70
     1
102
RTVSPost2010Prop35
280
     0
102
RTVSPost2010PropOp35
 70
     1
102
RTVSPost2010Prop36
280
     0
102
RTVSPost2010PropOp36
 70
     1
102
RTVSPost2010Prop37
 90
       50
102
RTVSPost2010PropOp37
 70
     1
102
RTVSPost2010Prop38
140
0.0
102
RTVSPost2010PropOp38
 70
     1
102
RTVSPost2010Prop39
140
1.0
102
RTVSPost2010PropOp39
 70
     1
102
RTVSPost2010Prop40
 90
        0
102
RTVSPost2010PropOp40
 70
     1
102
RTVSPost2010Prop41ColorIndex
 90
       18
102
RTVSPost2010Prop41ColorRGB
 90
        0
102
RTVSPost2010PropOp41
 70
     1
102
RTVSPost2010Prop42
 90
       50
102
RTVSPost2010PropOp42
 70
     1
102
RTVSPost2010Prop43
 90
        3
102
RTVSPost2010PropOp43
 70
     1
102
RTVSPost2010Prop44ColorIndex
 90
        5
102
RTVSPost2010Prop44ColorRGB
 90
      255
102
RTVSPost2010PropOp44
 70
     1
102
RTVSPost2010Prop45
280
     0
102
RTVSPost2010PropOp45
 70
     1
102
RTVSPost2010Prop46
 90
       50
102
RTVSPost2010PropOp46
 70
     1
102
RTVSPost2010Prop47
 90
       50
102
RTVSPost2010PropOp47
 70
     1
102
RTVSPost2010Prop48
 90
       50
102
RTVSPost2010PropOp48
 70
     1
102
RTVSPost2010Prop49
280
     0
102
RTVSPost2010PropOp49
 70
     1
102
RTVSPost2010Prop50
 90
       50
102
RTVSPost2010PropOp50
 70
     1
102
RTVSPost2010Prop51ColorIndex
 90
      256
102
RTVSPost2010Prop51ColorRGB
 90
-16777216
102
RTVSPost2010PropOp51
 70
     0
102
RTVSPost2010Prop52
140
1.0
102
RTVSPost2010PropOp52
 70
     0
102
RTVSPost2010Prop53
 90
        2
102
RTVSPost2010PropOp53
 70
     1
102
RTVSPost2010Prop54
  1
strokes_ogs.tif
102
RTVSPost2010PropOp54
 70
     1
102
RTVSPost2010Prop55
280
     0
102
RTVSPost2010PropOp55
 70
     1
102
RTVSPost2010Prop56
140
1.0
102
RTVSPost2010PropOp56
 70
     1
102
RTVSPost2010Prop57
140
1.0
102
RTVSPost2010PropOp57
 70
     1
  0
XRECORD
  5
608
102
{ACAD_REACTORS
330
607
102
}
330
607
100
AcDbXrecord
280
     1
102
RTVSPropertyOp0
 70
     1
102
RTVSPropertyOp1
 70
     1
102
RTVSPropertyOp2
 70
     1
102
RTVSPropertyOp3
 70
     1
102
RTVSPropertyOp4
 70
     1
102
RTVSPropertyOp5
 70
     1
102
RTVSPropertyOp6
 70
     1
102
RTVSPropertyOp7
 70
     1
102
RTVSPropertyOp8
 70
     1
102
RTVSPropertyOp9
 70
     1
102
RTVSPropertyOp10
 70
     1
102
RTVSPropertyOp11
 70
     1
102
RTVSPropertyOp12
 70
     1
102
RTVSPropertyOp13
 70
     1
102
RTVSPropertyOp14
 70
     1
102
RTVSPropertyOp15
 70
     1
102
RTVSPropertyOp16
 70
     1
102
RTVSPropertyOp17
 70
     1
102
RTVSPropertyOp18
 70
     1
102
RTVSPropertyOp19
 70
     1
102
RTVSPropertyOp20
 70
     1
102
RTVSPropertyOp21
 70
     1
102
RTVSPropertyOp22
 70
     1
102
RTVSPropertyOp23
 70
     1
102
RTVSPropertyOp24
 70
     1
102
RTVSPropertyOp25
 70
     1
102
RTVSPropertyOp26
 70
     1
102
RTVSPropertyOp27
 70
     1
102
RTVSPropertyOp28
 70
     1
102
RTVSPropertyOp29
 70
     1
102
RTVSPropertyOp30
 70
     1
102
RTVSPropertyOp31
 70
     1
102
RTVSPropertyOp32
 70
     1
102
RTVSPropertyOp33
 70
     1
102
RTVSPropertyOp34
 70
     1
102
RTVSPropertyOp35
 70
     1
102
RTVSPropertyOp36
 70
     1
102
RTVSPropertyOp37
 70
     1
102
RTVSPropertyOp38
 70
     1
102
RTVSPropertyOp39
 70
     1
102
RTVSPropertyOp40
 70
     1
102
RTVSPropertyOp41
 70
     1
102
RTVSPropertyOp42
 70
     1
102
RTVSPropertyOp43
 70
     1
102
RTVSPropertyOp44
 70
     1
102
RTVSPropertyOp45
 70
     1
102
RTVSPropertyOp46
 70
     1
102
RTVSPropertyOp47
 70
     1
102
RTVSPropertyOp48
 70
     1
102
RTVSPropertyOp49
 70
     1
102
RTVSPropertyOp50
 70
     1
102
RTVSPropertyOp51
 70
     0
102
RTVSPropertyOp52
 70
     0
102
RTVSPropertyOp53
 70
     1
102
RTVSPropertyOp54
 70
     1
102
RTVSPropertyOp55
 70
     1
102
RTVSPropertyOp56
 70
     1
102
RTVSPropertyOp57
 70
     1
102
RTVSPost2010Prop28
280
     0
102
RTVSPost2010PropOp28
 70
     1
102
RTVSPost2010Prop29
280
     1
102
RTVSPost2010PropOp29
 70
     1
102
RTVSPost2010Prop30
280
     1
102
RTVSPost2010PropOp30
 70
     1
102
RTVSPost2010Prop31
280
     0
102
RTVSPost2010PropOp31
 70
     1
102
RTVSPost2010Prop32
280
     0
102
RTVSPost2010PropOp32
 70
     1
102
RTVSPost2010Prop33
280
     0
102
RTVSPost2010PropOp33
 70
     1
102
RTVSPost2010Prop34
280
     0
102
RTVSPost2010PropOp34
 70
     1
102
RTVSPost2010Prop35
280
     0
102
RTVSPost2010PropOp35
 70
     1
102
RTVSPost2010Prop36
280
     0
102
RTVSPost2010PropOp36
 70
     1
102
RTVSPost2010Prop37
 90
       50
102
RTVSPost2010PropOp37
 70
     1
102
RTVSPost2010Prop38
140
0.0
102
RTVSPost2010PropOp38
 70
     1
102
RTVSPost2010Prop39
140
1.0
102
RTVSPost2010PropOp39
 70
     1
102
RTVSPost2010Prop40
 90
        0
102
RTVSPost2010PropOp40
 70
     1
102
RTVSPost2010Prop41ColorIndex
 90
       18
102
RTVSPost2010Prop41ColorRGB
 90
        0
102
RTVSPost2010PropOp41
 70
     1
102
RTVSPost2010Prop42
 90
       50
102
RTVSPost2010PropOp42
 70
     1
102
RTVSPost2010Prop43
 90
        3
102
RTVSPost2010PropOp43
 70
     1
102
RTVSPost2010Prop44ColorIndex
 90
        5
102
RTVSPost2010Prop44ColorRGB
 90
      255
102
RTVSPost2010PropOp44
 70
     1
102
RTVSPost2010Prop45
280
     0
102
RTVSPost2010PropOp45
 70
     1
102
RTVSPost2010Prop46
 90
       50
102
RTVSPost2010PropOp46
 70
     1
102
RTVSPost2010Prop47
 90
       50
102
RTVSPost2010PropOp47
 70
     1
102
RTVSPost2010Prop48
 90
       50
102
RTVSPost2010PropOp48
 70
     1
102
RTVSPost2010Prop49
280
     0
102
RTVSPost2010PropOp49
 70
     1
102
RTVSPost2010Prop50
 90
       50
102
RTVSPost2010PropOp50
 70
     1
102
RTVSPost2010Prop51ColorIndex
 90
      256
102
RTVSPost2010Prop51ColorRGB
 90
-16777216
102
RTVSPost2010PropOp51
 70
     0
102
RTVSPost2010Prop52
140
1.0
102
RTVSPost2010PropOp52
 70
     0
102
RTVSPost2010Prop53
 90
        2
102
RTVSPost2010PropOp53
 70
     1
102
RTVSPost2010Prop54
  1
strokes_ogs.tif
102
RTVSPost2010PropOp54
 70
     1
102
RTVSPost2010Prop55
280
     0
102
RTVSPost2010PropOp55
 70
     1
102
RTVSPost2010Prop56
140
1.0
102
RTVSPost2010PropOp56
 70
     1
102
RTVSPost2010Prop57
140
1.0
102
RTVSPost2010PropOp57
 70
     1
  0
XRECORD
  5
606
102
{ACAD_REACTORS
330
605
102
}
330
605
100
AcDbXrecord
280
     1
102
RTVSPropertyOp0
 70
     1
102
RTVSPropertyOp1
 70
     1
102
RTVSPropertyOp2
 70
     1
102
RTVSPropertyOp3
 70
     1
102
RTVSPropertyOp4
 70
     1
102
RTVSPropertyOp5
 70
     1
102
RTVSPropertyOp6
 70
     1
102
RTVSPropertyOp7
 70
     1
102
RTVSPropertyOp8
 70
     1
102
RTVSPropertyOp9
 70
     1
102
RTVSPropertyOp10
 70
     1
102
RTVSPropertyOp11
 70
     1
102
RTVSPropertyOp12
 70
     1
102
RTVSPropertyOp13
 70
     1
102
RTVSPropertyOp14
 70
     1
102
RTVSPropertyOp15
 70
     1
102
RTVSPropertyOp16
 70
     1
102
RTVSPropertyOp17
 70
     1
102
RTVSPropertyOp18
 70
     1
102
RTVSPropertyOp19
 70
     1
102
RTVSPropertyOp20
 70
     1
102
RTVSPropertyOp21
 70
     1
102
RTVSPropertyOp22
 70
     1
102
RTVSPropertyOp23
 70
     1
102
RTVSPropertyOp24
 70
     1
102
RTVSPropertyOp25
 70
     1
102
RTVSPropertyOp26
 70
     1
102
RTVSPropertyOp27
 70
     1
102
RTVSPropertyOp28
 70
     1
102
RTVSPropertyOp29
 70
     1
102
RTVSPropertyOp30
 70
     1
102
RTVSPropertyOp31
 70
     1
102
RTVSPropertyOp32
 70
     1
102
RTVSPropertyOp33
 70
     1
102
RTVSPropertyOp34
 70
     1
102
RTVSPropertyOp35
 70
     1
102
RTVSPropertyOp36
 70
     1
102
RTVSPropertyOp37
 70
     1
102
RTVSPropertyOp38
 70
     1
102
RTVSPropertyOp39
 70
     1
102
RTVSPropertyOp40
 70
     1
102
RTVSPropertyOp41
 70
     1
102
RTVSPropertyOp42
 70
     1
102
RTVSPropertyOp43
 70
     1
102
RTVSPropertyOp44
 70
     1
102
RTVSPropertyOp45
 70
     1
102
RTVSPropertyOp46
 70
     1
102
RTVSPropertyOp47
 70
     1
102
RTVSPropertyOp48
 70
     1
102
RTVSPropertyOp49
 70
     1
102
RTVSPropertyOp50
 70
     1
102
RTVSPropertyOp51
 70
     0
102
RTVSPropertyOp52
 70
     0
102
RTVSPropertyOp53
 70
     1
102
RTVSPropertyOp54
 70
     1
102
RTVSPropertyOp55
 70
     1
102
RTVSPropertyOp56
 70
     1
102
RTVSPropertyOp57
 70
     1
102
RTVSPost2010Prop28
280
     0
102
RTVSPost2010PropOp28
 70
     1
102
RTVSPost2010Prop29
280
     1
102
RTVSPost2010PropOp29
 70
     1
102
RTVSPost2010Prop30
280
     1
102
RTVSPost2010PropOp30
 70
     1
102
RTVSPost2010Prop31
280
     0
102
RTVSPost2010PropOp31
 70
     1
102
RTVSPost2010Prop32
280
     0
102
RTVSPost2010PropOp32
 70
     1
102
RTVSPost2010Prop33
280
     0
102
RTVSPost2010PropOp33
 70
     1
102
RTVSPost2010Prop34
280
     0
102
RTVSPost2010PropOp34
 70
     1
102
RTVSPost2010Prop35
280
     0
102
RTVSPost2010PropOp35
 70
     1
102
RTVSPost2010Prop36
280
     0
102
RTVSPost2010PropOp36
 70
     1
102
RTVSPost2010Prop37
 90
       50
102
RTVSPost2010PropOp37
 70
     1
102
RTVSPost2010Prop38
140
0.0
102
RTVSPost2010PropOp38
 70
     1
102
RTVSPost2010Prop39
140
1.0
102
RTVSPost2010PropOp39
 70
     1
102
RTVSPost2010Prop40
 90
        0
102
RTVSPost2010PropOp40
 70
     1
102
RTVSPost2010Prop41ColorIndex
 90
       18
102
RTVSPost2010Prop41ColorRGB
 90
        0
102
RTVSPost2010PropOp41
 70
     1
102
RTVSPost2010Prop42
 90
       50
102
RTVSPost2010PropOp42
 70
     1
102
RTVSPost2010Prop43
 90
        3
102
RTVSPost2010PropOp43
 70
     1
102
RTVSPost2010Prop44ColorIndex
 90
        5
102
RTVSPost2010Prop44ColorRGB
 90
      255
102
RTVSPost2010PropOp44
 70
     1
102
RTVSPost2010Prop45
280
     0
102
RTVSPost2010PropOp45
 70
     1
102
RTVSPost2010Prop46
 90
       50
102
RTVSPost2010PropOp46
 70
     1
102
RTVSPost2010Prop47
 90
       50
102
RTVSPost2010PropOp47
 70
     1
102
RTVSPost2010Prop48
 90
       50
102
RTVSPost2010PropOp48
 70
     1
102
RTVSPost2010Prop49
280
     0
102
RTVSPost2010PropOp49
 70
     1
102
RTVSPost2010Prop50
 90
       50
102
RTVSPost2010PropOp50
 70
     1
102
RTVSPost2010Prop51ColorIndex
 90
      256
102
RTVSPost2010Prop51ColorRGB
 90
-16777216
102
RTVSPost2010PropOp51
 70
     0
102
RTVSPost2010Prop52
140
1.0
102
RTVSPost2010PropOp52
 70
     0
102
RTVSPost2010Prop53
 90
        2
102
RTVSPost2010PropOp53
 70
     1
102
RTVSPost2010Prop54
  1
strokes_ogs.tif
102
RTVSPost2010PropOp54
 70
     1
102
RTVSPost2010Prop55
280
     0
102
RTVSPost2010PropOp55
 70
     1
102
RTVSPost2010Prop56
140
1.0
102
RTVSPost2010PropOp56
 70
     1
102
RTVSPost2010Prop57
140
1.0
102
RTVSPost2010PropOp57
 70
     1
  0
XRECORD
  5
600
102
{ACAD_REACTORS
330
5FF
102
}
330
5FF
100
AcDbXrecord
280
     1
102
RTVSPropertyOp0
 70
     1
102
RTVSPropertyOp1
 70
     1
102
RTVSPropertyOp2
 70
     1
102
RTVSPropertyOp3
 70
     1
102
RTVSPropertyOp4
 70
     1
102
RTVSPropertyOp5
 70
     1
102
RTVSPropertyOp6
 70
     1
102
RTVSPropertyOp7
 70
     1
102
RTVSPropertyOp8
 70
     1
102
RTVSPropertyOp9
 70
     1
102
RTVSPropertyOp10
 70
     1
102
RTVSPropertyOp11
 70
     1
102
RTVSPropertyOp12
 70
     1
102
RTVSPropertyOp13
 70
     1
102
RTVSPropertyOp14
 70
     1
102
RTVSPropertyOp15
 70
     1
102
RTVSPropertyOp16
 70
     1
102
RTVSPropertyOp17
 70
     1
102
RTVSPropertyOp18
 70
     1
102
RTVSPropertyOp19
 70
     1
102
RTVSPropertyOp20
 70
     1
102
RTVSPropertyOp21
 70
     1
102
RTVSPropertyOp22
 70
     1
102
RTVSPropertyOp23
 70
     1
102
RTVSPropertyOp24
 70
     1
102
RTVSPropertyOp25
 70
     1
102
RTVSPropertyOp26
 70
     1
102
RTVSPropertyOp27
 70
     1
102
RTVSPropertyOp28
 70
     1
102
RTVSPropertyOp29
 70
     1
102
RTVSPropertyOp30
 70
     1
102
RTVSPropertyOp31
 70
     1
102
RTVSPropertyOp32
 70
     1
102
RTVSPropertyOp33
 70
     1
102
RTVSPropertyOp34
 70
     1
102
RTVSPropertyOp35
 70
     1
102
RTVSPropertyOp36
 70
     1
102
RTVSPropertyOp37
 70
     1
102
RTVSPropertyOp38
 70
     1
102
RTVSPropertyOp39
 70
     1
102
RTVSPropertyOp40
 70
     1
102
RTVSPropertyOp41
 70
     1
102
RTVSPropertyOp42
 70
     1
102
RTVSPropertyOp43
 70
     1
102
RTVSPropertyOp44
 70
     1
102
RTVSPropertyOp45
 70
     1
102
RTVSPropertyOp46
 70
     1
102
RTVSPropertyOp47
 70
     1
102
RTVSPropertyOp48
 70
     1
102
RTVSPropertyOp49
 70
     1
102
RTVSPropertyOp50
 70
     1
102
RTVSPropertyOp51
 70
     0
102
RTVSPropertyOp52
 70
     0
102
RTVSPropertyOp53
 70
     1
102
RTVSPropertyOp54
 70
     1
102
RTVSPropertyOp55
 70
     1
102
RTVSPropertyOp56
 70
     1
102
RTVSPropertyOp57
 70
     1
102
RTVSPost2010Prop28
280
     0
102
RTVSPost2010PropOp28
 70
     1
102
RTVSPost2010Prop29
280
     1
102
RTVSPost2010PropOp29
 70
     1
102
RTVSPost2010Prop30
280
     1
102
RTVSPost2010PropOp30
 70
     1
102
RTVSPost2010Prop31
280
     0
102
RTVSPost2010PropOp31
 70
     1
102
RTVSPost2010Prop32
280
     0
102
RTVSPost2010PropOp32
 70
     1
102
RTVSPost2010Prop33
280
     0
102
RTVSPost2010PropOp33
 70
     1
102
RTVSPost2010Prop34
280
     0
102
RTVSPost2010PropOp34
 70
     1
102
RTVSPost2010Prop35
280
     0
102
RTVSPost2010PropOp35
 70
     1
102
RTVSPost2010Prop36
280
     0
102
RTVSPost2010PropOp36
 70
     1
102
RTVSPost2010Prop37
 90
       50
102
RTVSPost2010PropOp37
 70
     1
102
RTVSPost2010Prop38
140
0.0
102
RTVSPost2010PropOp38
 70
     1
102
RTVSPost2010Prop39
140
1.0
102
RTVSPost2010PropOp39
 70
     1
102
RTVSPost2010Prop40
 90
        0
102
RTVSPost2010PropOp40
 70
     1
102
RTVSPost2010Prop41ColorIndex
 90
       18
102
RTVSPost2010Prop41ColorRGB
 90
        0
102
RTVSPost2010PropOp41
 70
     1
102
RTVSPost2010Prop42
 90
       50
102
RTVSPost2010PropOp42
 70
     1
102
RTVSPost2010Prop43
 90
        3
102
RTVSPost2010PropOp43
 70
     1
102
RTVSPost2010Prop44ColorIndex
 90
        5
102
RTVSPost2010Prop44ColorRGB
 90
      255
102
RTVSPost2010PropOp44
 70
     1
102
RTVSPost2010Prop45
280
     0
102
RTVSPost2010PropOp45
 70
     1
102
RTVSPost2010Prop46
 90
       50
102
RTVSPost2010PropOp46
 70
     1
102
RTVSPost2010Prop47
 90
       50
102
RTVSPost2010PropOp47
 70
     1
102
RTVSPost2010Prop48
 90
       50
102
RTVSPost2010PropOp48
 70
     1
102
RTVSPost2010Prop49
280
     0
102
RTVSPost2010PropOp49
 70
     1
102
RTVSPost2010Prop50
 90
       50
102
RTVSPost2010PropOp50
 70
     1
102
RTVSPost2010Prop51ColorIndex
 90
      256
102
RTVSPost2010Prop51ColorRGB
 90
-16777216
102
RTVSPost2010PropOp51
 70
     0
102
RTVSPost2010Prop52
140
1.0
102
RTVSPost2010PropOp52
 70
     0
102
RTVSPost2010Prop53
 90
        2
102
RTVSPost2010PropOp53
 70
     1
102
RTVSPost2010Prop54
  1
strokes_ogs.tif
102
RTVSPost2010PropOp54
 70
     1
102
RTVSPost2010Prop55
280
     0
102
RTVSPost2010PropOp55
 70
     1
102
RTVSPost2010Prop56
140
1.0
102
RTVSPost2010PropOp56
 70
     1
102
RTVSPost2010Prop57
140
1.0
102
RTVSPost2010PropOp57
 70
     1
  0
XRECORD
  5
602
102
{ACAD_REACTORS
330
601
102
}
330
601
100
AcDbXrecord
280
     1
102
RTVSPropertyOp0
 70
     1
102
RTVSPropertyOp1
 70
     1
102
RTVSPropertyOp2
 70
     1
102
RTVSPropertyOp3
 70
     1
102
RTVSPropertyOp4
 70
     1
102
RTVSPropertyOp5
 70
     1
102
RTVSPropertyOp6
 70
     1
102
RTVSPropertyOp7
 70
     1
102
RTVSPropertyOp8
 70
     1
102
RTVSPropertyOp9
 70
     1
102
RTVSPropertyOp10
 70
     1
102
RTVSPropertyOp11
 70
     1
102
RTVSPropertyOp12
 70
     1
102
RTVSPropertyOp13
 70
     1
102
RTVSPropertyOp14
 70
     1
102
RTVSPropertyOp15
 70
     1
102
RTVSPropertyOp16
 70
     1
102
RTVSPropertyOp17
 70
     1
102
RTVSPropertyOp18
 70
     1
102
RTVSPropertyOp19
 70
     1
102
RTVSPropertyOp20
 70
     1
102
RTVSPropertyOp21
 70
     1
102
RTVSPropertyOp22
 70
     1
102
RTVSPropertyOp23
 70
     1
102
RTVSPropertyOp24
 70
     1
102
RTVSPropertyOp25
 70
     1
102
RTVSPropertyOp26
 70
     1
102
RTVSPropertyOp27
 70
     1
102
RTVSPropertyOp28
 70
     1
102
RTVSPropertyOp29
 70
     1
102
RTVSPropertyOp30
 70
     1
102
RTVSPropertyOp31
 70
     1
102
RTVSPropertyOp32
 70
     1
102
RTVSPropertyOp33
 70
     1
102
RTVSPropertyOp34
 70
     1
102
RTVSPropertyOp35
 70
     1
102
RTVSPropertyOp36
 70
     1
102
RTVSPropertyOp37
 70
     1
102
RTVSPropertyOp38
 70
     1
102
RTVSPropertyOp39
 70
     1
102
RTVSPropertyOp40
 70
     1
102
RTVSPropertyOp41
 70
     1
102
RTVSPropertyOp42
 70
     1
102
RTVSPropertyOp43
 70
     1
102
RTVSPropertyOp44
 70
     1
102
RTVSPropertyOp45
 70
     1
102
RTVSPropertyOp46
 70
     1
102
RTVSPropertyOp47
 70
     1
102
RTVSPropertyOp48
 70
     1
102
RTVSPropertyOp49
 70
     1
102
RTVSPropertyOp50
 70
     1
102
RTVSPropertyOp51
 70
     0
102
RTVSPropertyOp52
 70
     0
102
RTVSPropertyOp53
 70
     1
102
RTVSPropertyOp54
 70
     1
102
RTVSPropertyOp55
 70
     1
102
RTVSPropertyOp56
 70
     1
102
RTVSPropertyOp57
 70
     1
102
RTVSPost2010Prop28
280
     0
102
RTVSPost2010PropOp28
 70
     1
102
RTVSPost2010Prop29
280
     1
102
RTVSPost2010PropOp29
 70
     1
102
RTVSPost2010Prop30
280
     1
102
RTVSPost2010PropOp30
 70
     1
102
RTVSPost2010Prop31
280
     0
102
RTVSPost2010PropOp31
 70
     1
102
RTVSPost2010Prop32
280
     0
102
RTVSPost2010PropOp32
 70
     1
102
RTVSPost2010Prop33
280
     0
102
RTVSPost2010PropOp33
 70
     1
102
RTVSPost2010Prop34
280
     0
102
RTVSPost2010PropOp34
 70
     1
102
RTVSPost2010Prop35
280
     0
102
RTVSPost2010PropOp35
 70
     1
102
RTVSPost2010Prop36
280
     0
102
RTVSPost2010PropOp36
 70
     1
102
RTVSPost2010Prop37
 90
       50
102
RTVSPost2010PropOp37
 70
     1
102
RTVSPost2010Prop38
140
0.0
102
RTVSPost2010PropOp38
 70
     1
102
RTVSPost2010Prop39
140
1.0
102
RTVSPost2010PropOp39
 70
     1
102
RTVSPost2010Prop40
 90
        0
102
RTVSPost2010PropOp40
 70
     1
102
RTVSPost2010Prop41ColorIndex
 90
       18
102
RTVSPost2010Prop41ColorRGB
 90
        0
102
RTVSPost2010PropOp41
 70
     1
102
RTVSPost2010Prop42
 90
       50
102
RTVSPost2010PropOp42
 70
     1
102
RTVSPost2010Prop43
 90
        3
102
RTVSPost2010PropOp43
 70
     1
102
RTVSPost2010Prop44ColorIndex
 90
        5
102
RTVSPost2010Prop44ColorRGB
 90
      255
102
RTVSPost2010PropOp44
 70
     1
102
RTVSPost2010Prop45
280
     0
102
RTVSPost2010PropOp45
 70
     1
102
RTVSPost2010Prop46
 90
       50
102
RTVSPost2010PropOp46
 70
     1
102
RTVSPost2010Prop47
 90
       50
102
RTVSPost2010PropOp47
 70
     1
102
RTVSPost2010Prop48
 90
       50
102
RTVSPost2010PropOp48
 70
     1
102
RTVSPost2010Prop49
280
     0
102
RTVSPost2010PropOp49
 70
     1
102
RTVSPost2010Prop50
 90
       50
102
RTVSPost2010PropOp50
 70
     1
102
RTVSPost2010Prop51ColorIndex
 90
      256
102
RTVSPost2010Prop51ColorRGB
 90
-16777216
102
RTVSPost2010PropOp51
 70
     0
102
RTVSPost2010Prop52
140
1.0
102
RTVSPost2010PropOp52
 70
     0
102
RTVSPost2010Prop53
 90
        2
102
RTVSPost2010PropOp53
 70
     1
102
RTVSPost2010Prop54
  1
strokes_ogs.tif
102
RTVSPost2010PropOp54
 70
     1
102
RTVSPost2010Prop55
280
     0
102
RTVSPost2010PropOp55
 70
     1
102
RTVSPost2010Prop56
140
1.0
102
RTVSPost2010PropOp56
 70
     1
102
RTVSPost2010Prop57
140
1.0
102
RTVSPost2010PropOp57
 70
     1
  0
XRECORD
  5
5F2
102
{ACAD_REACTORS
330
5F1
102
}
330
5F1
100
AcDbXrecord
280
     1
102
RTVSPropertyOp0
 70
     1
102
RTVSPropertyOp1
 70
     1
102
RTVSPropertyOp2
 70
     1
102
RTVSPropertyOp3
 70
     1
102
RTVSPropertyOp4
 70
     1
102
RTVSPropertyOp5
 70
     1
102
RTVSPropertyOp6
 70
     1
102
RTVSPropertyOp7
 70
     1
102
RTVSPropertyOp8
 70
     1
102
RTVSPropertyOp9
 70
     1
102
RTVSPropertyOp10
 70
     1
102
RTVSPropertyOp11
 70
     1
102
RTVSPropertyOp12
 70
     1
102
RTVSPropertyOp13
 70
     1
102
RTVSPropertyOp14
 70
     1
102
RTVSPropertyOp15
 70
     1
102
RTVSPropertyOp16
 70
     1
102
RTVSPropertyOp17
 70
     1
102
RTVSPropertyOp18
 70
     1
102
RTVSPropertyOp19
 70
     1
102
RTVSPropertyOp20
 70
     1
102
RTVSPropertyOp21
 70
     1
102
RTVSPropertyOp22
 70
     1
102
RTVSPropertyOp23
 70
     1
102
RTVSPropertyOp24
 70
     1
102
RTVSPropertyOp25
 70
     1
102
RTVSPropertyOp26
 70
     1
102
RTVSPropertyOp27
 70
     1
102
RTVSPropertyOp28
 70
     1
102
RTVSPropertyOp29
 70
     1
102
RTVSPropertyOp30
 70
     1
102
RTVSPropertyOp31
 70
     1
102
RTVSPropertyOp32
 70
     1
102
RTVSPropertyOp33
 70
     1
102
RTVSPropertyOp34
 70
     1
102
RTVSPropertyOp35
 70
     1
102
RTVSPropertyOp36
 70
     1
102
RTVSPropertyOp37
 70
     1
102
RTVSPropertyOp38
 70
     1
102
RTVSPropertyOp39
 70
     1
102
RTVSPropertyOp40
 70
     1
102
RTVSPropertyOp41
 70
     1
102
RTVSPropertyOp42
 70
     1
102
RTVSPropertyOp43
 70
     1
102
RTVSPropertyOp44
 70
     1
102
RTVSPropertyOp45
 70
     1
102
RTVSPropertyOp46
 70
     1
102
RTVSPropertyOp47
 70
     1
102
RTVSPropertyOp48
 70
     1
102
RTVSPropertyOp49
 70
     1
102
RTVSPropertyOp50
 70
     1
102
RTVSPropertyOp51
 70
     0
102
RTVSPropertyOp52
 70
     0
102
RTVSPropertyOp53
 70
     1
102
RTVSPropertyOp54
 70
     1
102
RTVSPropertyOp55
 70
     1
102
RTVSPropertyOp56
 70
     1
102
RTVSPropertyOp57
 70
     1
102
RTVSPost2010Prop28
280
     0
102
RTVSPost2010PropOp28
 70
     1
102
RTVSPost2010Prop29
280
     1
102
RTVSPost2010PropOp29
 70
     1
102
RTVSPost2010Prop30
280
     1
102
RTVSPost2010PropOp30
 70
     1
102
RTVSPost2010Prop31
280
     0
102
RTVSPost2010PropOp31
 70
     1
102
RTVSPost2010Prop32
280
     0
102
RTVSPost2010PropOp32
 70
     1
102
RTVSPost2010Prop33
280
     0
102
RTVSPost2010PropOp33
 70
     1
102
RTVSPost2010Prop34
280
     0
102
RTVSPost2010PropOp34
 70
     1
102
RTVSPost2010Prop35
280
     0
102
RTVSPost2010PropOp35
 70
     1
102
RTVSPost2010Prop36
280
     0
102
RTVSPost2010PropOp36
 70
     1
102
RTVSPost2010Prop37
 90
       50
102
RTVSPost2010PropOp37
 70
     1
102
RTVSPost2010Prop38
140
0.0
102
RTVSPost2010PropOp38
 70
     1
102
RTVSPost2010Prop39
140
1.0
102
RTVSPost2010PropOp39
 70
     1
102
RTVSPost2010Prop40
 90
        0
102
RTVSPost2010PropOp40
 70
     1
102
RTVSPost2010Prop41ColorIndex
 90
       18
102
RTVSPost2010Prop41ColorRGB
 90
        0
102
RTVSPost2010PropOp41
 70
     1
102
RTVSPost2010Prop42
 90
       50
102
RTVSPost2010PropOp42
 70
     1
102
RTVSPost2010Prop43
 90
        3
102
RTVSPost2010PropOp43
 70
     1
102
RTVSPost2010Prop44ColorIndex
 90
        5
102
RTVSPost2010Prop44ColorRGB
 90
      255
102
RTVSPost2010PropOp44
 70
     1
102
RTVSPost2010Prop45
280
     0
102
RTVSPost2010PropOp45
 70
     1
102
RTVSPost2010Prop46
 90
       50
102
RTVSPost2010PropOp46
 70
     1
102
RTVSPost2010Prop47
 90
       50
102
RTVSPost2010PropOp47
 70
     1
102
RTVSPost2010Prop48
 90
       50
102
RTVSPost2010PropOp48
 70
     1
102
RTVSPost2010Prop49
280
     0
102
RTVSPost2010PropOp49
 70
     1
102
RTVSPost2010Prop50
 90
       50
102
RTVSPost2010PropOp50
 70
     1
102
RTVSPost2010Prop51ColorIndex
 90
      256
102
RTVSPost2010Prop51ColorRGB
 90
-16777216
102
RTVSPost2010PropOp51
 70
     0
102
RTVSPost2010Prop52
140
1.0
102
RTVSPost2010PropOp52
 70
     0
102
RTVSPost2010Prop53
 90
        2
102
RTVSPost2010PropOp53
 70
     1
102
RTVSPost2010Prop54
  1
strokes_ogs.tif
102
RTVSPost2010PropOp54
 70
     1
102
RTVSPost2010Prop55
280
     0
102
RTVSPost2010PropOp55
 70
     1
102
RTVSPost2010Prop56
140
1.0
102
RTVSPost2010PropOp56
 70
     1
102
RTVSPost2010Prop57
140
1.0
102
RTVSPost2010PropOp57
 70
     1
  0
XRECORD
  5
5DC
102
{ACAD_REACTORS
330
5DB
102
}
330
5DB
100
AcDbXrecord
280
     1
102
RTVSPropertyOp0
 70
     1
102
RTVSPropertyOp1
 70
     1
102
RTVSPropertyOp2
 70
     1
102
RTVSPropertyOp3
 70
     1
102
RTVSPropertyOp4
 70
     1
102
RTVSPropertyOp5
 70
     1
102
RTVSPropertyOp6
 70
     1
102
RTVSPropertyOp7
 70
     1
102
RTVSPropertyOp8
 70
     1
102
RTVSPropertyOp9
 70
     1
102
RTVSPropertyOp10
 70
     1
102
RTVSPropertyOp11
 70
     1
102
RTVSPropertyOp12
 70
     1
102
RTVSPropertyOp13
 70
     1
102
RTVSPropertyOp14
 70
     1
102
RTVSPropertyOp15
 70
     1
102
RTVSPropertyOp16
 70
     1
102
RTVSPropertyOp17
 70
     1
102
RTVSPropertyOp18
 70
     1
102
RTVSPropertyOp19
 70
     1
102
RTVSPropertyOp20
 70
     1
102
RTVSPropertyOp21
 70
     1
102
RTVSPropertyOp22
 70
     1
102
RTVSPropertyOp23
 70
     1
102
RTVSPropertyOp24
 70
     1
102
RTVSPropertyOp25
 70
     1
102
RTVSPropertyOp26
 70
     1
102
RTVSPropertyOp27
 70
     1
102
RTVSPropertyOp28
 70
     1
102
RTVSPropertyOp29
 70
     1
102
RTVSPropertyOp30
 70
     1
102
RTVSPropertyOp31
 70
     1
102
RTVSPropertyOp32
 70
     1
102
RTVSPropertyOp33
 70
     1
102
RTVSPropertyOp34
 70
     1
102
RTVSPropertyOp35
 70
     1
102
RTVSPropertyOp36
 70
     1
102
RTVSPropertyOp37
 70
     1
102
RTVSPropertyOp38
 70
     1
102
RTVSPropertyOp39
 70
     1
102
RTVSPropertyOp40
 70
     1
102
RTVSPropertyOp41
 70
     1
102
RTVSPropertyOp42
 70
     1
102
RTVSPropertyOp43
 70
     1
102
RTVSPropertyOp44
 70
     1
102
RTVSPropertyOp45
 70
     1
102
RTVSPropertyOp46
 70
     1
102
RTVSPropertyOp47
 70
     1
102
RTVSPropertyOp48
 70
     1
102
RTVSPropertyOp49
 70
     1
102
RTVSPropertyOp50
 70
     1
102
RTVSPropertyOp51
 70
     0
102
RTVSPropertyOp52
 70
     0
102
RTVSPropertyOp53
 70
     1
102
RTVSPropertyOp54
 70
     1
102
RTVSPropertyOp55
 70
     1
102
RTVSPropertyOp56
 70
     1
102
RTVSPropertyOp57
 70
     1
102
RTVSPost2010Prop28
280
     0
102
RTVSPost2010PropOp28
 70
     1
102
RTVSPost2010Prop29
280
     1
102
RTVSPost2010PropOp29
 70
     1
102
RTVSPost2010Prop30
280
     1
102
RTVSPost2010PropOp30
 70
     1
102
RTVSPost2010Prop31
280
     0
102
RTVSPost2010PropOp31
 70
     1
102
RTVSPost2010Prop32
280
     0
102
RTVSPost2010PropOp32
 70
     1
102
RTVSPost2010Prop33
280
     0
102
RTVSPost2010PropOp33
 70
     1
102
RTVSPost2010Prop34
280
     0
102
RTVSPost2010PropOp34
 70
     1
102
RTVSPost2010Prop35
280
     0
102
RTVSPost2010PropOp35
 70
     1
102
RTVSPost2010Prop36
280
     0
102
RTVSPost2010PropOp36
 70
     1
102
RTVSPost2010Prop37
 90
       50
102
RTVSPost2010PropOp37
 70
     1
102
RTVSPost2010Prop38
140
0.0
102
RTVSPost2010PropOp38
 70
     1
102
RTVSPost2010Prop39
140
1.0
102
RTVSPost2010PropOp39
 70
     1
102
RTVSPost2010Prop40
 90
        0
102
RTVSPost2010PropOp40
 70
     1
102
RTVSPost2010Prop41ColorIndex
 90
       18
102
RTVSPost2010Prop41ColorRGB
 90
        0
102
RTVSPost2010PropOp41
 70
     1
102
RTVSPost2010Prop42
 90
       50
102
RTVSPost2010PropOp42
 70
     1
102
RTVSPost2010Prop43
 90
        3
102
RTVSPost2010PropOp43
 70
     1
102
RTVSPost2010Prop44ColorIndex
 90
        5
102
RTVSPost2010Prop44ColorRGB
 90
      255
102
RTVSPost2010PropOp44
 70
     1
102
RTVSPost2010Prop45
280
     0
102
RTVSPost2010PropOp45
 70
     1
102
RTVSPost2010Prop46
 90
       50
102
RTVSPost2010PropOp46
 70
     1
102
RTVSPost2010Prop47
 90
       50
102
RTVSPost2010PropOp47
 70
     1
102
RTVSPost2010Prop48
 90
       50
102
RTVSPost2010PropOp48
 70
     1
102
RTVSPost2010Prop49
280
     0
102
RTVSPost2010PropOp49
 70
     1
102
RTVSPost2010Prop50
 90
       50
102
RTVSPost2010PropOp50
 70
     1
102
RTVSPost2010Prop51ColorIndex
 90
      256
102
RTVSPost2010Prop51ColorRGB
 90
-16777216
102
RTVSPost2010PropOp51
 70
     0
102
RTVSPost2010Prop52
140
1.0
102
RTVSPost2010PropOp52
 70
     0
102
RTVSPost2010Prop53
 90
        2
102
RTVSPost2010PropOp53
 70
     1
102
RTVSPost2010Prop54
  1
strokes_ogs.tif
102
RTVSPost2010PropOp54
 70
     1
102
RTVSPost2010Prop55
280
     0
102
RTVSPost2010PropOp55
 70
     1
102
RTVSPost2010Prop56
140
1.0
102
RTVSPost2010PropOp56
 70
     1
102
RTVSPost2010Prop57
140
1.0
102
RTVSPost2010PropOp57
 70
     1
  0
XRECORD
  5
604
102
{ACAD_REACTORS
330
603
102
}
330
603
100
AcDbXrecord
280
     1
102
RTVSPropertyOp0
 70
     1
102
RTVSPropertyOp1
 70
     1
102
RTVSPropertyOp2
 70
     1
102
RTVSPropertyOp3
 70
     1
102
RTVSPropertyOp4
 70
     1
102
RTVSPropertyOp5
 70
     1
102
RTVSPropertyOp6
 70
     1
102
RTVSPropertyOp7
 70
     1
102
RTVSPropertyOp8
 70
     1
102
RTVSPropertyOp9
 70
     1
102
RTVSPropertyOp10
 70
     1
102
RTVSPropertyOp11
 70
     1
102
RTVSPropertyOp12
 70
     1
102
RTVSPropertyOp13
 70
     1
102
RTVSPropertyOp14
 70
     1
102
RTVSPropertyOp15
 70
     1
102
RTVSPropertyOp16
 70
     1
102
RTVSPropertyOp17
 70
     1
102
RTVSPropertyOp18
 70
     1
102
RTVSPropertyOp19
 70
     1
102
RTVSPropertyOp20
 70
     1
102
RTVSPropertyOp21
 70
     1
102
RTVSPropertyOp22
 70
     1
102
RTVSPropertyOp23
 70
     1
102
RTVSPropertyOp24
 70
     1
102
RTVSPropertyOp25
 70
     1
102
RTVSPropertyOp26
 70
     1
102
RTVSPropertyOp27
 70
     1
102
RTVSPropertyOp28
 70
     1
102
RTVSPropertyOp29
 70
     1
102
RTVSPropertyOp30
 70
     1
102
RTVSPropertyOp31
 70
     1
102
RTVSPropertyOp32
 70
     1
102
RTVSPropertyOp33
 70
     1
102
RTVSPropertyOp34
 70
     1
102
RTVSPropertyOp35
 70
     1
102
RTVSPropertyOp36
 70
     1
102
RTVSPropertyOp37
 70
     1
102
RTVSPropertyOp38
 70
     1
102
RTVSPropertyOp39
 70
     1
102
RTVSPropertyOp40
 70
     1
102
RTVSPropertyOp41
 70
     1
102
RTVSPropertyOp42
 70
     1
102
RTVSPropertyOp43
 70
     1
102
RTVSPropertyOp44
 70
     1
102
RTVSPropertyOp45
 70
     1
102
RTVSPropertyOp46
 70
     1
102
RTVSPropertyOp47
 70
     1
102
RTVSPropertyOp48
 70
     1
102
RTVSPropertyOp49
 70
     1
102
RTVSPropertyOp50
 70
     1
102
RTVSPropertyOp51
 70
     0
102
RTVSPropertyOp52
 70
     0
102
RTVSPropertyOp53
 70
     1
102
RTVSPropertyOp54
 70
     1
102
RTVSPropertyOp55
 70
     1
102
RTVSPropertyOp56
 70
     1
102
RTVSPropertyOp57
 70
     1
102
RTVSPost2010Prop28
280
     0
102
RTVSPost2010PropOp28
 70
     1
102
RTVSPost2010Prop29
280
     1
102
RTVSPost2010PropOp29
 70
     1
102
RTVSPost2010Prop30
280
     1
102
RTVSPost2010PropOp30
 70
     1
102
RTVSPost2010Prop31
280
     0
102
RTVSPost2010PropOp31
 70
     1
102
RTVSPost2010Prop32
280
     0
102
RTVSPost2010PropOp32
 70
     1
102
RTVSPost2010Prop33
280
     0
102
RTVSPost2010PropOp33
 70
     1
102
RTVSPost2010Prop34
280
     0
102
RTVSPost2010PropOp34
 70
     1
102
RTVSPost2010Prop35
280
     0
102
RTVSPost2010PropOp35
 70
     1
102
RTVSPost2010Prop36
280
     0
102
RTVSPost2010PropOp36
 70
     1
102
RTVSPost2010Prop37
 90
       50
102
RTVSPost2010PropOp37
 70
     1
102
RTVSPost2010Prop38
140
0.0
102
RTVSPost2010PropOp38
 70
     1
102
RTVSPost2010Prop39
140
1.0
102
RTVSPost2010PropOp39
 70
     1
102
RTVSPost2010Prop40
 90
        0
102
RTVSPost2010PropOp40
 70
     1
102
RTVSPost2010Prop41ColorIndex
 90
       18
102
RTVSPost2010Prop41ColorRGB
 90
        0
102
RTVSPost2010PropOp41
 70
     1
102
RTVSPost2010Prop42
 90
       50
102
RTVSPost2010PropOp42
 70
     1
102
RTVSPost2010Prop43
 90
        3
102
RTVSPost2010PropOp43
 70
     1
102
RTVSPost2010Prop44ColorIndex
 90
        5
102
RTVSPost2010Prop44ColorRGB
 90
      255
102
RTVSPost2010PropOp44
 70
     1
102
RTVSPost2010Prop45
280
     0
102
RTVSPost2010PropOp45
 70
     1
102
RTVSPost2010Prop46
 90
       50
102
RTVSPost2010PropOp46
 70
     1
102
RTVSPost2010Prop47
 90
       50
102
RTVSPost2010PropOp47
 70
     1
102
RTVSPost2010Prop48
 90
       50
102
RTVSPost2010PropOp48
 70
     1
102
RTVSPost2010Prop49
280
     0
102
RTVSPost2010PropOp49
 70
     1
102
RTVSPost2010Prop50
 90
       50
102
RTVSPost2010PropOp50
 70
     1
102
RTVSPost2010Prop51ColorIndex
 90
      256
102
RTVSPost2010Prop51ColorRGB
 90
-16777216
102
RTVSPost2010PropOp51
 70
     0
102
RTVSPost2010Prop52
140
1.0
102
RTVSPost2010PropOp52
 70
     0
102
RTVSPost2010Prop53
 90
        2
102
RTVSPost2010PropOp53
 70
     1
102
RTVSPost2010Prop54
  1
strokes_ogs.tif
102
RTVSPost2010PropOp54
 70
     1
102
RTVSPost2010Prop55
280
     0
102
RTVSPost2010PropOp55
 70
     1
102
RTVSPost2010Prop56
140
1.0
102
RTVSPost2010PropOp56
 70
     1
102
RTVSPost2010Prop57
140
1.0
102
RTVSPost2010PropOp57
 70
     1
  0
ENDSEC
  0
EOF
