  0
SECTION
  2
HEADER
  9
$ACADVER
  1
AC1015
  9
$ACADMAINTVER
 70
     6
  9
$DWGCODEPAGE
  3
ANSI_932
  9
$INSBASE
 10
1615.96564246102
 20
211.2841329584403
 30
0.0
  9
$EXTMIN
 10
83.27636629007725
 20
58.68103267223023
 30
0.0
  9
$EXTMAX
 10
1180.724523640084
 20
747.3526249586214
 30
0.0
  9
$LIMMIN
 10
0.0
 20
0.0
  9
$LIMMAX
 10
816.5000000000001
 20
565.0
  9
$ORTHOMODE
 70
     1
  9
$REGENMODE
 70
     1
  9
$FILLMODE
 70
     1
  9
$QTEXTMODE
 70
     0
  9
$MIRRTEXT
 70
     1
  9
$LTSCALE
 40
5.0
  9
$ATTMODE
 70
     1
  9
$TEXTSIZE
 40
7.5
  9
$TRACEWID
 40
0.05
  9
$TEXTSTYLE
  7
KANJI
  9
$CLAYER
  8
2
  9
$CELTYPE
  6
BYLAYER
  9
$CECOLOR
 62
   256
  9
$CELTSCALE
 40
1.0
  9
$DISPSILH
 70
     0
  9
$DIMSCALE
 40
2.5
  9
$DIMASZ
 40
2.0
  9
$DIMEXO
 40
0.5
  9
$DIMDLI
 40
0.0
  9
$DIMRND
 40
0.0
  9
$DIMDLE
 40
0.0
  9
$DIMEXE
 40
1.0
  9
$DIMTP
 40
0.0
  9
$DIMTM
 40
0.0
  9
$DIMTXT
 40
3.0
  9
$DIMCEN
 40
0.09
  9
$DIMTSZ
 40
0.0
  9
$DIMTOL
 70
     0
  9
$DIMLIM
 70
     0
  9
$DIMTIH
 70
     0
  9
$DIMTOH
 70
     0
  9
$DIMSE1
 70
     0
  9
$DIMSE2
 70
     0
  9
$DIMTAD
 70
     0
  9
$DIMZIN
 70
     8
  9
$DIMBLK
  1

  9
$DIMASO
 70
     0
  9
$DIMSHO
 70
     0
  9
$DIMPOST
  1

  9
$DIMAPOST
  1

  9
$DIMALT
 70
     0
  9
$DIMALTD
 70
     2
  9
$DIMALTF
 40
25.4
  9
$DIMLFAC
 40
1.0
  9
$DIMTOFL
 70
     1
  9
$DIMTVP
 40
1.0
  9
$DIMTIX
 70
     1
  9
$DIMSOXD
 70
     1
  9
$DIMSAH
 70
     0
  9
$DIMBLK1
  1

  9
$DIMBLK2
  1

  9
$DIMSTYLE
  2
STANDARD
  9
$DIMCLRD
 70
   256
  9
$DIMCLRE
 70
   256
  9
$DIMCLRT
 70
   256
  9
$DIMTFAC
 40
1.0
  9
$DIMGAP
 40
0.09
  9
$DIMJUST
 70
     0
  9
$DIMSD1
 70
     0
  9
$DIMSD2
 70
     0
  9
$DIMTOLJ
 70
     1
  9
$DIMTZIN
 70
     0
  9
$DIMALTZ
 70
     0
  9
$DIMALTTZ
 70
     0
  9
$DIMUPT
 70
     0
  9
$DIMDEC
 70
     1
  9
$DIMTDEC
 70
     4
  9
$DIMALTU
 70
     2
  9
$DIMALTTD
 70
     2
  9
$DIMTXSTY
  7
STANDARD
  9
$DIMAUNIT
 70
     0
  9
$DIMADEC
 70
     0
  9
$DIMALTRND
 40
0.0
  9
$DIMAZIN
 70
     0
  9
$DIMDSEP
 70
    46
  9
$DIMATFIT
 70
     3
  9
$DIMFRAC
 70
     0
  9
$DIMLDRBLK
  1

  9
$DIMLUNIT
 70
     2
  9
$DIMLWD
 70
    -2
  9
$DIMLWE
 70
    -2
  9
$DIMTMOVE
 70
     0
  9
$LUNITS
 70
     2
  9
$LUPREC
 70
     3
  9
$SKETCHINC
 40
0.1
  9
$FILLETRAD
 40
2.0
  9
$AUNITS
 70
     0
  9
$AUPREC
 70
     3
  9
$MENU
  1
C:\R13\WIN\SUPPORT\ACADFULL
  9
$ELEVATION
 40
0.0
  9
$PELEVATION
 40
0.0
  9
$THICKNESS
 40
0.0
  9
$LIMCHECK
 70
     0
  9
$CHAMFERA
 40
0.0
  9
$CHAMFERB
 40
0.0
  9
$CHAMFERC
 40
0.0
  9
$CHAMFERD
 40
0.0
  9
$SKPOLY
 70
     0
  9
$TDCREATE
 40
2457186.794851516
  9
$TDUCREATE
 40
2457186.419851516
  9
$TDUPDATE
 40
2457870.601105463
  9
$TDUUPDATE
 40
2457870.226105463
  9
$TDINDWG
 40
0.0152374306
  9
$TDUSRTIMER
 40
0.0152371065
  9
$USRTIMER
 70
     1
  9
$ANGBASE
 50
0.0
  9
$ANGDIR
 70
     0
  9
$PDMODE
 70
     0
  9
$PDSIZE
 40
0.0
  9
$PLINEWID
 40
0.0
  9
$SPLFRAME
 70
     0
  9
$SPLINETYPE
 70
     6
  9
$SPLINESEGS
 70
     8
  9
$HANDSEED
  5
60A
  9
$SURFTAB1
 70
     6
  9
$SURFTAB2
 70
     6
  9
$SURFTYPE
 70
     6
  9
$SURFU
 70
     6
  9
$SURFV
 70
     6
  9
$UCSBASE
  2

  9
$UCSNAME
  2

  9
$UCSORG
 10
0.0
 20
0.0
 30
0.0
  9
$UCSXDIR
 10
1.0
 20
0.0
 30
0.0
  9
$UCSYDIR
 10
0.0
 20
1.0
 30
0.0
  9
$UCSORTHOREF
  2

  9
$UCSORTHOVIEW
 70
     0
  9
$UCSORGTOP
 10
0.0
 20
0.0
 30
0.0
  9
$UCSORGBOTTOM
 10
0.0
 20
0.0
 30
0.0
  9
$UCSORGLEFT
 10
0.0
 20
0.0
 30
0.0
  9
$UCSORGRIGHT
 10
0.0
 20
0.0
 30
0.0
  9
$UCSORGFRONT
 10
0.0
 20
0.0
 30
0.0
  9
$UCSORGBACK
 10
0.0
 20
0.0
 30
0.0
  9
$PUCSBASE
  2

  9
$PUCSNAME
  2

  9
$PUCSORG
 10
0.0
 20
0.0
 30
0.0
  9
$PUCSXDIR
 10
1.0
 20
0.0
 30
0.0
  9
$PUCSYDIR
 10
0.0
 20
1.0
 30
0.0
  9
$PUCSORTHOREF
  2

  9
$PUCSORTHOVIEW
 70
     0
  9
$PUCSORGTOP
 10
0.0
 20
0.0
 30
0.0
  9
$PUCSORGBOTTOM
 10
0.0
 20
0.0
 30
0.0
  9
$PUCSORGLEFT
 10
0.0
 20
0.0
 30
0.0
  9
$PUCSORGRIGHT
 10
0.0
 20
0.0
 30
0.0
  9
$PUCSORGFRONT
 10
0.0
 20
0.0
 30
0.0
  9
$PUCSORGBACK
 10
0.0
 20
0.0
 30
0.0
  9
$USERI1
 70
     0
  9
$USERI2
 70
     0
  9
$USERI3
 70
     0
  9
$USERI4
 70
     0
  9
$USERI5
 70
     0
  9
$USERR1
 40
0.0
  9
$USERR2
 40
0.0
  9
$USERR3
 40
0.0
  9
$USERR4
 40
2448925.372986111
  9
$USERR5
 40
0.04166667
  9
$WORLDVIEW
 70
     1
  9
$SHADEDGE
 70
     3
  9
$SHADEDIF
 70
    70
  9
$TILEMODE
 70
     1
  9
$MAXACTVP
 70
    16
  9
$PINSBASE
 10
0.0
 20
0.0
 30
0.0
  9
$PLIMCHECK
 70
     0
  9
$PEXTMIN
 10
1.000000000000000E+20
 20
1.000000000000000E+20
 30
1.000000000000000E+20
  9
$PEXTMAX
 10
-1.000000000000000E+20
 20
-1.000000000000000E+20
 30
-1.000000000000000E+20
  9
$PLIMMIN
 10
0.0
 20
0.0
  9
$PLIMMAX
 10
12.0
 20
9.0
  9
$UNITMODE
 70
     0
  9
$VISRETAIN
 70
     0
  9
$PLINEGEN
 70
     0
  9
$PSLTSCALE
 70
     0
  9
$TREEDEPTH
 70
  3020
  9
$CMLSTYLE
  2
STANDARD
  9
$CMLJUST
 70
     0
  9
$CMLSCALE
 40
1.0
  9
$PROXYGRAPHICS
 70
     1
  9
$MEASUREMENT
 70
     0
  9
$CELWEIGHT
370
    -1
  9
$ENDCAPS
280
     0
  9
$JOINSTYLE
280
     0
  9
$LWDISPLAY
290
     0
  9
$INSUNITS
 70
     0
  9
$HYPERLINKBASE
  1

  9
$STYLESHEET
  1
monochrome.ctb
  9
$XEDIT
290
     1
  9
$CEPSNTYPE
380
     0
  9
$PSTYLEMODE
290
     1
  9
$FINGERPRINTGUID
  2
{BA8486BD-1A7E-4FFB-8941-E80541FD545D}
  9
$VERSIONGUID
  2
{DB7580A4-391C-4C40-8DB2-EB97648A5FEB}
  9
$EXTNAMES
290
     1
  9
$PSVPSCALE
 40
0.0
  9
$OLESTARTUP
290
     0
  0
ENDSEC
  0
SECTION
  2
CLASSES
  0
CLASS
  1
ACDBDICTIONARYWDFLT
  2
AcDbDictionaryWithDefault
  3
ObjectDBX Classes
 90
        0
280
     0
281
     0
  0
CLASS
  1
MATERIAL
  2
AcDbMaterial
  3
ObjectDBX Classes
 90
     1153
280
     0
281
     0
  0
CLASS
  1
SORTENTSTABLE
  2
AcDbSortentsTable
  3
ObjectDBX Classes
 90
        0
280
     0
281
     0
  0
CLASS
  1
VISUALSTYLE
  2
AcDbVisualStyle
  3
ObjectDBX Classes
 90
     4095
280
     0
281
     0
  0
CLASS
  1
SCALE
  2
AcDbScale
  3
ObjectDBX Classes
 90
     1153
280
     0
281
     0
  0
CLASS
  1
DICTIONARYVAR
  2
AcDbDictionaryVar
  3
ObjectDBX Classes
 90
        0
280
     0
281
     0
  0
CLASS
  1
MLEADERSTYLE
  2
AcDbMLeaderStyle
  3
ACDB_MLEADERSTYLE_CLASS
 90
     4095
280
     0
281
     0
  0
CLASS
  1
TABLESTYLE
  2
AcDbTableStyle
  3
ObjectDBX Classes
 90
     4095
280
     0
281
     0
  0
CLASS
  1
ACDBPLACEHOLDER
  2
AcDbPlaceHolder
  3
ObjectDBX Classes
 90
        0
280
     0
281
     0
  0
CLASS
  1
LAYOUT
  2
AcDbLayout
  3
ObjectDBX Classes
 90
        0
280
     0
281
     0
  0
ENDSEC
  0
SECTION
  2
TABLES
  0
TABLE
  2
VPORT
  5
2D
102
{ACAD_XDICTIONARY
360
5CF
102
}
330
0
100
AcDbSymbolTable
 70
     1
  0
VPORT
  5
34
330
2D
100
AcDbSymbolTableRecord
100
AcDbViewportTableRecord
  2
*ACTIVE
 70
     0
 10
0.0
 20
0.0
 11
1.0
 21
1.0
 12
969.4748609978647
 22
433.670647733239
 13
0.0
 23
0.0
 14
1.0
 24
1.0
 15
50.0
 25
50.0
 16
0.0
 26
0.0
 36
1.0
 17
0.0
 27
0.0
 37
0.0
 40
1070.306967589942
 41
2.177611940298507
 42
50.0
 43
0.0
 44
0.0
 50
0.0
 51
0.0
 71
     0
 72
  5000
 73
     1
 74
     0
 75
     0
 76
     0
 77
     0
 78
     0
281
     0
 65
     1
110
0.0
120
0.0
130
0.0
111
1.0
121
0.0
131
0.0
112
0.0
122
1.0
132
0.0
 79
     0
146
0.0
1001
ACAD_NAV_VCDISPLAY
1070
     3
  0
ENDTAB
  0
TABLE
  2
LTYPE
  5
F
330
0
100
AcDbSymbolTable
 70
     2
  0
LTYPE
  5
10
330
F
100
AcDbSymbolTableRecord
100
AcDbLinetypeTableRecord
  2
BYBLOCK
 70
     0
  3

 72
    65
 73
     0
 40
0.0
  0
LTYPE
  5
11
330
F
100
AcDbSymbolTableRecord
100
AcDbLinetypeTableRecord
  2
BYLAYER
 70
     0
  3

 72
    65
 73
     0
 40
0.0
  0
LTYPE
  5
E
330
F
100
AcDbSymbolTableRecord
100
AcDbLinetypeTableRecord
  2
CONTINUOUS
 70
     0
  3
Solid line
 72
    65
 73
     0
 40
0.0
  0
LTYPE
  5
99
330
F
100
AcDbSymbolTableRecord
100
AcDbLinetypeTableRecord
  2
CENTER
 70
     0
  3
____ _ ____ _ ____ _ ____ _ ____ _ ____ _ ____
 72
    65
 73
     4
 40
2.0
 49
1.25
 74
     0
 49
-0.25
 74
     0
 49
0.25
 74
     0
 49
-0.25
 74
     0
  0
ENDTAB
  0
TABLE
  2
LAYER
  5
2
102
{ACAD_XDICTIONARY
360
3
102
}
330
0
100
AcDbSymbolTable
 70
     8
  0
LAYER
  5
1F
102
{ACAD_XDICTIONARY
360
20
102
}
330
2
100
AcDbSymbolTableRecord
100
AcDbLayerTableRecord
  2
0
 70
     0
 62
     7
  6
CONTINUOUS
370
    -3
390
7
  0
LAYER
  5
D1
102
{ACAD_XDICTIONARY
360
D2
102
}
330
2
100
AcDbSymbolTableRecord
100
AcDbLayerTableRecord
  2
1
 70
     0
 62
     9
  6
CONTINUOUS
370
    -3
390
7
  0
LAYER
  5
1
102
{ACAD_XDICTIONARY
360
5
102
}
330
2
100
AcDbSymbolTableRecord
100
AcDbLayerTableRecord
  2
2
 70
     0
 62
     4
  6
CONTINUOUS
370
    -3
390
7
  0
LAYER
  5
CB
102
{ACAD_XDICTIONARY
360
CC
102
}
330
2
100
AcDbSymbolTableRecord
100
AcDbLayerTableRecord
  2
4
 70
     0
 62
     3
  6
CONTINUOUS
370
    -3
390
7
  0
LAYER
  5
96
102
{ACAD_XDICTIONARY
360
97
102
}
330
2
100
AcDbSymbolTableRecord
100
AcDbLayerTableRecord
  2
L-CENTER
 70
     0
 62
     1
  6
CENTER
370
    -3
390
7
  0
LAYER
  5
5C
102
{ACAD_XDICTIONARY
360
5D
102
}
330
2
100
AcDbSymbolTableRecord
100
AcDbLayerTableRecord
  2
3
 70
     0
 62
     2
  6
CONTINUOUS
370
    -3
390
7
  0
LAYER
  5
C6
330
2
100
AcDbSymbolTableRecord
100
AcDbLayerTableRecord
  2
5
 70
     0
 62
     6
  6
CONTINUOUS
370
    -3
390
7
  0
LAYER
  5
5A1
330
2
100
AcDbSymbolTableRecord
100
AcDbLayerTableRecord
  2
Defpoints
 70
     0
 62
     7
  6
CONTINUOUS
290
     0
370
    -3
390
7
  0
ENDTAB
  0
TABLE
  2
STYLE
  5
13
330
0
100
AcDbSymbolTable
 70
     2
  0
STYLE
  5
17
330
13
100
AcDbSymbolTableRecord
100
AcDbTextStyleTableRecord
  2
STANDARD
 70
     0
 40
0.0
 41
1.0
 50
0.0
 71
     0
 42
4.5
  3
TXT
  4

  0
STYLE
  5
12
330
13
100
AcDbSymbolTableRecord
100
AcDbTextStyleTableRecord
  2
KANJI
 70
     0
 40
0.0
 41
1.0
 50
0.0
 71
     0
 42
7.5
  3
TXT
  4
BIGFONT
  0
ENDTAB
  0
TABLE
  2
VIEW
  5
2B
330
0
100
AcDbSymbolTable
 70
     0
  0
ENDTAB
  0
TABLE
  2
UCS
  5
2C
330
0
100
AcDbSymbolTable
 70
     0
  0
ENDTAB
  0
TABLE
  2
APPID
  5
D
330
0
100
AcDbSymbolTable
 70
     4
  0
APPID
  5
C
330
D
100
AcDbSymbolTableRecord
100
AcDbRegAppTableRecord
  2
ACAD
 70
     0
  0
APPID
  5
35
330
D
100
AcDbSymbolTableRecord
100
AcDbRegAppTableRecord
  2
ACAD_NAV_VCDISPLAY
 70
     0
  0
APPID
  5
26
330
D
100
AcDbSymbolTableRecord
100
AcDbRegAppTableRecord
  2
ACAD_PSEXT
 70
     0
  0
APPID
  5
5BF
330
D
100
AcDbSymbolTableRecord
100
AcDbRegAppTableRecord
  2
ACAD_MLEADERVER
 70
     0
  0
ENDTAB
  0
TABLE
  2
DIMSTYLE
  5
16
330
0
100
AcDbSymbolTable
 70
     1
100
AcDbDimStyleTable
  0
DIMSTYLE
105
15
330
16
100
AcDbSymbolTableRecord
100
AcDbDimStyleTableRecord
  2
STANDARD
 70
     0
178
     0
340
17
  0
ENDTAB
  0
TABLE
  2
BLOCK_RECORD
  5
1A
330
0
100
AcDbSymbolTable
 70
     0
  0
BLOCK_RECORD
  5
1B
102
{ACAD_XDICTIONARY
360
1C
102
}
330
1A
100
AcDbSymbolTableRecord
100
AcDbBlockTableRecord
  2
*MODEL_SPACE
340
23
  0
BLOCK_RECORD
  5
27
330
1A
100
AcDbSymbolTableRecord
100
AcDbBlockTableRecord
  2
*PAPER_SPACE
340
2A
  0
ENDTAB
  0
ENDSEC
  0
SECTION
  2
BLOCKS
  0
BLOCK
  5
1E
330
1B
100
AcDbEntity
  8
0
100
AcDbBlockBegin
  2
*MODEL_SPACE
 70
     0
 10
0.0
 20
0.0
 30
0.0
  3
*MODEL_SPACE
  1

  0
ENDBLK
  5
22
330
1B
100
AcDbEntity
  8
0
100
AcDbBlockEnd
  0
BLOCK
  5
28
330
27
100
AcDbEntity
 67
     1
  8
0
100
AcDbBlockBegin
  2
*PAPER_SPACE
 70
     0
 10
0.0
 20
0.0
 30
0.0
  3
*PAPER_SPACE
  1

  0
ENDBLK
  5
29
330
27
100
AcDbEntity
 67
     1
  8
0
100
AcDbBlockEnd
  0
ENDSEC
  0
SECTION
  2
ENTITIES
  0
ARC
  5
19F
330
1B
100
AcDbEntity
  8
4
100
AcDbCircle
 10
335.8493182113658
 20
540.2744432581102
 30
0.0
 40
20.36274126524963
100
AcDbArc
 50
207.8752808740772
 51
332.1247191259228
  0
ARC
  5
1A0
330
1B
100
AcDbEntity
  8
4
100
AcDbCircle
 10
431.8493177113656
 20
537.7538738761841
 30
0.0
 40
2.0
100
AcDbArc
 50
270.0
 51
0.0
  0
ARC
  5
1A1
330
1B
100
AcDbEntity
  8
4
100
AcDbCircle
 10
367.8493047113657
 20
537.7538738761841
 30
0.0
 40
2.0
100
AcDbArc
 50
180.0
 51
270.0
  0
LINE
  5
1A2
330
1B
100
AcDbEntity
  8
4
 62
     3
100
AcDbLine
 10
433.8493177113656
 20
538.7538738761841
 30
0.0
 11
433.8493177113656
 21
537.7538738761841
 31
0.0
  0
LINE
  5
1A3
330
1B
100
AcDbEntity
  8
4
 62
     3
100
AcDbLine
 10
365.8493047113657
 20
537.7538738761841
 30
0.0
 11
365.8493047113657
 21
538.7538738761841
 31
0.0
  0
ARC
  5
1A4
330
1B
100
AcDbEntity
  8
4
 62
     3
100
AcDbCircle
 10
599.8197673319797
 20
322.0969422552744
 30
0.0
 40
1.0
100
AcDbArc
 50
85.9999999999905
 51
175.999999999997
  0
LINE
  5
1A5
330
1B
100
AcDbEntity
  8
4
 62
     3
100
AcDbLine
 10
599.889523805724
 20
323.0945063055342
 30
0.0
 11
602.3037933647553
 21
322.9256841320988
 31
0.0
  0
LINE
  5
1A6
330
1B
100
AcDbEntity
  8
4
 62
     3
100
AcDbLine
 10
598.006099223902
 20
296.1602799412112
 30
0.0
 11
600.188480389461
 21
296.0076729838581
 31
0.0
  0
ARC
  5
1A7
330
1B
100
AcDbEntity
  8
4
 62
     3
100
AcDbCircle
 10
598.0758556976463
 20
297.1578439914711
 30
0.0
 40
1.0
100
AcDbArc
 50
175.999999999997
 51
265.9999999999905
  0
LINE
  5
1A8
330
1B
100
AcDbEntity
  8
4
 62
     3
100
AcDbLine
 10
597.0782916473864
 20
297.2276004652152
 30
0.0
 11
598.8222032817199
 21
322.1666987290185
 31
0.0
  0
LINE
  5
1AA
330
1B
100
AcDbEntity
  8
4
 62
     3
100
AcDbLine
 10
317.8493182113658
 20
260.9878796722304
 30
0.0
 11
317.8493182113658
 21
272.918653204616
 31
0.0
  0
ARC
  5
1AB
330
1B
100
AcDbEntity
  8
4
 62
     3
100
AcDbCircle
 10
431.8493182113658
 20
320.9878776722305
 30
0.0
 40
1.9999995
100
AcDbArc
 50
0.0
 51
90.0
  0
LINE
  5
1AC
330
1B
100
AcDbEntity
  8
4
 62
     3
100
AcDbLine
 10
423.4155082113662
 20
319.4878776722305
 30
0.0
 11
426.8493187113659
 21
319.4878776722305
 31
0.0
  0
ARC
  5
1AD
330
1B
100
AcDbEntity
  8
4
 62
     3
100
AcDbCircle
 10
423.4155082113662
 20
318.4878786722304
 30
0.0
 40
1.0000005
100
AcDbArc
 50
90.0
 51
149.0362430000028
  0
ARC
  5
1AE
330
1B
100
AcDbEntity
  8
4
 62
     3
100
AcDbCircle
 10
426.8493187113659
 20
318.4878786722304
 30
0.0
 40
1.0000005
100
AcDbArc
 50
0.0
 51
90.0
  0
LINE
  5
1AF
330
1B
100
AcDbEntity
  8
4
 62
     3
100
AcDbLine
 10
410.3493187113659
 20
311.9878776722305
 30
0.0
 11
407.3493187113659
 21
311.9878776722305
 31
0.0
  0
ARC
  5
1B0
330
1B
100
AcDbEntity
  8
4
 62
     3
100
AcDbCircle
 10
431.8493182113658
 20
297.9878826722304
 30
0.0
 40
1.9999995
100
AcDbArc
 50
270.0
 51
0.0
  0
ARC
  5
1B1
330
1B
100
AcDbEntity
  8
4
 62
     3
100
AcDbCircle
 10
429.3493177113656
 20
305.9878776722305
 30
0.0
 40
1.0000005
100
AcDbArc
 50
0.0
 51
90.0
  0
LINE
  5
1B2
330
1B
100
AcDbEntity
  8
4
 62
     3
100
AcDbLine
 10
423.8493187113659
 20
299.4878781722305
 30
0.0
 11
426.8493187113659
 21
299.4878781722305
 31
0.0
  0
ARC
  5
1B3
330
1B
100
AcDbEntity
  8
4
 62
     3
100
AcDbCircle
 10
421.8493177113656
 20
300.9878781722305
 30
0.0
 40
1.0000005
100
AcDbArc
 50
0.0
 51
90.0
  0
LINE
  5
1B4
330
1B
100
AcDbEntity
  8
4
 62
     3
100
AcDbLine
 10
422.8493182113658
 20
300.9878781722305
 30
0.0
 11
422.8493182113658
 21
300.4878786722304
 31
0.0
  0
ARC
  5
1B5
330
1B
100
AcDbEntity
  8
4
 62
     3
100
AcDbCircle
 10
423.8493187113659
 20
300.4878786722304
 30
0.0
 40
1.0000005
100
AcDbArc
 50
180.0
 51
270.0
  0
LINE
  5
1B6
330
1B
100
AcDbEntity
  8
4
 62
     3
100
AcDbLine
 10
430.3493182113658
 20
305.9878776722305
 30
0.0
 11
430.3493182113658
 21
302.9878776722305
 31
0.0
  0
LINE
  5
1B7
330
1B
100
AcDbEntity
  8
4
 62
     3
100
AcDbLine
 10
428.8493182113658
 20
301.9878786722304
 30
0.0
 11
429.3493177113656
 21
301.9878786722304
 31
0.0
  0
LINE
  5
1B8
330
1B
100
AcDbEntity
  8
4
 62
     3
100
AcDbLine
 10
427.8493177113656
 20
300.4878786722304
 30
0.0
 11
427.8493177113656
 21
300.9878781722305
 31
0.0
  0
ARC
  5
1B9
330
1B
100
AcDbEntity
  8
4
 62
     3
100
AcDbCircle
 10
426.8493187113659
 20
300.4878786722304
 30
0.0
 40
1.0000005
100
AcDbArc
 50
270.0
 51
0.0
  0
ARC
  5
1BA
330
1B
100
AcDbEntity
  8
4
 62
     3
100
AcDbCircle
 10
428.8493182113658
 20
300.9878781722305
 30
0.0
 40
1.0000005
100
AcDbArc
 50
90.0
 51
180.0
  0
ARC
  5
1BB
330
1B
100
AcDbEntity
  8
4
 62
     3
100
AcDbCircle
 10
429.3493177113656
 20
302.9878776722305
 30
0.0
 40
1.0000005
100
AcDbArc
 50
270.0
 51
0.0
  0
LINE
  5
1BC
330
1B
100
AcDbEntity
  8
4
 62
     3
100
AcDbLine
 10
428.8493182113658
 20
306.9878781722305
 30
0.0
 11
429.3493177113656
 21
306.9878781722305
 31
0.0
  0
ARC
  5
1BD
330
1B
100
AcDbEntity
  8
4
 62
     3
100
AcDbCircle
 10
428.8493182113658
 20
307.9878786722304
 30
0.0
 40
1.0000005
100
AcDbArc
 50
180.0
 51
270.0
  0
LINE
  5
1BE
330
1B
100
AcDbEntity
  8
4
 62
     3
100
AcDbLine
 10
410.3493187113659
 20
306.9878781722305
 30
0.0
 11
407.3493187113659
 21
306.9878781722305
 31
0.0
  0
LINE
  5
1BF
330
1B
100
AcDbEntity
  8
4
 62
     3
100
AcDbLine
 10
411.3493177113656
 20
307.9878786722304
 30
0.0
 11
411.3493177113656
 21
310.9878786722304
 31
0.0
  0
ARC
  5
1C0
330
1B
100
AcDbEntity
  8
4
 62
     3
100
AcDbCircle
 10
410.3493187113659
 20
307.9878786722304
 30
0.0
 40
1.0000005
100
AcDbArc
 50
270.0
 51
0.0
  0
LINE
  5
1C1
330
1B
100
AcDbEntity
  8
4
 62
     3
100
AcDbLine
 10
415.3493182113658
 20
306.7108941722306
 30
0.0
 11
415.3493182113658
 21
302.9878776722305
 31
0.0
  0
ARC
  5
1C2
330
1B
100
AcDbEntity
  8
4
 62
     3
100
AcDbCircle
 10
416.3493187113659
 20
302.9878776722305
 30
0.0
 40
1.0000005
100
AcDbArc
 50
180.0
 51
270.0
  0
ARC
  5
1C3
330
1B
100
AcDbEntity
  8
4
 62
     3
100
AcDbCircle
 10
416.3493187113659
 20
306.7108941722306
 30
0.0
 40
1.0000005
100
AcDbArc
 50
149.0362430000028
 51
180.0
  0
LINE
  5
1C4
330
1B
100
AcDbEntity
  8
4
 62
     3
100
AcDbLine
 10
416.3493187113659
 20
301.9878786722304
 30
0.0
 11
421.8493177113656
 21
301.9878786722304
 31
0.0
  0
ARC
  5
1C5
330
1B
100
AcDbEntity
  8
4
 62
     3
100
AcDbCircle
 10
410.3493187113659
 20
310.9878786722304
 30
0.0
 40
1.0000005
100
AcDbArc
 50
0.0
 51
90.0
  0
LINE
  5
1C6
330
1B
100
AcDbEntity
  8
4
 62
     3
100
AcDbLine
 10
433.8493177113656
 20
320.9878776722305
 30
0.0
 11
433.849317711366
 21
297.9878826722304
 31
0.0
  0
LINE
  5
1C7
330
1B
100
AcDbEntity
  8
4
 62
     3
100
AcDbLine
 10
415.4918257113655
 20
307.2253896722304
 30
0.0
 11
422.5580152113658
 21
319.0023741722305
 31
0.0
  0
LINE
  5
1C8
330
1B
100
AcDbEntity
  8
4
 62
     3
100
AcDbLine
 10
427.8493177113656
 20
307.9878786722304
 30
0.0
 11
427.8493177113656
 21
318.4878786722304
 31
0.0
  0
ARC
  5
1C9
330
1B
100
AcDbEntity
  8
4
 62
     3
100
AcDbCircle
 10
398.3493127113657
 20
315.4878756722305
 30
0.0
 40
4.0000005
100
AcDbArc
 50
0.0
 51
90.0
  0
LINE
  5
1CA
330
1B
100
AcDbEntity
  8
4
 62
     3
100
AcDbLine
 10
402.3493117113658
 20
314.6113521722305
 30
0.0
 11
402.3493117113658
 21
315.4878756722305
 31
0.0
  0
ARC
  5
1CB
330
1B
100
AcDbEntity
  8
4
 62
     3
100
AcDbCircle
 10
388.3493092113659
 20
318.4878756722305
 30
0.0
 40
1.0000005
100
AcDbArc
 50
90.0
 51
180.0
  0
LINE
  5
1CC
330
1B
100
AcDbEntity
  8
4
 62
     3
100
AcDbLine
 10
388.3493092113659
 20
319.4878761722305
 30
0.0
 11
398.3493127113657
 21
319.4878761722305
 31
0.0
  0
LINE
  5
1CD
330
1B
100
AcDbEntity
  8
4
 62
     3
100
AcDbLine
 10
370.3493422113657
 20
319.4878761722305
 30
0.0
 11
373.3493422113657
 21
319.4878806722304
 31
0.0
  0
ARC
  5
1CE
330
1B
100
AcDbEntity
  8
4
 62
     3
100
AcDbCircle
 10
373.3493392113656
 20
318.4878771722306
 30
0.0
 40
1.0000005
100
AcDbArc
 50
359.9998459985447
 51
89.99984599997813
  0
ARC
  5
1CF
330
1B
100
AcDbEntity
  8
4
 62
     3
100
AcDbCircle
 10
367.8493042113656
 20
320.9878776722305
 30
0.0
 40
1.9999995
100
AcDbArc
 50
90.0
 51
180.0
  0
ARC
  5
1D0
330
1B
100
AcDbEntity
  8
4
 62
     3
100
AcDbCircle
 10
370.3493407113661
 20
318.4878786722304
 30
0.0
 40
1.0000005
100
AcDbArc
 50
89.99988400002549
 51
179.9998839998386
  0
ARC
  5
1D1
330
1B
100
AcDbEntity
  8
4
 62
     3
100
AcDbCircle
 10
398.3493127113657
 20
304.3644006722304
 30
0.0
 40
4.0000005
100
AcDbArc
 50
0.0
 51
52.020127999994
  0
ARC
  5
1D2
330
1B
100
AcDbEntity
  8
4
 62
     3
100
AcDbCircle
 10
398.3493127113657
 20
303.4878756722303
 30
0.0
 40
4.0000005
100
AcDbArc
 50
270.0
 51
0.0
  0
LINE
  5
1D3
330
1B
100
AcDbEntity
  8
4
 62
     3
100
AcDbLine
 10
402.3493117113658
 20
304.3644006722304
 30
0.0
 11
402.3493117113658
 21
303.4878756722303
 31
0.0
  0
LINE
  5
1D4
330
1B
100
AcDbEntity
  8
4
 62
     3
100
AcDbLine
 10
406.3493182113658
 20
307.9878786722304
 30
0.0
 11
406.3493182113658
 21
310.9878786722304
 31
0.0
  0
LINE
  5
1D5
330
1B
100
AcDbEntity
  8
4
 62
     3
100
AcDbLine
 10
383.3493022113658
 20
300.4878786722304
 30
0.0
 11
383.3493022113658
 21
303.4878786722304
 31
0.0
  0
ARC
  5
1D6
330
1B
100
AcDbEntity
  8
4
 62
     3
100
AcDbCircle
 10
388.3493092113659
 20
300.4878756722303
 30
0.0
 40
1.0000005
100
AcDbArc
 50
180.0
 51
270.0
  0
LINE
  5
1D7
330
1B
100
AcDbEntity
  8
4
 62
     3
100
AcDbLine
 10
388.3493092113659
 20
299.4878766722306
 30
0.0
 11
398.3493127113657
 21
299.4878766722306
 31
0.0
  0
LINE
  5
1D8
330
1B
100
AcDbEntity
  8
4
 62
     3
100
AcDbLine
 10
370.3493017113656
 20
299.4878766722306
 30
0.0
 11
382.3493017113656
 21
299.4878781722305
 31
0.0
  0
LINE
  5
1D9
330
1B
100
AcDbEntity
  8
4
 62
     3
100
AcDbLine
 10
375.3493042113656
 20
304.4878776722305
 30
0.0
 11
382.3493017113656
 21
304.4878776722305
 31
0.0
  0
ARC
  5
1DA
330
1B
100
AcDbEntity
  8
4
 62
     3
100
AcDbCircle
 10
375.3493042113656
 20
305.4878781722305
 30
0.0
 40
1.0000005
100
AcDbArc
 50
180.0
 51
270.0
  0
ARC
  5
1DB
330
1B
100
AcDbEntity
  8
4
 62
     3
100
AcDbCircle
 10
367.8493042113656
 20
297.9878826722304
 30
0.0
 40
1.9999995
100
AcDbArc
 50
180.0
 51
270.0
  0
ARC
  5
1DC
330
1B
100
AcDbEntity
  8
4
 62
     3
100
AcDbCircle
 10
370.3493047113657
 20
300.4878786722304
 30
0.0
 40
1.0000005
100
AcDbArc
 50
179.9998839998386
 51
269.9998840000255
  0
ARC
  5
1DD
330
1B
100
AcDbEntity
  8
4
 62
     3
100
AcDbCircle
 10
382.3493017113656
 20
303.4878786722304
 30
0.0
 40
1.0000005
100
AcDbArc
 50
0.0
 51
90.0
  0
ARC
  5
1DE
330
1B
100
AcDbEntity
  8
4
 62
     3
100
AcDbCircle
 10
382.3493017113656
 20
300.4878786722304
 30
0.0
 40
1.0000005
100
AcDbArc
 50
270.0
 51
0.0
  0
LINE
  5
1E0
330
1B
100
AcDbEntity
  8
4
 62
     3
100
AcDbLine
 10
353.8493182113658
 20
260.9878796722304
 30
0.0
 11
353.8493182113658
 21
272.918653204616
 31
0.0
  0
LINE
  5
1E1
330
1B
100
AcDbEntity
  8
4
 62
     3
100
AcDbLine
 10
365.8493047113657
 20
297.9878826722304
 30
0.0
 11
365.8493047113657
 21
320.9878776722305
 31
0.0
  0
LINE
  5
1E2
330
1B
100
AcDbEntity
  8
4
 62
     3
100
AcDbLine
 10
387.3493087113662
 20
300.4878756722303
 30
0.0
 11
387.3493087113662
 21
318.4878756722305
 31
0.0
  0
LINE
  5
1E3
330
1B
100
AcDbEntity
  8
4
 62
     3
100
AcDbLine
 10
369.3493042113656
 20
300.4878801722305
 30
0.0
 11
369.3493402113659
 21
318.4878801722305
 31
0.0
  0
LINE
  5
1E4
330
1B
100
AcDbEntity
  8
4
 62
     3
100
AcDbLine
 10
374.3493022113658
 20
305.4878781722305
 30
0.0
 11
374.3493397113658
 21
318.4878756722305
 31
0.0
  0
ARC
  5
1E5
330
1B
100
AcDbEntity
  8
4
 62
     3
100
AcDbCircle
 10
398.3493127113657
 20
314.6113521722305
 30
0.0
 40
4.0000005
100
AcDbArc
 50
307.979872000006
 51
0.0
  0
ARC
  5
1E6
330
1B
100
AcDbEntity
  8
4
 62
     3
100
AcDbCircle
 10
402.3493117113658
 20
309.4878756722303
 30
0.0
 40
2.5000005
100
AcDbArc
 50
127.9798719999962
 51
232.0201280000038
  0
ARC
  5
1E7
330
1B
100
AcDbEntity
  8
4
 62
     3
100
AcDbCircle
 10
335.8493182113658
 20
260.9878796722305
 30
0.0
 40
18.0
100
AcDbArc
 50
180.0
 51
0.0
  0
LINE
  5
1E8
330
1B
100
AcDbEntity
  8
4
 62
     3
100
AcDbLine
 10
367.8493042113656
 20
295.9878816722305
 30
0.0
 11
431.8493182113658
 21
295.9878816722305
 31
0.0
  0
LINE
  5
1E9
330
1B
100
AcDbEntity
  8
4
 62
     3
100
AcDbLine
 10
367.8493042113656
 20
322.9878786722304
 30
0.0
 11
431.8493182113658
 21
322.9878786722304
 31
0.0
  0
ARC
  5
1EA
330
1B
100
AcDbEntity
  8
4
 62
     3
100
AcDbCircle
 10
407.3493187113659
 20
310.9878786722304
 30
0.0
 40
1.0000005
100
AcDbArc
 50
90.0
 51
180.0
  0
ARC
  5
1EB
330
1B
100
AcDbEntity
  8
4
 62
     3
100
AcDbCircle
 10
407.3493187113659
 20
307.9878786722304
 30
0.0
 40
1.0000005
100
AcDbArc
 50
180.0
 51
270.0
  0
LINE
  5
1EC
330
1B
100
AcDbEntity
  8
2
100
AcDbLine
 10
1047.859199788855
 20
269.2243941468899
 30
0.0
 11
1049.302575461829
 21
271.7243941468899
 31
0.0
  0
LINE
  5
1ED
330
1B
100
AcDbEntity
  8
2
100
AcDbLine
 10
1044.972448442906
 20
269.2243941468899
 30
0.0
 11
1047.859199788855
 21
269.2243941468899
 31
0.0
  0
LINE
  5
1EE
330
1B
100
AcDbEntity
  8
2
100
AcDbLine
 10
1043.529072769932
 20
271.7243941468899
 30
0.0
 11
1044.972448442906
 21
269.2243941468899
 31
0.0
  0
LINE
  5
1EF
330
1B
100
AcDbEntity
  8
2
100
AcDbLine
 10
1044.972448442906
 20
274.2243941468901
 30
0.0
 11
1047.859199788855
 21
274.2243941468901
 31
0.0
  0
LINE
  5
1F0
330
1B
100
AcDbEntity
  8
2
100
AcDbLine
 10
1043.529072769932
 20
271.7243941468899
 30
0.0
 11
1044.972448442906
 21
274.2243941468901
 31
0.0
  0
LINE
  5
1F1
330
1B
100
AcDbEntity
  8
2
100
AcDbLine
 10
1047.859199788855
 20
274.2243941468901
 30
0.0
 11
1049.302575461829
 21
271.7243941468899
 31
0.0
  0
CIRCLE
  5
1F2
330
1B
100
AcDbEntity
  8
4
100
AcDbCircle
 10
1046.41582411588
 20
271.7243941468899
 30
0.0
 40
5.75
  0
CIRCLE
  5
1F3
330
1B
100
AcDbEntity
  8
4
100
AcDbCircle
 10
1046.41582411588
 20
271.7243941468899
 30
0.0
 40
5.0
  0
LINE
  5
1F4
330
1B
100
AcDbEntity
  8
2
100
AcDbLine
 10
945.9724484429056
 20
274.2243941468896
 30
0.0
 11
944.5290727699315
 21
271.7243941468895
 31
0.0
  0
LINE
  5
1F5
330
1B
100
AcDbEntity
  8
2
100
AcDbLine
 10
950.3025754618287
 20
271.7243941468895
 30
0.0
 11
948.8591997888547
 21
274.2243941468896
 31
0.0
  0
LINE
  5
1F6
330
1B
100
AcDbEntity
  8
2
100
AcDbLine
 10
948.8591997888547
 20
274.2243941468896
 30
0.0
 11
945.9724484429056
 21
274.2243941468896
 31
0.0
  0
LINE
  5
1F7
330
1B
100
AcDbEntity
  8
2
100
AcDbLine
 10
950.3025754618287
 20
271.7243941468895
 30
0.0
 11
948.8591997888547
 21
269.2243941468895
 31
0.0
  0
LINE
  5
1F8
330
1B
100
AcDbEntity
  8
2
100
AcDbLine
 10
948.8591997888547
 20
269.2243941468895
 30
0.0
 11
945.9724484429056
 21
269.2243941468895
 31
0.0
  0
LINE
  5
1F9
330
1B
100
AcDbEntity
  8
2
100
AcDbLine
 10
945.9724484429056
 20
269.2243941468895
 30
0.0
 11
944.5290727699315
 21
271.7243941468895
 31
0.0
  0
CIRCLE
  5
1FA
330
1B
100
AcDbEntity
  8
4
100
AcDbCircle
 10
947.4158241158806
 20
271.7243941468895
 30
0.0
 40
5.0
  0
CIRCLE
  5
1FB
330
1B
100
AcDbEntity
  8
4
100
AcDbCircle
 10
947.4158241158806
 20
271.7243941468895
 30
0.0
 40
5.75
  0
LINE
  5
1FC
330
1B
100
AcDbEntity
  8
2
100
AcDbLine
 10
1047.859199788855
 20
97.75136419757098
 30
0.0
 11
1049.302575461829
 21
100.2513641975711
 31
0.0
  0
LINE
  5
1FD
330
1B
100
AcDbEntity
  8
2
100
AcDbLine
 10
1043.529072769933
 20
100.2513641975711
 30
0.0
 11
1044.972448442907
 21
97.75136419757098
 31
0.0
  0
LINE
  5
1FE
330
1B
100
AcDbEntity
  8
2
100
AcDbLine
 10
1044.972448442907
 20
97.75136419757098
 30
0.0
 11
1047.859199788855
 21
97.75136419757098
 31
0.0
  0
LINE
  5
1FF
330
1B
100
AcDbEntity
  8
2
100
AcDbLine
 10
1043.529072769933
 20
100.2513641975711
 30
0.0
 11
1044.972448442907
 21
102.7513641975711
 31
0.0
  0
LINE
  5
200
330
1B
100
AcDbEntity
  8
2
100
AcDbLine
 10
1044.972448442907
 20
102.7513641975711
 30
0.0
 11
1047.859199788855
 21
102.7513641975711
 31
0.0
  0
LINE
  5
201
330
1B
100
AcDbEntity
  8
2
100
AcDbLine
 10
1047.859199788855
 20
102.7513641975711
 30
0.0
 11
1049.302575461829
 21
100.2513641975711
 31
0.0
  0
CIRCLE
  5
202
330
1B
100
AcDbEntity
  8
4
100
AcDbCircle
 10
1046.415824115881
 20
100.2513641975711
 30
0.0
 40
5.0
  0
CIRCLE
  5
203
330
1B
100
AcDbEntity
  8
4
100
AcDbCircle
 10
1046.415824115881
 20
100.2513641975711
 30
0.0
 40
5.75
  0
LINE
  5
204
330
1B
100
AcDbEntity
  8
2
100
AcDbLine
 10
945.972448442906
 20
102.7513641975711
 30
0.0
 11
944.5290727699324
 21
100.2513641975711
 31
0.0
  0
LINE
  5
205
330
1B
100
AcDbEntity
  8
2
100
AcDbLine
 10
948.8591997888547
 20
102.7513641975711
 30
0.0
 11
945.972448442906
 21
102.7513641975711
 31
0.0
  0
LINE
  5
206
330
1B
100
AcDbEntity
  8
2
100
AcDbLine
 10
950.3025754618287
 20
100.2513641975711
 30
0.0
 11
948.8591997888547
 21
102.7513641975711
 31
0.0
  0
LINE
  5
207
330
1B
100
AcDbEntity
  8
2
100
AcDbLine
 10
948.8591997888547
 20
97.75136419757098
 30
0.0
 11
945.9724484429065
 21
97.75136419757098
 31
0.0
  0
LINE
  5
208
330
1B
100
AcDbEntity
  8
2
100
AcDbLine
 10
950.3025754618287
 20
100.2513641975711
 30
0.0
 11
948.8591997888547
 21
97.75136419757098
 31
0.0
  0
LINE
  5
209
330
1B
100
AcDbEntity
  8
2
100
AcDbLine
 10
945.9724484429065
 20
97.75136419757098
 30
0.0
 11
944.5290727699324
 21
100.2513641975711
 31
0.0
  0
CIRCLE
  5
20A
330
1B
100
AcDbEntity
  8
4
100
AcDbCircle
 10
947.4158241158806
 20
100.2513641975711
 30
0.0
 40
5.75
  0
CIRCLE
  5
20B
330
1B
100
AcDbEntity
  8
4
100
AcDbCircle
 10
947.4158241158806
 20
100.2513641975711
 30
0.0
 40
5.0
  0
LINE
  5
20C
330
1B
100
AcDbEntity
  8
2
100
AcDbLine
 10
1097.359199788855
 20
188.4878791722305
 30
0.0
 11
1098.802575461829
 21
185.9878791722305
 31
0.0
  0
LINE
  5
20D
330
1B
100
AcDbEntity
  8
2
100
AcDbLine
 10
1094.472448442907
 20
188.4878791722305
 30
0.0
 11
1097.359199788855
 21
188.4878791722305
 31
0.0
  0
LINE
  5
20E
330
1B
100
AcDbEntity
  8
2
100
AcDbLine
 10
1093.029072769933
 20
185.9878791722305
 30
0.0
 11
1094.472448442907
 21
188.4878791722305
 31
0.0
  0
LINE
  5
20F
330
1B
100
AcDbEntity
  8
2
100
AcDbLine
 10
1094.472448442907
 20
183.4878791722304
 30
0.0
 11
1097.359199788855
 21
183.4878791722302
 31
0.0
  0
LINE
  5
210
330
1B
100
AcDbEntity
  8
2
100
AcDbLine
 10
1093.029072769933
 20
185.9878791722305
 30
0.0
 11
1094.472448442907
 21
183.4878791722304
 31
0.0
  0
LINE
  5
211
330
1B
100
AcDbEntity
  8
2
100
AcDbLine
 10
1097.359199788855
 20
183.4878791722302
 30
0.0
 11
1098.802575461829
 21
185.9878791722305
 31
0.0
  0
CIRCLE
  5
212
330
1B
100
AcDbEntity
  8
4
100
AcDbCircle
 10
1095.915824115881
 20
185.9878791722304
 30
0.0
 40
5.75
  0
CIRCLE
  5
213
330
1B
100
AcDbEntity
  8
4
100
AcDbCircle
 10
1095.915824115881
 20
185.9878791722304
 30
0.0
 40
5.0
  0
LINE
  5
214
330
1B
100
AcDbEntity
  8
2
100
AcDbLine
 10
900.8025754618287
 20
185.9878791722305
 30
0.0
 11
899.3591997888547
 21
188.4878791722305
 31
0.0
  0
LINE
  5
215
330
1B
100
AcDbEntity
  8
2
100
AcDbLine
 10
896.4724484429065
 20
183.4878791722302
 30
0.0
 11
895.0290727699324
 21
185.9878791722305
 31
0.0
  0
LINE
  5
216
330
1B
100
AcDbEntity
  8
2
100
AcDbLine
 10
899.3591997888547
 20
183.4878791722304
 30
0.0
 11
896.4724484429065
 21
183.4878791722302
 31
0.0
  0
LINE
  5
217
330
1B
100
AcDbEntity
  8
2
100
AcDbLine
 10
899.3591997888547
 20
188.4878791722305
 30
0.0
 11
896.472448442906
 21
188.4878791722305
 31
0.0
  0
LINE
  5
218
330
1B
100
AcDbEntity
  8
2
100
AcDbLine
 10
900.8025754618287
 20
185.9878791722305
 30
0.0
 11
899.3591997888547
 21
183.4878791722304
 31
0.0
  0
LINE
  5
219
330
1B
100
AcDbEntity
  8
2
100
AcDbLine
 10
896.472448442906
 20
188.4878791722305
 30
0.0
 11
895.0290727699324
 21
185.9878791722305
 31
0.0
  0
CIRCLE
  5
21A
330
1B
100
AcDbEntity
  8
4
100
AcDbCircle
 10
897.9158241158806
 20
185.9878791722304
 30
0.0
 40
5.0
  0
CIRCLE
  5
21B
330
1B
100
AcDbEntity
  8
4
100
AcDbCircle
 10
897.9158241158806
 20
185.9878791722304
 30
0.0
 40
5.75
  0
ARC
  5
21C
330
1B
100
AcDbEntity
  8
4
100
AcDbCircle
 10
912.3574215895472
 20
210.3574618973108
 30
0.0
 40
3.0
100
AcDbArc
 50
163.92311168739
 51
275.1263803664074
  0
ARC
  5
21D
330
1B
100
AcDbEntity
  8
4
100
AcDbCircle
 10
972.5462413908011
 20
270.5462816985638
 30
0.0
 40
3.0
100
AcDbArc
 50
354.8736196335946
 51
106.07688831261
  0
ARC
  5
21E
330
1B
100
AcDbEntity
  8
4
100
AcDbCircle
 10
960.1946727802718
 20
222.7090305078401
 30
0.0
 40
3.0
100
AcDbArc
 50
97.10223814956889
 51
172.897761850429
  0
ARC
  5
21F
330
1B
100
AcDbEntity
  8
4
100
AcDbCircle
 10
957.5378747037433
 20
225.3658285843686
 30
0.0
 40
3.0
100
AcDbArc
 50
97.61903501642539
 51
172.3809649835703
  0
ARC
  5
220
330
1B
100
AcDbEntity
  8
4
100
AcDbCircle
 10
947.442558932837
 20
216.5170584729541
 30
0.0
 40
6.0
100
AcDbArc
 50
275.1263803664074
 51
354.2741567175669
  0
ARC
  5
221
330
1B
100
AcDbEntity
  8
4
100
AcDbCircle
 10
966.3866448151579
 20
235.461144355275
 30
0.0
 40
6.0
100
AcDbArc
 50
275.7258432824342
 51
354.8736196335938
  0
LINE
  5
222
330
1B
100
AcDbEntity
  8
L-CENTER
 48
2.5
100
AcDbLine
 10
953.4158241158806
 20
261.3320893014761
 30
0.0
 11
941.4158241158806
 21
282.1166989923031
 31
0.0
  0
LINE
  5
223
330
1B
100
AcDbEntity
  8
4
100
AcDbLine
 10
975.5342414830405
 20
270.2782230318935
 30
0.0
 11
972.3626449996367
 21
234.9250270219345
 31
0.0
  0
ARC
  5
224
330
1B
100
AcDbEntity
  8
4
100
AcDbCircle
 10
1033.63697545149
 20
222.7090305078401
 30
0.0
 40
3.0
100
AcDbArc
 50
7.102238149572133
 51
82.89776185043112
  0
ARC
  5
225
330
1B
100
AcDbEntity
  8
4
100
AcDbCircle
 10
1036.293773528019
 20
225.3658285843686
 30
0.0
 40
3.0
100
AcDbArc
 50
7.619035016427544
 51
82.38096498356586
  0
ARC
  5
226
330
1B
100
AcDbEntity
  8
4
100
AcDbCircle
 10
1046.389089298925
 20
216.5170584729541
 30
0.0
 40
6.0
100
AcDbArc
 50
185.725843282432
 51
264.8736196335926
  0
ARC
  5
227
330
1B
100
AcDbEntity
  8
4
100
AcDbCircle
 10
1027.445003416604
 20
235.461144355275
 30
0.0
 40
6.0
100
AcDbArc
 50
185.1263803664062
 51
264.2741567175658
  0
ARC
  5
228
330
1B
100
AcDbEntity
  8
4
100
AcDbCircle
 10
1081.474226642215
 20
210.3574618973108
 30
0.0
 40
3.0
100
AcDbArc
 50
264.8736196335926
 51
16.0768883126079
  0
LINE
  5
229
330
1B
100
AcDbEntity
  8
4
100
AcDbLine
 10
1081.206167975545
 20
207.3694618050704
 30
0.0
 11
1045.852971965585
 21
210.5410582884742
 31
0.0
  0
LINE
  5
22A
330
1B
100
AcDbEntity
  8
L-CENTER
 48
2.5
100
AcDbLine
 10
1040.415824115881
 20
261.3320893014761
 30
0.0
 11
1052.415824115881
 21
282.1166989923031
 31
0.0
  0
ARC
  5
22B
330
1B
100
AcDbEntity
  8
4
100
AcDbCircle
 10
1021.285406840961
 20
270.5462816985638
 30
0.0
 40
3.0
100
AcDbArc
 50
73.92311168739002
 51
185.1263803664054
  0
ARC
  5
22C
330
1B
100
AcDbEntity
  8
4
100
AcDbCircle
 10
996.9158241158806
 20
-69.01212082776951
 30
0.0
 40
300.0
100
AcDbArc
 50
82.38096498357211
 51
97.61903501642787
  0
ARC
  5
22D
330
1B
100
AcDbEntity
  8
4
100
AcDbCircle
 10
996.9158241158806
 20
-72.01212082776951
 30
0.0
 40
300.0
100
AcDbArc
 50
82.89776185042845
 51
97.10223814957153
  0
LINE
  5
22E
330
1B
100
AcDbEntity
  8
4
100
AcDbLine
 10
1018.297406748722
 20
270.2782230318935
 30
0.0
 11
1021.469003232125
 21
234.9250270219345
 31
0.0
  0
LINE
  5
22F
330
1B
100
AcDbEntity
  8
4
100
AcDbLine
 10
912.6254802562174
 20
207.3694618050704
 30
0.0
 11
947.9786762661773
 21
210.5410582884742
 31
0.0
  0
ARC
  5
230
330
1B
100
AcDbEntity
  8
4
100
AcDbCircle
 10
912.3574215895472
 20
161.6182964471501
 30
0.0
 40
3.0
100
AcDbArc
 50
84.87361963359261
 51
196.0768883126073
  0
ARC
  5
231
330
1B
100
AcDbEntity
  8
4
100
AcDbCircle
 10
960.1946727802718
 20
149.2667278366208
 30
0.0
 40
3.0
100
AcDbArc
 50
187.102238149571
 51
262.8977618504312
  0
ARC
  5
232
330
1B
100
AcDbEntity
  8
4
100
AcDbCircle
 10
957.5378747037433
 20
146.6099297600923
 30
0.0
 40
3.0
100
AcDbArc
 50
187.6190350164275
 51
262.3809649835658
  0
ARC
  5
233
330
1B
100
AcDbEntity
  8
4
100
AcDbCircle
 10
966.3866448151579
 20
136.5146139891859
 30
0.0
 40
6.0
100
AcDbArc
 50
5.126380366406224
 51
84.2741567175658
  0
ARC
  5
234
330
1B
100
AcDbEntity
  8
4
100
AcDbCircle
 10
947.442558932837
 20
155.4586998715068
 30
0.0
 40
6.0
100
AcDbArc
 50
5.72584328243309
 51
84.87361963359257
  0
LINE
  5
235
330
1B
100
AcDbEntity
  8
L-CENTER
 48
2.5
100
AcDbLine
 10
953.4158241158815
 20
110.6436690429846
 30
0.0
 11
941.4158241158806
 21
89.8590593521576
 31
0.0
  0
ARC
  5
236
330
1B
100
AcDbEntity
  8
4
100
AcDbCircle
 10
972.5462413908011
 20
101.4294766458971
 30
0.0
 40
3.0
100
AcDbArc
 50
253.9231116873903
 51
5.126380366407433
  0
LINE
  5
237
330
1B
100
AcDbEntity
  8
4
100
AcDbLine
 10
975.5342414830405
 20
101.6975353125672
 30
0.0
 11
972.3626449996367
 21
137.0507313225262
 31
0.0
  0
CIRCLE
  5
238
330
1B
100
AcDbEntity
  8
4
100
AcDbCircle
 10
1061.915824115881
 20
185.9878791722305
 30
0.0
 40
2.5
  0
ARC
  5
239
330
1B
100
AcDbEntity
  8
4
100
AcDbCircle
 10
1027.445003416604
 20
136.5146139891859
 30
0.0
 40
6.0
100
AcDbArc
 50
95.7258432824342
 51
174.8736196335938
  0
ARC
  5
23A
330
1B
100
AcDbEntity
  8
4
100
AcDbCircle
 10
1033.63697545149
 20
149.2667278366208
 30
0.0
 40
3.0
100
AcDbArc
 50
277.1022381495688
 51
352.8977618504279
  0
ARC
  5
23B
330
1B
100
AcDbEntity
  8
4
100
AcDbCircle
 10
1036.293773528019
 20
146.6099297600923
 30
0.0
 40
3.0
100
AcDbArc
 50
277.6190350164342
 51
352.3809649835724
  0
ARC
  5
23C
330
1B
100
AcDbEntity
  8
4
100
AcDbCircle
 10
1046.389089298925
 20
155.4586998715068
 30
0.0
 40
6.0
100
AcDbArc
 50
95.12638036640745
 51
174.2741567175669
  0
ARC
  5
23D
330
1B
100
AcDbEntity
  8
4
100
AcDbCircle
 10
1081.474226642215
 20
161.6182964471501
 30
0.0
 40
3.0
100
AcDbArc
 50
343.9231116873921
 51
95.1263803664074
  0
CIRCLE
  5
23E
330
1B
100
AcDbEntity
  8
4
100
AcDbCircle
 10
1061.915824115881
 20
185.9878791722305
 30
0.0
 40
14.0
  0
LINE
  5
23F
330
1B
100
AcDbEntity
  8
4
100
AcDbLine
 10
1081.206167975545
 20
164.6062965393894
 30
0.0
 11
1045.852971965585
 21
161.4347000559856
 31
0.0
  0
LINE
  5
240
330
1B
100
AcDbEntity
  8
L-CENTER
 48
2.5
100
AcDbLine
 10
1040.415824115881
 20
110.6436690429837
 30
0.0
 11
1052.415824115881
 21
89.8590593521576
 31
0.0
  0
ARC
  5
241
330
1B
100
AcDbEntity
  8
4
100
AcDbCircle
 10
996.9158241158806
 20
440.9878791722305
 30
0.0
 40
300.0
100
AcDbArc
 50
262.3809649835721
 51
277.6190350164278
  0
ARC
  5
242
330
1B
100
AcDbEntity
  8
4
100
AcDbCircle
 10
996.9158241158806
 20
443.9878791722305
 30
0.0
 40
300.0
100
AcDbArc
 50
262.8977618504285
 51
277.1022381495714
  0
ARC
  5
243
330
1B
100
AcDbEntity
  8
4
100
AcDbCircle
 10
1021.285406840961
 20
101.4294766458971
 30
0.0
 40
3.0
100
AcDbArc
 50
174.8736196335926
 51
286.0768883126097
  0
LINE
  5
244
330
1B
100
AcDbEntity
  8
4
100
AcDbLine
 10
1018.297406748722
 20
101.6975353125672
 30
0.0
 11
1021.469003232125
 21
137.0507313225262
 31
0.0
  0
LINE
  5
245
330
1B
100
AcDbEntity
  8
4
100
AcDbLine
 10
912.6254802562174
 20
164.6062965393894
 30
0.0
 11
947.9786762661773
 21
161.4347000559856
 31
0.0
  0
ARC
  5
246
330
1B
100
AcDbEntity
  8
4
100
AcDbCircle
 10
1254.915824115881
 20
185.9878791722305
 30
0.0
 40
300.0
100
AcDbArc
 50
172.8977618504285
 51
187.1022381495714
  0
ARC
  5
247
330
1B
100
AcDbEntity
  8
4
100
AcDbCircle
 10
741.9158241158806
 20
185.9878791722305
 30
0.0
 40
300.0
100
AcDbArc
 50
352.3809649835721
 51
7.619035016427832
  0
ARC
  5
248
330
1B
100
AcDbEntity
  8
4
100
AcDbCircle
 10
738.9158241158806
 20
185.9878791722305
 30
0.0
 40
300.0
100
AcDbArc
 50
352.8977618504284
 51
7.102238149571463
  0
CIRCLE
  5
249
330
1B
100
AcDbEntity
  8
4
100
AcDbCircle
 10
996.9158241158806
 20
185.9878791722305
 30
0.0
 40
25.0
  0
ARC
  5
24A
330
1B
100
AcDbEntity
  8
4
100
AcDbCircle
 10
1251.915824115881
 20
185.9878791722305
 30
0.0
 40
300.0
100
AcDbArc
 50
172.3809649835721
 51
187.6190350164278
  0
CIRCLE
  5
24B
330
1B
100
AcDbEntity
  8
4
100
AcDbCircle
 10
996.9158241158806
 20
185.9878791722305
 30
0.0
 40
91.0
  0
CIRCLE
  5
24C
330
1B
100
AcDbEntity
  8
L-CENTER
 48
2.5
100
AcDbCircle
 10
996.9158241158806
 20
185.9878791722305
 30
0.0
 40
98.99999999999983
  0
CIRCLE
  5
24D
330
1B
100
AcDbEntity
  8
4
100
AcDbCircle
 10
996.9158241158806
 20
185.9878791722305
 30
0.0
 40
105.0
  0
LINE
  5
24E
330
1B
100
AcDbEntity
  8
4
100
AcDbLine
 10
1175.915824115881
 20
298.4878796722305
 30
0.0
 11
1176.915824115881
 21
297.4878796722305
 31
0.0
  0
LINE
  5
24F
330
1B
100
AcDbEntity
  8
4
100
AcDbLine
 10
1131.915824115881
 20
298.4878796722305
 30
0.0
 11
1131.915824115881
 21
301.4878796722305
 31
0.0
  0
LINE
  5
250
330
1B
100
AcDbEntity
  8
4
100
AcDbLine
 10
1176.915824115881
 20
301.4878796722305
 30
0.0
 11
1131.915824115881
 21
301.4878796722305
 31
0.0
  0
LINE
  5
251
330
1B
100
AcDbEntity
  8
4
100
AcDbLine
 10
1126.915824115881
 20
298.4878796722305
 30
0.0
 11
1175.915824115881
 21
298.4878796722305
 31
0.0
  0
LINE
  5
252
330
1B
100
AcDbEntity
  8
4
 62
     3
100
AcDbLine
 10
892.1837736158808
 20
327.9878796722303
 30
0.0
 11
886.4158236158804
 21
327.9878796722303
 31
0.0
  0
ARC
  5
253
330
1B
100
AcDbEntity
  8
4
 62
     3
100
AcDbCircle
 10
893.9158236158804
 20
327.9878796722303
 30
0.0
 40
1.0000005
100
AcDbArc
 50
90.0
 51
180.0
  0
ARC
  5
254
330
1B
100
AcDbEntity
  8
4
 62
     3
100
AcDbCircle
 10
892.1837736158808
 20
328.9878786722304
 30
0.0
 40
1.0000005
100
AcDbArc
 50
270.0
 51
330.0000000000009
  0
LINE
  5
255
330
1B
100
AcDbEntity
  8
4
100
AcDbLine
 10
886.4158241158806
 20
316.9878796722305
 30
0.0
 11
885.4158241158806
 21
316.9878796722305
 31
0.0
  0
ARC
  5
256
330
1B
100
AcDbEntity
  8
4
 62
     3
100
AcDbCircle
 10
891.9158241158806
 20
296.9878791722304
 30
0.0
 40
1.0000005
100
AcDbArc
 50
270.0
 51
0.0
  0
LINE
  5
257
330
1B
100
AcDbEntity
  8
4
 62
     3
100
AcDbLine
 10
892.9158246158808
 20
296.9878791722304
 30
0.0
 11
892.9158246158808
 21
327.9878796722303
 31
0.0
  0
LINE
  5
258
330
1B
100
AcDbEntity
  8
4
100
AcDbLine
 10
1108.415824115881
 20
300.9878796722305
 30
0.0
 11
1126.915824115881
 21
300.9878796722305
 31
0.0
  0
ARC
  5
259
330
1B
100
AcDbEntity
  8
4
 62
     3
100
AcDbCircle
 10
1036.925823615881
 20
329.9778786722304
 30
0.0
 40
0.99
100
AcDbArc
 50
270.0
 51
0.0
  0
LINE
  5
25A
330
1B
100
AcDbEntity
  8
4
 62
     3
100
AcDbLine
 10
1037.915823615881
 20
329.9878791722304
 30
0.0
 11
1037.915823615881
 21
329.9778786722304
 31
0.0
  0
LINE
  5
25B
330
1B
100
AcDbEntity
  8
4
100
AcDbLine
 10
1050.665334115881
 20
333.4878791722304
 30
0.0
 11
1050.665334115881
 21
337.4878791722304
 31
0.0
  0
LINE
  5
25C
330
1B
100
AcDbEntity
  8
4
100
AcDbLine
 10
1045.415334115881
 20
329.9878791722304
 30
0.0
 11
1045.415334115881
 21
331.4878791722304
 31
0.0
  0
LINE
  5
25D
330
1B
100
AcDbEntity
  8
4
100
AcDbLine
 10
1044.415334115881
 20
331.4878791722304
 30
0.0
 11
1044.415334115881
 21
337.4878791722304
 31
0.0
  0
LINE
  5
25E
330
1B
100
AcDbEntity
  8
4
100
AcDbLine
 10
1068.415334115881
 20
329.9878791722304
 30
0.0
 11
1068.415334115881
 21
331.4878791722304
 31
0.0
  0
LINE
  5
25F
330
1B
100
AcDbEntity
  8
4
100
AcDbLine
 10
1069.415334115881
 20
331.4878791722304
 30
0.0
 11
1069.415334115881
 21
337.4878791722304
 31
0.0
  0
LINE
  5
260
330
1B
100
AcDbEntity
  8
4
100
AcDbLine
 10
1063.165334115881
 20
333.4878791722304
 30
0.0
 11
1063.165334115881
 21
337.4878791722304
 31
0.0
  0
ARC
  5
261
330
1B
100
AcDbEntity
  8
4
 62
     3
100
AcDbCircle
 10
1076.905824615881
 20
329.9778786722304
 30
0.0
 40
0.99
100
AcDbArc
 50
180.0
 51
270.0
  0
LINE
  5
262
330
1B
100
AcDbEntity
  8
4
 62
     3
100
AcDbLine
 10
1075.915824615881
 20
329.9878791722304
 30
0.0
 11
1075.915824615881
 21
329.9778786722304
 31
0.0
  0
LINE
  5
263
330
1B
100
AcDbEntity
  8
4
100
AcDbLine
 10
1069.415334115881
 20
337.4878791722304
 30
0.0
 11
1044.415334115881
 21
337.4878791722304
 31
0.0
  0
LINE
  5
264
330
1B
100
AcDbEntity
  8
4
100
AcDbLine
 10
1069.415334115881
 20
333.4878791722304
 30
0.0
 11
1044.415334115881
 21
333.4878791722304
 31
0.0
  0
LINE
  5
265
330
1B
100
AcDbEntity
  8
4
100
AcDbLine
 10
1069.415334115881
 20
331.4878791722304
 30
0.0
 11
1044.415334115881
 21
331.4878791722304
 31
0.0
  0
LINE
  5
266
330
1B
100
AcDbEntity
  8
L-CENTER
 48
2.5
100
AcDbLine
 10
1056.915824115881
 20
320.828562227875
 30
0.0
 11
1056.915824115881
 21
343.6239781168701
 31
0.0
  0
ARC
  5
267
330
1B
100
AcDbEntity
  8
4
 62
     3
100
AcDbCircle
 10
1101.64787461588
 20
328.9878786722304
 30
0.0
 40
1.0000005
100
AcDbArc
 50
209.9999999999959
 51
270.0
  0
LINE
  5
268
330
1B
100
AcDbEntity
  8
4
 62
     3
100
AcDbLine
 10
1107.415824615881
 20
327.9878796722303
 30
0.0
 11
1101.64787461588
 21
327.9878796722303
 31
0.0
  0
ARC
  5
269
330
1B
100
AcDbEntity
  8
4
 62
     3
100
AcDbCircle
 10
1101.915824115881
 20
296.9878791722304
 30
0.0
 40
1.0000005
100
AcDbArc
 50
180.0
 51
270.0
  0
LINE
  5
26A
330
1B
100
AcDbEntity
  8
4
100
AcDbLine
 10
1107.415824615881
 20
316.9878796722305
 30
0.0
 11
1108.415824615881
 21
316.9878796722305
 31
0.0
  0
LINE
  5
26B
330
1B
100
AcDbEntity
  8
4
 62
     3
100
AcDbLine
 10
1100.915823615881
 20
296.9878791722304
 30
0.0
 11
1100.915823615881
 21
327.9878796722303
 31
0.0
  0
ARC
  5
26C
330
1B
100
AcDbEntity
  8
4
 62
     3
100
AcDbCircle
 10
1099.915824615881
 20
327.9878796722303
 30
0.0
 40
1.0000005
100
AcDbArc
 50
29.91501546532378
 51
90.0
  0
LINE
  5
26D
330
1B
100
AcDbEntity
  8
4
 62
     3
100
AcDbLine
 10
1037.915823615881
 20
329.9878791722304
 30
0.0
 11
1075.915824615881
 21
329.9878791722304
 31
0.0
  0
LINE
  5
26E
330
1B
100
AcDbEntity
  8
4
 62
     3
100
AcDbLine
 10
1099.917556666413
 20
328.9878786722304
 30
0.0
 11
893.9158236158804
 21
328.9878786722304
 31
0.0
  0
LINE
  5
26F
330
1B
100
AcDbEntity
  8
4
100
AcDbLine
 10
1176.915824115881
 20
274.4878796722305
 30
0.0
 11
1175.915824115881
 21
273.4878796722305
 31
0.0
  0
LINE
  5
270
330
1B
100
AcDbEntity
  8
4
100
AcDbLine
 10
1126.915824115881
 20
273.4878796722305
 30
0.0
 11
1175.915824115881
 21
273.4878796722305
 31
0.0
  0
ARC
  5
271
330
1B
100
AcDbEntity
  8
4
 62
     3
100
AcDbCircle
 10
891.9158241158806
 20
274.9878786722302
 30
0.0
 40
1.0000005
100
AcDbArc
 50
0.0
 51
90.0
  0
LINE
  5
272
330
1B
100
AcDbEntity
  8
4
100
AcDbLine
 10
886.4158241158806
 20
254.9878796722305
 30
0.0
 11
885.4158241158806
 21
254.9878796722305
 31
0.0
  0
ARC
  5
273
330
1B
100
AcDbEntity
  8
4
 62
     3
100
AcDbCircle
 10
906.6591636158804
 20
276.2445396722303
 30
0.0
 40
4.0000005
100
AcDbArc
 50
106.0729439999987
 51
163.9270559999993
  0
LINE
  5
274
330
1B
100
AcDbEntity
  8
4
 62
     3
100
AcDbLine
 10
890.9158236158804
 20
243.9878796722305
 30
0.0
 11
886.4158236158804
 21
243.9878796722305
 31
0.0
  0
ARC
  5
275
330
1B
100
AcDbEntity
  8
4
 62
     3
100
AcDbCircle
 10
890.9158236158804
 20
241.9878786722302
 30
0.0
 40
1.9999995
100
AcDbArc
 50
0.0
 51
90.0
  0
LINE
  5
276
330
1B
100
AcDbEntity
  8
4
 62
     3
100
AcDbLine
 10
892.9158246158808
 20
230.3838246722303
 30
0.0
 11
892.9158246158808
 21
274.9878786722302
 31
0.0
  0
LINE
  5
277
330
1B
100
AcDbEntity
  8
4
100
AcDbLine
 10
1108.415824115881
 20
270.9878796722305
 30
0.0
 11
1126.915824115881
 21
270.9878796722305
 31
0.0
  0
ARC
  5
278
330
1B
100
AcDbEntity
  8
4
 62
     3
100
AcDbCircle
 10
868.9158246158808
 20
88.98787867223041
 30
0.0
 40
1.9999995
100
AcDbArc
 50
90.0
 51
180.0
  0
LINE
  5
279
330
1B
100
AcDbEntity
  8
4
 62
     3
100
AcDbLine
 10
866.9158236158804
 20
88.98787867223041
 30
0.0
 11
866.9158236158804
 21
65.98787917223035
 31
0.0
  0
ARC
  5
27A
330
1B
100
AcDbEntity
  8
4
 62
     3
100
AcDbCircle
 10
884.9158236158804
 20
95.98787917223035
 30
0.0
 40
4.9999995
100
AcDbArc
 50
270.0
 51
0.0
  0
ARC
  5
27B
330
1B
100
AcDbEntity
  8
4
 62
     3
100
AcDbCircle
 10
914.9158236158804
 20
88.98787867223041
 30
0.0
 40
1.9999995
100
AcDbArc
 50
0.0
 51
90.0
  0
ARC
  5
27C
330
1B
100
AcDbEntity
  8
4
 62
     3
100
AcDbCircle
 10
916.9158246158808
 20
88.98787867223041
 30
0.0
 40
1.9999995
100
AcDbArc
 50
0.0
 51
90.0
  0
ARC
  5
27D
330
1B
100
AcDbEntity
  8
4
 62
     3
100
AcDbCircle
 10
897.2317686158807
 20
95.98787917223035
 30
0.0
 40
4.9999995
100
AcDbArc
 50
270.0
 51
15.58434900000201
  0
LINE
  5
27F
330
1B
100
AcDbEntity
  8
4
 62
     3
100
AcDbLine
 10
916.9158246158808
 20
88.98787867223041
 30
0.0
 11
916.9158246158808
 21
65.98787917223035
 31
0.0
  0
LINE
  5
280
330
1B
100
AcDbEntity
  8
4
 62
     3
100
AcDbLine
 10
918.9158241158806
 20
88.98787867223041
 30
0.0
 11
918.9158241158806
 21
65.98787917223035
 31
0.0
  0
ARC
  5
281
330
1B
100
AcDbEntity
  8
4
 62
     3
100
AcDbCircle
 10
923.9158236158804
 20
82.0383411722305
 30
0.0
 40
4.9999995
100
AcDbArc
 50
77.41366699999448
 51
180.0
  0
ARC
  5
282
330
1B
100
AcDbEntity
  8
4
 62
     3
100
AcDbCircle
 10
923.9158236158804
 20
70.98787867223041
 30
0.0
 40
4.9999995
100
AcDbArc
 50
90.0
 51
180.0
  0
LINE
  5
283
330
1B
100
AcDbEntity
  8
4
 62
     3
100
AcDbLine
 10
918.9158241158806
 20
65.98787917223035
 30
0.0
 11
866.9158236158804
 21
65.98787917223035
 31
0.0
  0
LINE
  5
284
330
1B
100
AcDbEntity
  8
4
 62
     3
100
AcDbLine
 10
916.9158246158808
 20
90.98787967223029
 30
0.0
 11
868.9158246158808
 21
90.98787967223029
 31
0.0
  0
ARC
  5
285
330
1B
100
AcDbEntity
  8
4
 62
     3
100
AcDbCircle
 10
1219.915824615881
 20
185.9878791722304
 30
0.0
 40
330.0
100
AcDbArc
 50
163.927056
 51
195.5843489999999
  0
LINE
  5
286
330
1B
100
AcDbEntity
  8
4
 62
     3
100
AcDbLine
 10
889.9158246158808
 20
185.9878791722304
 30
0.0
 11
889.9158246158808
 21
95.98787917223035
 31
0.0
  0
ARC
  5
287
330
1B
100
AcDbEntity
  8
4
 62
     3
100
AcDbCircle
 10
1087.172484615881
 20
276.2445396722303
 30
0.0
 40
4.0000005
100
AcDbArc
 50
16.07294400000226
 51
73.92705600000133
  0
ARC
  5
288
330
1B
100
AcDbEntity
  8
4
 62
     3
100
AcDbCircle
 10
1101.915824115881
 20
274.9878786722302
 30
0.0
 40
1.0000005
100
AcDbArc
 50
90.0
 51
180.0
  0
LINE
  5
289
330
1B
100
AcDbEntity
  8
4
100
AcDbLine
 10
1107.415824615881
 20
254.9878796722305
 30
0.0
 11
1108.415824615881
 21
254.9878796722305
 31
0.0
  0
ARC
  5
28A
330
1B
100
AcDbEntity
  8
4
 62
     3
100
AcDbCircle
 10
1102.915824615881
 20
241.9878786722302
 30
0.0
 40
1.9999995
100
AcDbArc
 50
90.0
 51
180.0
  0
LINE
  5
28B
330
1B
100
AcDbEntity
  8
4
 62
     3
100
AcDbLine
 10
1102.915824615881
 20
243.9878796722305
 30
0.0
 11
1107.415824615881
 21
243.9878796722305
 31
0.0
  0
LINE
  5
28C
330
1B
100
AcDbEntity
  8
4
 62
     3
100
AcDbLine
 10
1100.915823615881
 20
230.3838246722303
 30
0.0
 11
1100.915823615881
 21
274.9878786722302
 31
0.0
  0
LINE
  5
28D
330
1B
100
AcDbEntity
  8
4
100
AcDbLine
 10
1107.415824615881
 20
162.9878786722304
 30
0.0
 11
1105.915824615881
 21
162.9878786722304
 31
0.0
  0
ARC
  5
28E
330
1B
100
AcDbEntity
  8
4
 62
     3
100
AcDbCircle
 10
1105.915824615881
 20
168.9878796722303
 30
0.0
 40
1.9999995
100
AcDbArc
 50
180.0
 51
270.0
  0
LINE
  5
28F
330
1B
100
AcDbEntity
  8
4
100
AcDbLine
 10
1114.415824615881
 20
163.9878786722304
 30
0.0
 11
1107.415824615881
 21
163.9878786722304
 31
0.0
  0
LINE
  5
290
330
1B
100
AcDbEntity
  8
4
 62
     3
100
AcDbLine
 10
1103.915823615881
 20
185.9878791722304
 30
0.0
 11
1103.915823615881
 21
168.9878796722303
 31
0.0
  0
LINE
  5
291
330
1B
100
AcDbEntity
  8
4
100
AcDbLine
 10
1109.415824615881
 20
156.4878786722304
 30
0.0
 11
1114.415824615881
 21
156.4878786722304
 31
0.0
  0
LINE
  5
292
330
1B
100
AcDbEntity
  8
4
100
AcDbLine
 10
1109.415824615881
 20
141.4878786722304
 30
0.0
 11
1114.415824615881
 21
141.4878786722304
 31
0.0
  0
LINE
  5
293
330
1B
100
AcDbEntity
  8
4
100
AcDbLine
 10
1107.415824615881
 20
134.9878786722304
 30
0.0
 11
1105.915824615881
 21
134.9878786722304
 31
0.0
  0
LINE
  5
294
330
1B
100
AcDbEntity
  8
4
100
AcDbLine
 10
1107.415824615881
 20
133.9878786722304
 30
0.0
 11
1114.415824615881
 21
133.9878786722304
 31
0.0
  0
LINE
  5
295
330
1B
100
AcDbEntity
  8
L-CENTER
 48
2.5
100
AcDbLine
 10
1093.970099115881
 20
148.9878786722304
 30
0.0
 11
1117.54132586518
 21
148.9878786722304
 31
0.0
  0
LINE
  5
296
330
1B
100
AcDbEntity
  8
4
100
AcDbLine
 10
1105.915824615881
 20
134.9878786722304
 30
0.0
 11
1105.915824615881
 21
162.9878786722304
 31
0.0
  0
LINE
  5
297
330
1B
100
AcDbEntity
  8
4
100
AcDbLine
 10
1107.415824615881
 20
133.9878786722304
 30
0.0
 11
1107.415824615881
 21
163.9878786722304
 31
0.0
  0
LINE
  5
298
330
1B
100
AcDbEntity
  8
4
100
AcDbLine
 10
1109.415824615881
 20
133.9878786722304
 30
0.0
 11
1109.415824615881
 21
163.9878786722304
 31
0.0
  0
LINE
  5
299
330
1B
100
AcDbEntity
  8
4
100
AcDbLine
 10
1114.415824615881
 20
133.9878786722304
 30
0.0
 11
1114.415824615881
 21
163.9878786722304
 31
0.0
  0
ARC
  5
29A
330
1B
100
AcDbEntity
  8
4
 62
     3
100
AcDbCircle
 10
1076.915823615881
 20
88.98787867223041
 30
0.0
 40
1.9999995
100
AcDbArc
 50
90.0
 51
180.0
  0
ARC
  5
29B
330
1B
100
AcDbEntity
  8
4
 62
     3
100
AcDbCircle
 10
1078.915824615881
 20
88.98787867223041
 30
0.0
 40
1.9999995
100
AcDbArc
 50
90.0
 51
180.0
  0
ARC
  5
29C
330
1B
100
AcDbEntity
  8
4
 62
     3
100
AcDbCircle
 10
1069.915824615881
 20
82.0383411722305
 30
0.0
 40
4.9999995
100
AcDbArc
 50
0.0
 51
102.5863330000055
  0
LINE
  5
29D
330
1B
100
AcDbEntity
  8
4
 62
     3
100
AcDbLine
 10
1074.915824115881
 20
88.98787867223041
 30
0.0
 11
1074.915824115881
 21
65.98787917223035
 31
0.0
  0
LINE
  5
29E
330
1B
100
AcDbEntity
  8
4
 62
     3
100
AcDbLine
 10
1076.915823615881
 20
88.98787867223041
 30
0.0
 11
1076.915823615881
 21
65.98787917223035
 31
0.0
  0
ARC
  5
29F
330
1B
100
AcDbEntity
  8
4
 62
     3
100
AcDbCircle
 10
1069.915824615881
 20
70.98787867223041
 30
0.0
 40
4.9999995
100
AcDbArc
 50
0.0
 51
90.0
  0
ARC
  5
2A0
330
1B
100
AcDbEntity
  8
4
 62
     3
100
AcDbCircle
 10
1096.599879615881
 20
95.98787917223035
 30
0.0
 40
4.9999995
100
AcDbArc
 50
164.4156509999996
 51
270.0
  0
LINE
  5
2A1
330
1B
100
AcDbEntity
  8
4
 62
     3
100
AcDbLine
 10
1106.915823615881
 20
115.9878786722304
 30
0.0
 11
1106.915823615881
 21
95.98787917223035
 31
0.0
  0
LINE
  5
2A2
330
1B
100
AcDbEntity
  8
4
 62
     3
100
AcDbLine
 10
1106.415824115881
 20
95.98787917223035
 30
0.0
 11
1106.915823615881
 21
95.98787917223035
 31
0.0
  0
ARC
  5
2A3
330
1B
100
AcDbEntity
  8
4
 62
     3
100
AcDbCircle
 10
1106.415824115881
 20
95.48787967223029
 30
0.0
 40
0.4999995
100
AcDbArc
 50
90.0
 51
180.0
  0
LINE
  5
2A4
330
1B
100
AcDbEntity
  8
4
100
AcDbLine
 10
1107.915823615881
 20
111.9878796722303
 30
0.0
 11
1106.915823615881
 21
111.9878796722303
 31
0.0
  0
LINE
  5
2A5
330
1B
100
AcDbEntity
  8
4
 62
     3
100
AcDbLine
 10
1106.915823615881
 20
115.9878786722304
 30
0.0
 11
1106.415824115881
 21
115.9878786722304
 31
0.0
  0
LINE
  5
2A6
330
1B
100
AcDbEntity
  8
4
100
AcDbLine
 10
1107.915823615881
 20
99.98787967223029
 30
0.0
 11
1106.915823615881
 21
99.98787967223029
 31
0.0
  0
LINE
  5
2A7
330
1B
100
AcDbEntity
  8
4
100
AcDbLine
 10
1107.915823615881
 20
99.98787967223029
 30
0.0
 11
1107.915823615881
 21
111.9878796722303
 31
0.0
  0
ARC
  5
2A8
330
1B
100
AcDbEntity
  8
4
 62
     3
100
AcDbCircle
 10
1107.915824115881
 20
92.98787917223035
 30
0.0
 40
1.9999995
100
AcDbArc
 50
180.0
 51
270.0
  0
ARC
  5
2A9
330
1B
100
AcDbEntity
  8
4
 62
     3
100
AcDbCircle
 10
1108.915824615881
 20
95.98787917223035
 30
0.0
 40
4.9999995
100
AcDbArc
 50
180.0
 51
270.0
  0
LINE
  5
2AA
330
1B
100
AcDbEntity
  8
L-CENTER
 48
2.5
100
AcDbLine
 10
1092.581153115881
 20
105.9878796722303
 30
0.0
 11
1111.156379115881
 21
105.9878796722303
 31
0.0
  0
ARC
  5
2AC
330
1B
100
AcDbEntity
  8
4
 62
     3
100
AcDbCircle
 10
996.9158241158806
 20
408.9878796722305
 30
0.0
 40
330.0
100
AcDbArc
 50
270.0
 51
282.586333
  0
ARC
  5
2AD
330
1B
100
AcDbEntity
  8
4
 62
     3
100
AcDbCircle
 10
773.9158236158804
 20
185.9878791722304
 30
0.0
 40
330.0
100
AcDbArc
 50
344.4156509999999
 51
16.07294400000001
  0
LINE
  5
2AE
330
1B
100
AcDbEntity
  8
4
 62
     3
100
AcDbLine
 10
1105.915824615881
 20
92.98787917223035
 30
0.0
 11
1105.915824615881
 21
166.9878786722304
 31
0.0
  0
LINE
  5
2AF
330
1B
100
AcDbEntity
  8
4
 62
     3
100
AcDbLine
 10
1103.915823615881
 20
185.9878791722304
 30
0.0
 11
1103.915823615881
 21
95.98787917223035
 31
0.0
  0
ARC
  5
2B0
330
1B
100
AcDbEntity
  8
4
 62
     3
100
AcDbCircle
 10
1106.415824115881
 20
116.4878796722303
 30
0.0
 40
0.4999995
100
AcDbArc
 50
180.0
 51
270.0
  0
ARC
  5
2B1
330
1B
100
AcDbEntity
  8
4
 62
     3
100
AcDbCircle
 10
996.9158241158806
 20
-37.01212132776979
 30
0.0
 40
330.0
100
AcDbArc
 50
73.92652589377366
 51
106.072944
  0
LINE
  5
2B2
330
1B
100
AcDbEntity
  8
L-CENTER
 48
2.5
100
AcDbLine
 10
1109.842529115881
 20
185.9878791722304
 30
0.0
 11
883.9891191158807
 21
185.9878791722304
 31
0.0
  0
LINE
  5
2B3
330
1B
100
AcDbEntity
  8
L-CENTER
 48
2.5
100
AcDbLine
 10
1180.724523640084
 20
285.9878796722305
 30
0.0
 11
880.9608840921036
 21
285.9878796722305
 31
0.0
  0
LINE
  5
2B4
330
1B
100
AcDbEntity
  8
4
 62
     3
100
AcDbLine
 10
1069.915824615881
 20
75.98787967223029
 30
0.0
 11
923.9158236158804
 21
75.98787967223029
 31
0.0
  0
ARC
  5
2B5
330
1B
100
AcDbEntity
  8
4
 62
     3
100
AcDbCircle
 10
996.9158241158806
 20
408.9878796722305
 30
0.0
 40
330.0
100
AcDbArc
 50
257.413667
 51
270.0
  0
ARC
  5
2B6
330
1B
100
AcDbEntity
  8
4
 62
     3
100
AcDbCircle
 10
1124.915823615881
 20
88.98787867223041
 30
0.0
 40
1.9999995
100
AcDbArc
 50
0.0
 51
90.0
  0
LINE
  5
2B7
330
1B
100
AcDbEntity
  8
4
 62
     3
100
AcDbLine
 10
1126.915824615881
 20
88.98787867223041
 30
0.0
 11
1126.915824615881
 21
65.98787917223035
 31
0.0
  0
LINE
  5
2B8
330
1B
100
AcDbEntity
  8
4
 62
     3
100
AcDbLine
 10
1126.915824615881
 20
65.98787917223035
 30
0.0
 11
1074.915824115881
 21
65.98787917223035
 31
0.0
  0
LINE
  5
2B9
330
1B
100
AcDbEntity
  8
4
 62
     3
100
AcDbLine
 10
1124.915823615881
 20
90.98787967223029
 30
0.0
 11
1107.915824115881
 21
90.98787967223029
 31
0.0
  0
LINE
  5
2BA
330
1B
100
AcDbEntity
  8
4
 62
     3
100
AcDbLine
 10
1076.915823615881
 20
90.98787967223029
 30
0.0
 11
1124.915823615881
 21
90.98787967223029
 31
0.0
  0
LINE
  5
2BB
330
1B
100
AcDbEntity
  8
4
 62
     3
100
AcDbLine
 10
1107.415824615881
 20
327.9878796722303
 30
0.0
 11
1107.415824615881
 21
243.9878796722305
 31
0.0
  0
LINE
  5
2BC
330
1B
100
AcDbEntity
  8
4
100
AcDbLine
 10
1108.415824615881
 20
316.9878796722305
 30
0.0
 11
1108.415824615881
 21
254.9878796722305
 31
0.0
  0
LINE
  5
2BD
330
1B
100
AcDbEntity
  8
4
 62
     3
100
AcDbLine
 10
886.4158236158804
 20
327.9878796722303
 30
0.0
 11
886.4158236158804
 21
243.9878796722305
 31
0.0
  0
LINE
  5
2BE
330
1B
100
AcDbEntity
  8
L-CENTER
 48
2.5
100
AcDbLine
 10
996.9158241158806
 20
73.0611741722305
 30
0.0
 11
996.9158241158806
 21
335.9878791722304
 31
0.0
  0
LINE
  5
2BF
330
1B
100
AcDbEntity
  8
4
100
AcDbLine
 10
885.4158241158806
 20
316.9878796722305
 30
0.0
 11
885.4158241158806
 21
254.9878796722305
 31
0.0
  0
LINE
  5
2C0
330
1B
100
AcDbEntity
  8
4
100
AcDbLine
 10
1126.915824115881
 20
300.9878796722305
 30
0.0
 11
1126.915824115881
 21
270.9878796722305
 31
0.0
  0
LINE
  5
2C1
330
1B
100
AcDbEntity
  8
4
100
AcDbLine
 10
1176.915824115881
 20
274.4878796722305
 30
0.0
 11
1176.915824115881
 21
301.4878796722305
 31
0.0
  0
LINE
  5
2C2
330
1B
100
AcDbEntity
  8
4
100
AcDbLine
 10
1175.915824115881
 20
298.4878796722305
 30
0.0
 11
1175.915824115881
 21
273.4878796722305
 31
0.0
  0
LINE
  5
2C3
330
1B
100
AcDbEntity
  8
4
100
AcDbLine
 10
352.8493182113658
 20
735.7538743761841
 30
0.0
 11
351.8493182113658
 21
736.7538743761841
 31
0.0
  0
LINE
  5
2C4
330
1B
100
AcDbEntity
  8
4
100
AcDbLine
 10
318.8493182113658
 20
735.7538743761841
 30
0.0
 11
319.8493182113658
 21
736.7538743761841
 31
0.0
  0
LINE
  5
2C5
330
1B
100
AcDbEntity
  8
4
100
AcDbLine
 10
318.8493182113658
 20
735.7538743761841
 30
0.0
 11
330.8493182113658
 21
735.7538743761841
 31
0.0
  0
LINE
  5
2C6
330
1B
100
AcDbEntity
  8
4
100
AcDbLine
 10
340.8493182113658
 20
735.7538743761841
 30
0.0
 11
352.8493182113658
 21
735.7538743761841
 31
0.0
  0
LINE
  5
2C7
330
1B
100
AcDbEntity
  8
4
100
AcDbLine
 10
319.8493182113658
 20
736.7538743761841
 30
0.0
 11
351.8493182113658
 21
736.7538743761841
 31
0.0
  0
ARC
  5
2C8
330
1B
100
AcDbEntity
  8
4
100
AcDbCircle
 10
353.3493182113658
 20
677.2538743761843
 30
0.0
 40
0.5
100
AcDbArc
 50
180.0
 51
270.0
  0
LINE
  5
2C9
330
1B
100
AcDbEntity
  8
4
100
AcDbLine
 10
353.3493182113658
 20
676.7538743761841
 30
0.0
 11
353.3493182113658
 21
676.7538743761841
 31
0.0
  0
ARC
  5
2CA
330
1B
100
AcDbEntity
  8
4
100
AcDbCircle
 10
318.3493182113658
 20
677.2538743761843
 30
0.0
 40
0.5
100
AcDbArc
 50
270.0
 51
0.0
  0
LINE
  5
2CB
330
1B
100
AcDbEntity
  8
4
100
AcDbLine
 10
318.3493182113658
 20
676.7538743761841
 30
0.0
 11
318.3493182113658
 21
676.7538743761841
 31
0.0
  0
ARC
  5
2CC
330
1B
100
AcDbEntity
  8
4
100
AcDbCircle
 10
335.8493182113658
 20
686.7538743761843
 30
0.0
 40
5.0
100
AcDbArc
 50
180.0
 51
0.0
  0
LINE
  5
2CD
330
1B
100
AcDbEntity
  8
4
100
AcDbLine
 10
353.3493182113658
 20
676.7538743761841
 30
0.0
 11
318.3493182113658
 21
676.7538743761841
 31
0.0
  0
LINE
  5
2CE
330
1B
100
AcDbEntity
  8
4
100
AcDbLine
 10
429.8493182113658
 20
648.553874376184
 30
0.0
 11
429.8493182113658
 21
642.553874376184
 31
0.0
  0
LINE
  5
2CF
330
1B
100
AcDbEntity
  8
4
100
AcDbLine
 10
439.8493182113658
 20
648.553874376184
 30
0.0
 11
439.8493182113658
 21
642.553874376184
 31
0.0
  0
LINE
  5
2D0
330
1B
100
AcDbEntity
  8
4
100
AcDbLine
 10
429.0993182113658
 20
642.553874376184
 30
0.0
 11
429.0993182113658
 21
641.053874376184
 31
0.0
  0
LINE
  5
2D1
330
1B
100
AcDbEntity
  8
4
100
AcDbLine
 10
440.5993182113658
 20
642.553874376184
 30
0.0
 11
440.5993182113658
 21
641.053874376184
 31
0.0
  0
LINE
  5
2D2
330
1B
100
AcDbEntity
  8
4
100
AcDbLine
 10
429.0993182113658
 20
642.553874376184
 30
0.0
 11
440.5993182113658
 21
642.553874376184
 31
0.0
  0
ARC
  5
2D3
330
1B
100
AcDbEntity
  8
4
100
AcDbCircle
 10
439.8493182113658
 20
640.053874376184
 30
0.0
 40
1.0
100
AcDbArc
 50
0.0
 51
90.0
  0
LINE
  5
2D4
330
1B
100
AcDbEntity
  8
4
100
AcDbLine
 10
429.8493182113658
 20
648.553874376184
 30
0.0
 11
439.8493182113658
 21
648.553874376184
 31
0.0
  0
ARC
  5
2D5
330
1B
100
AcDbEntity
  8
4
100
AcDbCircle
 10
461.8493182113658
 20
652.7538738761841
 30
0.0
 40
4.0000005
100
AcDbArc
 50
0.0
 51
90.0
  0
LINE
  5
2D6
330
1B
100
AcDbEntity
  8
4
100
AcDbLine
 10
440.8493182113658
 20
624.753874876184
 30
0.0
 11
440.8493182113658
 21
629.7538743761838
 31
0.0
  0
LINE
  5
2D7
330
1B
100
AcDbEntity
  8
4
100
AcDbLine
 10
446.3493182113658
 20
612.7538743761841
 30
0.0
 11
447.3493182113658
 21
612.7538743761841
 31
0.0
  0
LINE
  5
2D8
330
1B
100
AcDbEntity
  8
4
100
AcDbLine
 10
442.8493182113658
 20
623.7538743761841
 30
0.0
 11
442.8493182113658
 21
624.753874876184
 31
0.0
  0
LINE
  5
2D9
330
1B
100
AcDbEntity
  8
L-CENTER
 48
2.5
100
AcDbLine
 10
432.4769122113658
 20
636.753874876184
 30
0.0
 11
459.4920187113658
 21
636.753874876184
 31
0.0
  0
LINE
  5
2DA
330
1B
100
AcDbEntity
  8
L-CENTER
 48
2.5
100
AcDbLine
 10
434.8493182113658
 20
619.0270443737236
 30
0.0
 11
434.8493182113658
 21
649.7866383004553
 31
0.0
  0
LINE
  5
2DB
330
1B
100
AcDbEntity
  8
L-CENTER
 48
2.5
100
AcDbLine
 10
445.8493177113656
 20
623.536185376184
 30
0.0
 11
445.8493177113656
 21
650.5511538761841
 31
0.0
  0
LINE
  5
2DC
330
1B
100
AcDbEntity
  8
4
100
AcDbLine
 10
440.8493182113658
 20
640.053874376184
 30
0.0
 11
440.8493182113658
 21
630.053874376184
 31
0.0
  0
ARC
  5
2DD
330
1B
100
AcDbEntity
  8
4
100
AcDbCircle
 10
445.8493177113656
 20
636.753874876184
 30
0.0
 40
7.5
100
AcDbArc
 50
228.1896902289132
 51
134.176119687506
  0
LINE
  5
2DE
330
1B
100
AcDbEntity
  8
4
100
AcDbLine
 10
390.34931837758
 20
648.553874376184
 30
0.0
 11
390.34931837758
 21
642.553874376184
 31
0.0
  0
LINE
  5
2DF
330
1B
100
AcDbEntity
  8
4
100
AcDbLine
 10
380.34931837758
 20
648.553874376184
 30
0.0
 11
380.34931837758
 21
642.553874376184
 31
0.0
  0
LINE
  5
2E0
330
1B
100
AcDbEntity
  8
4
100
AcDbLine
 10
415.8969372589855
 20
641.053874376184
 30
0.0
 11
390.34931837758
 21
648.0517004176122
 31
0.0
  0
LINE
  5
2E1
330
1B
100
AcDbEntity
  8
4
100
AcDbLine
 10
415.7454952113658
 20
652.860502876184
 30
0.0
 11
415.4752056544872
 21
642.7246457761407
 31
0.0
  0
LINE
  5
2E2
330
1B
100
AcDbEntity
  8
4
100
AcDbLine
 10
379.59931837758
 20
642.553874376184
 30
0.0
 11
379.59931837758
 21
641.053874376184
 31
0.0
  0
LINE
  5
2E3
330
1B
100
AcDbEntity
  8
4
100
AcDbLine
 10
391.09931837758
 20
642.553874376184
 30
0.0
 11
391.09931837758
 21
641.053874376184
 31
0.0
  0
LINE
  5
2E4
330
1B
100
AcDbEntity
  8
4
100
AcDbLine
 10
379.59931837758
 20
642.553874376184
 30
0.0
 11
391.09931837758
 21
642.553874376184
 31
0.0
  0
LINE
  5
2E5
330
1B
100
AcDbEntity
  8
4
100
AcDbLine
 10
388.5159848780325
 20
648.553874376184
 30
0.0
 11
381.9501618023533
 21
650.3523389577833
 31
0.0
  0
LINE
  5
2E6
330
1B
100
AcDbEntity
  8
4
100
AcDbLine
 10
380.34931837758
 20
648.553874376184
 30
0.0
 11
390.34931837758
 21
648.553874376184
 31
0.0
  0
ARC
  5
2E7
330
1B
100
AcDbEntity
  8
4
100
AcDbCircle
 10
377.0855223703666
 20
660.6538743761844
 30
0.0
 40
1.0
100
AcDbArc
 50
15.2551187030612
 51
90.0
  0
LINE
  5
2E8
330
1B
100
AcDbEntity
  8
4
100
AcDbLine
 10
360.8493182113658
 20
662.6538743761844
 30
0.0
 11
360.8493182113658
 21
661.6538743761844
 31
0.0
  0
ARC
  5
2E9
330
1B
100
AcDbEntity
  8
4
100
AcDbCircle
 10
382.4785252305156
 20
652.2812848066294
 30
0.0
 40
2.0
100
AcDbArc
 50
195.2551187030549
 51
254.6816642065432
  0
LINE
  5
2EA
330
1B
100
AcDbEntity
  8
4
100
AcDbLine
 10
378.0502861916044
 20
660.9169917819763
 30
0.0
 11
380.5489975880401
 21
651.7550499950453
 31
0.0
  0
ARC
  5
2EB
330
1B
100
AcDbEntity
  8
4
100
AcDbCircle
 10
419.7440737113657
 20
652.7538738761841
 30
0.0
 40
4.0000005
100
AcDbArc
 50
90.0
 51
178.4724749999995
  0
LINE
  5
2EC
330
1B
100
AcDbEntity
  8
4
100
AcDbLine
 10
291.3493180451515
 20
648.553874376184
 30
0.0
 11
291.3493180451515
 21
642.553874376184
 31
0.0
  0
LINE
  5
2ED
330
1B
100
AcDbEntity
  8
4
100
AcDbLine
 10
281.3493180451515
 20
648.553874376184
 30
0.0
 11
281.3493180451515
 21
642.553874376184
 31
0.0
  0
LINE
  5
2EE
330
1B
100
AcDbEntity
  8
4
100
AcDbLine
 10
292.0993180451515
 20
642.553874376184
 30
0.0
 11
280.5993180451515
 21
642.553874376184
 31
0.0
  0
LINE
  5
2EF
330
1B
100
AcDbEntity
  8
4
100
AcDbLine
 10
280.5993180451515
 20
642.553874376184
 30
0.0
 11
280.5993180451515
 21
641.053874376184
 31
0.0
  0
LINE
  5
2F0
330
1B
100
AcDbEntity
  8
4
100
AcDbLine
 10
292.0993180451515
 20
642.553874376184
 30
0.0
 11
292.0993180451515
 21
641.053874376184
 31
0.0
  0
ARC
  5
2F1
330
1B
100
AcDbEntity
  8
4
100
AcDbCircle
 10
290.4931192266604
 20
653.1483961825957
 30
0.0
 40
1.0
100
AcDbArc
 50
285.3183357934568
 51
344.7448812969523
  0
LINE
  5
2F2
330
1B
100
AcDbEntity
  8
4
100
AcDbLine
 10
293.6483502311272
 20
660.9169917819765
 30
0.0
 11
291.4578830478982
 21
652.8852787768035
 31
0.0
  0
LINE
  5
2F3
330
1B
100
AcDbEntity
  8
4
100
AcDbLine
 10
283.1826515446986
 20
648.553874376184
 30
0.0
 11
289.7484746203782
 21
650.3523389577833
 31
0.0
  0
LINE
  5
2F4
330
1B
100
AcDbEntity
  8
4
100
AcDbLine
 10
291.3493180451515
 20
648.553874376184
 30
0.0
 11
281.3493180451515
 21
648.553874376184
 31
0.0
  0
LINE
  5
2F5
330
1B
100
AcDbEntity
  8
4
100
AcDbLine
 10
291.1496388346914
 20
651.7550499950453
 30
0.0
 11
291.4176811952244
 21
652.7378719836656
 31
0.0
  0
ARC
  5
2F6
330
1B
100
AcDbEntity
  8
4
100
AcDbCircle
 10
289.2201111922159
 20
652.2812848066294
 30
0.0
 40
2.0
100
AcDbArc
 50
285.3183357934568
 51
344.7448812969451
  0
ARC
  5
2F7
330
1B
100
AcDbEntity
  8
4
100
AcDbCircle
 10
294.6131140523649
 20
660.6538743761844
 30
0.0
 40
1.0
100
AcDbArc
 50
90.0
 51
164.7448812969388
  0
LINE
  5
2F8
330
1B
100
AcDbEntity
  8
4
100
AcDbLine
 10
310.8493182113658
 20
662.6538743761844
 30
0.0
 11
310.8493182113658
 21
661.6538743761844
 31
0.0
  0
LINE
  5
2F9
330
1B
100
AcDbEntity
  8
4
100
AcDbLine
 10
294.6131140523649
 20
661.6538743761844
 30
0.0
 11
377.0855223703666
 21
661.6538743761844
 31
0.0
  0
LINE
  5
2FA
330
1B
100
AcDbEntity
  8
4
100
AcDbLine
 10
310.8493182113658
 20
662.6538743761844
 30
0.0
 11
360.8493182113658
 21
662.6538743761844
 31
0.0
  0
LINE
  5
2FB
330
1B
100
AcDbEntity
  8
4
100
AcDbLine
 10
294.6131140523649
 20
650.6538743761844
 30
0.0
 11
377.0855223703666
 21
650.6538743761844
 31
0.0
  0
LINE
  5
2FC
330
1B
100
AcDbEntity
  8
L-CENTER
 48
2.5
100
AcDbLine
 10
385.34931837758
 20
619.0270443737236
 30
0.0
 11
385.34931837758
 21
649.7866383004553
 31
0.0
  0
LINE
  5
2FD
330
1B
100
AcDbEntity
  8
L-CENTER
 48
2.5
100
AcDbLine
 10
286.3493180451515
 20
619.0270443737236
 30
0.0
 11
286.3493180451515
 21
649.7866383004553
 31
0.0
  0
LINE
  5
2FE
330
1B
100
AcDbEntity
  8
L-CENTER
 48
2.5
100
AcDbLine
 10
270.8493182113658
 20
656.6538743761844
 30
0.0
 11
270.8493182113658
 21
629.6538743761844
 31
0.0
  0
LINE
  5
2FF
330
1B
100
AcDbEntity
  8
4
100
AcDbLine
 10
419.7440737113657
 20
656.7538743761841
 30
0.0
 11
461.8493182113658
 21
656.7538743761841
 31
0.0
  0
LINE
  5
300
330
1B
100
AcDbEntity
  8
4
100
AcDbLine
 10
380.3909136864962
 20
652.334690967373
 30
0.0
 11
421.5748472733758
 21
641.053874376184
 31
0.0
  0
LINE
  5
301
330
1B
100
AcDbEntity
  8
4
100
AcDbLine
 10
318.3493182113658
 20
662.6538743761844
 30
0.0
 11
318.3493182113658
 21
676.7538743761841
 31
0.0
  0
LINE
  5
302
330
1B
100
AcDbEntity
  8
4
100
AcDbLine
 10
353.3493182113658
 20
662.6538743761844
 30
0.0
 11
353.3493182113658
 21
676.7538743761841
 31
0.0
  0
LINE
  5
303
330
1B
100
AcDbEntity
  8
4
100
AcDbLine
 10
340.8493182113658
 20
686.7538743761841
 30
0.0
 11
340.8493182113658
 21
736.7538743761841
 31
0.0
  0
LINE
  5
304
330
1B
100
AcDbEntity
  8
4
100
AcDbLine
 10
330.8493182113658
 20
686.7538743761841
 30
0.0
 11
330.8493182113658
 21
736.7538743761841
 31
0.0
  0
LINE
  5
305
330
1B
100
AcDbEntity
  8
4
100
AcDbLine
 10
352.8493182113658
 20
677.2538743761841
 30
0.0
 11
352.8493182113658
 21
735.7538743761841
 31
0.0
  0
LINE
  5
306
330
1B
100
AcDbEntity
  8
4
100
AcDbLine
 10
318.8493182113658
 20
677.2538743761841
 30
0.0
 11
318.8493182113658
 21
735.7538743761841
 31
0.0
  0
LINE
  5
307
330
1B
100
AcDbEntity
  8
4
100
AcDbLine
 10
156.8493182113658
 20
594.2538743761841
 30
0.0
 11
155.8493182113658
 21
593.2538743761841
 31
0.0
  0
LINE
  5
308
330
1B
100
AcDbEntity
  8
4
100
AcDbLine
 10
156.8493182113658
 20
594.2538743761841
 30
0.0
 11
155.8493182113658
 21
593.2538743761841
 31
0.0
  0
LINE
  5
309
330
1B
100
AcDbEntity
  8
4
100
AcDbLine
 10
156.8493182113658
 20
594.2538743761841
 30
0.0
 11
156.8493182113658
 21
585.2538743761841
 31
0.0
  0
LINE
  5
30A
330
1B
100
AcDbEntity
  8
4
100
AcDbLine
 10
156.8493182113658
 20
594.2538743761841
 30
0.0
 11
156.8493182113658
 21
585.2538743761841
 31
0.0
  0
LINE
  5
30B
330
1B
100
AcDbEntity
  8
4
100
AcDbLine
 10
224.3493182113658
 20
596.7538743761841
 30
0.0
 11
205.8493182113658
 21
596.7538743761841
 31
0.0
  0
LINE
  5
30C
330
1B
100
AcDbEntity
  8
4
100
AcDbLine
 10
224.3493182113658
 20
596.7538743761841
 30
0.0
 11
205.8493182113658
 21
596.7538743761841
 31
0.0
  0
ARC
  5
30D
330
1B
100
AcDbEntity
  8
4
100
AcDbCircle
 10
197.3493182113658
 20
581.7538743761841
 30
0.0
 40
3.5
100
AcDbArc
 50
270.0
 51
90.0
  0
ARC
  5
30E
330
1B
100
AcDbEntity
  8
4
100
AcDbCircle
 10
197.3493182113658
 20
581.7538743761841
 30
0.0
 40
3.5
100
AcDbArc
 50
270.0
 51
90.0
  0
ARC
  5
30F
330
1B
100
AcDbEntity
  8
4
100
AcDbCircle
 10
204.8493182113658
 20
595.2538743761841
 30
0.0
 40
1.0
100
AcDbArc
 50
270.0
 51
0.0
  0
ARC
  5
310
330
1B
100
AcDbEntity
  8
4
100
AcDbCircle
 10
204.8493182113658
 20
595.2538743761841
 30
0.0
 40
1.0
100
AcDbArc
 50
270.0
 51
0.0
  0
LINE
  5
311
330
1B
100
AcDbEntity
  8
4
100
AcDbLine
 10
197.3493182113658
 20
578.2538743761841
 30
0.0
 11
155.8493182113658
 21
578.2538743761841
 31
0.0
  0
LINE
  5
312
330
1B
100
AcDbEntity
  8
4
100
AcDbLine
 10
197.3493182113658
 20
578.2538743761841
 30
0.0
 11
155.8493182113658
 21
578.2538743761841
 31
0.0
  0
LINE
  5
313
330
1B
100
AcDbEntity
  8
4
100
AcDbLine
 10
197.3493182113658
 20
585.2538743761841
 30
0.0
 11
155.8493182113658
 21
585.2538743761841
 31
0.0
  0
LINE
  5
314
330
1B
100
AcDbEntity
  8
4
100
AcDbLine
 10
197.3493182113658
 20
585.2538743761841
 30
0.0
 11
155.8493182113658
 21
585.2538743761841
 31
0.0
  0
LINE
  5
315
330
1B
100
AcDbEntity
  8
4
100
AcDbLine
 10
204.8493182113658
 20
594.2538743761841
 30
0.0
 11
156.8493182113658
 21
594.2538743761841
 31
0.0
  0
LINE
  5
316
330
1B
100
AcDbEntity
  8
4
100
AcDbLine
 10
204.8493182113658
 20
594.2538743761841
 30
0.0
 11
156.8493182113658
 21
594.2538743761841
 31
0.0
  0
LINE
  5
317
330
1B
100
AcDbEntity
  8
4
100
AcDbLine
 10
156.8493182113658
 20
569.2538743761841
 30
0.0
 11
155.8493182113658
 21
570.2538743761841
 31
0.0
  0
LINE
  5
318
330
1B
100
AcDbEntity
  8
4
100
AcDbLine
 10
156.8493182113658
 20
569.2538743761841
 30
0.0
 11
155.8493182113658
 21
570.2538743761841
 31
0.0
  0
LINE
  5
319
330
1B
100
AcDbEntity
  8
4
100
AcDbLine
 10
446.3493182113658
 20
550.7538743761841
 30
0.0
 11
447.3493182113658
 21
550.7538743761841
 31
0.0
  0
LINE
  5
31A
330
1B
100
AcDbEntity
  8
4
100
AcDbLine
 10
224.3493182113658
 20
566.7538743761841
 30
0.0
 11
205.8493182113658
 21
566.7538743761841
 31
0.0
  0
LINE
  5
31B
330
1B
100
AcDbEntity
  8
4
100
AcDbLine
 10
224.3493182113658
 20
566.7538743761841
 30
0.0
 11
205.8493182113658
 21
566.7538743761841
 31
0.0
  0
ARC
  5
31C
330
1B
100
AcDbEntity
  8
4
100
AcDbCircle
 10
204.8493182113658
 20
568.2538743761841
 30
0.0
 40
1.0
100
AcDbArc
 50
0.0
 51
90.0
  0
ARC
  5
31D
330
1B
100
AcDbEntity
  8
4
100
AcDbCircle
 10
204.8493182113658
 20
568.2538743761841
 30
0.0
 40
1.0
100
AcDbArc
 50
0.0
 51
90.0
  0
LINE
  5
31E
330
1B
100
AcDbEntity
  8
4
100
AcDbLine
 10
204.8493182113658
 20
569.2538743761841
 30
0.0
 11
156.8493182113658
 21
569.2538743761841
 31
0.0
  0
LINE
  5
31F
330
1B
100
AcDbEntity
  8
4
100
AcDbLine
 10
204.8493182113658
 20
569.2538743761841
 30
0.0
 11
156.8493182113658
 21
569.2538743761841
 31
0.0
  0
LINE
  5
320
330
1B
100
AcDbEntity
  8
4
100
AcDbLine
 10
155.8493182113658
 20
593.2538743761841
 30
0.0
 11
155.8493182113658
 21
570.2538743761841
 31
0.0
  0
LINE
  5
321
330
1B
100
AcDbEntity
  8
4
100
AcDbLine
 10
155.8493182113658
 20
593.2538743761841
 30
0.0
 11
155.8493182113658
 21
570.2538743761841
 31
0.0
  0
LINE
  5
322
330
1B
100
AcDbEntity
  8
4
100
AcDbLine
 10
205.8493182113658
 20
596.7538743761841
 30
0.0
 11
205.8493182113658
 21
566.7538743761841
 31
0.0
  0
LINE
  5
323
330
1B
100
AcDbEntity
  8
4
100
AcDbLine
 10
205.8493182113658
 20
596.7538743761841
 30
0.0
 11
205.8493182113658
 21
566.7538743761841
 31
0.0
  0
LINE
  5
324
330
1B
100
AcDbEntity
  8
4
100
AcDbLine
 10
156.8493182113658
 20
578.2538743761841
 30
0.0
 11
156.8493182113658
 21
569.2538743761841
 31
0.0
  0
LINE
  5
325
330
1B
100
AcDbEntity
  8
4
100
AcDbLine
 10
156.8493182113658
 20
578.2538743761841
 30
0.0
 11
156.8493182113658
 21
569.2538743761841
 31
0.0
  0
LINE
  5
326
330
1B
100
AcDbEntity
  8
L-CENTER
 48
2.5
100
AcDbLine
 10
275.8493182113658
 20
556.2557965038495
 30
0.0
 11
275.8493182113658
 21
605.972599036786
 31
0.0
  0
LINE
  5
327
330
1B
100
AcDbEntity
  8
4
100
AcDbLine
 10
440.8493182113658
 20
530.7538743761841
 30
0.0
 11
440.8493182113658
 21
538.7538738761841
 31
0.0
  0
LINE
  5
328
330
1B
100
AcDbEntity
  8
L-CENTER
 48
2.5
100
AcDbLine
 10
432.1118002113658
 20
526.7538738761841
 30
0.0
 11
459.4920187113658
 21
526.7538738761841
 31
0.0
  0
ARC
  5
329
330
1B
100
AcDbEntity
  8
4
100
AcDbCircle
 10
445.8493177113656
 20
526.7538738761841
 30
0.0
 40
7.5
100
AcDbArc
 50
147.7690428489584
 51
131.8103097710868
  0
LINE
  5
32A
330
1B
100
AcDbEntity
  8
4
100
AcDbLine
 10
442.8493182113658
 20
538.7538738761841
 30
0.0
 11
442.8493182113658
 21
539.7538743761838
 31
0.0
  0
ARC
  5
32B
330
1B
100
AcDbEntity
  8
4
100
AcDbCircle
 10
461.8493182113658
 20
510.7538748761842
 30
0.0
 40
4.0000005
100
AcDbArc
 50
270.0
 51
0.0
  0
LINE
  5
32C
330
1B
100
AcDbEntity
  8
L-CENTER
 48
2.5
100
AcDbLine
 10
445.8493177113656
 20
512.920854376184
 30
0.0
 11
445.8493177113656
 21
540.3009018761841
 31
0.0
  0
LINE
  5
32D
330
1B
100
AcDbEntity
  8
4
100
AcDbLine
 10
375.8493187113659
 20
504.7538748761842
 30
0.0
 11
377.8493182113658
 21
514.7538738761841
 31
0.0
  0
ARC
  5
32E
330
1B
100
AcDbEntity
  8
4
100
AcDbCircle
 10
419.7440737113657
 20
510.7538748761842
 30
0.0
 40
4.0000005
100
AcDbArc
 50
181.5275250000005
 51
270.0
  0
LINE
  5
32F
330
1B
100
AcDbEntity
  8
4
100
AcDbLine
 10
295.8493177113656
 20
504.7538748761842
 30
0.0
 11
293.8493182113658
 21
514.7538738761841
 31
0.0
  0
LINE
  5
330
330
1B
100
AcDbEntity
  8
4
100
AcDbLine
 10
295.8493177113656
 20
504.7538748761842
 30
0.0
 11
375.8493187113659
 21
504.7538748761842
 31
0.0
  0
LINE
  5
331
330
1B
100
AcDbEntity
  8
4
100
AcDbLine
 10
293.8493182113658
 20
514.7538738761841
 30
0.0
 11
377.8493182113658
 21
514.7538738761841
 31
0.0
  0
LINE
  5
332
330
1B
100
AcDbEntity
  8
4
100
AcDbLine
 10
415.3175654513353
 20
526.6945891125001
 30
0.0
 11
415.7421711305365
 21
510.7718721617703
 31
0.0
  0
LINE
  5
333
330
1B
100
AcDbEntity
  8
4
100
AcDbLine
 10
419.7440737113657
 20
506.7538743761841
 30
0.0
 11
461.8493182113658
 21
506.7538743761841
 31
0.0
  0
LINE
  5
334
330
1B
100
AcDbEntity
  8
4
100
AcDbLine
 10
427.0178578593823
 20
530.7538743761841
 30
0.0
 11
377.6218387113659
 21
513.6164793761841
 31
0.0
  0
LINE
  5
335
330
1B
100
AcDbEntity
  8
4
100
AcDbLine
 10
423.9669651897723
 20
530.7538743761841
 30
0.0
 11
377.8493182113658
 21
514.7538738761841
 31
0.0
  0
LINE
  5
336
330
1B
100
AcDbEntity
  8
L-CENTER
 48
2.5
100
AcDbLine
 10
335.8493182113658
 20
498.7092153761839
 30
0.0
 11
335.8493182113658
 21
747.3526249586212
 31
0.0
  0
LINE
  5
337
330
1B
100
AcDbEntity
  8
4
100
AcDbLine
 10
447.3493182113658
 20
612.7538743761841
 30
0.0
 11
447.3493182113658
 21
550.7538743761841
 31
0.0
  0
LINE
  5
338
330
1B
100
AcDbEntity
  8
4
100
AcDbLine
 10
446.3493182113658
 20
539.7538743761841
 30
0.0
 11
446.3493182113658
 21
623.7538743761841
 31
0.0
  0
LINE
  5
339
330
1B
100
AcDbEntity
  8
4
100
AcDbLine
 10
439.8493182113658
 20
539.7538743761838
 30
0.0
 11
439.8493182113658
 21
623.7538743761843
 31
0.0
  0
LINE
  5
33A
330
1B
100
AcDbEntity
  8
4
100
AcDbLine
 10
465.8493187113659
 20
510.7538748761842
 30
0.0
 11
465.8493187113659
 21
652.7538738761841
 31
0.0
  0
LINE
  5
33B
330
1B
100
AcDbEntity
  8
4
100
AcDbLine
 10
231.8493182113658
 20
648.553874376184
 30
0.0
 11
231.8493182113658
 21
642.553874376184
 31
0.0
  0
LINE
  5
33C
330
1B
100
AcDbEntity
  8
4
100
AcDbLine
 10
241.8493182113658
 20
648.553874376184
 30
0.0
 11
241.8493182113658
 21
642.553874376184
 31
0.0
  0
LINE
  5
33D
330
1B
100
AcDbEntity
  8
4
100
AcDbLine
 10
256.8493182113658
 20
649.1538743761846
 30
0.0
 11
256.8493182113658
 21
643.6590072088409
 31
0.0
  0
LINE
  5
33E
330
1B
100
AcDbEntity
  8
4
100
AcDbLine
 10
255.9531412113657
 20
652.860502876184
 30
0.0
 11
256.2234307682441
 21
642.7246457761403
 31
0.0
  0
LINE
  5
33F
330
1B
100
AcDbEntity
  8
4
100
AcDbLine
 10
242.5993182113658
 20
642.553874376184
 30
0.0
 11
231.0993182113658
 21
642.553874376184
 31
0.0
  0
LINE
  5
340
330
1B
100
AcDbEntity
  8
4
100
AcDbLine
 10
231.0993182113658
 20
642.553874376184
 30
0.0
 11
231.0993182113658
 21
641.053874376184
 31
0.0
  0
ARC
  5
341
330
1B
100
AcDbEntity
  8
4
100
AcDbCircle
 10
231.8493182113658
 20
640.053874376184
 30
0.0
 40
1.0
100
AcDbArc
 50
90.0
 51
180.0
  0
LINE
  5
342
330
1B
100
AcDbEntity
  8
4
100
AcDbLine
 10
242.5993182113658
 20
642.553874376184
 30
0.0
 11
242.5993182113658
 21
641.053874376184
 31
0.0
  0
ARC
  5
343
330
1B
100
AcDbEntity
  8
4
100
AcDbCircle
 10
255.8493182113658
 20
643.6590072088409
 30
0.0
 40
1.0
100
AcDbArc
 50
285.3183357934568
 51
0.0
  0
LINE
  5
344
330
1B
100
AcDbEntity
  8
4
100
AcDbLine
 10
241.8493182113658
 20
648.553874376184
 30
0.0
 11
231.8493182113658
 21
648.553874376184
 31
0.0
  0
LINE
  5
345
330
1B
100
AcDbEntity
  8
4
100
AcDbLine
 10
209.8493182113658
 20
656.7538743761841
 30
0.0
 11
251.9545627113658
 21
656.7538743761841
 31
0.0
  0
ARC
  5
346
330
1B
100
AcDbEntity
  8
4
100
AcDbCircle
 10
209.8493182113658
 20
652.7538738761841
 30
0.0
 40
4.0000005
100
AcDbArc
 50
90.0
 51
180.0
  0
ARC
  5
347
330
1B
100
AcDbEntity
  8
4
100
AcDbCircle
 10
257.8493182113658
 20
649.1538743761846
 30
0.0
 40
1.0
100
AcDbArc
 50
90.0
 51
180.0
  0
ARC
  5
348
330
1B
100
AcDbEntity
  8
4
100
AcDbCircle
 10
251.9545627113658
 20
652.7538738761841
 30
0.0
 40
4.0000005
100
AcDbArc
 50
1.527525000000444
 51
90.0
  0
LINE
  5
349
330
1B
100
AcDbEntity
  8
L-CENTER
 48
2.5
100
AcDbLine
 10
213.0703492113658
 20
636.753874876184
 30
0.0
 11
239.355299211366
 21
636.753874876184
 31
0.0
  0
LINE
  5
34A
330
1B
100
AcDbEntity
  8
4
100
AcDbLine
 10
230.8493182113658
 20
624.753874876184
 30
0.0
 11
230.8493182113658
 21
629.7538743761843
 31
0.0
  0
LINE
  5
34B
330
1B
100
AcDbEntity
  8
4
100
AcDbLine
 10
225.3493177113656
 20
612.7538743761841
 30
0.0
 11
224.3493177113656
 21
612.7538743761841
 31
0.0
  0
LINE
  5
34C
330
1B
100
AcDbEntity
  8
4
100
AcDbLine
 10
228.8493182113658
 20
623.7538743761841
 30
0.0
 11
228.8493182113658
 21
624.753874876184
 31
0.0
  0
LINE
  5
34D
330
1B
100
AcDbEntity
  8
L-CENTER
 48
2.5
100
AcDbLine
 10
236.8493182113658
 20
619.0270443737236
 30
0.0
 11
236.8493182113658
 21
649.7866383004553
 31
0.0
  0
LINE
  5
34E
330
1B
100
AcDbEntity
  8
L-CENTER
 48
2.5
100
AcDbLine
 10
225.8493187113659
 20
622.4410083761841
 30
0.0
 11
225.8493187113659
 21
651.2813103761841
 31
0.0
  0
LINE
  5
34F
330
1B
100
AcDbEntity
  8
4
100
AcDbLine
 10
230.8493182113658
 20
640.053874376184
 30
0.0
 11
230.8493182113658
 21
630.053874376184
 31
0.0
  0
ARC
  5
350
330
1B
100
AcDbEntity
  8
4
100
AcDbCircle
 10
225.8493187113659
 20
636.753874876184
 30
0.0
 40
7.5
100
AcDbArc
 50
45.82388031249412
 51
311.8103097710868
  0
LINE
  5
353
330
1B
100
AcDbEntity
  8
4
100
AcDbLine
 10
225.3493177113656
 20
550.7538743761841
 30
0.0
 11
224.3493177113656
 21
550.7538743761841
 31
0.0
  0
LINE
  5
358
330
1B
100
AcDbEntity
  8
L-CENTER
 48
2.5
100
AcDbLine
 10
212.7052822113661
 20
526.7538738761841
 30
0.0
 11
239.355299211366
 21
526.7538738761841
 31
0.0
  0
LINE
  5
359
330
1B
100
AcDbEntity
  8
4
100
AcDbLine
 10
230.8493182113658
 20
530.7538743761841
 30
0.0
 11
230.8493182113658
 21
538.7538738761841
 31
0.0
  0
ARC
  5
35A
330
1B
100
AcDbEntity
  8
4
100
AcDbCircle
 10
225.8493187113659
 20
526.7538738761841
 30
0.0
 40
7.5
100
AcDbArc
 50
48.18969022891324
 51
32.23095715104168
  0
LINE
  5
35B
330
1B
100
AcDbEntity
  8
4
100
AcDbLine
 10
228.8493182113658
 20
538.7538738761841
 30
0.0
 11
228.8493182113658
 21
539.7538743761838
 31
0.0
  0
LINE
  5
35C
330
1B
100
AcDbEntity
  8
4
100
AcDbLine
 10
209.8493182113658
 20
506.7538743761841
 30
0.0
 11
251.9545627113658
 21
506.7538743761841
 31
0.0
  0
ARC
  5
35D
330
1B
100
AcDbEntity
  8
4
100
AcDbCircle
 10
209.8493182113658
 20
510.7538748761842
 30
0.0
 40
4.0000005
100
AcDbArc
 50
180.0
 51
270.0
  0
ARC
  5
35E
330
1B
100
AcDbEntity
  8
4
100
AcDbCircle
 10
251.9545627113658
 20
510.7538748761842
 30
0.0
 40
4.0000005
100
AcDbArc
 50
270.0
 51
358.4724749999996
  0
LINE
  5
35F
330
1B
100
AcDbEntity
  8
L-CENTER
 48
2.5
100
AcDbLine
 10
225.8493187113659
 20
513.651022876184
 30
0.0
 11
225.8493187113659
 21
540.3009018761841
 31
0.0
  0
LINE
  5
360
330
1B
100
AcDbEntity
  8
4
100
AcDbLine
 10
255.9531412113657
 20
510.6472458761841
 30
0.0
 11
256.3810704235657
 21
526.6945893025638
 31
0.0
  0
LINE
  5
361
330
1B
100
AcDbEntity
  8
4
100
AcDbLine
 10
224.3493177113656
 20
612.7538743761841
 30
0.0
 11
224.3493177113656
 21
550.7538743761841
 31
0.0
  0
LINE
  5
362
330
1B
100
AcDbEntity
  8
4
100
AcDbLine
 10
231.8493182113658
 20
539.7538743761841
 30
0.0
 11
231.8493182113658
 21
623.7538743761841
 31
0.0
  0
LINE
  5
363
330
1B
100
AcDbEntity
  8
4
100
AcDbLine
 10
225.3493177113656
 20
539.7538743761841
 30
0.0
 11
225.3493177113656
 21
623.7538743761841
 31
0.0
  0
LINE
  5
364
330
1B
100
AcDbEntity
  8
4
100
AcDbLine
 10
205.8493177113656
 20
510.7538748761842
 30
0.0
 11
205.8493177113656
 21
652.7538738761841
 31
0.0
  0
LINE
  5
365
330
1B
100
AcDbEntity
  8
4
100
AcDbLine
 10
230.8493182113658
 20
530.7538743761841
 30
0.0
 11
440.8493182113658
 21
530.7538743761841
 31
0.0
  0
LINE
  5
366
330
1B
100
AcDbEntity
  8
4
100
AcDbLine
 10
367.8493047113657
 20
535.7538738761841
 30
0.0
 11
431.8493177113656
 21
535.7538738761841
 31
0.0
  0
LINE
  5
367
330
1B
100
AcDbEntity
  8
4
100
AcDbLine
 10
228.8493182113658
 20
538.7538738761841
 30
0.0
 11
442.8493182113658
 21
538.7538738761841
 31
0.0
  0
LINE
  5
368
330
1B
100
AcDbEntity
  8
4
100
AcDbLine
 10
225.3493177113656
 20
539.7538743761841
 30
0.0
 11
446.3493182113658
 21
539.7538743761841
 31
0.0
  0
LINE
  5
369
330
1B
100
AcDbEntity
  8
4
100
AcDbLine
 10
244.6807785633494
 20
530.7538743761841
 30
0.0
 11
294.0767977113661
 21
513.6164793761841
 31
0.0
  0
LINE
  5
36A
330
1B
100
AcDbEntity
  8
4
100
AcDbLine
 10
247.7316712329594
 20
530.7538743761841
 30
0.0
 11
293.8493182113658
 21
514.7538738761841
 31
0.0
  0
LINE
  5
36B
330
1B
100
AcDbEntity
  8
L-CENTER
 48
2.5
100
AcDbLine
 10
472.5659370276151
 20
581.7538743761841
 30
0.0
 11
152.6094463382337
 21
581.7538743761841
 31
0.0
  0
LINE
  5
36C
330
1B
100
AcDbEntity
  8
4
100
AcDbLine
 10
250.1237891493557
 20
641.053874376184
 30
0.0
 11
290.7573009407416
 21
652.1839232581726
 31
0.0
  0
LINE
  5
36D
330
1B
100
AcDbEntity
  8
4
100
AcDbLine
 10
255.8016991637465
 20
641.053874376184
 30
0.0
 11
281.3493180451515
 21
648.0517004176124
 31
0.0
  0
LINE
  5
36E
330
1B
100
AcDbEntity
  8
4
100
AcDbLine
 10
440.8493182113658
 20
630.053874376184
 30
0.0
 11
230.8493182113658
 21
630.053874376184
 31
0.0
  0
LINE
  5
36F
330
1B
100
AcDbEntity
  8
4
100
AcDbLine
 10
439.8493182113658
 20
641.053874376184
 30
0.0
 11
231.8493182113658
 21
641.053874376184
 31
0.0
  0
LINE
  5
370
330
1B
100
AcDbEntity
  8
4
100
AcDbLine
 10
230.8493182113658
 20
629.7538743761843
 30
0.0
 11
440.8493182113658
 21
629.7538743761838
 31
0.0
  0
LINE
  5
371
330
1B
100
AcDbEntity
  8
4
100
AcDbLine
 10
228.8493182113658
 20
624.753874876184
 30
0.0
 11
442.8493182113658
 21
624.753874876184
 31
0.0
  0
LINE
  5
372
330
1B
100
AcDbEntity
  8
4
100
AcDbLine
 10
225.3493177113656
 20
623.7538743761841
 30
0.0
 11
446.3493182113658
 21
623.7538743761841
 31
0.0
  0
LWPOLYLINE
  5
373
330
1B
100
AcDbEntity
  8
4
100
AcDbPolyline
 90
        6
 70
     1
 43
0.0
 10
288.3493182113658
 20
581.7538743761841
 10
282.0993182113658
 20
592.5791919234896
 10
269.5993182113658
 20
592.5791919234896
 10
263.3493182113658
 20
581.7538743761841
 10
269.5993182113658
 20
570.9285568288785
 10
282.0993182113658
 20
570.9285568288785
  0
CIRCLE
  5
374
330
1B
100
AcDbEntity
  8
4
100
AcDbCircle
 10
275.8493182113658
 20
581.7538743761841
 30
0.0
 40
12.5
  0
CIRCLE
  5
375
330
1B
100
AcDbEntity
  8
4
100
AcDbCircle
 10
275.8493182113658
 20
581.7538743761841
 30
0.0
 40
19.0
  0
LINE
  5
376
330
1B
100
AcDbEntity
  8
4
100
AcDbLine
 10
257.8493182113658
 20
650.1538743761846
 30
0.0
 11
283.3460113715797
 21
650.1538743761844
 31
0.0
  0
LINE
  5
37B
330
1B
100
AcDbEntity
  8
4
100
AcDbLine
 10
708.8211066028076
 20
266.7244516722304
 30
0.0
 11
708.8211066028076
 21
276.7244516722303
 31
0.0
  0
ARC
  5
391
330
1B
100
AcDbEntity
  8
4
 62
     3
100
AcDbCircle
 10
662.0211061028073
 20
329.3226921722303
 30
0.0
 40
1.0000005
100
AcDbArc
 50
180.0
 51
266.190165
  0
LINE
  5
392
330
1B
100
AcDbEntity
  8
4
100
AcDbLine
 10
654.5212291028075
 20
333.4878791722304
 30
0.0
 11
629.5212291028075
 21
333.4878791722304
 31
0.0
  0
LINE
  5
393
330
1B
100
AcDbEntity
  8
4
100
AcDbLine
 10
652.8464241028074
 20
337.4878791722304
 30
0.0
 11
631.1957891028075
 21
337.4878791722304
 31
0.0
  0
LINE
  5
394
330
1B
100
AcDbEntity
  8
4
100
AcDbLine
 10
654.5212291028075
 20
331.4878791722304
 30
0.0
 11
629.5212291028075
 21
331.4878791722304
 31
0.0
  0
LINE
  5
395
330
1B
100
AcDbEntity
  8
4
100
AcDbLine
 10
631.1957891028075
 20
333.4878791722304
 30
0.0
 11
631.1957891028075
 21
337.4878791722304
 31
0.0
  0
LINE
  5
396
330
1B
100
AcDbEntity
  8
4
100
AcDbLine
 10
630.5212291028075
 20
329.9878791722304
 30
0.0
 11
630.5212291028075
 21
331.4878791722304
 31
0.0
  0
LINE
  5
397
330
1B
100
AcDbEntity
  8
4
100
AcDbLine
 10
629.5212291028075
 20
331.4878791722304
 30
0.0
 11
629.5212291028075
 21
333.4878791722304
 31
0.0
  0
LINE
  5
398
330
1B
100
AcDbEntity
  8
4
100
AcDbLine
 10
652.8464241028074
 20
333.4878791722304
 30
0.0
 11
652.8464241028074
 21
337.4878791722304
 31
0.0
  0
LINE
  5
399
330
1B
100
AcDbEntity
  8
4
100
AcDbLine
 10
653.5212291028075
 20
329.9878791722304
 30
0.0
 11
653.5212291028075
 21
331.4878791722304
 31
0.0
  0
LINE
  5
39A
330
1B
100
AcDbEntity
  8
4
100
AcDbLine
 10
654.5212291028075
 20
331.4878791722304
 30
0.0
 11
654.5212291028075
 21
333.4878791722304
 31
0.0
  0
LINE
  5
39B
330
1B
100
AcDbEntity
  8
4
 62
     3
100
AcDbLine
 10
661.0211071028076
 20
329.9878791722304
 30
0.0
 11
661.0211071028076
 21
329.3226921722303
 31
0.0
  0
ARC
  5
39C
330
1B
100
AcDbEntity
  8
4
 62
     3
100
AcDbCircle
 10
677.7196876028075
 20
322.8273096722305
 30
0.0
 40
4.0000005
100
AcDbArc
 50
7.149430000000284
 51
83.07307699999927
  0
ARC
  5
39D
330
1B
100
AcDbEntity
  8
4
 62
     3
100
AcDbCircle
 10
622.0211071028076
 20
329.3226921722303
 30
0.0
 40
1.0000005
100
AcDbArc
 50
273.809835
 51
0.0
  0
ARC
  5
39E
330
1B
100
AcDbEntity
  8
4
 62
     3
100
AcDbCircle
 10
606.3225256028073
 20
322.8273096722305
 30
0.0
 40
4.0000005
100
AcDbArc
 50
96.92692300000073
 51
172.8505699999997
  0
LINE
  5
39F
330
1B
100
AcDbEntity
  8
4
 62
     3
100
AcDbLine
 10
623.0211061028073
 20
329.9878791722304
 30
0.0
 11
623.0211061028073
 21
329.3226921722303
 31
0.0
  0
ARC
  5
3A0
330
1B
100
AcDbEntity
  8
4
 62
     3
100
AcDbCircle
 10
642.0211066028074
 20
28.98787867223041
 30
0.0
 40
300.0
100
AcDbArc
 50
83.07307699999998
 51
96.926923
  0
LINE
  5
3A1
330
1B
100
AcDbEntity
  8
4
 62
     3
100
AcDbLine
 10
661.0211071028076
 20
329.9878791722304
 30
0.0
 11
623.0211061028073
 21
329.9878791722304
 31
0.0
  0
LINE
  5
3A6
330
1B
100
AcDbEntity
  8
4
100
AcDbLine
 10
700.3211066028076
 20
290.9878791722304
 30
0.0
 11
690.0211066028074
 21
290.9878791722304
 31
0.0
  0
ARC
  5
3A7
330
1B
100
AcDbEntity
  8
4
 62
     3
100
AcDbCircle
 10
686.0211061028073
 20
291.9878796722305
 30
0.0
 40
1.0000005
100
AcDbArc
 50
180.0
 51
270.0
  0
LINE
  5
3A8
330
1B
100
AcDbEntity
  8
4
 62
     3
100
AcDbLine
 10
684.4177441028074
 20
292.9878786722302
 30
0.0
 11
684.5311066028077
 21
292.9878786722302
 31
0.0
  0
ARC
  5
3A9
330
1B
100
AcDbEntity
  8
4
 62
     3
100
AcDbCircle
 10
684.4177441028074
 20
293.4778791722304
 30
0.0
 40
0.4900004999999999
100
AcDbArc
 50
181.4282999999998
 51
270.0
  0
LINE
  5
3AA
330
1B
100
AcDbEntity
  8
4
 62
     3
100
AcDbLine
 10
685.0211071028076
 20
292.4978796722303
 30
0.0
 11
685.0211071028076
 21
291.9878796722305
 31
0.0
  0
ARC
  5
3AB
330
1B
100
AcDbEntity
  8
4
 62
     3
100
AcDbCircle
 10
684.5311066028077
 20
292.4978796722303
 30
0.0
 40
0.4900004999999999
100
AcDbArc
 50
0.0
 51
90.0
  0
LINE
  5
3AC
330
1B
100
AcDbEntity
  8
4
 62
     3
100
AcDbLine
 10
686.0211061028073
 20
290.9878791722304
 30
0.0
 11
690.0211066028074
 21
290.9878791722304
 31
0.0
  0
ARC
  5
3AD
330
1B
100
AcDbEntity
  8
4
100
AcDbCircle
 10
700.3211066028076
 20
289.9878791722304
 30
0.0
 40
1.0
100
AcDbArc
 50
0.0
 51
90.0
  0
ARC
  5
3B2
330
1B
100
AcDbEntity
  8
4
 62
     3
100
AcDbCircle
 10
598.0211071028076
 20
291.9878796722305
 30
0.0
 40
1.0000005
100
AcDbArc
 50
270.0
 51
0.0
  0
LINE
  5
3B3
330
1B
100
AcDbEntity
  8
4
 62
     3
100
AcDbLine
 10
592.0211071028076
 20
290.9878791722304
 30
0.0
 11
598.0211071028076
 21
290.9878791722304
 31
0.0
  0
ARC
  5
3B4
330
1B
100
AcDbEntity
  8
4
 62
     3
100
AcDbCircle
 10
592.0211071028076
 20
289.9878786722302
 30
0.0
 40
1.0000005
100
AcDbArc
 50
90.0
 51
180.0
  0
LINE
  5
3B5
330
1B
100
AcDbEntity
  8
4
 62
     3
100
AcDbLine
 10
599.0211061028073
 20
292.4978796722303
 30
0.0
 11
599.0211061028073
 21
291.9878796722305
 31
0.0
  0
LINE
  5
3B6
330
1B
100
AcDbEntity
  8
4
 62
     3
100
AcDbLine
 10
599.5111066028072
 20
292.9878786722302
 30
0.0
 11
599.6244691028074
 21
292.9878786722302
 31
0.0
  0
ARC
  5
3B7
330
1B
100
AcDbEntity
  8
4
 62
     3
100
AcDbCircle
 10
599.6244691028074
 20
293.4778791722304
 30
0.0
 40
0.4900004999999999
100
AcDbArc
 50
270.0
 51
358.5717000000002
  0
ARC
  5
3B8
330
1B
100
AcDbEntity
  8
4
 62
     3
100
AcDbCircle
 10
599.5111066028072
 20
292.4978796722303
 30
0.0
 40
0.4900004999999999
100
AcDbArc
 50
90.0
 51
180.0
  0
LINE
  5
3B9
330
1B
100
AcDbEntity
  8
L-CENTER
 48
2.5
100
AcDbLine
 10
687.5350696028073
 20
285.9878796722305
 30
0.0
 11
595.4611846028075
 21
285.9878796722305
 31
0.0
  0
LINE
  5
3BA
330
1B
100
AcDbEntity
  8
4
100
AcDbLine
 10
702.8211066028076
 20
265.9744516722304
 30
0.0
 11
702.8211066028076
 21
277.4744516722303
 31
0.0
  0
LINE
  5
3BB
330
1B
100
AcDbEntity
  8
4
100
AcDbLine
 10
702.8211066028076
 20
277.4744516722303
 30
0.0
 11
701.3211066028076
 21
277.4744516722303
 31
0.0
  0
LINE
  5
3BC
330
1B
100
AcDbEntity
  8
4
100
AcDbLine
 10
702.8211066028076
 20
265.9744516722304
 30
0.0
 11
701.3211066028076
 21
265.9744516722304
 31
0.0
  0
LINE
  5
3BD
330
1B
100
AcDbEntity
  8
2
100
AcDbLine
 10
701.3211066028076
 20
271.7244516722303
 30
0.0
 11
702.8211066028076
 21
273.2244516722303
 31
0.0
  0
LINE
  5
3BE
330
1B
100
AcDbEntity
  8
2
100
AcDbLine
 10
701.3211066028076
 20
269.6031313286708
 30
0.0
 11
702.8211066028076
 21
271.1031313286708
 31
0.0
  0
CIRCLE
  5
3C8
330
1B
100
AcDbEntity
  8
4
 62
     3
100
AcDbCircle
 10
642.0211066028074
 20
285.9878796722305
 30
0.0
 40
31.0000005
  0
LINE
  5
3CA
330
1B
100
AcDbEntity
  8
4
100
AcDbLine
 10
446.3493182113658
 20
316.9878796722305
 30
0.0
 11
447.3493182113658
 21
316.9878796722305
 31
0.0
  0
ARC
  5
3CB
330
1B
100
AcDbEntity
  8
4
 62
     3
100
AcDbCircle
 10
440.5813687113658
 20
328.9878786722304
 30
0.0
 40
1.0000005
100
AcDbArc
 50
210.0000000000064
 51
270.0
  0
LINE
  5
3CC
330
1B
100
AcDbEntity
  8
4
 62
     3
100
AcDbLine
 10
440.5813687113658
 20
327.9878796722303
 30
0.0
 11
446.3493187113657
 21
327.9878796722303
 31
0.0
  0
ARC
  5
3CD
330
1B
100
AcDbEntity
  8
4
 62
     3
100
AcDbCircle
 10
438.8493187113657
 20
327.9878796722303
 30
0.0
 40
1.0000005
100
AcDbArc
 50
0.0
 51
90.0
  0
LINE
  5
3D1
330
1B
100
AcDbEntity
  8
4
100
AcDbLine
 10
288.3498082113657
 20
331.4878791722304
 30
0.0
 11
288.3498082113657
 21
337.4878791722304
 31
0.0
  0
LINE
  5
3D2
330
1B
100
AcDbEntity
  8
4
100
AcDbLine
 10
287.3498082113657
 20
329.9878791722304
 30
0.0
 11
287.3498082113657
 21
331.4878791722304
 31
0.0
  0
LINE
  5
3D3
330
1B
100
AcDbEntity
  8
4
100
AcDbLine
 10
282.0998082113657
 20
333.4878791722304
 30
0.0
 11
282.0998082113657
 21
337.4878791722304
 31
0.0
  0
LINE
  5
3D4
330
1B
100
AcDbEntity
  8
4
100
AcDbLine
 10
269.5998082113657
 20
333.4878791722304
 30
0.0
 11
269.5998082113657
 21
337.4878791722304
 31
0.0
  0
LINE
  5
3D5
330
1B
100
AcDbEntity
  8
4
 62
     3
100
AcDbLine
 10
294.8493187113659
 20
329.9878791722304
 30
0.0
 11
294.8493187113659
 21
329.9778786722304
 31
0.0
  0
ARC
  5
3D6
330
1B
100
AcDbEntity
  8
4
 62
     3
100
AcDbCircle
 10
295.8393187113657
 20
329.9778786722304
 30
0.0
 40
0.99
100
AcDbArc
 50
180.0
 51
270.0
  0
LINE
  5
3D7
330
1B
100
AcDbEntity
  8
L-CENTER
 48
2.5
100
AcDbLine
 10
275.8493182113658
 20
320.828562227875
 30
0.0
 11
275.8493182113658
 21
343.6239781168701
 31
0.0
  0
ARC
  5
3DD
330
1B
100
AcDbEntity
  8
4
 62
     3
100
AcDbCircle
 10
440.8493182113658
 20
296.9878791722304
 30
0.0
 40
1.0000005
100
AcDbArc
 50
180.0
 51
270.0
  0
LINE
  5
3E3
330
1B
100
AcDbEntity
  8
4
100
AcDbLine
 10
446.3493182113658
 20
254.9878796722305
 30
0.0
 11
447.3493182113658
 21
254.9878796722305
 31
0.0
  0
ARC
  5
3E4
330
1B
100
AcDbEntity
  8
4
 62
     3
100
AcDbCircle
 10
440.8493182113658
 20
274.9878786722302
 30
0.0
 40
1.0000005
100
AcDbArc
 50
90.0
 51
180.0
  0
ARC
  5
3E6
330
1B
100
AcDbEntity
  8
4
 62
     3
100
AcDbCircle
 10
426.1059787113657
 20
276.2445396722303
 30
0.0
 40
4.0000005
100
AcDbArc
 50
16.07294399999888
 51
73.92705600000133
  0
LINE
  5
3EA
330
1B
100
AcDbEntity
  8
4
 62
     3
100
AcDbLine
 10
439.8493177113658
 20
296.9878791722304
 30
0.0
 11
439.8493177113658
 21
327.9878796722303
 31
0.0
  0
LINE
  5
3ED
330
1B
100
AcDbEntity
  8
4
100
AcDbLine
 10
447.3493182113658
 20
316.9878796722305
 30
0.0
 11
447.3493182113658
 21
254.9878796722305
 31
0.0
  0
LINE
  5
3F3
330
1B
100
AcDbEntity
  8
L-CENTER
 48
2.5
100
AcDbLine
 10
679.2942766003472
 20
271.7244516722303
 30
0.0
 11
710.0538705270789
 21
271.7244516722303
 31
0.0
  0
LINE
  5
3F4
330
1B
100
AcDbEntity
  8
4
100
AcDbLine
 10
708.8211066028076
 20
276.7244516722303
 30
0.0
 11
702.8211066028076
 21
276.7244516722303
 31
0.0
  0
LINE
  5
3F5
330
1B
100
AcDbEntity
  8
4
100
AcDbLine
 10
708.8211066028076
 20
266.7244516722304
 30
0.0
 11
702.8211066028076
 21
266.7244516722303
 31
0.0
  0
LINE
  5
3F7
330
1B
100
AcDbEntity
  8
4
100
AcDbLine
 10
721.1842240086004
 20
228.188847152469
 30
0.0
 11
712.0222822216689
 21
230.6875585489047
 31
0.0
  0
ARC
  5
3F8
330
1B
100
AcDbEntity
  8
4
100
AcDbCircle
 10
712.5485170332537
 20
232.6170861913802
 30
0.0
 40
2.0
100
AcDbArc
 50
195.3183357934497
 51
254.7448812969384
  0
ARC
  5
3F9
330
1B
100
AcDbEntity
  8
4
100
AcDbCircle
 10
720.921106602808
 20
227.2240833312312
 30
0.0
 40
1.0
100
AcDbArc
 50
0.0
 51
74.74488129692537
  0
LINE
  5
3FD
330
1B
100
AcDbEntity
  8
4
100
AcDbLine
 10
796.0211066028074
 20
202.9878791722304
 30
0.0
 11
797.0211066028074
 21
201.9878791722304
 31
0.0
  0
LINE
  5
3FF
330
1B
100
AcDbEntity
  8
4
100
AcDbLine
 10
712.6019231939978
 20
210.9878791722301
 30
0.0
 11
710.9211066028062
 21
210.9878791722301
 31
0.0
  0
LINE
  5
400
330
1B
100
AcDbEntity
  8
4
100
AcDbLine
 10
722.9208616028078
 20
203.4878791722304
 30
0.0
 11
737.0211066028074
 21
203.4878791722304
 31
0.0
  0
LINE
  5
401
330
1B
100
AcDbEntity
  8
4
100
AcDbLine
 10
722.9208616028078
 20
210.9878791722304
 30
0.0
 11
721.9208616028073
 21
210.9878791722304
 31
0.0
  0
LINE
  5
402
330
1B
100
AcDbEntity
  8
4
100
AcDbLine
 10
742.0211066028074
 20
206.4878791722304
 30
0.0
 11
742.0211066028074
 21
202.9878791722304
 31
0.0
  0
LINE
  5
403
330
1B
100
AcDbEntity
  8
4
100
AcDbLine
 10
737.0211066028074
 20
202.9878791722304
 30
0.0
 11
796.0211066028074
 21
202.9878791722304
 31
0.0
  0
LINE
  5
404
330
1B
100
AcDbEntity
  8
4
100
AcDbLine
 10
742.0211066028074
 20
206.4878791722304
 30
0.0
 11
797.0211066028074
 21
206.4878791722304
 31
0.0
  0
LINE
  5
407
330
1B
100
AcDbEntity
  8
4
100
AcDbLine
 10
710.921106602808
 20
210.9878791722301
 30
0.0
 11
710.921106602808
 21
230.4997392326277
 31
0.0
  0
LINE
  5
408
330
1B
100
AcDbEntity
  8
4
100
AcDbLine
 10
797.0211066028074
 20
169.9878791722304
 30
0.0
 11
796.0211066028074
 21
168.9878791722304
 31
0.0
  0
LINE
  5
40B
330
1B
100
AcDbEntity
  8
4
100
AcDbLine
 10
712.6019231939978
 20
160.9878791722304
 30
0.0
 11
710.921106602808
 21
160.9878791722304
 31
0.0
  0
LINE
  5
40C
330
1B
100
AcDbEntity
  8
4
100
AcDbLine
 10
722.9208616028078
 20
168.4878791722304
 30
0.0
 11
737.0211066028074
 21
168.4878791722304
 31
0.0
  0
LINE
  5
40D
330
1B
100
AcDbEntity
  8
4
100
AcDbLine
 10
722.9208616028078
 20
160.9878791722304
 30
0.0
 11
721.9208616028073
 21
160.9878791722304
 31
0.0
  0
LINE
  5
40E
330
1B
100
AcDbEntity
  8
4
100
AcDbLine
 10
737.0211066028074
 20
168.9878791722304
 30
0.0
 11
796.0211066028074
 21
168.9878791722304
 31
0.0
  0
LINE
  5
40F
330
1B
100
AcDbEntity
  8
4
100
AcDbLine
 10
721.1842240086004
 20
143.7869111919917
 30
0.0
 11
712.0222822216689
 21
141.2881997955562
 31
0.0
  0
ARC
  5
410
330
1B
100
AcDbEntity
  8
4
100
AcDbCircle
 10
712.5485170332537
 20
139.3586721530805
 30
0.0
 40
2.0
100
AcDbArc
 50
105.2551187030616
 51
164.6816642065472
  0
ARC
  5
411
330
1B
100
AcDbEntity
  8
4
100
AcDbCircle
 10
720.921106602808
 20
144.7516750132295
 30
0.0
 40
1.0
100
AcDbArc
 50
285.2551187030755
 51
0.0
  0
LINE
  5
412
330
1B
100
AcDbEntity
  8
4
100
AcDbLine
 10
710.921106602808
 20
140.9878791722301
 30
0.0
 11
710.921106602808
 21
160.9878791722304
 31
0.0
  0
LINE
  5
413
330
1B
100
AcDbEntity
  8
4
100
AcDbLine
 10
721.921106602808
 20
144.7516750132295
 30
0.0
 11
721.921106602808
 21
227.2240833312312
 31
0.0
  0
LINE
  5
414
330
1B
100
AcDbEntity
  8
4
100
AcDbLine
 10
712.6019231939978
 20
160.9878791722304
 30
0.0
 11
712.6019231939978
 21
210.9878791722301
 31
0.0
  0
LINE
  5
415
330
1B
100
AcDbEntity
  8
4
100
AcDbLine
 10
737.0211066028074
 20
203.4878791722304
 30
0.0
 11
737.0211066028074
 21
168.4878791722304
 31
0.0
  0
LINE
  5
416
330
1B
100
AcDbEntity
  8
4
100
AcDbLine
 10
722.9208616028078
 20
210.9878791722304
 30
0.0
 11
722.9208616028078
 21
160.9878791722304
 31
0.0
  0
LINE
  5
417
330
1B
100
AcDbEntity
  8
4
100
AcDbLine
 10
796.0211066028074
 20
202.9878791722304
 30
0.0
 11
796.0211066028074
 21
168.9878791722304
 31
0.0
  0
LINE
  5
418
330
1B
100
AcDbEntity
  8
4
100
AcDbLine
 10
797.0211066028074
 20
206.4878791722304
 30
0.0
 11
797.0211066028074
 21
169.9878791722304
 31
0.0
  0
LINE
  5
419
330
1B
100
AcDbEntity
  8
4
100
AcDbLine
 10
708.8211066028076
 20
180.9878791722305
 30
0.0
 11
708.8211066028076
 21
190.9878791722304
 31
0.0
  0
ARC
  5
41A
330
1B
100
AcDbEntity
  8
4
 62
     3
100
AcDbCircle
 10
715.0211071028076
 20
88.98787867223041
 30
0.0
 40
1.9999995
100
AcDbArc
 50
0.0
 51
90.0
  0
LINE
  5
41B
330
1B
100
AcDbEntity
  8
4
100
AcDbLine
 10
708.8211066028076
 20
95.2513066722313
 30
0.0
 11
708.8211066028076
 21
105.2513066722312
 31
0.0
  0
LINE
  5
41C
330
1B
100
AcDbEntity
  8
4
 62
     3
100
AcDbLine
 10
717.0211066028074
 20
88.98787867223041
 30
0.0
 11
717.0211066028074
 21
65.98787917223035
 31
0.0
  0
ARC
  5
41D
330
1B
100
AcDbEntity
  8
4
 62
     3
100
AcDbCircle
 10
677.7196876028075
 20
249.1484496722305
 30
0.0
 40
4.0000005
100
AcDbArc
 50
276.9269230000008
 51
352.8505699999997
  0
LINE
  5
41E
330
1B
100
AcDbEntity
  8
4
 62
     3
100
AcDbLine
 10
565.8249901028072
 20
226.1486556722303
 30
0.0
 11
573.4133386028076
 21
227.6663256722304
 31
0.0
  0
ARC
  5
41F
330
1B
100
AcDbEntity
  8
4
 62
     3
100
AcDbCircle
 10
566.0211061028073
 20
225.1680756722303
 30
0.0
 40
1.0000005
100
AcDbArc
 50
101.3099319999972
 51
180.0
  0
ARC
  5
420
330
1B
100
AcDbEntity
  8
4
100
AcDbCircle
 10
573.5184841028073
 20
229.7269626722303
 30
0.0
 40
1.9999995
100
AcDbArc
 50
281.3099320000086
 51
340.3461760000039
  0
LINE
  5
421
330
1B
100
AcDbEntity
  8
4
100
AcDbLine
 10
573.4133386028076
 20
227.6663256722304
 30
0.0
 11
573.9107161028074
 21
227.7658011722303
 31
0.0
  0
ARC
  5
422
330
1B
100
AcDbEntity
  8
4
 62
     3
100
AcDbCircle
 10
606.3225256028073
 20
249.1484496722305
 30
0.0
 40
4.0000005
100
AcDbArc
 50
187.1494300000003
 51
263.0730769999992
  0
ARC
  5
423
330
1B
100
AcDbEntity
  8
4
 62
     3
100
AcDbCircle
 10
642.0211066028074
 20
542.9878806722306
 30
0.0
 40
300.0
100
AcDbArc
 50
263.073077
 51
276.926923
  0
LINE
  5
424
330
1B
100
AcDbEntity
  8
4
100
AcDbLine
 10
702.8211066028076
 20
191.7378791722304
 30
0.0
 11
701.3211066028076
 21
191.7378791722304
 31
0.0
  0
LINE
  5
425
330
1B
100
AcDbEntity
  8
4
100
AcDbLine
 10
573.3350462985424
 20
210.9878794795574
 30
0.0
 11
591.0211066028074
 21
206.9878790109245
 31
0.0
  0
LINE
  5
426
330
1B
100
AcDbEntity
  8
4
100
AcDbLine
 10
575.0374839469165
 20
210.9878794795571
 30
0.0
 11
591.0211066028074
 21
207.3729139635459
 31
0.0
  0
LINE
  5
427
330
1B
100
AcDbEntity
  8
4
100
AcDbLine
 10
573.3350462985424
 20
210.987879479557
 30
0.0
 11
575.0374839469165
 21
210.987879479557
 31
0.0
  0
LINE
  5
428
330
1B
100
AcDbEntity
  8
4
100
AcDbLine
 10
575.0374839469165
 20
210.987879479557
 30
0.0
 11
575.0374839469165
 21
227.4453253901279
 31
0.0
  0
LINE
  5
42B
330
1B
100
AcDbEntity
  8
2
100
AcDbLine
 10
701.3211066028076
 20
183.8665588286708
 30
0.0
 11
702.8211066028076
 21
185.3665588286708
 31
0.0
  0
LINE
  5
42C
330
1B
100
AcDbEntity
  8
2
100
AcDbLine
 10
701.3211066028076
 20
185.9878791722304
 30
0.0
 11
702.8211066028076
 21
187.4878791722304
 31
0.0
  0
LINE
  5
42D
330
1B
100
AcDbEntity
  8
4
100
AcDbLine
 10
702.8211066028076
 20
180.2378791722305
 30
0.0
 11
701.3211066028076
 21
180.2378791722305
 31
0.0
  0
LINE
  5
42E
330
1B
100
AcDbEntity
  8
4
100
AcDbLine
 10
575.0374839469165
 20
160.9878788649036
 30
0.0
 11
591.0211066028074
 21
164.6028443809148
 31
0.0
  0
LINE
  5
42F
330
1B
100
AcDbEntity
  8
4
100
AcDbLine
 10
573.3350462985424
 20
160.9878788649036
 30
0.0
 11
591.0211066028074
 21
164.9878793335362
 31
0.0
  0
LINE
  5
430
330
1B
100
AcDbEntity
  8
4
100
AcDbLine
 10
573.3350462985424
 20
160.9878788649037
 30
0.0
 11
575.0374839469165
 21
160.9878788649037
 31
0.0
  0
LINE
  5
431
330
1B
100
AcDbEntity
  8
4
 62
     3
100
AcDbLine
 10
565.8249901028072
 20
145.8271026722304
 30
0.0
 11
573.9118426402052
 21
144.2097314046015
 31
0.0
  0
ARC
  5
432
330
1B
100
AcDbEntity
  8
4
 62
     3
100
AcDbCircle
 10
566.0211061028073
 20
146.8076826722304
 30
0.0
 40
1.0000005
100
AcDbArc
 50
180.0
 51
258.6900680000028
  0
ARC
  5
433
330
1B
100
AcDbEntity
  8
4
100
AcDbCircle
 10
573.5182996028076
 20
142.2488331722304
 30
0.0
 40
1.9999995
100
AcDbArc
 50
18.92367000000244
 51
78.69006800000444
  0
ARC
  5
434
330
1B
100
AcDbEntity
  8
4
 62
     3
100
AcDbCircle
 10
571.8158626028077
 20
142.5893196722304
 30
0.0
 40
1.9999995
100
AcDbArc
 50
18.92367000000244
 51
78.69006800000444
  0
LINE
  5
435
330
1B
100
AcDbEntity
  8
4
100
AcDbLine
 10
572.2080946028074
 20
144.5504811722303
 30
0.0
 11
573.9105316028073
 21
144.2099946722303
 31
0.0
  0
LINE
  5
436
330
1B
100
AcDbEntity
  8
4
100
AcDbLine
 10
575.0374839469165
 20
143.9846030374508
 30
0.0
 11
575.0374839469165
 21
160.9878788649036
 31
0.0
  0
LINE
  5
43C
330
1B
100
AcDbEntity
  8
4
 62
     3
100
AcDbLine
 10
565.0211071028076
 20
225.1680756722303
 30
0.0
 11
565.0211071028076
 21
146.8076826722304
 31
0.0
  0
LINE
  5
43D
330
1B
100
AcDbEntity
  8
4
100
AcDbLine
 10
573.3350462985424
 20
160.9878788649037
 30
0.0
 11
573.3350462985424
 21
210.9878794795574
 31
0.0
  0
LINE
  5
43E
330
1B
100
AcDbEntity
  8
4
100
AcDbLine
 10
702.8211066028076
 20
180.2378791722305
 30
0.0
 11
702.8211066028076
 21
191.7378791722304
 31
0.0
  0
ARC
  5
43F
330
1B
100
AcDbEntity
  8
4
 62
     3
100
AcDbCircle
 10
441.8493187113657
 20
241.9878786722302
 30
0.0
 40
1.9999995
100
AcDbArc
 50
90.0
 51
180.0
  0
LINE
  5
440
330
1B
100
AcDbEntity
  8
4
 62
     3
100
AcDbLine
 10
441.8493187113657
 20
243.9878796722305
 30
0.0
 11
446.3493187113657
 21
243.9878796722305
 31
0.0
  0
ARC
  5
441
330
1B
100
AcDbEntity
  8
4
 62
     3
100
AcDbCircle
 10
371.6865877113658
 20
221.8251486722302
 30
0.0
 40
1.9999995
100
AcDbArc
 50
6.907067000000085
 51
83.09293299999993
  0
ARC
  5
442
330
1B
100
AcDbEntity
  8
4
 62
     3
100
AcDbCircle
 10
373.4656432113657
 20
223.6042041722303
 30
0.0
 40
1.9999995
100
AcDbArc
 50
7.251750999999385
 51
82.74824900000063
  0
ARC
  5
443
330
1B
100
AcDbEntity
  8
4
 62
     3
100
AcDbCircle
 10
298.2329932113658
 20
223.6042041722303
 30
0.0
 40
1.9999995
100
AcDbArc
 50
97.25175099999937
 51
172.7482490000006
  0
ARC
  5
444
330
1B
100
AcDbEntity
  8
4
 62
     3
100
AcDbCircle
 10
300.0120487113657
 20
221.8251486722302
 30
0.0
 40
1.9999995
100
AcDbArc
 50
96.90706700000007
 51
173.0929329999999
  0
ARC
  5
445
330
1B
100
AcDbEntity
  8
4
 62
     3
100
AcDbCircle
 10
335.8493182113658
 20
-74.01212032776945
 30
0.0
 40
300.0
100
AcDbArc
 50
83.092933
 51
96.90706700000001
  0
ARC
  5
446
330
1B
100
AcDbEntity
  8
4
 62
     3
100
AcDbCircle
 10
335.8493182113658
 20
-72.0121208277694
 30
0.0
 40
300.0
100
AcDbArc
 50
82.74824900000003
 51
97.25175099999998
  0
ARC
  5
447
330
1B
100
AcDbEntity
  8
4
 62
     3
100
AcDbCircle
 10
379.5725257113657
 20
213.7746696722304
 30
0.0
 40
3.0
100
AcDbArc
 50
185.2617349999998
 51
265.3931879999984
  0
LINE
  5
448
330
1B
100
AcDbEntity
  8
4
 62
     3
100
AcDbLine
 10
420.8143732113659
 20
207.4417701722305
 30
0.0
 11
379.3315747113657
 21
210.7843611722303
 31
0.0
  0
ARC
  5
449
330
1B
100
AcDbEntity
  8
4
 62
     3
100
AcDbCircle
 10
292.1261107113658
 20
213.7746696722304
 30
0.0
 40
3.0
100
AcDbArc
 50
274.6068120000016
 51
354.7382650000002
  0
ARC
  5
44A
330
1B
100
AcDbEntity
  8
4
 62
     3
100
AcDbCircle
 10
421.1356432113658
 20
211.4288481722303
 30
0.0
 40
4.0000005
100
AcDbArc
 50
265.3931879999981
 51
16.60987800000092
  0
LINE
  5
44B
330
1B
100
AcDbEntity
  8
4
 62
     3
100
AcDbLine
 10
420.8143732113659
 20
164.5339881722302
 30
0.0
 11
379.3315747113657
 21
161.1913971722304
 31
0.0
  0
ARC
  5
44C
330
1B
100
AcDbEntity
  8
4
 62
     3
100
AcDbCircle
 10
363.6361087113658
 20
142.2646716722304
 30
0.0
 40
3.0
100
AcDbArc
 50
95.26173499999754
 51
175.3931879999984
  0
ARC
  5
44D
330
1B
100
AcDbEntity
  8
4
 62
     3
100
AcDbCircle
 10
373.4656432113657
 20
148.3715541722304
 30
0.0
 40
1.9999995
100
AcDbArc
 50
277.2517509999994
 51
352.7482490000006
  0
ARC
  5
44E
330
1B
100
AcDbEntity
  8
4
 62
     3
100
AcDbCircle
 10
371.6865877113658
 20
150.1506096722305
 30
0.0
 40
1.9999995
100
AcDbArc
 50
276.9070670000001
 51
353.0929329999999
  0
ARC
  5
44F
330
1B
100
AcDbEntity
  8
4
 62
     3
100
AcDbCircle
 10
308.0625277113657
 20
142.2646716722304
 30
0.0
 40
3.0
100
AcDbArc
 50
4.606812000001621
 51
84.73826500000246
  0
ARC
  5
450
330
1B
100
AcDbEntity
  8
4
 62
     3
100
AcDbCircle
 10
298.2329932113658
 20
148.3715541722304
 30
0.0
 40
1.9999995
100
AcDbArc
 50
187.2517509999994
 51
262.7482490000006
  0
ARC
  5
451
330
1B
100
AcDbEntity
  8
4
 62
     3
100
AcDbCircle
 10
300.0120487113657
 20
150.1506096722305
 30
0.0
 40
1.9999995
100
AcDbArc
 50
186.9070670000001
 51
263.0929329999999
  0
ARC
  5
452
330
1B
100
AcDbEntity
  8
4
 62
     3
100
AcDbCircle
 10
335.8493182113658
 20
443.9878791722301
 30
0.0
 40
300.0
100
AcDbArc
 50
262.7482489999999
 51
277.251751
  0
ARC
  5
453
330
1B
100
AcDbEntity
  8
4
 62
     3
100
AcDbCircle
 10
335.8493182113658
 20
445.9878786722302
 30
0.0
 40
300.0
100
AcDbArc
 50
263.0929330000001
 51
276.907067
  0
ARC
  5
454
330
1B
100
AcDbEntity
  8
4
 62
     3
100
AcDbCircle
 10
292.1261107113658
 20
158.2010886722303
 30
0.0
 40
3.0
100
AcDbArc
 50
5.261734999999806
 51
85.3931879999984
  0
ARC
  5
455
330
1B
100
AcDbEntity
  8
4
 62
     3
100
AcDbCircle
 10
379.5725257113657
 20
158.2010886722303
 30
0.0
 40
3.0
100
AcDbArc
 50
94.60681200000161
 51
174.7382650000002
  0
ARC
  5
456
330
1B
100
AcDbEntity
  8
4
 62
     3
100
AcDbCircle
 10
421.1356432113658
 20
160.5469101722304
 30
0.0
 40
4.0000005
100
AcDbArc
 50
343.3901220000009
 51
94.60681200000194
  0
ARC
  5
457
330
1B
100
AcDbEntity
  8
4
 62
     3
100
AcDbCircle
 10
75.84931871136592
 20
185.9878791722304
 30
0.0
 40
300.0
100
AcDbArc
 50
353.0929330000001
 51
6.907066999999978
  0
ARC
  5
458
330
1B
100
AcDbEntity
  8
4
 62
     3
100
AcDbCircle
 10
77.84931821136576
 20
185.9878791722304
 30
0.0
 40
300.0
100
AcDbArc
 50
352.7482490000001
 51
7.251750999999988
  0
ARC
  5
459
330
1B
100
AcDbEntity
  8
4
 62
     3
100
AcDbCircle
 10
593.8493182113657
 20
185.9878791722304
 30
0.0
 40
300.0
100
AcDbArc
 50
172.748249
 51
187.251751
  0
ARC
  5
45A
330
1B
100
AcDbEntity
  8
4
 62
     3
100
AcDbCircle
 10
595.8493177113655
 20
185.9878791722304
 30
0.0
 40
300.0
100
AcDbArc
 50
173.0929329999999
 51
186.907067
  0
LINE
  5
45B
330
1B
100
AcDbEntity
  8
4
100
AcDbLine
 10
702.8211066028076
 20
106.0013066722311
 30
0.0
 11
701.3211066028076
 21
106.0013066722311
 31
0.0
  0
LINE
  5
45C
330
1B
100
AcDbEntity
  8
2
100
AcDbLine
 10
701.3211066028076
 20
100.2513066722312
 30
0.0
 11
702.8211066028076
 21
101.7513066722312
 31
0.0
  0
ARC
  5
45D
330
1B
100
AcDbEntity
  8
4
 62
     3
100
AcDbCircle
 10
674.0211061028073
 20
92.98787917223035
 30
0.0
 40
1.9999995
100
AcDbArc
 50
180.0
 51
270.0
  0
LINE
  5
45E
330
1B
100
AcDbEntity
  8
4
100
AcDbLine
 10
702.8211066028076
 20
94.5013066722313
 30
0.0
 11
701.3211066028076
 21
94.5013066722313
 31
0.0
  0
LINE
  5
45F
330
1B
100
AcDbEntity
  8
2
100
AcDbLine
 10
701.3211066028076
 20
98.12998632867152
 30
0.0
 11
702.8211066028076
 21
99.62998632867152
 31
0.0
  0
ARC
  5
460
330
1B
100
AcDbEntity
  8
4
 62
     3
100
AcDbCircle
 10
569.0211061028073
 20
88.98787867223041
 30
0.0
 40
1.9999995
100
AcDbArc
 50
90.0
 51
180.0
  0
ARC
  5
461
330
1B
100
AcDbEntity
  8
4
 62
     3
100
AcDbCircle
 10
610.0211071028076
 20
92.98787917223035
 30
0.0
 40
1.9999995
100
AcDbArc
 50
270.0
 51
0.0
  0
LINE
  5
462
330
1B
100
AcDbEntity
  8
4
100
AcDbLine
 10
702.8211066028076
 20
94.5013066722313
 30
0.0
 11
702.8211066028076
 21
106.0013066722311
 31
0.0
  0
LINE
  5
46C
330
1B
100
AcDbEntity
  8
L-CENTER
 48
2.5
100
AcDbLine
 10
697.0211071028076
 20
97.98787967223029
 30
0.0
 11
697.0211071028076
 21
58.98787917223035
 31
0.0
  0
LINE
  5
46D
330
1B
100
AcDbEntity
  8
L-CENTER
 48
2.5
100
AcDbLine
 10
587.0211061028073
 20
97.98787967223029
 30
0.0
 11
587.0211061028073
 21
58.98787917223035
 31
0.0
  0
LINE
  5
471
330
1B
100
AcDbEntity
  8
4
 62
     3
100
AcDbLine
 10
567.0211066028074
 20
88.98787867223041
 30
0.0
 11
567.0211066028074
 21
65.98787917223035
 31
0.0
  0
ARC
  5
473
330
1B
100
AcDbEntity
  8
4
 62
     3
100
AcDbCircle
 10
435.5333737113656
 20
95.98787917223035
 30
0.0
 40
4.9999995
100
AcDbArc
 50
164.415651
 51
270.0
  0
ARC
  5
474
330
1B
100
AcDbEntity
  8
4
 62
     3
100
AcDbCircle
 10
447.8493187113657
 20
95.98787917223035
 30
0.0
 40
4.9999995
100
AcDbArc
 50
180.0
 51
270.0
  0
ARC
  5
476
330
1B
100
AcDbEntity
  8
4
 62
     3
100
AcDbCircle
 10
463.8493177113658
 20
88.98787867223041
 30
0.0
 40
1.9999995
100
AcDbArc
 50
0.0
 51
90.0
  0
ARC
  5
478
330
1B
100
AcDbEntity
  8
4
 62
     3
100
AcDbCircle
 10
408.8493187113657
 20
70.98787867223041
 30
0.0
 40
4.9999995
100
AcDbArc
 50
0.0
 51
90.0
  0
ARC
  5
479
330
1B
100
AcDbEntity
  8
4
 62
     3
100
AcDbCircle
 10
408.8493187113657
 20
82.0383411722305
 30
0.0
 40
4.9999995
100
AcDbArc
 50
0.0
 51
102.5863330000002
  0
ARC
  5
47A
330
1B
100
AcDbEntity
  8
4
 62
     3
100
AcDbCircle
 10
415.8493177113658
 20
88.98787867223041
 30
0.0
 40
1.9999995
100
AcDbArc
 50
90.0
 51
180.0
  0
ARC
  5
47B
330
1B
100
AcDbEntity
  8
4
 62
     3
100
AcDbCircle
 10
417.8493187113657
 20
88.98787867223041
 30
0.0
 40
1.9999995
100
AcDbArc
 50
90.0
 51
180.0
  0
ARC
  5
47C
330
1B
100
AcDbEntity
  8
4
 62
     3
100
AcDbCircle
 10
335.8493182113658
 20
408.9878796722305
 30
0.0
 40
330.0
100
AcDbArc
 50
270.0
 51
282.586333
  0
ARC
  5
47D
330
1B
100
AcDbEntity
  8
4
 62
     3
100
AcDbCircle
 10
361.2902872113658
 20
100.7015541722303
 30
0.0
 40
4.0000005
100
AcDbArc
 50
175.3931879999998
 51
286.6098780000009
  0
ARC
  5
47E
330
1B
100
AcDbEntity
  8
4
 62
     3
100
AcDbCircle
 10
310.4083492113658
 20
100.7015541722303
 30
0.0
 40
4.0000005
100
AcDbArc
 50
253.3901219999991
 51
4.606812000000274
  0
LINE
  5
47F
330
1B
100
AcDbEntity
  8
4
 62
     3
100
AcDbLine
 10
415.8493177113658
 20
90.98787967223029
 30
0.0
 11
463.8493177113658
 21
90.98787967223029
 31
0.0
  0
TEXT
  5
484
330
1B
100
AcDbEntity
  8
3
100
AcDbText
 10
494.2588732884324
 20
65.10625681614778
 30
0.0
 40
7.5
  1
LB4-02
  7
KANJI
 72
     1
 11
514.8838732884324
 21
65.10625681614778
 31
0.0
100
AcDbText
  0
LINE
  5
488
330
1B
100
AcDbEntity
  8
4
 62
     3
100
AcDbLine
 10
413.8493182113658
 20
65.98787917223035
 30
0.0
 11
465.8493187113657
 21
65.98787917223035
 31
0.0
  0
LWPOLYLINE
  5
489
330
1B
100
AcDbEntity
  8
4
100
AcDbPolyline
 90
       44
 70
     0
 43
0.0
 10
430.6232477113654
 20
90.99713417223074
 10
430.9056402113652
 20
90.6356916722309
 10
431.1781652113655
 20
90.27571167223095
 10
431.4309627113653
 20
89.91865917223095
 10
431.9723177113654
 20
88.87968167223084
 10
432.0475402113653
 20
88.54896167223092
 10
432.0537102113654
 20
88.22847917223089
 10
431.9809577113654
 20
87.91970417223092
 10
431.8007627113653
 20
87.58718917223086
 10
431.5421977113654
 20
87.26516417223093
 10
431.2389677113654
 20
86.94749667223095
 10
430.9247802113653
 20
86.6280591722309
 10
430.6333377113654
 20
86.30071917223086
 10
430.3983527113654
 20
85.95934417223089
 10
430.2546977113653
 20
85.62730917223098
 10
430.1789702113654
 20
85.27991417223075
 10
430.1621502113654
 20
84.91900417223087
 10
430.3749552113655
 20
83.77366667223077
 10
430.7932427113654
 20
82.57321917223089
 10
431.1734877113655
 20
81.36754917223084
 10
431.2496927113653
 20
80.97312167223072
 10
431.2855927113654
 20
80.58550167223075
 10
431.2721677113655
 20
80.20654167223074
 10
431.1621202113654
 20
79.6946816722309
 10
430.9623352113654
 20
79.19946417223082
 10
430.6964852113654
 20
78.71710667223078
 10
429.7391852113654
 20
77.3094341722308
 10
429.4457277113655
 20
76.84074667223081
 10
429.2045327113654
 20
76.36603167223075
 10
429.0392727113654
 20
75.88150917223084
 10
428.9708227113654
 20
75.44289667223075
 10
428.9691627113653
 20
74.99490667223085
 10
429.0233352113653
 20
74.53877167223072
 10
429.4113127113654
 20
73.13377917223079
 10
429.9074302113655
 20
71.69971417223087
 10
430.0457127113653
 20
71.22096917223098
 10
430.1521927113654
 20
70.74390667223088
 10
430.2159152113655
 20
70.26976167223074
 10
430.2131552113654
 20
69.5220366722308
 10
430.0967052113654
 20
68.78308167223076
 10
429.8893002113653
 20
68.0511441722308
 10
429.6136802113654
 20
67.32446917223092
 10
429.2925827113655
 20
66.60130167223087
 10
429.0002193384944
 20
65.9878791722308
  0
LINE
  5
48A
330
1B
100
AcDbEntity
  8
4
100
AcDbLine
 10
453.3493177113654
 20
90.9878791722308
 30
0.0
 11
453.3493177113654
 21
65.9878791722308
 31
0.0
  0
LINE
  5
48B
330
1B
100
AcDbEntity
  8
4
100
AcDbLine
 10
438.3493177113654
 20
90.9878791722308
 30
0.0
 11
438.3493177113654
 21
65.9878791722308
 31
0.0
  0
LINE
  5
48C
330
1B
100
AcDbEntity
  8
4
 62
     3
100
AcDbLine
 10
413.8493182113658
 20
88.98787867223041
 30
0.0
 11
413.8493182113658
 21
65.98787917223035
 31
0.0
  0
LINE
  5
48D
330
1B
100
AcDbEntity
  8
4
 62
     3
100
AcDbLine
 10
415.8493177113658
 20
88.98787867223041
 30
0.0
 11
415.8493177113658
 21
65.98787917223035
 31
0.0
  0
LINE
  5
48E
330
1B
100
AcDbEntity
  8
L-CENTER
 48
2.5
100
AcDbLine
 10
445.8493177113658
 20
97.98787967223029
 30
0.0
 11
445.8493177113658
 21
58.98787917223035
 31
0.0
  0
LINE
  5
490
330
1B
100
AcDbEntity
  8
4
 62
     3
100
AcDbLine
 10
465.8493187113657
 20
88.98787867223041
 30
0.0
 11
465.8493187113657
 21
65.98787917223035
 31
0.0
  0
LINE
  5
492
330
1B
100
AcDbEntity
  8
4
 62
     3
100
AcDbLine
 10
672.0211066028074
 20
173.7197436722304
 30
0.0
 11
672.0211066028074
 21
92.98787917223035
 31
0.0
  0
LINE
  5
493
330
1B
100
AcDbEntity
  8
4
 62
     3
100
AcDbLine
 10
612.0211066028074
 20
173.7197436722304
 30
0.0
 11
612.0211066028074
 21
92.98787917223035
 31
0.0
  0
LINE
  5
495
330
1B
100
AcDbEntity
  8
4
 62
     3
100
AcDbLine
 10
573.7073730580788
 20
143.2390782409309
 30
0.0
 11
591.0211066028074
 21
92.73789217223032
 31
0.0
  0
LINE
  5
497
330
1B
100
AcDbEntity
  8
4
100
AcDbLine
 10
575.4098100582411
 20
142.8985917404585
 30
0.0
 11
591.0211066028079
 21
97.36312191323748
 31
0.0
  0
LINE
  5
498
330
1B
100
AcDbEntity
  8
4
 62
     3
100
AcDbLine
 10
442.8493177113658
 20
185.9878791722304
 30
0.0
 11
442.8493177113658
 21
95.98787917223035
 31
0.0
  0
LINE
  5
499
330
1B
100
AcDbEntity
  8
4
 62
     3
100
AcDbLine
 10
314.3954272113656
 20
101.0228241722302
 30
0.0
 11
311.0528362113658
 21
142.5056226722304
 31
0.0
  0
LINE
  5
49A
330
1B
100
AcDbEntity
  8
4
 62
     3
100
AcDbLine
 10
357.3032092113659
 20
101.0228241722302
 30
0.0
 11
360.6458002113657
 21
142.5056226722304
 31
0.0
  0
LINE
  5
49B
330
1B
100
AcDbEntity
  8
4
 62
     3
100
AcDbLine
 10
567.0211066028074
 20
65.98787917223035
 30
0.0
 11
717.0211066028074
 21
65.98787917223035
 31
0.0
  0
LINE
  5
49C
330
1B
100
AcDbEntity
  8
4
 62
     3
100
AcDbLine
 10
715.0211071028076
 20
90.98787967223029
 30
0.0
 11
569.0422258592631
 21
90.98787967223029
 31
0.0
  0
LINE
  5
49D
330
1B
100
AcDbEntity
  8
L-CENTER
 48
2.5
100
AcDbLine
 10
803.1048253693231
 20
185.9878791722304
 30
0.0
 11
560.8186004386649
 21
185.9878791722305
 31
0.0
  0
LINE
  5
49E
330
1B
100
AcDbEntity
  8
4
100
AcDbLine
 10
712.6019231939969
 20
141.4462836970999
 30
0.0
 11
702.8211066028076
 21
105.7385405864096
 31
0.0
  0
LINE
  5
49F
330
1B
100
AcDbEntity
  8
4
100
AcDbLine
 10
701.33782804846
 20
106.0013066722311
 30
0.0
 11
710.6195711844063
 21
139.887035581243
 31
0.0
  0
LINE
  5
4A0
330
1B
100
AcDbEntity
  8
4
100
AcDbLine
 10
712.6019231939978
 20
160.9878791722304
 30
0.0
 11
701.3211066028076
 21
164.9878791722308
 31
0.0
  0
LINE
  5
4A1
330
1B
100
AcDbEntity
  8
4
100
AcDbLine
 10
710.921106602808
 20
160.9878791722304
 30
0.0
 11
701.3211066028085
 21
164.3918880655219
 31
0.0
  0
LINE
  5
4A2
330
1B
100
AcDbEntity
  8
4
100
AcDbLine
 10
712.6019231939978
 20
210.9878791722304
 30
0.0
 11
701.3211066028076
 21
206.9878791722299
 31
0.0
  0
LINE
  5
4A3
330
1B
100
AcDbEntity
  8
4
100
AcDbLine
 10
710.9211066028062
 20
210.9878791722301
 30
0.0
 11
701.3211066028085
 21
207.5838702789383
 31
0.0
  0
LINE
  5
4A4
330
1B
100
AcDbEntity
  8
L-CENTER
 48
2.5
100
AcDbLine
 10
679.2942766003495
 20
100.2513066722306
 30
0.0
 11
710.0538705270811
 21
100.2513066722314
 31
0.0
  0
LINE
  5
4A5
330
1B
100
AcDbEntity
  8
4
100
AcDbLine
 10
708.8211066028076
 20
180.9878791722305
 30
0.0
 11
702.8211066028076
 21
180.9878791722304
 31
0.0
  0
LINE
  5
4A6
330
1B
100
AcDbEntity
  8
4
100
AcDbLine
 10
708.8211066028076
 20
190.9878791722304
 30
0.0
 11
702.8211066028076
 21
190.9878791722304
 31
0.0
  0
LINE
  5
4A7
330
1B
100
AcDbEntity
  8
4
100
AcDbLine
 10
708.8211066028076
 20
95.2513066722313
 30
0.0
 11
702.8211066028076
 21
95.25130667223107
 31
0.0
  0
LINE
  5
4A8
330
1B
100
AcDbEntity
  8
4
100
AcDbLine
 10
708.8211066028076
 20
105.2513066722312
 30
0.0
 11
702.8211066028076
 21
105.2513066722311
 31
0.0
  0
LINE
  5
4AB
330
1B
100
AcDbEntity
  8
L-CENTER
 48
2.5
100
AcDbLine
 10
642.0211066028074
 20
59.24888767223035
 30
0.0
 11
642.0211066028074
 21
343.0430148243881
 31
0.0
  0
LINE
  5
4AC
330
1B
100
AcDbEntity
  8
4
 62
     3
100
AcDbLine
 10
690.0211066028074
 20
290.9878791722304
 30
0.0
 11
690.0211066028074
 21
90.9878796722304
 31
0.0
  0
LINE
  5
4AD
330
1B
100
AcDbEntity
  8
4
 62
     3
100
AcDbLine
 10
591.0211066028074
 20
289.9878786722302
 30
0.0
 11
591.0211066028074
 21
90.98787967223029
 31
0.0
  0
LINE
  5
4AE
330
1B
100
AcDbEntity
  8
4
100
AcDbLine
 10
599.0211076028078
 20
291.9878796722305
 30
0.0
 11
599.0211076028078
 21
90.98787967223029
 31
0.0
  0
LINE
  5
4AF
330
1B
100
AcDbEntity
  8
4
100
AcDbLine
 10
600.0211066028074
 20
285.9878796722305
 30
0.0
 11
600.0211066028074
 21
90.98787967223029
 31
0.0
  0
LINE
  5
4B0
330
1B
100
AcDbEntity
  8
4
100
AcDbLine
 10
685.0211056028071
 20
291.9878796722305
 30
0.0
 11
685.0211056028071
 21
90.98787967223029
 31
0.0
  0
LINE
  5
4B1
330
1B
100
AcDbEntity
  8
4
100
AcDbLine
 10
684.0211066028074
 20
285.9878796722305
 30
0.0
 11
684.0211066028074
 21
90.98787967223029
 31
0.0
  0
LINE
  5
4B2
330
1B
100
AcDbEntity
  8
4
100
AcDbLine
 10
701.3211066028076
 20
289.9878791722304
 30
0.0
 11
701.3211066028076
 21
90.98787967223029
 31
0.0
  0
LINE
  5
4B3
330
1B
100
AcDbEntity
  8
4
100
AcDbLine
 10
690.0211066028079
 20
90.9878796722304
 30
0.0
 11
690.0211066028074
 21
290.9878791722304
 31
0.0
  0
CIRCLE
  5
4B4
330
1B
100
AcDbEntity
  8
4
100
AcDbCircle
 10
642.0211066028074
 20
285.9878796722305
 30
0.0
 40
42.0
  0
LINE
  5
4B7
330
1B
100
AcDbEntity
  8
4
100
AcDbLine
 10
575.4019681028072
 20
229.0542891722304
 30
0.0
 11
591.0211066028074
 21
274.6126361452252
 31
0.0
  0
ARC
  5
4B8
330
1B
100
AcDbEntity
  8
4
 62
     3
100
AcDbCircle
 10
900.0211066028074
 20
285.9878796722305
 30
0.0
 40
300.0
100
AcDbArc
 50
172.85057
 51
187.1498659109533
  0
ARC
  5
4BA
330
1B
100
AcDbEntity
  8
4
 62
     3
100
AcDbCircle
 10
384.0211066028074
 20
285.9878796722305
 30
0.0
 40
300.0
100
AcDbArc
 50
352.8501340890467
 51
7.149430000000029
  0
LINE
  5
4BB
330
1B
100
AcDbEntity
  8
4
100
AcDbLine
 10
701.3378280484604
 20
265.9744516722304
 30
0.0
 11
710.6195711844072
 21
232.0887227632179
 31
0.0
  0
LINE
  5
4BC
330
1B
100
AcDbEntity
  8
4
100
AcDbLine
 10
712.6019231939969
 20
230.5294746473608
 30
0.0
 11
702.8211066028076
 21
266.2372177580503
 31
0.0
  0
ARC
  5
4BD
330
1B
100
AcDbEntity
  8
4
 62
     3
100
AcDbCircle
 10
112.8493177113656
 20
185.9878791722304
 30
0.0
 40
330.0
100
AcDbArc
 50
344.4156509999999
 51
16.07294399999999
  0
LINE
  5
4BE
330
1B
100
AcDbEntity
  8
L-CENTER
 48
2.5
100
AcDbLine
 10
335.8493182113658
 20
73.06117417223038
 30
0.0
 11
335.8493182113658
 21
335.9878791722304
 31
0.0
  0
LINE
  5
4BF
330
1B
100
AcDbEntity
  8
4
 62
     3
100
AcDbLine
 10
446.3493187113657
 20
327.9878796722303
 30
0.0
 11
446.3493187113657
 21
243.9878796722305
 31
0.0
  0
LINE
  5
4C0
330
1B
100
AcDbEntity
  8
4
 62
     3
100
AcDbLine
 10
439.8493177113658
 20
230.3838246722303
 30
0.0
 11
439.8493177113658
 21
274.9878786722302
 31
0.0
  0
LINE
  5
4C4
330
1B
100
AcDbEntity
  8
4
100
AcDbLine
 10
225.3493177113656
 20
316.9878796722305
 30
0.0
 11
224.3493177113656
 21
316.9878796722305
 31
0.0
  0
LINE
  5
4C5
330
1B
100
AcDbEntity
  8
4
 62
     3
100
AcDbLine
 10
225.3493177113656
 20
327.9878796722303
 30
0.0
 11
231.1172677113657
 21
327.9878796722303
 31
0.0
  0
ARC
  5
4C6
330
1B
100
AcDbEntity
  8
4
 62
     3
100
AcDbCircle
 10
231.1172677113657
 20
328.9878786722304
 30
0.0
 40
1.0000005
100
AcDbArc
 50
270.0
 51
330.0000000000016
  0
ARC
  5
4C7
330
1B
100
AcDbEntity
  8
4
 62
     3
100
AcDbCircle
 10
232.8493177113656
 20
327.9878796722303
 30
0.0
 40
1.0000005
100
AcDbArc
 50
90.0
 51
150.0849845346778
  0
LINE
  5
4C8
330
1B
100
AcDbEntity
  8
4
100
AcDbLine
 10
263.3498082113657
 20
331.4878791722304
 30
0.0
 11
263.3498082113657
 21
337.4878791722304
 31
0.0
  0
LINE
  5
4C9
330
1B
100
AcDbEntity
  8
4
100
AcDbLine
 10
264.3498082113657
 20
329.9878791722304
 30
0.0
 11
264.3498082113657
 21
331.4878791722304
 31
0.0
  0
LINE
  5
4CA
330
1B
100
AcDbEntity
  8
4
 62
     3
100
AcDbLine
 10
256.8493177113656
 20
329.9878791722304
 30
0.0
 11
256.8493177113656
 21
329.9778786722304
 31
0.0
  0
ARC
  5
4CB
330
1B
100
AcDbEntity
  8
4
 62
     3
100
AcDbCircle
 10
255.8593177113658
 20
329.9778786722304
 30
0.0
 40
0.99
100
AcDbArc
 50
270.0
 51
0.0
  0
ARC
  5
4CC
330
1B
100
AcDbEntity
  8
4
 62
     3
100
AcDbCircle
 10
230.8493182113658
 20
296.9878791722304
 30
0.0
 40
1.0000005
100
AcDbArc
 50
270.0
 51
0.0
  0
LINE
  5
4CD
330
1B
100
AcDbEntity
  8
4
100
AcDbLine
 10
225.3493177113656
 20
254.9878796722305
 30
0.0
 11
224.3493177113656
 21
254.9878796722305
 31
0.0
  0
ARC
  5
4CE
330
1B
100
AcDbEntity
  8
4
 62
     3
100
AcDbCircle
 10
230.8493182113658
 20
274.9878786722302
 30
0.0
 40
1.0000005
100
AcDbArc
 50
0.0
 51
90.0
  0
ARC
  5
4CF
330
1B
100
AcDbEntity
  8
4
 62
     3
100
AcDbCircle
 10
245.5926577113658
 20
276.2445396722303
 30
0.0
 40
4.0000005
100
AcDbArc
 50
106.0729439999987
 51
163.9270560000012
  0
LINE
  5
4D0
330
1B
100
AcDbEntity
  8
4
 62
     3
100
AcDbLine
 10
231.8493187113657
 20
296.9878791722304
 30
0.0
 11
231.8493187113657
 21
327.9878796722303
 31
0.0
  0
LINE
  5
4D1
330
1B
100
AcDbEntity
  8
4
100
AcDbLine
 10
224.3493177113656
 20
316.9878796722305
 30
0.0
 11
224.3493177113656
 21
254.9878796722305
 31
0.0
  0
LINE
  5
4D3
330
1B
100
AcDbEntity
  8
4
 62
     3
100
AcDbLine
 10
229.8493177113658
 20
243.9878796722305
 30
0.0
 11
225.3493177113658
 21
243.9878796722305
 31
0.0
  0
ARC
  5
4D4
330
1B
100
AcDbEntity
  8
4
 62
     3
100
AcDbCircle
 10
229.8493177113658
 20
241.9878786722302
 30
0.0
 40
1.9999995
100
AcDbArc
 50
0.0
 51
90.0
  0
ARC
  5
4D5
330
1B
100
AcDbEntity
  8
4
 62
     3
100
AcDbCircle
 10
250.5629932113657
 20
211.4288481722303
 30
0.0
 40
4.0000005
100
AcDbArc
 50
163.3901219999992
 51
274.6068119999987
  0
ARC
  5
4D6
330
1B
100
AcDbEntity
  8
4
 62
     3
100
AcDbCircle
 10
226.8493177113656
 20
168.9878796722303
 30
0.0
 40
1.9999995
100
AcDbArc
 50
270.0
 51
0.0
  0
LINE
  5
4D7
330
1B
100
AcDbEntity
  8
4
100
AcDbLine
 10
225.3493177113656
 20
162.9878786722304
 30
0.0
 11
226.8493177113656
 21
162.9878786722304
 31
0.0
  0
LINE
  5
4D8
330
1B
100
AcDbEntity
  8
4
100
AcDbLine
 10
218.3493177113656
 20
163.9878786722304
 30
0.0
 11
225.3493177113656
 21
163.9878786722304
 31
0.0
  0
LINE
  5
4D9
330
1B
100
AcDbEntity
  8
4
 62
     3
100
AcDbLine
 10
228.8493187113659
 20
185.9878791722304
 30
0.0
 11
228.8493187113659
 21
168.9878796722303
 31
0.0
  0
LINE
  5
4DA
330
1B
100
AcDbEntity
  8
4
100
AcDbLine
 10
223.3493177113656
 20
141.4878786722304
 30
0.0
 11
218.3493177113656
 21
141.4878786722304
 31
0.0
  0
LINE
  5
4DB
330
1B
100
AcDbEntity
  8
4
100
AcDbLine
 10
225.3493177113656
 20
134.9878786722304
 30
0.0
 11
226.8493177113656
 21
134.9878786722304
 31
0.0
  0
LINE
  5
4DC
330
1B
100
AcDbEntity
  8
4
100
AcDbLine
 10
225.3493177113656
 20
133.9878786722304
 30
0.0
 11
218.3493177113656
 21
133.9878786722304
 31
0.0
  0
LINE
  5
4DD
330
1B
100
AcDbEntity
  8
L-CENTER
 48
2.5
100
AcDbLine
 10
238.7950432113658
 20
148.9878786722304
 30
0.0
 11
215.2238164620663
 21
148.9878786722304
 31
0.0
  0
LINE
  5
4DE
330
1B
100
AcDbEntity
  8
4
100
AcDbLine
 10
223.3493177113656
 20
156.4878786722304
 30
0.0
 11
218.3493177113656
 21
156.4878786722304
 31
0.0
  0
LINE
  5
4DF
330
1B
100
AcDbEntity
  8
4
100
AcDbLine
 10
218.3493177113656
 20
133.9878786722304
 30
0.0
 11
218.3493177113656
 21
163.9878786722304
 31
0.0
  0
LINE
  5
4E0
330
1B
100
AcDbEntity
  8
4
100
AcDbLine
 10
223.3493177113656
 20
133.9878786722304
 30
0.0
 11
223.3493177113656
 21
163.9878786722304
 31
0.0
  0
LINE
  5
4E1
330
1B
100
AcDbEntity
  8
4
100
AcDbLine
 10
225.3493177113656
 20
133.9878786722304
 30
0.0
 11
225.3493177113656
 21
163.9878786722304
 31
0.0
  0
LINE
  5
4E2
330
1B
100
AcDbEntity
  8
4
100
AcDbLine
 10
226.8493177113656
 20
134.9878786722304
 30
0.0
 11
226.8493177113656
 21
162.9878786722304
 31
0.0
  0
ARC
  5
4E3
330
1B
100
AcDbEntity
  8
4
 62
     3
100
AcDbCircle
 10
250.5629932113657
 20
160.5469101722304
 30
0.0
 40
4.0000005
100
AcDbArc
 50
85.39318800000132
 51
196.6098779999991
  0
LINE
  5
4E4
330
1B
100
AcDbEntity
  8
L-CENTER
 48
2.5
100
AcDbLine
 10
240.1839892113658
 20
105.9878796722303
 30
0.0
 11
221.6087632113659
 21
105.9878796722303
 31
0.0
  0
LINE
  5
4E5
330
1B
100
AcDbEntity
  8
4
100
AcDbLine
 10
224.8493187113659
 20
99.98787967223029
 30
0.0
 11
224.8493187113659
 21
111.9878796722303
 31
0.0
  0
LINE
  5
4E6
330
1B
100
AcDbEntity
  8
4
100
AcDbLine
 10
224.8493187113659
 20
99.98787967223029
 30
0.0
 11
225.8493187113659
 21
99.98787967223029
 31
0.0
  0
ARC
  5
4E7
330
1B
100
AcDbEntity
  8
4
 62
     3
100
AcDbCircle
 10
226.3493182113658
 20
116.4878796722303
 30
0.0
 40
0.4999995
100
AcDbArc
 50
270.0
 51
0.0
  0
LINE
  5
4E8
330
1B
100
AcDbEntity
  8
4
 62
     3
100
AcDbLine
 10
225.8493187113659
 20
115.9878786722304
 30
0.0
 11
226.3493182113658
 21
115.9878786722304
 31
0.0
  0
LINE
  5
4E9
330
1B
100
AcDbEntity
  8
4
100
AcDbLine
 10
224.8493187113659
 20
111.9878796722303
 30
0.0
 11
225.8493187113659
 21
111.9878796722303
 31
0.0
  0
LINE
  5
4EA
330
1B
100
AcDbEntity
  8
4
 62
     3
100
AcDbLine
 10
255.8493187113657
 20
90.98787967223029
 30
0.0
 11
207.8493187113657
 21
90.98787967223029
 31
0.0
  0
ARC
  5
4EB
330
1B
100
AcDbEntity
  8
4
 62
     3
100
AcDbCircle
 10
226.3493182113658
 20
95.48787967223029
 30
0.0
 40
0.4999995
100
AcDbArc
 50
0.0
 51
90.0
  0
LINE
  5
4EC
330
1B
100
AcDbEntity
  8
4
 62
     3
100
AcDbLine
 10
226.3493182113658
 20
95.98787917223035
 30
0.0
 11
225.8493187113659
 21
95.98787917223035
 31
0.0
  0
ARC
  5
4ED
330
1B
100
AcDbEntity
  8
4
 62
     3
100
AcDbCircle
 10
224.8493182113658
 20
92.98787917223035
 30
0.0
 40
1.9999995
100
AcDbArc
 50
270.0
 51
0.0
  0
ARC
  5
4EE
330
1B
100
AcDbEntity
  8
4
 62
     3
100
AcDbCircle
 10
207.8493187113659
 20
88.98787867223041
 30
0.0
 40
1.9999995
100
AcDbArc
 50
90.0
 51
180.0
  0
LINE
  5
4EF
330
1B
100
AcDbEntity
  8
4
 62
     3
100
AcDbLine
 10
207.8493187113659
 20
90.98787967223029
 30
0.0
 11
224.8493182113658
 21
90.98787967223029
 31
0.0
  0
ARC
  5
4F0
330
1B
100
AcDbEntity
  8
4
 62
     3
100
AcDbCircle
 10
223.8493177113658
 20
95.98787917223035
 30
0.0
 40
4.9999995
100
AcDbArc
 50
270.0
 51
0.0
  0
ARC
  5
4F1
330
1B
100
AcDbEntity
  8
4
 62
     3
100
AcDbCircle
 10
262.8493177113658
 20
70.98787867223041
 30
0.0
 40
4.9999995
100
AcDbArc
 50
90.0
 51
180.0
  0
ARC
  5
4F2
330
1B
100
AcDbEntity
  8
4
 62
     3
100
AcDbCircle
 10
253.8493177113658
 20
88.98787867223041
 30
0.0
 40
1.9999995
100
AcDbArc
 50
0.0
 51
90.0
  0
ARC
  5
4F3
330
1B
100
AcDbEntity
  8
4
 62
     3
100
AcDbCircle
 10
255.8493187113657
 20
88.98787867223041
 30
0.0
 40
1.9999995
100
AcDbArc
 50
0.0
 51
90.0
  0
ARC
  5
4F4
330
1B
100
AcDbEntity
  8
4
 62
     3
100
AcDbCircle
 10
262.8493177113658
 20
82.0383411722305
 30
0.0
 40
4.9999995
100
AcDbArc
 50
77.41366699999983
 51
180.0
  0
ARC
  5
4F5
330
1B
100
AcDbEntity
  8
4
 62
     3
100
AcDbCircle
 10
236.1652627113659
 20
95.98787917223035
 30
0.0
 40
4.9999995
100
AcDbArc
 50
270.0
 51
15.58434899999998
  0
LINE
  5
4F6
330
1B
100
AcDbEntity
  8
4
 62
     3
100
AcDbLine
 10
225.8493187113659
 20
115.9878786722304
 30
0.0
 11
225.8493187113659
 21
95.98787917223035
 31
0.0
  0
LINE
  5
4F7
330
1B
100
AcDbEntity
  8
4
 62
     3
100
AcDbLine
 10
205.8493177113656
 20
65.98787917223035
 30
0.0
 11
257.8493182113658
 21
65.98787917223035
 31
0.0
  0
LINE
  5
4FA
330
1B
100
AcDbEntity
  8
4
 62
     3
100
AcDbLine
 10
205.8493177113656
 20
88.98787867223041
 30
0.0
 11
205.8493177113656
 21
65.98787917223035
 31
0.0
  0
LINE
  5
4FB
330
1B
100
AcDbEntity
  8
L-CENTER
 48
2.5
100
AcDbLine
 10
225.8493187113659
 20
97.98787967223029
 30
0.0
 11
225.8493187113657
 21
58.98787917223035
 31
0.0
  0
LINE
  5
4FC
330
1B
100
AcDbEntity
  8
4
 62
     3
100
AcDbLine
 10
255.8493187113657
 20
88.98787867223041
 30
0.0
 11
255.8493187113657
 21
65.98787917223035
 31
0.0
  0
LINE
  5
4FD
330
1B
100
AcDbEntity
  8
4
 62
     3
100
AcDbLine
 10
257.8493182113658
 20
88.98787867223041
 30
0.0
 11
257.8493182113658
 21
65.98787917223035
 31
0.0
  0
LINE
  5
4FE
330
1B
100
AcDbEntity
  8
4
 62
     3
100
AcDbLine
 10
228.8493187113657
 20
185.9878791722304
 30
0.0
 11
228.8493187113657
 21
95.98787917223035
 31
0.0
  0
LINE
  5
4FF
330
1B
100
AcDbEntity
  8
4
 62
     3
100
AcDbLine
 10
226.8493177113656
 20
92.98787917223035
 30
0.0
 11
226.8493177113656
 21
166.9878786722304
 31
0.0
  0
ARC
  5
500
330
1B
100
AcDbEntity
  8
4
 62
     3
100
AcDbCircle
 10
558.8493187113659
 20
185.9878791722304
 30
0.0
 40
330.0
100
AcDbArc
 50
163.927056
 51
195.584349
  0
LINE
  5
501
330
1B
100
AcDbEntity
  8
4
 62
     3
100
AcDbLine
 10
225.3493177113656
 20
327.9878796722303
 30
0.0
 11
225.3493177113656
 21
243.9878796722305
 31
0.0
  0
LINE
  5
502
330
1B
100
AcDbEntity
  8
4
 62
     3
100
AcDbLine
 10
231.8493187113657
 20
230.3838246722303
 30
0.0
 11
231.8493187113657
 21
274.9878786722302
 31
0.0
  0
LINE
  5
506
330
1B
100
AcDbEntity
  8
4
 62
     3
100
AcDbLine
 10
262.8493177113656
 20
75.98787967223029
 30
0.0
 11
408.8493187113657
 21
75.98787967223029
 31
0.0
  0
ARC
  5
507
330
1B
100
AcDbEntity
  8
4
 62
     3
100
AcDbCircle
 10
335.8493182113658
 20
408.9878796722305
 30
0.0
 40
330.0
100
AcDbArc
 50
257.413667
 51
270.0
  0
LINE
  5
508
330
1B
100
AcDbEntity
  8
L-CENTER
 48
2.5
100
AcDbLine
 10
451.3523392131066
 20
285.9878796722305
 30
0.0
 11
151.7933640844393
 21
285.9878796722305
 31
0.0
  0
LINE
  5
50B
330
1B
100
AcDbEntity
  8
L-CENTER
 48
2.5
100
AcDbLine
 10
222.9226132113658
 20
185.9878791722304
 30
0.0
 11
448.7760232113656
 21
185.9878791722304
 31
0.0
  0
LINE
  5
50C
330
1B
100
AcDbEntity
  8
4
 62
     3
100
AcDbLine
 10
250.8842632113656
 20
164.5339881722302
 30
0.0
 11
292.3670617113658
 21
161.1913971722304
 31
0.0
  0
LINE
  5
50D
330
1B
100
AcDbEntity
  8
4
 62
     3
100
AcDbLine
 10
250.8842632113656
 20
207.4417701722305
 30
0.0
 11
292.3670617113658
 21
210.7843611722303
 31
0.0
  0
ARC
  5
50E
330
1B
100
AcDbEntity
  8
4
 62
     3
100
AcDbCircle
 10
335.8493182113658
 20
-37.01212132776979
 30
0.0
 40
330.0
100
AcDbArc
 50
73.92705600000002
 51
106.0734741062263
  0
LINE
  5
511
330
1B
100
AcDbEntity
  8
4
 62
     3
100
AcDbLine
 10
232.8475856608337
 20
328.9878786722304
 30
0.0
 11
438.8493187113657
 21
328.9878786722304
 31
0.0
  0
LINE
  5
512
330
1B
100
AcDbEntity
  8
4
 62
     3
100
AcDbLine
 10
294.8493187113659
 20
329.9878791722304
 30
0.0
 11
256.8493177113656
 21
329.9878791722304
 31
0.0
  0
LINE
  5
513
330
1B
100
AcDbEntity
  8
4
100
AcDbLine
 10
263.3498082113657
 20
331.4878791722304
 30
0.0
 11
288.3498082113657
 21
331.4878791722304
 31
0.0
  0
LINE
  5
514
330
1B
100
AcDbEntity
  8
4
100
AcDbLine
 10
263.3498082113657
 20
333.4878791722304
 30
0.0
 11
288.3498082113657
 21
333.4878791722304
 31
0.0
  0
LINE
  5
515
330
1B
100
AcDbEntity
  8
4
100
AcDbLine
 10
263.3498082113657
 20
337.4878791722304
 30
0.0
 11
288.3498082113657
 21
337.4878791722304
 31
0.0
  0
LINE
  5
542
330
1B
100
AcDbEntity
  8
4
100
AcDbLine
 10
105.7292462900774
 20
301.4878796722305
 30
0.0
 11
98.72924629007736
 21
301.4878796722305
 31
0.0
  0
LINE
  5
54E
330
1B
100
AcDbEntity
  8
4
100
AcDbLine
 10
105.7292462900774
 20
294.4878796722305
 30
0.0
 11
98.72924629007736
 21
294.4878796722305
 31
0.0
  0
LINE
  5
554
330
1B
100
AcDbEntity
  8
L-CENTER
 48
2.5
100
AcDbLine
 10
121.1821262900774
 20
285.9878796722305
 30
0.0
 11
83.2763662900773
 21
285.9878796722305
 31
0.0
  0
LINE
  5
55B
330
1B
100
AcDbEntity
  8
L-CENTER
 48
2.5
100
AcDbLine
 10
102.2292462900774
 20
267.0349996722305
 30
0.0
 11
102.2292462900774
 21
304.9407596722306
 31
0.0
  0
LINE
  5
55D
330
1B
100
AcDbEntity
  8
4
100
AcDbLine
 10
98.72924629007736
 20
301.4878796722305
 30
0.0
 11
98.72924629007736
 21
294.4878796722305
 31
0.0
  0
LINE
  5
55E
330
1B
100
AcDbEntity
  8
4
100
AcDbLine
 10
105.7292462900774
 20
294.4878796722305
 30
0.0
 11
105.7292462900774
 21
301.4878796722305
 31
0.0
  0
ARC
  5
55F
330
1B
100
AcDbEntity
  8
4
100
AcDbCircle
 10
102.2292462900774
 20
285.9878796722305
 30
0.0
 40
12.5
100
AcDbArc
 50
106.260204708312
 51
73.73979499999989
  0
LINE
  5
583
330
1B
100
AcDbEntity
  8
4
100
AcDbLine
 10
1001.915824115881
 20
206.4878791722304
 30
0.0
 11
991.9158241158806
 21
206.4878791722304
 31
0.0
  0
LINE
  5
584
330
1B
100
AcDbEntity
  8
4
100
AcDbLine
 10
1001.915824115881
 20
198.4878791722304
 30
0.0
 11
991.9158241158806
 21
198.4878791722304
 31
0.0
  0
LINE
  5
585
330
1B
100
AcDbEntity
  8
4
100
AcDbLine
 10
991.9158241158806
 20
206.4878791722304
 30
0.0
 11
991.9158241158806
 21
198.4878791722304
 31
0.0
  0
LINE
  5
586
330
1B
100
AcDbEntity
  8
4
100
AcDbLine
 10
1001.915824115881
 20
198.4878791722304
 30
0.0
 11
1001.915824115881
 21
206.4878791722304
 31
0.0
  0
ARC
  5
587
330
1B
100
AcDbEntity
  8
4
100
AcDbCircle
 10
996.9158241158806
 20
185.9878791722304
 30
0.0
 40
16.9999725
100
AcDbArc
 50
107.104663698329
 51
72.89533500000049
  0
LINE
  5
588
330
1B
100
AcDbEntity
  8
L-CENTER
 48
2.5
100
AcDbLine
 10
886.9158246158805
 20
98.57701818945259
 30
0.0
 11
886.9158246158805
 21
58.68103267223023
 31
0.0
  0
LINE
  5
589
330
1B
100
AcDbEntity
  8
L-CENTER
 48
2.5
100
AcDbLine
 10
1106.915823615881
 20
98.57701818945259
 30
0.0
 11
1106.915823615881
 21
58.68103267223023
 31
0.0
  0
CIRCLE
  5
590
330
1B
100
AcDbEntity
  8
4
100
AcDbCircle
 10
335.8493182113658
 20
185.9878791722304
 30
0.0
 40
93.0
  0
CIRCLE
  5
592
330
1B
100
AcDbEntity
  8
4
100
AcDbCircle
 10
335.8493182113658
 20
185.9878791722304
 30
0.0
 40
105.0
  0
LINE
  5
594
330
1B
100
AcDbEntity
  8
4
100
AcDbLine
 10
205.8493182113658
 20
300.9878796722305
 30
0.0
 11
205.8493182113658
 21
270.9878796722305
 31
0.0
  0
LINE
  5
595
330
1B
100
AcDbEntity
  8
4
100
AcDbLine
 10
155.8493182113658
 20
274.4878796722305
 30
0.0
 11
155.8493182113658
 21
301.4878796722305
 31
0.0
  0
LINE
  5
596
330
1B
100
AcDbEntity
  8
4
100
AcDbLine
 10
156.8493182113658
 20
298.4878796722305
 30
0.0
 11
156.8493182113658
 21
273.4878796722305
 31
0.0
  0
LINE
  5
597
330
1B
100
AcDbEntity
  8
4
100
AcDbLine
 10
205.8493182113658
 20
273.4878796722305
 30
0.0
 11
156.8493182113658
 21
273.4878796722305
 31
0.0
  0
LINE
  5
598
330
1B
100
AcDbEntity
  8
4
100
AcDbLine
 10
224.3493182113658
 20
270.9878796722305
 30
0.0
 11
205.8493182113658
 21
270.9878796722305
 31
0.0
  0
LINE
  5
599
330
1B
100
AcDbEntity
  8
4
100
AcDbLine
 10
155.8493182113658
 20
274.4878796722305
 30
0.0
 11
156.8493182113658
 21
273.4878796722305
 31
0.0
  0
LINE
  5
59A
330
1B
100
AcDbEntity
  8
4
100
AcDbLine
 10
155.8493182113658
 20
301.4878796722305
 30
0.0
 11
200.8493182113658
 21
301.4878796722305
 31
0.0
  0
LINE
  5
59B
330
1B
100
AcDbEntity
  8
4
100
AcDbLine
 10
205.8493182113658
 20
298.4878796722305
 30
0.0
 11
156.8493182113658
 21
298.4878796722305
 31
0.0
  0
LINE
  5
59C
330
1B
100
AcDbEntity
  8
4
100
AcDbLine
 10
200.8493182113658
 20
298.4878796722305
 30
0.0
 11
200.8493182113658
 21
301.4878796722305
 31
0.0
  0
LINE
  5
59D
330
1B
100
AcDbEntity
  8
4
100
AcDbLine
 10
224.3493182113658
 20
300.9878796722305
 30
0.0
 11
205.8493182113658
 21
300.9878796722305
 31
0.0
  0
LINE
  5
5A0
330
1B
100
AcDbEntity
  8
4
100
AcDbLine
 10
156.8493182113658
 20
298.4878796722305
 30
0.0
 11
155.8493182113658
 21
297.4878796722305
 31
0.0
  0
ENDSEC
  0
SECTION
  2
OBJECTS
  0
DICTIONARY
  5
9
330
0
100
AcDbDictionary
281
     1
  3
ACAD_COLOR
350
30
  3
ACAD_GROUP
350
2E
  3
ACAD_LAYOUT
350
24
  3
ACAD_MATERIAL
350
B
  3
ACAD_MLEADERSTYLE
350
569
  3
ACAD_MLINESTYLE
350
19
  3
ACAD_PLOTSETTINGS
350
2F
  3
ACAD_PLOTSTYLENAME
350
8
  3
ACAD_SCALELIST
350
37
  3
ACAD_TABLESTYLE
350
568
  3
ACAD_VISUALSTYLE
350
31
  3
ACDBHEADERROUNDTRIPXREC
350
5CB
  3
AcDbVariableDictionary
350
566
  3
DWGPROPS
350
5CE
  0
DICTIONARY
  5
5CF
330
2D
100
AcDbDictionary
280
     1
281
     1
  3
ACAD_XREC_ROUNDTRIP
360
5D0
  0
DICTIONARY
  5
3
330
2
100
AcDbDictionary
280
     1
281
     1
  3
ACAD_LAYERSTATES
360
4
  0
DICTIONARY
  5
20
330
1F
100
AcDbDictionary
280
     1
281
     1
  3
ADSK_XREC_LAYER_RECONCILED
360
21
  0
DICTIONARY
  5
D2
330
D1
100
AcDbDictionary
280
     1
281
     1
  3
ADSK_XREC_LAYER_RECONCILED
360
D3
  0
DICTIONARY
  5
5
330
1
100
AcDbDictionary
280
     1
281
     1
  3
ADSK_XREC_LAYER_RECONCILED
360
6
  0
DICTIONARY
  5
CC
330
CB
100
AcDbDictionary
280
     1
281
     1
  3
ADSK_XREC_LAYER_RECONCILED
360
CD
  0
DICTIONARY
  5
97
330
96
100
AcDbDictionary
280
     1
281
     1
  3
ADSK_XREC_LAYER_RECONCILED
360
98
  0
DICTIONARY
  5
5D
330
5C
100
AcDbDictionary
280
     1
281
     1
  3
ADSK_XREC_LAYER_RECONCILED
360
5E
  0
DICTIONARY
  5
1C
330
1B
100
AcDbDictionary
280
     1
281
     1
  3
ACAD_SORTENTS
360
1D
  0
DICTIONARY
  5
30
102
{ACAD_REACTORS
330
9
102
}
330
9
100
AcDbDictionary
281
     1
  0
DICTIONARY
  5
2E
102
{ACAD_REACTORS
330
9
102
}
330
9
100
AcDbDictionary
281
     1
  0
DICTIONARY
  5
24
102
{ACAD_REACTORS
330
9
102
}
330
9
100
AcDbDictionary
281
     1
  3
Model
350
23
  3
ﾚｲｱｳﾄ1
350
2A
  0
DICTIONARY
  5
B
102
{ACAD_REACTORS
330
9
102
}
330
9
100
AcDbDictionary
281
     1
  3
ByBlock
350
5A
  3
ByLayer
350
14
  3
Global
350
A
  0
DICTIONARY
  5
569
102
{ACAD_REACTORS
330
9
102
}
330
9
100
AcDbDictionary
281
     1
  3
Standard
350
5BE
  0
DICTIONARY
  5
19
102
{ACAD_REACTORS
330
9
102
}
330
9
100
AcDbDictionary
281
     1
  3
STANDARD
350
18
  0
DICTIONARY
  5
2F
102
{ACAD_REACTORS
330
9
102
}
330
9
100
AcDbDictionary
281
     1
  0
ACDBDICTIONARYWDFLT
  5
8
102
{ACAD_REACTORS
330
9
102
}
330
9
100
AcDbDictionary
281
     1
  3
Normal
350
7
100
AcDbDictionaryWithDefault
340
7
  0
DICTIONARY
  5
37
102
{ACAD_REACTORS
330
9
102
}
330
9
100
AcDbDictionary
281
     1
  3
*A1
350
59
  0
DICTIONARY
  5
568
102
{ACAD_REACTORS
330
9
102
}
330
9
100
AcDbDictionary
281
     1
  3
Standard
350
5C7
  0
DICTIONARY
  5
31
102
{ACAD_REACTORS
330
9
102
}
330
9
100
AcDbDictionary
281
     1
  3
2dWireframe
350
571
  3
Basic
350
573
  3
Brighten
350
576
  3
ColorChange
350
57A
  3
Conceptual
350
574
  3
Dim
350
575
  3
EdgeColorOff
350
57D
  3
Facepattern
350
579
  3
Flat
350
56D
  3
FlatWithEdges
350
56E
  3
Gouraud
350
56F
  3
GouraudWithEdges
350
570
  3
Hidden
350
572
  3
JitterOff
350
57B
  3
Linepattern
350
578
  3
OverhangOff
350
57C
  3
Realistic
350
32
  3
Shaded
350
582
  3
Shaded with edges
350
581
  3
Shades of Gray
350
57E
  3
Sketchy
350
57F
  3
Thicken
350
577
  3
Wireframe
350
33
  3
X-Ray
350
580
  0
DICTIONARY
  5
5CB
102
{ACAD_REACTORS
330
9
102
}
330
9
100
AcDbDictionary
281
     1
  3
COLORDICT
350
5CC
  3
MATERIALDICT
350
5CD
  0
DICTIONARY
  5
566
102
{ACAD_REACTORS
330
9
102
}
330
9
100
AcDbDictionary
281
     1
  3
CANNOSCALE
350
567
  3
CMLEADERSTYLE
350
5C3
  3
CTABLESTYLE
350
5C8
  3
DIMASSOC
350
5C9
  3
HIDETEXT
350
5CA
  3
MSLTSCALE
350
5D1
  3
XCLIPFRAME
350
56A
  0
XRECORD
  5
5CE
102
{ACAD_REACTORS
330
9
102
}
330
9
100
AcDbXrecord
280
     1
  1
DWGPROPS COOKIE
  2

  3

  4

  6

  7

  8
sg-d04
  9

300
=
301
=
302
=
303
=
304
=
305
=
306
=
307
=
308
=
309
=
 40
0.0
 41
2457186.419851516
 42
2457870.226105463
  1

 90
        0
  0
XRECORD
  5
5D0
102
{ACAD_REACTORS
330
5CF
102
}
330
5CF
100
AcDbXrecord
280
     1
102
VTR_0.000_0.000_1.000_1.000_VISUALSTYLE
340
571
102
VTR_0.000_0.000_1.000_1.000_GRIDDISPLAY
 70
     3
102
VTR_0.000_0.000_1.000_1.000_GRIDMAJOR
 70
     5
102
VTR_0.000_0.000_1.000_1.000_DEFAULTLIGHTING
280
     1
102
VTR_0.000_0.000_1.000_1.000_DEFAULTLIGHTINGTYPE
 70
     1
102
VTR_0.000_0.000_1.000_1.000_BRIGHTNESS
141
0.0
102
VTR_0.000_0.000_1.000_1.000_CONTRAST
142
0.0
  0
DICTIONARY
  5
4
102
{ACAD_REACTORS
330
3
102
}
330
3
100
AcDbDictionary
281
     1
  0
XRECORD
  5
21
102
{ACAD_REACTORS
330
20
102
}
330
20
100
AcDbXrecord
280
     1
290
     1
  0
XRECORD
  5
D3
102
{ACAD_REACTORS
330
D2
102
}
330
D2
100
AcDbXrecord
280
     1
290
     1
  0
XRECORD
  5
6
102
{ACAD_REACTORS
330
5
102
}
330
5
100
AcDbXrecord
280
     1
290
     1
  0
XRECORD
  5
CD
102
{ACAD_REACTORS
330
CC
102
}
330
CC
100
AcDbXrecord
280
     1
290
     1
  0
XRECORD
  5
98
102
{ACAD_REACTORS
330
97
102
}
330
97
100
AcDbXrecord
280
     1
290
     1
  0
XRECORD
  5
5E
102
{ACAD_REACTORS
330
5D
102
}
330
5D
100
AcDbXrecord
280
     1
290
     1
  0
SORTENTSTABLE
  5
1D
102
{ACAD_REACTORS
330
1C
102
}
330
1C
100
AcDbSortentsTable
330
1B
331
0
  5
159
331
19F
  5
4B2
331
1A0
  5
4B1
331
1A1
  5
4B0
331
1A2
  5
4AF
331
1A3
  5
4AE
331
1A4
  5
4AD
331
1A5
  5
4AC
331
1A6
  5
4AB
331
1A7
  5
4AA
331
1A8
  5
4A9
331
1AA
  5
4A8
331
1AB
  5
4A7
331
1AC
  5
4A5
331
1AD
  5
4A4
331
1AE
  5
4A3
331
1AF
  5
4A2
331
1B0
  5
4A1
331
1B1
  5
4A0
331
1B2
  5
49F
331
1B3
  5
49E
331
1B4
  5
49D
331
1B5
  5
49C
331
1B6
  5
49B
331
1B7
  5
49A
331
1B8
  5
499
331
1B9
  5
498
331
1BA
  5
497
331
1BB
  5
496
331
1BC
  5
495
331
1BD
  5
494
331
1BE
  5
493
331
1BF
  5
492
331
1C0
  5
491
331
1C1
  5
490
331
1C2
  5
48F
331
1C3
  5
48E
331
1C4
  5
48D
331
1C5
  5
48C
331
1C6
  5
48B
331
1C7
  5
48A
331
1C8
  5
489
331
1C9
  5
488
331
1CA
  5
487
331
1CB
  5
486
331
1CC
  5
485
331
1CD
  5
484
331
1CE
  5
483
331
1CF
  5
482
331
1D0
  5
481
331
1D1
  5
480
331
1D2
  5
47F
331
1D3
  5
47E
331
1D4
  5
47D
331
1D5
  5
47C
331
1D6
  5
47B
331
1D7
  5
47A
331
1D8
  5
479
331
1D9
  5
478
331
1DA
  5
477
331
1DB
  5
476
331
1DC
  5
475
331
1DD
  5
474
331
1DE
  5
473
331
1E0
  5
472
331
1E1
  5
471
331
1E2
  5
46F
331
1E3
  5
46E
331
1E4
  5
46D
331
1E5
  5
46C
331
1E6
  5
46B
331
1E7
  5
46A
331
1E8
  5
469
331
1E9
  5
468
331
1EA
  5
467
331
1EB
  5
466
331
1EC
  5
465
331
1ED
  5
464
331
1EE
  5
463
331
1EF
  5
462
331
1F0
  5
461
331
1F1
  5
460
331
1F2
  5
45F
331
1F3
  5
45E
331
1F4
  5
45D
331
1F5
  5
45C
331
1F6
  5
45B
331
1F7
  5
45A
331
1F8
  5
459
331
1F9
  5
458
331
1FA
  5
457
331
1FB
  5
456
331
1FC
  5
455
331
1FD
  5
454
331
1FE
  5
453
331
1FF
  5
452
331
200
  5
451
331
201
  5
450
331
202
  5
44F
331
203
  5
44E
331
204
  5
44D
331
205
  5
44C
331
206
  5
44B
331
207
  5
44A
331
208
  5
449
331
209
  5
448
331
20A
  5
447
331
20B
  5
446
331
20C
  5
445
331
20D
  5
444
331
20E
  5
443
331
20F
  5
442
331
210
  5
441
331
211
  5
440
331
212
  5
43F
331
213
  5
43E
331
214
  5
43D
331
215
  5
43C
331
216
  5
43B
331
217
  5
43A
331
218
  5
439
331
219
  5
438
331
21A
  5
437
331
21B
  5
436
331
21C
  5
435
331
21D
  5
434
331
21E
  5
433
331
21F
  5
432
331
220
  5
431
331
221
  5
430
331
222
  5
42F
331
223
  5
42E
331
224
  5
42D
331
225
  5
42C
331
226
  5
42B
331
227
  5
42A
331
228
  5
429
331
229
  5
428
331
22A
  5
427
331
22B
  5
426
331
22C
  5
425
331
22D
  5
424
331
22E
  5
423
331
22F
  5
422
331
230
  5
421
331
231
  5
420
331
232
  5
41F
331
233
  5
41E
331
234
  5
41D
331
235
  5
41C
331
236
  5
41B
331
237
  5
41A
331
238
  5
419
331
239
  5
418
331
23A
  5
417
331
23B
  5
416
331
23C
  5
415
331
23D
  5
414
331
23E
  5
413
331
23F
  5
412
331
240
  5
411
331
241
  5
410
331
242
  5
40F
331
243
  5
40E
331
244
  5
40D
331
245
  5
40C
331
246
  5
40B
331
247
  5
40A
331
248
  5
409
331
249
  5
408
331
24A
  5
407
331
24B
  5
406
331
24C
  5
405
331
24D
  5
404
331
24E
  5
403
331
24F
  5
402
331
250
  5
401
331
251
  5
400
331
252
  5
3FF
331
253
  5
3FE
331
254
  5
3FD
331
255
  5
3FC
331
256
  5
3FB
331
257
  5
3FA
331
258
  5
3F9
331
259
  5
3F8
331
25A
  5
3F7
331
25B
  5
3F6
331
25C
  5
3F5
331
25D
  5
3F4
331
25E
  5
3F3
331
25F
  5
3F2
331
260
  5
3F1
331
261
  5
3F0
331
262
  5
3EF
331
263
  5
3EE
331
264
  5
3ED
331
265
  5
3EC
331
266
  5
3EB
331
267
  5
3EA
331
268
  5
3E9
331
269
  5
3E8
331
26A
  5
3E7
331
26B
  5
3E6
331
26C
  5
3E5
331
26D
  5
3E4
331
26E
  5
3E3
331
26F
  5
3E2
331
270
  5
3E1
331
271
  5
3E0
331
272
  5
3DF
331
273
  5
3DE
331
274
  5
3DD
331
275
  5
3DC
331
276
  5
3DB
331
277
  5
3DA
331
278
  5
3D9
331
279
  5
3D8
331
27A
  5
3D7
331
27B
  5
3D6
331
27C
  5
3D5
331
27D
  5
3D4
331
27F
  5
3D3
331
280
  5
3D2
331
281
  5
3D0
331
282
  5
3CF
331
283
  5
3CE
331
284
  5
3CD
331
285
  5
3CC
331
286
  5
3CB
331
287
  5
3CA
331
288
  5
3C9
331
289
  5
3C8
331
28A
  5
3C7
331
28B
  5
3C6
331
28C
  5
3C5
331
28D
  5
3C4
331
28E
  5
3C3
331
28F
  5
3C2
331
290
  5
3C1
331
291
  5
3C0
331
292
  5
3BF
331
293
  5
3BE
331
294
  5
3BD
331
295
  5
3BC
331
296
  5
3BB
331
297
  5
3BA
331
298
  5
3B9
331
299
  5
3B8
331
29A
  5
3B7
331
29B
  5
3B6
331
29C
  5
3B5
331
29D
  5
3B4
331
29E
  5
3B3
331
29F
  5
3B2
331
2A0
  5
3B1
331
2A1
  5
3B0
331
2A2
  5
3AF
331
2A3
  5
3AE
331
2A4
  5
3AD
331
2A5
  5
3AC
331
2A6
  5
3AB
331
2A7
  5
3AA
331
2A8
  5
3A9
331
2A9
  5
3A8
331
2AA
  5
3A7
331
2AC
  5
3A6
331
2AD
  5
3A5
331
2AE
  5
3A3
331
2AF
  5
3A2
331
2B0
  5
3A1
331
2B1
  5
3A0
331
2B2
  5
39F
331
2B3
  5
39E
331
2B4
  5
39D
331
2B5
  5
39C
331
2B6
  5
39B
331
2B7
  5
39A
331
2B8
  5
399
331
2B9
  5
398
331
2BA
  5
397
331
2BB
  5
396
331
2BC
  5
395
331
2BD
  5
394
331
2BE
  5
393
331
2BF
  5
392
331
2C0
  5
391
331
2C1
  5
390
331
2C2
  5
38F
331
2C3
  5
38E
331
2C4
  5
38D
331
2C5
  5
38C
331
2C6
  5
38B
331
2C7
  5
38A
331
2C8
  5
389
331
2C9
  5
388
331
2CA
  5
387
331
2CB
  5
386
331
2CC
  5
385
331
2CD
  5
384
331
2CE
  5
383
331
2CF
  5
382
331
2D0
  5
381
331
2D1
  5
380
331
2D2
  5
37F
331
2D3
  5
37E
331
2D4
  5
37D
331
2D5
  5
37C
331
2D6
  5
37B
331
2D7
  5
37A
331
2D8
  5
379
331
2D9
  5
378
331
2DA
  5
377
331
2DB
  5
376
331
2DC
  5
375
331
2DD
  5
374
331
2DE
  5
373
331
2DF
  5
372
331
2E0
  5
371
331
2E1
  5
370
331
2E2
  5
36F
331
2E3
  5
36E
331
2E4
  5
36D
331
2E5
  5
36C
331
2E6
  5
36B
331
2E7
  5
36A
331
2E8
  5
369
331
2E9
  5
368
331
2EA
  5
367
331
2EB
  5
366
331
2EC
  5
365
331
2ED
  5
364
331
2EE
  5
363
331
2EF
  5
362
331
2F0
  5
361
331
2F1
  5
360
331
2F2
  5
35F
331
2F3
  5
35E
331
2F4
  5
35D
331
2F5
  5
35C
331
2F6
  5
35B
331
2F7
  5
35A
331
2F8
  5
359
331
2F9
  5
358
331
2FA
  5
357
331
2FB
  5
356
331
2FC
  5
355
331
2FD
  5
354
331
2FE
  5
353
331
2FF
  5
352
331
300
  5
351
331
301
  5
350
331
302
  5
34F
331
303
  5
34E
331
304
  5
34D
331
305
  5
34C
331
306
  5
34B
331
307
  5
34A
331
308
  5
349
331
309
  5
348
331
30A
  5
347
331
30B
  5
346
331
30C
  5
345
331
30D
  5
344
331
30E
  5
343
331
30F
  5
342
331
310
  5
341
331
311
  5
340
331
312
  5
33F
331
313
  5
33E
331
314
  5
33D
331
315
  5
33C
331
316
  5
33B
331
317
  5
33A
331
318
  5
339
331
319
  5
338
331
31A
  5
337
331
31B
  5
336
331
31C
  5
335
331
31D
  5
334
331
31E
  5
333
331
31F
  5
332
331
320
  5
331
331
321
  5
330
331
322
  5
32F
331
323
  5
32E
331
324
  5
32D
331
325
  5
32C
331
326
  5
32B
331
327
  5
32A
331
328
  5
329
331
329
  5
328
331
32A
  5
327
331
32B
  5
326
331
32C
  5
325
331
32D
  5
324
331
32E
  5
323
331
32F
  5
322
331
330
  5
321
331
331
  5
320
331
332
  5
31F
331
333
  5
31E
331
334
  5
31D
331
335
  5
31C
331
336
  5
31B
331
337
  5
31A
331
338
  5
319
331
339
  5
318
331
33A
  5
317
331
33B
  5
316
331
33C
  5
315
331
33D
  5
314
331
33E
  5
313
331
33F
  5
312
331
340
  5
311
331
341
  5
310
331
342
  5
30F
331
343
  5
30E
331
344
  5
30D
331
345
  5
30C
331
346
  5
30B
331
347
  5
30A
331
348
  5
309
331
349
  5
308
331
34A
  5
307
331
34B
  5
306
331
34C
  5
305
331
34D
  5
304
331
34E
  5
303
331
34F
  5
302
331
350
  5
301
331
353
  5
300
331
358
  5
2FF
331
359
  5
2FC
331
35A
  5
2F7
331
35B
  5
2F6
331
35C
  5
2F5
331
35D
  5
2F4
331
35E
  5
2F3
331
35F
  5
2F2
331
360
  5
2F1
331
361
  5
2F0
331
362
  5
2EF
331
363
  5
2EE
331
364
  5
2ED
331
365
  5
2EC
331
366
  5
2EB
331
367
  5
2EA
331
368
  5
2E9
331
369
  5
2E8
331
36A
  5
2E7
331
36B
  5
2E6
331
36C
  5
2E5
331
36D
  5
2E4
331
36E
  5
2E3
331
36F
  5
2E2
331
370
  5
2E1
331
371
  5
2E0
331
372
  5
2DF
331
373
  5
2DE
331
374
  5
2DD
331
375
  5
2DC
331
376
  5
2DB
331
37B
  5
2D6
331
391
  5
2CB
331
392
  5
2CA
331
393
  5
2BE
331
394
  5
2BD
331
395
  5
2BC
331
396
  5
2BB
331
397
  5
2BA
331
398
  5
2B9
331
399
  5
2B8
331
39A
  5
2B7
331
39B
  5
2B6
331
39C
  5
2B5
331
39D
  5
2B4
331
39E
  5
2B3
331
39F
  5
2B2
331
3A0
  5
2B1
331
3A1
  5
2B0
331
3A6
  5
2AB
331
3A7
  5
2AA
331
3A8
  5
2A9
331
3A9
  5
2A8
331
3AA
  5
2A7
331
3AB
  5
2A6
331
3AC
  5
2A5
331
3AD
  5
2A4
331
3B2
  5
2A3
331
3B3
  5
2A2
331
3B4
  5
29D
331
3B5
  5
29C
331
3B6
  5
29B
331
3B7
  5
29A
331
3B8
  5
299
331
3B9
  5
298
331
3BA
  5
297
331
3BB
  5
296
331
3BC
  5
295
331
3BD
  5
294
331
3BE
  5
293
331
3C8
  5
289
331
3CA
  5
288
331
3CB
  5
287
331
3CC
  5
285
331
3CD
  5
284
331
3D1
  5
283
331
3D2
  5
282
331
3D3
  5
27E
331
3D4
  5
27D
331
3D5
  5
27C
331
3D6
  5
27B
331
3D7
  5
27A
331
3DD
  5
278
331
3E3
  5
274
331
3E4
  5
272
331
3E6
  5
26C
331
3EA
  5
26B
331
3ED
  5
269
331
3F3
  5
25E
331
3F4
  5
25D
331
3F5
  5
25C
331
3F7
  5
25A
331
3F8
  5
259
331
3F9
  5
258
331
3FD
  5
254
331
3FF
  5
252
331
400
  5
251
331
401
  5
250
331
402
  5
24F
331
403
  5
24E
331
404
  5
24D
331
407
  5
24A
331
408
  5
249
331
40B
  5
246
331
40C
  5
245
331
40D
  5
244
331
40E
  5
243
331
40F
  5
242
331
410
  5
241
331
411
  5
240
331
412
  5
23F
331
413
  5
23E
331
414
  5
23D
331
415
  5
23C
331
416
  5
23B
331
417
  5
23A
331
418
  5
239
331
419
  5
238
331
41A
  5
237
331
41B
  5
236
331
41C
  5
235
331
41D
  5
234
331
41E
  5
233
331
41F
  5
232
331
420
  5
231
331
421
  5
230
331
422
  5
22F
331
423
  5
22E
331
424
  5
22D
331
425
  5
22C
331
426
  5
22B
331
427
  5
22A
331
428
  5
229
331
42B
  5
226
331
42C
  5
225
331
42D
  5
224
331
42E
  5
223
331
42F
  5
222
331
430
  5
221
331
431
  5
220
331
432
  5
21F
331
433
  5
21E
331
434
  5
21D
331
435
  5
21C
331
436
  5
21B
331
43C
  5
215
331
43D
  5
214
331
43E
  5
213
331
43F
  5
212
331
440
  5
211
331
441
  5
210
331
442
  5
20F
331
443
  5
20E
331
444
  5
20D
331
445
  5
20C
331
446
  5
20B
331
447
  5
20A
331
448
  5
209
331
449
  5
208
331
44A
  5
207
331
44B
  5
206
331
44C
  5
205
331
44D
  5
204
331
44E
  5
203
331
44F
  5
202
331
450
  5
201
331
451
  5
200
331
452
  5
1FF
331
453
  5
1FE
331
454
  5
1FD
331
455
  5
1FC
331
456
  5
1FB
331
457
  5
1FA
331
458
  5
1F9
331
459
  5
1F8
331
45A
  5
1F7
331
45B
  5
1F6
331
45C
  5
1F5
331
45D
  5
1F4
331
45E
  5
1F3
331
45F
  5
1F2
331
460
  5
1F1
331
461
  5
1F0
331
462
  5
1EF
331
46C
  5
1E5
331
46D
  5
1E4
331
471
  5
1E0
331
473
  5
1DE
331
474
  5
1DD
331
476
  5
1DB
331
478
  5
1D9
331
479
  5
1D8
331
47A
  5
1D7
331
47B
  5
1D6
331
47C
  5
1D5
331
47D
  5
1D4
331
47E
  5
1D3
331
47F
  5
1D2
331
484
  5
1CD
331
488
  5
1C9
331
489
  5
1C8
331
48A
  5
1C7
331
48B
  5
1C6
331
48C
  5
1C5
331
48D
  5
1C4
331
48E
  5
1C3
331
490
  5
1C1
331
492
  5
1BF
331
493
  5
1BE
331
495
  5
1BC
331
497
  5
1BA
331
498
  5
1B9
331
499
  5
1B8
331
49A
  5
1B7
331
49B
  5
1B6
331
49C
  5
1B5
331
49D
  5
1B4
331
49E
  5
1B3
331
49F
  5
1B2
331
4A0
  5
1B1
331
4A1
  5
1B0
331
4A2
  5
1AF
331
4A3
  5
1AE
331
4A4
  5
1AD
331
4A5
  5
1AC
331
4A6
  5
1AB
331
4A7
  5
1AA
331
4A8
  5
1A9
331
4AB
  5
1A6
331
4AC
  5
1A5
331
4AD
  5
1A4
331
4AE
  5
1A3
331
4AF
  5
1A2
331
4B0
  5
1A1
331
4B1
  5
1A0
331
4B2
  5
19F
331
4B3
  5
19E
331
4B4
  5
19D
331
4B7
  5
19A
331
4B8
  5
199
331
4BA
  5
197
331
4BB
  5
196
331
4BC
  5
195
331
4BD
  5
194
331
4BE
  5
193
331
4BF
  5
192
331
4C0
  5
191
331
4C4
  5
190
331
4C5
  5
18F
331
4C6
  5
18B
331
4C7
  5
18A
331
4C8
  5
189
331
4C9
  5
188
331
4CA
  5
187
331
4CB
  5
186
331
4CC
  5
185
331
4CD
  5
184
331
4CE
  5
183
331
4CF
  5
182
331
4D0
  5
181
331
4D1
  5
180
331
4D3
  5
17F
331
4D4
  5
17E
331
4D5
  5
17C
331
4D6
  5
17B
331
4D7
  5
17A
331
4D8
  5
179
331
4D9
  5
178
331
4DA
  5
177
331
4DB
  5
176
331
4DC
  5
175
331
4DD
  5
174
331
4DE
  5
173
331
4DF
  5
172
331
4E0
  5
171
331
4E1
  5
170
331
4E2
  5
16F
331
4E3
  5
16E
331
4E4
  5
16D
331
4E5
  5
16C
331
4E6
  5
16B
331
4E7
  5
16A
331
4E8
  5
169
331
4E9
  5
168
331
4EA
  5
166
331
4EB
  5
165
331
4EC
  5
164
331
4ED
  5
163
331
4EE
  5
162
331
4EF
  5
161
331
4F0
  5
160
331
4F1
  5
15F
331
4F2
  5
15E
331
4F3
  5
15D
331
4F4
  5
15C
331
4F5
  5
15B
331
4F6
  5
15A
331
4F7
  5
158
331
4FA
  5
155
331
4FB
  5
154
331
4FC
  5
153
331
4FD
  5
152
331
4FE
  5
151
331
4FF
  5
150
331
500
  5
14F
331
501
  5
14E
331
502
  5
14D
331
506
  5
149
331
507
  5
148
331
508
  5
147
331
50B
  5
50D
331
50C
  5
50E
331
50D
  5
511
331
50E
  5
512
331
511
  5
513
331
512
  5
514
331
513
  5
515
331
514
  5
516
331
515
  5
517
331
542
  5
544
331
54E
  5
550
331
554
  5
556
331
55B
  5
55D
331
55D
  5
55F
331
55E
  5
560
331
55F
  5
561
331
583
  5
585
331
584
  5
586
331
585
  5
587
331
586
  5
588
331
587
  5
589
331
588
  5
58A
331
589
  5
58B
331
590
  5
594
331
592
  5
595
331
594
  5
596
331
595
  5
597
331
596
  5
598
331
597
  5
599
331
598
  5
59A
331
599
  5
59B
331
59A
  5
59C
331
59B
  5
59D
331
59C
  5
59E
331
59D
  5
59F
331
5A0
  5
5A3
  0
LAYOUT
  5
23
102
{ACAD_REACTORS
330
24
102
}
102
{ACAD_XDICTIONARY
360
25
102
}
330
24
100
AcDbPlotSettings
  1

  2
Bullzip PDF Printer.pc3
  4
A3
  6

 40
0.2
 41
0.0
 42
0.0
 43
0.0
 44
420.2
 45
297.1
 46
25.0
 47
12.0
 48
57.49999988333343
 49
33.42165154864122
140
1012.499997695834
141
714.6716499590577
142
1.0
143
2.5
 70
 11936
 72
     1
 73
     0
 74
     4
  7
monochrome.ctb
 75
     0
147
0.4
148
-57.49999988333343
149
-33.42165154864122
100
AcDbLayout
  1
Model
 70
     0
 71
     0
 10
0.0
 20
0.0
 11
12.0
 21
9.0
 12
0.0
 22
0.0
 32
0.0
 14
83.27636629007725
 24
58.68103267223023
 34
0.0
 15
1180.724523640084
 25
747.3526249586214
 35
0.0
146
0.0
 13
0.0
 23
0.0
 33
0.0
 16
1.0
 26
0.0
 36
0.0
 17
0.0
 27
1.0
 37
0.0
 76
     0
330
1B
331
34
1001
ACAD_PSEXT
1000
Bullzip PDF Printer.pc3
1000
Bullzip PDF Printer
1000
BULLZIP
1000
Bullzip PDF Printer 10.1.0.1871
1070
     0
  0
LAYOUT
  5
2A
102
{ACAD_REACTORS
330
24
102
}
330
24
100
AcDbPlotSettings
  1

  2
SR-LP8300F
  4

  6

 40
0.0
 41
0.0
 42
0.0
 43
0.0
 44
0.0
 45
0.0
 46
0.0
 47
0.0
 48
0.0
 49
0.0
140
0.0
141
0.0
142
1.0
143
1.0
 70
   688
 72
     0
 73
     0
 74
     5
  7
monochrome.ctb
 75
    16
147
1.0
148
0.0
149
0.0
100
AcDbLayout
  1
ﾚｲｱｳﾄ1
 70
     0
 71
     1
 10
0.0
 20
0.0
 11
12.0
 21
9.0
 12
0.0
 22
0.0
 32
0.0
 14
1.000000000000000E+20
 24
1.000000000000000E+20
 34
1.000000000000000E+20
 15
-1.000000000000000E+20
 25
-1.000000000000000E+20
 35
-1.000000000000000E+20
146
0.0
 13
0.0
 23
0.0
 33
0.0
 16
1.0
 26
0.0
 36
0.0
 17
0.0
 27
1.0
 37
0.0
 76
     0
330
27
  0
MATERIAL
  5
5A
102
{ACAD_REACTORS
330
B
102
}
102
{ACAD_XDICTIONARY
360
5D6
102
}
330
B
100
AcDbMaterial
  1
ByBlock
 72
     0
 73
     2
 43
0.0208333333333333
 43
0.0
 43
0.0
 43
0.0
 43
0.0
 43
0.0208333333333333
 43
0.0
 43
0.0
 43
0.0
 43
0.0
 43
1.0
 43
0.0
 43
0.0
 43
0.0
 43
0.0
 43
1.0
 77
     0
 78
     2
 47
0.0208333333333333
 47
0.0
 47
0.0
 47
0.0
 47
0.0
 47
0.0208333333333333
 47
0.0
 47
0.0
 47
0.0
 47
0.0
 47
1.0
 47
0.0
 47
0.0
 47
0.0
 47
0.0
 47
1.0
171
     0
172
     2
 49
0.0208333333333333
 49
0.0
 49
0.0
 49
0.0
 49
0.0
 49
0.0208333333333333
 49
0.0
 49
0.0
 49
0.0
 49
0.0
 49
1.0
 49
0.0
 49
0.0
 49
0.0
 49
0.0
 49
1.0
175
     0
176
     2
142
0.0208333333333333
142
0.0
142
0.0
142
0.0
142
0.0
142
0.0208333333333333
142
0.0
142
0.0
142
0.0
142
0.0
142
1.0
142
0.0
142
0.0
142
0.0
142
0.0
142
1.0
179
     0
270
     2
144
0.0208333333333333
144
0.0
144
0.0
144
0.0
144
0.0
144
0.0208333333333333
144
0.0
144
0.0
144
0.0
144
0.0
144
1.0
144
0.0
144
0.0
144
0.0
144
0.0
144
1.0
274
     2
147
0.0208333333333333
147
0.0
147
0.0
147
0.0
147
0.0
147
0.0208333333333333
147
0.0
147
0.0
147
0.0
147
0.0
147
1.0
147
0.0
147
0.0
147
0.0
147
0.0
147
1.0
  0
MATERIAL
  5
14
102
{ACAD_REACTORS
330
B
102
}
102
{ACAD_XDICTIONARY
360
5D2
102
}
330
B
100
AcDbMaterial
  1
ByLayer
 72
     0
 73
     2
 43
0.0208333333333333
 43
0.0
 43
0.0
 43
0.0
 43
0.0
 43
0.0208333333333333
 43
0.0
 43
0.0
 43
0.0
 43
0.0
 43
1.0
 43
0.0
 43
0.0
 43
0.0
 43
0.0
 43
1.0
 77
     0
 78
     2
 47
0.0208333333333333
 47
0.0
 47
0.0
 47
0.0
 47
0.0
 47
0.0208333333333333
 47
0.0
 47
0.0
 47
0.0
 47
0.0
 47
1.0
 47
0.0
 47
0.0
 47
0.0
 47
0.0
 47
1.0
171
     0
172
     2
 49
0.0208333333333333
 49
0.0
 49
0.0
 49
0.0
 49
0.0
 49
0.0208333333333333
 49
0.0
 49
0.0
 49
0.0
 49
0.0
 49
1.0
 49
0.0
 49
0.0
 49
0.0
 49
0.0
 49
1.0
175
     0
176
     2
142
0.0208333333333333
142
0.0
142
0.0
142
0.0
142
0.0
142
0.0208333333333333
142
0.0
142
0.0
142
0.0
142
0.0
142
1.0
142
0.0
142
0.0
142
0.0
142
0.0
142
1.0
179
     0
270
     2
144
0.0208333333333333
144
0.0
144
0.0
144
0.0
144
0.0
144
0.0208333333333333
144
0.0
144
0.0
144
0.0
144
0.0
144
1.0
144
0.0
144
0.0
144
0.0
144
0.0
144
1.0
274
     2
147
0.0208333333333333
147
0.0
147
0.0
147
0.0
147
0.0
147
0.0208333333333333
147
0.0
147
0.0
147
0.0
147
0.0
147
1.0
147
0.0
147
0.0
147
0.0
147
0.0
147
1.0
  0
MATERIAL
  5
A
102
{ACAD_REACTORS
330
B
102
}
102
{ACAD_XDICTIONARY
360
5D4
102
}
330
B
100
AcDbMaterial
  1
Global
 72
     0
 73
     2
 43
0.0208333333333333
 43
0.0
 43
0.0
 43
0.0
 43
0.0
 43
0.0208333333333333
 43
0.0
 43
0.0
 43
0.0
 43
0.0
 43
1.0
 43
0.0
 43
0.0
 43
0.0
 43
0.0
 43
1.0
 77
     0
 78
     2
 47
0.0208333333333333
 47
0.0
 47
0.0
 47
0.0
 47
0.0
 47
0.0208333333333333
 47
0.0
 47
0.0
 47
0.0
 47
0.0
 47
1.0
 47
0.0
 47
0.0
 47
0.0
 47
0.0
 47
1.0
171
     0
172
     2
 49
0.0208333333333333
 49
0.0
 49
0.0
 49
0.0
 49
0.0
 49
0.0208333333333333
 49
0.0
 49
0.0
 49
0.0
 49
0.0
 49
1.0
 49
0.0
 49
0.0
 49
0.0
 49
0.0
 49
1.0
175
     0
176
     2
142
0.0208333333333333
142
0.0
142
0.0
142
0.0
142
0.0
142
0.0208333333333333
142
0.0
142
0.0
142
0.0
142
0.0
142
1.0
142
0.0
142
0.0
142
0.0
142
0.0
142
1.0
179
     0
270
     2
144
0.0208333333333333
144
0.0
144
0.0
144
0.0
144
0.0
144
0.0208333333333333
144
0.0
144
0.0
144
0.0
144
0.0
144
1.0
144
0.0
144
0.0
144
0.0
144
0.0
144
1.0
274
     2
147
0.0208333333333333
147
0.0
147
0.0
147
0.0
147
0.0
147
0.0208333333333333
147
0.0
147
0.0
147
0.0
147
0.0
147
1.0
147
0.0
147
0.0
147
0.0
147
0.0
147
1.0
1001
ACAD
1070
    -1
1070
     3
1070
     0
1000

1071
        0
  0
MLEADERSTYLE
  5
5BE
102
{ACAD_REACTORS
330
569
102
}
102
{ACAD_XDICTIONARY
360
608
102
}
330
569
100
AcDbMLeaderStyle
170
     2
171
     1
172
     0
 90
        2
 40
0.0
 41
0.0
173
     1
 91
-1056964608
340
11
 92
       -2
290
     1
 42
0.09
291
     1
 43
0.36
  3
Standard
341
0
 44
0.18
300

342
12
174
     1
178
     6
175
     1
176
     0
 93
-1056964608
 45
0.18
292
     0
297
     0
 46
0.18
343
0
 94
-1056964608
 47
1.0
 49
1.0
140
1.0
293
     1
141
0.0
294
     1
177
     0
142
1.0
295
     0
296
     0
143
0.125
1001
ACAD_MLEADERVER
1070
     2
  0
MLINESTYLE
  5
18
102
{ACAD_REACTORS
330
19
102
}
330
19
100
AcDbMlineStyle
  2
STANDARD
 70
     0
  3

 62
     0
 51
90.0
 52
90.0
 71
     2
 49
0.5
 62
   256
  6
BYLAYER
 49
-0.5
 62
   256
  6
BYLAYER
  0
ACDBPLACEHOLDER
  5
7
102
{ACAD_REACTORS
330
8
102
}
330
8
  0
SCALE
  5
59
102
{ACAD_REACTORS
330
37
102
}
330
37
100
AcDbScale
 70
     0
300
1:1
140
1.0
141
1.0
290
     1
  0
TABLESTYLE
  5
5C7
102
{ACAD_REACTORS
330
568
102
}
330
568
100
AcDbTableStyle
  3
Standard
 70
     0
 71
     0
 40
0.06
 41
0.06
280
     0
281
     0
  7
STANDARD
140
0.18
170
     2
 62
     0
 63
   257
283
     0
274
    -2
284
     1
 64
     0
275
    -2
285
     1
 65
     0
276
    -2
286
     1
 66
     0
277
    -2
287
     1
 67
     0
278
    -2
288
     1
 68
     0
279
    -2
289
     1
 69
     0
  7
STANDARD
140
0.25
170
     5
 62
     0
 63
   257
283
     0
274
    -2
284
     1
 64
     0
275
    -2
285
     1
 65
     0
276
    -2
286
     1
 66
     0
277
    -2
287
     1
 67
     0
278
    -2
288
     1
 68
     0
279
    -2
289
     1
 69
     0
  7
STANDARD
140
0.18
170
     5
 62
     0
 63
   257
283
     0
274
    -2
284
     1
 64
     0
275
    -2
285
     1
 65
     0
276
    -2
286
     1
 66
     0
277
    -2
287
     1
 67
     0
278
    -2
288
     1
 68
     0
279
    -2
289
     1
 69
     0
  0
VISUALSTYLE
  5
571
102
{ACAD_REACTORS
330
31
102
}
102
{ACAD_XDICTIONARY
360
5E4
102
}
330
31
100
AcDbVisualStyle
  2
2dWireframe
 70
     4
 71
     0
 72
     2
 73
     0
 90
        0
 40
0.6
 41
30.0
 62
     5
 63
     7
 74
     1
 91
        4
 64
     7
 65
   257
 75
     1
175
     1
 42
1.0
 92
        0
 66
   257
 43
1.0
 76
     1
 77
     6
 78
     2
 67
     7
 79
     5
170
     0
171
     0
290
     0
174
     0
 93
        1
 44
0.0
173
     0
291
     0
 45
0.0
1001
ACAD
1000
AcDbSavedByObjectVersion
1070
     0
  0
VISUALSTYLE
  5
573
102
{ACAD_REACTORS
330
31
102
}
102
{ACAD_XDICTIONARY
360
5E8
102
}
330
31
100
AcDbVisualStyle
  2
Basic
 70
     7
 71
     1
 72
     0
 73
     1
 90
        0
 40
0.6
 41
30.0
 62
     5
 63
     7
 74
     0
 91
        4
 64
     7
 65
   257
 75
     1
175
     1
 42
1.0
 92
        8
 66
     7
 43
1.0
 76
     1
 77
     6
 78
     2
 67
     7
 79
     5
170
     0
171
     0
290
     0
174
     0
 93
        1
 44
0.0
173
     0
291
     1
 45
0.0
1001
ACAD
1000
AcDbSavedByObjectVersion
1070
     0
  0
VISUALSTYLE
  5
576
102
{ACAD_REACTORS
330
31
102
}
102
{ACAD_XDICTIONARY
360
5EE
102
}
330
31
100
AcDbVisualStyle
  2
Brighten
 70
    12
 71
     2
 72
     2
 73
     0
 90
        0
 40
0.6
 41
30.0
 62
     5
 63
     7
 74
     1
 91
        4
 64
     7
 65
   257
 75
     1
175
     1
 42
1.0
 92
        8
 66
     7
 43
1.0
 76
     1
 77
     6
 78
     2
 67
     7
 79
     5
170
     0
171
     0
290
     0
174
     0
 93
        1
 44
50.0
173
     0
291
     1
 45
0.0
1001
ACAD
1000
AcDbSavedByObjectVersion
1070
     0
  0
VISUALSTYLE
  5
57A
102
{ACAD_REACTORS
330
31
102
}
102
{ACAD_XDICTIONARY
360
5F6
102
}
330
31
100
AcDbVisualStyle
  2
ColorChange
 70
    16
 71
     2
 72
     2
 73
     3
 90
        0
 40
0.6
 41
30.0
 62
     5
 63
     8
 74
     1
 91
        4
 64
     7
 65
   257
 75
     1
175
     1
 42
1.0
 92
        8
 66
     8
 43
1.0
 76
     1
 77
     6
 78
     2
 67
     7
 79
     5
170
     0
171
     0
290
     0
174
     0
 93
        1
 44
0.0
173
     0
291
     1
 45
0.0
1001
ACAD
1000
AcDbSavedByObjectVersion
1070
     0
  0
VISUALSTYLE
  5
574
102
{ACAD_REACTORS
330
31
102
}
102
{ACAD_XDICTIONARY
360
5EA
102
}
330
31
100
AcDbVisualStyle
  2
Conceptual
 70
     9
 71
     3
 72
     2
 73
     0
 90
        0
 40
0.6
 41
30.0
 62
     5
 63
     7
 74
     2
 91
        2
 64
     7
 65
   257
 75
     1
175
     1
 42
40.0
 92
        8
 66
     7
 43
1.0
 76
     1
 77
     6
 78
     2
 67
     7
 79
     3
170
     0
171
     0
290
     0
174
     0
 93
        1
 44
0.0
173
     0
291
     0
 45
0.0
1001
ACAD
1000
AcDbSavedByObjectVersion
1070
     0
  0
VISUALSTYLE
  5
575
102
{ACAD_REACTORS
330
31
102
}
102
{ACAD_XDICTIONARY
360
5EC
102
}
330
31
100
AcDbVisualStyle
  2
Dim
 70
    11
 71
     2
 72
     2
 73
     0
 90
        0
 40
0.6
 41
30.0
 62
     5
 63
     7
 74
     1
 91
        4
 64
     7
 65
   257
 75
     1
175
     1
 42
1.0
 92
        8
 66
     7
 43
1.0
 76
     1
 77
     6
 78
     2
 67
     7
 79
     5
170
     0
171
     0
290
     0
174
     0
 93
        1
 44
-50.0
173
     0
291
     1
 45
0.0
1001
ACAD
1000
AcDbSavedByObjectVersion
1070
     0
  0
VISUALSTYLE
  5
57D
102
{ACAD_REACTORS
330
31
102
}
102
{ACAD_XDICTIONARY
360
5FC
102
}
330
31
100
AcDbVisualStyle
  2
EdgeColorOff
 70
    22
 71
     2
 72
     2
 73
     0
 90
        0
 40
0.6
 41
30.0
 62
     5
 63
     7
 74
     1
 91
        4
 64
     7
 65
   257
 75
     1
175
     1
 42
1.0
 92
        8
 66
     7
 43
1.0
 76
     1
 77
     6
 78
     2
 67
     7
 79
     5
170
     0
171
     0
290
     0
174
     0
 93
        1
 44
0.0
173
     0
291
     1
 45
0.0
1001
ACAD
1000
AcDbSavedByObjectVersion
1070
     0
  0
VISUALSTYLE
  5
579
102
{ACAD_REACTORS
330
31
102
}
102
{ACAD_XDICTIONARY
360
5F4
102
}
330
31
100
AcDbVisualStyle
  2
Facepattern
 70
    15
 71
     2
 72
     2
 73
     0
 90
        0
 40
0.6
 41
30.0
 62
     5
 63
     7
 74
     1
 91
        4
 64
     7
 65
   257
 75
     1
175
     1
 42
1.0
 92
        8
 66
     7
 43
1.0
 76
     1
 77
     6
 78
     2
 67
     7
 79
     5
170
     0
171
     0
290
     0
174
     0
 93
        1
 44
0.0
173
     0
291
     1
 45
0.0
1001
ACAD
1000
AcDbSavedByObjectVersion
1070
     0
  0
VISUALSTYLE
  5
56D
102
{ACAD_REACTORS
330
31
102
}
102
{ACAD_XDICTIONARY
360
5DC
102
}
330
31
100
AcDbVisualStyle
  2
Flat
 70
     0
 71
     2
 72
     1
 73
     1
 90
        2
 40
0.6
 41
30.0
 62
     5
 63
     7
 74
     0
 91
        4
 64
     7
 65
   257
 75
     1
175
     1
 42
1.0
 92
        8
 66
     7
 43
1.0
 76
     1
 77
     6
 78
     2
 67
     7
 79
     5
170
     0
171
     0
290
     0
174
     0
 93
       13
 44
0.0
173
     0
291
     1
 45
0.0
1001
ACAD
1000
AcDbSavedByObjectVersion
1070
     0
  0
VISUALSTYLE
  5
56E
102
{ACAD_REACTORS
330
31
102
}
102
{ACAD_XDICTIONARY
360
5DE
102
}
330
31
100
AcDbVisualStyle
  2
FlatWithEdges
 70
     1
 71
     2
 72
     1
 73
     1
 90
        2
 40
0.6
 41
30.0
 62
     5
 63
     7
 74
     1
 91
        4
 64
     7
 65
   257
 75
     1
175
     1
 42
1.0
 92
        0
 66
   257
 43
1.0
 76
     1
 77
     6
 78
     2
 67
     7
 79
     5
170
     0
171
     0
290
     0
174
     0
 93
       13
 44
0.0
173
     0
291
     1
 45
0.0
1001
ACAD
1000
AcDbSavedByObjectVersion
1070
     0
  0
VISUALSTYLE
  5
56F
102
{ACAD_REACTORS
330
31
102
}
102
{ACAD_XDICTIONARY
360
5E0
102
}
330
31
100
AcDbVisualStyle
  2
Gouraud
 70
     2
 71
     2
 72
     2
 73
     1
 90
        2
 40
0.6
 41
30.0
 62
     5
 63
     7
 74
     0
 91
        4
 64
     7
 65
   257
 75
     1
175
     1
 42
1.0
 92
        0
 66
     7
 43
1.0
 76
     1
 77
     6
 78
     2
 67
     7
 79
     5
170
     0
171
     0
290
     0
174
     0
 93
       13
 44
0.0
173
     0
291
     1
 45
0.0
1001
ACAD
1000
AcDbSavedByObjectVersion
1070
     0
  0
VISUALSTYLE
  5
570
102
{ACAD_REACTORS
330
31
102
}
102
{ACAD_XDICTIONARY
360
5E2
102
}
330
31
100
AcDbVisualStyle
  2
GouraudWithEdges
 70
     3
 71
     2
 72
     2
 73
     1
 90
        2
 40
0.6
 41
30.0
 62
     5
 63
     7
 74
     1
 91
        4
 64
     7
 65
   257
 75
     1
175
     1
 42
1.0
 92
        0
 66
   257
 43
1.0
 76
     1
 77
     6
 78
     2
 67
     7
 79
     5
170
     0
171
     0
290
     0
174
     0
 93
       13
 44
0.0
173
     0
291
     1
 45
0.0
1001
ACAD
1000
AcDbSavedByObjectVersion
1070
     0
  0
VISUALSTYLE
  5
572
102
{ACAD_REACTORS
330
31
102
}
102
{ACAD_XDICTIONARY
360
5E6
102
}
330
31
100
AcDbVisualStyle
  2
Hidden
 70
     6
 71
     1
 72
     2
 73
     2
 90
        0
 40
0.6
 41
30.0
 62
     5
 63
     7
 74
     2
 91
        2
 64
     7
 65
   257
 75
     2
175
     1
 42
40.0
 92
        0
 66
   257
 43
1.0
 76
     1
 77
     6
 78
     2
 67
     7
 79
     3
170
     0
171
     0
290
     0
174
     0
 93
        1
 44
0.0
173
     0
291
     0
 45
0.0
1001
ACAD
1000
AcDbSavedByObjectVersion
1070
     0
  0
VISUALSTYLE
  5
57B
102
{ACAD_REACTORS
330
31
102
}
102
{ACAD_XDICTIONARY
360
5F8
102
}
330
31
100
AcDbVisualStyle
  2
JitterOff
 70
    20
 71
     2
 72
     2
 73
     0
 90
        0
 40
0.6
 41
30.0
 62
     5
 63
     7
 74
     1
 91
        4
 64
     7
 65
   257
 75
     1
175
     1
 42
1.0
 92
       10
 66
     7
 43
1.0
 76
     1
 77
     6
 78
     2
 67
     7
 79
     5
170
     0
171
     0
290
     0
174
     0
 93
        1
 44
0.0
173
     0
291
     1
 45
0.0
1001
ACAD
1000
AcDbSavedByObjectVersion
1070
     0
  0
VISUALSTYLE
  5
578
102
{ACAD_REACTORS
330
31
102
}
102
{ACAD_XDICTIONARY
360
5F2
102
}
330
31
100
AcDbVisualStyle
  2
Linepattern
 70
    14
 71
     2
 72
     2
 73
     0
 90
        0
 40
0.6
 41
30.0
 62
     5
 63
     7
 74
     1
 91
        4
 64
     7
 65
   257
 75
     7
175
     7
 42
1.0
 92
        8
 66
     7
 43
1.0
 76
     1
 77
     6
 78
     2
 67
     7
 79
     5
170
     0
171
     0
290
     0
174
     0
 93
        1
 44
0.0
173
     0
291
     1
 45
0.0
1001
ACAD
1000
AcDbSavedByObjectVersion
1070
     0
  0
VISUALSTYLE
  5
57C
102
{ACAD_REACTORS
330
31
102
}
102
{ACAD_XDICTIONARY
360
5FA
102
}
330
31
100
AcDbVisualStyle
  2
OverhangOff
 70
    21
 71
     2
 72
     2
 73
     0
 90
        0
 40
0.6
 41
30.0
 62
     5
 63
     7
 74
     1
 91
        4
 64
     7
 65
   257
 75
     1
175
     1
 42
1.0
 92
        9
 66
     7
 43
1.0
 76
     1
 77
     6
 78
     2
 67
     7
 79
     5
170
     0
171
     0
290
     0
174
     0
 93
        1
 44
0.0
173
     0
291
     1
 45
0.0
1001
ACAD
1000
AcDbSavedByObjectVersion
1070
     0
  0
VISUALSTYLE
  5
32
102
{ACAD_REACTORS
330
31
102
}
102
{ACAD_XDICTIONARY
360
5D8
102
}
330
31
100
AcDbVisualStyle
  2
Realistic
 70
     8
 71
     2
 72
     3
 73
     0
 90
        2
 40
0.6
 41
30.0
 62
     5
 63
     7
 74
     0
 91
        0
 64
     7
 65
   257
 75
     1
175
     1
 42
1.0
 92
        8
 66
   257
 43
1.0
 76
     1
 77
     6
 78
     2
 67
     7
 79
     3
170
     0
171
     0
290
     0
174
     0
 93
       13
 44
0.0
173
     0
291
     0
 45
0.0
1001
ACAD
1000
AcDbSavedByObjectVersion
1070
     0
  0
VISUALSTYLE
  5
582
102
{ACAD_REACTORS
330
31
102
}
102
{ACAD_XDICTIONARY
360
606
102
}
330
31
100
AcDbVisualStyle
  2
Shaded
 70
    27
 71
     2
 72
     2
 73
     1
 90
        2
 40
0.6
 41
30.0
 62
     5
 63
     7
 74
     0
 91
        4
 64
     7
 65
   257
 75
     1
175
     1
 42
1.0
 92
        8
 66
   257
 43
1.0
 76
     1
 77
     6
 78
     2
 67
   251
 79
     3
170
     0
171
     0
290
     0
174
     0
 93
        5
 44
0.0
173
     0
291
     0
 45
0.0
1001
ACAD
1000
AcDbSavedByObjectVersion
1070
     0
  0
VISUALSTYLE
  5
581
102
{ACAD_REACTORS
330
31
102
}
102
{ACAD_XDICTIONARY
360
604
102
}
330
31
100
AcDbVisualStyle
  2
Shaded with edges
 70
    26
 71
     2
 72
     2
 73
     1
 90
        2
 40
0.6
 41
30.0
 62
     5
 63
     7
 74
     1
 91
       10
 64
     7
 65
   257
 75
     2
175
     1
 42
1.0
 92
        8
 66
   257
 43
1.0
 76
     1
 77
     6
 78
     2
 67
     7
 79
     3
170
     0
171
     0
290
     0
174
     0
 93
        5
 44
0.0
173
     0
291
     0
 45
0.0
1001
ACAD
1000
AcDbSavedByObjectVersion
1070
     0
  0
VISUALSTYLE
  5
57E
102
{ACAD_REACTORS
330
31
102
}
102
{ACAD_XDICTIONARY
360
5FE
102
}
330
31
100
AcDbVisualStyle
  2
Shades of Gray
 70
    23
 71
     2
 72
     2
 73
     3
 90
        0
 40
0.6
 41
30.0
 62
     5
 63
     7
 74
     2
 91
        2
 64
     7
 65
     7
 75
     1
175
     1
 42
40.0
 92
        8
 66
     7
 43
1.0
 76
     1
 77
     6
 78
     2
 67
     7
 79
     3
170
     0
171
     0
290
     0
174
     0
 93
        1
 44
0.0
173
     0
291
     0
 45
0.0
1001
ACAD
1000
AcDbSavedByObjectVersion
1070
     0
  0
VISUALSTYLE
  5
57F
102
{ACAD_REACTORS
330
31
102
}
102
{ACAD_XDICTIONARY
360
600
102
}
330
31
100
AcDbVisualStyle
  2
Sketchy
 70
    24
 71
     1
 72
     2
 73
     2
 90
        0
 40
0.6
 41
30.0
 62
     5
 63
     7
 74
     2
 91
        2
 64
     7
 65
     7
 75
     1
175
     1
 42
40.0
 92
       11
 66
     7
 43
1.0
 76
     1
 77
     6
 78
     2
 67
     7
 79
     6
170
     0
171
     0
290
     0
174
     0
 93
        1
 44
0.0
173
     0
291
     0
 45
0.0
1001
ACAD
1000
AcDbSavedByObjectVersion
1070
     0
  0
VISUALSTYLE
  5
577
102
{ACAD_REACTORS
330
31
102
}
102
{ACAD_XDICTIONARY
360
5F0
102
}
330
31
100
AcDbVisualStyle
  2
Thicken
 70
    13
 71
     2
 72
     2
 73
     0
 90
        0
 40
0.6
 41
30.0
 62
     5
 63
     7
 74
     1
 91
        4
 64
     7
 65
   257
 75
     1
175
     1
 42
1.0
 92
       12
 66
     7
 43
1.0
 76
     1
 77
     6
 78
     2
 67
     7
 79
     5
170
     0
171
     0
290
     0
174
     0
 93
        1
 44
0.0
173
     0
291
     1
 45
0.0
1001
ACAD
1000
AcDbSavedByObjectVersion
1070
     0
  0
VISUALSTYLE
  5
33
102
{ACAD_REACTORS
330
31
102
}
102
{ACAD_XDICTIONARY
360
5DA
102
}
330
31
100
AcDbVisualStyle
  2
Wireframe
 70
     5
 71
     0
 72
     2
 73
     0
 90
        0
 40
0.6
 41
30.0
 62
     5
 63
     7
 74
     1
 91
        4
 64
     7
 65
   257
 75
     1
175
     1
 42
1.0
 92
        0
 66
   257
 43
1.0
 76
     1
 77
     6
 78
     2
 67
     7
 79
     3
170
     0
171
     0
290
     0
174
     0
 93
        1
 44
0.0
173
     0
291
     0
 45
0.0
1001
ACAD
1000
AcDbSavedByObjectVersion
1070
     0
  0
VISUALSTYLE
  5
580
102
{ACAD_REACTORS
330
31
102
}
102
{ACAD_XDICTIONARY
360
602
102
}
330
31
100
AcDbVisualStyle
  2
X-Ray
 70
    25
 71
     2
 72
     2
 73
     1
 90
        1
 40
0.5
 41
30.0
 62
     5
 63
     7
 74
     1
 91
        0
 64
     7
 65
   257
 75
     1
175
     1
 42
1.0
 92
        8
 66
     7
 43
1.0
 76
     1
 77
     6
 78
     2
 67
     7
 79
     3
170
     0
171
     0
290
     0
174
     0
 93
       13
 44
0.0
173
     0
291
     0
 45
0.0
1001
ACAD
1000
AcDbSavedByObjectVersion
1070
     0
  0
XRECORD
  5
5CC
102
{ACAD_REACTORS
330
5CB
102
}
330
5CB
100
AcDbXrecord
280
     1
340
30
  0
XRECORD
  5
5CD
102
{ACAD_REACTORS
330
5CB
102
}
330
5CB
100
AcDbXrecord
280
     1
340
B
  0
DICTIONARYVAR
  5
567
102
{ACAD_REACTORS
330
566
102
}
330
566
100
DictionaryVariables
280
     0
  1
1:1
  0
DICTIONARYVAR
  5
5C3
102
{ACAD_REACTORS
330
566
102
}
330
566
100
DictionaryVariables
280
     0
  1
Standard
  0
DICTIONARYVAR
  5
5C8
102
{ACAD_REACTORS
330
566
102
}
330
566
100
DictionaryVariables
280
     0
  1
Standard
  0
DICTIONARYVAR
  5
5C9
102
{ACAD_REACTORS
330
566
102
}
330
566
100
DictionaryVariables
280
     0
  1
0
  0
DICTIONARYVAR
  5
5CA
102
{ACAD_REACTORS
330
566
102
}
330
566
100
DictionaryVariables
280
     0
  1
1
  0
DICTIONARYVAR
  5
5D1
102
{ACAD_REACTORS
330
566
102
}
330
566
100
DictionaryVariables
280
     0
  1
1
  0
DICTIONARYVAR
  5
56A
102
{ACAD_REACTORS
330
566
102
}
330
566
100
DictionaryVariables
280
     0
  1
0
  0
DICTIONARY
  5
25
330
23
100
AcDbDictionary
280
     1
281
     1
  0
DICTIONARY
  5
5D6
330
5A
100
AcDbDictionary
280
     1
281
     1
  3
ACAD_XREC_ROUNDTRIP
360
5D7
  0
DICTIONARY
  5
5D2
330
14
100
AcDbDictionary
280
     1
281
     1
  3
ACAD_XREC_ROUNDTRIP
360
5D3
  0
DICTIONARY
  5
5D4
330
A
100
AcDbDictionary
280
     1
281
     1
  3
ACAD_XREC_ROUNDTRIP
360
5D5
  0
DICTIONARY
  5
608
330
5BE
100
AcDbDictionary
280
     1
281
     1
  3
ACAD_XREC_ROUNDTRIP
360
609
  0
DICTIONARY
  5
5E4
330
571
100
AcDbDictionary
280
     1
281
     1
  3
ACAD_XREC_ROUNDTRIP
360
5E5
  0
DICTIONARY
  5
5E8
330
573
100
AcDbDictionary
280
     1
281
     1
  3
ACAD_XREC_ROUNDTRIP
360
5E9
  0
DICTIONARY
  5
5EE
330
576
100
AcDbDictionary
280
     1
281
     1
  3
ACAD_XREC_ROUNDTRIP
360
5EF
  0
DICTIONARY
  5
5F6
330
57A
100
AcDbDictionary
280
     1
281
     1
  3
ACAD_XREC_ROUNDTRIP
360
5F7
  0
DICTIONARY
  5
5EA
330
574
100
AcDbDictionary
280
     1
281
     1
  3
ACAD_XREC_ROUNDTRIP
360
5EB
  0
DICTIONARY
  5
5EC
330
575
100
AcDbDictionary
280
     1
281
     1
  3
ACAD_XREC_ROUNDTRIP
360
5ED
  0
DICTIONARY
  5
5FC
330
57D
100
AcDbDictionary
280
     1
281
     1
  3
ACAD_XREC_ROUNDTRIP
360
5FD
  0
DICTIONARY
  5
5F4
330
579
100
AcDbDictionary
280
     1
281
     1
  3
ACAD_XREC_ROUNDTRIP
360
5F5
  0
DICTIONARY
  5
5DC
330
56D
100
AcDbDictionary
280
     1
281
     1
  3
ACAD_XREC_ROUNDTRIP
360
5DD
  0
DICTIONARY
  5
5DE
330
56E
100
AcDbDictionary
280
     1
281
     1
  3
ACAD_XREC_ROUNDTRIP
360
5DF
  0
DICTIONARY
  5
5E0
330
56F
100
AcDbDictionary
280
     1
281
     1
  3
ACAD_XREC_ROUNDTRIP
360
5E1
  0
DICTIONARY
  5
5E2
330
570
100
AcDbDictionary
280
     1
281
     1
  3
ACAD_XREC_ROUNDTRIP
360
5E3
  0
DICTIONARY
  5
5E6
330
572
100
AcDbDictionary
280
     1
281
     1
  3
ACAD_XREC_ROUNDTRIP
360
5E7
  0
DICTIONARY
  5
5F8
330
57B
100
AcDbDictionary
280
     1
281
     1
  3
ACAD_XREC_ROUNDTRIP
360
5F9
  0
DICTIONARY
  5
5F2
330
578
100
AcDbDictionary
280
     1
281
     1
  3
ACAD_XREC_ROUNDTRIP
360
5F3
  0
DICTIONARY
  5
5FA
330
57C
100
AcDbDictionary
280
     1
281
     1
  3
ACAD_XREC_ROUNDTRIP
360
5FB
  0
DICTIONARY
  5
5D8
330
32
100
AcDbDictionary
280
     1
281
     1
  3
ACAD_XREC_ROUNDTRIP
360
5D9
  0
DICTIONARY
  5
606
330
582
100
AcDbDictionary
280
     1
281
     1
  3
ACAD_XREC_ROUNDTRIP
360
607
  0
DICTIONARY
  5
604
330
581
100
AcDbDictionary
280
     1
281
     1
  3
ACAD_XREC_ROUNDTRIP
360
605
  0
DICTIONARY
  5
5FE
330
57E
100
AcDbDictionary
280
     1
281
     1
  3
ACAD_XREC_ROUNDTRIP
360
5FF
  0
DICTIONARY
  5
600
330
57F
100
AcDbDictionary
280
     1
281
     1
  3
ACAD_XREC_ROUNDTRIP
360
601
  0
DICTIONARY
  5
5F0
330
577
100
AcDbDictionary
280
     1
281
     1
  3
ACAD_XREC_ROUNDTRIP
360
5F1
  0
DICTIONARY
  5
5DA
330
33
100
AcDbDictionary
280
     1
281
     1
  3
ACAD_XREC_ROUNDTRIP
360
5DB
  0
DICTIONARY
  5
602
330
580
100
AcDbDictionary
280
     1
281
     1
  3
ACAD_XREC_ROUNDTRIP
360
603
  0
XRECORD
  5
5D7
102
{ACAD_REACTORS
330
5D6
102
}
330
5D6
100
AcDbXrecord
280
     1
102
MATERIAL
148
0.0
149
0.0
149
0.0
 93
        0
 94
      127
282
     0
 72
     0
 77
     0
171
     0
175
     0
179
     0
273
     0
  0
XRECORD
  5
5D3
102
{ACAD_REACTORS
330
5D2
102
}
330
5D2
100
AcDbXrecord
280
     1
102
MATERIAL
148
0.0
149
0.0
149
0.0
 93
        0
 94
      127
282
     0
 72
     0
 77
     0
171
     0
175
     0
179
     0
273
     0
  0
XRECORD
  5
5D5
102
{ACAD_REACTORS
330
5D4
102
}
330
5D4
100
AcDbXrecord
280
     1
102
MATERIAL
148
0.0
149
0.0
149
0.0
 93
        0
 94
      127
282
     0
 72
     0
 77
     0
171
     0
175
     0
179
     0
273
     0
  0
XRECORD
  5
609
102
{ACAD_REACTORS
330
608
102
}
330
608
100
AcDbXrecord
280
     1
102
ACAD_ROUNDTRIP_2010_MLEADER_STYLE
  0
XRECORD
  5
5E5
102
{ACAD_REACTORS
330
5E4
102
}
330
5E4
100
AcDbXrecord
280
     1
102
RTVSPropertyOp0
 70
     1
102
RTVSPropertyOp1
 70
     1
102
RTVSPropertyOp2
 70
     1
102
RTVSPropertyOp3
 70
     1
102
RTVSPropertyOp4
 70
     1
102
RTVSPropertyOp5
 70
     1
102
RTVSPropertyOp6
 70
     1
102
RTVSPropertyOp7
 70
     1
102
RTVSPropertyOp8
 70
     1
102
RTVSPropertyOp9
 70
     1
102
RTVSPropertyOp10
 70
     1
102
RTVSPropertyOp11
 70
     1
102
RTVSPropertyOp12
 70
     1
102
RTVSPropertyOp13
 70
     1
102
RTVSPropertyOp14
 70
     1
102
RTVSPropertyOp15
 70
     1
102
RTVSPropertyOp16
 70
     1
102
RTVSPropertyOp17
 70
     1
102
RTVSPropertyOp18
 70
     1
102
RTVSPropertyOp19
 70
     1
102
RTVSPropertyOp20
 70
     1
102
RTVSPropertyOp21
 70
     1
102
RTVSPropertyOp22
 70
     1
102
RTVSPropertyOp23
 70
     1
102
RTVSPropertyOp24
 70
     1
102
RTVSPropertyOp25
 70
     1
102
RTVSPropertyOp26
 70
     1
102
RTVSPropertyOp27
 70
     1
102
RTVSPropertyOp28
 70
     1
102
RTVSPropertyOp29
 70
     1
102
RTVSPropertyOp30
 70
     1
102
RTVSPropertyOp31
 70
     1
102
RTVSPropertyOp32
 70
     1
102
RTVSPropertyOp33
 70
     1
102
RTVSPropertyOp34
 70
     1
102
RTVSPropertyOp35
 70
     1
102
RTVSPropertyOp36
 70
     1
102
RTVSPropertyOp37
 70
     1
102
RTVSPropertyOp38
 70
     1
102
RTVSPropertyOp39
 70
     1
102
RTVSPropertyOp40
 70
     1
102
RTVSPropertyOp41
 70
     1
102
RTVSPropertyOp42
 70
     1
102
RTVSPropertyOp43
 70
     1
102
RTVSPropertyOp44
 70
     1
102
RTVSPropertyOp45
 70
     1
102
RTVSPropertyOp46
 70
     1
102
RTVSPropertyOp47
 70
     1
102
RTVSPropertyOp48
 70
     1
102
RTVSPropertyOp49
 70
     1
102
RTVSPropertyOp50
 70
     1
102
RTVSPropertyOp51
 70
     0
102
RTVSPropertyOp52
 70
     0
102
RTVSPropertyOp53
 70
     1
102
RTVSPropertyOp54
 70
     1
102
RTVSPropertyOp55
 70
     1
102
RTVSPropertyOp56
 70
     1
102
RTVSPropertyOp57
 70
     1
102
RTVSPost2010Prop28
280
     1
102
RTVSPost2010PropOp28
 70
     1
102
RTVSPost2010Prop29
280
     1
102
RTVSPost2010PropOp29
 70
     1
102
RTVSPost2010Prop30
280
     0
102
RTVSPost2010PropOp30
 70
     1
102
RTVSPost2010Prop31
280
     0
102
RTVSPost2010PropOp31
 70
     1
102
RTVSPost2010Prop32
280
     0
102
RTVSPost2010PropOp32
 70
     1
102
RTVSPost2010Prop33
280
     0
102
RTVSPost2010PropOp33
 70
     1
102
RTVSPost2010Prop34
280
     0
102
RTVSPost2010PropOp34
 70
     1
102
RTVSPost2010Prop35
280
     0
102
RTVSPost2010PropOp35
 70
     1
102
RTVSPost2010Prop36
280
     0
102
RTVSPost2010PropOp36
 70
     1
102
RTVSPost2010Prop37
 90
       50
102
RTVSPost2010PropOp37
 70
     1
102
RTVSPost2010Prop38
140
0.0
102
RTVSPost2010PropOp38
 70
     1
102
RTVSPost2010Prop39
140
1.0
102
RTVSPost2010PropOp39
 70
     1
102
RTVSPost2010Prop40
 90
        0
102
RTVSPost2010PropOp40
 70
     1
102
RTVSPost2010Prop41ColorIndex
 90
       18
102
RTVSPost2010Prop41ColorRGB
 90
        0
102
RTVSPost2010PropOp41
 70
     1
102
RTVSPost2010Prop42
 90
       50
102
RTVSPost2010PropOp42
 70
     1
102
RTVSPost2010Prop43
 90
        3
102
RTVSPost2010PropOp43
 70
     1
102
RTVSPost2010Prop44ColorIndex
 90
        5
102
RTVSPost2010Prop44ColorRGB
 90
      255
102
RTVSPost2010PropOp44
 70
     1
102
RTVSPost2010Prop45
280
     0
102
RTVSPost2010PropOp45
 70
     1
102
RTVSPost2010Prop46
 90
       50
102
RTVSPost2010PropOp46
 70
     1
102
RTVSPost2010Prop47
 90
       50
102
RTVSPost2010PropOp47
 70
     1
102
RTVSPost2010Prop48
 90
       50
102
RTVSPost2010PropOp48
 70
     1
102
RTVSPost2010Prop49
280
     0
102
RTVSPost2010PropOp49
 70
     1
102
RTVSPost2010Prop50
 90
       50
102
RTVSPost2010PropOp50
 70
     1
102
RTVSPost2010Prop51ColorIndex
 90
      256
102
RTVSPost2010Prop51ColorRGB
 90
-16777216
102
RTVSPost2010PropOp51
 70
     0
102
RTVSPost2010Prop52
140
1.0
102
RTVSPost2010PropOp52
 70
     0
102
RTVSPost2010Prop53
 90
        2
102
RTVSPost2010PropOp53
 70
     1
102
RTVSPost2010Prop54
  1
strokes_ogs.tif
102
RTVSPost2010PropOp54
 70
     1
102
RTVSPost2010Prop55
280
     0
102
RTVSPost2010PropOp55
 70
     1
102
RTVSPost2010Prop56
140
1.0
102
RTVSPost2010PropOp56
 70
     1
102
RTVSPost2010Prop57
140
1.0
102
RTVSPost2010PropOp57
 70
     1
  0
XRECORD
  5
5E9
102
{ACAD_REACTORS
330
5E8
102
}
330
5E8
100
AcDbXrecord
280
     1
102
RTVSPropertyOp0
 70
     1
102
RTVSPropertyOp1
 70
     1
102
RTVSPropertyOp2
 70
     1
102
RTVSPropertyOp3
 70
     1
102
RTVSPropertyOp4
 70
     1
102
RTVSPropertyOp5
 70
     1
102
RTVSPropertyOp6
 70
     1
102
RTVSPropertyOp7
 70
     1
102
RTVSPropertyOp8
 70
     1
102
RTVSPropertyOp9
 70
     1
102
RTVSPropertyOp10
 70
     1
102
RTVSPropertyOp11
 70
     1
102
RTVSPropertyOp12
 70
     1
102
RTVSPropertyOp13
 70
     1
102
RTVSPropertyOp14
 70
     1
102
RTVSPropertyOp15
 70
     1
102
RTVSPropertyOp16
 70
     1
102
RTVSPropertyOp17
 70
     1
102
RTVSPropertyOp18
 70
     1
102
RTVSPropertyOp19
 70
     1
102
RTVSPropertyOp20
 70
     1
102
RTVSPropertyOp21
 70
     1
102
RTVSPropertyOp22
 70
     1
102
RTVSPropertyOp23
 70
     1
102
RTVSPropertyOp24
 70
     1
102
RTVSPropertyOp25
 70
     1
102
RTVSPropertyOp26
 70
     1
102
RTVSPropertyOp27
 70
     1
102
RTVSPropertyOp28
 70
     1
102
RTVSPropertyOp29
 70
     1
102
RTVSPropertyOp30
 70
     1
102
RTVSPropertyOp31
 70
     1
102
RTVSPropertyOp32
 70
     1
102
RTVSPropertyOp33
 70
     1
102
RTVSPropertyOp34
 70
     1
102
RTVSPropertyOp35
 70
     1
102
RTVSPropertyOp36
 70
     1
102
RTVSPropertyOp37
 70
     1
102
RTVSPropertyOp38
 70
     1
102
RTVSPropertyOp39
 70
     1
102
RTVSPropertyOp40
 70
     1
102
RTVSPropertyOp41
 70
     1
102
RTVSPropertyOp42
 70
     1
102
RTVSPropertyOp43
 70
     1
102
RTVSPropertyOp44
 70
     1
102
RTVSPropertyOp45
 70
     1
102
RTVSPropertyOp46
 70
     1
102
RTVSPropertyOp47
 70
     1
102
RTVSPropertyOp48
 70
     1
102
RTVSPropertyOp49
 70
     1
102
RTVSPropertyOp50
 70
     1
102
RTVSPropertyOp51
 70
     0
102
RTVSPropertyOp52
 70
     0
102
RTVSPropertyOp53
 70
     1
102
RTVSPropertyOp54
 70
     1
102
RTVSPropertyOp55
 70
     1
102
RTVSPropertyOp56
 70
     1
102
RTVSPropertyOp57
 70
     1
102
RTVSPost2010Prop28
280
     0
102
RTVSPost2010PropOp28
 70
     1
102
RTVSPost2010Prop29
280
     1
102
RTVSPost2010PropOp29
 70
     1
102
RTVSPost2010Prop30
280
     1
102
RTVSPost2010PropOp30
 70
     1
102
RTVSPost2010Prop31
280
     0
102
RTVSPost2010PropOp31
 70
     1
102
RTVSPost2010Prop32
280
     0
102
RTVSPost2010PropOp32
 70
     1
102
RTVSPost2010Prop33
280
     0
102
RTVSPost2010PropOp33
 70
     1
102
RTVSPost2010Prop34
280
     0
102
RTVSPost2010PropOp34
 70
     1
102
RTVSPost2010Prop35
280
     0
102
RTVSPost2010PropOp35
 70
     1
102
RTVSPost2010Prop36
280
     0
102
RTVSPost2010PropOp36
 70
     1
102
RTVSPost2010Prop37
 90
       50
102
RTVSPost2010PropOp37
 70
     1
102
RTVSPost2010Prop38
140
0.0
102
RTVSPost2010PropOp38
 70
     1
102
RTVSPost2010Prop39
140
1.0
102
RTVSPost2010PropOp39
 70
     1
102
RTVSPost2010Prop40
 90
        0
102
RTVSPost2010PropOp40
 70
     1
102
RTVSPost2010Prop41ColorIndex
 90
       18
102
RTVSPost2010Prop41ColorRGB
 90
        0
102
RTVSPost2010PropOp41
 70
     1
102
RTVSPost2010Prop42
 90
       50
102
RTVSPost2010PropOp42
 70
     1
102
RTVSPost2010Prop43
 90
        3
102
RTVSPost2010PropOp43
 70
     1
102
RTVSPost2010Prop44ColorIndex
 90
        5
102
RTVSPost2010Prop44ColorRGB
 90
      255
102
RTVSPost2010PropOp44
 70
     1
102
RTVSPost2010Prop45
280
     0
102
RTVSPost2010PropOp45
 70
     1
102
RTVSPost2010Prop46
 90
       50
102
RTVSPost2010PropOp46
 70
     1
102
RTVSPost2010Prop47
 90
       50
102
RTVSPost2010PropOp47
 70
     1
102
RTVSPost2010Prop48
 90
       50
102
RTVSPost2010PropOp48
 70
     1
102
RTVSPost2010Prop49
280
     0
102
RTVSPost2010PropOp49
 70
     1
102
RTVSPost2010Prop50
 90
       50
102
RTVSPost2010PropOp50
 70
     1
102
RTVSPost2010Prop51ColorIndex
 90
      256
102
RTVSPost2010Prop51ColorRGB
 90
-16777216
102
RTVSPost2010PropOp51
 70
     0
102
RTVSPost2010Prop52
140
1.0
102
RTVSPost2010PropOp52
 70
     0
102
RTVSPost2010Prop53
 90
        2
102
RTVSPost2010PropOp53
 70
     1
102
RTVSPost2010Prop54
  1
strokes_ogs.tif
102
RTVSPost2010PropOp54
 70
     1
102
RTVSPost2010Prop55
280
     0
102
RTVSPost2010PropOp55
 70
     1
102
RTVSPost2010Prop56
140
1.0
102
RTVSPost2010PropOp56
 70
     1
102
RTVSPost2010Prop57
140
1.0
102
RTVSPost2010PropOp57
 70
     1
  0
XRECORD
  5
5EF
102
{ACAD_REACTORS
330
5EE
102
}
330
5EE
100
AcDbXrecord
280
     1
102
RTVSPropertyOp0
 70
     1
102
RTVSPropertyOp1
 70
     1
102
RTVSPropertyOp2
 70
     1
102
RTVSPropertyOp3
 70
     1
102
RTVSPropertyOp4
 70
     1
102
RTVSPropertyOp5
 70
     1
102
RTVSPropertyOp6
 70
     1
102
RTVSPropertyOp7
 70
     1
102
RTVSPropertyOp8
 70
     1
102
RTVSPropertyOp9
 70
     1
102
RTVSPropertyOp10
 70
     1
102
RTVSPropertyOp11
 70
     1
102
RTVSPropertyOp12
 70
     1
102
RTVSPropertyOp13
 70
     1
102
RTVSPropertyOp14
 70
     1
102
RTVSPropertyOp15
 70
     1
102
RTVSPropertyOp16
 70
     1
102
RTVSPropertyOp17
 70
     1
102
RTVSPropertyOp18
 70
     1
102
RTVSPropertyOp19
 70
     1
102
RTVSPropertyOp20
 70
     1
102
RTVSPropertyOp21
 70
     1
102
RTVSPropertyOp22
 70
     1
102
RTVSPropertyOp23
 70
     1
102
RTVSPropertyOp24
 70
     1
102
RTVSPropertyOp25
 70
     1
102
RTVSPropertyOp26
 70
     1
102
RTVSPropertyOp27
 70
     1
102
RTVSPropertyOp28
 70
     1
102
RTVSPropertyOp29
 70
     1
102
RTVSPropertyOp30
 70
     1
102
RTVSPropertyOp31
 70
     1
102
RTVSPropertyOp32
 70
     1
102
RTVSPropertyOp33
 70
     1
102
RTVSPropertyOp34
 70
     1
102
RTVSPropertyOp35
 70
     1
102
RTVSPropertyOp36
 70
     1
102
RTVSPropertyOp37
 70
     1
102
RTVSPropertyOp38
 70
     1
102
RTVSPropertyOp39
 70
     1
102
RTVSPropertyOp40
 70
     1
102
RTVSPropertyOp41
 70
     1
102
RTVSPropertyOp42
 70
     1
102
RTVSPropertyOp43
 70
     1
102
RTVSPropertyOp44
 70
     1
102
RTVSPropertyOp45
 70
     1
102
RTVSPropertyOp46
 70
     1
102
RTVSPropertyOp47
 70
     1
102
RTVSPropertyOp48
 70
     1
102
RTVSPropertyOp49
 70
     1
102
RTVSPropertyOp50
 70
     1
102
RTVSPropertyOp51
 70
     0
102
RTVSPropertyOp52
 70
     0
102
RTVSPropertyOp53
 70
     1
102
RTVSPropertyOp54
 70
     1
102
RTVSPropertyOp55
 70
     1
102
RTVSPropertyOp56
 70
     1
102
RTVSPropertyOp57
 70
     1
102
RTVSPost2010Prop28
280
     0
102
RTVSPost2010PropOp28
 70
     1
102
RTVSPost2010Prop29
280
     1
102
RTVSPost2010PropOp29
 70
     1
102
RTVSPost2010Prop30
280
     1
102
RTVSPost2010PropOp30
 70
     1
102
RTVSPost2010Prop31
280
     0
102
RTVSPost2010PropOp31
 70
     1
102
RTVSPost2010Prop32
280
     0
102
RTVSPost2010PropOp32
 70
     1
102
RTVSPost2010Prop33
280
     0
102
RTVSPost2010PropOp33
 70
     1
102
RTVSPost2010Prop34
280
     0
102
RTVSPost2010PropOp34
 70
     1
102
RTVSPost2010Prop35
280
     0
102
RTVSPost2010PropOp35
 70
     1
102
RTVSPost2010Prop36
280
     0
102
RTVSPost2010PropOp36
 70
     1
102
RTVSPost2010Prop37
 90
       50
102
RTVSPost2010PropOp37
 70
     1
102
RTVSPost2010Prop38
140
0.0
102
RTVSPost2010PropOp38
 70
     1
102
RTVSPost2010Prop39
140
1.0
102
RTVSPost2010PropOp39
 70
     1
102
RTVSPost2010Prop40
 90
        0
102
RTVSPost2010PropOp40
 70
     1
102
RTVSPost2010Prop41ColorIndex
 90
       18
102
RTVSPost2010Prop41ColorRGB
 90
        0
102
RTVSPost2010PropOp41
 70
     1
102
RTVSPost2010Prop42
 90
       50
102
RTVSPost2010PropOp42
 70
     1
102
RTVSPost2010Prop43
 90
        3
102
RTVSPost2010PropOp43
 70
     1
102
RTVSPost2010Prop44ColorIndex
 90
        5
102
RTVSPost2010Prop44ColorRGB
 90
      255
102
RTVSPost2010PropOp44
 70
     1
102
RTVSPost2010Prop45
280
     0
102
RTVSPost2010PropOp45
 70
     1
102
RTVSPost2010Prop46
 90
       50
102
RTVSPost2010PropOp46
 70
     1
102
RTVSPost2010Prop47
 90
       50
102
RTVSPost2010PropOp47
 70
     1
102
RTVSPost2010Prop48
 90
       50
102
RTVSPost2010PropOp48
 70
     1
102
RTVSPost2010Prop49
280
     0
102
RTVSPost2010PropOp49
 70
     1
102
RTVSPost2010Prop50
 90
       50
102
RTVSPost2010PropOp50
 70
     1
102
RTVSPost2010Prop51ColorIndex
 90
      256
102
RTVSPost2010Prop51ColorRGB
 90
-16777216
102
RTVSPost2010PropOp51
 70
     0
102
RTVSPost2010Prop52
140
1.0
102
RTVSPost2010PropOp52
 70
     0
102
RTVSPost2010Prop53
 90
        2
102
RTVSPost2010PropOp53
 70
     1
102
RTVSPost2010Prop54
  1
strokes_ogs.tif
102
RTVSPost2010PropOp54
 70
     1
102
RTVSPost2010Prop55
280
     0
102
RTVSPost2010PropOp55
 70
     1
102
RTVSPost2010Prop56
140
1.0
102
RTVSPost2010PropOp56
 70
     1
102
RTVSPost2010Prop57
140
1.0
102
RTVSPost2010PropOp57
 70
     1
  0
XRECORD
  5
5F7
102
{ACAD_REACTORS
330
5F6
102
}
330
5F6
100
AcDbXrecord
280
     1
102
RTVSPropertyOp0
 70
     1
102
RTVSPropertyOp1
 70
     1
102
RTVSPropertyOp2
 70
     1
102
RTVSPropertyOp3
 70
     1
102
RTVSPropertyOp4
 70
     1
102
RTVSPropertyOp5
 70
     1
102
RTVSPropertyOp6
 70
     1
102
RTVSPropertyOp7
 70
     1
102
RTVSPropertyOp8
 70
     1
102
RTVSPropertyOp9
 70
     1
102
RTVSPropertyOp10
 70
     1
102
RTVSPropertyOp11
 70
     1
102
RTVSPropertyOp12
 70
     1
102
RTVSPropertyOp13
 70
     1
102
RTVSPropertyOp14
 70
     1
102
RTVSPropertyOp15
 70
     1
102
RTVSPropertyOp16
 70
     1
102
RTVSPropertyOp17
 70
     1
102
RTVSPropertyOp18
 70
     1
102
RTVSPropertyOp19
 70
     1
102
RTVSPropertyOp20
 70
     1
102
RTVSPropertyOp21
 70
     1
102
RTVSPropertyOp22
 70
     1
102
RTVSPropertyOp23
 70
     1
102
RTVSPropertyOp24
 70
     1
102
RTVSPropertyOp25
 70
     1
102
RTVSPropertyOp26
 70
     1
102
RTVSPropertyOp27
 70
     1
102
RTVSPropertyOp28
 70
     1
102
RTVSPropertyOp29
 70
     1
102
RTVSPropertyOp30
 70
     1
102
RTVSPropertyOp31
 70
     1
102
RTVSPropertyOp32
 70
     1
102
RTVSPropertyOp33
 70
     1
102
RTVSPropertyOp34
 70
     1
102
RTVSPropertyOp35
 70
     1
102
RTVSPropertyOp36
 70
     1
102
RTVSPropertyOp37
 70
     1
102
RTVSPropertyOp38
 70
     1
102
RTVSPropertyOp39
 70
     1
102
RTVSPropertyOp40
 70
     1
102
RTVSPropertyOp41
 70
     1
102
RTVSPropertyOp42
 70
     1
102
RTVSPropertyOp43
 70
     1
102
RTVSPropertyOp44
 70
     1
102
RTVSPropertyOp45
 70
     1
102
RTVSPropertyOp46
 70
     1
102
RTVSPropertyOp47
 70
     1
102
RTVSPropertyOp48
 70
     1
102
RTVSPropertyOp49
 70
     1
102
RTVSPropertyOp50
 70
     1
102
RTVSPropertyOp51
 70
     0
102
RTVSPropertyOp52
 70
     0
102
RTVSPropertyOp53
 70
     1
102
RTVSPropertyOp54
 70
     1
102
RTVSPropertyOp55
 70
     1
102
RTVSPropertyOp56
 70
     1
102
RTVSPropertyOp57
 70
     1
102
RTVSPost2010Prop28
280
     0
102
RTVSPost2010PropOp28
 70
     1
102
RTVSPost2010Prop29
280
     1
102
RTVSPost2010PropOp29
 70
     1
102
RTVSPost2010Prop30
280
     1
102
RTVSPost2010PropOp30
 70
     1
102
RTVSPost2010Prop31
280
     0
102
RTVSPost2010PropOp31
 70
     1
102
RTVSPost2010Prop32
280
     0
102
RTVSPost2010PropOp32
 70
     1
102
RTVSPost2010Prop33
280
     0
102
RTVSPost2010PropOp33
 70
     1
102
RTVSPost2010Prop34
280
     0
102
RTVSPost2010PropOp34
 70
     1
102
RTVSPost2010Prop35
280
     0
102
RTVSPost2010PropOp35
 70
     1
102
RTVSPost2010Prop36
280
     0
102
RTVSPost2010PropOp36
 70
     1
102
RTVSPost2010Prop37
 90
       50
102
RTVSPost2010PropOp37
 70
     1
102
RTVSPost2010Prop38
140
0.0
102
RTVSPost2010PropOp38
 70
     1
102
RTVSPost2010Prop39
140
1.0
102
RTVSPost2010PropOp39
 70
     1
102
RTVSPost2010Prop40
 90
        0
102
RTVSPost2010PropOp40
 70
     1
102
RTVSPost2010Prop41ColorIndex
 90
       18
102
RTVSPost2010Prop41ColorRGB
 90
        0
102
RTVSPost2010PropOp41
 70
     1
102
RTVSPost2010Prop42
 90
       50
102
RTVSPost2010PropOp42
 70
     1
102
RTVSPost2010Prop43
 90
        3
102
RTVSPost2010PropOp43
 70
     1
102
RTVSPost2010Prop44ColorIndex
 90
        5
102
RTVSPost2010Prop44ColorRGB
 90
      255
102
RTVSPost2010PropOp44
 70
     1
102
RTVSPost2010Prop45
280
     0
102
RTVSPost2010PropOp45
 70
     1
102
RTVSPost2010Prop46
 90
       50
102
RTVSPost2010PropOp46
 70
     1
102
RTVSPost2010Prop47
 90
       50
102
RTVSPost2010PropOp47
 70
     1
102
RTVSPost2010Prop48
 90
       50
102
RTVSPost2010PropOp48
 70
     1
102
RTVSPost2010Prop49
280
     0
102
RTVSPost2010PropOp49
 70
     1
102
RTVSPost2010Prop50
 90
       50
102
RTVSPost2010PropOp50
 70
     1
102
RTVSPost2010Prop51ColorIndex
 90
      256
102
RTVSPost2010Prop51ColorRGB
 90
-16777216
102
RTVSPost2010PropOp51
 70
     0
102
RTVSPost2010Prop52
140
1.0
102
RTVSPost2010PropOp52
 70
     0
102
RTVSPost2010Prop53
 90
        2
102
RTVSPost2010PropOp53
 70
     1
102
RTVSPost2010Prop54
  1
strokes_ogs.tif
102
RTVSPost2010PropOp54
 70
     1
102
RTVSPost2010Prop55
280
     0
102
RTVSPost2010PropOp55
 70
     1
102
RTVSPost2010Prop56
140
1.0
102
RTVSPost2010PropOp56
 70
     1
102
RTVSPost2010Prop57
140
1.0
102
RTVSPost2010PropOp57
 70
     1
  0
XRECORD
  5
5EB
102
{ACAD_REACTORS
330
5EA
102
}
330
5EA
100
AcDbXrecord
280
     1
102
RTVSPropertyOp0
 70
     1
102
RTVSPropertyOp1
 70
     1
102
RTVSPropertyOp2
 70
     1
102
RTVSPropertyOp3
 70
     1
102
RTVSPropertyOp4
 70
     1
102
RTVSPropertyOp5
 70
     1
102
RTVSPropertyOp6
 70
     1
102
RTVSPropertyOp7
 70
     1
102
RTVSPropertyOp8
 70
     1
102
RTVSPropertyOp9
 70
     1
102
RTVSPropertyOp10
 70
     1
102
RTVSPropertyOp11
 70
     1
102
RTVSPropertyOp12
 70
     1
102
RTVSPropertyOp13
 70
     1
102
RTVSPropertyOp14
 70
     1
102
RTVSPropertyOp15
 70
     1
102
RTVSPropertyOp16
 70
     1
102
RTVSPropertyOp17
 70
     1
102
RTVSPropertyOp18
 70
     1
102
RTVSPropertyOp19
 70
     1
102
RTVSPropertyOp20
 70
     1
102
RTVSPropertyOp21
 70
     1
102
RTVSPropertyOp22
 70
     1
102
RTVSPropertyOp23
 70
     1
102
RTVSPropertyOp24
 70
     1
102
RTVSPropertyOp25
 70
     1
102
RTVSPropertyOp26
 70
     1
102
RTVSPropertyOp27
 70
     1
102
RTVSPropertyOp28
 70
     1
102
RTVSPropertyOp29
 70
     1
102
RTVSPropertyOp30
 70
     1
102
RTVSPropertyOp31
 70
     1
102
RTVSPropertyOp32
 70
     1
102
RTVSPropertyOp33
 70
     1
102
RTVSPropertyOp34
 70
     1
102
RTVSPropertyOp35
 70
     1
102
RTVSPropertyOp36
 70
     1
102
RTVSPropertyOp37
 70
     1
102
RTVSPropertyOp38
 70
     1
102
RTVSPropertyOp39
 70
     1
102
RTVSPropertyOp40
 70
     1
102
RTVSPropertyOp41
 70
     1
102
RTVSPropertyOp42
 70
     1
102
RTVSPropertyOp43
 70
     1
102
RTVSPropertyOp44
 70
     1
102
RTVSPropertyOp45
 70
     1
102
RTVSPropertyOp46
 70
     1
102
RTVSPropertyOp47
 70
     1
102
RTVSPropertyOp48
 70
     1
102
RTVSPropertyOp49
 70
     1
102
RTVSPropertyOp50
 70
     1
102
RTVSPropertyOp51
 70
     0
102
RTVSPropertyOp52
 70
     0
102
RTVSPropertyOp53
 70
     1
102
RTVSPropertyOp54
 70
     1
102
RTVSPropertyOp55
 70
     1
102
RTVSPropertyOp56
 70
     1
102
RTVSPropertyOp57
 70
     1
102
RTVSPost2010Prop28
280
     0
102
RTVSPost2010PropOp28
 70
     1
102
RTVSPost2010Prop29
280
     1
102
RTVSPost2010PropOp29
 70
     1
102
RTVSPost2010Prop30
280
     1
102
RTVSPost2010PropOp30
 70
     1
102
RTVSPost2010Prop31
280
     0
102
RTVSPost2010PropOp31
 70
     1
102
RTVSPost2010Prop32
280
     0
102
RTVSPost2010PropOp32
 70
     1
102
RTVSPost2010Prop33
280
     0
102
RTVSPost2010PropOp33
 70
     1
102
RTVSPost2010Prop34
280
     0
102
RTVSPost2010PropOp34
 70
     1
102
RTVSPost2010Prop35
280
     0
102
RTVSPost2010PropOp35
 70
     1
102
RTVSPost2010Prop36
280
     0
102
RTVSPost2010PropOp36
 70
     1
102
RTVSPost2010Prop37
 90
       50
102
RTVSPost2010PropOp37
 70
     1
102
RTVSPost2010Prop38
140
0.0
102
RTVSPost2010PropOp38
 70
     1
102
RTVSPost2010Prop39
140
1.0
102
RTVSPost2010PropOp39
 70
     1
102
RTVSPost2010Prop40
 90
        0
102
RTVSPost2010PropOp40
 70
     1
102
RTVSPost2010Prop41ColorIndex
 90
       18
102
RTVSPost2010Prop41ColorRGB
 90
        0
102
RTVSPost2010PropOp41
 70
     1
102
RTVSPost2010Prop42
 90
       50
102
RTVSPost2010PropOp42
 70
     1
102
RTVSPost2010Prop43
 90
        3
102
RTVSPost2010PropOp43
 70
     1
102
RTVSPost2010Prop44ColorIndex
 90
        5
102
RTVSPost2010Prop44ColorRGB
 90
      255
102
RTVSPost2010PropOp44
 70
     1
102
RTVSPost2010Prop45
280
     0
102
RTVSPost2010PropOp45
 70
     1
102
RTVSPost2010Prop46
 90
       50
102
RTVSPost2010PropOp46
 70
     1
102
RTVSPost2010Prop47
 90
       50
102
RTVSPost2010PropOp47
 70
     1
102
RTVSPost2010Prop48
 90
       50
102
RTVSPost2010PropOp48
 70
     1
102
RTVSPost2010Prop49
280
     0
102
RTVSPost2010PropOp49
 70
     1
102
RTVSPost2010Prop50
 90
       50
102
RTVSPost2010PropOp50
 70
     1
102
RTVSPost2010Prop51ColorIndex
 90
      256
102
RTVSPost2010Prop51ColorRGB
 90
-16777216
102
RTVSPost2010PropOp51
 70
     0
102
RTVSPost2010Prop52
140
1.0
102
RTVSPost2010PropOp52
 70
     0
102
RTVSPost2010Prop53
 90
        2
102
RTVSPost2010PropOp53
 70
     1
102
RTVSPost2010Prop54
  1
strokes_ogs.tif
102
RTVSPost2010PropOp54
 70
     1
102
RTVSPost2010Prop55
280
     0
102
RTVSPost2010PropOp55
 70
     1
102
RTVSPost2010Prop56
140
1.0
102
RTVSPost2010PropOp56
 70
     1
102
RTVSPost2010Prop57
140
1.0
102
RTVSPost2010PropOp57
 70
     1
  0
XRECORD
  5
5ED
102
{ACAD_REACTORS
330
5EC
102
}
330
5EC
100
AcDbXrecord
280
     1
102
RTVSPropertyOp0
 70
     1
102
RTVSPropertyOp1
 70
     1
102
RTVSPropertyOp2
 70
     1
102
RTVSPropertyOp3
 70
     1
102
RTVSPropertyOp4
 70
     1
102
RTVSPropertyOp5
 70
     1
102
RTVSPropertyOp6
 70
     1
102
RTVSPropertyOp7
 70
     1
102
RTVSPropertyOp8
 70
     1
102
RTVSPropertyOp9
 70
     1
102
RTVSPropertyOp10
 70
     1
102
RTVSPropertyOp11
 70
     1
102
RTVSPropertyOp12
 70
     1
102
RTVSPropertyOp13
 70
     1
102
RTVSPropertyOp14
 70
     1
102
RTVSPropertyOp15
 70
     1
102
RTVSPropertyOp16
 70
     1
102
RTVSPropertyOp17
 70
     1
102
RTVSPropertyOp18
 70
     1
102
RTVSPropertyOp19
 70
     1
102
RTVSPropertyOp20
 70
     1
102
RTVSPropertyOp21
 70
     1
102
RTVSPropertyOp22
 70
     1
102
RTVSPropertyOp23
 70
     1
102
RTVSPropertyOp24
 70
     1
102
RTVSPropertyOp25
 70
     1
102
RTVSPropertyOp26
 70
     1
102
RTVSPropertyOp27
 70
     1
102
RTVSPropertyOp28
 70
     1
102
RTVSPropertyOp29
 70
     1
102
RTVSPropertyOp30
 70
     1
102
RTVSPropertyOp31
 70
     1
102
RTVSPropertyOp32
 70
     1
102
RTVSPropertyOp33
 70
     1
102
RTVSPropertyOp34
 70
     1
102
RTVSPropertyOp35
 70
     1
102
RTVSPropertyOp36
 70
     1
102
RTVSPropertyOp37
 70
     1
102
RTVSPropertyOp38
 70
     1
102
RTVSPropertyOp39
 70
     1
102
RTVSPropertyOp40
 70
     1
102
RTVSPropertyOp41
 70
     1
102
RTVSPropertyOp42
 70
     1
102
RTVSPropertyOp43
 70
     1
102
RTVSPropertyOp44
 70
     1
102
RTVSPropertyOp45
 70
     1
102
RTVSPropertyOp46
 70
     1
102
RTVSPropertyOp47
 70
     1
102
RTVSPropertyOp48
 70
     1
102
RTVSPropertyOp49
 70
     1
102
RTVSPropertyOp50
 70
     1
102
RTVSPropertyOp51
 70
     0
102
RTVSPropertyOp52
 70
     0
102
RTVSPropertyOp53
 70
     1
102
RTVSPropertyOp54
 70
     1
102
RTVSPropertyOp55
 70
     1
102
RTVSPropertyOp56
 70
     1
102
RTVSPropertyOp57
 70
     1
102
RTVSPost2010Prop28
280
     0
102
RTVSPost2010PropOp28
 70
     1
102
RTVSPost2010Prop29
280
     1
102
RTVSPost2010PropOp29
 70
     1
102
RTVSPost2010Prop30
280
     1
102
RTVSPost2010PropOp30
 70
     1
102
RTVSPost2010Prop31
280
     0
102
RTVSPost2010PropOp31
 70
     1
102
RTVSPost2010Prop32
280
     0
102
RTVSPost2010PropOp32
 70
     1
102
RTVSPost2010Prop33
280
     0
102
RTVSPost2010PropOp33
 70
     1
102
RTVSPost2010Prop34
280
     0
102
RTVSPost2010PropOp34
 70
     1
102
RTVSPost2010Prop35
280
     0
102
RTVSPost2010PropOp35
 70
     1
102
RTVSPost2010Prop36
280
     0
102
RTVSPost2010PropOp36
 70
     1
102
RTVSPost2010Prop37
 90
       50
102
RTVSPost2010PropOp37
 70
     1
102
RTVSPost2010Prop38
140
0.0
102
RTVSPost2010PropOp38
 70
     1
102
RTVSPost2010Prop39
140
1.0
102
RTVSPost2010PropOp39
 70
     1
102
RTVSPost2010Prop40
 90
        0
102
RTVSPost2010PropOp40
 70
     1
102
RTVSPost2010Prop41ColorIndex
 90
       18
102
RTVSPost2010Prop41ColorRGB
 90
        0
102
RTVSPost2010PropOp41
 70
     1
102
RTVSPost2010Prop42
 90
       50
102
RTVSPost2010PropOp42
 70
     1
102
RTVSPost2010Prop43
 90
        3
102
RTVSPost2010PropOp43
 70
     1
102
RTVSPost2010Prop44ColorIndex
 90
        5
102
RTVSPost2010Prop44ColorRGB
 90
      255
102
RTVSPost2010PropOp44
 70
     1
102
RTVSPost2010Prop45
280
     0
102
RTVSPost2010PropOp45
 70
     1
102
RTVSPost2010Prop46
 90
       50
102
RTVSPost2010PropOp46
 70
     1
102
RTVSPost2010Prop47
 90
       50
102
RTVSPost2010PropOp47
 70
     1
102
RTVSPost2010Prop48
 90
       50
102
RTVSPost2010PropOp48
 70
     1
102
RTVSPost2010Prop49
280
     0
102
RTVSPost2010PropOp49
 70
     1
102
RTVSPost2010Prop50
 90
       50
102
RTVSPost2010PropOp50
 70
     1
102
RTVSPost2010Prop51ColorIndex
 90
      256
102
RTVSPost2010Prop51ColorRGB
 90
-16777216
102
RTVSPost2010PropOp51
 70
     0
102
RTVSPost2010Prop52
140
1.0
102
RTVSPost2010PropOp52
 70
     0
102
RTVSPost2010Prop53
 90
        2
102
RTVSPost2010PropOp53
 70
     1
102
RTVSPost2010Prop54
  1
strokes_ogs.tif
102
RTVSPost2010PropOp54
 70
     1
102
RTVSPost2010Prop55
280
     0
102
RTVSPost2010PropOp55
 70
     1
102
RTVSPost2010Prop56
140
1.0
102
RTVSPost2010PropOp56
 70
     1
102
RTVSPost2010Prop57
140
1.0
102
RTVSPost2010PropOp57
 70
     1
  0
XRECORD
  5
5FD
102
{ACAD_REACTORS
330
5FC
102
}
330
5FC
100
AcDbXrecord
280
     1
102
RTVSPropertyOp0
 70
     0
102
RTVSPropertyOp1
 70
     0
102
RTVSPropertyOp2
 70
     0
102
RTVSPropertyOp3
 70
     0
102
RTVSPropertyOp4
 70
     0
102
RTVSPropertyOp5
 70
     0
102
RTVSPropertyOp6
 70
     0
102
RTVSPropertyOp7
 70
     0
102
RTVSPropertyOp8
 70
     0
102
RTVSPropertyOp9
 70
     0
102
RTVSPropertyOp10
 70
     0
102
RTVSPropertyOp11
 70
     0
102
RTVSPropertyOp12
 70
     0
102
RTVSPropertyOp13
 70
     0
102
RTVSPropertyOp14
 70
     0
102
RTVSPropertyOp15
 70
     0
102
RTVSPropertyOp16
 70
     0
102
RTVSPropertyOp17
 70
     0
102
RTVSPropertyOp18
 70
     0
102
RTVSPropertyOp19
 70
     0
102
RTVSPropertyOp20
 70
     0
102
RTVSPropertyOp21
 70
     0
102
RTVSPropertyOp22
 70
     0
102
RTVSPropertyOp23
 70
     0
102
RTVSPropertyOp24
 70
     0
102
RTVSPropertyOp25
 70
     0
102
RTVSPropertyOp26
 70
     0
102
RTVSPropertyOp27
 70
     0
102
RTVSPropertyOp28
 70
     1
102
RTVSPropertyOp29
 70
     1
102
RTVSPropertyOp30
 70
     1
102
RTVSPropertyOp31
 70
     1
102
RTVSPropertyOp32
 70
     1
102
RTVSPropertyOp33
 70
     1
102
RTVSPropertyOp34
 70
     1
102
RTVSPropertyOp35
 70
     1
102
RTVSPropertyOp36
 70
     1
102
RTVSPropertyOp37
 70
     1
102
RTVSPropertyOp38
 70
     1
102
RTVSPropertyOp39
 70
     1
102
RTVSPropertyOp40
 70
     1
102
RTVSPropertyOp41
 70
     1
102
RTVSPropertyOp42
 70
     1
102
RTVSPropertyOp43
 70
     1
102
RTVSPropertyOp44
 70
     1
102
RTVSPropertyOp45
 70
     1
102
RTVSPropertyOp46
 70
     1
102
RTVSPropertyOp47
 70
     1
102
RTVSPropertyOp48
 70
     1
102
RTVSPropertyOp49
 70
     1
102
RTVSPropertyOp50
 70
     1
102
RTVSPropertyOp51
 70
     0
102
RTVSPropertyOp52
 70
     0
102
RTVSPropertyOp53
 70
     1
102
RTVSPropertyOp54
 70
     1
102
RTVSPropertyOp55
 70
     1
102
RTVSPropertyOp56
 70
     1
102
RTVSPropertyOp57
 70
     1
102
RTVSPost2010Prop28
280
     0
102
RTVSPost2010PropOp28
 70
     1
102
RTVSPost2010Prop29
280
     1
102
RTVSPost2010PropOp29
 70
     1
102
RTVSPost2010Prop30
280
     1
102
RTVSPost2010PropOp30
 70
     1
102
RTVSPost2010Prop31
280
     0
102
RTVSPost2010PropOp31
 70
     1
102
RTVSPost2010Prop32
280
     0
102
RTVSPost2010PropOp32
 70
     1
102
RTVSPost2010Prop33
280
     0
102
RTVSPost2010PropOp33
 70
     1
102
RTVSPost2010Prop34
280
     0
102
RTVSPost2010PropOp34
 70
     1
102
RTVSPost2010Prop35
280
     0
102
RTVSPost2010PropOp35
 70
     1
102
RTVSPost2010Prop36
280
     0
102
RTVSPost2010PropOp36
 70
     1
102
RTVSPost2010Prop37
 90
       50
102
RTVSPost2010PropOp37
 70
     1
102
RTVSPost2010Prop38
140
0.0
102
RTVSPost2010PropOp38
 70
     1
102
RTVSPost2010Prop39
140
1.0
102
RTVSPost2010PropOp39
 70
     1
102
RTVSPost2010Prop40
 90
        0
102
RTVSPost2010PropOp40
 70
     1
102
RTVSPost2010Prop41ColorIndex
 90
       18
102
RTVSPost2010Prop41ColorRGB
 90
        0
102
RTVSPost2010PropOp41
 70
     1
102
RTVSPost2010Prop42
 90
       50
102
RTVSPost2010PropOp42
 70
     1
102
RTVSPost2010Prop43
 90
        3
102
RTVSPost2010PropOp43
 70
     1
102
RTVSPost2010Prop44ColorIndex
 90
        5
102
RTVSPost2010Prop44ColorRGB
 90
      255
102
RTVSPost2010PropOp44
 70
     1
102
RTVSPost2010Prop45
280
     0
102
RTVSPost2010PropOp45
 70
     1
102
RTVSPost2010Prop46
 90
       50
102
RTVSPost2010PropOp46
 70
     1
102
RTVSPost2010Prop47
 90
       50
102
RTVSPost2010PropOp47
 70
     1
102
RTVSPost2010Prop48
 90
       50
102
RTVSPost2010PropOp48
 70
     1
102
RTVSPost2010Prop49
280
     0
102
RTVSPost2010PropOp49
 70
     1
102
RTVSPost2010Prop50
 90
       50
102
RTVSPost2010PropOp50
 70
     1
102
RTVSPost2010Prop51ColorIndex
 90
      256
102
RTVSPost2010Prop51ColorRGB
 90
-16777216
102
RTVSPost2010PropOp51
 70
     0
102
RTVSPost2010Prop52
140
1.0
102
RTVSPost2010PropOp52
 70
     0
102
RTVSPost2010Prop53
 90
        2
102
RTVSPost2010PropOp53
 70
     1
102
RTVSPost2010Prop54
  1
strokes_ogs.tif
102
RTVSPost2010PropOp54
 70
     1
102
RTVSPost2010Prop55
280
     0
102
RTVSPost2010PropOp55
 70
     1
102
RTVSPost2010Prop56
140
1.0
102
RTVSPost2010PropOp56
 70
     1
102
RTVSPost2010Prop57
140
1.0
102
RTVSPost2010PropOp57
 70
     1
  0
XRECORD
  5
5F5
102
{ACAD_REACTORS
330
5F4
102
}
330
5F4
100
AcDbXrecord
280
     1
102
RTVSPropertyOp0
 70
     1
102
RTVSPropertyOp1
 70
     1
102
RTVSPropertyOp2
 70
     1
102
RTVSPropertyOp3
 70
     1
102
RTVSPropertyOp4
 70
     1
102
RTVSPropertyOp5
 70
     1
102
RTVSPropertyOp6
 70
     1
102
RTVSPropertyOp7
 70
     1
102
RTVSPropertyOp8
 70
     1
102
RTVSPropertyOp9
 70
     1
102
RTVSPropertyOp10
 70
     1
102
RTVSPropertyOp11
 70
     1
102
RTVSPropertyOp12
 70
     1
102
RTVSPropertyOp13
 70
     1
102
RTVSPropertyOp14
 70
     1
102
RTVSPropertyOp15
 70
     1
102
RTVSPropertyOp16
 70
     1
102
RTVSPropertyOp17
 70
     1
102
RTVSPropertyOp18
 70
     1
102
RTVSPropertyOp19
 70
     1
102
RTVSPropertyOp20
 70
     1
102
RTVSPropertyOp21
 70
     1
102
RTVSPropertyOp22
 70
     1
102
RTVSPropertyOp23
 70
     1
102
RTVSPropertyOp24
 70
     1
102
RTVSPropertyOp25
 70
     1
102
RTVSPropertyOp26
 70
     1
102
RTVSPropertyOp27
 70
     1
102
RTVSPropertyOp28
 70
     1
102
RTVSPropertyOp29
 70
     1
102
RTVSPropertyOp30
 70
     1
102
RTVSPropertyOp31
 70
     1
102
RTVSPropertyOp32
 70
     1
102
RTVSPropertyOp33
 70
     1
102
RTVSPropertyOp34
 70
     1
102
RTVSPropertyOp35
 70
     1
102
RTVSPropertyOp36
 70
     1
102
RTVSPropertyOp37
 70
     1
102
RTVSPropertyOp38
 70
     1
102
RTVSPropertyOp39
 70
     1
102
RTVSPropertyOp40
 70
     1
102
RTVSPropertyOp41
 70
     1
102
RTVSPropertyOp42
 70
     1
102
RTVSPropertyOp43
 70
     1
102
RTVSPropertyOp44
 70
     1
102
RTVSPropertyOp45
 70
     1
102
RTVSPropertyOp46
 70
     1
102
RTVSPropertyOp47
 70
     1
102
RTVSPropertyOp48
 70
     1
102
RTVSPropertyOp49
 70
     1
102
RTVSPropertyOp50
 70
     1
102
RTVSPropertyOp51
 70
     0
102
RTVSPropertyOp52
 70
     0
102
RTVSPropertyOp53
 70
     1
102
RTVSPropertyOp54
 70
     1
102
RTVSPropertyOp55
 70
     1
102
RTVSPropertyOp56
 70
     1
102
RTVSPropertyOp57
 70
     1
102
RTVSPost2010Prop28
280
     0
102
RTVSPost2010PropOp28
 70
     1
102
RTVSPost2010Prop29
280
     1
102
RTVSPost2010PropOp29
 70
     1
102
RTVSPost2010Prop30
280
     1
102
RTVSPost2010PropOp30
 70
     1
102
RTVSPost2010Prop31
280
     0
102
RTVSPost2010PropOp31
 70
     1
102
RTVSPost2010Prop32
280
     0
102
RTVSPost2010PropOp32
 70
     1
102
RTVSPost2010Prop33
280
     0
102
RTVSPost2010PropOp33
 70
     1
102
RTVSPost2010Prop34
280
     0
102
RTVSPost2010PropOp34
 70
     1
102
RTVSPost2010Prop35
280
     0
102
RTVSPost2010PropOp35
 70
     1
102
RTVSPost2010Prop36
280
     0
102
RTVSPost2010PropOp36
 70
     1
102
RTVSPost2010Prop37
 90
       50
102
RTVSPost2010PropOp37
 70
     1
102
RTVSPost2010Prop38
140
0.0
102
RTVSPost2010PropOp38
 70
     1
102
RTVSPost2010Prop39
140
1.0
102
RTVSPost2010PropOp39
 70
     1
102
RTVSPost2010Prop40
 90
        0
102
RTVSPost2010PropOp40
 70
     1
102
RTVSPost2010Prop41ColorIndex
 90
       18
102
RTVSPost2010Prop41ColorRGB
 90
        0
102
RTVSPost2010PropOp41
 70
     1
102
RTVSPost2010Prop42
 90
       50
102
RTVSPost2010PropOp42
 70
     1
102
RTVSPost2010Prop43
 90
        3
102
RTVSPost2010PropOp43
 70
     1
102
RTVSPost2010Prop44ColorIndex
 90
        5
102
RTVSPost2010Prop44ColorRGB
 90
      255
102
RTVSPost2010PropOp44
 70
     1
102
RTVSPost2010Prop45
280
     0
102
RTVSPost2010PropOp45
 70
     1
102
RTVSPost2010Prop46
 90
       50
102
RTVSPost2010PropOp46
 70
     1
102
RTVSPost2010Prop47
 90
       50
102
RTVSPost2010PropOp47
 70
     1
102
RTVSPost2010Prop48
 90
       50
102
RTVSPost2010PropOp48
 70
     1
102
RTVSPost2010Prop49
280
     0
102
RTVSPost2010PropOp49
 70
     1
102
RTVSPost2010Prop50
 90
       50
102
RTVSPost2010PropOp50
 70
     1
102
RTVSPost2010Prop51ColorIndex
 90
      256
102
RTVSPost2010Prop51ColorRGB
 90
-16777216
102
RTVSPost2010PropOp51
 70
     0
102
RTVSPost2010Prop52
140
1.0
102
RTVSPost2010PropOp52
 70
     0
102
RTVSPost2010Prop53
 90
        2
102
RTVSPost2010PropOp53
 70
     1
102
RTVSPost2010Prop54
  1
strokes_ogs.tif
102
RTVSPost2010PropOp54
 70
     1
102
RTVSPost2010Prop55
280
     0
102
RTVSPost2010PropOp55
 70
     1
102
RTVSPost2010Prop56
140
1.0
102
RTVSPost2010PropOp56
 70
     1
102
RTVSPost2010Prop57
140
1.0
102
RTVSPost2010PropOp57
 70
     1
  0
XRECORD
  5
5DD
102
{ACAD_REACTORS
330
5DC
102
}
330
5DC
100
AcDbXrecord
280
     1
102
RTVSPropertyOp0
 70
     1
102
RTVSPropertyOp1
 70
     1
102
RTVSPropertyOp2
 70
     1
102
RTVSPropertyOp3
 70
     1
102
RTVSPropertyOp4
 70
     1
102
RTVSPropertyOp5
 70
     1
102
RTVSPropertyOp6
 70
     1
102
RTVSPropertyOp7
 70
     1
102
RTVSPropertyOp8
 70
     1
102
RTVSPropertyOp9
 70
     1
102
RTVSPropertyOp10
 70
     1
102
RTVSPropertyOp11
 70
     1
102
RTVSPropertyOp12
 70
     1
102
RTVSPropertyOp13
 70
     1
102
RTVSPropertyOp14
 70
     1
102
RTVSPropertyOp15
 70
     1
102
RTVSPropertyOp16
 70
     1
102
RTVSPropertyOp17
 70
     1
102
RTVSPropertyOp18
 70
     1
102
RTVSPropertyOp19
 70
     1
102
RTVSPropertyOp20
 70
     1
102
RTVSPropertyOp21
 70
     1
102
RTVSPropertyOp22
 70
     1
102
RTVSPropertyOp23
 70
     1
102
RTVSPropertyOp24
 70
     1
102
RTVSPropertyOp25
 70
     1
102
RTVSPropertyOp26
 70
     1
102
RTVSPropertyOp27
 70
     1
102
RTVSPropertyOp28
 70
     1
102
RTVSPropertyOp29
 70
     1
102
RTVSPropertyOp30
 70
     1
102
RTVSPropertyOp31
 70
     1
102
RTVSPropertyOp32
 70
     1
102
RTVSPropertyOp33
 70
     1
102
RTVSPropertyOp34
 70
     1
102
RTVSPropertyOp35
 70
     1
102
RTVSPropertyOp36
 70
     1
102
RTVSPropertyOp37
 70
     1
102
RTVSPropertyOp38
 70
     1
102
RTVSPropertyOp39
 70
     1
102
RTVSPropertyOp40
 70
     1
102
RTVSPropertyOp41
 70
     1
102
RTVSPropertyOp42
 70
     1
102
RTVSPropertyOp43
 70
     1
102
RTVSPropertyOp44
 70
     1
102
RTVSPropertyOp45
 70
     1
102
RTVSPropertyOp46
 70
     1
102
RTVSPropertyOp47
 70
     1
102
RTVSPropertyOp48
 70
     1
102
RTVSPropertyOp49
 70
     1
102
RTVSPropertyOp50
 70
     1
102
RTVSPropertyOp51
 70
     0
102
RTVSPropertyOp52
 70
     0
102
RTVSPropertyOp53
 70
     1
102
RTVSPropertyOp54
 70
     1
102
RTVSPropertyOp55
 70
     1
102
RTVSPropertyOp56
 70
     1
102
RTVSPropertyOp57
 70
     1
102
RTVSPost2010Prop28
280
     0
102
RTVSPost2010PropOp28
 70
     1
102
RTVSPost2010Prop29
280
     1
102
RTVSPost2010PropOp29
 70
     1
102
RTVSPost2010Prop30
280
     1
102
RTVSPost2010PropOp30
 70
     1
102
RTVSPost2010Prop31
280
     0
102
RTVSPost2010PropOp31
 70
     1
102
RTVSPost2010Prop32
280
     0
102
RTVSPost2010PropOp32
 70
     1
102
RTVSPost2010Prop33
280
     0
102
RTVSPost2010PropOp33
 70
     1
102
RTVSPost2010Prop34
280
     0
102
RTVSPost2010PropOp34
 70
     1
102
RTVSPost2010Prop35
280
     0
102
RTVSPost2010PropOp35
 70
     1
102
RTVSPost2010Prop36
280
     0
102
RTVSPost2010PropOp36
 70
     1
102
RTVSPost2010Prop37
 90
       50
102
RTVSPost2010PropOp37
 70
     1
102
RTVSPost2010Prop38
140
0.0
102
RTVSPost2010PropOp38
 70
     1
102
RTVSPost2010Prop39
140
1.0
102
RTVSPost2010PropOp39
 70
     1
102
RTVSPost2010Prop40
 90
        0
102
RTVSPost2010PropOp40
 70
     1
102
RTVSPost2010Prop41ColorIndex
 90
       18
102
RTVSPost2010Prop41ColorRGB
 90
        0
102
RTVSPost2010PropOp41
 70
     1
102
RTVSPost2010Prop42
 90
       50
102
RTVSPost2010PropOp42
 70
     1
102
RTVSPost2010Prop43
 90
        3
102
RTVSPost2010PropOp43
 70
     1
102
RTVSPost2010Prop44ColorIndex
 90
        5
102
RTVSPost2010Prop44ColorRGB
 90
      255
102
RTVSPost2010PropOp44
 70
     1
102
RTVSPost2010Prop45
280
     0
102
RTVSPost2010PropOp45
 70
     1
102
RTVSPost2010Prop46
 90
       50
102
RTVSPost2010PropOp46
 70
     1
102
RTVSPost2010Prop47
 90
       50
102
RTVSPost2010PropOp47
 70
     1
102
RTVSPost2010Prop48
 90
       50
102
RTVSPost2010PropOp48
 70
     1
102
RTVSPost2010Prop49
280
     0
102
RTVSPost2010PropOp49
 70
     1
102
RTVSPost2010Prop50
 90
       50
102
RTVSPost2010PropOp50
 70
     1
102
RTVSPost2010Prop51ColorIndex
 90
      256
102
RTVSPost2010Prop51ColorRGB
 90
-16777216
102
RTVSPost2010PropOp51
 70
     0
102
RTVSPost2010Prop52
140
1.0
102
RTVSPost2010PropOp52
 70
     0
102
RTVSPost2010Prop53
 90
        2
102
RTVSPost2010PropOp53
 70
     1
102
RTVSPost2010Prop54
  1
strokes_ogs.tif
102
RTVSPost2010PropOp54
 70
     1
102
RTVSPost2010Prop55
280
     0
102
RTVSPost2010PropOp55
 70
     1
102
RTVSPost2010Prop56
140
1.0
102
RTVSPost2010PropOp56
 70
     1
102
RTVSPost2010Prop57
140
1.0
102
RTVSPost2010PropOp57
 70
     1
  0
XRECORD
  5
5DF
102
{ACAD_REACTORS
330
5DE
102
}
330
5DE
100
AcDbXrecord
280
     1
102
RTVSPropertyOp0
 70
     1
102
RTVSPropertyOp1
 70
     1
102
RTVSPropertyOp2
 70
     1
102
RTVSPropertyOp3
 70
     1
102
RTVSPropertyOp4
 70
     1
102
RTVSPropertyOp5
 70
     1
102
RTVSPropertyOp6
 70
     1
102
RTVSPropertyOp7
 70
     1
102
RTVSPropertyOp8
 70
     1
102
RTVSPropertyOp9
 70
     1
102
RTVSPropertyOp10
 70
     1
102
RTVSPropertyOp11
 70
     1
102
RTVSPropertyOp12
 70
     1
102
RTVSPropertyOp13
 70
     1
102
RTVSPropertyOp14
 70
     1
102
RTVSPropertyOp15
 70
     1
102
RTVSPropertyOp16
 70
     1
102
RTVSPropertyOp17
 70
     1
102
RTVSPropertyOp18
 70
     1
102
RTVSPropertyOp19
 70
     1
102
RTVSPropertyOp20
 70
     1
102
RTVSPropertyOp21
 70
     1
102
RTVSPropertyOp22
 70
     1
102
RTVSPropertyOp23
 70
     1
102
RTVSPropertyOp24
 70
     1
102
RTVSPropertyOp25
 70
     1
102
RTVSPropertyOp26
 70
     1
102
RTVSPropertyOp27
 70
     1
102
RTVSPropertyOp28
 70
     1
102
RTVSPropertyOp29
 70
     1
102
RTVSPropertyOp30
 70
     1
102
RTVSPropertyOp31
 70
     1
102
RTVSPropertyOp32
 70
     1
102
RTVSPropertyOp33
 70
     1
102
RTVSPropertyOp34
 70
     1
102
RTVSPropertyOp35
 70
     1
102
RTVSPropertyOp36
 70
     1
102
RTVSPropertyOp37
 70
     1
102
RTVSPropertyOp38
 70
     1
102
RTVSPropertyOp39
 70
     1
102
RTVSPropertyOp40
 70
     1
102
RTVSPropertyOp41
 70
     1
102
RTVSPropertyOp42
 70
     1
102
RTVSPropertyOp43
 70
     1
102
RTVSPropertyOp44
 70
     1
102
RTVSPropertyOp45
 70
     1
102
RTVSPropertyOp46
 70
     1
102
RTVSPropertyOp47
 70
     1
102
RTVSPropertyOp48
 70
     1
102
RTVSPropertyOp49
 70
     1
102
RTVSPropertyOp50
 70
     1
102
RTVSPropertyOp51
 70
     0
102
RTVSPropertyOp52
 70
     0
102
RTVSPropertyOp53
 70
     1
102
RTVSPropertyOp54
 70
     1
102
RTVSPropertyOp55
 70
     1
102
RTVSPropertyOp56
 70
     1
102
RTVSPropertyOp57
 70
     1
102
RTVSPost2010Prop28
280
     0
102
RTVSPost2010PropOp28
 70
     1
102
RTVSPost2010Prop29
280
     1
102
RTVSPost2010PropOp29
 70
     1
102
RTVSPost2010Prop30
280
     1
102
RTVSPost2010PropOp30
 70
     1
102
RTVSPost2010Prop31
280
     0
102
RTVSPost2010PropOp31
 70
     1
102
RTVSPost2010Prop32
280
     0
102
RTVSPost2010PropOp32
 70
     1
102
RTVSPost2010Prop33
280
     0
102
RTVSPost2010PropOp33
 70
     1
102
RTVSPost2010Prop34
280
     0
102
RTVSPost2010PropOp34
 70
     1
102
RTVSPost2010Prop35
280
     0
102
RTVSPost2010PropOp35
 70
     1
102
RTVSPost2010Prop36
280
     0
102
RTVSPost2010PropOp36
 70
     1
102
RTVSPost2010Prop37
 90
       50
102
RTVSPost2010PropOp37
 70
     1
102
RTVSPost2010Prop38
140
0.0
102
RTVSPost2010PropOp38
 70
     1
102
RTVSPost2010Prop39
140
1.0
102
RTVSPost2010PropOp39
 70
     1
102
RTVSPost2010Prop40
 90
        0
102
RTVSPost2010PropOp40
 70
     1
102
RTVSPost2010Prop41ColorIndex
 90
       18
102
RTVSPost2010Prop41ColorRGB
 90
        0
102
RTVSPost2010PropOp41
 70
     1
102
RTVSPost2010Prop42
 90
       50
102
RTVSPost2010PropOp42
 70
     1
102
RTVSPost2010Prop43
 90
        3
102
RTVSPost2010PropOp43
 70
     1
102
RTVSPost2010Prop44ColorIndex
 90
        5
102
RTVSPost2010Prop44ColorRGB
 90
      255
102
RTVSPost2010PropOp44
 70
     1
102
RTVSPost2010Prop45
280
     0
102
RTVSPost2010PropOp45
 70
     1
102
RTVSPost2010Prop46
 90
       50
102
RTVSPost2010PropOp46
 70
     1
102
RTVSPost2010Prop47
 90
       50
102
RTVSPost2010PropOp47
 70
     1
102
RTVSPost2010Prop48
 90
       50
102
RTVSPost2010PropOp48
 70
     1
102
RTVSPost2010Prop49
280
     0
102
RTVSPost2010PropOp49
 70
     1
102
RTVSPost2010Prop50
 90
       50
102
RTVSPost2010PropOp50
 70
     1
102
RTVSPost2010Prop51ColorIndex
 90
      256
102
RTVSPost2010Prop51ColorRGB
 90
-16777216
102
RTVSPost2010PropOp51
 70
     0
102
RTVSPost2010Prop52
140
1.0
102
RTVSPost2010PropOp52
 70
     0
102
RTVSPost2010Prop53
 90
        2
102
RTVSPost2010PropOp53
 70
     1
102
RTVSPost2010Prop54
  1
strokes_ogs.tif
102
RTVSPost2010PropOp54
 70
     1
102
RTVSPost2010Prop55
280
     0
102
RTVSPost2010PropOp55
 70
     1
102
RTVSPost2010Prop56
140
1.0
102
RTVSPost2010PropOp56
 70
     1
102
RTVSPost2010Prop57
140
1.0
102
RTVSPost2010PropOp57
 70
     1
  0
XRECORD
  5
5E1
102
{ACAD_REACTORS
330
5E0
102
}
330
5E0
100
AcDbXrecord
280
     1
102
RTVSPropertyOp0
 70
     1
102
RTVSPropertyOp1
 70
     1
102
RTVSPropertyOp2
 70
     1
102
RTVSPropertyOp3
 70
     1
102
RTVSPropertyOp4
 70
     1
102
RTVSPropertyOp5
 70
     1
102
RTVSPropertyOp6
 70
     1
102
RTVSPropertyOp7
 70
     1
102
RTVSPropertyOp8
 70
     1
102
RTVSPropertyOp9
 70
     1
102
RTVSPropertyOp10
 70
     1
102
RTVSPropertyOp11
 70
     1
102
RTVSPropertyOp12
 70
     1
102
RTVSPropertyOp13
 70
     1
102
RTVSPropertyOp14
 70
     1
102
RTVSPropertyOp15
 70
     1
102
RTVSPropertyOp16
 70
     1
102
RTVSPropertyOp17
 70
     1
102
RTVSPropertyOp18
 70
     1
102
RTVSPropertyOp19
 70
     1
102
RTVSPropertyOp20
 70
     1
102
RTVSPropertyOp21
 70
     1
102
RTVSPropertyOp22
 70
     1
102
RTVSPropertyOp23
 70
     1
102
RTVSPropertyOp24
 70
     1
102
RTVSPropertyOp25
 70
     1
102
RTVSPropertyOp26
 70
     1
102
RTVSPropertyOp27
 70
     1
102
RTVSPropertyOp28
 70
     1
102
RTVSPropertyOp29
 70
     1
102
RTVSPropertyOp30
 70
     1
102
RTVSPropertyOp31
 70
     1
102
RTVSPropertyOp32
 70
     1
102
RTVSPropertyOp33
 70
     1
102
RTVSPropertyOp34
 70
     1
102
RTVSPropertyOp35
 70
     1
102
RTVSPropertyOp36
 70
     1
102
RTVSPropertyOp37
 70
     1
102
RTVSPropertyOp38
 70
     1
102
RTVSPropertyOp39
 70
     1
102
RTVSPropertyOp40
 70
     1
102
RTVSPropertyOp41
 70
     1
102
RTVSPropertyOp42
 70
     1
102
RTVSPropertyOp43
 70
     1
102
RTVSPropertyOp44
 70
     1
102
RTVSPropertyOp45
 70
     1
102
RTVSPropertyOp46
 70
     1
102
RTVSPropertyOp47
 70
     1
102
RTVSPropertyOp48
 70
     1
102
RTVSPropertyOp49
 70
     1
102
RTVSPropertyOp50
 70
     1
102
RTVSPropertyOp51
 70
     0
102
RTVSPropertyOp52
 70
     0
102
RTVSPropertyOp53
 70
     1
102
RTVSPropertyOp54
 70
     1
102
RTVSPropertyOp55
 70
     1
102
RTVSPropertyOp56
 70
     1
102
RTVSPropertyOp57
 70
     1
102
RTVSPost2010Prop28
280
     0
102
RTVSPost2010PropOp28
 70
     1
102
RTVSPost2010Prop29
280
     1
102
RTVSPost2010PropOp29
 70
     1
102
RTVSPost2010Prop30
280
     1
102
RTVSPost2010PropOp30
 70
     1
102
RTVSPost2010Prop31
280
     0
102
RTVSPost2010PropOp31
 70
     1
102
RTVSPost2010Prop32
280
     0
102
RTVSPost2010PropOp32
 70
     1
102
RTVSPost2010Prop33
280
     0
102
RTVSPost2010PropOp33
 70
     1
102
RTVSPost2010Prop34
280
     0
102
RTVSPost2010PropOp34
 70
     1
102
RTVSPost2010Prop35
280
     0
102
RTVSPost2010PropOp35
 70
     1
102
RTVSPost2010Prop36
280
     0
102
RTVSPost2010PropOp36
 70
     1
102
RTVSPost2010Prop37
 90
       50
102
RTVSPost2010PropOp37
 70
     1
102
RTVSPost2010Prop38
140
0.0
102
RTVSPost2010PropOp38
 70
     1
102
RTVSPost2010Prop39
140
1.0
102
RTVSPost2010PropOp39
 70
     1
102
RTVSPost2010Prop40
 90
        0
102
RTVSPost2010PropOp40
 70
     1
102
RTVSPost2010Prop41ColorIndex
 90
       18
102
RTVSPost2010Prop41ColorRGB
 90
        0
102
RTVSPost2010PropOp41
 70
     1
102
RTVSPost2010Prop42
 90
       50
102
RTVSPost2010PropOp42
 70
     1
102
RTVSPost2010Prop43
 90
        3
102
RTVSPost2010PropOp43
 70
     1
102
RTVSPost2010Prop44ColorIndex
 90
        5
102
RTVSPost2010Prop44ColorRGB
 90
      255
102
RTVSPost2010PropOp44
 70
     1
102
RTVSPost2010Prop45
280
     0
102
RTVSPost2010PropOp45
 70
     1
102
RTVSPost2010Prop46
 90
       50
102
RTVSPost2010PropOp46
 70
     1
102
RTVSPost2010Prop47
 90
       50
102
RTVSPost2010PropOp47
 70
     1
102
RTVSPost2010Prop48
 90
       50
102
RTVSPost2010PropOp48
 70
     1
102
RTVSPost2010Prop49
280
     0
102
RTVSPost2010PropOp49
 70
     1
102
RTVSPost2010Prop50
 90
       50
102
RTVSPost2010PropOp50
 70
     1
102
RTVSPost2010Prop51ColorIndex
 90
      256
102
RTVSPost2010Prop51ColorRGB
 90
-16777216
102
RTVSPost2010PropOp51
 70
     0
102
RTVSPost2010Prop52
140
1.0
102
RTVSPost2010PropOp52
 70
     0
102
RTVSPost2010Prop53
 90
        2
102
RTVSPost2010PropOp53
 70
     1
102
RTVSPost2010Prop54
  1
strokes_ogs.tif
102
RTVSPost2010PropOp54
 70
     1
102
RTVSPost2010Prop55
280
     0
102
RTVSPost2010PropOp55
 70
     1
102
RTVSPost2010Prop56
140
1.0
102
RTVSPost2010PropOp56
 70
     1
102
RTVSPost2010Prop57
140
1.0
102
RTVSPost2010PropOp57
 70
     1
  0
XRECORD
  5
5E3
102
{ACAD_REACTORS
330
5E2
102
}
330
5E2
100
AcDbXrecord
280
     1
102
RTVSPropertyOp0
 70
     1
102
RTVSPropertyOp1
 70
     1
102
RTVSPropertyOp2
 70
     1
102
RTVSPropertyOp3
 70
     1
102
RTVSPropertyOp4
 70
     1
102
RTVSPropertyOp5
 70
     1
102
RTVSPropertyOp6
 70
     1
102
RTVSPropertyOp7
 70
     1
102
RTVSPropertyOp8
 70
     1
102
RTVSPropertyOp9
 70
     1
102
RTVSPropertyOp10
 70
     1
102
RTVSPropertyOp11
 70
     1
102
RTVSPropertyOp12
 70
     1
102
RTVSPropertyOp13
 70
     1
102
RTVSPropertyOp14
 70
     1
102
RTVSPropertyOp15
 70
     1
102
RTVSPropertyOp16
 70
     1
102
RTVSPropertyOp17
 70
     1
102
RTVSPropertyOp18
 70
     1
102
RTVSPropertyOp19
 70
     1
102
RTVSPropertyOp20
 70
     1
102
RTVSPropertyOp21
 70
     1
102
RTVSPropertyOp22
 70
     1
102
RTVSPropertyOp23
 70
     1
102
RTVSPropertyOp24
 70
     1
102
RTVSPropertyOp25
 70
     1
102
RTVSPropertyOp26
 70
     1
102
RTVSPropertyOp27
 70
     1
102
RTVSPropertyOp28
 70
     1
102
RTVSPropertyOp29
 70
     1
102
RTVSPropertyOp30
 70
     1
102
RTVSPropertyOp31
 70
     1
102
RTVSPropertyOp32
 70
     1
102
RTVSPropertyOp33
 70
     1
102
RTVSPropertyOp34
 70
     1
102
RTVSPropertyOp35
 70
     1
102
RTVSPropertyOp36
 70
     1
102
RTVSPropertyOp37
 70
     1
102
RTVSPropertyOp38
 70
     1
102
RTVSPropertyOp39
 70
     1
102
RTVSPropertyOp40
 70
     1
102
RTVSPropertyOp41
 70
     1
102
RTVSPropertyOp42
 70
     1
102
RTVSPropertyOp43
 70
     1
102
RTVSPropertyOp44
 70
     1
102
RTVSPropertyOp45
 70
     1
102
RTVSPropertyOp46
 70
     1
102
RTVSPropertyOp47
 70
     1
102
RTVSPropertyOp48
 70
     1
102
RTVSPropertyOp49
 70
     1
102
RTVSPropertyOp50
 70
     1
102
RTVSPropertyOp51
 70
     0
102
RTVSPropertyOp52
 70
     0
102
RTVSPropertyOp53
 70
     1
102
RTVSPropertyOp54
 70
     1
102
RTVSPropertyOp55
 70
     1
102
RTVSPropertyOp56
 70
     1
102
RTVSPropertyOp57
 70
     1
102
RTVSPost2010Prop28
280
     0
102
RTVSPost2010PropOp28
 70
     1
102
RTVSPost2010Prop29
280
     1
102
RTVSPost2010PropOp29
 70
     1
102
RTVSPost2010Prop30
280
     1
102
RTVSPost2010PropOp30
 70
     1
102
RTVSPost2010Prop31
280
     0
102
RTVSPost2010PropOp31
 70
     1
102
RTVSPost2010Prop32
280
     0
102
RTVSPost2010PropOp32
 70
     1
102
RTVSPost2010Prop33
280
     0
102
RTVSPost2010PropOp33
 70
     1
102
RTVSPost2010Prop34
280
     0
102
RTVSPost2010PropOp34
 70
     1
102
RTVSPost2010Prop35
280
     0
102
RTVSPost2010PropOp35
 70
     1
102
RTVSPost2010Prop36
280
     0
102
RTVSPost2010PropOp36
 70
     1
102
RTVSPost2010Prop37
 90
       50
102
RTVSPost2010PropOp37
 70
     1
102
RTVSPost2010Prop38
140
0.0
102
RTVSPost2010PropOp38
 70
     1
102
RTVSPost2010Prop39
140
1.0
102
RTVSPost2010PropOp39
 70
     1
102
RTVSPost2010Prop40
 90
        0
102
RTVSPost2010PropOp40
 70
     1
102
RTVSPost2010Prop41ColorIndex
 90
       18
102
RTVSPost2010Prop41ColorRGB
 90
        0
102
RTVSPost2010PropOp41
 70
     1
102
RTVSPost2010Prop42
 90
       50
102
RTVSPost2010PropOp42
 70
     1
102
RTVSPost2010Prop43
 90
        3
102
RTVSPost2010PropOp43
 70
     1
102
RTVSPost2010Prop44ColorIndex
 90
        5
102
RTVSPost2010Prop44ColorRGB
 90
      255
102
RTVSPost2010PropOp44
 70
     1
102
RTVSPost2010Prop45
280
     0
102
RTVSPost2010PropOp45
 70
     1
102
RTVSPost2010Prop46
 90
       50
102
RTVSPost2010PropOp46
 70
     1
102
RTVSPost2010Prop47
 90
       50
102
RTVSPost2010PropOp47
 70
     1
102
RTVSPost2010Prop48
 90
       50
102
RTVSPost2010PropOp48
 70
     1
102
RTVSPost2010Prop49
280
     0
102
RTVSPost2010PropOp49
 70
     1
102
RTVSPost2010Prop50
 90
       50
102
RTVSPost2010PropOp50
 70
     1
102
RTVSPost2010Prop51ColorIndex
 90
      256
102
RTVSPost2010Prop51ColorRGB
 90
-16777216
102
RTVSPost2010PropOp51
 70
     0
102
RTVSPost2010Prop52
140
1.0
102
RTVSPost2010PropOp52
 70
     0
102
RTVSPost2010Prop53
 90
        2
102
RTVSPost2010PropOp53
 70
     1
102
RTVSPost2010Prop54
  1
strokes_ogs.tif
102
RTVSPost2010PropOp54
 70
     1
102
RTVSPost2010Prop55
280
     0
102
RTVSPost2010PropOp55
 70
     1
102
RTVSPost2010Prop56
140
1.0
102
RTVSPost2010PropOp56
 70
     1
102
RTVSPost2010Prop57
140
1.0
102
RTVSPost2010PropOp57
 70
     1
  0
XRECORD
  5
5E7
102
{ACAD_REACTORS
330
5E6
102
}
330
5E6
100
AcDbXrecord
280
     1
102
RTVSPropertyOp0
 70
     1
102
RTVSPropertyOp1
 70
     1
102
RTVSPropertyOp2
 70
     1
102
RTVSPropertyOp3
 70
     1
102
RTVSPropertyOp4
 70
     1
102
RTVSPropertyOp5
 70
     1
102
RTVSPropertyOp6
 70
     1
102
RTVSPropertyOp7
 70
     1
102
RTVSPropertyOp8
 70
     1
102
RTVSPropertyOp9
 70
     1
102
RTVSPropertyOp10
 70
     1
102
RTVSPropertyOp11
 70
     1
102
RTVSPropertyOp12
 70
     1
102
RTVSPropertyOp13
 70
     1
102
RTVSPropertyOp14
 70
     1
102
RTVSPropertyOp15
 70
     1
102
RTVSPropertyOp16
 70
     1
102
RTVSPropertyOp17
 70
     1
102
RTVSPropertyOp18
 70
     1
102
RTVSPropertyOp19
 70
     1
102
RTVSPropertyOp20
 70
     1
102
RTVSPropertyOp21
 70
     1
102
RTVSPropertyOp22
 70
     1
102
RTVSPropertyOp23
 70
     1
102
RTVSPropertyOp24
 70
     1
102
RTVSPropertyOp25
 70
     1
102
RTVSPropertyOp26
 70
     1
102
RTVSPropertyOp27
 70
     1
102
RTVSPropertyOp28
 70
     1
102
RTVSPropertyOp29
 70
     1
102
RTVSPropertyOp30
 70
     1
102
RTVSPropertyOp31
 70
     1
102
RTVSPropertyOp32
 70
     1
102
RTVSPropertyOp33
 70
     1
102
RTVSPropertyOp34
 70
     1
102
RTVSPropertyOp35
 70
     1
102
RTVSPropertyOp36
 70
     1
102
RTVSPropertyOp37
 70
     1
102
RTVSPropertyOp38
 70
     1
102
RTVSPropertyOp39
 70
     1
102
RTVSPropertyOp40
 70
     1
102
RTVSPropertyOp41
 70
     1
102
RTVSPropertyOp42
 70
     1
102
RTVSPropertyOp43
 70
     1
102
RTVSPropertyOp44
 70
     1
102
RTVSPropertyOp45
 70
     1
102
RTVSPropertyOp46
 70
     1
102
RTVSPropertyOp47
 70
     1
102
RTVSPropertyOp48
 70
     1
102
RTVSPropertyOp49
 70
     1
102
RTVSPropertyOp50
 70
     1
102
RTVSPropertyOp51
 70
     0
102
RTVSPropertyOp52
 70
     0
102
RTVSPropertyOp53
 70
     1
102
RTVSPropertyOp54
 70
     1
102
RTVSPropertyOp55
 70
     1
102
RTVSPropertyOp56
 70
     1
102
RTVSPropertyOp57
 70
     1
102
RTVSPost2010Prop28
280
     0
102
RTVSPost2010PropOp28
 70
     1
102
RTVSPost2010Prop29
280
     1
102
RTVSPost2010PropOp29
 70
     1
102
RTVSPost2010Prop30
280
     1
102
RTVSPost2010PropOp30
 70
     1
102
RTVSPost2010Prop31
280
     0
102
RTVSPost2010PropOp31
 70
     1
102
RTVSPost2010Prop32
280
     0
102
RTVSPost2010PropOp32
 70
     1
102
RTVSPost2010Prop33
280
     0
102
RTVSPost2010PropOp33
 70
     1
102
RTVSPost2010Prop34
280
     0
102
RTVSPost2010PropOp34
 70
     1
102
RTVSPost2010Prop35
280
     0
102
RTVSPost2010PropOp35
 70
     1
102
RTVSPost2010Prop36
280
     0
102
RTVSPost2010PropOp36
 70
     1
102
RTVSPost2010Prop37
 90
       50
102
RTVSPost2010PropOp37
 70
     1
102
RTVSPost2010Prop38
140
0.0
102
RTVSPost2010PropOp38
 70
     1
102
RTVSPost2010Prop39
140
1.0
102
RTVSPost2010PropOp39
 70
     1
102
RTVSPost2010Prop40
 90
        0
102
RTVSPost2010PropOp40
 70
     1
102
RTVSPost2010Prop41ColorIndex
 90
       18
102
RTVSPost2010Prop41ColorRGB
 90
        0
102
RTVSPost2010PropOp41
 70
     1
102
RTVSPost2010Prop42
 90
       50
102
RTVSPost2010PropOp42
 70
     1
102
RTVSPost2010Prop43
 90
        3
102
RTVSPost2010PropOp43
 70
     1
102
RTVSPost2010Prop44ColorIndex
 90
        5
102
RTVSPost2010Prop44ColorRGB
 90
      255
102
RTVSPost2010PropOp44
 70
     1
102
RTVSPost2010Prop45
280
     0
102
RTVSPost2010PropOp45
 70
     1
102
RTVSPost2010Prop46
 90
       50
102
RTVSPost2010PropOp46
 70
     1
102
RTVSPost2010Prop47
 90
       50
102
RTVSPost2010PropOp47
 70
     1
102
RTVSPost2010Prop48
 90
       50
102
RTVSPost2010PropOp48
 70
     1
102
RTVSPost2010Prop49
280
     0
102
RTVSPost2010PropOp49
 70
     1
102
RTVSPost2010Prop50
 90
       50
102
RTVSPost2010PropOp50
 70
     1
102
RTVSPost2010Prop51ColorIndex
 90
      256
102
RTVSPost2010Prop51ColorRGB
 90
-16777216
102
RTVSPost2010PropOp51
 70
     0
102
RTVSPost2010Prop52
140
1.0
102
RTVSPost2010PropOp52
 70
     0
102
RTVSPost2010Prop53
 90
        2
102
RTVSPost2010PropOp53
 70
     1
102
RTVSPost2010Prop54
  1
strokes_ogs.tif
102
RTVSPost2010PropOp54
 70
     1
102
RTVSPost2010Prop55
280
     0
102
RTVSPost2010PropOp55
 70
     1
102
RTVSPost2010Prop56
140
1.0
102
RTVSPost2010PropOp56
 70
     1
102
RTVSPost2010Prop57
140
1.0
102
RTVSPost2010PropOp57
 70
     1
  0
XRECORD
  5
5F9
102
{ACAD_REACTORS
330
5F8
102
}
330
5F8
100
AcDbXrecord
280
     1
102
RTVSPropertyOp0
 70
     0
102
RTVSPropertyOp1
 70
     0
102
RTVSPropertyOp2
 70
     0
102
RTVSPropertyOp3
 70
     0
102
RTVSPropertyOp4
 70
     0
102
RTVSPropertyOp5
 70
     0
102
RTVSPropertyOp6
 70
     0
102
RTVSPropertyOp7
 70
     0
102
RTVSPropertyOp8
 70
     0
102
RTVSPropertyOp9
 70
     0
102
RTVSPropertyOp10
 70
     0
102
RTVSPropertyOp11
 70
     0
102
RTVSPropertyOp12
 70
     0
102
RTVSPropertyOp13
 70
     0
102
RTVSPropertyOp14
 70
     0
102
RTVSPropertyOp15
 70
     0
102
RTVSPropertyOp16
 70
     0
102
RTVSPropertyOp17
 70
     0
102
RTVSPropertyOp18
 70
     0
102
RTVSPropertyOp19
 70
     0
102
RTVSPropertyOp20
 70
     0
102
RTVSPropertyOp21
 70
     0
102
RTVSPropertyOp22
 70
     0
102
RTVSPropertyOp23
 70
     0
102
RTVSPropertyOp24
 70
     0
102
RTVSPropertyOp25
 70
     0
102
RTVSPropertyOp26
 70
     0
102
RTVSPropertyOp27
 70
     0
102
RTVSPropertyOp28
 70
     1
102
RTVSPropertyOp29
 70
     1
102
RTVSPropertyOp30
 70
     1
102
RTVSPropertyOp31
 70
     1
102
RTVSPropertyOp32
 70
     1
102
RTVSPropertyOp33
 70
     1
102
RTVSPropertyOp34
 70
     1
102
RTVSPropertyOp35
 70
     1
102
RTVSPropertyOp36
 70
     1
102
RTVSPropertyOp37
 70
     1
102
RTVSPropertyOp38
 70
     1
102
RTVSPropertyOp39
 70
     1
102
RTVSPropertyOp40
 70
     1
102
RTVSPropertyOp41
 70
     1
102
RTVSPropertyOp42
 70
     1
102
RTVSPropertyOp43
 70
     1
102
RTVSPropertyOp44
 70
     1
102
RTVSPropertyOp45
 70
     1
102
RTVSPropertyOp46
 70
     1
102
RTVSPropertyOp47
 70
     1
102
RTVSPropertyOp48
 70
     1
102
RTVSPropertyOp49
 70
     1
102
RTVSPropertyOp50
 70
     1
102
RTVSPropertyOp51
 70
     0
102
RTVSPropertyOp52
 70
     0
102
RTVSPropertyOp53
 70
     1
102
RTVSPropertyOp54
 70
     1
102
RTVSPropertyOp55
 70
     1
102
RTVSPropertyOp56
 70
     1
102
RTVSPropertyOp57
 70
     1
102
RTVSPost2010Prop28
280
     0
102
RTVSPost2010PropOp28
 70
     1
102
RTVSPost2010Prop29
280
     1
102
RTVSPost2010PropOp29
 70
     1
102
RTVSPost2010Prop30
280
     1
102
RTVSPost2010PropOp30
 70
     1
102
RTVSPost2010Prop31
280
     0
102
RTVSPost2010PropOp31
 70
     1
102
RTVSPost2010Prop32
280
     0
102
RTVSPost2010PropOp32
 70
     1
102
RTVSPost2010Prop33
280
     0
102
RTVSPost2010PropOp33
 70
     1
102
RTVSPost2010Prop34
280
     0
102
RTVSPost2010PropOp34
 70
     1
102
RTVSPost2010Prop35
280
     0
102
RTVSPost2010PropOp35
 70
     1
102
RTVSPost2010Prop36
280
     0
102
RTVSPost2010PropOp36
 70
     1
102
RTVSPost2010Prop37
 90
       50
102
RTVSPost2010PropOp37
 70
     1
102
RTVSPost2010Prop38
140
0.0
102
RTVSPost2010PropOp38
 70
     1
102
RTVSPost2010Prop39
140
1.0
102
RTVSPost2010PropOp39
 70
     1
102
RTVSPost2010Prop40
 90
        0
102
RTVSPost2010PropOp40
 70
     1
102
RTVSPost2010Prop41ColorIndex
 90
       18
102
RTVSPost2010Prop41ColorRGB
 90
        0
102
RTVSPost2010PropOp41
 70
     1
102
RTVSPost2010Prop42
 90
       50
102
RTVSPost2010PropOp42
 70
     1
102
RTVSPost2010Prop43
 90
        3
102
RTVSPost2010PropOp43
 70
     1
102
RTVSPost2010Prop44ColorIndex
 90
        5
102
RTVSPost2010Prop44ColorRGB
 90
      255
102
RTVSPost2010PropOp44
 70
     1
102
RTVSPost2010Prop45
280
     0
102
RTVSPost2010PropOp45
 70
     1
102
RTVSPost2010Prop46
 90
       50
102
RTVSPost2010PropOp46
 70
     1
102
RTVSPost2010Prop47
 90
       50
102
RTVSPost2010PropOp47
 70
     1
102
RTVSPost2010Prop48
 90
       50
102
RTVSPost2010PropOp48
 70
     1
102
RTVSPost2010Prop49
280
     0
102
RTVSPost2010PropOp49
 70
     1
102
RTVSPost2010Prop50
 90
       50
102
RTVSPost2010PropOp50
 70
     1
102
RTVSPost2010Prop51ColorIndex
 90
      256
102
RTVSPost2010Prop51ColorRGB
 90
-16777216
102
RTVSPost2010PropOp51
 70
     0
102
RTVSPost2010Prop52
140
1.0
102
RTVSPost2010PropOp52
 70
     0
102
RTVSPost2010Prop53
 90
        2
102
RTVSPost2010PropOp53
 70
     1
102
RTVSPost2010Prop54
  1
strokes_ogs.tif
102
RTVSPost2010PropOp54
 70
     1
102
RTVSPost2010Prop55
280
     0
102
RTVSPost2010PropOp55
 70
     1
102
RTVSPost2010Prop56
140
1.0
102
RTVSPost2010PropOp56
 70
     1
102
RTVSPost2010Prop57
140
1.0
102
RTVSPost2010PropOp57
 70
     1
  0
XRECORD
  5
5F3
102
{ACAD_REACTORS
330
5F2
102
}
330
5F2
100
AcDbXrecord
280
     1
102
RTVSPropertyOp0
 70
     1
102
RTVSPropertyOp1
 70
     1
102
RTVSPropertyOp2
 70
     1
102
RTVSPropertyOp3
 70
     1
102
RTVSPropertyOp4
 70
     1
102
RTVSPropertyOp5
 70
     1
102
RTVSPropertyOp6
 70
     1
102
RTVSPropertyOp7
 70
     1
102
RTVSPropertyOp8
 70
     1
102
RTVSPropertyOp9
 70
     1
102
RTVSPropertyOp10
 70
     1
102
RTVSPropertyOp11
 70
     1
102
RTVSPropertyOp12
 70
     1
102
RTVSPropertyOp13
 70
     1
102
RTVSPropertyOp14
 70
     1
102
RTVSPropertyOp15
 70
     1
102
RTVSPropertyOp16
 70
     1
102
RTVSPropertyOp17
 70
     1
102
RTVSPropertyOp18
 70
     1
102
RTVSPropertyOp19
 70
     1
102
RTVSPropertyOp20
 70
     1
102
RTVSPropertyOp21
 70
     1
102
RTVSPropertyOp22
 70
     1
102
RTVSPropertyOp23
 70
     1
102
RTVSPropertyOp24
 70
     1
102
RTVSPropertyOp25
 70
     1
102
RTVSPropertyOp26
 70
     1
102
RTVSPropertyOp27
 70
     1
102
RTVSPropertyOp28
 70
     1
102
RTVSPropertyOp29
 70
     1
102
RTVSPropertyOp30
 70
     1
102
RTVSPropertyOp31
 70
     1
102
RTVSPropertyOp32
 70
     1
102
RTVSPropertyOp33
 70
     1
102
RTVSPropertyOp34
 70
     1
102
RTVSPropertyOp35
 70
     1
102
RTVSPropertyOp36
 70
     1
102
RTVSPropertyOp37
 70
     1
102
RTVSPropertyOp38
 70
     1
102
RTVSPropertyOp39
 70
     1
102
RTVSPropertyOp40
 70
     1
102
RTVSPropertyOp41
 70
     1
102
RTVSPropertyOp42
 70
     1
102
RTVSPropertyOp43
 70
     1
102
RTVSPropertyOp44
 70
     1
102
RTVSPropertyOp45
 70
     1
102
RTVSPropertyOp46
 70
     1
102
RTVSPropertyOp47
 70
     1
102
RTVSPropertyOp48
 70
     1
102
RTVSPropertyOp49
 70
     1
102
RTVSPropertyOp50
 70
     1
102
RTVSPropertyOp51
 70
     0
102
RTVSPropertyOp52
 70
     0
102
RTVSPropertyOp53
 70
     1
102
RTVSPropertyOp54
 70
     1
102
RTVSPropertyOp55
 70
     1
102
RTVSPropertyOp56
 70
     1
102
RTVSPropertyOp57
 70
     1
102
RTVSPost2010Prop28
280
     0
102
RTVSPost2010PropOp28
 70
     1
102
RTVSPost2010Prop29
280
     1
102
RTVSPost2010PropOp29
 70
     1
102
RTVSPost2010Prop30
280
     1
102
RTVSPost2010PropOp30
 70
     1
102
RTVSPost2010Prop31
280
     0
102
RTVSPost2010PropOp31
 70
     1
102
RTVSPost2010Prop32
280
     0
102
RTVSPost2010PropOp32
 70
     1
102
RTVSPost2010Prop33
280
     0
102
RTVSPost2010PropOp33
 70
     1
102
RTVSPost2010Prop34
280
     0
102
RTVSPost2010PropOp34
 70
     1
102
RTVSPost2010Prop35
280
     0
102
RTVSPost2010PropOp35
 70
     1
102
RTVSPost2010Prop36
280
     0
102
RTVSPost2010PropOp36
 70
     1
102
RTVSPost2010Prop37
 90
       50
102
RTVSPost2010PropOp37
 70
     1
102
RTVSPost2010Prop38
140
0.0
102
RTVSPost2010PropOp38
 70
     1
102
RTVSPost2010Prop39
140
1.0
102
RTVSPost2010PropOp39
 70
     1
102
RTVSPost2010Prop40
 90
        0
102
RTVSPost2010PropOp40
 70
     1
102
RTVSPost2010Prop41ColorIndex
 90
       18
102
RTVSPost2010Prop41ColorRGB
 90
        0
102
RTVSPost2010PropOp41
 70
     1
102
RTVSPost2010Prop42
 90
       50
102
RTVSPost2010PropOp42
 70
     1
102
RTVSPost2010Prop43
 90
        3
102
RTVSPost2010PropOp43
 70
     1
102
RTVSPost2010Prop44ColorIndex
 90
        5
102
RTVSPost2010Prop44ColorRGB
 90
      255
102
RTVSPost2010PropOp44
 70
     1
102
RTVSPost2010Prop45
280
     0
102
RTVSPost2010PropOp45
 70
     1
102
RTVSPost2010Prop46
 90
       50
102
RTVSPost2010PropOp46
 70
     1
102
RTVSPost2010Prop47
 90
       50
102
RTVSPost2010PropOp47
 70
     1
102
RTVSPost2010Prop48
 90
       50
102
RTVSPost2010PropOp48
 70
     1
102
RTVSPost2010Prop49
280
     0
102
RTVSPost2010PropOp49
 70
     1
102
RTVSPost2010Prop50
 90
       50
102
RTVSPost2010PropOp50
 70
     1
102
RTVSPost2010Prop51ColorIndex
 90
      256
102
RTVSPost2010Prop51ColorRGB
 90
-16777216
102
RTVSPost2010PropOp51
 70
     0
102
RTVSPost2010Prop52
140
1.0
102
RTVSPost2010PropOp52
 70
     0
102
RTVSPost2010Prop53
 90
        2
102
RTVSPost2010PropOp53
 70
     1
102
RTVSPost2010Prop54
  1
strokes_ogs.tif
102
RTVSPost2010PropOp54
 70
     1
102
RTVSPost2010Prop55
280
     0
102
RTVSPost2010PropOp55
 70
     1
102
RTVSPost2010Prop56
140
1.0
102
RTVSPost2010PropOp56
 70
     1
102
RTVSPost2010Prop57
140
1.0
102
RTVSPost2010PropOp57
 70
     1
  0
XRECORD
  5
5FB
102
{ACAD_REACTORS
330
5FA
102
}
330
5FA
100
AcDbXrecord
280
     1
102
RTVSPropertyOp0
 70
     0
102
RTVSPropertyOp1
 70
     0
102
RTVSPropertyOp2
 70
     0
102
RTVSPropertyOp3
 70
     0
102
RTVSPropertyOp4
 70
     0
102
RTVSPropertyOp5
 70
     0
102
RTVSPropertyOp6
 70
     0
102
RTVSPropertyOp7
 70
     0
102
RTVSPropertyOp8
 70
     0
102
RTVSPropertyOp9
 70
     0
102
RTVSPropertyOp10
 70
     0
102
RTVSPropertyOp11
 70
     0
102
RTVSPropertyOp12
 70
     0
102
RTVSPropertyOp13
 70
     0
102
RTVSPropertyOp14
 70
     0
102
RTVSPropertyOp15
 70
     0
102
RTVSPropertyOp16
 70
     0
102
RTVSPropertyOp17
 70
     0
102
RTVSPropertyOp18
 70
     0
102
RTVSPropertyOp19
 70
     0
102
RTVSPropertyOp20
 70
     0
102
RTVSPropertyOp21
 70
     0
102
RTVSPropertyOp22
 70
     0
102
RTVSPropertyOp23
 70
     0
102
RTVSPropertyOp24
 70
     0
102
RTVSPropertyOp25
 70
     0
102
RTVSPropertyOp26
 70
     0
102
RTVSPropertyOp27
 70
     0
102
RTVSPropertyOp28
 70
     1
102
RTVSPropertyOp29
 70
     1
102
RTVSPropertyOp30
 70
     1
102
RTVSPropertyOp31
 70
     1
102
RTVSPropertyOp32
 70
     1
102
RTVSPropertyOp33
 70
     1
102
RTVSPropertyOp34
 70
     1
102
RTVSPropertyOp35
 70
     1
102
RTVSPropertyOp36
 70
     1
102
RTVSPropertyOp37
 70
     1
102
RTVSPropertyOp38
 70
     1
102
RTVSPropertyOp39
 70
     1
102
RTVSPropertyOp40
 70
     1
102
RTVSPropertyOp41
 70
     1
102
RTVSPropertyOp42
 70
     1
102
RTVSPropertyOp43
 70
     1
102
RTVSPropertyOp44
 70
     1
102
RTVSPropertyOp45
 70
     1
102
RTVSPropertyOp46
 70
     1
102
RTVSPropertyOp47
 70
     1
102
RTVSPropertyOp48
 70
     1
102
RTVSPropertyOp49
 70
     1
102
RTVSPropertyOp50
 70
     1
102
RTVSPropertyOp51
 70
     0
102
RTVSPropertyOp52
 70
     0
102
RTVSPropertyOp53
 70
     1
102
RTVSPropertyOp54
 70
     1
102
RTVSPropertyOp55
 70
     1
102
RTVSPropertyOp56
 70
     1
102
RTVSPropertyOp57
 70
     1
102
RTVSPost2010Prop28
280
     0
102
RTVSPost2010PropOp28
 70
     1
102
RTVSPost2010Prop29
280
     1
102
RTVSPost2010PropOp29
 70
     1
102
RTVSPost2010Prop30
280
     1
102
RTVSPost2010PropOp30
 70
     1
102
RTVSPost2010Prop31
280
     0
102
RTVSPost2010PropOp31
 70
     1
102
RTVSPost2010Prop32
280
     0
102
RTVSPost2010PropOp32
 70
     1
102
RTVSPost2010Prop33
280
     0
102
RTVSPost2010PropOp33
 70
     1
102
RTVSPost2010Prop34
280
     0
102
RTVSPost2010PropOp34
 70
     1
102
RTVSPost2010Prop35
280
     0
102
RTVSPost2010PropOp35
 70
     1
102
RTVSPost2010Prop36
280
     0
102
RTVSPost2010PropOp36
 70
     1
102
RTVSPost2010Prop37
 90
       50
102
RTVSPost2010PropOp37
 70
     1
102
RTVSPost2010Prop38
140
0.0
102
RTVSPost2010PropOp38
 70
     1
102
RTVSPost2010Prop39
140
1.0
102
RTVSPost2010PropOp39
 70
     1
102
RTVSPost2010Prop40
 90
        0
102
RTVSPost2010PropOp40
 70
     1
102
RTVSPost2010Prop41ColorIndex
 90
       18
102
RTVSPost2010Prop41ColorRGB
 90
        0
102
RTVSPost2010PropOp41
 70
     1
102
RTVSPost2010Prop42
 90
       50
102
RTVSPost2010PropOp42
 70
     1
102
RTVSPost2010Prop43
 90
        3
102
RTVSPost2010PropOp43
 70
     1
102
RTVSPost2010Prop44ColorIndex
 90
        5
102
RTVSPost2010Prop44ColorRGB
 90
      255
102
RTVSPost2010PropOp44
 70
     1
102
RTVSPost2010Prop45
280
     0
102
RTVSPost2010PropOp45
 70
     1
102
RTVSPost2010Prop46
 90
       50
102
RTVSPost2010PropOp46
 70
     1
102
RTVSPost2010Prop47
 90
       50
102
RTVSPost2010PropOp47
 70
     1
102
RTVSPost2010Prop48
 90
       50
102
RTVSPost2010PropOp48
 70
     1
102
RTVSPost2010Prop49
280
     0
102
RTVSPost2010PropOp49
 70
     1
102
RTVSPost2010Prop50
 90
       50
102
RTVSPost2010PropOp50
 70
     1
102
RTVSPost2010Prop51ColorIndex
 90
      256
102
RTVSPost2010Prop51ColorRGB
 90
-16777216
102
RTVSPost2010PropOp51
 70
     0
102
RTVSPost2010Prop52
140
1.0
102
RTVSPost2010PropOp52
 70
     0
102
RTVSPost2010Prop53
 90
        2
102
RTVSPost2010PropOp53
 70
     1
102
RTVSPost2010Prop54
  1
strokes_ogs.tif
102
RTVSPost2010PropOp54
 70
     1
102
RTVSPost2010Prop55
280
     0
102
RTVSPost2010PropOp55
 70
     1
102
RTVSPost2010Prop56
140
1.0
102
RTVSPost2010PropOp56
 70
     1
102
RTVSPost2010Prop57
140
1.0
102
RTVSPost2010PropOp57
 70
     1
  0
XRECORD
  5
5D9
102
{ACAD_REACTORS
330
5D8
102
}
330
5D8
100
AcDbXrecord
280
     1
102
RTVSPropertyOp0
 70
     1
102
RTVSPropertyOp1
 70
     1
102
RTVSPropertyOp2
 70
     1
102
RTVSPropertyOp3
 70
     1
102
RTVSPropertyOp4
 70
     1
102
RTVSPropertyOp5
 70
     1
102
RTVSPropertyOp6
 70
     1
102
RTVSPropertyOp7
 70
     1
102
RTVSPropertyOp8
 70
     1
102
RTVSPropertyOp9
 70
     1
102
RTVSPropertyOp10
 70
     1
102
RTVSPropertyOp11
 70
     1
102
RTVSPropertyOp12
 70
     1
102
RTVSPropertyOp13
 70
     1
102
RTVSPropertyOp14
 70
     1
102
RTVSPropertyOp15
 70
     1
102
RTVSPropertyOp16
 70
     1
102
RTVSPropertyOp17
 70
     1
102
RTVSPropertyOp18
 70
     1
102
RTVSPropertyOp19
 70
     1
102
RTVSPropertyOp20
 70
     1
102
RTVSPropertyOp21
 70
     1
102
RTVSPropertyOp22
 70
     1
102
RTVSPropertyOp23
 70
     1
102
RTVSPropertyOp24
 70
     1
102
RTVSPropertyOp25
 70
     1
102
RTVSPropertyOp26
 70
     1
102
RTVSPropertyOp27
 70
     1
102
RTVSPropertyOp28
 70
     1
102
RTVSPropertyOp29
 70
     1
102
RTVSPropertyOp30
 70
     1
102
RTVSPropertyOp31
 70
     1
102
RTVSPropertyOp32
 70
     1
102
RTVSPropertyOp33
 70
     1
102
RTVSPropertyOp34
 70
     1
102
RTVSPropertyOp35
 70
     1
102
RTVSPropertyOp36
 70
     1
102
RTVSPropertyOp37
 70
     1
102
RTVSPropertyOp38
 70
     1
102
RTVSPropertyOp39
 70
     1
102
RTVSPropertyOp40
 70
     1
102
RTVSPropertyOp41
 70
     1
102
RTVSPropertyOp42
 70
     1
102
RTVSPropertyOp43
 70
     1
102
RTVSPropertyOp44
 70
     1
102
RTVSPropertyOp45
 70
     1
102
RTVSPropertyOp46
 70
     1
102
RTVSPropertyOp47
 70
     1
102
RTVSPropertyOp48
 70
     1
102
RTVSPropertyOp49
 70
     1
102
RTVSPropertyOp50
 70
     1
102
RTVSPropertyOp51
 70
     0
102
RTVSPropertyOp52
 70
     0
102
RTVSPropertyOp53
 70
     1
102
RTVSPropertyOp54
 70
     1
102
RTVSPropertyOp55
 70
     1
102
RTVSPropertyOp56
 70
     1
102
RTVSPropertyOp57
 70
     1
102
RTVSPost2010Prop28
280
     0
102
RTVSPost2010PropOp28
 70
     1
102
RTVSPost2010Prop29
280
     1
102
RTVSPost2010PropOp29
 70
     1
102
RTVSPost2010Prop30
280
     1
102
RTVSPost2010PropOp30
 70
     1
102
RTVSPost2010Prop31
280
     0
102
RTVSPost2010PropOp31
 70
     1
102
RTVSPost2010Prop32
280
     0
102
RTVSPost2010PropOp32
 70
     1
102
RTVSPost2010Prop33
280
     0
102
RTVSPost2010PropOp33
 70
     1
102
RTVSPost2010Prop34
280
     0
102
RTVSPost2010PropOp34
 70
     1
102
RTVSPost2010Prop35
280
     0
102
RTVSPost2010PropOp35
 70
     1
102
RTVSPost2010Prop36
280
     0
102
RTVSPost2010PropOp36
 70
     1
102
RTVSPost2010Prop37
 90
       50
102
RTVSPost2010PropOp37
 70
     1
102
RTVSPost2010Prop38
140
0.0
102
RTVSPost2010PropOp38
 70
     1
102
RTVSPost2010Prop39
140
1.0
102
RTVSPost2010PropOp39
 70
     1
102
RTVSPost2010Prop40
 90
        0
102
RTVSPost2010PropOp40
 70
     1
102
RTVSPost2010Prop41ColorIndex
 90
       18
102
RTVSPost2010Prop41ColorRGB
 90
        0
102
RTVSPost2010PropOp41
 70
     1
102
RTVSPost2010Prop42
 90
       50
102
RTVSPost2010PropOp42
 70
     1
102
RTVSPost2010Prop43
 90
        3
102
RTVSPost2010PropOp43
 70
     1
102
RTVSPost2010Prop44ColorIndex
 90
        5
102
RTVSPost2010Prop44ColorRGB
 90
      255
102
RTVSPost2010PropOp44
 70
     1
102
RTVSPost2010Prop45
280
     0
102
RTVSPost2010PropOp45
 70
     1
102
RTVSPost2010Prop46
 90
       50
102
RTVSPost2010PropOp46
 70
     1
102
RTVSPost2010Prop47
 90
       50
102
RTVSPost2010PropOp47
 70
     1
102
RTVSPost2010Prop48
 90
       50
102
RTVSPost2010PropOp48
 70
     1
102
RTVSPost2010Prop49
280
     0
102
RTVSPost2010PropOp49
 70
     1
102
RTVSPost2010Prop50
 90
       50
102
RTVSPost2010PropOp50
 70
     1
102
RTVSPost2010Prop51ColorIndex
 90
      256
102
RTVSPost2010Prop51ColorRGB
 90
-16777216
102
RTVSPost2010PropOp51
 70
     0
102
RTVSPost2010Prop52
140
1.0
102
RTVSPost2010PropOp52
 70
     0
102
RTVSPost2010Prop53
 90
        2
102
RTVSPost2010PropOp53
 70
     1
102
RTVSPost2010Prop54
  1
strokes_ogs.tif
102
RTVSPost2010PropOp54
 70
     1
102
RTVSPost2010Prop55
280
     0
102
RTVSPost2010PropOp55
 70
     1
102
RTVSPost2010Prop56
140
1.0
102
RTVSPost2010PropOp56
 70
     1
102
RTVSPost2010Prop57
140
1.0
102
RTVSPost2010PropOp57
 70
     1
  0
XRECORD
  5
607
102
{ACAD_REACTORS
330
606
102
}
330
606
100
AcDbXrecord
280
     1
102
RTVSPropertyOp0
 70
     1
102
RTVSPropertyOp1
 70
     1
102
RTVSPropertyOp2
 70
     1
102
RTVSPropertyOp3
 70
     1
102
RTVSPropertyOp4
 70
     1
102
RTVSPropertyOp5
 70
     1
102
RTVSPropertyOp6
 70
     1
102
RTVSPropertyOp7
 70
     1
102
RTVSPropertyOp8
 70
     1
102
RTVSPropertyOp9
 70
     1
102
RTVSPropertyOp10
 70
     1
102
RTVSPropertyOp11
 70
     1
102
RTVSPropertyOp12
 70
     1
102
RTVSPropertyOp13
 70
     1
102
RTVSPropertyOp14
 70
     1
102
RTVSPropertyOp15
 70
     1
102
RTVSPropertyOp16
 70
     1
102
RTVSPropertyOp17
 70
     1
102
RTVSPropertyOp18
 70
     1
102
RTVSPropertyOp19
 70
     1
102
RTVSPropertyOp20
 70
     1
102
RTVSPropertyOp21
 70
     1
102
RTVSPropertyOp22
 70
     1
102
RTVSPropertyOp23
 70
     1
102
RTVSPropertyOp24
 70
     1
102
RTVSPropertyOp25
 70
     1
102
RTVSPropertyOp26
 70
     1
102
RTVSPropertyOp27
 70
     1
102
RTVSPropertyOp28
 70
     1
102
RTVSPropertyOp29
 70
     1
102
RTVSPropertyOp30
 70
     1
102
RTVSPropertyOp31
 70
     1
102
RTVSPropertyOp32
 70
     1
102
RTVSPropertyOp33
 70
     1
102
RTVSPropertyOp34
 70
     1
102
RTVSPropertyOp35
 70
     1
102
RTVSPropertyOp36
 70
     1
102
RTVSPropertyOp37
 70
     1
102
RTVSPropertyOp38
 70
     1
102
RTVSPropertyOp39
 70
     1
102
RTVSPropertyOp40
 70
     1
102
RTVSPropertyOp41
 70
     1
102
RTVSPropertyOp42
 70
     1
102
RTVSPropertyOp43
 70
     1
102
RTVSPropertyOp44
 70
     1
102
RTVSPropertyOp45
 70
     1
102
RTVSPropertyOp46
 70
     1
102
RTVSPropertyOp47
 70
     1
102
RTVSPropertyOp48
 70
     1
102
RTVSPropertyOp49
 70
     1
102
RTVSPropertyOp50
 70
     1
102
RTVSPropertyOp51
 70
     0
102
RTVSPropertyOp52
 70
     0
102
RTVSPropertyOp53
 70
     1
102
RTVSPropertyOp54
 70
     1
102
RTVSPropertyOp55
 70
     1
102
RTVSPropertyOp56
 70
     1
102
RTVSPropertyOp57
 70
     1
102
RTVSPost2010Prop28
280
     0
102
RTVSPost2010PropOp28
 70
     1
102
RTVSPost2010Prop29
280
     1
102
RTVSPost2010PropOp29
 70
     1
102
RTVSPost2010Prop30
280
     1
102
RTVSPost2010PropOp30
 70
     1
102
RTVSPost2010Prop31
280
     0
102
RTVSPost2010PropOp31
 70
     1
102
RTVSPost2010Prop32
280
     0
102
RTVSPost2010PropOp32
 70
     1
102
RTVSPost2010Prop33
280
     0
102
RTVSPost2010PropOp33
 70
     1
102
RTVSPost2010Prop34
280
     0
102
RTVSPost2010PropOp34
 70
     1
102
RTVSPost2010Prop35
280
     0
102
RTVSPost2010PropOp35
 70
     1
102
RTVSPost2010Prop36
280
     0
102
RTVSPost2010PropOp36
 70
     1
102
RTVSPost2010Prop37
 90
       50
102
RTVSPost2010PropOp37
 70
     1
102
RTVSPost2010Prop38
140
0.0
102
RTVSPost2010PropOp38
 70
     1
102
RTVSPost2010Prop39
140
1.0
102
RTVSPost2010PropOp39
 70
     1
102
RTVSPost2010Prop40
 90
        0
102
RTVSPost2010PropOp40
 70
     1
102
RTVSPost2010Prop41ColorIndex
 90
       18
102
RTVSPost2010Prop41ColorRGB
 90
        0
102
RTVSPost2010PropOp41
 70
     1
102
RTVSPost2010Prop42
 90
       50
102
RTVSPost2010PropOp42
 70
     1
102
RTVSPost2010Prop43
 90
        3
102
RTVSPost2010PropOp43
 70
     1
102
RTVSPost2010Prop44ColorIndex
 90
        5
102
RTVSPost2010Prop44ColorRGB
 90
      255
102
RTVSPost2010PropOp44
 70
     1
102
RTVSPost2010Prop45
280
     0
102
RTVSPost2010PropOp45
 70
     1
102
RTVSPost2010Prop46
 90
       50
102
RTVSPost2010PropOp46
 70
     1
102
RTVSPost2010Prop47
 90
       50
102
RTVSPost2010PropOp47
 70
     1
102
RTVSPost2010Prop48
 90
       50
102
RTVSPost2010PropOp48
 70
     1
102
RTVSPost2010Prop49
280
     0
102
RTVSPost2010PropOp49
 70
     1
102
RTVSPost2010Prop50
 90
       50
102
RTVSPost2010PropOp50
 70
     1
102
RTVSPost2010Prop51ColorIndex
 90
      256
102
RTVSPost2010Prop51ColorRGB
 90
-16777216
102
RTVSPost2010PropOp51
 70
     0
102
RTVSPost2010Prop52
140
1.0
102
RTVSPost2010PropOp52
 70
     0
102
RTVSPost2010Prop53
 90
        2
102
RTVSPost2010PropOp53
 70
     1
102
RTVSPost2010Prop54
  1
strokes_ogs.tif
102
RTVSPost2010PropOp54
 70
     1
102
RTVSPost2010Prop55
280
     0
102
RTVSPost2010PropOp55
 70
     1
102
RTVSPost2010Prop56
140
1.0
102
RTVSPost2010PropOp56
 70
     1
102
RTVSPost2010Prop57
140
1.0
102
RTVSPost2010PropOp57
 70
     1
  0
XRECORD
  5
605
102
{ACAD_REACTORS
330
604
102
}
330
604
100
AcDbXrecord
280
     1
102
RTVSPropertyOp0
 70
     1
102
RTVSPropertyOp1
 70
     1
102
RTVSPropertyOp2
 70
     1
102
RTVSPropertyOp3
 70
     1
102
RTVSPropertyOp4
 70
     1
102
RTVSPropertyOp5
 70
     1
102
RTVSPropertyOp6
 70
     1
102
RTVSPropertyOp7
 70
     1
102
RTVSPropertyOp8
 70
     1
102
RTVSPropertyOp9
 70
     1
102
RTVSPropertyOp10
 70
     1
102
RTVSPropertyOp11
 70
     1
102
RTVSPropertyOp12
 70
     1
102
RTVSPropertyOp13
 70
     1
102
RTVSPropertyOp14
 70
     1
102
RTVSPropertyOp15
 70
     1
102
RTVSPropertyOp16
 70
     1
102
RTVSPropertyOp17
 70
     1
102
RTVSPropertyOp18
 70
     1
102
RTVSPropertyOp19
 70
     1
102
RTVSPropertyOp20
 70
     1
102
RTVSPropertyOp21
 70
     1
102
RTVSPropertyOp22
 70
     1
102
RTVSPropertyOp23
 70
     1
102
RTVSPropertyOp24
 70
     1
102
RTVSPropertyOp25
 70
     1
102
RTVSPropertyOp26
 70
     1
102
RTVSPropertyOp27
 70
     1
102
RTVSPropertyOp28
 70
     1
102
RTVSPropertyOp29
 70
     1
102
RTVSPropertyOp30
 70
     1
102
RTVSPropertyOp31
 70
     1
102
RTVSPropertyOp32
 70
     1
102
RTVSPropertyOp33
 70
     1
102
RTVSPropertyOp34
 70
     1
102
RTVSPropertyOp35
 70
     1
102
RTVSPropertyOp36
 70
     1
102
RTVSPropertyOp37
 70
     1
102
RTVSPropertyOp38
 70
     1
102
RTVSPropertyOp39
 70
     1
102
RTVSPropertyOp40
 70
     1
102
RTVSPropertyOp41
 70
     1
102
RTVSPropertyOp42
 70
     1
102
RTVSPropertyOp43
 70
     1
102
RTVSPropertyOp44
 70
     1
102
RTVSPropertyOp45
 70
     1
102
RTVSPropertyOp46
 70
     1
102
RTVSPropertyOp47
 70
     1
102
RTVSPropertyOp48
 70
     1
102
RTVSPropertyOp49
 70
     1
102
RTVSPropertyOp50
 70
     1
102
RTVSPropertyOp51
 70
     0
102
RTVSPropertyOp52
 70
     0
102
RTVSPropertyOp53
 70
     1
102
RTVSPropertyOp54
 70
     1
102
RTVSPropertyOp55
 70
     1
102
RTVSPropertyOp56
 70
     1
102
RTVSPropertyOp57
 70
     1
102
RTVSPost2010Prop28
280
     0
102
RTVSPost2010PropOp28
 70
     1
102
RTVSPost2010Prop29
280
     1
102
RTVSPost2010PropOp29
 70
     1
102
RTVSPost2010Prop30
280
     1
102
RTVSPost2010PropOp30
 70
     1
102
RTVSPost2010Prop31
280
     0
102
RTVSPost2010PropOp31
 70
     1
102
RTVSPost2010Prop32
280
     0
102
RTVSPost2010PropOp32
 70
     1
102
RTVSPost2010Prop33
280
     0
102
RTVSPost2010PropOp33
 70
     1
102
RTVSPost2010Prop34
280
     0
102
RTVSPost2010PropOp34
 70
     1
102
RTVSPost2010Prop35
280
     0
102
RTVSPost2010PropOp35
 70
     1
102
RTVSPost2010Prop36
280
     0
102
RTVSPost2010PropOp36
 70
     1
102
RTVSPost2010Prop37
 90
       50
102
RTVSPost2010PropOp37
 70
     1
102
RTVSPost2010Prop38
140
0.0
102
RTVSPost2010PropOp38
 70
     1
102
RTVSPost2010Prop39
140
1.0
102
RTVSPost2010PropOp39
 70
     1
102
RTVSPost2010Prop40
 90
        0
102
RTVSPost2010PropOp40
 70
     1
102
RTVSPost2010Prop41ColorIndex
 90
       18
102
RTVSPost2010Prop41ColorRGB
 90
        0
102
RTVSPost2010PropOp41
 70
     1
102
RTVSPost2010Prop42
 90
       50
102
RTVSPost2010PropOp42
 70
     1
102
RTVSPost2010Prop43
 90
        3
102
RTVSPost2010PropOp43
 70
     1
102
RTVSPost2010Prop44ColorIndex
 90
        5
102
RTVSPost2010Prop44ColorRGB
 90
      255
102
RTVSPost2010PropOp44
 70
     1
102
RTVSPost2010Prop45
280
     0
102
RTVSPost2010PropOp45
 70
     1
102
RTVSPost2010Prop46
 90
       50
102
RTVSPost2010PropOp46
 70
     1
102
RTVSPost2010Prop47
 90
       50
102
RTVSPost2010PropOp47
 70
     1
102
RTVSPost2010Prop48
 90
       50
102
RTVSPost2010PropOp48
 70
     1
102
RTVSPost2010Prop49
280
     0
102
RTVSPost2010PropOp49
 70
     1
102
RTVSPost2010Prop50
 90
       50
102
RTVSPost2010PropOp50
 70
     1
102
RTVSPost2010Prop51ColorIndex
 90
      256
102
RTVSPost2010Prop51ColorRGB
 90
-16777216
102
RTVSPost2010PropOp51
 70
     0
102
RTVSPost2010Prop52
140
1.0
102
RTVSPost2010PropOp52
 70
     0
102
RTVSPost2010Prop53
 90
        2
102
RTVSPost2010PropOp53
 70
     1
102
RTVSPost2010Prop54
  1
strokes_ogs.tif
102
RTVSPost2010PropOp54
 70
     1
102
RTVSPost2010Prop55
280
     0
102
RTVSPost2010PropOp55
 70
     1
102
RTVSPost2010Prop56
140
1.0
102
RTVSPost2010PropOp56
 70
     1
102
RTVSPost2010Prop57
140
1.0
102
RTVSPost2010PropOp57
 70
     1
  0
XRECORD
  5
5FF
102
{ACAD_REACTORS
330
5FE
102
}
330
5FE
100
AcDbXrecord
280
     1
102
RTVSPropertyOp0
 70
     1
102
RTVSPropertyOp1
 70
     1
102
RTVSPropertyOp2
 70
     1
102
RTVSPropertyOp3
 70
     1
102
RTVSPropertyOp4
 70
     1
102
RTVSPropertyOp5
 70
     1
102
RTVSPropertyOp6
 70
     1
102
RTVSPropertyOp7
 70
     1
102
RTVSPropertyOp8
 70
     1
102
RTVSPropertyOp9
 70
     1
102
RTVSPropertyOp10
 70
     1
102
RTVSPropertyOp11
 70
     1
102
RTVSPropertyOp12
 70
     1
102
RTVSPropertyOp13
 70
     1
102
RTVSPropertyOp14
 70
     1
102
RTVSPropertyOp15
 70
     1
102
RTVSPropertyOp16
 70
     1
102
RTVSPropertyOp17
 70
     1
102
RTVSPropertyOp18
 70
     1
102
RTVSPropertyOp19
 70
     1
102
RTVSPropertyOp20
 70
     1
102
RTVSPropertyOp21
 70
     1
102
RTVSPropertyOp22
 70
     1
102
RTVSPropertyOp23
 70
     1
102
RTVSPropertyOp24
 70
     1
102
RTVSPropertyOp25
 70
     1
102
RTVSPropertyOp26
 70
     1
102
RTVSPropertyOp27
 70
     1
102
RTVSPropertyOp28
 70
     1
102
RTVSPropertyOp29
 70
     1
102
RTVSPropertyOp30
 70
     1
102
RTVSPropertyOp31
 70
     1
102
RTVSPropertyOp32
 70
     1
102
RTVSPropertyOp33
 70
     1
102
RTVSPropertyOp34
 70
     1
102
RTVSPropertyOp35
 70
     1
102
RTVSPropertyOp36
 70
     1
102
RTVSPropertyOp37
 70
     1
102
RTVSPropertyOp38
 70
     1
102
RTVSPropertyOp39
 70
     1
102
RTVSPropertyOp40
 70
     1
102
RTVSPropertyOp41
 70
     1
102
RTVSPropertyOp42
 70
     1
102
RTVSPropertyOp43
 70
     1
102
RTVSPropertyOp44
 70
     1
102
RTVSPropertyOp45
 70
     1
102
RTVSPropertyOp46
 70
     1
102
RTVSPropertyOp47
 70
     1
102
RTVSPropertyOp48
 70
     1
102
RTVSPropertyOp49
 70
     1
102
RTVSPropertyOp50
 70
     1
102
RTVSPropertyOp51
 70
     0
102
RTVSPropertyOp52
 70
     0
102
RTVSPropertyOp53
 70
     1
102
RTVSPropertyOp54
 70
     1
102
RTVSPropertyOp55
 70
     1
102
RTVSPropertyOp56
 70
     1
102
RTVSPropertyOp57
 70
     1
102
RTVSPost2010Prop28
280
     0
102
RTVSPost2010PropOp28
 70
     1
102
RTVSPost2010Prop29
280
     1
102
RTVSPost2010PropOp29
 70
     1
102
RTVSPost2010Prop30
280
     1
102
RTVSPost2010PropOp30
 70
     1
102
RTVSPost2010Prop31
280
     0
102
RTVSPost2010PropOp31
 70
     1
102
RTVSPost2010Prop32
280
     0
102
RTVSPost2010PropOp32
 70
     1
102
RTVSPost2010Prop33
280
     0
102
RTVSPost2010PropOp33
 70
     1
102
RTVSPost2010Prop34
280
     0
102
RTVSPost2010PropOp34
 70
     1
102
RTVSPost2010Prop35
280
     0
102
RTVSPost2010PropOp35
 70
     1
102
RTVSPost2010Prop36
280
     0
102
RTVSPost2010PropOp36
 70
     1
102
RTVSPost2010Prop37
 90
       50
102
RTVSPost2010PropOp37
 70
     1
102
RTVSPost2010Prop38
140
0.0
102
RTVSPost2010PropOp38
 70
     1
102
RTVSPost2010Prop39
140
1.0
102
RTVSPost2010PropOp39
 70
     1
102
RTVSPost2010Prop40
 90
        0
102
RTVSPost2010PropOp40
 70
     1
102
RTVSPost2010Prop41ColorIndex
 90
       18
102
RTVSPost2010Prop41ColorRGB
 90
        0
102
RTVSPost2010PropOp41
 70
     1
102
RTVSPost2010Prop42
 90
       50
102
RTVSPost2010PropOp42
 70
     1
102
RTVSPost2010Prop43
 90
        3
102
RTVSPost2010PropOp43
 70
     1
102
RTVSPost2010Prop44ColorIndex
 90
        5
102
RTVSPost2010Prop44ColorRGB
 90
      255
102
RTVSPost2010PropOp44
 70
     1
102
RTVSPost2010Prop45
280
     0
102
RTVSPost2010PropOp45
 70
     1
102
RTVSPost2010Prop46
 90
       50
102
RTVSPost2010PropOp46
 70
     1
102
RTVSPost2010Prop47
 90
       50
102
RTVSPost2010PropOp47
 70
     1
102
RTVSPost2010Prop48
 90
       50
102
RTVSPost2010PropOp48
 70
     1
102
RTVSPost2010Prop49
280
     0
102
RTVSPost2010PropOp49
 70
     1
102
RTVSPost2010Prop50
 90
       50
102
RTVSPost2010PropOp50
 70
     1
102
RTVSPost2010Prop51ColorIndex
 90
      256
102
RTVSPost2010Prop51ColorRGB
 90
-16777216
102
RTVSPost2010PropOp51
 70
     0
102
RTVSPost2010Prop52
140
1.0
102
RTVSPost2010PropOp52
 70
     0
102
RTVSPost2010Prop53
 90
        2
102
RTVSPost2010PropOp53
 70
     1
102
RTVSPost2010Prop54
  1
strokes_ogs.tif
102
RTVSPost2010PropOp54
 70
     1
102
RTVSPost2010Prop55
280
     0
102
RTVSPost2010PropOp55
 70
     1
102
RTVSPost2010Prop56
140
1.0
102
RTVSPost2010PropOp56
 70
     1
102
RTVSPost2010Prop57
140
1.0
102
RTVSPost2010PropOp57
 70
     1
  0
XRECORD
  5
601
102
{ACAD_REACTORS
330
600
102
}
330
600
100
AcDbXrecord
280
     1
102
RTVSPropertyOp0
 70
     1
102
RTVSPropertyOp1
 70
     1
102
RTVSPropertyOp2
 70
     1
102
RTVSPropertyOp3
 70
     1
102
RTVSPropertyOp4
 70
     1
102
RTVSPropertyOp5
 70
     1
102
RTVSPropertyOp6
 70
     1
102
RTVSPropertyOp7
 70
     1
102
RTVSPropertyOp8
 70
     1
102
RTVSPropertyOp9
 70
     1
102
RTVSPropertyOp10
 70
     1
102
RTVSPropertyOp11
 70
     1
102
RTVSPropertyOp12
 70
     1
102
RTVSPropertyOp13
 70
     1
102
RTVSPropertyOp14
 70
     1
102
RTVSPropertyOp15
 70
     1
102
RTVSPropertyOp16
 70
     1
102
RTVSPropertyOp17
 70
     1
102
RTVSPropertyOp18
 70
     1
102
RTVSPropertyOp19
 70
     1
102
RTVSPropertyOp20
 70
     1
102
RTVSPropertyOp21
 70
     1
102
RTVSPropertyOp22
 70
     1
102
RTVSPropertyOp23
 70
     1
102
RTVSPropertyOp24
 70
     1
102
RTVSPropertyOp25
 70
     1
102
RTVSPropertyOp26
 70
     1
102
RTVSPropertyOp27
 70
     1
102
RTVSPropertyOp28
 70
     1
102
RTVSPropertyOp29
 70
     1
102
RTVSPropertyOp30
 70
     1
102
RTVSPropertyOp31
 70
     1
102
RTVSPropertyOp32
 70
     1
102
RTVSPropertyOp33
 70
     1
102
RTVSPropertyOp34
 70
     1
102
RTVSPropertyOp35
 70
     1
102
RTVSPropertyOp36
 70
     1
102
RTVSPropertyOp37
 70
     1
102
RTVSPropertyOp38
 70
     1
102
RTVSPropertyOp39
 70
     1
102
RTVSPropertyOp40
 70
     1
102
RTVSPropertyOp41
 70
     1
102
RTVSPropertyOp42
 70
     1
102
RTVSPropertyOp43
 70
     1
102
RTVSPropertyOp44
 70
     1
102
RTVSPropertyOp45
 70
     1
102
RTVSPropertyOp46
 70
     1
102
RTVSPropertyOp47
 70
     1
102
RTVSPropertyOp48
 70
     1
102
RTVSPropertyOp49
 70
     1
102
RTVSPropertyOp50
 70
     1
102
RTVSPropertyOp51
 70
     0
102
RTVSPropertyOp52
 70
     0
102
RTVSPropertyOp53
 70
     1
102
RTVSPropertyOp54
 70
     1
102
RTVSPropertyOp55
 70
     1
102
RTVSPropertyOp56
 70
     1
102
RTVSPropertyOp57
 70
     1
102
RTVSPost2010Prop28
280
     0
102
RTVSPost2010PropOp28
 70
     1
102
RTVSPost2010Prop29
280
     1
102
RTVSPost2010PropOp29
 70
     1
102
RTVSPost2010Prop30
280
     1
102
RTVSPost2010PropOp30
 70
     1
102
RTVSPost2010Prop31
280
     0
102
RTVSPost2010PropOp31
 70
     1
102
RTVSPost2010Prop32
280
     0
102
RTVSPost2010PropOp32
 70
     1
102
RTVSPost2010Prop33
280
     0
102
RTVSPost2010PropOp33
 70
     1
102
RTVSPost2010Prop34
280
     0
102
RTVSPost2010PropOp34
 70
     1
102
RTVSPost2010Prop35
280
     0
102
RTVSPost2010PropOp35
 70
     1
102
RTVSPost2010Prop36
280
     0
102
RTVSPost2010PropOp36
 70
     1
102
RTVSPost2010Prop37
 90
       50
102
RTVSPost2010PropOp37
 70
     1
102
RTVSPost2010Prop38
140
0.0
102
RTVSPost2010PropOp38
 70
     1
102
RTVSPost2010Prop39
140
1.0
102
RTVSPost2010PropOp39
 70
     1
102
RTVSPost2010Prop40
 90
        0
102
RTVSPost2010PropOp40
 70
     1
102
RTVSPost2010Prop41ColorIndex
 90
       18
102
RTVSPost2010Prop41ColorRGB
 90
        0
102
RTVSPost2010PropOp41
 70
     1
102
RTVSPost2010Prop42
 90
       50
102
RTVSPost2010PropOp42
 70
     1
102
RTVSPost2010Prop43
 90
        3
102
RTVSPost2010PropOp43
 70
     1
102
RTVSPost2010Prop44ColorIndex
 90
        5
102
RTVSPost2010Prop44ColorRGB
 90
      255
102
RTVSPost2010PropOp44
 70
     1
102
RTVSPost2010Prop45
280
     0
102
RTVSPost2010PropOp45
 70
     1
102
RTVSPost2010Prop46
 90
       50
102
RTVSPost2010PropOp46
 70
     1
102
RTVSPost2010Prop47
 90
       50
102
RTVSPost2010PropOp47
 70
     1
102
RTVSPost2010Prop48
 90
       50
102
RTVSPost2010PropOp48
 70
     1
102
RTVSPost2010Prop49
280
     0
102
RTVSPost2010PropOp49
 70
     1
102
RTVSPost2010Prop50
 90
       50
102
RTVSPost2010PropOp50
 70
     1
102
RTVSPost2010Prop51ColorIndex
 90
      256
102
RTVSPost2010Prop51ColorRGB
 90
-16777216
102
RTVSPost2010PropOp51
 70
     0
102
RTVSPost2010Prop52
140
1.0
102
RTVSPost2010PropOp52
 70
     0
102
RTVSPost2010Prop53
 90
        2
102
RTVSPost2010PropOp53
 70
     1
102
RTVSPost2010Prop54
  1
strokes_ogs.tif
102
RTVSPost2010PropOp54
 70
     1
102
RTVSPost2010Prop55
280
     0
102
RTVSPost2010PropOp55
 70
     1
102
RTVSPost2010Prop56
140
1.0
102
RTVSPost2010PropOp56
 70
     1
102
RTVSPost2010Prop57
140
1.0
102
RTVSPost2010PropOp57
 70
     1
  0
XRECORD
  5
5F1
102
{ACAD_REACTORS
330
5F0
102
}
330
5F0
100
AcDbXrecord
280
     1
102
RTVSPropertyOp0
 70
     1
102
RTVSPropertyOp1
 70
     1
102
RTVSPropertyOp2
 70
     1
102
RTVSPropertyOp3
 70
     1
102
RTVSPropertyOp4
 70
     1
102
RTVSPropertyOp5
 70
     1
102
RTVSPropertyOp6
 70
     1
102
RTVSPropertyOp7
 70
     1
102
RTVSPropertyOp8
 70
     1
102
RTVSPropertyOp9
 70
     1
102
RTVSPropertyOp10
 70
     1
102
RTVSPropertyOp11
 70
     1
102
RTVSPropertyOp12
 70
     1
102
RTVSPropertyOp13
 70
     1
102
RTVSPropertyOp14
 70
     1
102
RTVSPropertyOp15
 70
     1
102
RTVSPropertyOp16
 70
     1
102
RTVSPropertyOp17
 70
     1
102
RTVSPropertyOp18
 70
     1
102
RTVSPropertyOp19
 70
     1
102
RTVSPropertyOp20
 70
     1
102
RTVSPropertyOp21
 70
     1
102
RTVSPropertyOp22
 70
     1
102
RTVSPropertyOp23
 70
     1
102
RTVSPropertyOp24
 70
     1
102
RTVSPropertyOp25
 70
     1
102
RTVSPropertyOp26
 70
     1
102
RTVSPropertyOp27
 70
     1
102
RTVSPropertyOp28
 70
     1
102
RTVSPropertyOp29
 70
     1
102
RTVSPropertyOp30
 70
     1
102
RTVSPropertyOp31
 70
     1
102
RTVSPropertyOp32
 70
     1
102
RTVSPropertyOp33
 70
     1
102
RTVSPropertyOp34
 70
     1
102
RTVSPropertyOp35
 70
     1
102
RTVSPropertyOp36
 70
     1
102
RTVSPropertyOp37
 70
     1
102
RTVSPropertyOp38
 70
     1
102
RTVSPropertyOp39
 70
     1
102
RTVSPropertyOp40
 70
     1
102
RTVSPropertyOp41
 70
     1
102
RTVSPropertyOp42
 70
     1
102
RTVSPropertyOp43
 70
     1
102
RTVSPropertyOp44
 70
     1
102
RTVSPropertyOp45
 70
     1
102
RTVSPropertyOp46
 70
     1
102
RTVSPropertyOp47
 70
     1
102
RTVSPropertyOp48
 70
     1
102
RTVSPropertyOp49
 70
     1
102
RTVSPropertyOp50
 70
     1
102
RTVSPropertyOp51
 70
     0
102
RTVSPropertyOp52
 70
     0
102
RTVSPropertyOp53
 70
     1
102
RTVSPropertyOp54
 70
     1
102
RTVSPropertyOp55
 70
     1
102
RTVSPropertyOp56
 70
     1
102
RTVSPropertyOp57
 70
     1
102
RTVSPost2010Prop28
280
     0
102
RTVSPost2010PropOp28
 70
     1
102
RTVSPost2010Prop29
280
     1
102
RTVSPost2010PropOp29
 70
     1
102
RTVSPost2010Prop30
280
     1
102
RTVSPost2010PropOp30
 70
     1
102
RTVSPost2010Prop31
280
     0
102
RTVSPost2010PropOp31
 70
     1
102
RTVSPost2010Prop32
280
     0
102
RTVSPost2010PropOp32
 70
     1
102
RTVSPost2010Prop33
280
     0
102
RTVSPost2010PropOp33
 70
     1
102
RTVSPost2010Prop34
280
     0
102
RTVSPost2010PropOp34
 70
     1
102
RTVSPost2010Prop35
280
     0
102
RTVSPost2010PropOp35
 70
     1
102
RTVSPost2010Prop36
280
     0
102
RTVSPost2010PropOp36
 70
     1
102
RTVSPost2010Prop37
 90
       50
102
RTVSPost2010PropOp37
 70
     1
102
RTVSPost2010Prop38
140
0.0
102
RTVSPost2010PropOp38
 70
     1
102
RTVSPost2010Prop39
140
1.0
102
RTVSPost2010PropOp39
 70
     1
102
RTVSPost2010Prop40
 90
        0
102
RTVSPost2010PropOp40
 70
     1
102
RTVSPost2010Prop41ColorIndex
 90
       18
102
RTVSPost2010Prop41ColorRGB
 90
        0
102
RTVSPost2010PropOp41
 70
     1
102
RTVSPost2010Prop42
 90
       50
102
RTVSPost2010PropOp42
 70
     1
102
RTVSPost2010Prop43
 90
        3
102
RTVSPost2010PropOp43
 70
     1
102
RTVSPost2010Prop44ColorIndex
 90
        5
102
RTVSPost2010Prop44ColorRGB
 90
      255
102
RTVSPost2010PropOp44
 70
     1
102
RTVSPost2010Prop45
280
     0
102
RTVSPost2010PropOp45
 70
     1
102
RTVSPost2010Prop46
 90
       50
102
RTVSPost2010PropOp46
 70
     1
102
RTVSPost2010Prop47
 90
       50
102
RTVSPost2010PropOp47
 70
     1
102
RTVSPost2010Prop48
 90
       50
102
RTVSPost2010PropOp48
 70
     1
102
RTVSPost2010Prop49
280
     0
102
RTVSPost2010PropOp49
 70
     1
102
RTVSPost2010Prop50
 90
       50
102
RTVSPost2010PropOp50
 70
     1
102
RTVSPost2010Prop51ColorIndex
 90
      256
102
RTVSPost2010Prop51ColorRGB
 90
-16777216
102
RTVSPost2010PropOp51
 70
     0
102
RTVSPost2010Prop52
140
1.0
102
RTVSPost2010PropOp52
 70
     0
102
RTVSPost2010Prop53
 90
        2
102
RTVSPost2010PropOp53
 70
     1
102
RTVSPost2010Prop54
  1
strokes_ogs.tif
102
RTVSPost2010PropOp54
 70
     1
102
RTVSPost2010Prop55
280
     0
102
RTVSPost2010PropOp55
 70
     1
102
RTVSPost2010Prop56
140
1.0
102
RTVSPost2010PropOp56
 70
     1
102
RTVSPost2010Prop57
140
1.0
102
RTVSPost2010PropOp57
 70
     1
  0
XRECORD
  5
5DB
102
{ACAD_REACTORS
330
5DA
102
}
330
5DA
100
AcDbXrecord
280
     1
102
RTVSPropertyOp0
 70
     1
102
RTVSPropertyOp1
 70
     1
102
RTVSPropertyOp2
 70
     1
102
RTVSPropertyOp3
 70
     1
102
RTVSPropertyOp4
 70
     1
102
RTVSPropertyOp5
 70
     1
102
RTVSPropertyOp6
 70
     1
102
RTVSPropertyOp7
 70
     1
102
RTVSPropertyOp8
 70
     1
102
RTVSPropertyOp9
 70
     1
102
RTVSPropertyOp10
 70
     1
102
RTVSPropertyOp11
 70
     1
102
RTVSPropertyOp12
 70
     1
102
RTVSPropertyOp13
 70
     1
102
RTVSPropertyOp14
 70
     1
102
RTVSPropertyOp15
 70
     1
102
RTVSPropertyOp16
 70
     1
102
RTVSPropertyOp17
 70
     1
102
RTVSPropertyOp18
 70
     1
102
RTVSPropertyOp19
 70
     1
102
RTVSPropertyOp20
 70
     1
102
RTVSPropertyOp21
 70
     1
102
RTVSPropertyOp22
 70
     1
102
RTVSPropertyOp23
 70
     1
102
RTVSPropertyOp24
 70
     1
102
RTVSPropertyOp25
 70
     1
102
RTVSPropertyOp26
 70
     1
102
RTVSPropertyOp27
 70
     1
102
RTVSPropertyOp28
 70
     1
102
RTVSPropertyOp29
 70
     1
102
RTVSPropertyOp30
 70
     1
102
RTVSPropertyOp31
 70
     1
102
RTVSPropertyOp32
 70
     1
102
RTVSPropertyOp33
 70
     1
102
RTVSPropertyOp34
 70
     1
102
RTVSPropertyOp35
 70
     1
102
RTVSPropertyOp36
 70
     1
102
RTVSPropertyOp37
 70
     1
102
RTVSPropertyOp38
 70
     1
102
RTVSPropertyOp39
 70
     1
102
RTVSPropertyOp40
 70
     1
102
RTVSPropertyOp41
 70
     1
102
RTVSPropertyOp42
 70
     1
102
RTVSPropertyOp43
 70
     1
102
RTVSPropertyOp44
 70
     1
102
RTVSPropertyOp45
 70
     1
102
RTVSPropertyOp46
 70
     1
102
RTVSPropertyOp47
 70
     1
102
RTVSPropertyOp48
 70
     1
102
RTVSPropertyOp49
 70
     1
102
RTVSPropertyOp50
 70
     1
102
RTVSPropertyOp51
 70
     0
102
RTVSPropertyOp52
 70
     0
102
RTVSPropertyOp53
 70
     1
102
RTVSPropertyOp54
 70
     1
102
RTVSPropertyOp55
 70
     1
102
RTVSPropertyOp56
 70
     1
102
RTVSPropertyOp57
 70
     1
102
RTVSPost2010Prop28
280
     0
102
RTVSPost2010PropOp28
 70
     1
102
RTVSPost2010Prop29
280
     1
102
RTVSPost2010PropOp29
 70
     1
102
RTVSPost2010Prop30
280
     1
102
RTVSPost2010PropOp30
 70
     1
102
RTVSPost2010Prop31
280
     0
102
RTVSPost2010PropOp31
 70
     1
102
RTVSPost2010Prop32
280
     0
102
RTVSPost2010PropOp32
 70
     1
102
RTVSPost2010Prop33
280
     0
102
RTVSPost2010PropOp33
 70
     1
102
RTVSPost2010Prop34
280
     0
102
RTVSPost2010PropOp34
 70
     1
102
RTVSPost2010Prop35
280
     0
102
RTVSPost2010PropOp35
 70
     1
102
RTVSPost2010Prop36
280
     0
102
RTVSPost2010PropOp36
 70
     1
102
RTVSPost2010Prop37
 90
       50
102
RTVSPost2010PropOp37
 70
     1
102
RTVSPost2010Prop38
140
0.0
102
RTVSPost2010PropOp38
 70
     1
102
RTVSPost2010Prop39
140
1.0
102
RTVSPost2010PropOp39
 70
     1
102
RTVSPost2010Prop40
 90
        0
102
RTVSPost2010PropOp40
 70
     1
102
RTVSPost2010Prop41ColorIndex
 90
       18
102
RTVSPost2010Prop41ColorRGB
 90
        0
102
RTVSPost2010PropOp41
 70
     1
102
RTVSPost2010Prop42
 90
       50
102
RTVSPost2010PropOp42
 70
     1
102
RTVSPost2010Prop43
 90
        3
102
RTVSPost2010PropOp43
 70
     1
102
RTVSPost2010Prop44ColorIndex
 90
        5
102
RTVSPost2010Prop44ColorRGB
 90
      255
102
RTVSPost2010PropOp44
 70
     1
102
RTVSPost2010Prop45
280
     0
102
RTVSPost2010PropOp45
 70
     1
102
RTVSPost2010Prop46
 90
       50
102
RTVSPost2010PropOp46
 70
     1
102
RTVSPost2010Prop47
 90
       50
102
RTVSPost2010PropOp47
 70
     1
102
RTVSPost2010Prop48
 90
       50
102
RTVSPost2010PropOp48
 70
     1
102
RTVSPost2010Prop49
280
     0
102
RTVSPost2010PropOp49
 70
     1
102
RTVSPost2010Prop50
 90
       50
102
RTVSPost2010PropOp50
 70
     1
102
RTVSPost2010Prop51ColorIndex
 90
      256
102
RTVSPost2010Prop51ColorRGB
 90
-16777216
102
RTVSPost2010PropOp51
 70
     0
102
RTVSPost2010Prop52
140
1.0
102
RTVSPost2010PropOp52
 70
     0
102
RTVSPost2010Prop53
 90
        2
102
RTVSPost2010PropOp53
 70
     1
102
RTVSPost2010Prop54
  1
strokes_ogs.tif
102
RTVSPost2010PropOp54
 70
     1
102
RTVSPost2010Prop55
280
     0
102
RTVSPost2010PropOp55
 70
     1
102
RTVSPost2010Prop56
140
1.0
102
RTVSPost2010PropOp56
 70
     1
102
RTVSPost2010Prop57
140
1.0
102
RTVSPost2010PropOp57
 70
     1
  0
XRECORD
  5
603
102
{ACAD_REACTORS
330
602
102
}
330
602
100
AcDbXrecord
280
     1
102
RTVSPropertyOp0
 70
     1
102
RTVSPropertyOp1
 70
     1
102
RTVSPropertyOp2
 70
     1
102
RTVSPropertyOp3
 70
     1
102
RTVSPropertyOp4
 70
     1
102
RTVSPropertyOp5
 70
     1
102
RTVSPropertyOp6
 70
     1
102
RTVSPropertyOp7
 70
     1
102
RTVSPropertyOp8
 70
     1
102
RTVSPropertyOp9
 70
     1
102
RTVSPropertyOp10
 70
     1
102
RTVSPropertyOp11
 70
     1
102
RTVSPropertyOp12
 70
     1
102
RTVSPropertyOp13
 70
     1
102
RTVSPropertyOp14
 70
     1
102
RTVSPropertyOp15
 70
     1
102
RTVSPropertyOp16
 70
     1
102
RTVSPropertyOp17
 70
     1
102
RTVSPropertyOp18
 70
     1
102
RTVSPropertyOp19
 70
     1
102
RTVSPropertyOp20
 70
     1
102
RTVSPropertyOp21
 70
     1
102
RTVSPropertyOp22
 70
     1
102
RTVSPropertyOp23
 70
     1
102
RTVSPropertyOp24
 70
     1
102
RTVSPropertyOp25
 70
     1
102
RTVSPropertyOp26
 70
     1
102
RTVSPropertyOp27
 70
     1
102
RTVSPropertyOp28
 70
     1
102
RTVSPropertyOp29
 70
     1
102
RTVSPropertyOp30
 70
     1
102
RTVSPropertyOp31
 70
     1
102
RTVSPropertyOp32
 70
     1
102
RTVSPropertyOp33
 70
     1
102
RTVSPropertyOp34
 70
     1
102
RTVSPropertyOp35
 70
     1
102
RTVSPropertyOp36
 70
     1
102
RTVSPropertyOp37
 70
     1
102
RTVSPropertyOp38
 70
     1
102
RTVSPropertyOp39
 70
     1
102
RTVSPropertyOp40
 70
     1
102
RTVSPropertyOp41
 70
     1
102
RTVSPropertyOp42
 70
     1
102
RTVSPropertyOp43
 70
     1
102
RTVSPropertyOp44
 70
     1
102
RTVSPropertyOp45
 70
     1
102
RTVSPropertyOp46
 70
     1
102
RTVSPropertyOp47
 70
     1
102
RTVSPropertyOp48
 70
     1
102
RTVSPropertyOp49
 70
     1
102
RTVSPropertyOp50
 70
     1
102
RTVSPropertyOp51
 70
     0
102
RTVSPropertyOp52
 70
     0
102
RTVSPropertyOp53
 70
     1
102
RTVSPropertyOp54
 70
     1
102
RTVSPropertyOp55
 70
     1
102
RTVSPropertyOp56
 70
     1
102
RTVSPropertyOp57
 70
     1
102
RTVSPost2010Prop28
280
     0
102
RTVSPost2010PropOp28
 70
     1
102
RTVSPost2010Prop29
280
     1
102
RTVSPost2010PropOp29
 70
     1
102
RTVSPost2010Prop30
280
     1
102
RTVSPost2010PropOp30
 70
     1
102
RTVSPost2010Prop31
280
     0
102
RTVSPost2010PropOp31
 70
     1
102
RTVSPost2010Prop32
280
     0
102
RTVSPost2010PropOp32
 70
     1
102
RTVSPost2010Prop33
280
     0
102
RTVSPost2010PropOp33
 70
     1
102
RTVSPost2010Prop34
280
     0
102
RTVSPost2010PropOp34
 70
     1
102
RTVSPost2010Prop35
280
     0
102
RTVSPost2010PropOp35
 70
     1
102
RTVSPost2010Prop36
280
     0
102
RTVSPost2010PropOp36
 70
     1
102
RTVSPost2010Prop37
 90
       50
102
RTVSPost2010PropOp37
 70
     1
102
RTVSPost2010Prop38
140
0.0
102
RTVSPost2010PropOp38
 70
     1
102
RTVSPost2010Prop39
140
1.0
102
RTVSPost2010PropOp39
 70
     1
102
RTVSPost2010Prop40
 90
        0
102
RTVSPost2010PropOp40
 70
     1
102
RTVSPost2010Prop41ColorIndex
 90
       18
102
RTVSPost2010Prop41ColorRGB
 90
        0
102
RTVSPost2010PropOp41
 70
     1
102
RTVSPost2010Prop42
 90
       50
102
RTVSPost2010PropOp42
 70
     1
102
RTVSPost2010Prop43
 90
        3
102
RTVSPost2010PropOp43
 70
     1
102
RTVSPost2010Prop44ColorIndex
 90
        5
102
RTVSPost2010Prop44ColorRGB
 90
      255
102
RTVSPost2010PropOp44
 70
     1
102
RTVSPost2010Prop45
280
     0
102
RTVSPost2010PropOp45
 70
     1
102
RTVSPost2010Prop46
 90
       50
102
RTVSPost2010PropOp46
 70
     1
102
RTVSPost2010Prop47
 90
       50
102
RTVSPost2010PropOp47
 70
     1
102
RTVSPost2010Prop48
 90
       50
102
RTVSPost2010PropOp48
 70
     1
102
RTVSPost2010Prop49
280
     0
102
RTVSPost2010PropOp49
 70
     1
102
RTVSPost2010Prop50
 90
       50
102
RTVSPost2010PropOp50
 70
     1
102
RTVSPost2010Prop51ColorIndex
 90
      256
102
RTVSPost2010Prop51ColorRGB
 90
-16777216
102
RTVSPost2010PropOp51
 70
     0
102
RTVSPost2010Prop52
140
1.0
102
RTVSPost2010PropOp52
 70
     0
102
RTVSPost2010Prop53
 90
        2
102
RTVSPost2010PropOp53
 70
     1
102
RTVSPost2010Prop54
  1
strokes_ogs.tif
102
RTVSPost2010PropOp54
 70
     1
102
RTVSPost2010Prop55
280
     0
102
RTVSPost2010PropOp55
 70
     1
102
RTVSPost2010Prop56
140
1.0
102
RTVSPost2010PropOp56
 70
     1
102
RTVSPost2010Prop57
140
1.0
102
RTVSPost2010PropOp57
 70
     1
  0
ENDSEC
  0
EOF
