  0
SECTION
  2
HEADER
  9
$ACADVER
  1
AC1015
  9
$ACADMAINTVER
 70
     6
  9
$DWGCODEPAGE
  3
ANSI_932
  9
$INSBASE
 10
1615.96564246102
 20
211.2841329584403
 30
0.0
  9
$EXTMIN
 10
67.00917252277708
 20
34.47356180931877
 30
0.0
  9
$EXTMAX
 10
1084.951357369977
 20
723.1451540957099
 30
0.0
  9
$LIMMIN
 10
0.0
 20
0.0
  9
$LIMMAX
 10
816.5000000000001
 20
565.0
  9
$ORTHOMODE
 70
     0
  9
$REGENMODE
 70
     1
  9
$FILLMODE
 70
     1
  9
$QTEXTMODE
 70
     0
  9
$MIRRTEXT
 70
     1
  9
$LTSCALE
 40
5.0
  9
$ATTMODE
 70
     1
  9
$TEXTSIZE
 40
7.5
  9
$TRACEWID
 40
0.05
  9
$TEXTSTYLE
  7
KANJI
  9
$CLAYER
  8
2
  9
$CELTYPE
  6
BYLAYER
  9
$CECOLOR
 62
   256
  9
$CELTSCALE
 40
1.0
  9
$DISPSILH
 70
     0
  9
$DIMSCALE
 40
2.5
  9
$DIMASZ
 40
2.0
  9
$DIMEXO
 40
0.5
  9
$DIMDLI
 40
0.0
  9
$DIMRND
 40
0.0
  9
$DIMDLE
 40
0.0
  9
$DIMEXE
 40
1.0
  9
$DIMTP
 40
0.0
  9
$DIMTM
 40
0.0
  9
$DIMTXT
 40
3.0
  9
$DIMCEN
 40
0.09
  9
$DIMTSZ
 40
0.0
  9
$DIMTOL
 70
     0
  9
$DIMLIM
 70
     0
  9
$DIMTIH
 70
     0
  9
$DIMTOH
 70
     0
  9
$DIMSE1
 70
     0
  9
$DIMSE2
 70
     0
  9
$DIMTAD
 70
     0
  9
$DIMZIN
 70
     8
  9
$DIMBLK
  1

  9
$DIMASO
 70
     0
  9
$DIMSHO
 70
     0
  9
$DIMPOST
  1

  9
$DIMAPOST
  1

  9
$DIMALT
 70
     0
  9
$DIMALTD
 70
     2
  9
$DIMALTF
 40
25.4
  9
$DIMLFAC
 40
1.0
  9
$DIMTOFL
 70
     1
  9
$DIMTVP
 40
1.0
  9
$DIMTIX
 70
     1
  9
$DIMSOXD
 70
     1
  9
$DIMSAH
 70
     0
  9
$DIMBLK1
  1

  9
$DIMBLK2
  1

  9
$DIMSTYLE
  2
STANDARD
  9
$DIMCLRD
 70
   256
  9
$DIMCLRE
 70
   256
  9
$DIMCLRT
 70
   256
  9
$DIMTFAC
 40
1.0
  9
$DIMGAP
 40
0.09
  9
$DIMJUST
 70
     0
  9
$DIMSD1
 70
     0
  9
$DIMSD2
 70
     0
  9
$DIMTOLJ
 70
     1
  9
$DIMTZIN
 70
     0
  9
$DIMALTZ
 70
     0
  9
$DIMALTTZ
 70
     0
  9
$DIMUPT
 70
     0
  9
$DIMDEC
 70
     1
  9
$DIMTDEC
 70
     4
  9
$DIMALTU
 70
     2
  9
$DIMALTTD
 70
     2
  9
$DIMTXSTY
  7
STANDARD
  9
$DIMAUNIT
 70
     0
  9
$DIMADEC
 70
     0
  9
$DIMALTRND
 40
0.0
  9
$DIMAZIN
 70
     0
  9
$DIMDSEP
 70
    46
  9
$DIMATFIT
 70
     3
  9
$DIMFRAC
 70
     0
  9
$DIMLDRBLK
  1

  9
$DIMLUNIT
 70
     2
  9
$DIMLWD
 70
    -2
  9
$DIMLWE
 70
    -2
  9
$DIMTMOVE
 70
     0
  9
$LUNITS
 70
     2
  9
$LUPREC
 70
     3
  9
$SKETCHINC
 40
0.1
  9
$FILLETRAD
 40
2.0
  9
$AUNITS
 70
     0
  9
$AUPREC
 70
     3
  9
$MENU
  1
C:\R13\WIN\SUPPORT\ACADFULL
  9
$ELEVATION
 40
0.0
  9
$PELEVATION
 40
0.0
  9
$THICKNESS
 40
0.0
  9
$LIMCHECK
 70
     0
  9
$CHAMFERA
 40
0.0
  9
$CHAMFERB
 40
0.0
  9
$CHAMFERC
 40
0.0
  9
$CHAMFERD
 40
0.0
  9
$SKPOLY
 70
     0
  9
$TDCREATE
 40
2457528.875073981
  9
$TDUCREATE
 40
2457528.500073981
  9
$TDUPDATE
 40
2457870.600664363
  9
$TDUUPDATE
 40
2457870.225664363
  9
$TDINDWG
 40
0.0078713542
  9
$TDUSRTIMER
 40
0.0078703704
  9
$USRTIMER
 70
     1
  9
$ANGBASE
 50
0.0
  9
$ANGDIR
 70
     0
  9
$PDMODE
 70
     0
  9
$PDSIZE
 40
0.0
  9
$PLINEWID
 40
0.0
  9
$SPLFRAME
 70
     0
  9
$SPLINETYPE
 70
     6
  9
$SPLINESEGS
 70
     8
  9
$HANDSEED
  5
5E0
  9
$SURFTAB1
 70
     6
  9
$SURFTAB2
 70
     6
  9
$SURFTYPE
 70
     6
  9
$SURFU
 70
     6
  9
$SURFV
 70
     6
  9
$UCSBASE
  2

  9
$UCSNAME
  2

  9
$UCSORG
 10
0.0
 20
0.0
 30
0.0
  9
$UCSXDIR
 10
1.0
 20
0.0
 30
0.0
  9
$UCSYDIR
 10
0.0
 20
1.0
 30
0.0
  9
$UCSORTHOREF
  2

  9
$UCSORTHOVIEW
 70
     0
  9
$UCSORGTOP
 10
0.0
 20
0.0
 30
0.0
  9
$UCSORGBOTTOM
 10
0.0
 20
0.0
 30
0.0
  9
$UCSORGLEFT
 10
0.0
 20
0.0
 30
0.0
  9
$UCSORGRIGHT
 10
0.0
 20
0.0
 30
0.0
  9
$UCSORGFRONT
 10
0.0
 20
0.0
 30
0.0
  9
$UCSORGBACK
 10
0.0
 20
0.0
 30
0.0
  9
$PUCSBASE
  2

  9
$PUCSNAME
  2

  9
$PUCSORG
 10
0.0
 20
0.0
 30
0.0
  9
$PUCSXDIR
 10
1.0
 20
0.0
 30
0.0
  9
$PUCSYDIR
 10
0.0
 20
1.0
 30
0.0
  9
$PUCSORTHOREF
  2

  9
$PUCSORTHOVIEW
 70
     0
  9
$PUCSORGTOP
 10
0.0
 20
0.0
 30
0.0
  9
$PUCSORGBOTTOM
 10
0.0
 20
0.0
 30
0.0
  9
$PUCSORGLEFT
 10
0.0
 20
0.0
 30
0.0
  9
$PUCSORGRIGHT
 10
0.0
 20
0.0
 30
0.0
  9
$PUCSORGFRONT
 10
0.0
 20
0.0
 30
0.0
  9
$PUCSORGBACK
 10
0.0
 20
0.0
 30
0.0
  9
$USERI1
 70
     0
  9
$USERI2
 70
     0
  9
$USERI3
 70
     0
  9
$USERI4
 70
     0
  9
$USERI5
 70
     0
  9
$USERR1
 40
0.0
  9
$USERR2
 40
0.0
  9
$USERR3
 40
0.0
  9
$USERR4
 40
2448925.372986111
  9
$USERR5
 40
0.04166667
  9
$WORLDVIEW
 70
     1
  9
$SHADEDGE
 70
     3
  9
$SHADEDIF
 70
    70
  9
$TILEMODE
 70
     1
  9
$MAXACTVP
 70
    16
  9
$PINSBASE
 10
0.0
 20
0.0
 30
0.0
  9
$PLIMCHECK
 70
     0
  9
$PEXTMIN
 10
1.000000000000000E+20
 20
1.000000000000000E+20
 30
1.000000000000000E+20
  9
$PEXTMAX
 10
-1.000000000000000E+20
 20
-1.000000000000000E+20
 30
-1.000000000000000E+20
  9
$PLIMMIN
 10
0.0
 20
0.0
  9
$PLIMMAX
 10
12.0
 20
9.0
  9
$UNITMODE
 70
     0
  9
$VISRETAIN
 70
     0
  9
$PLINEGEN
 70
     0
  9
$PSLTSCALE
 70
     0
  9
$TREEDEPTH
 70
  3020
  9
$CMLSTYLE
  2
STANDARD
  9
$CMLJUST
 70
     0
  9
$CMLSCALE
 40
1.0
  9
$PROXYGRAPHICS
 70
     1
  9
$MEASUREMENT
 70
     0
  9
$CELWEIGHT
370
    -1
  9
$ENDCAPS
280
     0
  9
$JOINSTYLE
280
     0
  9
$LWDISPLAY
290
     0
  9
$INSUNITS
 70
     0
  9
$HYPERLINKBASE
  1

  9
$STYLESHEET
  1
monochrome.ctb
  9
$XEDIT
290
     1
  9
$CEPSNTYPE
380
     0
  9
$PSTYLEMODE
290
     1
  9
$FINGERPRINTGUID
  2
{BA8486BD-1A7E-4FFB-8941-E80541FD545D}
  9
$VERSIONGUID
  2
{DB7580A4-391C-4C40-8DB2-EB97648A5FEB}
  9
$EXTNAMES
290
     1
  9
$PSVPSCALE
 40
0.0
  9
$OLESTARTUP
290
     0
  0
ENDSEC
  0
SECTION
  2
CLASSES
  0
CLASS
  1
ACDBDICTIONARYWDFLT
  2
AcDbDictionaryWithDefault
  3
ObjectDBX Classes
 90
        0
280
     0
281
     0
  0
CLASS
  1
MATERIAL
  2
AcDbMaterial
  3
ObjectDBX Classes
 90
     1153
280
     0
281
     0
  0
CLASS
  1
SORTENTSTABLE
  2
AcDbSortentsTable
  3
ObjectDBX Classes
 90
        0
280
     0
281
     0
  0
CLASS
  1
VISUALSTYLE
  2
AcDbVisualStyle
  3
ObjectDBX Classes
 90
     4095
280
     0
281
     0
  0
CLASS
  1
SCALE
  2
AcDbScale
  3
ObjectDBX Classes
 90
     1153
280
     0
281
     0
  0
CLASS
  1
DICTIONARYVAR
  2
AcDbDictionaryVar
  3
ObjectDBX Classes
 90
        0
280
     0
281
     0
  0
CLASS
  1
MLEADERSTYLE
  2
AcDbMLeaderStyle
  3
ACDB_MLEADERSTYLE_CLASS
 90
     4095
280
     0
281
     0
  0
CLASS
  1
TABLESTYLE
  2
AcDbTableStyle
  3
ObjectDBX Classes
 90
     4095
280
     0
281
     0
  0
CLASS
  1
ACDBPLACEHOLDER
  2
AcDbPlaceHolder
  3
ObjectDBX Classes
 90
        0
280
     0
281
     0
  0
CLASS
  1
LAYOUT
  2
AcDbLayout
  3
ObjectDBX Classes
 90
        0
280
     0
281
     0
  0
ENDSEC
  0
SECTION
  2
TABLES
  0
TABLE
  2
VPORT
  5
2D
102
{ACAD_XDICTIONARY
360
5A5
102
}
330
0
100
AcDbSymbolTable
 70
     1
  0
VPORT
  5
34
330
2D
100
AcDbSymbolTableRecord
100
AcDbViewportTableRecord
  2
*ACTIVE
 70
     0
 10
0.0
 20
0.0
 11
1.0
 21
1.0
 12
732.2162943750194
 22
407.5647475647539
 13
0.0
 23
0.0
 14
1.0
 24
1.0
 15
50.0
 25
50.0
 16
0.0
 26
0.0
 36
1.0
 17
0.0
 27
0.0
 37
0.0
 40
788.6285912545338
 41
2.177611940298507
 42
50.0
 43
0.0
 44
0.0
 50
0.0
 51
0.0
 71
     0
 72
  5000
 73
     1
 74
     0
 75
     0
 76
     0
 77
     0
 78
     0
281
     0
 65
     1
110
0.0
120
0.0
130
0.0
111
1.0
121
0.0
131
0.0
112
0.0
122
1.0
132
0.0
 79
     0
146
0.0
1001
ACAD_NAV_VCDISPLAY
1070
     3
  0
ENDTAB
  0
TABLE
  2
LTYPE
  5
F
330
0
100
AcDbSymbolTable
 70
     2
  0
LTYPE
  5
10
330
F
100
AcDbSymbolTableRecord
100
AcDbLinetypeTableRecord
  2
BYBLOCK
 70
     0
  3

 72
    65
 73
     0
 40
0.0
  0
LTYPE
  5
11
330
F
100
AcDbSymbolTableRecord
100
AcDbLinetypeTableRecord
  2
BYLAYER
 70
     0
  3

 72
    65
 73
     0
 40
0.0
  0
LTYPE
  5
E
330
F
100
AcDbSymbolTableRecord
100
AcDbLinetypeTableRecord
  2
CONTINUOUS
 70
     0
  3
Solid line
 72
    65
 73
     0
 40
0.0
  0
LTYPE
  5
99
330
F
100
AcDbSymbolTableRecord
100
AcDbLinetypeTableRecord
  2
CENTER
 70
     0
  3
____ _ ____ _ ____ _ ____ _ ____ _ ____ _ ____
 72
    65
 73
     4
 40
2.0
 49
1.25
 74
     0
 49
-0.25
 74
     0
 49
0.25
 74
     0
 49
-0.25
 74
     0
  0
ENDTAB
  0
TABLE
  2
LAYER
  5
2
102
{ACAD_XDICTIONARY
360
3
102
}
330
0
100
AcDbSymbolTable
 70
     7
  0
LAYER
  5
1F
102
{ACAD_XDICTIONARY
360
20
102
}
330
2
100
AcDbSymbolTableRecord
100
AcDbLayerTableRecord
  2
0
 70
     0
 62
     7
  6
CONTINUOUS
370
    -3
390
7
  0
LAYER
  5
D1
102
{ACAD_XDICTIONARY
360
D2
102
}
330
2
100
AcDbSymbolTableRecord
100
AcDbLayerTableRecord
  2
1
 70
     0
 62
     9
  6
CONTINUOUS
370
    -3
390
7
  0
LAYER
  5
1
102
{ACAD_XDICTIONARY
360
5
102
}
330
2
100
AcDbSymbolTableRecord
100
AcDbLayerTableRecord
  2
2
 70
     0
 62
     4
  6
CONTINUOUS
370
    -3
390
7
  0
LAYER
  5
CB
102
{ACAD_XDICTIONARY
360
CC
102
}
330
2
100
AcDbSymbolTableRecord
100
AcDbLayerTableRecord
  2
4
 70
     0
 62
     3
  6
CONTINUOUS
370
    -3
390
7
  0
LAYER
  5
96
102
{ACAD_XDICTIONARY
360
97
102
}
330
2
100
AcDbSymbolTableRecord
100
AcDbLayerTableRecord
  2
L-CENTER
 70
     0
 62
     1
  6
CENTER
370
    -3
390
7
  0
LAYER
  5
5C
102
{ACAD_XDICTIONARY
360
5D
102
}
330
2
100
AcDbSymbolTableRecord
100
AcDbLayerTableRecord
  2
3
 70
     0
 62
     2
  6
CONTINUOUS
370
    -3
390
7
  0
LAYER
  5
C6
330
2
100
AcDbSymbolTableRecord
100
AcDbLayerTableRecord
  2
5
 70
     0
 62
     6
  6
CONTINUOUS
370
    -3
390
7
  0
ENDTAB
  0
TABLE
  2
STYLE
  5
13
330
0
100
AcDbSymbolTable
 70
     2
  0
STYLE
  5
17
330
13
100
AcDbSymbolTableRecord
100
AcDbTextStyleTableRecord
  2
STANDARD
 70
     0
 40
0.0
 41
1.0
 50
0.0
 71
     0
 42
4.5
  3
TXT
  4

  0
STYLE
  5
12
330
13
100
AcDbSymbolTableRecord
100
AcDbTextStyleTableRecord
  2
KANJI
 70
     0
 40
0.0
 41
1.0
 50
0.0
 71
     0
 42
7.5
  3
TXT
  4
BIGFONT
  0
ENDTAB
  0
TABLE
  2
VIEW
  5
2B
330
0
100
AcDbSymbolTable
 70
     0
  0
ENDTAB
  0
TABLE
  2
UCS
  5
2C
330
0
100
AcDbSymbolTable
 70
     0
  0
ENDTAB
  0
TABLE
  2
APPID
  5
D
330
0
100
AcDbSymbolTable
 70
     4
  0
APPID
  5
C
330
D
100
AcDbSymbolTableRecord
100
AcDbRegAppTableRecord
  2
ACAD
 70
     0
  0
APPID
  5
35
330
D
100
AcDbSymbolTableRecord
100
AcDbRegAppTableRecord
  2
ACAD_NAV_VCDISPLAY
 70
     0
  0
APPID
  5
26
330
D
100
AcDbSymbolTableRecord
100
AcDbRegAppTableRecord
  2
ACAD_PSEXT
 70
     0
  0
APPID
  5
59B
330
D
100
AcDbSymbolTableRecord
100
AcDbRegAppTableRecord
  2
ACAD_MLEADERVER
 70
     0
  0
ENDTAB
  0
TABLE
  2
DIMSTYLE
  5
16
330
0
100
AcDbSymbolTable
 70
     1
100
AcDbDimStyleTable
  0
DIMSTYLE
105
15
330
16
100
AcDbSymbolTableRecord
100
AcDbDimStyleTableRecord
  2
STANDARD
 70
     0
178
     0
340
17
  0
ENDTAB
  0
TABLE
  2
BLOCK_RECORD
  5
1A
330
0
100
AcDbSymbolTable
 70
     0
  0
BLOCK_RECORD
  5
1B
102
{ACAD_XDICTIONARY
360
1C
102
}
330
1A
100
AcDbSymbolTableRecord
100
AcDbBlockTableRecord
  2
*MODEL_SPACE
340
23
  0
BLOCK_RECORD
  5
27
330
1A
100
AcDbSymbolTableRecord
100
AcDbBlockTableRecord
  2
*PAPER_SPACE
340
2A
  0
ENDTAB
  0
ENDSEC
  0
SECTION
  2
BLOCKS
  0
BLOCK
  5
1E
330
1B
100
AcDbEntity
  8
0
100
AcDbBlockBegin
  2
*MODEL_SPACE
 70
     0
 10
0.0
 20
0.0
 30
0.0
  3
*MODEL_SPACE
  1

  0
ENDBLK
  5
22
330
1B
100
AcDbEntity
  8
0
100
AcDbBlockEnd
  0
BLOCK
  5
28
330
27
100
AcDbEntity
 67
     1
  8
0
100
AcDbBlockBegin
  2
*PAPER_SPACE
 70
     0
 10
0.0
 20
0.0
 30
0.0
  3
*PAPER_SPACE
  1

  0
ENDBLK
  5
29
330
27
100
AcDbEntity
 67
     1
  8
0
100
AcDbBlockEnd
  0
ENDSEC
  0
SECTION
  2
ENTITIES
  0
ARC
  5
19F
330
1B
100
AcDbEntity
  8
4
100
AcDbCircle
 10
200.7220482100724
 20
516.0669723951987
 30
0.0
 40
20.36274126524963
100
AcDbArc
 50
207.8752808740772
 51
332.1247191259228
  0
ARC
  5
1A0
330
1B
100
AcDbEntity
  8
4
100
AcDbCircle
 10
296.7220477100723
 20
513.5464030132727
 30
0.0
 40
2.0
100
AcDbArc
 50
270.0
 51
0.0
  0
ARC
  5
1A1
330
1B
100
AcDbEntity
  8
4
100
AcDbCircle
 10
232.7220347100724
 20
513.5464030132727
 30
0.0
 40
2.0
100
AcDbArc
 50
180.0
 51
270.0
  0
LINE
  5
1A2
330
1B
100
AcDbEntity
  8
4
 62
     3
100
AcDbLine
 10
298.7220477100723
 20
514.5464030132727
 30
0.0
 11
298.7220477100723
 21
513.5464030132727
 31
0.0
  0
LINE
  5
1A3
330
1B
100
AcDbEntity
  8
4
 62
     3
100
AcDbLine
 10
230.7220347100724
 20
513.5464030132727
 30
0.0
 11
230.7220347100724
 21
514.5464030132727
 31
0.0
  0
ARC
  5
1A4
330
1B
100
AcDbEntity
  8
4
 62
     3
100
AcDbCircle
 10
518.6857338452191
 20
297.8894713923629
 30
0.0
 40
1.0
100
AcDbArc
 50
85.9999999999905
 51
175.999999999997
  0
LINE
  5
1A5
330
1B
100
AcDbEntity
  8
4
 62
     3
100
AcDbLine
 10
518.7554903189634
 20
298.8870354426227
 30
0.0
 11
521.1697598779947
 21
298.7182132691873
 31
0.0
  0
LINE
  5
1A6
330
1B
100
AcDbEntity
  8
4
 62
     3
100
AcDbLine
 10
516.8720657371414
 20
271.9528090782998
 30
0.0
 11
519.0544469027004
 21
271.8002021209467
 31
0.0
  0
ARC
  5
1A7
330
1B
100
AcDbEntity
  8
4
 62
     3
100
AcDbCircle
 10
516.9418222108857
 20
272.9503731285596
 30
0.0
 40
1.0
100
AcDbArc
 50
175.999999999997
 51
265.9999999999905
  0
LINE
  5
1A8
330
1B
100
AcDbEntity
  8
4
 62
     3
100
AcDbLine
 10
515.9442581606258
 20
273.0201296023038
 30
0.0
 11
517.6881697949593
 21
297.9592278661071
 31
0.0
  0
LINE
  5
1AA
330
1B
100
AcDbEntity
  8
4
 62
     3
100
AcDbLine
 10
182.7220482100724
 20
236.7804088093189
 30
0.0
 11
182.7220482100724
 21
248.7111823417046
 31
0.0
  0
ARC
  5
1AB
330
1B
100
AcDbEntity
  8
4
 62
     3
100
AcDbCircle
 10
296.7220482100724
 20
296.7804068093191
 30
0.0
 40
1.9999995
100
AcDbArc
 50
0.0
 51
90.0
  0
LINE
  5
1AC
330
1B
100
AcDbEntity
  8
4
 62
     3
100
AcDbLine
 10
288.2882382100729
 20
295.2804068093191
 30
0.0
 11
291.7220487100726
 21
295.2804068093191
 31
0.0
  0
ARC
  5
1AD
330
1B
100
AcDbEntity
  8
4
 62
     3
100
AcDbCircle
 10
288.2882382100729
 20
294.2804078093189
 30
0.0
 40
1.0000005
100
AcDbArc
 50
90.0
 51
149.0362430000028
  0
ARC
  5
1AE
330
1B
100
AcDbEntity
  8
4
 62
     3
100
AcDbCircle
 10
291.7220487100726
 20
294.2804078093189
 30
0.0
 40
1.0000005
100
AcDbArc
 50
0.0
 51
90.0
  0
LINE
  5
1AF
330
1B
100
AcDbEntity
  8
4
 62
     3
100
AcDbLine
 10
275.2220487100726
 20
287.7804068093191
 30
0.0
 11
272.2220487100726
 21
287.7804068093191
 31
0.0
  0
ARC
  5
1B0
330
1B
100
AcDbEntity
  8
4
 62
     3
100
AcDbCircle
 10
296.7220482100724
 20
273.7804118093189
 30
0.0
 40
1.9999995
100
AcDbArc
 50
270.0
 51
0.0
  0
ARC
  5
1B1
330
1B
100
AcDbEntity
  8
4
 62
     3
100
AcDbCircle
 10
294.2220477100723
 20
281.7804068093191
 30
0.0
 40
1.0000005
100
AcDbArc
 50
0.0
 51
90.0
  0
LINE
  5
1B2
330
1B
100
AcDbEntity
  8
4
 62
     3
100
AcDbLine
 10
288.7220487100726
 20
275.280407309319
 30
0.0
 11
291.7220487100726
 21
275.280407309319
 31
0.0
  0
ARC
  5
1B3
330
1B
100
AcDbEntity
  8
4
 62
     3
100
AcDbCircle
 10
286.7220477100723
 20
276.780407309319
 30
0.0
 40
1.0000005
100
AcDbArc
 50
0.0
 51
90.0
  0
LINE
  5
1B4
330
1B
100
AcDbEntity
  8
4
 62
     3
100
AcDbLine
 10
287.7220482100724
 20
276.780407309319
 30
0.0
 11
287.7220482100724
 21
276.2804078093189
 31
0.0
  0
ARC
  5
1B5
330
1B
100
AcDbEntity
  8
4
 62
     3
100
AcDbCircle
 10
288.7220487100726
 20
276.2804078093189
 30
0.0
 40
1.0000005
100
AcDbArc
 50
180.0
 51
270.0
  0
LINE
  5
1B6
330
1B
100
AcDbEntity
  8
4
 62
     3
100
AcDbLine
 10
295.2220482100724
 20
281.7804068093191
 30
0.0
 11
295.2220482100724
 21
278.7804068093191
 31
0.0
  0
LINE
  5
1B7
330
1B
100
AcDbEntity
  8
4
 62
     3
100
AcDbLine
 10
293.7220482100724
 20
277.7804078093189
 30
0.0
 11
294.2220477100723
 21
277.7804078093189
 31
0.0
  0
LINE
  5
1B8
330
1B
100
AcDbEntity
  8
4
 62
     3
100
AcDbLine
 10
292.7220477100723
 20
276.2804078093189
 30
0.0
 11
292.7220477100723
 21
276.780407309319
 31
0.0
  0
ARC
  5
1B9
330
1B
100
AcDbEntity
  8
4
 62
     3
100
AcDbCircle
 10
291.7220487100726
 20
276.2804078093189
 30
0.0
 40
1.0000005
100
AcDbArc
 50
270.0
 51
0.0
  0
ARC
  5
1BA
330
1B
100
AcDbEntity
  8
4
 62
     3
100
AcDbCircle
 10
293.7220482100724
 20
276.780407309319
 30
0.0
 40
1.0000005
100
AcDbArc
 50
90.0
 51
180.0
  0
ARC
  5
1BB
330
1B
100
AcDbEntity
  8
4
 62
     3
100
AcDbCircle
 10
294.2220477100723
 20
278.7804068093191
 30
0.0
 40
1.0000005
100
AcDbArc
 50
270.0
 51
0.0
  0
LINE
  5
1BC
330
1B
100
AcDbEntity
  8
4
 62
     3
100
AcDbLine
 10
293.7220482100724
 20
282.780407309319
 30
0.0
 11
294.2220477100723
 21
282.780407309319
 31
0.0
  0
ARC
  5
1BD
330
1B
100
AcDbEntity
  8
4
 62
     3
100
AcDbCircle
 10
293.7220482100724
 20
283.7804078093189
 30
0.0
 40
1.0000005
100
AcDbArc
 50
180.0
 51
270.0
  0
LINE
  5
1BE
330
1B
100
AcDbEntity
  8
4
 62
     3
100
AcDbLine
 10
275.2220487100726
 20
282.780407309319
 30
0.0
 11
272.2220487100726
 21
282.780407309319
 31
0.0
  0
LINE
  5
1BF
330
1B
100
AcDbEntity
  8
4
 62
     3
100
AcDbLine
 10
276.2220477100723
 20
283.7804078093189
 30
0.0
 11
276.2220477100723
 21
286.7804078093189
 31
0.0
  0
ARC
  5
1C0
330
1B
100
AcDbEntity
  8
4
 62
     3
100
AcDbCircle
 10
275.2220487100726
 20
283.7804078093189
 30
0.0
 40
1.0000005
100
AcDbArc
 50
270.0
 51
0.0
  0
LINE
  5
1C1
330
1B
100
AcDbEntity
  8
4
 62
     3
100
AcDbLine
 10
280.2220482100724
 20
282.5034233093191
 30
0.0
 11
280.2220482100724
 21
278.7804068093191
 31
0.0
  0
ARC
  5
1C2
330
1B
100
AcDbEntity
  8
4
 62
     3
100
AcDbCircle
 10
281.2220487100726
 20
278.7804068093191
 30
0.0
 40
1.0000005
100
AcDbArc
 50
180.0
 51
270.0
  0
ARC
  5
1C3
330
1B
100
AcDbEntity
  8
4
 62
     3
100
AcDbCircle
 10
281.2220487100726
 20
282.5034233093191
 30
0.0
 40
1.0000005
100
AcDbArc
 50
149.0362430000028
 51
180.0
  0
LINE
  5
1C4
330
1B
100
AcDbEntity
  8
4
 62
     3
100
AcDbLine
 10
281.2220487100726
 20
277.7804078093189
 30
0.0
 11
286.7220477100723
 21
277.7804078093189
 31
0.0
  0
ARC
  5
1C5
330
1B
100
AcDbEntity
  8
4
 62
     3
100
AcDbCircle
 10
275.2220487100726
 20
286.7804078093189
 30
0.0
 40
1.0000005
100
AcDbArc
 50
0.0
 51
90.0
  0
LINE
  5
1C6
330
1B
100
AcDbEntity
  8
4
 62
     3
100
AcDbLine
 10
298.7220477100723
 20
296.7804068093191
 30
0.0
 11
298.7220477100727
 21
273.7804118093189
 31
0.0
  0
LINE
  5
1C7
330
1B
100
AcDbEntity
  8
4
 62
     3
100
AcDbLine
 10
280.3645557100722
 20
283.017918809319
 30
0.0
 11
287.4307452100725
 21
294.794903309319
 31
0.0
  0
LINE
  5
1C8
330
1B
100
AcDbEntity
  8
4
 62
     3
100
AcDbLine
 10
292.7220477100723
 20
283.7804078093189
 30
0.0
 11
292.7220477100723
 21
294.2804078093189
 31
0.0
  0
ARC
  5
1C9
330
1B
100
AcDbEntity
  8
4
 62
     3
100
AcDbCircle
 10
263.2220427100724
 20
291.2804048093191
 30
0.0
 40
4.0000005
100
AcDbArc
 50
0.0
 51
90.0
  0
LINE
  5
1CA
330
1B
100
AcDbEntity
  8
4
 62
     3
100
AcDbLine
 10
267.2220417100725
 20
290.403881309319
 30
0.0
 11
267.2220417100725
 21
291.2804048093191
 31
0.0
  0
ARC
  5
1CB
330
1B
100
AcDbEntity
  8
4
 62
     3
100
AcDbCircle
 10
253.2220392100726
 20
294.2804048093191
 30
0.0
 40
1.0000005
100
AcDbArc
 50
90.0
 51
180.0
  0
LINE
  5
1CC
330
1B
100
AcDbEntity
  8
4
 62
     3
100
AcDbLine
 10
253.2220392100726
 20
295.280405309319
 30
0.0
 11
263.2220427100724
 21
295.280405309319
 31
0.0
  0
LINE
  5
1CD
330
1B
100
AcDbEntity
  8
4
 62
     3
100
AcDbLine
 10
235.2220722100724
 20
295.280405309319
 30
0.0
 11
238.2220722100724
 21
295.2804098093189
 31
0.0
  0
ARC
  5
1CE
330
1B
100
AcDbEntity
  8
4
 62
     3
100
AcDbCircle
 10
238.2220692100723
 20
294.2804063093191
 30
0.0
 40
1.0000005
100
AcDbArc
 50
359.9998459985447
 51
89.99984599997813
  0
ARC
  5
1CF
330
1B
100
AcDbEntity
  8
4
 62
     3
100
AcDbCircle
 10
232.7220342100723
 20
296.7804068093191
 30
0.0
 40
1.9999995
100
AcDbArc
 50
90.0
 51
180.0
  0
ARC
  5
1D0
330
1B
100
AcDbEntity
  8
4
 62
     3
100
AcDbCircle
 10
235.2220707100728
 20
294.2804078093189
 30
0.0
 40
1.0000005
100
AcDbArc
 50
89.99988400002549
 51
179.9998839998386
  0
ARC
  5
1D1
330
1B
100
AcDbEntity
  8
4
 62
     3
100
AcDbCircle
 10
263.2220427100724
 20
280.156929809319
 30
0.0
 40
4.0000005
100
AcDbArc
 50
0.0
 51
52.020127999994
  0
ARC
  5
1D2
330
1B
100
AcDbEntity
  8
4
 62
     3
100
AcDbCircle
 10
263.2220427100724
 20
279.2804048093188
 30
0.0
 40
4.0000005
100
AcDbArc
 50
270.0
 51
0.0
  0
LINE
  5
1D3
330
1B
100
AcDbEntity
  8
4
 62
     3
100
AcDbLine
 10
267.2220417100725
 20
280.156929809319
 30
0.0
 11
267.2220417100725
 21
279.2804048093188
 31
0.0
  0
LINE
  5
1D4
330
1B
100
AcDbEntity
  8
4
 62
     3
100
AcDbLine
 10
271.2220482100724
 20
283.7804078093189
 30
0.0
 11
271.2220482100724
 21
286.7804078093189
 31
0.0
  0
LINE
  5
1D5
330
1B
100
AcDbEntity
  8
4
 62
     3
100
AcDbLine
 10
248.2220322100725
 20
276.2804078093189
 30
0.0
 11
248.2220322100725
 21
279.2804078093189
 31
0.0
  0
ARC
  5
1D6
330
1B
100
AcDbEntity
  8
4
 62
     3
100
AcDbCircle
 10
253.2220392100726
 20
276.2804048093188
 30
0.0
 40
1.0000005
100
AcDbArc
 50
180.0
 51
270.0
  0
LINE
  5
1D7
330
1B
100
AcDbEntity
  8
4
 62
     3
100
AcDbLine
 10
253.2220392100726
 20
275.2804058093192
 30
0.0
 11
263.2220427100724
 21
275.2804058093192
 31
0.0
  0
LINE
  5
1D8
330
1B
100
AcDbEntity
  8
4
 62
     3
100
AcDbLine
 10
235.2220317100723
 20
275.2804058093192
 30
0.0
 11
247.2220317100723
 21
275.280407309319
 31
0.0
  0
LINE
  5
1D9
330
1B
100
AcDbEntity
  8
4
 62
     3
100
AcDbLine
 10
240.2220342100723
 20
280.2804068093191
 30
0.0
 11
247.2220317100723
 21
280.2804068093191
 31
0.0
  0
ARC
  5
1DA
330
1B
100
AcDbEntity
  8
4
 62
     3
100
AcDbCircle
 10
240.2220342100723
 20
281.280407309319
 30
0.0
 40
1.0000005
100
AcDbArc
 50
180.0
 51
270.0
  0
ARC
  5
1DB
330
1B
100
AcDbEntity
  8
4
 62
     3
100
AcDbCircle
 10
232.7220342100723
 20
273.7804118093189
 30
0.0
 40
1.9999995
100
AcDbArc
 50
180.0
 51
270.0
  0
ARC
  5
1DC
330
1B
100
AcDbEntity
  8
4
 62
     3
100
AcDbCircle
 10
235.2220347100724
 20
276.2804078093189
 30
0.0
 40
1.0000005
100
AcDbArc
 50
179.9998839998386
 51
269.9998840000255
  0
ARC
  5
1DD
330
1B
100
AcDbEntity
  8
4
 62
     3
100
AcDbCircle
 10
247.2220317100723
 20
279.2804078093189
 30
0.0
 40
1.0000005
100
AcDbArc
 50
0.0
 51
90.0
  0
ARC
  5
1DE
330
1B
100
AcDbEntity
  8
4
 62
     3
100
AcDbCircle
 10
247.2220317100723
 20
276.2804078093189
 30
0.0
 40
1.0000005
100
AcDbArc
 50
270.0
 51
0.0
  0
LINE
  5
1E0
330
1B
100
AcDbEntity
  8
4
 62
     3
100
AcDbLine
 10
218.7220482100724
 20
236.7804088093189
 30
0.0
 11
218.7220482100724
 21
248.7111823417046
 31
0.0
  0
LINE
  5
1E1
330
1B
100
AcDbEntity
  8
4
 62
     3
100
AcDbLine
 10
230.7220347100724
 20
273.7804118093189
 30
0.0
 11
230.7220347100724
 21
296.7804068093191
 31
0.0
  0
LINE
  5
1E2
330
1B
100
AcDbEntity
  8
4
 62
     3
100
AcDbLine
 10
252.2220387100729
 20
276.2804048093188
 30
0.0
 11
252.2220387100729
 21
294.2804048093191
 31
0.0
  0
LINE
  5
1E3
330
1B
100
AcDbEntity
  8
4
 62
     3
100
AcDbLine
 10
234.2220342100723
 20
276.280409309319
 30
0.0
 11
234.2220702100726
 21
294.280409309319
 31
0.0
  0
LINE
  5
1E4
330
1B
100
AcDbEntity
  8
4
 62
     3
100
AcDbLine
 10
239.2220322100725
 20
281.280407309319
 30
0.0
 11
239.2220697100724
 21
294.2804048093191
 31
0.0
  0
ARC
  5
1E5
330
1B
100
AcDbEntity
  8
4
 62
     3
100
AcDbCircle
 10
263.2220427100724
 20
290.403881309319
 30
0.0
 40
4.0000005
100
AcDbArc
 50
307.979872000006
 51
0.0
  0
ARC
  5
1E6
330
1B
100
AcDbEntity
  8
4
 62
     3
100
AcDbCircle
 10
267.2220417100725
 20
285.2804048093188
 30
0.0
 40
2.5000005
100
AcDbArc
 50
127.9798719999962
 51
232.0201280000038
  0
ARC
  5
1E7
330
1B
100
AcDbEntity
  8
4
 62
     3
100
AcDbCircle
 10
200.7220482100724
 20
236.7804088093191
 30
0.0
 40
18.0
100
AcDbArc
 50
180.0
 51
0.0
  0
LINE
  5
1E8
330
1B
100
AcDbEntity
  8
4
 62
     3
100
AcDbLine
 10
232.7220342100723
 20
271.7804108093191
 30
0.0
 11
296.7220482100724
 21
271.7804108093191
 31
0.0
  0
LINE
  5
1E9
330
1B
100
AcDbEntity
  8
4
 62
     3
100
AcDbLine
 10
232.7220342100723
 20
298.7804078093189
 30
0.0
 11
296.7220482100724
 21
298.7804078093189
 31
0.0
  0
ARC
  5
1EA
330
1B
100
AcDbEntity
  8
4
 62
     3
100
AcDbCircle
 10
272.2220487100726
 20
286.7804078093189
 30
0.0
 40
1.0000005
100
AcDbArc
 50
90.0
 51
180.0
  0
ARC
  5
1EB
330
1B
100
AcDbEntity
  8
4
 62
     3
100
AcDbCircle
 10
272.2220487100726
 20
283.7804078093189
 30
0.0
 40
1.0000005
100
AcDbArc
 50
180.0
 51
270.0
  0
LINE
  5
1EC
330
1B
100
AcDbEntity
  8
2
100
AcDbLine
 10
1005.894732542951
 20
245.0169232839785
 30
0.0
 11
1007.338108215925
 21
247.5169232839785
 31
0.0
  0
LINE
  5
1ED
330
1B
100
AcDbEntity
  8
2
100
AcDbLine
 10
1003.007981197002
 20
245.0169232839785
 30
0.0
 11
1005.894732542951
 21
245.0169232839785
 31
0.0
  0
LINE
  5
1EE
330
1B
100
AcDbEntity
  8
2
100
AcDbLine
 10
1001.564605524028
 20
247.5169232839785
 30
0.0
 11
1003.007981197002
 21
245.0169232839785
 31
0.0
  0
LINE
  5
1EF
330
1B
100
AcDbEntity
  8
2
100
AcDbLine
 10
1003.007981197002
 20
250.0169232839786
 30
0.0
 11
1005.894732542951
 21
250.0169232839786
 31
0.0
  0
LINE
  5
1F0
330
1B
100
AcDbEntity
  8
2
100
AcDbLine
 10
1001.564605524028
 20
247.5169232839785
 30
0.0
 11
1003.007981197002
 21
250.0169232839786
 31
0.0
  0
LINE
  5
1F1
330
1B
100
AcDbEntity
  8
2
100
AcDbLine
 10
1005.894732542951
 20
250.0169232839786
 30
0.0
 11
1007.338108215925
 21
247.5169232839785
 31
0.0
  0
CIRCLE
  5
1F2
330
1B
100
AcDbEntity
  8
4
100
AcDbCircle
 10
1004.451356869976
 20
247.5169232839785
 30
0.0
 40
5.75
  0
CIRCLE
  5
1F3
330
1B
100
AcDbEntity
  8
4
100
AcDbCircle
 10
1004.451356869976
 20
247.5169232839785
 30
0.0
 40
5.0
  0
LINE
  5
1F4
330
1B
100
AcDbEntity
  8
2
100
AcDbLine
 10
904.0079811970022
 20
250.0169232839781
 30
0.0
 11
902.5646055240281
 21
247.516923283978
 31
0.0
  0
LINE
  5
1F5
330
1B
100
AcDbEntity
  8
2
100
AcDbLine
 10
908.3381082159253
 20
247.516923283978
 30
0.0
 11
906.8947325429513
 21
250.0169232839781
 31
0.0
  0
LINE
  5
1F6
330
1B
100
AcDbEntity
  8
2
100
AcDbLine
 10
906.8947325429513
 20
250.0169232839781
 30
0.0
 11
904.0079811970022
 21
250.0169232839781
 31
0.0
  0
LINE
  5
1F7
330
1B
100
AcDbEntity
  8
2
100
AcDbLine
 10
908.3381082159253
 20
247.516923283978
 30
0.0
 11
906.8947325429513
 21
245.016923283978
 31
0.0
  0
LINE
  5
1F8
330
1B
100
AcDbEntity
  8
2
100
AcDbLine
 10
906.8947325429513
 20
245.016923283978
 30
0.0
 11
904.0079811970022
 21
245.016923283978
 31
0.0
  0
LINE
  5
1F9
330
1B
100
AcDbEntity
  8
2
100
AcDbLine
 10
904.0079811970022
 20
245.016923283978
 30
0.0
 11
902.5646055240281
 21
247.516923283978
 31
0.0
  0
CIRCLE
  5
1FA
330
1B
100
AcDbEntity
  8
4
100
AcDbCircle
 10
905.4513568699772
 20
247.516923283978
 30
0.0
 40
5.0
  0
CIRCLE
  5
1FB
330
1B
100
AcDbEntity
  8
4
100
AcDbCircle
 10
905.4513568699772
 20
247.516923283978
 30
0.0
 40
5.75
  0
LINE
  5
1FC
330
1B
100
AcDbEntity
  8
2
100
AcDbLine
 10
1005.894732542951
 20
73.54389333465951
 30
0.0
 11
1007.338108215925
 21
76.04389333465963
 31
0.0
  0
LINE
  5
1FD
330
1B
100
AcDbEntity
  8
2
100
AcDbLine
 10
1001.564605524029
 20
76.04389333465963
 30
0.0
 11
1003.007981197003
 21
73.54389333465951
 31
0.0
  0
LINE
  5
1FE
330
1B
100
AcDbEntity
  8
2
100
AcDbLine
 10
1003.007981197003
 20
73.54389333465951
 30
0.0
 11
1005.894732542951
 21
73.54389333465951
 31
0.0
  0
LINE
  5
1FF
330
1B
100
AcDbEntity
  8
2
100
AcDbLine
 10
1001.564605524029
 20
76.04389333465963
 30
0.0
 11
1003.007981197003
 21
78.54389333465963
 31
0.0
  0
LINE
  5
200
330
1B
100
AcDbEntity
  8
2
100
AcDbLine
 10
1003.007981197003
 20
78.54389333465963
 30
0.0
 11
1005.894732542952
 21
78.54389333465963
 31
0.0
  0
LINE
  5
201
330
1B
100
AcDbEntity
  8
2
100
AcDbLine
 10
1005.894732542952
 20
78.54389333465963
 30
0.0
 11
1007.338108215925
 21
76.04389333465963
 31
0.0
  0
CIRCLE
  5
202
330
1B
100
AcDbEntity
  8
4
100
AcDbCircle
 10
1004.451356869977
 20
76.04389333465963
 30
0.0
 40
5.0
  0
CIRCLE
  5
203
330
1B
100
AcDbEntity
  8
4
100
AcDbCircle
 10
1004.451356869977
 20
76.04389333465963
 30
0.0
 40
5.75
  0
LINE
  5
204
330
1B
100
AcDbEntity
  8
2
100
AcDbLine
 10
904.0079811970027
 20
78.54389333465963
 30
0.0
 11
902.564605524029
 21
76.04389333465963
 31
0.0
  0
LINE
  5
205
330
1B
100
AcDbEntity
  8
2
100
AcDbLine
 10
906.8947325429513
 20
78.54389333465963
 30
0.0
 11
904.0079811970027
 21
78.54389333465963
 31
0.0
  0
LINE
  5
206
330
1B
100
AcDbEntity
  8
2
100
AcDbLine
 10
908.3381082159253
 20
76.04389333465963
 30
0.0
 11
906.8947325429513
 21
78.54389333465963
 31
0.0
  0
LINE
  5
207
330
1B
100
AcDbEntity
  8
2
100
AcDbLine
 10
906.8947325429513
 20
73.54389333465951
 30
0.0
 11
904.0079811970031
 21
73.54389333465951
 31
0.0
  0
LINE
  5
208
330
1B
100
AcDbEntity
  8
2
100
AcDbLine
 10
908.3381082159253
 20
76.04389333465963
 30
0.0
 11
906.8947325429513
 21
73.54389333465951
 31
0.0
  0
LINE
  5
209
330
1B
100
AcDbEntity
  8
2
100
AcDbLine
 10
904.0079811970031
 20
73.54389333465951
 30
0.0
 11
902.564605524029
 21
76.04389333465963
 31
0.0
  0
CIRCLE
  5
20A
330
1B
100
AcDbEntity
  8
4
100
AcDbCircle
 10
905.4513568699772
 20
76.04389333465963
 30
0.0
 40
5.75
  0
CIRCLE
  5
20B
330
1B
100
AcDbEntity
  8
4
100
AcDbCircle
 10
905.4513568699772
 20
76.04389333465963
 30
0.0
 40
5.0
  0
LINE
  5
20C
330
1B
100
AcDbEntity
  8
2
100
AcDbLine
 10
1055.394732542952
 20
164.280408309319
 30
0.0
 11
1056.838108215925
 21
161.780408309319
 31
0.0
  0
LINE
  5
20D
330
1B
100
AcDbEntity
  8
2
100
AcDbLine
 10
1052.507981197003
 20
164.280408309319
 30
0.0
 11
1055.394732542952
 21
164.280408309319
 31
0.0
  0
LINE
  5
20E
330
1B
100
AcDbEntity
  8
2
100
AcDbLine
 10
1051.064605524029
 20
161.780408309319
 30
0.0
 11
1052.507981197003
 21
164.280408309319
 31
0.0
  0
LINE
  5
20F
330
1B
100
AcDbEntity
  8
2
100
AcDbLine
 10
1052.507981197003
 20
159.2804083093189
 30
0.0
 11
1055.394732542951
 21
159.2804083093188
 31
0.0
  0
LINE
  5
210
330
1B
100
AcDbEntity
  8
2
100
AcDbLine
 10
1051.064605524029
 20
161.780408309319
 30
0.0
 11
1052.507981197003
 21
159.2804083093189
 31
0.0
  0
LINE
  5
211
330
1B
100
AcDbEntity
  8
2
100
AcDbLine
 10
1055.394732542951
 20
159.2804083093188
 30
0.0
 11
1056.838108215925
 21
161.780408309319
 31
0.0
  0
CIRCLE
  5
212
330
1B
100
AcDbEntity
  8
4
100
AcDbCircle
 10
1053.951356869977
 20
161.7804083093189
 30
0.0
 40
5.75
  0
CIRCLE
  5
213
330
1B
100
AcDbEntity
  8
4
100
AcDbCircle
 10
1053.951356869977
 20
161.7804083093189
 30
0.0
 40
5.0
  0
LINE
  5
214
330
1B
100
AcDbEntity
  8
2
100
AcDbLine
 10
858.8381082159253
 20
161.780408309319
 30
0.0
 11
857.3947325429513
 21
164.280408309319
 31
0.0
  0
LINE
  5
215
330
1B
100
AcDbEntity
  8
2
100
AcDbLine
 10
854.5079811970031
 20
159.2804083093188
 30
0.0
 11
853.064605524029
 21
161.780408309319
 31
0.0
  0
LINE
  5
216
330
1B
100
AcDbEntity
  8
2
100
AcDbLine
 10
857.3947325429513
 20
159.2804083093189
 30
0.0
 11
854.5079811970031
 21
159.2804083093188
 31
0.0
  0
LINE
  5
217
330
1B
100
AcDbEntity
  8
2
100
AcDbLine
 10
857.3947325429513
 20
164.280408309319
 30
0.0
 11
854.5079811970027
 21
164.280408309319
 31
0.0
  0
LINE
  5
218
330
1B
100
AcDbEntity
  8
2
100
AcDbLine
 10
858.8381082159253
 20
161.780408309319
 30
0.0
 11
857.3947325429513
 21
159.2804083093189
 31
0.0
  0
LINE
  5
219
330
1B
100
AcDbEntity
  8
2
100
AcDbLine
 10
854.5079811970027
 20
164.280408309319
 30
0.0
 11
853.064605524029
 21
161.780408309319
 31
0.0
  0
CIRCLE
  5
21A
330
1B
100
AcDbEntity
  8
4
100
AcDbCircle
 10
855.9513568699772
 20
161.7804083093189
 30
0.0
 40
5.0
  0
CIRCLE
  5
21B
330
1B
100
AcDbEntity
  8
4
100
AcDbCircle
 10
855.9513568699772
 20
161.7804083093189
 30
0.0
 40
5.75
  0
ARC
  5
21C
330
1B
100
AcDbEntity
  8
4
100
AcDbCircle
 10
870.3929543436439
 20
186.1499910343994
 30
0.0
 40
3.0
100
AcDbArc
 50
163.92311168739
 51
275.1263803664074
  0
ARC
  5
21D
330
1B
100
AcDbEntity
  8
4
100
AcDbCircle
 10
930.5817741448977
 20
246.3388108356523
 30
0.0
 40
3.0
100
AcDbArc
 50
354.8736196335946
 51
106.07688831261
  0
ARC
  5
21E
330
1B
100
AcDbEntity
  8
4
100
AcDbCircle
 10
918.2302055343685
 20
198.5015596449286
 30
0.0
 40
3.0
100
AcDbArc
 50
97.10223814956889
 51
172.897761850429
  0
ARC
  5
21F
330
1B
100
AcDbEntity
  8
4
100
AcDbCircle
 10
915.57340745784
 20
201.1583577214572
 30
0.0
 40
3.0
100
AcDbArc
 50
97.61903501642539
 51
172.3809649835703
  0
ARC
  5
220
330
1B
100
AcDbEntity
  8
4
100
AcDbCircle
 10
905.4780916869336
 20
192.3095876100426
 30
0.0
 40
6.0
100
AcDbArc
 50
275.1263803664074
 51
354.2741567175669
  0
ARC
  5
221
330
1B
100
AcDbEntity
  8
4
100
AcDbCircle
 10
924.4221775692545
 20
211.2536734923635
 30
0.0
 40
6.0
100
AcDbArc
 50
275.7258432824342
 51
354.8736196335938
  0
LINE
  5
222
330
1B
100
AcDbEntity
  8
L-CENTER
 48
2.5
100
AcDbLine
 10
911.4513568699772
 20
237.1246184385647
 30
0.0
 11
899.4513568699772
 21
257.9092281293916
 31
0.0
  0
LINE
  5
223
330
1B
100
AcDbEntity
  8
4
100
AcDbLine
 10
933.5697742371372
 20
246.070752168982
 30
0.0
 11
930.3981777537333
 21
210.717556159023
 31
0.0
  0
ARC
  5
224
330
1B
100
AcDbEntity
  8
4
100
AcDbCircle
 10
991.6725082055868
 20
198.5015596449286
 30
0.0
 40
3.0
100
AcDbArc
 50
7.102238149571051
 51
82.89776185043112
  0
ARC
  5
225
330
1B
100
AcDbEntity
  8
4
100
AcDbCircle
 10
994.3293062821153
 20
201.1583577214572
 30
0.0
 40
3.0
100
AcDbArc
 50
7.619035016427544
 51
82.38096498356586
  0
ARC
  5
226
330
1B
100
AcDbEntity
  8
4
100
AcDbCircle
 10
1004.424622053022
 20
192.3095876100426
 30
0.0
 40
6.0
100
AcDbArc
 50
185.725843282432
 51
264.8736196335926
  0
ARC
  5
227
330
1B
100
AcDbEntity
  8
4
100
AcDbCircle
 10
985.4805361707008
 20
211.2536734923635
 30
0.0
 40
6.0
100
AcDbArc
 50
185.1263803664064
 51
264.2741567175658
  0
ARC
  5
228
330
1B
100
AcDbEntity
  8
4
100
AcDbCircle
 10
1039.509759396311
 20
186.1499910343994
 30
0.0
 40
3.0
100
AcDbArc
 50
264.8736196335926
 51
16.0768883126079
  0
LINE
  5
229
330
1B
100
AcDbEntity
  8
4
100
AcDbLine
 10
1039.241700729641
 20
183.1619909421589
 30
0.0
 11
1003.888504719681
 21
186.3335874255628
 31
0.0
  0
LINE
  5
22A
330
1B
100
AcDbEntity
  8
L-CENTER
 48
2.5
100
AcDbLine
 10
998.4513568699772
 20
237.1246184385647
 30
0.0
 11
1010.451356869977
 21
257.9092281293916
 31
0.0
  0
ARC
  5
22B
330
1B
100
AcDbEntity
  8
4
100
AcDbCircle
 10
979.3209395950576
 20
246.3388108356523
 30
0.0
 40
3.0
100
AcDbArc
 50
73.92311168739002
 51
185.1263803664054
  0
ARC
  5
22C
330
1B
100
AcDbEntity
  8
4
100
AcDbCircle
 10
954.9513568699772
 20
-93.21959169068097
 30
0.0
 40
300.0
100
AcDbArc
 50
82.38096498357213
 51
97.61903501642787
  0
ARC
  5
22D
330
1B
100
AcDbEntity
  8
4
100
AcDbCircle
 10
954.9513568699772
 20
-96.21959169068097
 30
0.0
 40
300.0
100
AcDbArc
 50
82.89776185042847
 51
97.10223814957153
  0
LINE
  5
22E
330
1B
100
AcDbEntity
  8
4
100
AcDbLine
 10
976.3329395028181
 20
246.070752168982
 30
0.0
 11
979.504535986222
 21
210.717556159023
 31
0.0
  0
LINE
  5
22F
330
1B
100
AcDbEntity
  8
4
100
AcDbLine
 10
870.661013010314
 20
183.1619909421589
 30
0.0
 11
906.0142090202739
 21
186.3335874255628
 31
0.0
  0
ARC
  5
230
330
1B
100
AcDbEntity
  8
4
100
AcDbCircle
 10
870.3929543436439
 20
137.4108255842386
 30
0.0
 40
3.0
100
AcDbArc
 50
84.87361963359261
 51
196.0768883126073
  0
ARC
  5
231
330
1B
100
AcDbEntity
  8
4
100
AcDbCircle
 10
918.2302055343685
 20
125.0592569737094
 30
0.0
 40
3.0
100
AcDbArc
 50
187.102238149571
 51
262.8977618504312
  0
ARC
  5
232
330
1B
100
AcDbEntity
  8
4
100
AcDbCircle
 10
915.57340745784
 20
122.4024588971808
 30
0.0
 40
3.0
100
AcDbArc
 50
187.6190350164275
 51
262.3809649835658
  0
ARC
  5
233
330
1B
100
AcDbEntity
  8
4
100
AcDbCircle
 10
924.4221775692545
 20
112.3071431262745
 30
0.0
 40
6.0
100
AcDbArc
 50
5.126380366406224
 51
84.2741567175658
  0
ARC
  5
234
330
1B
100
AcDbEntity
  8
4
100
AcDbCircle
 10
905.4780916869336
 20
131.2512290085954
 30
0.0
 40
6.0
100
AcDbArc
 50
5.72584328243309
 51
84.87361963359257
  0
LINE
  5
235
330
1B
100
AcDbEntity
  8
L-CENTER
 48
2.5
100
AcDbLine
 10
911.4513568699781
 20
86.43619818007312
 30
0.0
 11
899.4513568699772
 21
65.65158848924614
 31
0.0
  0
ARC
  5
236
330
1B
100
AcDbEntity
  8
4
100
AcDbCircle
 10
930.5817741448977
 20
77.22200578298566
 30
0.0
 40
3.0
100
AcDbArc
 50
253.9231116873903
 51
5.126380366407433
  0
LINE
  5
237
330
1B
100
AcDbEntity
  8
4
100
AcDbLine
 10
933.5697742371372
 20
77.49006444965573
 30
0.0
 11
930.3981777537333
 21
112.8432604596147
 31
0.0
  0
CIRCLE
  5
238
330
1B
100
AcDbEntity
  8
4
100
AcDbCircle
 10
1019.951356869977
 20
161.780408309319
 30
0.0
 40
2.5
  0
ARC
  5
239
330
1B
100
AcDbEntity
  8
4
100
AcDbCircle
 10
985.4805361707008
 20
112.3071431262745
 30
0.0
 40
6.0
100
AcDbArc
 50
95.7258432824342
 51
174.8736196335936
  0
ARC
  5
23A
330
1B
100
AcDbEntity
  8
4
100
AcDbCircle
 10
991.6725082055868
 20
125.0592569737094
 30
0.0
 40
3.0
100
AcDbArc
 50
277.1022381495688
 51
352.8977618504289
  0
ARC
  5
23B
330
1B
100
AcDbEntity
  8
4
100
AcDbCircle
 10
994.3293062821153
 20
122.4024588971808
 30
0.0
 40
3.0
100
AcDbArc
 50
277.6190350164342
 51
352.3809649835724
  0
ARC
  5
23C
330
1B
100
AcDbEntity
  8
4
100
AcDbCircle
 10
1004.424622053022
 20
131.2512290085954
 30
0.0
 40
6.0
100
AcDbArc
 50
95.12638036640745
 51
174.2741567175669
  0
ARC
  5
23D
330
1B
100
AcDbEntity
  8
4
100
AcDbCircle
 10
1039.509759396311
 20
137.4108255842386
 30
0.0
 40
3.0
100
AcDbArc
 50
343.9231116873921
 51
95.1263803664074
  0
CIRCLE
  5
23E
330
1B
100
AcDbEntity
  8
4
100
AcDbCircle
 10
1019.951356869977
 20
161.780408309319
 30
0.0
 40
14.0
  0
LINE
  5
23F
330
1B
100
AcDbEntity
  8
4
100
AcDbLine
 10
1039.241700729641
 20
140.3988256764779
 30
0.0
 11
1003.888504719681
 21
137.2272291930741
 31
0.0
  0
LINE
  5
240
330
1B
100
AcDbEntity
  8
L-CENTER
 48
2.5
100
AcDbLine
 10
998.4513568699772
 20
86.43619818007221
 30
0.0
 11
1010.451356869977
 21
65.65158848924614
 31
0.0
  0
ARC
  5
241
330
1B
100
AcDbEntity
  8
4
100
AcDbCircle
 10
954.9513568699772
 20
416.780408309319
 30
0.0
 40
300.0
100
AcDbArc
 50
262.3809649835721
 51
277.6190350164279
  0
ARC
  5
242
330
1B
100
AcDbEntity
  8
4
100
AcDbCircle
 10
954.9513568699772
 20
419.780408309319
 30
0.0
 40
300.0
100
AcDbArc
 50
262.8977618504285
 51
277.1022381495714
  0
ARC
  5
243
330
1B
100
AcDbEntity
  8
4
100
AcDbCircle
 10
979.3209395950576
 20
77.22200578298566
 30
0.0
 40
3.0
100
AcDbArc
 50
174.8736196335926
 51
286.0768883126097
  0
LINE
  5
244
330
1B
100
AcDbEntity
  8
4
100
AcDbLine
 10
976.3329395028181
 20
77.49006444965573
 30
0.0
 11
979.504535986222
 21
112.8432604596147
 31
0.0
  0
LINE
  5
245
330
1B
100
AcDbEntity
  8
4
100
AcDbLine
 10
870.661013010314
 20
140.3988256764779
 30
0.0
 11
906.0142090202739
 21
137.2272291930741
 31
0.0
  0
ARC
  5
246
330
1B
100
AcDbEntity
  8
4
100
AcDbCircle
 10
1212.951356869977
 20
161.780408309319
 30
0.0
 40
300.0
100
AcDbArc
 50
172.8977618504285
 51
187.1022381495714
  0
ARC
  5
247
330
1B
100
AcDbEntity
  8
4
100
AcDbCircle
 10
699.9513568699772
 20
161.780408309319
 30
0.0
 40
300.0
100
AcDbArc
 50
352.3809649835721
 51
7.619035016427832
  0
ARC
  5
248
330
1B
100
AcDbEntity
  8
4
100
AcDbCircle
 10
696.9513568699772
 20
161.780408309319
 30
0.0
 40
300.0
100
AcDbArc
 50
352.8977618504284
 51
7.102238149571463
  0
CIRCLE
  5
249
330
1B
100
AcDbEntity
  8
4
100
AcDbCircle
 10
954.9513568699772
 20
161.780408309319
 30
0.0
 40
25.0
  0
ARC
  5
24A
330
1B
100
AcDbEntity
  8
4
100
AcDbCircle
 10
1209.951356869977
 20
161.780408309319
 30
0.0
 40
300.0
100
AcDbArc
 50
172.3809649835721
 51
187.6190350164278
  0
CIRCLE
  5
24B
330
1B
100
AcDbEntity
  8
4
100
AcDbCircle
 10
954.9513568699772
 20
161.780408309319
 30
0.0
 40
91.0
  0
CIRCLE
  5
24C
330
1B
100
AcDbEntity
  8
L-CENTER
 48
2.5
100
AcDbCircle
 10
954.9513568699772
 20
161.780408309319
 30
0.0
 40
98.99999999999983
  0
CIRCLE
  5
24D
330
1B
100
AcDbEntity
  8
4
100
AcDbCircle
 10
954.9513568699772
 20
161.780408309319
 30
0.0
 40
105.0
  0
LINE
  5
24E
330
1B
100
AcDbEntity
  8
4
100
AcDbLine
 10
775.9513568699772
 20
274.2804088093191
 30
0.0
 11
774.9513568699772
 21
273.2804088093191
 31
0.0
  0
LINE
  5
24F
330
1B
100
AcDbEntity
  8
4
100
AcDbLine
 10
819.9513568699772
 20
274.2804088093191
 30
0.0
 11
819.9513568699772
 21
277.2804088093191
 31
0.0
  0
LINE
  5
250
330
1B
100
AcDbEntity
  8
4
100
AcDbLine
 10
774.9513568699772
 20
277.2804088093191
 30
0.0
 11
819.9513568699772
 21
277.2804088093191
 31
0.0
  0
LINE
  5
251
330
1B
100
AcDbEntity
  8
4
100
AcDbLine
 10
824.9513568699772
 20
274.2804088093191
 30
0.0
 11
775.9513568699772
 21
274.2804088093191
 31
0.0
  0
LINE
  5
252
330
1B
100
AcDbEntity
  8
4
 62
     3
100
AcDbLine
 10
850.2193063699774
 20
303.7804088093188
 30
0.0
 11
844.451356369977
 21
303.7804088093188
 31
0.0
  0
ARC
  5
253
330
1B
100
AcDbEntity
  8
4
 62
     3
100
AcDbCircle
 10
851.951356369977
 20
303.7804088093188
 30
0.0
 40
1.0000005
100
AcDbArc
 50
90.0
 51
180.0
  0
ARC
  5
254
330
1B
100
AcDbEntity
  8
4
 62
     3
100
AcDbCircle
 10
850.2193063699774
 20
304.7804078093189
 30
0.0
 40
1.0000005
100
AcDbArc
 50
270.0
 51
330.0000000000009
  0
LINE
  5
255
330
1B
100
AcDbEntity
  8
4
100
AcDbLine
 10
844.4513568699772
 20
292.7804088093191
 30
0.0
 11
843.4513568699772
 21
292.7804088093191
 31
0.0
  0
ARC
  5
256
330
1B
100
AcDbEntity
  8
4
 62
     3
100
AcDbCircle
 10
849.9513568699772
 20
272.7804083093189
 30
0.0
 40
1.0000005
100
AcDbArc
 50
270.0
 51
0.0
  0
LINE
  5
257
330
1B
100
AcDbEntity
  8
4
 62
     3
100
AcDbLine
 10
850.9513573699774
 20
272.7804083093189
 30
0.0
 11
850.9513573699774
 21
303.7804088093188
 31
0.0
  0
LINE
  5
258
330
1B
100
AcDbEntity
  8
4
100
AcDbLine
 10
843.4513568699772
 20
276.7804088093191
 30
0.0
 11
824.9513568699772
 21
276.7804088093191
 31
0.0
  0
ARC
  5
259
330
1B
100
AcDbEntity
  8
4
 62
     3
100
AcDbCircle
 10
994.9613563699772
 20
305.770407809319
 30
0.0
 40
0.99
100
AcDbArc
 50
270.0
 51
0.0
  0
LINE
  5
25A
330
1B
100
AcDbEntity
  8
4
 62
     3
100
AcDbLine
 10
995.951356369977
 20
305.7804083093189
 30
0.0
 11
995.951356369977
 21
305.770407809319
 31
0.0
  0
LINE
  5
25B
330
1B
100
AcDbEntity
  8
4
100
AcDbLine
 10
1008.700866869977
 20
309.2804083093189
 30
0.0
 11
1008.700866869977
 21
313.2804083093189
 31
0.0
  0
LINE
  5
25C
330
1B
100
AcDbEntity
  8
4
100
AcDbLine
 10
1003.450866869977
 20
305.7804083093189
 30
0.0
 11
1003.450866869977
 21
307.2804083093189
 31
0.0
  0
LINE
  5
25D
330
1B
100
AcDbEntity
  8
4
100
AcDbLine
 10
1002.450866869977
 20
307.2804083093189
 30
0.0
 11
1002.450866869977
 21
313.2804083093189
 31
0.0
  0
LINE
  5
25E
330
1B
100
AcDbEntity
  8
4
100
AcDbLine
 10
1026.450866869977
 20
305.7804083093189
 30
0.0
 11
1026.450866869977
 21
307.2804083093189
 31
0.0
  0
LINE
  5
25F
330
1B
100
AcDbEntity
  8
4
100
AcDbLine
 10
1027.450866869977
 20
307.2804083093189
 30
0.0
 11
1027.450866869977
 21
313.2804083093189
 31
0.0
  0
LINE
  5
260
330
1B
100
AcDbEntity
  8
4
100
AcDbLine
 10
1021.200866869977
 20
309.2804083093189
 30
0.0
 11
1021.200866869977
 21
313.2804083093189
 31
0.0
  0
ARC
  5
261
330
1B
100
AcDbEntity
  8
4
 62
     3
100
AcDbCircle
 10
1034.941357369977
 20
305.770407809319
 30
0.0
 40
0.99
100
AcDbArc
 50
180.0
 51
270.0
  0
LINE
  5
262
330
1B
100
AcDbEntity
  8
4
 62
     3
100
AcDbLine
 10
1033.951357369977
 20
305.7804083093189
 30
0.0
 11
1033.951357369977
 21
305.770407809319
 31
0.0
  0
LINE
  5
263
330
1B
100
AcDbEntity
  8
4
100
AcDbLine
 10
1027.450866869977
 20
313.2804083093189
 30
0.0
 11
1002.450866869977
 21
313.2804083093189
 31
0.0
  0
LINE
  5
264
330
1B
100
AcDbEntity
  8
4
100
AcDbLine
 10
1027.450866869977
 20
309.2804083093189
 30
0.0
 11
1002.450866869977
 21
309.2804083093189
 31
0.0
  0
LINE
  5
265
330
1B
100
AcDbEntity
  8
4
100
AcDbLine
 10
1027.450866869977
 20
307.2804083093189
 30
0.0
 11
1002.450866869977
 21
307.2804083093189
 31
0.0
  0
LINE
  5
266
330
1B
100
AcDbEntity
  8
L-CENTER
 48
2.5
100
AcDbLine
 10
1014.951356869977
 20
296.6210913649635
 30
0.0
 11
1014.951356869977
 21
319.4165072539587
 31
0.0
  0
ARC
  5
267
330
1B
100
AcDbEntity
  8
4
 62
     3
100
AcDbCircle
 10
1059.683407369977
 20
304.7804078093189
 30
0.0
 40
1.0000005
100
AcDbArc
 50
209.9999999999959
 51
270.0
  0
LINE
  5
268
330
1B
100
AcDbEntity
  8
4
 62
     3
100
AcDbLine
 10
1065.451357369977
 20
303.7804088093188
 30
0.0
 11
1059.683407369977
 21
303.7804088093188
 31
0.0
  0
ARC
  5
269
330
1B
100
AcDbEntity
  8
4
 62
     3
100
AcDbCircle
 10
1059.951356869977
 20
272.7804083093189
 30
0.0
 40
1.0000005
100
AcDbArc
 50
180.0
 51
270.0
  0
LINE
  5
26A
330
1B
100
AcDbEntity
  8
4
100
AcDbLine
 10
1065.451357369977
 20
292.7804088093191
 30
0.0
 11
1066.451357369977
 21
292.7804088093191
 31
0.0
  0
LINE
  5
26B
330
1B
100
AcDbEntity
  8
4
 62
     3
100
AcDbLine
 10
1058.951356369977
 20
272.7804083093189
 30
0.0
 11
1058.951356369977
 21
303.7804088093188
 31
0.0
  0
ARC
  5
26C
330
1B
100
AcDbEntity
  8
4
 62
     3
100
AcDbCircle
 10
1057.951357369977
 20
303.7804088093188
 30
0.0
 40
1.0000005
100
AcDbArc
 50
29.91501546532378
 51
90.0
  0
LINE
  5
26D
330
1B
100
AcDbEntity
  8
4
 62
     3
100
AcDbLine
 10
995.951356369977
 20
305.7804083093189
 30
0.0
 11
1033.951357369977
 21
305.7804083093189
 31
0.0
  0
LINE
  5
26E
330
1B
100
AcDbEntity
  8
4
 62
     3
100
AcDbLine
 10
1057.95308942051
 20
304.7804078093189
 30
0.0
 11
851.951356369977
 21
304.7804078093189
 31
0.0
  0
LINE
  5
26F
330
1B
100
AcDbEntity
  8
4
100
AcDbLine
 10
774.9513568699772
 20
250.2804088093191
 30
0.0
 11
775.9513568699772
 21
249.2804088093191
 31
0.0
  0
LINE
  5
270
330
1B
100
AcDbEntity
  8
4
100
AcDbLine
 10
824.9513568699772
 20
249.2804088093191
 30
0.0
 11
775.9513568699772
 21
249.2804088093191
 31
0.0
  0
ARC
  5
271
330
1B
100
AcDbEntity
  8
4
 62
     3
100
AcDbCircle
 10
849.9513568699772
 20
250.7804078093187
 30
0.0
 40
1.0000005
100
AcDbArc
 50
0.0
 51
90.0
  0
LINE
  5
272
330
1B
100
AcDbEntity
  8
4
100
AcDbLine
 10
844.4513568699772
 20
230.7804088093191
 30
0.0
 11
843.4513568699772
 21
230.7804088093191
 31
0.0
  0
ARC
  5
273
330
1B
100
AcDbEntity
  8
4
 62
     3
100
AcDbCircle
 10
864.694696369977
 20
252.0370688093188
 30
0.0
 40
4.0000005
100
AcDbArc
 50
106.0729439999987
 51
163.9270559999993
  0
LINE
  5
274
330
1B
100
AcDbEntity
  8
4
 62
     3
100
AcDbLine
 10
848.951356369977
 20
219.7804088093191
 30
0.0
 11
844.451356369977
 21
219.7804088093191
 31
0.0
  0
ARC
  5
275
330
1B
100
AcDbEntity
  8
4
 62
     3
100
AcDbCircle
 10
848.951356369977
 20
217.7804078093187
 30
0.0
 40
1.9999995
100
AcDbArc
 50
0.0
 51
90.0
  0
LINE
  5
276
330
1B
100
AcDbEntity
  8
4
 62
     3
100
AcDbLine
 10
850.9513573699774
 20
206.1763538093188
 30
0.0
 11
850.9513573699774
 21
250.7804078093187
 31
0.0
  0
LINE
  5
277
330
1B
100
AcDbEntity
  8
4
100
AcDbLine
 10
843.4513568699772
 20
246.7804088093191
 30
0.0
 11
824.9513568699772
 21
246.7804088093191
 31
0.0
  0
ARC
  5
278
330
1B
100
AcDbEntity
  8
4
 62
     3
100
AcDbCircle
 10
826.9513573699774
 20
64.78040780931894
 30
0.0
 40
1.9999995
100
AcDbArc
 50
90.0
 51
180.0
  0
LINE
  5
279
330
1B
100
AcDbEntity
  8
4
 62
     3
100
AcDbLine
 10
824.951356369977
 20
64.78040780931894
 30
0.0
 11
824.951356369977
 21
41.78040830931889
 31
0.0
  0
ARC
  5
27A
330
1B
100
AcDbEntity
  8
4
 62
     3
100
AcDbCircle
 10
842.951356369977
 20
71.78040830931889
 30
0.0
 40
4.9999995
100
AcDbArc
 50
270.0
 51
0.0
  0
ARC
  5
27B
330
1B
100
AcDbEntity
  8
4
 62
     3
100
AcDbCircle
 10
872.951356369977
 20
64.78040780931894
 30
0.0
 40
1.9999995
100
AcDbArc
 50
0.0
 51
90.0
  0
ARC
  5
27C
330
1B
100
AcDbEntity
  8
4
 62
     3
100
AcDbCircle
 10
874.9513573699774
 20
64.78040780931894
 30
0.0
 40
1.9999995
100
AcDbArc
 50
0.0
 51
90.0
  0
ARC
  5
27D
330
1B
100
AcDbEntity
  8
4
 62
     3
100
AcDbCircle
 10
855.2673013699773
 20
71.78040830931889
 30
0.0
 40
4.9999995
100
AcDbArc
 50
270.0
 51
15.58434900000201
  0
LINE
  5
27F
330
1B
100
AcDbEntity
  8
4
 62
     3
100
AcDbLine
 10
874.9513573699774
 20
64.78040780931894
 30
0.0
 11
874.9513573699774
 21
41.78040830931889
 31
0.0
  0
LINE
  5
280
330
1B
100
AcDbEntity
  8
4
 62
     3
100
AcDbLine
 10
876.9513568699772
 20
64.78040780931894
 30
0.0
 11
876.9513568699772
 21
41.78040830931889
 31
0.0
  0
ARC
  5
281
330
1B
100
AcDbEntity
  8
4
 62
     3
100
AcDbCircle
 10
881.951356369977
 20
57.83087030931904
 30
0.0
 40
4.9999995
100
AcDbArc
 50
77.41366699999448
 51
180.0
  0
ARC
  5
282
330
1B
100
AcDbEntity
  8
4
 62
     3
100
AcDbCircle
 10
881.951356369977
 20
46.78040780931894
 30
0.0
 40
4.9999995
100
AcDbArc
 50
90.0
 51
180.0
  0
LINE
  5
283
330
1B
100
AcDbEntity
  8
4
 62
     3
100
AcDbLine
 10
876.9513568699772
 20
41.78040830931889
 30
0.0
 11
824.951356369977
 21
41.78040830931889
 31
0.0
  0
LINE
  5
284
330
1B
100
AcDbEntity
  8
4
 62
     3
100
AcDbLine
 10
874.9513573699774
 20
66.78040880931883
 30
0.0
 11
826.9513573699774
 21
66.78040880931883
 31
0.0
  0
ARC
  5
285
330
1B
100
AcDbEntity
  8
4
 62
     3
100
AcDbCircle
 10
1177.951357369977
 20
161.7804083093189
 30
0.0
 40
330.0
100
AcDbArc
 50
163.927056
 51
195.5843489999999
  0
LINE
  5
286
330
1B
100
AcDbEntity
  8
4
 62
     3
100
AcDbLine
 10
847.9513573699774
 20
161.7804083093189
 30
0.0
 11
847.9513573699774
 21
71.78040830931889
 31
0.0
  0
ARC
  5
287
330
1B
100
AcDbEntity
  8
4
 62
     3
100
AcDbCircle
 10
1045.208017369977
 20
252.0370688093188
 30
0.0
 40
4.0000005
100
AcDbArc
 50
16.07294400000068
 51
73.92705600000133
  0
ARC
  5
288
330
1B
100
AcDbEntity
  8
4
 62
     3
100
AcDbCircle
 10
1059.951356869977
 20
250.7804078093187
 30
0.0
 40
1.0000005
100
AcDbArc
 50
90.0
 51
180.0
  0
LINE
  5
289
330
1B
100
AcDbEntity
  8
4
100
AcDbLine
 10
1065.451357369977
 20
230.7804088093191
 30
0.0
 11
1066.451357369977
 21
230.7804088093191
 31
0.0
  0
ARC
  5
28A
330
1B
100
AcDbEntity
  8
4
 62
     3
100
AcDbCircle
 10
1060.951357369977
 20
217.7804078093187
 30
0.0
 40
1.9999995
100
AcDbArc
 50
90.0
 51
180.0
  0
LINE
  5
28B
330
1B
100
AcDbEntity
  8
4
 62
     3
100
AcDbLine
 10
1060.951357369977
 20
219.7804088093191
 30
0.0
 11
1065.451357369977
 21
219.7804088093191
 31
0.0
  0
LINE
  5
28C
330
1B
100
AcDbEntity
  8
4
 62
     3
100
AcDbLine
 10
1058.951356369977
 20
206.1763538093188
 30
0.0
 11
1058.951356369977
 21
250.7804078093187
 31
0.0
  0
LINE
  5
28D
330
1B
100
AcDbEntity
  8
4
100
AcDbLine
 10
1065.451357369977
 20
138.7804078093189
 30
0.0
 11
1063.951357369977
 21
138.7804078093189
 31
0.0
  0
ARC
  5
28E
330
1B
100
AcDbEntity
  8
4
 62
     3
100
AcDbCircle
 10
1063.951357369977
 20
144.7804088093188
 30
0.0
 40
1.9999995
100
AcDbArc
 50
180.0
 51
270.0
  0
LINE
  5
28F
330
1B
100
AcDbEntity
  8
4
100
AcDbLine
 10
1072.451357369977
 20
139.7804078093189
 30
0.0
 11
1065.451357369977
 21
139.7804078093189
 31
0.0
  0
LINE
  5
290
330
1B
100
AcDbEntity
  8
4
 62
     3
100
AcDbLine
 10
1061.951356369977
 20
161.7804083093189
 30
0.0
 11
1061.951356369977
 21
144.7804088093188
 31
0.0
  0
LINE
  5
291
330
1B
100
AcDbEntity
  8
4
100
AcDbLine
 10
1067.451357369977
 20
132.2804078093189
 30
0.0
 11
1072.451357369977
 21
132.2804078093189
 31
0.0
  0
LINE
  5
292
330
1B
100
AcDbEntity
  8
4
100
AcDbLine
 10
1067.451357369977
 20
117.2804078093189
 30
0.0
 11
1072.451357369977
 21
117.2804078093189
 31
0.0
  0
LINE
  5
293
330
1B
100
AcDbEntity
  8
4
100
AcDbLine
 10
1065.451357369977
 20
110.7804078093189
 30
0.0
 11
1063.951357369977
 21
110.7804078093189
 31
0.0
  0
LINE
  5
294
330
1B
100
AcDbEntity
  8
4
100
AcDbLine
 10
1065.451357369977
 20
109.7804078093189
 30
0.0
 11
1072.451357369977
 21
109.7804078093189
 31
0.0
  0
LINE
  5
295
330
1B
100
AcDbEntity
  8
L-CENTER
 48
2.5
100
AcDbLine
 10
1052.005631869977
 20
124.7804078093189
 30
0.0
 11
1075.576858619277
 21
124.7804078093189
 31
0.0
  0
LINE
  5
296
330
1B
100
AcDbEntity
  8
4
100
AcDbLine
 10
1063.951357369977
 20
110.7804078093189
 30
0.0
 11
1063.951357369977
 21
138.7804078093189
 31
0.0
  0
LINE
  5
297
330
1B
100
AcDbEntity
  8
4
100
AcDbLine
 10
1065.451357369977
 20
109.7804078093189
 30
0.0
 11
1065.451357369977
 21
139.7804078093189
 31
0.0
  0
LINE
  5
298
330
1B
100
AcDbEntity
  8
4
100
AcDbLine
 10
1067.451357369977
 20
109.7804078093189
 30
0.0
 11
1067.451357369977
 21
139.7804078093189
 31
0.0
  0
LINE
  5
299
330
1B
100
AcDbEntity
  8
4
100
AcDbLine
 10
1072.451357369977
 20
109.7804078093189
 30
0.0
 11
1072.451357369977
 21
139.7804078093189
 31
0.0
  0
ARC
  5
29A
330
1B
100
AcDbEntity
  8
4
 62
     3
100
AcDbCircle
 10
1034.951356369977
 20
64.78040780931894
 30
0.0
 40
1.9999995
100
AcDbArc
 50
90.0
 51
180.0
  0
ARC
  5
29B
330
1B
100
AcDbEntity
  8
4
 62
     3
100
AcDbCircle
 10
1036.951357369977
 20
64.78040780931894
 30
0.0
 40
1.9999995
100
AcDbArc
 50
90.0
 51
180.0
  0
ARC
  5
29C
330
1B
100
AcDbEntity
  8
4
 62
     3
100
AcDbCircle
 10
1027.951357369977
 20
57.83087030931904
 30
0.0
 40
4.9999995
100
AcDbArc
 50
0.0
 51
102.5863330000055
  0
LINE
  5
29D
330
1B
100
AcDbEntity
  8
4
 62
     3
100
AcDbLine
 10
1032.951356869977
 20
64.78040780931894
 30
0.0
 11
1032.951356869977
 21
41.78040830931889
 31
0.0
  0
LINE
  5
29E
330
1B
100
AcDbEntity
  8
4
 62
     3
100
AcDbLine
 10
1034.951356369977
 20
64.78040780931894
 30
0.0
 11
1034.951356369977
 21
41.78040830931889
 31
0.0
  0
ARC
  5
29F
330
1B
100
AcDbEntity
  8
4
 62
     3
100
AcDbCircle
 10
1027.951357369977
 20
46.78040780931894
 30
0.0
 40
4.9999995
100
AcDbArc
 50
0.0
 51
90.0
  0
ARC
  5
2A0
330
1B
100
AcDbEntity
  8
4
 62
     3
100
AcDbCircle
 10
1054.635412369977
 20
71.78040830931889
 30
0.0
 40
4.9999995
100
AcDbArc
 50
164.4156509999983
 51
270.0
  0
LINE
  5
2A1
330
1B
100
AcDbEntity
  8
4
 62
     3
100
AcDbLine
 10
1064.951356369977
 20
91.78040780931894
 30
0.0
 11
1064.951356369977
 21
71.78040830931889
 31
0.0
  0
LINE
  5
2A2
330
1B
100
AcDbEntity
  8
4
 62
     3
100
AcDbLine
 10
1064.451356869977
 20
71.78040830931889
 30
0.0
 11
1064.951356369977
 21
71.78040830931889
 31
0.0
  0
ARC
  5
2A3
330
1B
100
AcDbEntity
  8
4
 62
     3
100
AcDbCircle
 10
1064.451356869977
 20
71.28040880931883
 30
0.0
 40
0.4999995
100
AcDbArc
 50
90.0
 51
180.0
  0
LINE
  5
2A4
330
1B
100
AcDbEntity
  8
4
100
AcDbLine
 10
1065.951356369977
 20
87.78040880931883
 30
0.0
 11
1064.951356369977
 21
87.78040880931883
 31
0.0
  0
LINE
  5
2A5
330
1B
100
AcDbEntity
  8
4
 62
     3
100
AcDbLine
 10
1064.951356369977
 20
91.78040780931894
 30
0.0
 11
1064.451356869977
 21
91.78040780931894
 31
0.0
  0
LINE
  5
2A6
330
1B
100
AcDbEntity
  8
4
100
AcDbLine
 10
1065.951356369977
 20
75.78040880931883
 30
0.0
 11
1064.951356369977
 21
75.78040880931883
 31
0.0
  0
LINE
  5
2A7
330
1B
100
AcDbEntity
  8
4
100
AcDbLine
 10
1065.951356369977
 20
75.78040880931883
 30
0.0
 11
1065.951356369977
 21
87.78040880931883
 31
0.0
  0
ARC
  5
2A8
330
1B
100
AcDbEntity
  8
4
 62
     3
100
AcDbCircle
 10
1065.951356869977
 20
68.78040830931889
 30
0.0
 40
1.9999995
100
AcDbArc
 50
180.0
 51
270.0
  0
ARC
  5
2A9
330
1B
100
AcDbEntity
  8
4
 62
     3
100
AcDbCircle
 10
1066.951357369977
 20
71.78040830931889
 30
0.0
 40
4.9999995
100
AcDbArc
 50
180.0
 51
270.0
  0
LINE
  5
2AA
330
1B
100
AcDbEntity
  8
L-CENTER
 48
2.5
100
AcDbLine
 10
1050.616685869977
 20
81.78040880931883
 30
0.0
 11
1069.191911869977
 21
81.78040880931883
 31
0.0
  0
ARC
  5
2AC
330
1B
100
AcDbEntity
  8
4
 62
     3
100
AcDbCircle
 10
954.9513568699772
 20
384.7804088093191
 30
0.0
 40
330.0
100
AcDbArc
 50
270.0
 51
282.586333
  0
ARC
  5
2AD
330
1B
100
AcDbEntity
  8
4
 62
     3
100
AcDbCircle
 10
731.951356369977
 20
161.7804083093189
 30
0.0
 40
330.0
100
AcDbArc
 50
344.4156509999999
 51
16.07294400000001
  0
LINE
  5
2AE
330
1B
100
AcDbEntity
  8
4
 62
     3
100
AcDbLine
 10
1063.951357369977
 20
68.78040830931889
 30
0.0
 11
1063.951357369977
 21
142.7804078093189
 31
0.0
  0
LINE
  5
2AF
330
1B
100
AcDbEntity
  8
4
 62
     3
100
AcDbLine
 10
1061.951356369977
 20
161.7804083093189
 30
0.0
 11
1061.951356369977
 21
71.78040830931889
 31
0.0
  0
ARC
  5
2B0
330
1B
100
AcDbEntity
  8
4
 62
     3
100
AcDbCircle
 10
1064.451356869977
 20
92.28040880931883
 30
0.0
 40
0.4999995
100
AcDbArc
 50
180.0
 51
270.0
  0
ARC
  5
2B1
330
1B
100
AcDbEntity
  8
4
 62
     3
100
AcDbCircle
 10
954.9513568699772
 20
-61.21959219068125
 30
0.0
 40
330.0
100
AcDbArc
 50
73.92652589377367
 51
106.072944
  0
LINE
  5
2B2
330
1B
100
AcDbEntity
  8
L-CENTER
 48
2.5
100
AcDbLine
 10
1069.211549869977
 20
161.7804083093189
 30
0.0
 11
840.6911638699771
 21
161.7804083093189
 31
0.0
  0
LINE
  5
2B3
330
1B
100
AcDbEntity
  8
L-CENTER
 48
2.5
100
AcDbLine
 10
771.1426573457734
 20
261.7804088093191
 30
0.0
 11
1070.906296893754
 21
261.7804088093191
 31
0.0
  0
LINE
  5
2B4
330
1B
100
AcDbEntity
  8
4
 62
     3
100
AcDbLine
 10
1027.951357369977
 20
51.78040880931883
 30
0.0
 11
881.951356369977
 21
51.78040880931883
 31
0.0
  0
ARC
  5
2B5
330
1B
100
AcDbEntity
  8
4
 62
     3
100
AcDbCircle
 10
954.9513568699772
 20
384.7804088093191
 30
0.0
 40
330.0
100
AcDbArc
 50
257.413667
 51
270.0
  0
ARC
  5
2B6
330
1B
100
AcDbEntity
  8
4
 62
     3
100
AcDbCircle
 10
1082.951356369977
 20
64.78040780931894
 30
0.0
 40
1.9999995
100
AcDbArc
 50
0.0
 51
90.0
  0
LINE
  5
2B7
330
1B
100
AcDbEntity
  8
4
 62
     3
100
AcDbLine
 10
1084.951357369977
 20
64.78040780931894
 30
0.0
 11
1084.951357369977
 21
41.78040830931889
 31
0.0
  0
LINE
  5
2B8
330
1B
100
AcDbEntity
  8
4
 62
     3
100
AcDbLine
 10
1084.951357369977
 20
41.78040830931889
 30
0.0
 11
1032.951356869977
 21
41.78040830931889
 31
0.0
  0
LINE
  5
2B9
330
1B
100
AcDbEntity
  8
4
 62
     3
100
AcDbLine
 10
1082.951356369977
 20
66.78040880931883
 30
0.0
 11
1065.951356869977
 21
66.78040880931883
 31
0.0
  0
LINE
  5
2BA
330
1B
100
AcDbEntity
  8
4
 62
     3
100
AcDbLine
 10
1034.951356369977
 20
66.78040880931883
 30
0.0
 11
1082.951356369977
 21
66.78040880931883
 31
0.0
  0
LINE
  5
2BB
330
1B
100
AcDbEntity
  8
4
 62
     3
100
AcDbLine
 10
1065.451357369977
 20
303.7804088093188
 30
0.0
 11
1065.451357369977
 21
219.7804088093191
 31
0.0
  0
LINE
  5
2BC
330
1B
100
AcDbEntity
  8
4
100
AcDbLine
 10
1066.451357369977
 20
292.7804088093191
 30
0.0
 11
1066.451357369977
 21
230.7804088093191
 31
0.0
  0
LINE
  5
2BD
330
1B
100
AcDbEntity
  8
4
 62
     3
100
AcDbLine
 10
844.451356369977
 20
303.7804088093188
 30
0.0
 11
844.451356369977
 21
219.7804088093191
 31
0.0
  0
LINE
  5
2BE
330
1B
100
AcDbEntity
  8
L-CENTER
 48
2.5
100
AcDbLine
 10
954.9513568699772
 20
47.52021530931881
 30
0.0
 11
954.9513568699772
 21
311.7804083093189
 31
0.0
  0
LINE
  5
2BF
330
1B
100
AcDbEntity
  8
4
100
AcDbLine
 10
843.4513568699772
 20
292.7804088093191
 30
0.0
 11
843.4513568699772
 21
230.7804088093191
 31
0.0
  0
LINE
  5
2C0
330
1B
100
AcDbEntity
  8
4
100
AcDbLine
 10
824.9513568699772
 20
276.7804088093191
 30
0.0
 11
824.9513568699772
 21
246.7804088093191
 31
0.0
  0
LINE
  5
2C1
330
1B
100
AcDbEntity
  8
4
100
AcDbLine
 10
774.9513568699772
 20
250.2804088093191
 30
0.0
 11
774.9513568699772
 21
277.2804088093191
 31
0.0
  0
LINE
  5
2C2
330
1B
100
AcDbEntity
  8
4
100
AcDbLine
 10
775.9513568699772
 20
274.2804088093191
 30
0.0
 11
775.9513568699772
 21
249.2804088093191
 31
0.0
  0
LINE
  5
2C3
330
1B
100
AcDbEntity
  8
4
100
AcDbLine
 10
217.7220482100724
 20
711.5464035132726
 30
0.0
 11
216.7220482100724
 21
712.5464035132726
 31
0.0
  0
LINE
  5
2C4
330
1B
100
AcDbEntity
  8
4
100
AcDbLine
 10
183.7220482100724
 20
711.5464035132726
 30
0.0
 11
184.7220482100724
 21
712.5464035132726
 31
0.0
  0
LINE
  5
2C5
330
1B
100
AcDbEntity
  8
4
100
AcDbLine
 10
183.7220482100724
 20
711.5464035132726
 30
0.0
 11
195.7220482100724
 21
711.5464035132726
 31
0.0
  0
LINE
  5
2C6
330
1B
100
AcDbEntity
  8
4
100
AcDbLine
 10
205.7220482100724
 20
711.5464035132726
 30
0.0
 11
217.7220482100724
 21
711.5464035132726
 31
0.0
  0
LINE
  5
2C7
330
1B
100
AcDbEntity
  8
4
100
AcDbLine
 10
184.7220482100724
 20
712.5464035132726
 30
0.0
 11
216.7220482100724
 21
712.5464035132726
 31
0.0
  0
ARC
  5
2C8
330
1B
100
AcDbEntity
  8
4
100
AcDbCircle
 10
218.2220482100724
 20
653.0464035132728
 30
0.0
 40
0.5
100
AcDbArc
 50
180.0
 51
270.0
  0
LINE
  5
2C9
330
1B
100
AcDbEntity
  8
4
100
AcDbLine
 10
218.2220482100724
 20
652.5464035132726
 30
0.0
 11
218.2220482100724
 21
652.5464035132726
 31
0.0
  0
ARC
  5
2CA
330
1B
100
AcDbEntity
  8
4
100
AcDbCircle
 10
183.2220482100724
 20
653.0464035132728
 30
0.0
 40
0.5
100
AcDbArc
 50
270.0
 51
0.0
  0
LINE
  5
2CB
330
1B
100
AcDbEntity
  8
4
100
AcDbLine
 10
183.2220482100724
 20
652.5464035132726
 30
0.0
 11
183.2220482100724
 21
652.5464035132726
 31
0.0
  0
ARC
  5
2CC
330
1B
100
AcDbEntity
  8
4
100
AcDbCircle
 10
200.7220482100724
 20
662.5464035132728
 30
0.0
 40
5.0
100
AcDbArc
 50
180.0
 51
0.0
  0
LINE
  5
2CD
330
1B
100
AcDbEntity
  8
4
100
AcDbLine
 10
218.2220482100724
 20
652.5464035132726
 30
0.0
 11
183.2220482100724
 21
652.5464035132726
 31
0.0
  0
LINE
  5
2CE
330
1B
100
AcDbEntity
  8
4
100
AcDbLine
 10
294.7220482100724
 20
624.3464035132725
 30
0.0
 11
294.7220482100724
 21
618.3464035132725
 31
0.0
  0
LINE
  5
2CF
330
1B
100
AcDbEntity
  8
4
100
AcDbLine
 10
304.7220482100724
 20
624.3464035132725
 30
0.0
 11
304.7220482100724
 21
618.3464035132725
 31
0.0
  0
LINE
  5
2D0
330
1B
100
AcDbEntity
  8
4
100
AcDbLine
 10
293.9720482100724
 20
618.3464035132725
 30
0.0
 11
293.9720482100724
 21
616.8464035132725
 31
0.0
  0
LINE
  5
2D1
330
1B
100
AcDbEntity
  8
4
100
AcDbLine
 10
305.4720482100724
 20
618.3464035132725
 30
0.0
 11
305.4720482100724
 21
616.8464035132725
 31
0.0
  0
LINE
  5
2D2
330
1B
100
AcDbEntity
  8
4
100
AcDbLine
 10
293.9720482100724
 20
618.3464035132725
 30
0.0
 11
305.4720482100724
 21
618.3464035132725
 31
0.0
  0
ARC
  5
2D3
330
1B
100
AcDbEntity
  8
4
100
AcDbCircle
 10
304.7220482100724
 20
615.8464035132725
 30
0.0
 40
1.0
100
AcDbArc
 50
0.0
 51
90.0
  0
LINE
  5
2D4
330
1B
100
AcDbEntity
  8
4
100
AcDbLine
 10
294.7220482100724
 20
624.3464035132725
 30
0.0
 11
304.7220482100724
 21
624.3464035132725
 31
0.0
  0
ARC
  5
2D5
330
1B
100
AcDbEntity
  8
4
100
AcDbCircle
 10
326.7220482100724
 20
628.5464030132727
 30
0.0
 40
4.0000005
100
AcDbArc
 50
0.0
 51
90.0
  0
LINE
  5
2D6
330
1B
100
AcDbEntity
  8
4
100
AcDbLine
 10
305.7220482100724
 20
600.5464040132725
 30
0.0
 11
305.7220482100724
 21
605.5464035132724
 31
0.0
  0
LINE
  5
2D7
330
1B
100
AcDbEntity
  8
4
100
AcDbLine
 10
311.2220482100724
 20
588.5464035132726
 30
0.0
 11
312.2220482100724
 21
588.5464035132726
 31
0.0
  0
LINE
  5
2D8
330
1B
100
AcDbEntity
  8
4
100
AcDbLine
 10
307.7220482100724
 20
599.5464035132726
 30
0.0
 11
307.7220482100724
 21
600.5464040132725
 31
0.0
  0
LINE
  5
2D9
330
1B
100
AcDbEntity
  8
L-CENTER
 48
2.5
100
AcDbLine
 10
297.3496422100725
 20
612.5464040132725
 30
0.0
 11
324.3647487100725
 21
612.5464040132725
 31
0.0
  0
LINE
  5
2DA
330
1B
100
AcDbEntity
  8
L-CENTER
 48
2.5
100
AcDbLine
 10
299.7220482100724
 20
594.8195735108121
 30
0.0
 11
299.7220482100724
 21
625.5791674375438
 31
0.0
  0
LINE
  5
2DB
330
1B
100
AcDbEntity
  8
L-CENTER
 48
2.5
100
AcDbLine
 10
310.7220477100723
 20
599.3287145132725
 30
0.0
 11
310.7220477100723
 21
626.3436830132727
 31
0.0
  0
LINE
  5
2DC
330
1B
100
AcDbEntity
  8
4
100
AcDbLine
 10
305.7220482100724
 20
615.8464035132725
 30
0.0
 11
305.7220482100724
 21
605.8464035132725
 31
0.0
  0
ARC
  5
2DD
330
1B
100
AcDbEntity
  8
4
100
AcDbCircle
 10
310.7220477100723
 20
612.5464040132725
 30
0.0
 40
7.5
100
AcDbArc
 50
228.1896902289132
 51
134.176119687506
  0
LINE
  5
2DE
330
1B
100
AcDbEntity
  8
4
100
AcDbLine
 10
255.2220483762867
 20
624.3464035132725
 30
0.0
 11
255.2220483762867
 21
618.3464035132725
 31
0.0
  0
LINE
  5
2DF
330
1B
100
AcDbEntity
  8
4
100
AcDbLine
 10
245.2220483762867
 20
624.3464035132725
 30
0.0
 11
245.2220483762867
 21
618.3464035132725
 31
0.0
  0
LINE
  5
2E0
330
1B
100
AcDbEntity
  8
4
100
AcDbLine
 10
280.7696672576922
 20
616.8464035132725
 30
0.0
 11
255.2220483762867
 21
623.8442295547007
 31
0.0
  0
LINE
  5
2E1
330
1B
100
AcDbEntity
  8
4
100
AcDbLine
 10
280.6182252100725
 20
628.6530320132725
 30
0.0
 11
280.3479356531939
 21
618.5171749132293
 31
0.0
  0
LINE
  5
2E2
330
1B
100
AcDbEntity
  8
4
100
AcDbLine
 10
244.4720483762867
 20
618.3464035132725
 30
0.0
 11
244.4720483762867
 21
616.8464035132725
 31
0.0
  0
LINE
  5
2E3
330
1B
100
AcDbEntity
  8
4
100
AcDbLine
 10
255.9720483762867
 20
618.3464035132725
 30
0.0
 11
255.9720483762867
 21
616.8464035132725
 31
0.0
  0
LINE
  5
2E4
330
1B
100
AcDbEntity
  8
4
100
AcDbLine
 10
244.4720483762867
 20
618.3464035132725
 30
0.0
 11
255.9720483762867
 21
618.3464035132725
 31
0.0
  0
LINE
  5
2E5
330
1B
100
AcDbEntity
  8
4
100
AcDbLine
 10
253.3887148767392
 20
624.3464035132725
 30
0.0
 11
246.82289180106
 21
626.1448680948719
 31
0.0
  0
LINE
  5
2E6
330
1B
100
AcDbEntity
  8
4
100
AcDbLine
 10
245.2220483762867
 20
624.3464035132725
 30
0.0
 11
255.2220483762867
 21
624.3464035132725
 31
0.0
  0
ARC
  5
2E7
330
1B
100
AcDbEntity
  8
4
100
AcDbCircle
 10
241.9582523690733
 20
636.4464035132729
 30
0.0
 40
1.0
100
AcDbArc
 50
15.2551187030612
 51
90.0
  0
LINE
  5
2E8
330
1B
100
AcDbEntity
  8
4
100
AcDbLine
 10
225.7220482100724
 20
638.4464035132729
 30
0.0
 11
225.7220482100724
 21
637.4464035132729
 31
0.0
  0
ARC
  5
2E9
330
1B
100
AcDbEntity
  8
4
100
AcDbCircle
 10
247.3512552292223
 20
628.0738139437179
 30
0.0
 40
2.0
100
AcDbArc
 50
195.2551187030549
 51
254.6816642065432
  0
LINE
  5
2EA
330
1B
100
AcDbEntity
  8
4
100
AcDbLine
 10
242.923016190311
 20
636.7095209190649
 30
0.0
 11
245.4217275867468
 21
627.5475791321338
 31
0.0
  0
ARC
  5
2EB
330
1B
100
AcDbEntity
  8
4
100
AcDbCircle
 10
284.6168037100724
 20
628.5464030132727
 30
0.0
 40
4.0000005
100
AcDbArc
 50
90.0
 51
178.4724749999995
  0
LINE
  5
2EC
330
1B
100
AcDbEntity
  8
4
100
AcDbLine
 10
156.2220480438582
 20
624.3464035132725
 30
0.0
 11
156.2220480438582
 21
618.3464035132725
 31
0.0
  0
LINE
  5
2ED
330
1B
100
AcDbEntity
  8
4
100
AcDbLine
 10
146.2220480438582
 20
624.3464035132725
 30
0.0
 11
146.2220480438582
 21
618.3464035132725
 31
0.0
  0
LINE
  5
2EE
330
1B
100
AcDbEntity
  8
4
100
AcDbLine
 10
156.9720480438582
 20
618.3464035132725
 30
0.0
 11
145.4720480438582
 21
618.3464035132725
 31
0.0
  0
LINE
  5
2EF
330
1B
100
AcDbEntity
  8
4
100
AcDbLine
 10
145.4720480438582
 20
618.3464035132725
 30
0.0
 11
145.4720480438582
 21
616.8464035132725
 31
0.0
  0
LINE
  5
2F0
330
1B
100
AcDbEntity
  8
4
100
AcDbLine
 10
156.9720480438582
 20
618.3464035132725
 30
0.0
 11
156.9720480438582
 21
616.8464035132725
 31
0.0
  0
ARC
  5
2F1
330
1B
100
AcDbEntity
  8
4
100
AcDbCircle
 10
155.3658492253671
 20
628.9409253196842
 30
0.0
 40
1.0
100
AcDbArc
 50
285.3183357934568
 51
344.7448812969518
  0
LINE
  5
2F2
330
1B
100
AcDbEntity
  8
4
100
AcDbLine
 10
158.5210802298338
 20
636.7095209190651
 30
0.0
 11
156.3306130466049
 21
628.677807913892
 31
0.0
  0
LINE
  5
2F3
330
1B
100
AcDbEntity
  8
4
100
AcDbLine
 10
148.0553815434052
 20
624.3464035132725
 30
0.0
 11
154.6212046190849
 21
626.1448680948719
 31
0.0
  0
LINE
  5
2F4
330
1B
100
AcDbEntity
  8
4
100
AcDbLine
 10
156.2220480438582
 20
624.3464035132725
 30
0.0
 11
146.2220480438582
 21
624.3464035132725
 31
0.0
  0
LINE
  5
2F5
330
1B
100
AcDbEntity
  8
4
100
AcDbLine
 10
156.0223688333981
 20
627.5475791321338
 30
0.0
 11
156.290411193931
 21
628.5304011207542
 31
0.0
  0
ARC
  5
2F6
330
1B
100
AcDbEntity
  8
4
100
AcDbCircle
 10
154.0928411909226
 20
628.0738139437179
 30
0.0
 40
2.0
100
AcDbArc
 50
285.3183357934568
 51
344.7448812969451
  0
ARC
  5
2F7
330
1B
100
AcDbEntity
  8
4
100
AcDbCircle
 10
159.4858440510716
 20
636.4464035132729
 30
0.0
 40
1.0
100
AcDbArc
 50
90.0
 51
164.7448812969384
  0
LINE
  5
2F8
330
1B
100
AcDbEntity
  8
4
100
AcDbLine
 10
175.7220482100724
 20
638.4464035132729
 30
0.0
 11
175.7220482100724
 21
637.4464035132729
 31
0.0
  0
LINE
  5
2F9
330
1B
100
AcDbEntity
  8
4
100
AcDbLine
 10
159.4858440510716
 20
637.4464035132729
 30
0.0
 11
241.9582523690733
 21
637.4464035132729
 31
0.0
  0
LINE
  5
2FA
330
1B
100
AcDbEntity
  8
4
100
AcDbLine
 10
175.7220482100724
 20
638.4464035132729
 30
0.0
 11
225.7220482100724
 21
638.4464035132729
 31
0.0
  0
LINE
  5
2FB
330
1B
100
AcDbEntity
  8
4
100
AcDbLine
 10
159.4858440510716
 20
626.4464035132729
 30
0.0
 11
241.9582523690733
 21
626.4464035132729
 31
0.0
  0
LINE
  5
2FC
330
1B
100
AcDbEntity
  8
L-CENTER
 48
2.5
100
AcDbLine
 10
250.2220483762867
 20
594.8195735108121
 30
0.0
 11
250.2220483762867
 21
625.5791674375438
 31
0.0
  0
LINE
  5
2FD
330
1B
100
AcDbEntity
  8
L-CENTER
 48
2.5
100
AcDbLine
 10
151.2220480438582
 20
594.8195735108121
 30
0.0
 11
151.2220480438582
 21
625.5791674375438
 31
0.0
  0
LINE
  5
2FE
330
1B
100
AcDbEntity
  8
L-CENTER
 48
2.5
100
AcDbLine
 10
135.7220482100724
 20
632.4464035132729
 30
0.0
 11
135.7220482100724
 21
605.4464035132729
 31
0.0
  0
LINE
  5
2FF
330
1B
100
AcDbEntity
  8
4
100
AcDbLine
 10
284.6168037100724
 20
632.5464035132726
 30
0.0
 11
326.7220482100724
 21
632.5464035132726
 31
0.0
  0
LINE
  5
300
330
1B
100
AcDbEntity
  8
4
100
AcDbLine
 10
245.2636436852029
 20
628.1272201044616
 30
0.0
 11
286.4475772720825
 21
616.8464035132725
 31
0.0
  0
LINE
  5
301
330
1B
100
AcDbEntity
  8
4
100
AcDbLine
 10
183.2220482100724
 20
638.4464035132729
 30
0.0
 11
183.2220482100724
 21
652.5464035132726
 31
0.0
  0
LINE
  5
302
330
1B
100
AcDbEntity
  8
4
100
AcDbLine
 10
218.2220482100724
 20
638.4464035132729
 30
0.0
 11
218.2220482100724
 21
652.5464035132726
 31
0.0
  0
LINE
  5
303
330
1B
100
AcDbEntity
  8
4
100
AcDbLine
 10
205.7220482100724
 20
662.5464035132726
 30
0.0
 11
205.7220482100724
 21
712.5464035132726
 31
0.0
  0
LINE
  5
304
330
1B
100
AcDbEntity
  8
4
100
AcDbLine
 10
195.7220482100724
 20
662.5464035132726
 30
0.0
 11
195.7220482100724
 21
712.5464035132726
 31
0.0
  0
LINE
  5
305
330
1B
100
AcDbEntity
  8
4
100
AcDbLine
 10
217.7220482100724
 20
653.0464035132726
 30
0.0
 11
217.7220482100724
 21
711.5464035132726
 31
0.0
  0
LINE
  5
306
330
1B
100
AcDbEntity
  8
4
100
AcDbLine
 10
183.7220482100724
 20
653.0464035132726
 30
0.0
 11
183.7220482100724
 21
711.5464035132726
 31
0.0
  0
LINE
  5
307
330
1B
100
AcDbEntity
  8
4
100
AcDbLine
 10
379.7220482100724
 20
570.0464035132726
 30
0.0
 11
380.7220482100724
 21
569.0464035132726
 31
0.0
  0
LINE
  5
308
330
1B
100
AcDbEntity
  8
4
100
AcDbLine
 10
379.7220482100724
 20
570.0464035132726
 30
0.0
 11
380.7220482100724
 21
569.0464035132726
 31
0.0
  0
LINE
  5
309
330
1B
100
AcDbEntity
  8
4
100
AcDbLine
 10
379.7220482100724
 20
570.0464035132726
 30
0.0
 11
379.7220482100724
 21
561.0464035132726
 31
0.0
  0
LINE
  5
30A
330
1B
100
AcDbEntity
  8
4
100
AcDbLine
 10
379.7220482100724
 20
570.0464035132726
 30
0.0
 11
379.7220482100724
 21
561.0464035132726
 31
0.0
  0
LINE
  5
30B
330
1B
100
AcDbEntity
  8
4
100
AcDbLine
 10
312.2220482100724
 20
572.5464035132726
 30
0.0
 11
330.7220482100724
 21
572.5464035132726
 31
0.0
  0
LINE
  5
30C
330
1B
100
AcDbEntity
  8
4
100
AcDbLine
 10
312.2220482100724
 20
572.5464035132726
 30
0.0
 11
330.7220482100724
 21
572.5464035132726
 31
0.0
  0
ARC
  5
30D
330
1B
100
AcDbEntity
  8
4
100
AcDbCircle
 10
339.2220482100724
 20
557.5464035132726
 30
0.0
 40
3.5
100
AcDbArc
 50
90.0
 51
270.0
  0
ARC
  5
30E
330
1B
100
AcDbEntity
  8
4
100
AcDbCircle
 10
339.2220482100724
 20
557.5464035132726
 30
0.0
 40
3.5
100
AcDbArc
 50
90.0
 51
270.0
  0
ARC
  5
30F
330
1B
100
AcDbEntity
  8
4
100
AcDbCircle
 10
331.7220482100724
 20
571.0464035132726
 30
0.0
 40
1.0
100
AcDbArc
 50
180.0
 51
270.0
  0
ARC
  5
310
330
1B
100
AcDbEntity
  8
4
100
AcDbCircle
 10
331.7220482100724
 20
571.0464035132726
 30
0.0
 40
1.0
100
AcDbArc
 50
180.0
 51
270.0
  0
LINE
  5
311
330
1B
100
AcDbEntity
  8
4
100
AcDbLine
 10
339.2220482100724
 20
554.0464035132726
 30
0.0
 11
380.7220482100724
 21
554.0464035132726
 31
0.0
  0
LINE
  5
312
330
1B
100
AcDbEntity
  8
4
100
AcDbLine
 10
339.2220482100724
 20
554.0464035132726
 30
0.0
 11
380.7220482100724
 21
554.0464035132726
 31
0.0
  0
LINE
  5
313
330
1B
100
AcDbEntity
  8
4
100
AcDbLine
 10
339.2220482100724
 20
561.0464035132726
 30
0.0
 11
380.7220482100724
 21
561.0464035132726
 31
0.0
  0
LINE
  5
314
330
1B
100
AcDbEntity
  8
4
100
AcDbLine
 10
339.2220482100724
 20
561.0464035132726
 30
0.0
 11
380.7220482100724
 21
561.0464035132726
 31
0.0
  0
LINE
  5
315
330
1B
100
AcDbEntity
  8
4
100
AcDbLine
 10
331.7220482100724
 20
570.0464035132726
 30
0.0
 11
379.7220482100724
 21
570.0464035132726
 31
0.0
  0
LINE
  5
316
330
1B
100
AcDbEntity
  8
4
100
AcDbLine
 10
331.7220482100724
 20
570.0464035132726
 30
0.0
 11
379.7220482100724
 21
570.0464035132726
 31
0.0
  0
LINE
  5
317
330
1B
100
AcDbEntity
  8
4
100
AcDbLine
 10
379.7220482100724
 20
545.0464035132726
 30
0.0
 11
380.7220482100724
 21
546.0464035132726
 31
0.0
  0
LINE
  5
318
330
1B
100
AcDbEntity
  8
4
100
AcDbLine
 10
379.7220482100724
 20
545.0464035132726
 30
0.0
 11
380.7220482100724
 21
546.0464035132726
 31
0.0
  0
LINE
  5
319
330
1B
100
AcDbEntity
  8
4
100
AcDbLine
 10
311.2220482100724
 20
526.5464035132726
 30
0.0
 11
312.2220482100724
 21
526.5464035132726
 31
0.0
  0
LINE
  5
31A
330
1B
100
AcDbEntity
  8
4
100
AcDbLine
 10
312.2220482100724
 20
542.5464035132726
 30
0.0
 11
330.7220482100724
 21
542.5464035132726
 31
0.0
  0
LINE
  5
31B
330
1B
100
AcDbEntity
  8
4
100
AcDbLine
 10
312.2220482100724
 20
542.5464035132726
 30
0.0
 11
330.7220482100724
 21
542.5464035132726
 31
0.0
  0
ARC
  5
31C
330
1B
100
AcDbEntity
  8
4
100
AcDbCircle
 10
331.7220482100724
 20
544.0464035132726
 30
0.0
 40
1.0
100
AcDbArc
 50
90.0
 51
180.0
  0
ARC
  5
31D
330
1B
100
AcDbEntity
  8
4
100
AcDbCircle
 10
331.7220482100724
 20
544.0464035132726
 30
0.0
 40
1.0
100
AcDbArc
 50
90.0
 51
180.0
  0
LINE
  5
31E
330
1B
100
AcDbEntity
  8
4
100
AcDbLine
 10
331.7220482100724
 20
545.0464035132726
 30
0.0
 11
379.7220482100724
 21
545.0464035132726
 31
0.0
  0
LINE
  5
31F
330
1B
100
AcDbEntity
  8
4
100
AcDbLine
 10
331.7220482100724
 20
545.0464035132726
 30
0.0
 11
379.7220482100724
 21
545.0464035132726
 31
0.0
  0
LINE
  5
320
330
1B
100
AcDbEntity
  8
4
100
AcDbLine
 10
380.7220482100724
 20
569.0464035132726
 30
0.0
 11
380.7220482100724
 21
546.0464035132726
 31
0.0
  0
LINE
  5
321
330
1B
100
AcDbEntity
  8
4
100
AcDbLine
 10
380.7220482100724
 20
569.0464035132726
 30
0.0
 11
380.7220482100724
 21
546.0464035132726
 31
0.0
  0
LINE
  5
322
330
1B
100
AcDbEntity
  8
4
100
AcDbLine
 10
330.7220482100724
 20
572.5464035132726
 30
0.0
 11
330.7220482100724
 21
542.5464035132726
 31
0.0
  0
LINE
  5
323
330
1B
100
AcDbEntity
  8
4
100
AcDbLine
 10
330.7220482100724
 20
572.5464035132726
 30
0.0
 11
330.7220482100724
 21
542.5464035132726
 31
0.0
  0
LINE
  5
324
330
1B
100
AcDbEntity
  8
4
100
AcDbLine
 10
379.7220482100724
 20
554.0464035132726
 30
0.0
 11
379.7220482100724
 21
545.0464035132726
 31
0.0
  0
LINE
  5
325
330
1B
100
AcDbEntity
  8
4
100
AcDbLine
 10
379.7220482100724
 20
554.0464035132726
 30
0.0
 11
379.7220482100724
 21
545.0464035132726
 31
0.0
  0
LINE
  5
326
330
1B
100
AcDbEntity
  8
L-CENTER
 48
2.5
100
AcDbLine
 10
140.7220482100724
 20
532.0483256409381
 30
0.0
 11
140.7220482100724
 21
581.7651281738746
 31
0.0
  0
LINE
  5
327
330
1B
100
AcDbEntity
  8
4
100
AcDbLine
 10
305.7220482100724
 20
506.5464035132726
 30
0.0
 11
305.7220482100724
 21
514.5464030132727
 31
0.0
  0
LINE
  5
328
330
1B
100
AcDbEntity
  8
L-CENTER
 48
2.5
100
AcDbLine
 10
296.9845302100725
 20
502.5464030132727
 30
0.0
 11
324.3647487100725
 21
502.5464030132727
 31
0.0
  0
ARC
  5
329
330
1B
100
AcDbEntity
  8
4
100
AcDbCircle
 10
310.7220477100723
 20
502.5464030132727
 30
0.0
 40
7.5
100
AcDbArc
 50
147.7690428489584
 51
131.8103097710868
  0
LINE
  5
32A
330
1B
100
AcDbEntity
  8
4
100
AcDbLine
 10
307.7220482100724
 20
514.5464030132727
 30
0.0
 11
307.7220482100724
 21
515.5464035132724
 31
0.0
  0
ARC
  5
32B
330
1B
100
AcDbEntity
  8
4
100
AcDbCircle
 10
326.7220482100724
 20
486.5464040132728
 30
0.0
 40
4.0000005
100
AcDbArc
 50
270.0
 51
0.0
  0
LINE
  5
32C
330
1B
100
AcDbEntity
  8
L-CENTER
 48
2.5
100
AcDbLine
 10
310.7220477100723
 20
488.7133835132726
 30
0.0
 11
310.7220477100723
 21
516.0934310132726
 31
0.0
  0
LINE
  5
32D
330
1B
100
AcDbEntity
  8
4
100
AcDbLine
 10
240.7220487100726
 20
480.5464040132728
 30
0.0
 11
242.7220482100724
 21
490.5464030132727
 31
0.0
  0
ARC
  5
32E
330
1B
100
AcDbEntity
  8
4
100
AcDbCircle
 10
284.6168037100724
 20
486.5464040132728
 30
0.0
 40
4.0000005
100
AcDbArc
 50
181.5275250000005
 51
270.0
  0
LINE
  5
32F
330
1B
100
AcDbEntity
  8
4
100
AcDbLine
 10
160.7220477100723
 20
480.5464040132728
 30
0.0
 11
158.7220482100724
 21
490.5464030132727
 31
0.0
  0
LINE
  5
330
330
1B
100
AcDbEntity
  8
4
100
AcDbLine
 10
160.7220477100723
 20
480.5464040132728
 30
0.0
 11
240.7220487100726
 21
480.5464040132728
 31
0.0
  0
LINE
  5
331
330
1B
100
AcDbEntity
  8
4
100
AcDbLine
 10
158.7220482100724
 20
490.5464030132727
 30
0.0
 11
242.7220482100724
 21
490.5464030132727
 31
0.0
  0
LINE
  5
332
330
1B
100
AcDbEntity
  8
4
100
AcDbLine
 10
280.190295450042
 20
502.4871182495887
 30
0.0
 11
280.6149011292432
 21
486.5644012988588
 31
0.0
  0
LINE
  5
333
330
1B
100
AcDbEntity
  8
4
100
AcDbLine
 10
284.6168037100724
 20
482.5464035132726
 30
0.0
 11
326.7220482100724
 21
482.5464035132726
 31
0.0
  0
LINE
  5
334
330
1B
100
AcDbEntity
  8
4
100
AcDbLine
 10
291.890587858089
 20
506.5464035132726
 30
0.0
 11
242.4945687100726
 21
489.4090085132726
 31
0.0
  0
LINE
  5
335
330
1B
100
AcDbEntity
  8
4
100
AcDbLine
 10
288.839695188479
 20
506.5464035132726
 30
0.0
 11
242.7220482100724
 21
490.5464030132727
 31
0.0
  0
LINE
  5
336
330
1B
100
AcDbEntity
  8
L-CENTER
 48
2.5
100
AcDbLine
 10
200.7220482100724
 20
474.5017445132725
 30
0.0
 11
200.7220482100724
 21
723.1451540957097
 31
0.0
  0
LINE
  5
337
330
1B
100
AcDbEntity
  8
4
100
AcDbLine
 10
312.2220482100724
 20
588.5464035132726
 30
0.0
 11
312.2220482100724
 21
526.5464035132726
 31
0.0
  0
LINE
  5
338
330
1B
100
AcDbEntity
  8
4
100
AcDbLine
 10
311.2220482100724
 20
515.5464035132726
 30
0.0
 11
311.2220482100724
 21
599.5464035132726
 31
0.0
  0
LINE
  5
339
330
1B
100
AcDbEntity
  8
4
100
AcDbLine
 10
304.7220482100724
 20
515.5464035132724
 30
0.0
 11
304.7220482100724
 21
599.5464035132728
 31
0.0
  0
LINE
  5
33A
330
1B
100
AcDbEntity
  8
4
100
AcDbLine
 10
330.7220487100726
 20
486.5464040132728
 30
0.0
 11
330.7220487100726
 21
628.5464030132727
 31
0.0
  0
LINE
  5
33B
330
1B
100
AcDbEntity
  8
4
100
AcDbLine
 10
96.72204821007244
 20
624.3464035132725
 30
0.0
 11
96.72204821007244
 21
618.3464035132725
 31
0.0
  0
LINE
  5
33C
330
1B
100
AcDbEntity
  8
4
100
AcDbLine
 10
106.7220482100724
 20
624.3464035132725
 30
0.0
 11
106.7220482100724
 21
618.3464035132725
 31
0.0
  0
LINE
  5
33D
330
1B
100
AcDbEntity
  8
4
100
AcDbLine
 10
121.7220482100724
 20
624.9464035132731
 30
0.0
 11
121.7220482100724
 21
619.4515363459294
 31
0.0
  0
LINE
  5
33E
330
1B
100
AcDbEntity
  8
4
100
AcDbLine
 10
120.8258712100724
 20
628.6530320132725
 30
0.0
 11
121.0961607669508
 21
618.5171749132288
 31
0.0
  0
LINE
  5
33F
330
1B
100
AcDbEntity
  8
4
100
AcDbLine
 10
107.4720482100724
 20
618.3464035132725
 30
0.0
 11
95.97204821007244
 21
618.3464035132725
 31
0.0
  0
LINE
  5
340
330
1B
100
AcDbEntity
  8
4
100
AcDbLine
 10
95.97204821007244
 20
618.3464035132725
 30
0.0
 11
95.97204821007244
 21
616.8464035132725
 31
0.0
  0
ARC
  5
341
330
1B
100
AcDbEntity
  8
4
100
AcDbCircle
 10
96.72204821007244
 20
615.8464035132725
 30
0.0
 40
1.0
100
AcDbArc
 50
90.0
 51
180.0
  0
LINE
  5
342
330
1B
100
AcDbEntity
  8
4
100
AcDbLine
 10
107.4720482100724
 20
618.3464035132725
 30
0.0
 11
107.4720482100724
 21
616.8464035132725
 31
0.0
  0
ARC
  5
343
330
1B
100
AcDbEntity
  8
4
100
AcDbCircle
 10
120.7220482100724
 20
619.4515363459294
 30
0.0
 40
1.0
100
AcDbArc
 50
285.3183357934568
 51
0.0
  0
LINE
  5
344
330
1B
100
AcDbEntity
  8
4
100
AcDbLine
 10
106.7220482100724
 20
624.3464035132725
 30
0.0
 11
96.72204821007244
 21
624.3464035132725
 31
0.0
  0
LINE
  5
345
330
1B
100
AcDbEntity
  8
4
100
AcDbLine
 10
74.72204821007244
 20
632.5464035132726
 30
0.0
 11
116.8272927100725
 21
632.5464035132726
 31
0.0
  0
ARC
  5
346
330
1B
100
AcDbEntity
  8
4
100
AcDbCircle
 10
74.72204821007244
 20
628.5464030132727
 30
0.0
 40
4.0000005
100
AcDbArc
 50
90.0
 51
180.0
  0
ARC
  5
347
330
1B
100
AcDbEntity
  8
4
100
AcDbCircle
 10
122.7220482100724
 20
624.9464035132731
 30
0.0
 40
1.0
100
AcDbArc
 50
90.0
 51
180.0
  0
ARC
  5
348
330
1B
100
AcDbEntity
  8
4
100
AcDbCircle
 10
116.8272927100725
 20
628.5464030132727
 30
0.0
 40
4.0000005
100
AcDbArc
 50
1.527525000000444
 51
90.0
  0
LINE
  5
349
330
1B
100
AcDbEntity
  8
L-CENTER
 48
2.5
100
AcDbLine
 10
77.94307921007248
 20
612.5464040132725
 30
0.0
 11
104.2280292100727
 21
612.5464040132725
 31
0.0
  0
LINE
  5
34A
330
1B
100
AcDbEntity
  8
4
100
AcDbLine
 10
95.72204821007244
 20
600.5464040132725
 30
0.0
 11
95.72204821007244
 21
605.5464035132728
 31
0.0
  0
LINE
  5
34B
330
1B
100
AcDbEntity
  8
4
100
AcDbLine
 10
90.22204771007227
 20
588.5464035132726
 30
0.0
 11
89.22204771007227
 21
588.5464035132726
 31
0.0
  0
LINE
  5
34C
330
1B
100
AcDbEntity
  8
4
100
AcDbLine
 10
93.72204821007244
 20
599.5464035132726
 30
0.0
 11
93.72204821007244
 21
600.5464040132725
 31
0.0
  0
LINE
  5
34D
330
1B
100
AcDbEntity
  8
L-CENTER
 48
2.5
100
AcDbLine
 10
101.7220482100724
 20
594.8195735108121
 30
0.0
 11
101.7220482100724
 21
625.5791674375438
 31
0.0
  0
LINE
  5
34E
330
1B
100
AcDbEntity
  8
L-CENTER
 48
2.5
100
AcDbLine
 10
90.72204871007261
 20
598.2335375132726
 30
0.0
 11
90.72204871007261
 21
627.0738395132727
 31
0.0
  0
LINE
  5
34F
330
1B
100
AcDbEntity
  8
4
100
AcDbLine
 10
95.72204821007244
 20
615.8464035132725
 30
0.0
 11
95.72204821007244
 21
605.8464035132725
 31
0.0
  0
ARC
  5
350
330
1B
100
AcDbEntity
  8
4
100
AcDbCircle
 10
90.72204871007261
 20
612.5464040132725
 30
0.0
 40
7.5
100
AcDbArc
 50
45.82388031249396
 51
311.8103097710868
  0
LWPOLYLINE
  5
351
330
1B
100
AcDbEntity
  8
4
100
AcDbPolyline
 90
        2
 70
     0
 43
0.0
 10
88.22204771007227
 20
568.3717210605781
 10
83.22204771007227
 20
568.3717210605781
  0
LINE
  5
352
330
1B
100
AcDbEntity
  8
4
100
AcDbLine
 10
88.22204771007227
 20
570.0464035132726
 30
0.0
 11
89.22204771007227
 21
570.0464035132726
 31
0.0
  0
LINE
  5
353
330
1B
100
AcDbEntity
  8
4
100
AcDbLine
 10
90.22204771007227
 20
526.5464035132726
 30
0.0
 11
89.22204771007227
 21
526.5464035132726
 31
0.0
  0
LWPOLYLINE
  5
354
330
1B
100
AcDbEntity
  8
4
100
AcDbPolyline
 90
        2
 70
     0
 43
0.0
 10
83.22204771007227
 20
546.7210859659671
 10
88.22204771007227
 20
546.7210859659671
  0
LINE
  5
355
330
1B
100
AcDbEntity
  8
4
100
AcDbLine
 10
88.22204771007227
 20
545.0464035132726
 30
0.0
 11
89.22204771007227
 21
545.0464035132726
 31
0.0
  0
LINE
  5
356
330
1B
100
AcDbEntity
  8
4
100
AcDbLine
 10
83.22204771007227
 20
546.7210859659671
 30
0.0
 11
83.22204771007227
 21
568.3717210605781
 31
0.0
  0
LINE
  5
357
330
1B
100
AcDbEntity
  8
4
100
AcDbLine
 10
88.22204771007227
 20
545.0464035132726
 30
0.0
 11
88.22204771007227
 21
570.0464035132726
 31
0.0
  0
LINE
  5
358
330
1B
100
AcDbEntity
  8
L-CENTER
 48
2.5
100
AcDbLine
 10
77.57801221007276
 20
502.5464030132727
 30
0.0
 11
104.2280292100727
 21
502.5464030132727
 31
0.0
  0
LINE
  5
359
330
1B
100
AcDbEntity
  8
4
100
AcDbLine
 10
95.72204821007244
 20
506.5464035132726
 30
0.0
 11
95.72204821007244
 21
514.5464030132727
 31
0.0
  0
ARC
  5
35A
330
1B
100
AcDbEntity
  8
4
100
AcDbCircle
 10
90.72204871007261
 20
502.5464030132727
 30
0.0
 40
7.5
100
AcDbArc
 50
48.18969022891324
 51
32.23095715104168
  0
LINE
  5
35B
330
1B
100
AcDbEntity
  8
4
100
AcDbLine
 10
93.72204821007244
 20
514.5464030132727
 30
0.0
 11
93.72204821007244
 21
515.5464035132724
 31
0.0
  0
LINE
  5
35C
330
1B
100
AcDbEntity
  8
4
100
AcDbLine
 10
74.72204821007244
 20
482.5464035132726
 30
0.0
 11
116.8272927100725
 21
482.5464035132726
 31
0.0
  0
ARC
  5
35D
330
1B
100
AcDbEntity
  8
4
100
AcDbCircle
 10
74.72204821007244
 20
486.5464040132728
 30
0.0
 40
4.0000005
100
AcDbArc
 50
180.0
 51
270.0
  0
ARC
  5
35E
330
1B
100
AcDbEntity
  8
4
100
AcDbCircle
 10
116.8272927100725
 20
486.5464040132728
 30
0.0
 40
4.0000005
100
AcDbArc
 50
270.0
 51
358.4724749999996
  0
LINE
  5
35F
330
1B
100
AcDbEntity
  8
L-CENTER
 48
2.5
100
AcDbLine
 10
90.72204871007261
 20
489.4435520132726
 30
0.0
 11
90.72204871007261
 21
516.0934310132726
 31
0.0
  0
LINE
  5
360
330
1B
100
AcDbEntity
  8
4
100
AcDbLine
 10
120.8258712100724
 20
486.4397750132727
 30
0.0
 11
121.2538004222724
 21
502.4871184396524
 31
0.0
  0
LINE
  5
361
330
1B
100
AcDbEntity
  8
4
100
AcDbLine
 10
89.22204771007227
 20
588.5464035132726
 30
0.0
 11
89.22204771007227
 21
526.5464035132726
 31
0.0
  0
LINE
  5
362
330
1B
100
AcDbEntity
  8
4
100
AcDbLine
 10
96.72204821007244
 20
515.5464035132726
 30
0.0
 11
96.72204821007244
 21
599.5464035132726
 31
0.0
  0
LINE
  5
363
330
1B
100
AcDbEntity
  8
4
100
AcDbLine
 10
90.22204771007227
 20
515.5464035132726
 30
0.0
 11
90.22204771007227
 21
599.5464035132726
 31
0.0
  0
LINE
  5
364
330
1B
100
AcDbEntity
  8
4
100
AcDbLine
 10
70.72204771007227
 20
486.5464040132728
 30
0.0
 11
70.72204771007227
 21
628.5464030132727
 31
0.0
  0
LINE
  5
365
330
1B
100
AcDbEntity
  8
4
100
AcDbLine
 10
95.72204821007244
 20
506.5464035132726
 30
0.0
 11
305.7220482100724
 21
506.5464035132726
 31
0.0
  0
LINE
  5
366
330
1B
100
AcDbEntity
  8
4
100
AcDbLine
 10
232.7220347100724
 20
511.5464030132727
 30
0.0
 11
296.7220477100723
 21
511.5464030132727
 31
0.0
  0
LINE
  5
367
330
1B
100
AcDbEntity
  8
4
100
AcDbLine
 10
93.72204821007244
 20
514.5464030132727
 30
0.0
 11
307.7220482100724
 21
514.5464030132727
 31
0.0
  0
LINE
  5
368
330
1B
100
AcDbEntity
  8
4
100
AcDbLine
 10
90.22204771007227
 20
515.5464035132726
 30
0.0
 11
311.2220482100724
 21
515.5464035132726
 31
0.0
  0
LINE
  5
369
330
1B
100
AcDbEntity
  8
4
100
AcDbLine
 10
109.5535085620561
 20
506.5464035132726
 30
0.0
 11
158.9495277100727
 21
489.4090085132726
 31
0.0
  0
LINE
  5
36A
330
1B
100
AcDbEntity
  8
4
100
AcDbLine
 10
112.6044012316661
 20
506.5464035132726
 30
0.0
 11
158.7220482100724
 21
490.5464030132727
 31
0.0
  0
LINE
  5
36B
330
1B
100
AcDbEntity
  8
L-CENTER
 48
2.5
100
AcDbLine
 10
388.3288745700816
 20
557.5464035132726
 30
0.0
 11
67.00917252277713
 21
557.5464035132726
 31
0.0
  0
LINE
  5
36C
330
1B
100
AcDbEntity
  8
4
100
AcDbLine
 10
114.9965191480624
 20
616.8464035132725
 30
0.0
 11
155.6300309394483
 21
627.9764523952612
 31
0.0
  0
LINE
  5
36D
330
1B
100
AcDbEntity
  8
4
100
AcDbLine
 10
120.6744291624532
 20
616.8464035132725
 30
0.0
 11
146.2220480438582
 21
623.844229554701
 31
0.0
  0
LINE
  5
36E
330
1B
100
AcDbEntity
  8
4
100
AcDbLine
 10
305.7220482100724
 20
605.8464035132725
 30
0.0
 11
95.72204821007244
 21
605.8464035132725
 31
0.0
  0
LINE
  5
36F
330
1B
100
AcDbEntity
  8
4
100
AcDbLine
 10
304.7220482100724
 20
616.8464035132725
 30
0.0
 11
96.72204821007244
 21
616.8464035132725
 31
0.0
  0
LINE
  5
370
330
1B
100
AcDbEntity
  8
4
100
AcDbLine
 10
95.72204821007244
 20
605.5464035132728
 30
0.0
 11
305.7220482100724
 21
605.5464035132724
 31
0.0
  0
LINE
  5
371
330
1B
100
AcDbEntity
  8
4
100
AcDbLine
 10
93.72204821007244
 20
600.5464040132725
 30
0.0
 11
307.7220482100724
 21
600.5464040132725
 31
0.0
  0
LINE
  5
372
330
1B
100
AcDbEntity
  8
4
100
AcDbLine
 10
90.22204771007227
 20
599.5464035132726
 30
0.0
 11
311.2220482100724
 21
599.5464035132726
 31
0.0
  0
LWPOLYLINE
  5
373
330
1B
100
AcDbEntity
  8
4
100
AcDbPolyline
 90
        6
 70
     1
 43
0.0
 10
153.2220482100724
 20
557.5464035132726
 10
146.9720482100724
 20
568.3717210605781
 10
134.4720482100724
 20
568.3717210605781
 10
128.2220482100724
 20
557.5464035132726
 10
134.4720482100724
 20
546.7210859659671
 10
146.9720482100724
 20
546.7210859659671
  0
CIRCLE
  5
374
330
1B
100
AcDbEntity
  8
4
100
AcDbCircle
 10
140.7220482100724
 20
557.5464035132726
 30
0.0
 40
12.5
  0
CIRCLE
  5
375
330
1B
100
AcDbEntity
  8
4
100
AcDbCircle
 10
140.7220482100724
 20
557.5464035132726
 30
0.0
 40
19.0
  0
LINE
  5
376
330
1B
100
AcDbEntity
  8
4
100
AcDbLine
 10
122.7220482100724
 20
625.9464035132731
 30
0.0
 11
148.2187413702864
 21
625.9464035132729
 31
0.0
  0
LINE
  5
37B
330
1B
100
AcDbEntity
  8
4
100
AcDbLine
 10
627.687073116047
 20
242.516980809319
 30
0.0
 11
627.687073116047
 21
252.5169808093189
 31
0.0
  0
ARC
  5
391
330
1B
100
AcDbEntity
  8
4
 62
     3
100
AcDbCircle
 10
580.8870726160467
 20
305.1152213093188
 30
0.0
 40
1.0000005
100
AcDbArc
 50
180.0
 51
266.190165
  0
LINE
  5
392
330
1B
100
AcDbEntity
  8
4
100
AcDbLine
 10
573.3871956160469
 20
309.2804083093189
 30
0.0
 11
548.3871956160469
 21
309.2804083093189
 31
0.0
  0
LINE
  5
393
330
1B
100
AcDbEntity
  8
4
100
AcDbLine
 10
571.7123906160468
 20
313.2804083093189
 30
0.0
 11
550.0617556160469
 21
313.2804083093189
 31
0.0
  0
LINE
  5
394
330
1B
100
AcDbEntity
  8
4
100
AcDbLine
 10
573.3871956160469
 20
307.2804083093189
 30
0.0
 11
548.3871956160469
 21
307.2804083093189
 31
0.0
  0
LINE
  5
395
330
1B
100
AcDbEntity
  8
4
100
AcDbLine
 10
550.0617556160469
 20
309.2804083093189
 30
0.0
 11
550.0617556160469
 21
313.2804083093189
 31
0.0
  0
LINE
  5
396
330
1B
100
AcDbEntity
  8
4
100
AcDbLine
 10
549.3871956160469
 20
305.7804083093189
 30
0.0
 11
549.3871956160469
 21
307.2804083093189
 31
0.0
  0
LINE
  5
397
330
1B
100
AcDbEntity
  8
4
100
AcDbLine
 10
548.3871956160469
 20
307.2804083093189
 30
0.0
 11
548.3871956160469
 21
309.2804083093189
 31
0.0
  0
LINE
  5
398
330
1B
100
AcDbEntity
  8
4
100
AcDbLine
 10
571.7123906160468
 20
309.2804083093189
 30
0.0
 11
571.7123906160468
 21
313.2804083093189
 31
0.0
  0
LINE
  5
399
330
1B
100
AcDbEntity
  8
4
100
AcDbLine
 10
572.3871956160469
 20
305.7804083093189
 30
0.0
 11
572.3871956160469
 21
307.2804083093189
 31
0.0
  0
LINE
  5
39A
330
1B
100
AcDbEntity
  8
4
100
AcDbLine
 10
573.3871956160469
 20
307.2804083093189
 30
0.0
 11
573.3871956160469
 21
309.2804083093189
 31
0.0
  0
LINE
  5
39B
330
1B
100
AcDbEntity
  8
4
 62
     3
100
AcDbLine
 10
579.887073616047
 20
305.7804083093189
 30
0.0
 11
579.887073616047
 21
305.1152213093188
 31
0.0
  0
ARC
  5
39C
330
1B
100
AcDbEntity
  8
4
 62
     3
100
AcDbCircle
 10
596.585654116047
 20
298.619838809319
 30
0.0
 40
4.0000005
100
AcDbArc
 50
7.149430000000284
 51
83.07307699999927
  0
ARC
  5
39D
330
1B
100
AcDbEntity
  8
4
 62
     3
100
AcDbCircle
 10
540.887073616047
 20
305.1152213093188
 30
0.0
 40
1.0000005
100
AcDbArc
 50
273.809835
 51
0.0
  0
ARC
  5
39E
330
1B
100
AcDbEntity
  8
4
 62
     3
100
AcDbCircle
 10
525.1884921160467
 20
298.619838809319
 30
0.0
 40
4.0000005
100
AcDbArc
 50
96.92692300000073
 51
172.8505699999997
  0
LINE
  5
39F
330
1B
100
AcDbEntity
  8
4
 62
     3
100
AcDbLine
 10
541.8870726160467
 20
305.7804083093189
 30
0.0
 11
541.8870726160467
 21
305.1152213093188
 31
0.0
  0
ARC
  5
3A0
330
1B
100
AcDbEntity
  8
4
 62
     3
100
AcDbCircle
 10
560.8870731160468
 20
4.780407809318945
 30
0.0
 40
300.0
100
AcDbArc
 50
83.07307699999998
 51
96.926923
  0
LINE
  5
3A1
330
1B
100
AcDbEntity
  8
4
 62
     3
100
AcDbLine
 10
579.887073616047
 20
305.7804083093189
 30
0.0
 11
541.8870726160467
 21
305.7804083093189
 31
0.0
  0
LINE
  5
3A6
330
1B
100
AcDbEntity
  8
4
100
AcDbLine
 10
619.187073116047
 20
266.7804083093189
 30
0.0
 11
608.8870731160468
 21
266.7804083093189
 31
0.0
  0
ARC
  5
3A7
330
1B
100
AcDbEntity
  8
4
 62
     3
100
AcDbCircle
 10
604.8870726160467
 20
267.7804088093191
 30
0.0
 40
1.0000005
100
AcDbArc
 50
180.0
 51
270.0
  0
LINE
  5
3A8
330
1B
100
AcDbEntity
  8
4
 62
     3
100
AcDbLine
 10
603.2837106160468
 20
268.7804078093187
 30
0.0
 11
603.3970731160471
 21
268.7804078093187
 31
0.0
  0
ARC
  5
3A9
330
1B
100
AcDbEntity
  8
4
 62
     3
100
AcDbCircle
 10
603.2837106160468
 20
269.2704083093189
 30
0.0
 40
0.4900004999999999
100
AcDbArc
 50
181.4282999999998
 51
270.0
  0
LINE
  5
3AA
330
1B
100
AcDbEntity
  8
4
 62
     3
100
AcDbLine
 10
603.887073616047
 20
268.2904088093188
 30
0.0
 11
603.887073616047
 21
267.7804088093191
 31
0.0
  0
ARC
  5
3AB
330
1B
100
AcDbEntity
  8
4
 62
     3
100
AcDbCircle
 10
603.3970731160471
 20
268.2904088093188
 30
0.0
 40
0.4900004999999999
100
AcDbArc
 50
0.0
 51
90.0
  0
LINE
  5
3AC
330
1B
100
AcDbEntity
  8
4
 62
     3
100
AcDbLine
 10
604.8870726160467
 20
266.7804083093189
 30
0.0
 11
608.8870731160468
 21
266.7804083093189
 31
0.0
  0
ARC
  5
3AD
330
1B
100
AcDbEntity
  8
4
100
AcDbCircle
 10
619.187073116047
 20
265.7804083093189
 30
0.0
 40
1.0
100
AcDbArc
 50
0.0
 51
90.0
  0
LINE
  5
3AE
330
1B
100
AcDbEntity
  8
4
100
AcDbLine
 10
564.3870731160468
 20
270.2804088093191
 30
0.0
 11
557.3870731160468
 21
270.2804088093191
 31
0.0
  0
LINE
  5
3AF
330
1B
100
AcDbEntity
  8
4
100
AcDbLine
 10
564.3870731160468
 20
270.2804088093191
 30
0.0
 11
564.3870731160468
 21
277.2804088093191
 31
0.0
  0
LINE
  5
3B0
330
1B
100
AcDbEntity
  8
4
100
AcDbLine
 10
564.3870731160468
 20
277.2804088093191
 30
0.0
 11
557.3870731160468
 21
277.2804088093191
 31
0.0
  0
LINE
  5
3B1
330
1B
100
AcDbEntity
  8
4
100
AcDbLine
 10
557.3870731160468
 20
277.2804088093191
 30
0.0
 11
557.3870731160468
 21
270.2804088093191
 31
0.0
  0
ARC
  5
3B2
330
1B
100
AcDbEntity
  8
4
 62
     3
100
AcDbCircle
 10
516.887073616047
 20
267.7804088093191
 30
0.0
 40
1.0000005
100
AcDbArc
 50
270.0
 51
0.0
  0
LINE
  5
3B3
330
1B
100
AcDbEntity
  8
4
 62
     3
100
AcDbLine
 10
510.887073616047
 20
266.7804083093189
 30
0.0
 11
516.887073616047
 21
266.7804083093189
 31
0.0
  0
ARC
  5
3B4
330
1B
100
AcDbEntity
  8
4
 62
     3
100
AcDbCircle
 10
510.887073616047
 20
265.7804078093187
 30
0.0
 40
1.0000005
100
AcDbArc
 50
90.0
 51
180.0
  0
LINE
  5
3B5
330
1B
100
AcDbEntity
  8
4
 62
     3
100
AcDbLine
 10
517.8870726160467
 20
268.2904088093188
 30
0.0
 11
517.8870726160467
 21
267.7804088093191
 31
0.0
  0
LINE
  5
3B6
330
1B
100
AcDbEntity
  8
4
 62
     3
100
AcDbLine
 10
518.3770731160466
 20
268.7804078093187
 30
0.0
 11
518.4904356160469
 21
268.7804078093187
 31
0.0
  0
ARC
  5
3B7
330
1B
100
AcDbEntity
  8
4
 62
     3
100
AcDbCircle
 10
518.4904356160469
 20
269.2704083093189
 30
0.0
 40
0.4900004999999999
100
AcDbArc
 50
270.0
 51
358.5717000000002
  0
ARC
  5
3B8
330
1B
100
AcDbEntity
  8
4
 62
     3
100
AcDbCircle
 10
518.3770731160466
 20
268.2904088093188
 30
0.0
 40
0.4900004999999999
100
AcDbArc
 50
90.0
 51
180.0
  0
LINE
  5
3B9
330
1B
100
AcDbEntity
  8
L-CENTER
 48
2.5
100
AcDbLine
 10
607.4469951160468
 20
261.7804088093191
 30
0.0
 11
514.3271511160469
 21
261.7804088093191
 31
0.0
  0
LINE
  5
3BA
330
1B
100
AcDbEntity
  8
4
100
AcDbLine
 10
621.687073116047
 20
241.766980809319
 30
0.0
 11
621.687073116047
 21
253.2669808093189
 31
0.0
  0
LINE
  5
3BB
330
1B
100
AcDbEntity
  8
4
100
AcDbLine
 10
621.687073116047
 20
253.2669808093189
 30
0.0
 11
620.187073116047
 21
253.2669808093189
 31
0.0
  0
LINE
  5
3BC
330
1B
100
AcDbEntity
  8
4
100
AcDbLine
 10
621.687073116047
 20
241.766980809319
 30
0.0
 11
620.187073116047
 21
241.766980809319
 31
0.0
  0
LINE
  5
3BD
330
1B
100
AcDbEntity
  8
2
100
AcDbLine
 10
620.187073116047
 20
247.5169808093189
 30
0.0
 11
621.687073116047
 21
249.0169808093189
 31
0.0
  0
LINE
  5
3BE
330
1B
100
AcDbEntity
  8
2
100
AcDbLine
 10
620.187073116047
 20
245.3956604657593
 30
0.0
 11
621.687073116047
 21
246.8956604657593
 31
0.0
  0
ARC
  5
3BF
330
1B
100
AcDbEntity
  8
4
100
AcDbCircle
 10
560.8870731160468
 20
261.7804088093191
 30
0.0
 40
12.5
100
AcDbArc
 50
106.260204708312
 51
73.73979500000115
  0
CIRCLE
  5
3C8
330
1B
100
AcDbEntity
  8
4
 62
     3
100
AcDbCircle
 10
560.8870731160468
 20
261.7804088093191
 30
0.0
 40
31.0000005
  0
LINE
  5
3CA
330
1B
100
AcDbEntity
  8
4
100
AcDbLine
 10
311.2220482100724
 20
292.7804088093191
 30
0.0
 11
312.2220482100724
 21
292.7804088093191
 31
0.0
  0
ARC
  5
3CB
330
1B
100
AcDbEntity
  8
4
 62
     3
100
AcDbCircle
 10
305.4540987100725
 20
304.7804078093189
 30
0.0
 40
1.0000005
100
AcDbArc
 50
210.0000000000064
 51
270.0
  0
LINE
  5
3CC
330
1B
100
AcDbEntity
  8
4
 62
     3
100
AcDbLine
 10
305.4540987100725
 20
303.7804088093188
 30
0.0
 11
311.2220487100724
 21
303.7804088093188
 31
0.0
  0
ARC
  5
3CD
330
1B
100
AcDbEntity
  8
4
 62
     3
100
AcDbCircle
 10
303.7220487100724
 20
303.7804088093188
 30
0.0
 40
1.0000005
100
AcDbArc
 50
0.0
 51
90.0
  0
LINE
  5
3D1
330
1B
100
AcDbEntity
  8
4
100
AcDbLine
 10
153.2225382100723
 20
307.2804083093189
 30
0.0
 11
153.2225382100723
 21
313.2804083093189
 31
0.0
  0
LINE
  5
3D2
330
1B
100
AcDbEntity
  8
4
100
AcDbLine
 10
152.2225382100723
 20
305.7804083093189
 30
0.0
 11
152.2225382100723
 21
307.2804083093189
 31
0.0
  0
LINE
  5
3D3
330
1B
100
AcDbEntity
  8
4
100
AcDbLine
 10
146.9725382100723
 20
309.2804083093189
 30
0.0
 11
146.9725382100723
 21
313.2804083093189
 31
0.0
  0
LINE
  5
3D4
330
1B
100
AcDbEntity
  8
4
100
AcDbLine
 10
134.4725382100723
 20
309.2804083093189
 30
0.0
 11
134.4725382100723
 21
313.2804083093189
 31
0.0
  0
LINE
  5
3D5
330
1B
100
AcDbEntity
  8
4
 62
     3
100
AcDbLine
 10
159.7220487100726
 20
305.7804083093189
 30
0.0
 11
159.7220487100726
 21
305.770407809319
 31
0.0
  0
ARC
  5
3D6
330
1B
100
AcDbEntity
  8
4
 62
     3
100
AcDbCircle
 10
160.7120487100724
 20
305.770407809319
 30
0.0
 40
0.99
100
AcDbArc
 50
180.0
 51
270.0
  0
LINE
  5
3D7
330
1B
100
AcDbEntity
  8
L-CENTER
 48
2.5
100
AcDbLine
 10
140.7220482100724
 20
296.6210913649635
 30
0.0
 11
140.7220482100724
 21
319.4165072539587
 31
0.0
  0
LINE
  5
3D8
330
1B
100
AcDbEntity
  8
4
100
AcDbLine
 10
379.7220482100724
 20
274.2804088093191
 30
0.0
 11
380.7220482100724
 21
273.2804088093191
 31
0.0
  0
LINE
  5
3DC
330
1B
100
AcDbEntity
  8
4
100
AcDbLine
 10
312.2220482100724
 20
276.7804088093191
 30
0.0
 11
330.7220482100724
 21
276.7804088093191
 31
0.0
  0
ARC
  5
3DD
330
1B
100
AcDbEntity
  8
4
 62
     3
100
AcDbCircle
 10
305.7220482100724
 20
272.7804083093189
 30
0.0
 40
1.0000005
100
AcDbArc
 50
180.0
 51
270.0
  0
LINE
  5
3DE
330
1B
100
AcDbEntity
  8
4
100
AcDbLine
 10
335.7220482100724
 20
274.2804088093191
 30
0.0
 11
335.7220482100724
 21
277.2804088093191
 31
0.0
  0
LINE
  5
3DF
330
1B
100
AcDbEntity
  8
4
100
AcDbLine
 10
330.7220482100724
 20
274.2804088093191
 30
0.0
 11
379.7220482100724
 21
274.2804088093191
 31
0.0
  0
LINE
  5
3E0
330
1B
100
AcDbEntity
  8
4
100
AcDbLine
 10
380.7220482100724
 20
277.2804088093191
 30
0.0
 11
335.7220482100724
 21
277.2804088093191
 31
0.0
  0
LINE
  5
3E1
330
1B
100
AcDbEntity
  8
4
100
AcDbLine
 10
380.7220482100724
 20
250.2804088093191
 30
0.0
 11
379.7220482100724
 21
249.2804088093191
 31
0.0
  0
LINE
  5
3E2
330
1B
100
AcDbEntity
  8
4
100
AcDbLine
 10
312.2220482100724
 20
246.7804088093191
 30
0.0
 11
330.7220482100724
 21
246.7804088093191
 31
0.0
  0
LINE
  5
3E3
330
1B
100
AcDbEntity
  8
4
100
AcDbLine
 10
311.2220482100724
 20
230.7804088093191
 30
0.0
 11
312.2220482100724
 21
230.7804088093191
 31
0.0
  0
ARC
  5
3E4
330
1B
100
AcDbEntity
  8
4
 62
     3
100
AcDbCircle
 10
305.7220482100724
 20
250.7804078093187
 30
0.0
 40
1.0000005
100
AcDbArc
 50
90.0
 51
180.0
  0
LINE
  5
3E5
330
1B
100
AcDbEntity
  8
4
100
AcDbLine
 10
330.7220482100724
 20
249.2804088093191
 30
0.0
 11
379.7220482100724
 21
249.2804088093191
 31
0.0
  0
ARC
  5
3E6
330
1B
100
AcDbEntity
  8
4
 62
     3
100
AcDbCircle
 10
290.9787087100724
 20
252.0370688093188
 30
0.0
 40
4.0000005
100
AcDbArc
 50
16.07294399999888
 51
73.92705600000133
  0
LINE
  5
3E7
330
1B
100
AcDbEntity
  8
4
100
AcDbLine
 10
379.7220482100724
 20
274.2804088093191
 30
0.0
 11
379.7220482100724
 21
249.2804088093191
 31
0.0
  0
LINE
  5
3E8
330
1B
100
AcDbEntity
  8
4
100
AcDbLine
 10
380.7220482100724
 20
250.2804088093191
 30
0.0
 11
380.7220482100724
 21
277.2804088093191
 31
0.0
  0
LINE
  5
3E9
330
1B
100
AcDbEntity
  8
4
100
AcDbLine
 10
330.7220482100724
 20
276.7804088093191
 30
0.0
 11
330.7220482100724
 21
246.7804088093191
 31
0.0
  0
LINE
  5
3EA
330
1B
100
AcDbEntity
  8
4
 62
     3
100
AcDbLine
 10
304.7220477100725
 20
272.7804083093189
 30
0.0
 11
304.7220477100725
 21
303.7804088093188
 31
0.0
  0
LINE
  5
3ED
330
1B
100
AcDbEntity
  8
4
100
AcDbLine
 10
312.2220482100724
 20
292.7804088093191
 30
0.0
 11
312.2220482100724
 21
230.7804088093191
 31
0.0
  0
LINE
  5
3F3
330
1B
100
AcDbEntity
  8
L-CENTER
 48
2.5
100
AcDbLine
 10
598.1602431135866
 20
247.5169808093189
 30
0.0
 11
628.9198370403183
 21
247.5169808093189
 31
0.0
  0
LINE
  5
3F4
330
1B
100
AcDbEntity
  8
4
100
AcDbLine
 10
627.687073116047
 20
252.5169808093189
 30
0.0
 11
621.687073116047
 21
252.5169808093189
 31
0.0
  0
LINE
  5
3F5
330
1B
100
AcDbEntity
  8
4
100
AcDbLine
 10
627.687073116047
 20
242.516980809319
 30
0.0
 11
621.687073116047
 21
242.5169808093189
 31
0.0
  0
LINE
  5
3F7
330
1B
100
AcDbEntity
  8
4
100
AcDbLine
 10
640.0501905218398
 20
203.9813762895575
 30
0.0
 11
630.8882487349083
 21
206.4800876859932
 31
0.0
  0
ARC
  5
3F8
330
1B
100
AcDbEntity
  8
4
100
AcDbCircle
 10
631.4144835464931
 20
208.4096153284687
 30
0.0
 40
2.0
100
AcDbArc
 50
195.3183357934497
 51
254.7448812969384
  0
ARC
  5
3F9
330
1B
100
AcDbEntity
  8
4
100
AcDbCircle
 10
639.7870731160474
 20
203.0166124683197
 30
0.0
 40
1.0
100
AcDbArc
 50
0.0
 51
74.74488129692537
  0
LINE
  5
3FD
330
1B
100
AcDbEntity
  8
4
100
AcDbLine
 10
714.8870731160468
 20
178.7804083093189
 30
0.0
 11
715.8870731160468
 21
177.7804083093189
 31
0.0
  0
LINE
  5
3FF
330
1B
100
AcDbEntity
  8
4
100
AcDbLine
 10
631.4678897072372
 20
186.7804083093187
 30
0.0
 11
629.7870731160456
 21
186.7804083093187
 31
0.0
  0
LINE
  5
400
330
1B
100
AcDbEntity
  8
4
100
AcDbLine
 10
641.7868281160472
 20
179.2804083093189
 30
0.0
 11
655.8870731160468
 21
179.2804083093189
 31
0.0
  0
LINE
  5
401
330
1B
100
AcDbEntity
  8
4
100
AcDbLine
 10
641.7868281160472
 20
186.7804083093189
 30
0.0
 11
640.7868281160468
 21
186.7804083093189
 31
0.0
  0
LINE
  5
402
330
1B
100
AcDbEntity
  8
4
100
AcDbLine
 10
660.8870731160468
 20
182.2804083093189
 30
0.0
 11
660.8870731160468
 21
178.7804083093189
 31
0.0
  0
LINE
  5
403
330
1B
100
AcDbEntity
  8
4
100
AcDbLine
 10
655.8870731160468
 20
178.7804083093189
 30
0.0
 11
714.8870731160468
 21
178.7804083093189
 31
0.0
  0
LINE
  5
404
330
1B
100
AcDbEntity
  8
4
100
AcDbLine
 10
660.8870731160468
 20
182.2804083093189
 30
0.0
 11
715.8870731160468
 21
182.2804083093189
 31
0.0
  0
LINE
  5
407
330
1B
100
AcDbEntity
  8
4
100
AcDbLine
 10
629.7870731160474
 20
186.7804083093187
 30
0.0
 11
629.7870731160474
 21
206.2922683697162
 31
0.0
  0
LINE
  5
408
330
1B
100
AcDbEntity
  8
4
100
AcDbLine
 10
715.8870731160468
 20
145.7804083093189
 30
0.0
 11
714.8870731160468
 21
144.7804083093189
 31
0.0
  0
LINE
  5
40B
330
1B
100
AcDbEntity
  8
4
100
AcDbLine
 10
631.4678897072372
 20
136.7804083093189
 30
0.0
 11
629.7870731160474
 21
136.7804083093189
 31
0.0
  0
LINE
  5
40C
330
1B
100
AcDbEntity
  8
4
100
AcDbLine
 10
641.7868281160472
 20
144.2804083093189
 30
0.0
 11
655.8870731160468
 21
144.2804083093189
 31
0.0
  0
LINE
  5
40D
330
1B
100
AcDbEntity
  8
4
100
AcDbLine
 10
641.7868281160472
 20
136.7804083093189
 30
0.0
 11
640.7868281160468
 21
136.7804083093189
 31
0.0
  0
LINE
  5
40E
330
1B
100
AcDbEntity
  8
4
100
AcDbLine
 10
655.8870731160468
 20
144.7804083093189
 30
0.0
 11
714.8870731160468
 21
144.7804083093189
 31
0.0
  0
LINE
  5
40F
330
1B
100
AcDbEntity
  8
4
100
AcDbLine
 10
640.0501905218398
 20
119.5794403290803
 30
0.0
 11
630.8882487349083
 21
117.0807289326448
 31
0.0
  0
ARC
  5
410
330
1B
100
AcDbEntity
  8
4
100
AcDbCircle
 10
631.4144835464931
 20
115.1512012901691
 30
0.0
 40
2.0
100
AcDbArc
 50
105.2551187030616
 51
164.6816642065472
  0
ARC
  5
411
330
1B
100
AcDbEntity
  8
4
100
AcDbCircle
 10
639.7870731160474
 20
120.544204150318
 30
0.0
 40
1.0
100
AcDbArc
 50
285.2551187030755
 51
0.0
  0
LINE
  5
412
330
1B
100
AcDbEntity
  8
4
100
AcDbLine
 10
629.7870731160474
 20
116.7804083093187
 30
0.0
 11
629.7870731160474
 21
136.7804083093189
 31
0.0
  0
LINE
  5
413
330
1B
100
AcDbEntity
  8
4
100
AcDbLine
 10
640.7870731160474
 20
120.544204150318
 30
0.0
 11
640.7870731160474
 21
203.0166124683197
 31
0.0
  0
LINE
  5
414
330
1B
100
AcDbEntity
  8
4
100
AcDbLine
 10
631.4678897072372
 20
136.7804083093189
 30
0.0
 11
631.4678897072372
 21
186.7804083093187
 31
0.0
  0
LINE
  5
415
330
1B
100
AcDbEntity
  8
4
100
AcDbLine
 10
655.8870731160468
 20
179.2804083093189
 30
0.0
 11
655.8870731160468
 21
144.2804083093189
 31
0.0
  0
LINE
  5
416
330
1B
100
AcDbEntity
  8
4
100
AcDbLine
 10
641.7868281160472
 20
186.7804083093189
 30
0.0
 11
641.7868281160472
 21
136.7804083093189
 31
0.0
  0
LINE
  5
417
330
1B
100
AcDbEntity
  8
4
100
AcDbLine
 10
714.8870731160468
 20
178.7804083093189
 30
0.0
 11
714.8870731160468
 21
144.7804083093189
 31
0.0
  0
LINE
  5
418
330
1B
100
AcDbEntity
  8
4
100
AcDbLine
 10
715.8870731160468
 20
182.2804083093189
 30
0.0
 11
715.8870731160468
 21
145.7804083093189
 31
0.0
  0
LINE
  5
419
330
1B
100
AcDbEntity
  8
4
100
AcDbLine
 10
627.687073116047
 20
156.780408309319
 30
0.0
 11
627.687073116047
 21
166.7804083093189
 31
0.0
  0
ARC
  5
41A
330
1B
100
AcDbEntity
  8
4
 62
     3
100
AcDbCircle
 10
633.887073616047
 20
64.78040780931894
 30
0.0
 40
1.9999995
100
AcDbArc
 50
0.0
 51
90.0
  0
LINE
  5
41B
330
1B
100
AcDbEntity
  8
4
100
AcDbLine
 10
627.687073116047
 20
71.04383580931983
 30
0.0
 11
627.687073116047
 21
81.04383580931972
 31
0.0
  0
LINE
  5
41C
330
1B
100
AcDbEntity
  8
4
 62
     3
100
AcDbLine
 10
635.8870731160468
 20
64.78040780931894
 30
0.0
 11
635.8870731160468
 21
41.78040830931889
 31
0.0
  0
ARC
  5
41D
330
1B
100
AcDbEntity
  8
4
 62
     3
100
AcDbCircle
 10
596.585654116047
 20
224.9409788093191
 30
0.0
 40
4.0000005
100
AcDbArc
 50
276.9269230000008
 51
352.8505699999997
  0
LINE
  5
41E
330
1B
100
AcDbEntity
  8
4
 62
     3
100
AcDbLine
 10
484.6909566160466
 20
201.9411848093189
 30
0.0
 11
492.279305116047
 21
203.458854809319
 31
0.0
  0
ARC
  5
41F
330
1B
100
AcDbEntity
  8
4
 62
     3
100
AcDbCircle
 10
484.8870726160467
 20
200.9606048093189
 30
0.0
 40
1.0000005
100
AcDbArc
 50
101.3099319999972
 51
180.0
  0
ARC
  5
420
330
1B
100
AcDbEntity
  8
4
100
AcDbCircle
 10
492.3844506160467
 20
205.5194918093189
 30
0.0
 40
1.9999995
100
AcDbArc
 50
281.3099320000086
 51
340.3461760000039
  0
LINE
  5
421
330
1B
100
AcDbEntity
  8
4
100
AcDbLine
 10
492.279305116047
 20
203.458854809319
 30
0.0
 11
492.7766826160469
 21
203.5583303093189
 31
0.0
  0
ARC
  5
422
330
1B
100
AcDbEntity
  8
4
 62
     3
100
AcDbCircle
 10
525.1884921160467
 20
224.9409788093191
 30
0.0
 40
4.0000005
100
AcDbArc
 50
187.1494300000003
 51
263.0730769999992
  0
ARC
  5
423
330
1B
100
AcDbEntity
  8
4
 62
     3
100
AcDbCircle
 10
560.8870731160468
 20
518.7804098093192
 30
0.0
 40
300.0
100
AcDbArc
 50
263.073077
 51
276.926923
  0
LINE
  5
424
330
1B
100
AcDbEntity
  8
4
100
AcDbLine
 10
621.687073116047
 20
167.5304083093189
 30
0.0
 11
620.187073116047
 21
167.5304083093189
 31
0.0
  0
LINE
  5
425
330
1B
100
AcDbEntity
  8
4
100
AcDbLine
 10
492.2010128117818
 20
186.7804086166459
 30
0.0
 11
509.8870731160468
 21
182.7804081480131
 31
0.0
  0
LINE
  5
426
330
1B
100
AcDbEntity
  8
4
100
AcDbLine
 10
493.9034504601559
 20
186.7804086166457
 30
0.0
 11
509.8870731160468
 21
183.1654431006344
 31
0.0
  0
LINE
  5
427
330
1B
100
AcDbEntity
  8
4
100
AcDbLine
 10
492.2010128117818
 20
186.7804086166456
 30
0.0
 11
493.9034504601559
 21
186.7804086166456
 31
0.0
  0
LINE
  5
428
330
1B
100
AcDbEntity
  8
4
100
AcDbLine
 10
493.9034504601559
 20
186.7804086166456
 30
0.0
 11
493.9034504601559
 21
203.2378545272164
 31
0.0
  0
LINE
  5
42B
330
1B
100
AcDbEntity
  8
2
100
AcDbLine
 10
620.187073116047
 20
159.6590879657593
 30
0.0
 11
621.687073116047
 21
161.1590879657593
 31
0.0
  0
LINE
  5
42C
330
1B
100
AcDbEntity
  8
2
100
AcDbLine
 10
620.187073116047
 20
161.7804083093189
 30
0.0
 11
621.687073116047
 21
163.2804083093189
 31
0.0
  0
LINE
  5
42D
330
1B
100
AcDbEntity
  8
4
100
AcDbLine
 10
621.687073116047
 20
156.030408309319
 30
0.0
 11
620.187073116047
 21
156.030408309319
 31
0.0
  0
LINE
  5
42E
330
1B
100
AcDbEntity
  8
4
100
AcDbLine
 10
493.9034504601559
 20
136.7804080019921
 30
0.0
 11
509.8870731160468
 21
140.3953735180033
 31
0.0
  0
LINE
  5
42F
330
1B
100
AcDbEntity
  8
4
100
AcDbLine
 10
492.2010128117818
 20
136.7804080019921
 30
0.0
 11
509.8870731160468
 21
140.7804084706247
 31
0.0
  0
LINE
  5
430
330
1B
100
AcDbEntity
  8
4
100
AcDbLine
 10
492.2010128117818
 20
136.7804080019922
 30
0.0
 11
493.9034504601559
 21
136.7804080019922
 31
0.0
  0
LINE
  5
431
330
1B
100
AcDbEntity
  8
4
 62
     3
100
AcDbLine
 10
484.6909566160466
 20
121.6196318093189
 30
0.0
 11
492.7778091534447
 21
120.00226054169
 31
0.0
  0
ARC
  5
432
330
1B
100
AcDbEntity
  8
4
 62
     3
100
AcDbCircle
 10
484.8870726160467
 20
122.6002118093189
 30
0.0
 40
1.0000005
100
AcDbArc
 50
180.0
 51
258.6900680000028
  0
ARC
  5
433
330
1B
100
AcDbEntity
  8
4
100
AcDbCircle
 10
492.384266116047
 20
118.041362309319
 30
0.0
 40
1.9999995
100
AcDbArc
 50
18.92367000000244
 51
78.69006800000444
  0
ARC
  5
434
330
1B
100
AcDbEntity
  8
4
 62
     3
100
AcDbCircle
 10
490.6818291160471
 20
118.381848809319
 30
0.0
 40
1.9999995
100
AcDbArc
 50
18.92367000000244
 51
78.69006800000444
  0
LINE
  5
435
330
1B
100
AcDbEntity
  8
4
100
AcDbLine
 10
491.0740611160468
 20
120.3430103093189
 30
0.0
 11
492.7764981160467
 21
120.0025238093189
 31
0.0
  0
LINE
  5
436
330
1B
100
AcDbEntity
  8
4
100
AcDbLine
 10
493.9034504601559
 20
119.7771321745394
 30
0.0
 11
493.9034504601559
 21
136.7804080019921
 31
0.0
  0
LINE
  5
43C
330
1B
100
AcDbEntity
  8
4
 62
     3
100
AcDbLine
 10
483.887073616047
 20
200.9606048093189
 30
0.0
 11
483.887073616047
 21
122.6002118093189
 31
0.0
  0
LINE
  5
43D
330
1B
100
AcDbEntity
  8
4
100
AcDbLine
 10
492.2010128117818
 20
136.7804080019922
 30
0.0
 11
492.2010128117818
 21
186.7804086166459
 31
0.0
  0
LINE
  5
43E
330
1B
100
AcDbEntity
  8
4
100
AcDbLine
 10
621.687073116047
 20
156.030408309319
 30
0.0
 11
621.687073116047
 21
167.5304083093189
 31
0.0
  0
ARC
  5
43F
330
1B
100
AcDbEntity
  8
4
 62
     3
100
AcDbCircle
 10
306.7220487100724
 20
217.7804078093187
 30
0.0
 40
1.9999995
100
AcDbArc
 50
90.0
 51
180.0
  0
LINE
  5
440
330
1B
100
AcDbEntity
  8
4
 62
     3
100
AcDbLine
 10
306.7220487100724
 20
219.7804088093191
 30
0.0
 11
311.2220487100724
 21
219.7804088093191
 31
0.0
  0
ARC
  5
441
330
1B
100
AcDbEntity
  8
4
 62
     3
100
AcDbCircle
 10
236.5593177100725
 20
197.6176778093187
 30
0.0
 40
1.9999995
100
AcDbArc
 50
6.907067000000085
 51
83.09293299999993
  0
ARC
  5
442
330
1B
100
AcDbEntity
  8
4
 62
     3
100
AcDbCircle
 10
238.3383732100724
 20
199.3967333093188
 30
0.0
 40
1.9999995
100
AcDbArc
 50
7.251750999999385
 51
82.74824900000063
  0
ARC
  5
443
330
1B
100
AcDbEntity
  8
4
 62
     3
100
AcDbCircle
 10
163.1057232100725
 20
199.3967333093188
 30
0.0
 40
1.9999995
100
AcDbArc
 50
97.25175099999937
 51
172.7482490000007
  0
ARC
  5
444
330
1B
100
AcDbEntity
  8
4
 62
     3
100
AcDbCircle
 10
164.8847787100724
 20
197.6176778093187
 30
0.0
 40
1.9999995
100
AcDbArc
 50
96.90706700000007
 51
173.0929329999999
  0
ARC
  5
445
330
1B
100
AcDbEntity
  8
4
 62
     3
100
AcDbCircle
 10
200.7220482100724
 20
-98.21959119068092
 30
0.0
 40
300.0
100
AcDbArc
 50
83.092933
 51
96.90706700000001
  0
ARC
  5
446
330
1B
100
AcDbEntity
  8
4
 62
     3
100
AcDbCircle
 10
200.7220482100724
 20
-96.21959169068086
 30
0.0
 40
300.0
100
AcDbArc
 50
82.74824900000003
 51
97.25175099999998
  0
ARC
  5
447
330
1B
100
AcDbEntity
  8
4
 62
     3
100
AcDbCircle
 10
244.4452557100724
 20
189.5671988093189
 30
0.0
 40
3.0
100
AcDbArc
 50
185.2617349999998
 51
265.3931879999984
  0
LINE
  5
448
330
1B
100
AcDbEntity
  8
4
 62
     3
100
AcDbLine
 10
285.6871032100726
 20
183.234299309319
 30
0.0
 11
244.2043047100724
 21
186.5768903093189
 31
0.0
  0
ARC
  5
449
330
1B
100
AcDbEntity
  8
4
 62
     3
100
AcDbCircle
 10
156.9988407100725
 20
189.5671988093189
 30
0.0
 40
3.0
100
AcDbArc
 50
274.6068120000016
 51
354.7382650000002
  0
ARC
  5
44A
330
1B
100
AcDbEntity
  8
4
 62
     3
100
AcDbCircle
 10
286.0083732100725
 20
187.2213773093189
 30
0.0
 40
4.0000005
100
AcDbArc
 50
265.3931879999981
 51
16.60987800000092
  0
LINE
  5
44B
330
1B
100
AcDbEntity
  8
4
 62
     3
100
AcDbLine
 10
285.6871032100726
 20
140.3265173093188
 30
0.0
 11
244.2043047100724
 21
136.9839263093189
 31
0.0
  0
ARC
  5
44C
330
1B
100
AcDbEntity
  8
4
 62
     3
100
AcDbCircle
 10
228.5088387100725
 20
118.0572008093189
 30
0.0
 40
3.0
100
AcDbArc
 50
95.26173499999754
 51
175.3931879999984
  0
ARC
  5
44D
330
1B
100
AcDbEntity
  8
4
 62
     3
100
AcDbCircle
 10
238.3383732100724
 20
124.1640833093189
 30
0.0
 40
1.9999995
100
AcDbArc
 50
277.2517509999994
 51
352.7482490000006
  0
ARC
  5
44E
330
1B
100
AcDbEntity
  8
4
 62
     3
100
AcDbCircle
 10
236.5593177100725
 20
125.9431388093191
 30
0.0
 40
1.9999995
100
AcDbArc
 50
276.9070670000001
 51
353.0929329999999
  0
ARC
  5
44F
330
1B
100
AcDbEntity
  8
4
 62
     3
100
AcDbCircle
 10
172.9352577100724
 20
118.0572008093189
 30
0.0
 40
3.0
100
AcDbArc
 50
4.606812000001621
 51
84.73826500000246
  0
ARC
  5
450
330
1B
100
AcDbEntity
  8
4
 62
     3
100
AcDbCircle
 10
163.1057232100725
 20
124.1640833093189
 30
0.0
 40
1.9999995
100
AcDbArc
 50
187.2517509999993
 51
262.7482490000006
  0
ARC
  5
451
330
1B
100
AcDbEntity
  8
4
 62
     3
100
AcDbCircle
 10
164.8847787100724
 20
125.9431388093191
 30
0.0
 40
1.9999995
100
AcDbArc
 50
186.9070670000001
 51
263.0929329999999
  0
ARC
  5
452
330
1B
100
AcDbEntity
  8
4
 62
     3
100
AcDbCircle
 10
200.7220482100724
 20
419.7804083093187
 30
0.0
 40
300.0
100
AcDbArc
 50
262.748249
 51
277.251751
  0
ARC
  5
453
330
1B
100
AcDbEntity
  8
4
 62
     3
100
AcDbCircle
 10
200.7220482100724
 20
421.7804078093187
 30
0.0
 40
300.0
100
AcDbArc
 50
263.0929330000001
 51
276.907067
  0
ARC
  5
454
330
1B
100
AcDbEntity
  8
4
 62
     3
100
AcDbCircle
 10
156.9988407100725
 20
133.9936178093188
 30
0.0
 40
3.0
100
AcDbArc
 50
5.261734999999806
 51
85.3931879999984
  0
ARC
  5
455
330
1B
100
AcDbEntity
  8
4
 62
     3
100
AcDbCircle
 10
244.4452557100724
 20
133.9936178093188
 30
0.0
 40
3.0
100
AcDbArc
 50
94.60681200000161
 51
174.7382650000002
  0
ARC
  5
456
330
1B
100
AcDbEntity
  8
4
 62
     3
100
AcDbCircle
 10
286.0083732100725
 20
136.3394393093189
 30
0.0
 40
4.0000005
100
AcDbArc
 50
343.3901220000009
 51
94.60681200000194
  0
ARC
  5
457
330
1B
100
AcDbEntity
  8
4
 62
     3
100
AcDbCircle
 10
-59.27795128992739
 20
161.7804083093189
 30
0.0
 40
300.0
100
AcDbArc
 50
353.0929330000001
 51
6.907066999999978
  0
ARC
  5
458
330
1B
100
AcDbEntity
  8
4
 62
     3
100
AcDbCircle
 10
-57.27795178992756
 20
161.7804083093189
 30
0.0
 40
300.0
100
AcDbArc
 50
352.7482490000001
 51
7.251750999999988
  0
ARC
  5
459
330
1B
100
AcDbEntity
  8
4
 62
     3
100
AcDbCircle
 10
458.7220482100724
 20
161.7804083093189
 30
0.0
 40
300.0
100
AcDbArc
 50
172.748249
 51
187.251751
  0
ARC
  5
45A
330
1B
100
AcDbEntity
  8
4
 62
     3
100
AcDbCircle
 10
460.7220477100723
 20
161.7804083093189
 30
0.0
 40
300.0
100
AcDbArc
 50
173.0929329999999
 51
186.907067
  0
LINE
  5
45B
330
1B
100
AcDbEntity
  8
4
100
AcDbLine
 10
621.687073116047
 20
81.7938358093196
 30
0.0
 11
620.187073116047
 21
81.7938358093196
 31
0.0
  0
LINE
  5
45C
330
1B
100
AcDbEntity
  8
2
100
AcDbLine
 10
620.187073116047
 20
76.04383580931972
 30
0.0
 11
621.687073116047
 21
77.54383580931972
 31
0.0
  0
ARC
  5
45D
330
1B
100
AcDbEntity
  8
4
 62
     3
100
AcDbCircle
 10
592.8870726160467
 20
68.78040830931889
 30
0.0
 40
1.9999995
100
AcDbArc
 50
180.0
 51
270.0
  0
LINE
  5
45E
330
1B
100
AcDbEntity
  8
4
100
AcDbLine
 10
621.687073116047
 20
70.29383580931983
 30
0.0
 11
620.187073116047
 21
70.29383580931983
 31
0.0
  0
LINE
  5
45F
330
1B
100
AcDbEntity
  8
2
100
AcDbLine
 10
620.187073116047
 20
73.92251546576006
 30
0.0
 11
621.687073116047
 21
75.42251546576006
 31
0.0
  0
ARC
  5
460
330
1B
100
AcDbEntity
  8
4
 62
     3
100
AcDbCircle
 10
487.8870726160467
 20
64.78040780931894
 30
0.0
 40
1.9999995
100
AcDbArc
 50
90.0
 51
180.0
  0
ARC
  5
461
330
1B
100
AcDbEntity
  8
4
 62
     3
100
AcDbCircle
 10
528.887073616047
 20
68.78040830931889
 30
0.0
 40
1.9999995
100
AcDbArc
 50
270.0
 51
0.0
  0
LINE
  5
462
330
1B
100
AcDbEntity
  8
4
100
AcDbLine
 10
621.687073116047
 20
70.29383580931983
 30
0.0
 11
621.687073116047
 21
81.7938358093196
 31
0.0
  0
LINE
  5
46C
330
1B
100
AcDbEntity
  8
L-CENTER
 48
2.5
100
AcDbLine
 10
615.887073616047
 20
73.78040880931883
 30
0.0
 11
615.887073616047
 21
34.78040830931889
 31
0.0
  0
LINE
  5
46D
330
1B
100
AcDbEntity
  8
L-CENTER
 48
2.5
100
AcDbLine
 10
505.8870726160467
 20
73.78040880931883
 30
0.0
 11
505.8870726160467
 21
34.78040830931889
 31
0.0
  0
LINE
  5
471
330
1B
100
AcDbEntity
  8
4
 62
     3
100
AcDbLine
 10
485.8870731160468
 20
64.78040780931894
 30
0.0
 11
485.8870731160468
 21
41.78040830931889
 31
0.0
  0
ARC
  5
473
330
1B
100
AcDbEntity
  8
4
 62
     3
100
AcDbCircle
 10
300.4061037100723
 20
71.78040830931889
 30
0.0
 40
4.9999995
100
AcDbArc
 50
164.415651
 51
270.0
  0
ARC
  5
474
330
1B
100
AcDbEntity
  8
4
 62
     3
100
AcDbCircle
 10
312.7220487100724
 20
71.78040830931889
 30
0.0
 40
4.9999995
100
AcDbArc
 50
180.0
 51
270.0
  0
ARC
  5
476
330
1B
100
AcDbEntity
  8
4
 62
     3
100
AcDbCircle
 10
328.7220477100725
 20
64.78040780931894
 30
0.0
 40
1.9999995
100
AcDbArc
 50
0.0
 51
90.0
  0
ARC
  5
478
330
1B
100
AcDbEntity
  8
4
 62
     3
100
AcDbCircle
 10
273.7220487100724
 20
46.78040780931894
 30
0.0
 40
4.9999995
100
AcDbArc
 50
0.0
 51
90.0
  0
ARC
  5
479
330
1B
100
AcDbEntity
  8
4
 62
     3
100
AcDbCircle
 10
273.7220487100724
 20
57.83087030931904
 30
0.0
 40
4.9999995
100
AcDbArc
 50
0.0
 51
102.5863330000002
  0
ARC
  5
47A
330
1B
100
AcDbEntity
  8
4
 62
     3
100
AcDbCircle
 10
280.7220477100725
 20
64.78040780931894
 30
0.0
 40
1.9999995
100
AcDbArc
 50
90.0
 51
180.0
  0
ARC
  5
47B
330
1B
100
AcDbEntity
  8
4
 62
     3
100
AcDbCircle
 10
282.7220487100724
 20
64.78040780931894
 30
0.0
 40
1.9999995
100
AcDbArc
 50
90.0
 51
180.0
  0
ARC
  5
47C
330
1B
100
AcDbEntity
  8
4
 62
     3
100
AcDbCircle
 10
200.7220482100724
 20
384.7804088093191
 30
0.0
 40
330.0
100
AcDbArc
 50
270.0
 51
282.586333
  0
ARC
  5
47D
330
1B
100
AcDbEntity
  8
4
 62
     3
100
AcDbCircle
 10
226.1630172100724
 20
76.49408330931885
 30
0.0
 40
4.0000005
100
AcDbArc
 50
175.3931879999998
 51
286.6098780000009
  0
ARC
  5
47E
330
1B
100
AcDbEntity
  8
4
 62
     3
100
AcDbCircle
 10
175.2810792100724
 20
76.49408330931885
 30
0.0
 40
4.0000005
100
AcDbArc
 50
253.3901219999991
 51
4.606812000000274
  0
LINE
  5
47F
330
1B
100
AcDbEntity
  8
4
 62
     3
100
AcDbLine
 10
280.7220477100725
 20
66.78040880931883
 30
0.0
 11
328.7220477100725
 21
66.78040880931883
 31
0.0
  0
TEXT
  5
484
330
1B
100
AcDbEntity
  8
3
100
AcDbText
 10
398.0109752509784
 20
44.57609940379928
 30
0.0
 40
7.5
  1
LB4-00
  7
KANJI
 72
     1
 11
418.0109752509784
 21
44.57609940379928
 31
0.0
100
AcDbText
  0
LINE
  5
488
330
1B
100
AcDbEntity
  8
4
 62
     3
100
AcDbLine
 10
278.7220482100724
 20
41.78040830931889
 30
0.0
 11
330.7220487100724
 21
41.78040830931889
 31
0.0
  0
LWPOLYLINE
  5
489
330
1B
100
AcDbEntity
  8
4
100
AcDbPolyline
 90
       44
 70
     0
 43
0.0
 10
295.4959777100721
 20
66.78966330931928
 10
295.7783702100719
 20
66.42822080931944
 10
296.0508952100722
 20
66.06824080931949
 10
296.303692710072
 20
65.71118830931948
 10
296.8450477100721
 20
64.67221080931938
 10
296.920270210072
 20
64.34149080931945
 10
296.9264402100721
 20
64.02100830931943
 10
296.8536877100721
 20
63.71223330931946
 10
296.673492710072
 20
63.3797183093194
 10
296.4149277100721
 20
63.05769330931946
 10
296.1116977100721
 20
62.74002580931949
 10
295.797510210072
 20
62.42058830931944
 10
295.5060677100721
 20
62.09324830931939
 10
295.2710827100721
 20
61.75187330931942
 10
295.127427710072
 20
61.41983830931952
 10
295.0517002100721
 20
61.07244330931928
 10
295.0348802100721
 20
60.71153330931941
 10
295.2476852100722
 20
59.56619580931931
 10
295.6659727100721
 20
58.36574830931943
 10
296.0462177100721
 20
57.16007830931937
 10
296.122422710072
 20
56.76565080931925
 10
296.1583227100721
 20
56.37803080931928
 10
296.1448977100722
 20
55.99907080931928
 10
296.0348502100721
 20
55.48721080931944
 10
295.8350652100721
 20
54.99199330931935
 10
295.5692152100721
 20
54.50963580931932
 10
294.6119152100721
 20
53.10196330931933
 10
294.3184577100722
 20
52.63327580931934
 10
294.0772627100721
 20
52.15856080931928
 10
293.9120027100721
 20
51.67403830931937
 10
293.8435527100721
 20
51.23542580931928
 10
293.841892710072
 20
50.78743580931939
 10
293.896065210072
 20
50.33130080931926
 10
294.2840427100721
 20
48.92630830931932
 10
294.7801602100722
 20
47.49224330931941
 10
294.918442710072
 20
47.01349830931952
 10
295.0249227100721
 20
46.53643580931941
 10
295.0886452100722
 20
46.06229080931928
 10
295.0858852100721
 20
45.31456580931933
 10
294.9694352100721
 20
44.5756108093193
 10
294.762030210072
 20
43.84367330931934
 10
294.4864102100721
 20
43.11699830931946
 10
294.1653127100722
 20
42.39383080931941
 10
293.8729493372011
 20
41.78040830931934
  0
LINE
  5
48A
330
1B
100
AcDbEntity
  8
4
100
AcDbLine
 10
318.222047710072
 20
66.78040830931934
 30
0.0
 11
318.222047710072
 21
41.78040830931934
 31
0.0
  0
LINE
  5
48B
330
1B
100
AcDbEntity
  8
4
100
AcDbLine
 10
303.222047710072
 20
66.78040830931934
 30
0.0
 11
303.222047710072
 21
41.78040830931934
 31
0.0
  0
LINE
  5
48C
330
1B
100
AcDbEntity
  8
4
 62
     3
100
AcDbLine
 10
278.7220482100724
 20
64.78040780931894
 30
0.0
 11
278.7220482100724
 21
41.78040830931889
 31
0.0
  0
LINE
  5
48D
330
1B
100
AcDbEntity
  8
4
 62
     3
100
AcDbLine
 10
280.7220477100725
 20
64.78040780931894
 30
0.0
 11
280.7220477100725
 21
41.78040830931889
 31
0.0
  0
LINE
  5
48E
330
1B
100
AcDbEntity
  8
L-CENTER
 48
2.5
100
AcDbLine
 10
310.7220477100725
 20
73.78040880931883
 30
0.0
 11
310.7220477100725
 21
34.78040830931889
 31
0.0
  0
LINE
  5
490
330
1B
100
AcDbEntity
  8
4
 62
     3
100
AcDbLine
 10
330.7220487100724
 20
64.78040780931894
 30
0.0
 11
330.7220487100724
 21
41.78040830931889
 31
0.0
  0
LINE
  5
492
330
1B
100
AcDbEntity
  8
4
 62
     3
100
AcDbLine
 10
590.8870731160468
 20
149.5122728093189
 30
0.0
 11
590.8870731160468
 21
68.78040830931889
 31
0.0
  0
LINE
  5
493
330
1B
100
AcDbEntity
  8
4
 62
     3
100
AcDbLine
 10
530.8870731160468
 20
149.5122728093189
 30
0.0
 11
530.8870731160468
 21
68.78040830931889
 31
0.0
  0
LINE
  5
495
330
1B
100
AcDbEntity
  8
4
 62
     3
100
AcDbLine
 10
492.5733395713182
 20
119.0316073780194
 30
0.0
 11
509.8870731160468
 21
68.53042130931885
 31
0.0
  0
LINE
  5
497
330
1B
100
AcDbEntity
  8
4
100
AcDbLine
 10
494.2757765714805
 20
118.6911208775471
 30
0.0
 11
509.8870731160473
 21
73.15565105032601
 31
0.0
  0
LINE
  5
498
330
1B
100
AcDbEntity
  8
4
 62
     3
100
AcDbLine
 10
307.7220477100725
 20
161.7804083093189
 30
0.0
 11
307.7220477100725
 21
71.78040830931889
 31
0.0
  0
LINE
  5
499
330
1B
100
AcDbEntity
  8
4
 62
     3
100
AcDbLine
 10
179.2681572100723
 20
76.81535330931877
 30
0.0
 11
175.9255662100725
 21
118.2981518093189
 31
0.0
  0
LINE
  5
49A
330
1B
100
AcDbEntity
  8
4
 62
     3
100
AcDbLine
 10
222.1759392100726
 20
76.81535330931877
 30
0.0
 11
225.5185302100724
 21
118.2981518093189
 31
0.0
  0
LINE
  5
49B
330
1B
100
AcDbEntity
  8
4
 62
     3
100
AcDbLine
 10
485.8870731160468
 20
41.78040830931889
 30
0.0
 11
635.8870731160468
 21
41.78040830931889
 31
0.0
  0
LINE
  5
49C
330
1B
100
AcDbEntity
  8
4
 62
     3
100
AcDbLine
 10
633.887073616047
 20
66.78040880931883
 30
0.0
 11
487.9081923725025
 21
66.78040880931883
 31
0.0
  0
LINE
  5
49D
330
1B
100
AcDbEntity
  8
L-CENTER
 48
2.5
100
AcDbLine
 10
721.9707918825625
 20
161.7804083093189
 30
0.0
 11
479.6845669519043
 21
161.780408309319
 31
0.0
  0
LINE
  5
49E
330
1B
100
AcDbEntity
  8
4
100
AcDbLine
 10
631.4678897072363
 20
117.2388128341885
 30
0.0
 11
621.687073116047
 21
81.53106972349815
 31
0.0
  0
LINE
  5
49F
330
1B
100
AcDbEntity
  8
4
100
AcDbLine
 10
620.2037945616994
 20
81.7938358093196
 30
0.0
 11
629.4855376976457
 21
115.6795647183316
 31
0.0
  0
LINE
  5
4A0
330
1B
100
AcDbEntity
  8
4
100
AcDbLine
 10
631.4678897072372
 20
136.7804083093189
 30
0.0
 11
620.187073116047
 21
140.7804083093193
 31
0.0
  0
LINE
  5
4A1
330
1B
100
AcDbEntity
  8
4
100
AcDbLine
 10
629.7870731160474
 20
136.7804083093189
 30
0.0
 11
620.1870731160479
 21
140.1844172026105
 31
0.0
  0
LINE
  5
4A2
330
1B
100
AcDbEntity
  8
4
100
AcDbLine
 10
631.4678897072372
 20
186.7804083093189
 30
0.0
 11
620.187073116047
 21
182.7804083093184
 31
0.0
  0
LINE
  5
4A3
330
1B
100
AcDbEntity
  8
4
100
AcDbLine
 10
629.7870731160456
 20
186.7804083093187
 30
0.0
 11
620.1870731160479
 21
183.3763994160269
 31
0.0
  0
LINE
  5
4A4
330
1B
100
AcDbEntity
  8
L-CENTER
 48
2.5
100
AcDbLine
 10
598.1602431135889
 20
76.04383580931915
 30
0.0
 11
628.9198370403205
 21
76.04383580931994
 31
0.0
  0
LINE
  5
4A5
330
1B
100
AcDbEntity
  8
4
100
AcDbLine
 10
627.687073116047
 20
156.780408309319
 30
0.0
 11
621.687073116047
 21
156.7804083093189
 31
0.0
  0
LINE
  5
4A6
330
1B
100
AcDbEntity
  8
4
100
AcDbLine
 10
627.687073116047
 20
166.7804083093189
 30
0.0
 11
621.687073116047
 21
166.7804083093189
 31
0.0
  0
LINE
  5
4A7
330
1B
100
AcDbEntity
  8
4
100
AcDbLine
 10
627.687073116047
 20
71.04383580931983
 30
0.0
 11
621.687073116047
 21
71.0438358093196
 31
0.0
  0
LINE
  5
4A8
330
1B
100
AcDbEntity
  8
4
100
AcDbLine
 10
627.687073116047
 20
81.04383580931972
 30
0.0
 11
621.687073116047
 21
81.0438358093196
 31
0.0
  0
LINE
  5
4AB
330
1B
100
AcDbEntity
  8
L-CENTER
 48
2.5
100
AcDbLine
 10
560.8870731160468
 20
35.04141680931889
 30
0.0
 11
560.8870731160468
 21
318.8355439614767
 31
0.0
  0
LINE
  5
4AC
330
1B
100
AcDbEntity
  8
4
 62
     3
100
AcDbLine
 10
608.8870731160468
 20
266.7804083093189
 30
0.0
 11
608.8870731160468
 21
66.78040880931894
 31
0.0
  0
LINE
  5
4AD
330
1B
100
AcDbEntity
  8
4
 62
     3
100
AcDbLine
 10
509.8870731160468
 20
265.7804078093187
 30
0.0
 11
509.8870731160468
 21
66.78040880931883
 31
0.0
  0
LINE
  5
4AE
330
1B
100
AcDbEntity
  8
4
100
AcDbLine
 10
517.8870741160472
 20
267.7804088093191
 30
0.0
 11
517.8870741160472
 21
66.78040880931883
 31
0.0
  0
LINE
  5
4AF
330
1B
100
AcDbEntity
  8
4
100
AcDbLine
 10
518.8870731160468
 20
261.7804088093191
 30
0.0
 11
518.8870731160468
 21
66.78040880931883
 31
0.0
  0
LINE
  5
4B0
330
1B
100
AcDbEntity
  8
4
100
AcDbLine
 10
603.8870721160465
 20
267.7804088093191
 30
0.0
 11
603.8870721160465
 21
66.78040880931883
 31
0.0
  0
LINE
  5
4B1
330
1B
100
AcDbEntity
  8
4
100
AcDbLine
 10
602.8870731160468
 20
261.7804088093191
 30
0.0
 11
602.8870731160468
 21
66.78040880931883
 31
0.0
  0
LINE
  5
4B2
330
1B
100
AcDbEntity
  8
4
100
AcDbLine
 10
620.187073116047
 20
265.7804083093189
 30
0.0
 11
620.187073116047
 21
66.78040880931883
 31
0.0
  0
LINE
  5
4B3
330
1B
100
AcDbEntity
  8
4
100
AcDbLine
 10
608.8870731160473
 20
66.78040880931894
 30
0.0
 11
608.8870731160468
 21
266.7804083093189
 31
0.0
  0
CIRCLE
  5
4B4
330
1B
100
AcDbEntity
  8
4
100
AcDbCircle
 10
560.8870731160468
 20
261.7804088093191
 30
0.0
 40
42.0
  0
LINE
  5
4B7
330
1B
100
AcDbEntity
  8
4
100
AcDbLine
 10
494.2679346160467
 20
204.8468183093189
 30
0.0
 11
509.8870731160468
 21
250.4051652823138
 31
0.0
  0
ARC
  5
4B8
330
1B
100
AcDbEntity
  8
4
 62
     3
100
AcDbCircle
 10
818.8870731160468
 20
261.7804088093191
 30
0.0
 40
300.0
100
AcDbArc
 50
172.85057
 51
187.1498659109533
  0
ARC
  5
4BA
330
1B
100
AcDbEntity
  8
4
 62
     3
100
AcDbCircle
 10
302.8870731160468
 20
261.7804088093191
 30
0.0
 40
300.0
100
AcDbArc
 50
352.8501340890467
 51
7.149430000000029
  0
LINE
  5
4BB
330
1B
100
AcDbEntity
  8
4
100
AcDbLine
 10
620.2037945616999
 20
241.766980809319
 30
0.0
 11
629.4855376976466
 21
207.8812519003064
 31
0.0
  0
LINE
  5
4BC
330
1B
100
AcDbEntity
  8
4
100
AcDbLine
 10
631.4678897072363
 20
206.3220037844493
 30
0.0
 11
621.687073116047
 21
242.0297468951388
 31
0.0
  0
ARC
  5
4BD
330
1B
100
AcDbEntity
  8
4
 62
     3
100
AcDbCircle
 10
-22.27795228992773
 20
161.7804083093189
 30
0.0
 40
330.0
100
AcDbArc
 50
344.4156509999999
 51
16.07294399999999
  0
LINE
  5
4BE
330
1B
100
AcDbEntity
  8
L-CENTER
 48
2.5
100
AcDbLine
 10
200.7220482100724
 20
47.52021530931881
 30
0.0
 11
200.7220482100724
 21
311.7804083093189
 31
0.0
  0
LINE
  5
4BF
330
1B
100
AcDbEntity
  8
4
 62
     3
100
AcDbLine
 10
311.2220487100724
 20
303.7804088093188
 30
0.0
 11
311.2220487100724
 21
219.7804088093191
 31
0.0
  0
LINE
  5
4C0
330
1B
100
AcDbEntity
  8
4
 62
     3
100
AcDbLine
 10
304.7220477100725
 20
206.1763538093188
 30
0.0
 11
304.7220477100725
 21
250.7804078093187
 31
0.0
  0
LINE
  5
4C4
330
1B
100
AcDbEntity
  8
4
100
AcDbLine
 10
90.22204771007227
 20
292.7804088093191
 30
0.0
 11
89.22204771007227
 21
292.7804088093191
 31
0.0
  0
LINE
  5
4C5
330
1B
100
AcDbEntity
  8
4
 62
     3
100
AcDbLine
 10
90.22204771007227
 20
303.7804088093188
 30
0.0
 11
95.98999771007243
 21
303.7804088093188
 31
0.0
  0
ARC
  5
4C6
330
1B
100
AcDbEntity
  8
4
 62
     3
100
AcDbCircle
 10
95.98999771007243
 20
304.7804078093189
 30
0.0
 40
1.0000005
100
AcDbArc
 50
270.0
 51
330.0000000000024
  0
ARC
  5
4C7
330
1B
100
AcDbEntity
  8
4
 62
     3
100
AcDbCircle
 10
97.72204771007227
 20
303.7804088093188
 30
0.0
 40
1.0000005
100
AcDbArc
 50
90.0
 51
150.0849845346778
  0
LINE
  5
4C8
330
1B
100
AcDbEntity
  8
4
100
AcDbLine
 10
128.2225382100723
 20
307.2804083093189
 30
0.0
 11
128.2225382100723
 21
313.2804083093189
 31
0.0
  0
LINE
  5
4C9
330
1B
100
AcDbEntity
  8
4
100
AcDbLine
 10
129.2225382100723
 20
305.7804083093189
 30
0.0
 11
129.2225382100723
 21
307.2804083093189
 31
0.0
  0
LINE
  5
4CA
330
1B
100
AcDbEntity
  8
4
 62
     3
100
AcDbLine
 10
121.7220477100723
 20
305.7804083093189
 30
0.0
 11
121.7220477100723
 21
305.770407809319
 31
0.0
  0
ARC
  5
4CB
330
1B
100
AcDbEntity
  8
4
 62
     3
100
AcDbCircle
 10
120.7320477100725
 20
305.770407809319
 30
0.0
 40
0.99
100
AcDbArc
 50
270.0
 51
0.0
  0
ARC
  5
4CC
330
1B
100
AcDbEntity
  8
4
 62
     3
100
AcDbCircle
 10
95.72204821007244
 20
272.7804083093189
 30
0.0
 40
1.0000005
100
AcDbArc
 50
270.0
 51
0.0
  0
LINE
  5
4CD
330
1B
100
AcDbEntity
  8
4
100
AcDbLine
 10
90.22204771007227
 20
230.7804088093191
 30
0.0
 11
89.22204771007227
 21
230.7804088093191
 31
0.0
  0
ARC
  5
4CE
330
1B
100
AcDbEntity
  8
4
 62
     3
100
AcDbCircle
 10
95.72204821007244
 20
250.7804078093187
 30
0.0
 40
1.0000005
100
AcDbArc
 50
0.0
 51
90.0
  0
ARC
  5
4CF
330
1B
100
AcDbEntity
  8
4
 62
     3
100
AcDbCircle
 10
110.4653877100725
 20
252.0370688093188
 30
0.0
 40
4.0000005
100
AcDbArc
 50
106.0729439999987
 51
163.9270560000012
  0
LINE
  5
4D0
330
1B
100
AcDbEntity
  8
4
 62
     3
100
AcDbLine
 10
96.72204871007239
 20
272.7804083093189
 30
0.0
 11
96.72204871007239
 21
303.7804088093188
 31
0.0
  0
LINE
  5
4D1
330
1B
100
AcDbEntity
  8
4
100
AcDbLine
 10
89.22204771007227
 20
292.7804088093191
 30
0.0
 11
89.22204771007227
 21
230.7804088093191
 31
0.0
  0
LINE
  5
4D3
330
1B
100
AcDbEntity
  8
4
 62
     3
100
AcDbLine
 10
94.7220477100725
 20
219.7804088093191
 30
0.0
 11
90.2220477100725
 21
219.7804088093191
 31
0.0
  0
ARC
  5
4D4
330
1B
100
AcDbEntity
  8
4
 62
     3
100
AcDbCircle
 10
94.7220477100725
 20
217.7804078093187
 30
0.0
 40
1.9999995
100
AcDbArc
 50
0.0
 51
90.0
  0
ARC
  5
4D5
330
1B
100
AcDbEntity
  8
4
 62
     3
100
AcDbCircle
 10
115.4357232100724
 20
187.2213773093189
 30
0.0
 40
4.0000005
100
AcDbArc
 50
163.3901219999992
 51
274.6068119999987
  0
ARC
  5
4D6
330
1B
100
AcDbEntity
  8
4
 62
     3
100
AcDbCircle
 10
91.72204771007227
 20
144.7804088093188
 30
0.0
 40
1.9999995
100
AcDbArc
 50
270.0
 51
0.0
  0
LINE
  5
4D7
330
1B
100
AcDbEntity
  8
4
100
AcDbLine
 10
90.22204771007227
 20
138.7804078093189
 30
0.0
 11
91.72204771007227
 21
138.7804078093189
 31
0.0
  0
LINE
  5
4D8
330
1B
100
AcDbEntity
  8
4
100
AcDbLine
 10
83.22204771007227
 20
139.7804078093189
 30
0.0
 11
90.22204771007227
 21
139.7804078093189
 31
0.0
  0
LINE
  5
4D9
330
1B
100
AcDbEntity
  8
4
 62
     3
100
AcDbLine
 10
93.72204871007261
 20
161.7804083093189
 30
0.0
 11
93.72204871007261
 21
144.7804088093188
 31
0.0
  0
LINE
  5
4DA
330
1B
100
AcDbEntity
  8
4
100
AcDbLine
 10
88.22204771007227
 20
117.2804078093189
 30
0.0
 11
83.22204771007227
 21
117.2804078093189
 31
0.0
  0
LINE
  5
4DB
330
1B
100
AcDbEntity
  8
4
100
AcDbLine
 10
90.22204771007227
 20
110.7804078093189
 30
0.0
 11
91.72204771007227
 21
110.7804078093189
 31
0.0
  0
LINE
  5
4DC
330
1B
100
AcDbEntity
  8
4
100
AcDbLine
 10
90.22204771007227
 20
109.7804078093189
 30
0.0
 11
83.22204771007227
 21
109.7804078093189
 31
0.0
  0
LINE
  5
4DD
330
1B
100
AcDbEntity
  8
L-CENTER
 48
2.5
100
AcDbLine
 10
103.6677732100725
 20
124.7804078093189
 30
0.0
 11
80.09654646077297
 21
124.7804078093189
 31
0.0
  0
LINE
  5
4DE
330
1B
100
AcDbEntity
  8
4
100
AcDbLine
 10
88.22204771007227
 20
132.2804078093189
 30
0.0
 11
83.22204771007227
 21
132.2804078093189
 31
0.0
  0
LINE
  5
4DF
330
1B
100
AcDbEntity
  8
4
100
AcDbLine
 10
83.22204771007227
 20
109.7804078093189
 30
0.0
 11
83.22204771007227
 21
139.7804078093189
 31
0.0
  0
LINE
  5
4E0
330
1B
100
AcDbEntity
  8
4
100
AcDbLine
 10
88.22204771007227
 20
109.7804078093189
 30
0.0
 11
88.22204771007227
 21
139.7804078093189
 31
0.0
  0
LINE
  5
4E1
330
1B
100
AcDbEntity
  8
4
100
AcDbLine
 10
90.22204771007227
 20
109.7804078093189
 30
0.0
 11
90.22204771007227
 21
139.7804078093189
 31
0.0
  0
LINE
  5
4E2
330
1B
100
AcDbEntity
  8
4
100
AcDbLine
 10
91.72204771007227
 20
110.7804078093189
 30
0.0
 11
91.72204771007227
 21
138.7804078093189
 31
0.0
  0
ARC
  5
4E3
330
1B
100
AcDbEntity
  8
4
 62
     3
100
AcDbCircle
 10
115.4357232100724
 20
136.3394393093189
 30
0.0
 40
4.0000005
100
AcDbArc
 50
85.39318800000132
 51
196.6098779999991
  0
LINE
  5
4E4
330
1B
100
AcDbEntity
  8
L-CENTER
 48
2.5
100
AcDbLine
 10
105.0567192100725
 20
81.78040880931883
 30
0.0
 11
86.48149321007259
 21
81.78040880931883
 31
0.0
  0
LINE
  5
4E5
330
1B
100
AcDbEntity
  8
4
100
AcDbLine
 10
89.72204871007261
 20
75.78040880931883
 30
0.0
 11
89.72204871007261
 21
87.78040880931883
 31
0.0
  0
LINE
  5
4E6
330
1B
100
AcDbEntity
  8
4
100
AcDbLine
 10
89.72204871007261
 20
75.78040880931883
 30
0.0
 11
90.72204871007261
 21
75.78040880931883
 31
0.0
  0
ARC
  5
4E7
330
1B
100
AcDbEntity
  8
4
 62
     3
100
AcDbCircle
 10
91.22204821007244
 20
92.28040880931883
 30
0.0
 40
0.4999995
100
AcDbArc
 50
270.0
 51
0.0
  0
LINE
  5
4E8
330
1B
100
AcDbEntity
  8
4
 62
     3
100
AcDbLine
 10
90.72204871007261
 20
91.78040780931894
 30
0.0
 11
91.22204821007244
 21
91.78040780931894
 31
0.0
  0
LINE
  5
4E9
330
1B
100
AcDbEntity
  8
4
100
AcDbLine
 10
89.72204871007261
 20
87.78040880931883
 30
0.0
 11
90.72204871007261
 21
87.78040880931883
 31
0.0
  0
LINE
  5
4EA
330
1B
100
AcDbEntity
  8
4
 62
     3
100
AcDbLine
 10
120.7220487100724
 20
66.78040880931883
 30
0.0
 11
72.72204871007239
 21
66.78040880931883
 31
0.0
  0
ARC
  5
4EB
330
1B
100
AcDbEntity
  8
4
 62
     3
100
AcDbCircle
 10
91.22204821007244
 20
71.28040880931883
 30
0.0
 40
0.4999995
100
AcDbArc
 50
0.0
 51
90.0
  0
LINE
  5
4EC
330
1B
100
AcDbEntity
  8
4
 62
     3
100
AcDbLine
 10
91.22204821007244
 20
71.78040830931889
 30
0.0
 11
90.72204871007261
 21
71.78040830931889
 31
0.0
  0
ARC
  5
4ED
330
1B
100
AcDbEntity
  8
4
 62
     3
100
AcDbCircle
 10
89.72204821007244
 20
68.78040830931889
 30
0.0
 40
1.9999995
100
AcDbArc
 50
270.0
 51
0.0
  0
ARC
  5
4EE
330
1B
100
AcDbEntity
  8
4
 62
     3
100
AcDbCircle
 10
72.72204871007261
 20
64.78040780931894
 30
0.0
 40
1.9999995
100
AcDbArc
 50
90.0
 51
180.0
  0
LINE
  5
4EF
330
1B
100
AcDbEntity
  8
4
 62
     3
100
AcDbLine
 10
72.72204871007261
 20
66.78040880931883
 30
0.0
 11
89.72204821007244
 21
66.78040880931883
 31
0.0
  0
ARC
  5
4F0
330
1B
100
AcDbEntity
  8
4
 62
     3
100
AcDbCircle
 10
88.7220477100725
 20
71.78040830931889
 30
0.0
 40
4.9999995
100
AcDbArc
 50
270.0
 51
0.0
  0
ARC
  5
4F1
330
1B
100
AcDbEntity
  8
4
 62
     3
100
AcDbCircle
 10
127.7220477100725
 20
46.78040780931894
 30
0.0
 40
4.9999995
100
AcDbArc
 50
90.0
 51
180.0
  0
ARC
  5
4F2
330
1B
100
AcDbEntity
  8
4
 62
     3
100
AcDbCircle
 10
118.7220477100725
 20
64.78040780931894
 30
0.0
 40
1.9999995
100
AcDbArc
 50
0.0
 51
90.0
  0
ARC
  5
4F3
330
1B
100
AcDbEntity
  8
4
 62
     3
100
AcDbCircle
 10
120.7220487100724
 20
64.78040780931894
 30
0.0
 40
1.9999995
100
AcDbArc
 50
0.0
 51
90.0
  0
ARC
  5
4F4
330
1B
100
AcDbEntity
  8
4
 62
     3
100
AcDbCircle
 10
127.7220477100725
 20
57.83087030931904
 30
0.0
 40
4.9999995
100
AcDbArc
 50
77.41366699999983
 51
180.0
  0
ARC
  5
4F5
330
1B
100
AcDbEntity
  8
4
 62
     3
100
AcDbCircle
 10
101.0379927100726
 20
71.78040830931889
 30
0.0
 40
4.9999995
100
AcDbArc
 50
270.0
 51
15.58434899999998
  0
LINE
  5
4F6
330
1B
100
AcDbEntity
  8
4
 62
     3
100
AcDbLine
 10
90.72204871007261
 20
91.78040780931894
 30
0.0
 11
90.72204871007261
 21
71.78040830931889
 31
0.0
  0
LINE
  5
4F7
330
1B
100
AcDbEntity
  8
4
 62
     3
100
AcDbLine
 10
70.72204771007227
 20
41.78040830931889
 30
0.0
 11
122.7220482100724
 21
41.78040830931889
 31
0.0
  0
LINE
  5
4FA
330
1B
100
AcDbEntity
  8
4
 62
     3
100
AcDbLine
 10
70.72204771007227
 20
64.78040780931894
 30
0.0
 11
70.72204771007227
 21
41.78040830931889
 31
0.0
  0
LINE
  5
4FB
330
1B
100
AcDbEntity
  8
L-CENTER
 48
2.5
100
AcDbLine
 10
90.72204871007239
 20
73.78040880931883
 30
0.0
 11
90.72204871007239
 21
34.78040830931889
 31
0.0
  0
LINE
  5
4FC
330
1B
100
AcDbEntity
  8
4
 62
     3
100
AcDbLine
 10
120.7220487100724
 20
64.78040780931894
 30
0.0
 11
120.7220487100724
 21
41.78040830931889
 31
0.0
  0
LINE
  5
4FD
330
1B
100
AcDbEntity
  8
4
 62
     3
100
AcDbLine
 10
122.7220482100724
 20
64.78040780931894
 30
0.0
 11
122.7220482100724
 21
41.78040830931889
 31
0.0
  0
LINE
  5
4FE
330
1B
100
AcDbEntity
  8
4
 62
     3
100
AcDbLine
 10
93.72204871007239
 20
161.7804083093189
 30
0.0
 11
93.72204871007239
 21
71.78040830931889
 31
0.0
  0
LINE
  5
4FF
330
1B
100
AcDbEntity
  8
4
 62
     3
100
AcDbLine
 10
91.72204771007227
 20
68.78040830931889
 30
0.0
 11
91.72204771007227
 21
142.7804078093189
 31
0.0
  0
ARC
  5
500
330
1B
100
AcDbEntity
  8
4
 62
     3
100
AcDbCircle
 10
423.7220487100726
 20
161.7804083093189
 30
0.0
 40
330.0
100
AcDbArc
 50
163.927056
 51
195.584349
  0
LINE
  5
501
330
1B
100
AcDbEntity
  8
4
 62
     3
100
AcDbLine
 10
90.22204771007227
 20
303.7804088093188
 30
0.0
 11
90.22204771007227
 21
219.7804088093191
 31
0.0
  0
LINE
  5
502
330
1B
100
AcDbEntity
  8
4
 62
     3
100
AcDbLine
 10
96.72204871007239
 20
206.1763538093188
 30
0.0
 11
96.72204871007239
 21
250.7804078093187
 31
0.0
  0
LINE
  5
506
330
1B
100
AcDbEntity
  8
4
 62
     3
100
AcDbLine
 10
127.7220477100723
 20
51.78040880931883
 30
0.0
 11
273.7220487100724
 21
51.78040880931883
 31
0.0
  0
ARC
  5
507
330
1B
100
AcDbEntity
  8
4
 62
     3
100
AcDbCircle
 10
200.7220482100724
 20
384.7804088093191
 30
0.0
 40
330.0
100
AcDbArc
 50
257.413667
 51
270.0
  0
LINE
  5
508
330
1B
100
AcDbEntity
  8
L-CENTER
 48
2.5
100
AcDbLine
 10
384.5307477342762
 20
261.7804088093191
 30
0.0
 11
84.76710818629545
 21
261.7804088093191
 31
0.0
  0
LINE
  5
50B
330
1B
100
AcDbEntity
  8
L-CENTER
 48
2.5
100
AcDbLine
 10
86.46185521007237
 20
161.7804083093189
 30
0.0
 11
314.9822412100725
 21
161.7804083093189
 31
0.0
  0
LINE
  5
50C
330
1B
100
AcDbEntity
  8
4
 62
     3
100
AcDbLine
 10
115.7569932100723
 20
140.3265173093188
 30
0.0
 11
157.2397917100725
 21
136.9839263093189
 31
0.0
  0
LINE
  5
50D
330
1B
100
AcDbEntity
  8
4
 62
     3
100
AcDbLine
 10
115.7569932100723
 20
183.234299309319
 30
0.0
 11
157.2397917100725
 21
186.5768903093189
 31
0.0
  0
ARC
  5
50E
330
1B
100
AcDbEntity
  8
4
 62
     3
100
AcDbCircle
 10
200.7220482100724
 20
-61.21959219068125
 30
0.0
 40
330.0
100
AcDbArc
 50
73.92705600000002
 51
106.0734741062263
  0
LINE
  5
511
330
1B
100
AcDbEntity
  8
4
 62
     3
100
AcDbLine
 10
97.72031565954035
 20
304.7804078093189
 30
0.0
 11
303.7220487100724
 21
304.7804078093189
 31
0.0
  0
LINE
  5
512
330
1B
100
AcDbEntity
  8
4
 62
     3
100
AcDbLine
 10
159.7220487100726
 20
305.7804083093189
 30
0.0
 11
121.7220477100723
 21
305.7804083093189
 31
0.0
  0
LINE
  5
513
330
1B
100
AcDbEntity
  8
4
100
AcDbLine
 10
128.2225382100723
 20
307.2804083093189
 30
0.0
 11
153.2225382100723
 21
307.2804083093189
 31
0.0
  0
LINE
  5
514
330
1B
100
AcDbEntity
  8
4
100
AcDbLine
 10
128.2225382100723
 20
309.2804083093189
 30
0.0
 11
153.2225382100723
 21
309.2804083093189
 31
0.0
  0
LINE
  5
515
330
1B
100
AcDbEntity
  8
4
100
AcDbLine
 10
128.2225382100723
 20
313.2804083093189
 30
0.0
 11
153.2225382100723
 21
313.2804083093189
 31
0.0
  0
LINE
  5
583
330
1B
100
AcDbEntity
  8
4
100
AcDbLine
 10
959.9513568699772
 20
182.2804083093189
 30
0.0
 11
949.9513568699772
 21
182.2804083093189
 31
0.0
  0
LINE
  5
584
330
1B
100
AcDbEntity
  8
4
100
AcDbLine
 10
959.9513568699772
 20
174.2804083093189
 30
0.0
 11
949.9513568699772
 21
174.2804083093189
 31
0.0
  0
LINE
  5
585
330
1B
100
AcDbEntity
  8
4
100
AcDbLine
 10
949.9513568699772
 20
182.2804083093189
 30
0.0
 11
949.9513568699772
 21
174.2804083093189
 31
0.0
  0
LINE
  5
586
330
1B
100
AcDbEntity
  8
4
100
AcDbLine
 10
959.9513568699772
 20
174.2804083093189
 30
0.0
 11
959.9513568699772
 21
182.2804083093189
 31
0.0
  0
ARC
  5
587
330
1B
100
AcDbEntity
  8
4
100
AcDbCircle
 10
954.9513568699772
 20
161.7804083093189
 30
0.0
 40
16.9999725
100
AcDbArc
 50
107.104663698329
 51
72.89533500000049
  0
LINE
  5
588
330
1B
100
AcDbEntity
  8
L-CENTER
 48
2.5
100
AcDbLine
 10
844.9513573699771
 20
74.36954732654112
 30
0.0
 11
844.9513573699771
 21
34.47356180931877
 31
0.0
  0
LINE
  5
589
330
1B
100
AcDbEntity
  8
L-CENTER
 48
2.5
100
AcDbLine
 10
1064.951356369977
 20
74.36954732654112
 30
0.0
 11
1064.951356369977
 21
34.47356180931877
 31
0.0
  0
CIRCLE
  5
590
330
1B
100
AcDbEntity
  8
4
100
AcDbCircle
 10
200.7220482100724
 20
161.7804083093189
 30
0.0
 40
93.0
  0
CIRCLE
  5
592
330
1B
100
AcDbEntity
  8
4
100
AcDbCircle
 10
200.7220482100724
 20
161.7804083093189
 30
0.0
 40
105.0
  0
ENDSEC
  0
SECTION
  2
OBJECTS
  0
DICTIONARY
  5
9
330
0
100
AcDbDictionary
281
     1
  3
ACAD_COLOR
350
30
  3
ACAD_GROUP
350
2E
  3
ACAD_LAYOUT
350
24
  3
ACAD_MATERIAL
350
B
  3
ACAD_MLEADERSTYLE
350
569
  3
ACAD_MLINESTYLE
350
19
  3
ACAD_PLOTSETTINGS
350
2F
  3
ACAD_PLOTSTYLENAME
350
8
  3
ACAD_SCALELIST
350
37
  3
ACAD_TABLESTYLE
350
568
  3
ACAD_VISUALSTYLE
350
31
  3
ACDBHEADERROUNDTRIPXREC
350
5A1
  3
AcDbVariableDictionary
350
566
  3
DWGPROPS
350
5A4
  0
DICTIONARY
  5
5A5
330
2D
100
AcDbDictionary
280
     1
281
     1
  3
ACAD_XREC_ROUNDTRIP
360
5A6
  0
DICTIONARY
  5
3
330
2
100
AcDbDictionary
280
     1
281
     1
  3
ACAD_LAYERSTATES
360
4
  0
DICTIONARY
  5
20
330
1F
100
AcDbDictionary
280
     1
281
     1
  3
ADSK_XREC_LAYER_RECONCILED
360
21
  0
DICTIONARY
  5
D2
330
D1
100
AcDbDictionary
280
     1
281
     1
  3
ADSK_XREC_LAYER_RECONCILED
360
D3
  0
DICTIONARY
  5
5
330
1
100
AcDbDictionary
280
     1
281
     1
  3
ADSK_XREC_LAYER_RECONCILED
360
6
  0
DICTIONARY
  5
CC
330
CB
100
AcDbDictionary
280
     1
281
     1
  3
ADSK_XREC_LAYER_RECONCILED
360
CD
  0
DICTIONARY
  5
97
330
96
100
AcDbDictionary
280
     1
281
     1
  3
ADSK_XREC_LAYER_RECONCILED
360
98
  0
DICTIONARY
  5
5D
330
5C
100
AcDbDictionary
280
     1
281
     1
  3
ADSK_XREC_LAYER_RECONCILED
360
5E
  0
DICTIONARY
  5
1C
330
1B
100
AcDbDictionary
280
     1
281
     1
  3
ACAD_SORTENTS
360
1D
  0
DICTIONARY
  5
30
102
{ACAD_REACTORS
330
9
102
}
330
9
100
AcDbDictionary
281
     1
  0
DICTIONARY
  5
2E
102
{ACAD_REACTORS
330
9
102
}
330
9
100
AcDbDictionary
281
     1
  0
DICTIONARY
  5
24
102
{ACAD_REACTORS
330
9
102
}
330
9
100
AcDbDictionary
281
     1
  3
Model
350
23
  3
ﾚｲｱｳﾄ1
350
2A
  0
DICTIONARY
  5
B
102
{ACAD_REACTORS
330
9
102
}
330
9
100
AcDbDictionary
281
     1
  3
ByBlock
350
5A
  3
ByLayer
350
14
  3
Global
350
A
  0
DICTIONARY
  5
569
102
{ACAD_REACTORS
330
9
102
}
330
9
100
AcDbDictionary
281
     1
  3
Standard
350
59A
  0
DICTIONARY
  5
19
102
{ACAD_REACTORS
330
9
102
}
330
9
100
AcDbDictionary
281
     1
  3
STANDARD
350
18
  0
DICTIONARY
  5
2F
102
{ACAD_REACTORS
330
9
102
}
330
9
100
AcDbDictionary
281
     1
  0
ACDBDICTIONARYWDFLT
  5
8
102
{ACAD_REACTORS
330
9
102
}
330
9
100
AcDbDictionary
281
     1
  3
Normal
350
7
100
AcDbDictionaryWithDefault
340
7
  0
DICTIONARY
  5
37
102
{ACAD_REACTORS
330
9
102
}
330
9
100
AcDbDictionary
281
     1
  3
*A1
350
59
  0
DICTIONARY
  5
568
102
{ACAD_REACTORS
330
9
102
}
330
9
100
AcDbDictionary
281
     1
  3
Standard
350
59D
  0
DICTIONARY
  5
31
102
{ACAD_REACTORS
330
9
102
}
330
9
100
AcDbDictionary
281
     1
  3
2dWireframe
350
571
  3
Basic
350
573
  3
Brighten
350
576
  3
ColorChange
350
57A
  3
Conceptual
350
574
  3
Dim
350
575
  3
EdgeColorOff
350
57D
  3
Facepattern
350
579
  3
Flat
350
56D
  3
FlatWithEdges
350
56E
  3
Gouraud
350
56F
  3
GouraudWithEdges
350
570
  3
Hidden
350
572
  3
JitterOff
350
57B
  3
Linepattern
350
578
  3
OverhangOff
350
57C
  3
Realistic
350
32
  3
Shaded
350
582
  3
Shaded with edges
350
581
  3
Shades of Gray
350
57E
  3
Sketchy
350
57F
  3
Thicken
350
577
  3
Wireframe
350
33
  3
X-Ray
350
580
  0
DICTIONARY
  5
5A1
102
{ACAD_REACTORS
330
9
102
}
330
9
100
AcDbDictionary
281
     1
  3
COLORDICT
350
5A2
  3
MATERIALDICT
350
5A3
  0
DICTIONARY
  5
566
102
{ACAD_REACTORS
330
9
102
}
330
9
100
AcDbDictionary
281
     1
  3
CANNOSCALE
350
567
  3
CMLEADERSTYLE
350
59C
  3
CTABLESTYLE
350
59E
  3
DIMASSOC
350
59F
  3
HIDETEXT
350
5A0
  3
MSLTSCALE
350
5A7
  3
XCLIPFRAME
350
56A
  0
XRECORD
  5
5A4
102
{ACAD_REACTORS
330
9
102
}
330
9
100
AcDbXrecord
280
     1
  1
DWGPROPS COOKIE
  2

  3

  4

  6

  7

  8
sg-d04
  9

300
=
301
=
302
=
303
=
304
=
305
=
306
=
307
=
308
=
309
=
 40
0.0
 41
2457528.500073981
 42
2457870.225664363
  1

 90
        0
  0
XRECORD
  5
5A6
102
{ACAD_REACTORS
330
5A5
102
}
330
5A5
100
AcDbXrecord
280
     1
102
VTR_0.000_0.000_1.000_1.000_VISUALSTYLE
340
571
102
VTR_0.000_0.000_1.000_1.000_GRIDDISPLAY
 70
     3
102
VTR_0.000_0.000_1.000_1.000_GRIDMAJOR
 70
     5
102
VTR_0.000_0.000_1.000_1.000_DEFAULTLIGHTING
280
     1
102
VTR_0.000_0.000_1.000_1.000_DEFAULTLIGHTINGTYPE
 70
     1
102
VTR_0.000_0.000_1.000_1.000_BRIGHTNESS
141
0.0
102
VTR_0.000_0.000_1.000_1.000_CONTRAST
142
0.0
  0
DICTIONARY
  5
4
102
{ACAD_REACTORS
330
3
102
}
330
3
100
AcDbDictionary
281
     1
  0
XRECORD
  5
21
102
{ACAD_REACTORS
330
20
102
}
330
20
100
AcDbXrecord
280
     1
290
     1
  0
XRECORD
  5
D3
102
{ACAD_REACTORS
330
D2
102
}
330
D2
100
AcDbXrecord
280
     1
290
     1
  0
XRECORD
  5
6
102
{ACAD_REACTORS
330
5
102
}
330
5
100
AcDbXrecord
280
     1
290
     1
  0
XRECORD
  5
CD
102
{ACAD_REACTORS
330
CC
102
}
330
CC
100
AcDbXrecord
280
     1
290
     1
  0
XRECORD
  5
98
102
{ACAD_REACTORS
330
97
102
}
330
97
100
AcDbXrecord
280
     1
290
     1
  0
XRECORD
  5
5E
102
{ACAD_REACTORS
330
5D
102
}
330
5D
100
AcDbXrecord
280
     1
290
     1
  0
SORTENTSTABLE
  5
1D
102
{ACAD_REACTORS
330
1C
102
}
330
1C
100
AcDbSortentsTable
330
1B
331
0
  5
597
331
19F
  5
4B3
331
1A0
  5
4B2
331
1A1
  5
4B1
331
1A2
  5
4B0
331
1A3
  5
4AF
331
1A4
  5
4AE
331
1A5
  5
4AD
331
1A6
  5
4AC
331
1A7
  5
4AB
331
1A8
  5
4AA
331
1AA
  5
4A9
331
1AB
  5
4A8
331
1AC
  5
4A7
331
1AD
  5
4A5
331
1AE
  5
4A4
331
1AF
  5
4A3
331
1B0
  5
4A2
331
1B1
  5
4A1
331
1B2
  5
4A0
331
1B3
  5
49F
331
1B4
  5
49E
331
1B5
  5
49D
331
1B6
  5
49C
331
1B7
  5
49B
331
1B8
  5
49A
331
1B9
  5
499
331
1BA
  5
498
331
1BB
  5
497
331
1BC
  5
496
331
1BD
  5
495
331
1BE
  5
494
331
1BF
  5
493
331
1C0
  5
492
331
1C1
  5
491
331
1C2
  5
490
331
1C3
  5
48F
331
1C4
  5
48E
331
1C5
  5
48D
331
1C6
  5
48C
331
1C7
  5
48B
331
1C8
  5
48A
331
1C9
  5
489
331
1CA
  5
488
331
1CB
  5
487
331
1CC
  5
486
331
1CD
  5
485
331
1CE
  5
484
331
1CF
  5
483
331
1D0
  5
482
331
1D1
  5
481
331
1D2
  5
480
331
1D3
  5
47F
331
1D4
  5
47E
331
1D5
  5
47D
331
1D6
  5
47C
331
1D7
  5
47B
331
1D8
  5
47A
331
1D9
  5
479
331
1DA
  5
478
331
1DB
  5
477
331
1DC
  5
476
331
1DD
  5
475
331
1DE
  5
474
331
1E0
  5
473
331
1E1
  5
472
331
1E2
  5
471
331
1E3
  5
46F
331
1E4
  5
46E
331
1E5
  5
46D
331
1E6
  5
46C
331
1E7
  5
46B
331
1E8
  5
46A
331
1E9
  5
469
331
1EA
  5
468
331
1EB
  5
467
331
1EC
  5
466
331
1ED
  5
465
331
1EE
  5
464
331
1EF
  5
463
331
1F0
  5
462
331
1F1
  5
461
331
1F2
  5
460
331
1F3
  5
45F
331
1F4
  5
45E
331
1F5
  5
45D
331
1F6
  5
45C
331
1F7
  5
45B
331
1F8
  5
45A
331
1F9
  5
459
331
1FA
  5
458
331
1FB
  5
457
331
1FC
  5
456
331
1FD
  5
455
331
1FE
  5
454
331
1FF
  5
453
331
200
  5
452
331
201
  5
451
331
202
  5
450
331
203
  5
44F
331
204
  5
44E
331
205
  5
44D
331
206
  5
44C
331
207
  5
44B
331
208
  5
44A
331
209
  5
449
331
20A
  5
448
331
20B
  5
447
331
20C
  5
446
331
20D
  5
445
331
20E
  5
444
331
20F
  5
443
331
210
  5
442
331
211
  5
441
331
212
  5
440
331
213
  5
43F
331
214
  5
43E
331
215
  5
43D
331
216
  5
43C
331
217
  5
43B
331
218
  5
43A
331
219
  5
439
331
21A
  5
438
331
21B
  5
437
331
21C
  5
436
331
21D
  5
435
331
21E
  5
434
331
21F
  5
433
331
220
  5
432
331
221
  5
431
331
222
  5
430
331
223
  5
42F
331
224
  5
42E
331
225
  5
42D
331
226
  5
42C
331
227
  5
42B
331
228
  5
42A
331
229
  5
429
331
22A
  5
428
331
22B
  5
427
331
22C
  5
426
331
22D
  5
425
331
22E
  5
424
331
22F
  5
423
331
230
  5
422
331
231
  5
421
331
232
  5
420
331
233
  5
41F
331
234
  5
41E
331
235
  5
41D
331
236
  5
41C
331
237
  5
41B
331
238
  5
41A
331
239
  5
419
331
23A
  5
418
331
23B
  5
417
331
23C
  5
416
331
23D
  5
415
331
23E
  5
414
331
23F
  5
413
331
240
  5
412
331
241
  5
411
331
242
  5
410
331
243
  5
40F
331
244
  5
40E
331
245
  5
40D
331
246
  5
40C
331
247
  5
40B
331
248
  5
40A
331
249
  5
409
331
24A
  5
408
331
24B
  5
407
331
24C
  5
406
331
24D
  5
405
331
24E
  5
404
331
24F
  5
403
331
250
  5
402
331
251
  5
401
331
252
  5
400
331
253
  5
3FF
331
254
  5
3FE
331
255
  5
3FD
331
256
  5
3FC
331
257
  5
3FB
331
258
  5
3FA
331
259
  5
3F9
331
25A
  5
3F8
331
25B
  5
3F7
331
25C
  5
3F6
331
25D
  5
3F5
331
25E
  5
3F4
331
25F
  5
3F3
331
260
  5
3F2
331
261
  5
3F1
331
262
  5
3F0
331
263
  5
3EF
331
264
  5
3EE
331
265
  5
3ED
331
266
  5
3EC
331
267
  5
3EB
331
268
  5
3EA
331
269
  5
3E9
331
26A
  5
3E8
331
26B
  5
3E7
331
26C
  5
3E6
331
26D
  5
3E5
331
26E
  5
3E4
331
26F
  5
3E3
331
270
  5
3E2
331
271
  5
3E1
331
272
  5
3E0
331
273
  5
3DF
331
274
  5
3DE
331
275
  5
3DD
331
276
  5
3DC
331
277
  5
3DB
331
278
  5
3DA
331
279
  5
3D9
331
27A
  5
3D8
331
27B
  5
3D7
331
27C
  5
3D6
331
27D
  5
3D5
331
27F
  5
3D4
331
280
  5
3D3
331
281
  5
3D2
331
282
  5
3D0
331
283
  5
3CF
331
284
  5
3CE
331
285
  5
3CD
331
286
  5
3CC
331
287
  5
3CB
331
288
  5
3CA
331
289
  5
3C9
331
28A
  5
3C8
331
28B
  5
3C7
331
28C
  5
3C6
331
28D
  5
3C5
331
28E
  5
3C4
331
28F
  5
3C3
331
290
  5
3C2
331
291
  5
3C1
331
292
  5
3C0
331
293
  5
3BF
331
294
  5
3BE
331
295
  5
3BD
331
296
  5
3BC
331
297
  5
3BB
331
298
  5
3BA
331
299
  5
3B9
331
29A
  5
3B8
331
29B
  5
3B7
331
29C
  5
3B6
331
29D
  5
3B5
331
29E
  5
3B4
331
29F
  5
3B3
331
2A0
  5
3B2
331
2A1
  5
3B1
331
2A2
  5
3B0
331
2A3
  5
3AF
331
2A4
  5
3AE
331
2A5
  5
3AD
331
2A6
  5
3AC
331
2A7
  5
3AB
331
2A8
  5
3AA
331
2A9
  5
3A9
331
2AA
  5
3A8
331
2AC
  5
3A7
331
2AD
  5
3A6
331
2AE
  5
3A5
331
2AF
  5
3A3
331
2B0
  5
3A2
331
2B1
  5
3A1
331
2B2
  5
3A0
331
2B3
  5
39F
331
2B4
  5
39E
331
2B5
  5
39D
331
2B6
  5
39C
331
2B7
  5
39B
331
2B8
  5
39A
331
2B9
  5
399
331
2BA
  5
398
331
2BB
  5
397
331
2BC
  5
396
331
2BD
  5
395
331
2BE
  5
394
331
2BF
  5
393
331
2C0
  5
392
331
2C1
  5
391
331
2C2
  5
390
331
2C3
  5
38F
331
2C4
  5
38E
331
2C5
  5
38D
331
2C6
  5
38C
331
2C7
  5
38B
331
2C8
  5
38A
331
2C9
  5
389
331
2CA
  5
388
331
2CB
  5
387
331
2CC
  5
386
331
2CD
  5
385
331
2CE
  5
384
331
2CF
  5
383
331
2D0
  5
382
331
2D1
  5
381
331
2D2
  5
380
331
2D3
  5
37F
331
2D4
  5
37E
331
2D5
  5
37D
331
2D6
  5
37C
331
2D7
  5
37B
331
2D8
  5
37A
331
2D9
  5
379
331
2DA
  5
378
331
2DB
  5
377
331
2DC
  5
376
331
2DD
  5
375
331
2DE
  5
374
331
2DF
  5
373
331
2E0
  5
372
331
2E1
  5
371
331
2E2
  5
370
331
2E3
  5
36F
331
2E4
  5
36E
331
2E5
  5
36D
331
2E6
  5
36C
331
2E7
  5
36B
331
2E8
  5
36A
331
2E9
  5
369
331
2EA
  5
368
331
2EB
  5
367
331
2EC
  5
366
331
2ED
  5
365
331
2EE
  5
364
331
2EF
  5
363
331
2F0
  5
362
331
2F1
  5
361
331
2F2
  5
360
331
2F3
  5
35F
331
2F4
  5
35E
331
2F5
  5
35D
331
2F6
  5
35C
331
2F7
  5
35B
331
2F8
  5
35A
331
2F9
  5
359
331
2FA
  5
358
331
2FB
  5
357
331
2FC
  5
356
331
2FD
  5
355
331
2FE
  5
354
331
2FF
  5
353
331
300
  5
352
331
301
  5
351
331
302
  5
350
331
303
  5
34F
331
304
  5
34E
331
305
  5
34D
331
306
  5
34C
331
307
  5
34B
331
308
  5
34A
331
309
  5
349
331
30A
  5
348
331
30B
  5
347
331
30C
  5
346
331
30D
  5
345
331
30E
  5
344
331
30F
  5
343
331
310
  5
342
331
311
  5
341
331
312
  5
340
331
313
  5
33F
331
314
  5
33E
331
315
  5
33D
331
316
  5
33C
331
317
  5
33B
331
318
  5
33A
331
319
  5
339
331
31A
  5
338
331
31B
  5
337
331
31C
  5
336
331
31D
  5
335
331
31E
  5
334
331
31F
  5
333
331
320
  5
332
331
321
  5
331
331
322
  5
330
331
323
  5
32F
331
324
  5
32E
331
325
  5
32D
331
326
  5
32C
331
327
  5
32B
331
328
  5
32A
331
32A
  5
328
331
32B
  5
327
331
32C
  5
326
331
32D
  5
325
331
32E
  5
324
331
32F
  5
323
331
330
  5
322
331
331
  5
321
331
332
  5
320
331
333
  5
31F
331
334
  5
31E
331
335
  5
31D
331
336
  5
31C
331
337
  5
31B
331
338
  5
31A
331
339
  5
319
331
33A
  5
318
331
33B
  5
317
331
33C
  5
316
331
33D
  5
315
331
33E
  5
314
331
33F
  5
313
331
340
  5
312
331
341
  5
311
331
342
  5
310
331
343
  5
30F
331
344
  5
30E
331
345
  5
30D
331
346
  5
30C
331
347
  5
30B
331
348
  5
30A
331
349
  5
309
331
34A
  5
308
331
34B
  5
307
331
34C
  5
306
331
34D
  5
305
331
34E
  5
304
331
34F
  5
303
331
350
  5
302
331
351
  5
301
331
352
  5
300
331
353
  5
2FF
331
354
  5
2FE
331
355
  5
2FD
331
356
  5
2FC
331
357
  5
2FB
331
358
  5
2FA
331
359
  5
2F9
331
35A
  5
2F8
331
35B
  5
2F7
331
35C
  5
2F6
331
35D
  5
2F5
331
35E
  5
2F4
331
35F
  5
2F3
331
360
  5
2F2
331
361
  5
2F1
331
362
  5
2F0
331
363
  5
2EF
331
364
  5
2EE
331
365
  5
2ED
331
366
  5
2EC
331
367
  5
2EB
331
368
  5
2EA
331
369
  5
2E9
331
36A
  5
2E8
331
36B
  5
2E7
331
36C
  5
2E6
331
36D
  5
2E5
331
36E
  5
2E4
331
36F
  5
2E3
331
370
  5
2E2
331
371
  5
2E1
331
372
  5
2E0
331
373
  5
2DF
331
374
  5
2DE
331
375
  5
2DD
331
376
  5
2DC
331
37B
  5
2D7
331
391
  5
2C1
331
392
  5
2C0
331
393
  5
2BF
331
394
  5
2BE
331
395
  5
2BD
331
396
  5
2BC
331
397
  5
2BB
331
398
  5
2BA
331
399
  5
2B9
331
39A
  5
2B8
331
39B
  5
2B7
331
39C
  5
2B6
331
39D
  5
2B5
331
39E
  5
2B4
331
39F
  5
2B3
331
3A0
  5
2B2
331
3A1
  5
2B1
331
3A6
  5
2AC
331
3A7
  5
2AB
331
3A8
  5
2AA
331
3A9
  5
2A9
331
3AA
  5
2A8
331
3AB
  5
2A7
331
3AC
  5
2A6
331
3AD
  5
2A5
331
3AE
  5
2A4
331
3AF
  5
2A3
331
3B0
  5
2A2
331
3B1
  5
2A1
331
3B2
  5
2A0
331
3B3
  5
29F
331
3B4
  5
29E
331
3B5
  5
29D
331
3B6
  5
29C
331
3B7
  5
29B
331
3B8
  5
29A
331
3B9
  5
299
331
3BA
  5
298
331
3BB
  5
297
331
3BC
  5
296
331
3BD
  5
295
331
3BE
  5
294
331
3BF
  5
293
331
3C8
  5
28A
331
3CA
  5
288
331
3CB
  5
287
331
3CC
  5
286
331
3CD
  5
285
331
3D1
  5
281
331
3D2
  5
280
331
3D3
  5
27F
331
3D4
  5
27E
331
3D5
  5
27D
331
3D6
  5
27C
331
3D7
  5
27B
331
3D8
  5
27A
331
3DC
  5
276
331
3DD
  5
275
331
3DE
  5
274
331
3DF
  5
273
331
3E0
  5
272
331
3E1
  5
271
331
3E2
  5
270
331
3E3
  5
26F
331
3E4
  5
26E
331
3E5
  5
26D
331
3E6
  5
26C
331
3E7
  5
26B
331
3E8
  5
26A
331
3E9
  5
269
331
3EA
  5
268
331
3ED
  5
265
331
3F3
  5
25F
331
3F4
  5
25E
331
3F5
  5
25D
331
3F7
  5
25B
331
3F8
  5
25A
331
3F9
  5
259
331
3FD
  5
255
331
3FF
  5
253
331
400
  5
252
331
401
  5
251
331
402
  5
250
331
403
  5
24F
331
404
  5
24E
331
407
  5
24B
331
408
  5
24A
331
40B
  5
247
331
40C
  5
246
331
40D
  5
245
331
40E
  5
244
331
40F
  5
243
331
410
  5
242
331
411
  5
241
331
412
  5
240
331
413
  5
23F
331
414
  5
23E
331
415
  5
23D
331
416
  5
23C
331
417
  5
23B
331
418
  5
23A
331
419
  5
239
331
41A
  5
238
331
41B
  5
237
331
41C
  5
236
331
41D
  5
235
331
41E
  5
234
331
41F
  5
233
331
420
  5
232
331
421
  5
231
331
422
  5
230
331
423
  5
22F
331
424
  5
22E
331
425
  5
22D
331
426
  5
22C
331
427
  5
22B
331
428
  5
22A
331
42B
  5
227
331
42C
  5
226
331
42D
  5
225
331
42E
  5
224
331
42F
  5
223
331
430
  5
222
331
431
  5
221
331
432
  5
220
331
433
  5
21F
331
434
  5
21E
331
435
  5
21D
331
436
  5
21C
331
43C
  5
216
331
43D
  5
215
331
43E
  5
214
331
43F
  5
213
331
440
  5
212
331
441
  5
211
331
442
  5
210
331
443
  5
20F
331
444
  5
20E
331
445
  5
20D
331
446
  5
20C
331
447
  5
20B
331
448
  5
20A
331
449
  5
209
331
44A
  5
208
331
44B
  5
207
331
44C
  5
206
331
44D
  5
205
331
44E
  5
204
331
44F
  5
203
331
450
  5
202
331
451
  5
201
331
452
  5
200
331
453
  5
1FF
331
454
  5
1FE
331
455
  5
1FD
331
456
  5
1FC
331
457
  5
1FB
331
458
  5
1FA
331
459
  5
1F9
331
45A
  5
1F8
331
45B
  5
1F7
331
45C
  5
1F6
331
45D
  5
1F5
331
45E
  5
1F4
331
45F
  5
1F3
331
460
  5
1F2
331
461
  5
1F1
331
462
  5
1F0
331
46C
  5
1E6
331
46D
  5
1E5
331
471
  5
1E1
331
473
  5
1DF
331
474
  5
1DE
331
476
  5
1DC
331
478
  5
1DA
331
479
  5
1D9
331
47A
  5
1D8
331
47B
  5
1D7
331
47C
  5
1D6
331
47D
  5
1D5
331
47E
  5
1D4
331
47F
  5
1D1
331
484
  5
1CC
331
488
  5
1C7
331
489
  5
1C6
331
48A
  5
1C5
331
48B
  5
1C4
331
48C
  5
1C3
331
48D
  5
1C2
331
48E
  5
1C1
331
490
  5
1BF
331
492
  5
1BD
331
493
  5
1BC
331
495
  5
1BA
331
497
  5
1B8
331
498
  5
1B7
331
499
  5
1B6
331
49A
  5
1B5
331
49B
  5
1B4
331
49C
  5
1B3
331
49D
  5
1B2
331
49E
  5
1B1
331
49F
  5
1B0
331
4A0
  5
1AF
331
4A1
  5
1AE
331
4A2
  5
1AD
331
4A3
  5
1AC
331
4A4
  5
1AB
331
4A5
  5
1AA
331
4A6
  5
1A9
331
4A7
  5
1A8
331
4A8
  5
1A7
331
4AB
  5
1A4
331
4AC
  5
1A3
331
4AD
  5
1A2
331
4AE
  5
1A1
331
4AF
  5
1A0
331
4B0
  5
19F
331
4B1
  5
19E
331
4B2
  5
19D
331
4B3
  5
19C
331
4B4
  5
19B
331
4B7
  5
198
331
4B8
  5
197
331
4BA
  5
195
331
4BB
  5
194
331
4BC
  5
193
331
4BD
  5
192
331
4BE
  5
191
331
4BF
  5
190
331
4C0
  5
18F
331
4C4
  5
18B
331
4C5
  5
18A
331
4C6
  5
189
331
4C7
  5
188
331
4C8
  5
187
331
4C9
  5
186
331
4CA
  5
185
331
4CB
  5
184
331
4CC
  5
183
331
4CD
  5
182
331
4CE
  5
181
331
4CF
  5
180
331
4D0
  5
17F
331
4D1
  5
17E
331
4D3
  5
17C
331
4D4
  5
17B
331
4D5
  5
17A
331
4D6
  5
179
331
4D7
  5
178
331
4D8
  5
177
331
4D9
  5
176
331
4DA
  5
175
331
4DB
  5
174
331
4DC
  5
173
331
4DD
  5
172
331
4DE
  5
171
331
4DF
  5
170
331
4E0
  5
16F
331
4E1
  5
16E
331
4E2
  5
16D
331
4E3
  5
16C
331
4E4
  5
16B
331
4E5
  5
16A
331
4E6
  5
169
331
4E7
  5
168
331
4E8
  5
167
331
4E9
  5
166
331
4EA
  5
165
331
4EB
  5
164
331
4EC
  5
163
331
4ED
  5
162
331
4EE
  5
161
331
4EF
  5
160
331
4F0
  5
15F
331
4F1
  5
15E
331
4F2
  5
15D
331
4F3
  5
15C
331
4F4
  5
15B
331
4F5
  5
15A
331
4F6
  5
159
331
4F7
  5
158
331
4FA
  5
155
331
4FB
  5
154
331
4FC
  5
153
331
4FD
  5
152
331
4FE
  5
151
331
4FF
  5
150
331
500
  5
14F
331
501
  5
14E
331
502
  5
14D
331
506
  5
149
331
507
  5
148
331
508
  5
147
331
50B
  5
50E
331
50C
  5
50F
331
50D
  5
510
331
50E
  5
511
331
511
  5
514
331
512
  5
515
331
513
  5
516
331
514
  5
517
331
515
  5
518
331
583
  5
586
331
584
  5
587
331
585
  5
588
331
586
  5
589
331
587
  5
58A
331
588
  5
58B
331
589
  5
58C
331
590
  5
595
331
592
  5
596
  0
LAYOUT
  5
23
102
{ACAD_REACTORS
330
24
102
}
102
{ACAD_XDICTIONARY
360
25
102
}
330
24
100
AcDbPlotSettings
  1

  2
Bullzip PDF Printer.pc3
  4
A3
  6

 40
0.2
 41
0.0
 42
0.0
 43
0.0
 44
420.2
 45
297.1
 46
25.0
 47
12.0
 48
57.49999988333343
 49
33.42165154864122
140
1012.499997695834
141
714.6716499590577
142
1.0
143
2.5
 70
 11936
 72
     1
 73
     0
 74
     4
  7
monochrome.ctb
 75
     0
147
0.4
148
-57.49999988333343
149
-33.42165154864122
100
AcDbLayout
  1
Model
 70
     0
 71
     0
 10
0.0
 20
0.0
 11
12.0
 21
9.0
 12
0.0
 22
0.0
 32
0.0
 14
67.00917252277708
 24
34.47356180931877
 34
0.0
 15
1084.951357369977
 25
723.1451540957099
 35
0.0
146
0.0
 13
0.0
 23
0.0
 33
0.0
 16
1.0
 26
0.0
 36
0.0
 17
0.0
 27
1.0
 37
0.0
 76
     0
330
1B
331
34
1001
ACAD_PSEXT
1000
Bullzip PDF Printer.pc3
1000
Bullzip PDF Printer
1000
BULLZIP
1000
Bullzip PDF Printer 10.1.0.1871
1070
     0
  0
LAYOUT
  5
2A
102
{ACAD_REACTORS
330
24
102
}
330
24
100
AcDbPlotSettings
  1

  2
SR-LP8300F
  4

  6

 40
0.0
 41
0.0
 42
0.0
 43
0.0
 44
0.0
 45
0.0
 46
0.0
 47
0.0
 48
0.0
 49
0.0
140
0.0
141
0.0
142
1.0
143
1.0
 70
   688
 72
     0
 73
     0
 74
     5
  7
monochrome.ctb
 75
    16
147
1.0
148
0.0
149
0.0
100
AcDbLayout
  1
ﾚｲｱｳﾄ1
 70
     0
 71
     1
 10
0.0
 20
0.0
 11
12.0
 21
9.0
 12
0.0
 22
0.0
 32
0.0
 14
1.000000000000000E+20
 24
1.000000000000000E+20
 34
1.000000000000000E+20
 15
-1.000000000000000E+20
 25
-1.000000000000000E+20
 35
-1.000000000000000E+20
146
0.0
 13
0.0
 23
0.0
 33
0.0
 16
1.0
 26
0.0
 36
0.0
 17
0.0
 27
1.0
 37
0.0
 76
     0
330
27
  0
MATERIAL
  5
5A
102
{ACAD_REACTORS
330
B
102
}
102
{ACAD_XDICTIONARY
360
5AC
102
}
330
B
100
AcDbMaterial
  1
ByBlock
 72
     0
 73
     2
 43
0.0208333333333333
 43
0.0
 43
0.0
 43
0.0
 43
0.0
 43
0.0208333333333333
 43
0.0
 43
0.0
 43
0.0
 43
0.0
 43
1.0
 43
0.0
 43
0.0
 43
0.0
 43
0.0
 43
1.0
 77
     0
 78
     2
 47
0.0208333333333333
 47
0.0
 47
0.0
 47
0.0
 47
0.0
 47
0.0208333333333333
 47
0.0
 47
0.0
 47
0.0
 47
0.0
 47
1.0
 47
0.0
 47
0.0
 47
0.0
 47
0.0
 47
1.0
171
     0
172
     2
 49
0.0208333333333333
 49
0.0
 49
0.0
 49
0.0
 49
0.0
 49
0.0208333333333333
 49
0.0
 49
0.0
 49
0.0
 49
0.0
 49
1.0
 49
0.0
 49
0.0
 49
0.0
 49
0.0
 49
1.0
175
     0
176
     2
142
0.0208333333333333
142
0.0
142
0.0
142
0.0
142
0.0
142
0.0208333333333333
142
0.0
142
0.0
142
0.0
142
0.0
142
1.0
142
0.0
142
0.0
142
0.0
142
0.0
142
1.0
179
     0
270
     2
144
0.0208333333333333
144
0.0
144
0.0
144
0.0
144
0.0
144
0.0208333333333333
144
0.0
144
0.0
144
0.0
144
0.0
144
1.0
144
0.0
144
0.0
144
0.0
144
0.0
144
1.0
274
     2
147
0.0208333333333333
147
0.0
147
0.0
147
0.0
147
0.0
147
0.0208333333333333
147
0.0
147
0.0
147
0.0
147
0.0
147
1.0
147
0.0
147
0.0
147
0.0
147
0.0
147
1.0
  0
MATERIAL
  5
14
102
{ACAD_REACTORS
330
B
102
}
102
{ACAD_XDICTIONARY
360
5A8
102
}
330
B
100
AcDbMaterial
  1
ByLayer
 72
     0
 73
     2
 43
0.0208333333333333
 43
0.0
 43
0.0
 43
0.0
 43
0.0
 43
0.0208333333333333
 43
0.0
 43
0.0
 43
0.0
 43
0.0
 43
1.0
 43
0.0
 43
0.0
 43
0.0
 43
0.0
 43
1.0
 77
     0
 78
     2
 47
0.0208333333333333
 47
0.0
 47
0.0
 47
0.0
 47
0.0
 47
0.0208333333333333
 47
0.0
 47
0.0
 47
0.0
 47
0.0
 47
1.0
 47
0.0
 47
0.0
 47
0.0
 47
0.0
 47
1.0
171
     0
172
     2
 49
0.0208333333333333
 49
0.0
 49
0.0
 49
0.0
 49
0.0
 49
0.0208333333333333
 49
0.0
 49
0.0
 49
0.0
 49
0.0
 49
1.0
 49
0.0
 49
0.0
 49
0.0
 49
0.0
 49
1.0
175
     0
176
     2
142
0.0208333333333333
142
0.0
142
0.0
142
0.0
142
0.0
142
0.0208333333333333
142
0.0
142
0.0
142
0.0
142
0.0
142
1.0
142
0.0
142
0.0
142
0.0
142
0.0
142
1.0
179
     0
270
     2
144
0.0208333333333333
144
0.0
144
0.0
144
0.0
144
0.0
144
0.0208333333333333
144
0.0
144
0.0
144
0.0
144
0.0
144
1.0
144
0.0
144
0.0
144
0.0
144
0.0
144
1.0
274
     2
147
0.0208333333333333
147
0.0
147
0.0
147
0.0
147
0.0
147
0.0208333333333333
147
0.0
147
0.0
147
0.0
147
0.0
147
1.0
147
0.0
147
0.0
147
0.0
147
0.0
147
1.0
  0
MATERIAL
  5
A
102
{ACAD_REACTORS
330
B
102
}
102
{ACAD_XDICTIONARY
360
5AA
102
}
330
B
100
AcDbMaterial
  1
Global
 72
     0
 73
     2
 43
0.0208333333333333
 43
0.0
 43
0.0
 43
0.0
 43
0.0
 43
0.0208333333333333
 43
0.0
 43
0.0
 43
0.0
 43
0.0
 43
1.0
 43
0.0
 43
0.0
 43
0.0
 43
0.0
 43
1.0
 77
     0
 78
     2
 47
0.0208333333333333
 47
0.0
 47
0.0
 47
0.0
 47
0.0
 47
0.0208333333333333
 47
0.0
 47
0.0
 47
0.0
 47
0.0
 47
1.0
 47
0.0
 47
0.0
 47
0.0
 47
0.0
 47
1.0
171
     0
172
     2
 49
0.0208333333333333
 49
0.0
 49
0.0
 49
0.0
 49
0.0
 49
0.0208333333333333
 49
0.0
 49
0.0
 49
0.0
 49
0.0
 49
1.0
 49
0.0
 49
0.0
 49
0.0
 49
0.0
 49
1.0
175
     0
176
     2
142
0.0208333333333333
142
0.0
142
0.0
142
0.0
142
0.0
142
0.0208333333333333
142
0.0
142
0.0
142
0.0
142
0.0
142
1.0
142
0.0
142
0.0
142
0.0
142
0.0
142
1.0
179
     0
270
     2
144
0.0208333333333333
144
0.0
144
0.0
144
0.0
144
0.0
144
0.0208333333333333
144
0.0
144
0.0
144
0.0
144
0.0
144
1.0
144
0.0
144
0.0
144
0.0
144
0.0
144
1.0
274
     2
147
0.0208333333333333
147
0.0
147
0.0
147
0.0
147
0.0
147
0.0208333333333333
147
0.0
147
0.0
147
0.0
147
0.0
147
1.0
147
0.0
147
0.0
147
0.0
147
0.0
147
1.0
1001
ACAD
1070
    -1
1070
     3
1070
     0
1000

1071
        0
  0
MLEADERSTYLE
  5
59A
102
{ACAD_REACTORS
330
569
102
}
102
{ACAD_XDICTIONARY
360
5DE
102
}
330
569
100
AcDbMLeaderStyle
170
     2
171
     1
172
     0
 90
        2
 40
0.0
 41
0.0
173
     1
 91
-1056964608
340
11
 92
       -2
290
     1
 42
0.09
291
     1
 43
0.36
  3
Standard
341
0
 44
0.18
300

342
12
174
     1
178
     6
175
     1
176
     0
 93
-1056964608
 45
0.18
292
     0
297
     0
 46
0.18
343
0
 94
-1056964608
 47
1.0
 49
1.0
140
1.0
293
     1
141
0.0
294
     1
177
     0
142
1.0
295
     0
296
     0
143
0.125
1001
ACAD_MLEADERVER
1070
     2
  0
MLINESTYLE
  5
18
102
{ACAD_REACTORS
330
19
102
}
330
19
100
AcDbMlineStyle
  2
STANDARD
 70
     0
  3

 62
     0
 51
90.0
 52
90.0
 71
     2
 49
0.5
 62
   256
  6
BYLAYER
 49
-0.5
 62
   256
  6
BYLAYER
  0
ACDBPLACEHOLDER
  5
7
102
{ACAD_REACTORS
330
8
102
}
330
8
  0
SCALE
  5
59
102
{ACAD_REACTORS
330
37
102
}
330
37
100
AcDbScale
 70
     0
300
1:1
140
1.0
141
1.0
290
     1
  0
TABLESTYLE
  5
59D
102
{ACAD_REACTORS
330
568
102
}
330
568
100
AcDbTableStyle
  3
Standard
 70
     0
 71
     0
 40
0.06
 41
0.06
280
     0
281
     0
  7
STANDARD
140
0.18
170
     2
 62
     0
 63
   257
283
     0
274
    -2
284
     1
 64
     0
275
    -2
285
     1
 65
     0
276
    -2
286
     1
 66
     0
277
    -2
287
     1
 67
     0
278
    -2
288
     1
 68
     0
279
    -2
289
     1
 69
     0
  7
STANDARD
140
0.25
170
     5
 62
     0
 63
   257
283
     0
274
    -2
284
     1
 64
     0
275
    -2
285
     1
 65
     0
276
    -2
286
     1
 66
     0
277
    -2
287
     1
 67
     0
278
    -2
288
     1
 68
     0
279
    -2
289
     1
 69
     0
  7
STANDARD
140
0.18
170
     5
 62
     0
 63
   257
283
     0
274
    -2
284
     1
 64
     0
275
    -2
285
     1
 65
     0
276
    -2
286
     1
 66
     0
277
    -2
287
     1
 67
     0
278
    -2
288
     1
 68
     0
279
    -2
289
     1
 69
     0
  0
VISUALSTYLE
  5
571
102
{ACAD_REACTORS
330
31
102
}
102
{ACAD_XDICTIONARY
360
5BA
102
}
330
31
100
AcDbVisualStyle
  2
2dWireframe
 70
     4
 71
     0
 72
     2
 73
     0
 90
        0
 40
0.6
 41
30.0
 62
     5
 63
     7
 74
     1
 91
        4
 64
     7
 65
   257
 75
     1
175
     1
 42
1.0
 92
        0
 66
   257
 43
1.0
 76
     1
 77
     6
 78
     2
 67
     7
 79
     5
170
     0
171
     0
290
     0
174
     0
 93
        1
 44
0.0
173
     0
291
     0
 45
0.0
1001
ACAD
1000
AcDbSavedByObjectVersion
1070
     0
  0
VISUALSTYLE
  5
573
102
{ACAD_REACTORS
330
31
102
}
102
{ACAD_XDICTIONARY
360
5BE
102
}
330
31
100
AcDbVisualStyle
  2
Basic
 70
     7
 71
     1
 72
     0
 73
     1
 90
        0
 40
0.6
 41
30.0
 62
     5
 63
     7
 74
     0
 91
        4
 64
     7
 65
   257
 75
     1
175
     1
 42
1.0
 92
        8
 66
     7
 43
1.0
 76
     1
 77
     6
 78
     2
 67
     7
 79
     5
170
     0
171
     0
290
     0
174
     0
 93
        1
 44
0.0
173
     0
291
     1
 45
0.0
1001
ACAD
1000
AcDbSavedByObjectVersion
1070
     0
  0
VISUALSTYLE
  5
576
102
{ACAD_REACTORS
330
31
102
}
102
{ACAD_XDICTIONARY
360
5C4
102
}
330
31
100
AcDbVisualStyle
  2
Brighten
 70
    12
 71
     2
 72
     2
 73
     0
 90
        0
 40
0.6
 41
30.0
 62
     5
 63
     7
 74
     1
 91
        4
 64
     7
 65
   257
 75
     1
175
     1
 42
1.0
 92
        8
 66
     7
 43
1.0
 76
     1
 77
     6
 78
     2
 67
     7
 79
     5
170
     0
171
     0
290
     0
174
     0
 93
        1
 44
50.0
173
     0
291
     1
 45
0.0
1001
ACAD
1000
AcDbSavedByObjectVersion
1070
     0
  0
VISUALSTYLE
  5
57A
102
{ACAD_REACTORS
330
31
102
}
102
{ACAD_XDICTIONARY
360
5CC
102
}
330
31
100
AcDbVisualStyle
  2
ColorChange
 70
    16
 71
     2
 72
     2
 73
     3
 90
        0
 40
0.6
 41
30.0
 62
     5
 63
     8
 74
     1
 91
        4
 64
     7
 65
   257
 75
     1
175
     1
 42
1.0
 92
        8
 66
     8
 43
1.0
 76
     1
 77
     6
 78
     2
 67
     7
 79
     5
170
     0
171
     0
290
     0
174
     0
 93
        1
 44
0.0
173
     0
291
     1
 45
0.0
1001
ACAD
1000
AcDbSavedByObjectVersion
1070
     0
  0
VISUALSTYLE
  5
574
102
{ACAD_REACTORS
330
31
102
}
102
{ACAD_XDICTIONARY
360
5C0
102
}
330
31
100
AcDbVisualStyle
  2
Conceptual
 70
     9
 71
     3
 72
     2
 73
     0
 90
        0
 40
0.6
 41
30.0
 62
     5
 63
     7
 74
     2
 91
        2
 64
     7
 65
   257
 75
     1
175
     1
 42
40.0
 92
        8
 66
     7
 43
1.0
 76
     1
 77
     6
 78
     2
 67
     7
 79
     3
170
     0
171
     0
290
     0
174
     0
 93
        1
 44
0.0
173
     0
291
     0
 45
0.0
1001
ACAD
1000
AcDbSavedByObjectVersion
1070
     0
  0
VISUALSTYLE
  5
575
102
{ACAD_REACTORS
330
31
102
}
102
{ACAD_XDICTIONARY
360
5C2
102
}
330
31
100
AcDbVisualStyle
  2
Dim
 70
    11
 71
     2
 72
     2
 73
     0
 90
        0
 40
0.6
 41
30.0
 62
     5
 63
     7
 74
     1
 91
        4
 64
     7
 65
   257
 75
     1
175
     1
 42
1.0
 92
        8
 66
     7
 43
1.0
 76
     1
 77
     6
 78
     2
 67
     7
 79
     5
170
     0
171
     0
290
     0
174
     0
 93
        1
 44
-50.0
173
     0
291
     1
 45
0.0
1001
ACAD
1000
AcDbSavedByObjectVersion
1070
     0
  0
VISUALSTYLE
  5
57D
102
{ACAD_REACTORS
330
31
102
}
102
{ACAD_XDICTIONARY
360
5D2
102
}
330
31
100
AcDbVisualStyle
  2
EdgeColorOff
 70
    22
 71
     2
 72
     2
 73
     0
 90
        0
 40
0.6
 41
30.0
 62
     5
 63
     7
 74
     1
 91
        4
 64
     7
 65
   257
 75
     1
175
     1
 42
1.0
 92
        8
 66
     7
 43
1.0
 76
     1
 77
     6
 78
     2
 67
     7
 79
     5
170
     0
171
     0
290
     0
174
     0
 93
        1
 44
0.0
173
     0
291
     1
 45
0.0
1001
ACAD
1000
AcDbSavedByObjectVersion
1070
     0
  0
VISUALSTYLE
  5
579
102
{ACAD_REACTORS
330
31
102
}
102
{ACAD_XDICTIONARY
360
5CA
102
}
330
31
100
AcDbVisualStyle
  2
Facepattern
 70
    15
 71
     2
 72
     2
 73
     0
 90
        0
 40
0.6
 41
30.0
 62
     5
 63
     7
 74
     1
 91
        4
 64
     7
 65
   257
 75
     1
175
     1
 42
1.0
 92
        8
 66
     7
 43
1.0
 76
     1
 77
     6
 78
     2
 67
     7
 79
     5
170
     0
171
     0
290
     0
174
     0
 93
        1
 44
0.0
173
     0
291
     1
 45
0.0
1001
ACAD
1000
AcDbSavedByObjectVersion
1070
     0
  0
VISUALSTYLE
  5
56D
102
{ACAD_REACTORS
330
31
102
}
102
{ACAD_XDICTIONARY
360
5B2
102
}
330
31
100
AcDbVisualStyle
  2
Flat
 70
     0
 71
     2
 72
     1
 73
     1
 90
        2
 40
0.6
 41
30.0
 62
     5
 63
     7
 74
     0
 91
        4
 64
     7
 65
   257
 75
     1
175
     1
 42
1.0
 92
        8
 66
     7
 43
1.0
 76
     1
 77
     6
 78
     2
 67
     7
 79
     5
170
     0
171
     0
290
     0
174
     0
 93
       13
 44
0.0
173
     0
291
     1
 45
0.0
1001
ACAD
1000
AcDbSavedByObjectVersion
1070
     0
  0
VISUALSTYLE
  5
56E
102
{ACAD_REACTORS
330
31
102
}
102
{ACAD_XDICTIONARY
360
5B4
102
}
330
31
100
AcDbVisualStyle
  2
FlatWithEdges
 70
     1
 71
     2
 72
     1
 73
     1
 90
        2
 40
0.6
 41
30.0
 62
     5
 63
     7
 74
     1
 91
        4
 64
     7
 65
   257
 75
     1
175
     1
 42
1.0
 92
        0
 66
   257
 43
1.0
 76
     1
 77
     6
 78
     2
 67
     7
 79
     5
170
     0
171
     0
290
     0
174
     0
 93
       13
 44
0.0
173
     0
291
     1
 45
0.0
1001
ACAD
1000
AcDbSavedByObjectVersion
1070
     0
  0
VISUALSTYLE
  5
56F
102
{ACAD_REACTORS
330
31
102
}
102
{ACAD_XDICTIONARY
360
5B6
102
}
330
31
100
AcDbVisualStyle
  2
Gouraud
 70
     2
 71
     2
 72
     2
 73
     1
 90
        2
 40
0.6
 41
30.0
 62
     5
 63
     7
 74
     0
 91
        4
 64
     7
 65
   257
 75
     1
175
     1
 42
1.0
 92
        0
 66
     7
 43
1.0
 76
     1
 77
     6
 78
     2
 67
     7
 79
     5
170
     0
171
     0
290
     0
174
     0
 93
       13
 44
0.0
173
     0
291
     1
 45
0.0
1001
ACAD
1000
AcDbSavedByObjectVersion
1070
     0
  0
VISUALSTYLE
  5
570
102
{ACAD_REACTORS
330
31
102
}
102
{ACAD_XDICTIONARY
360
5B8
102
}
330
31
100
AcDbVisualStyle
  2
GouraudWithEdges
 70
     3
 71
     2
 72
     2
 73
     1
 90
        2
 40
0.6
 41
30.0
 62
     5
 63
     7
 74
     1
 91
        4
 64
     7
 65
   257
 75
     1
175
     1
 42
1.0
 92
        0
 66
   257
 43
1.0
 76
     1
 77
     6
 78
     2
 67
     7
 79
     5
170
     0
171
     0
290
     0
174
     0
 93
       13
 44
0.0
173
     0
291
     1
 45
0.0
1001
ACAD
1000
AcDbSavedByObjectVersion
1070
     0
  0
VISUALSTYLE
  5
572
102
{ACAD_REACTORS
330
31
102
}
102
{ACAD_XDICTIONARY
360
5BC
102
}
330
31
100
AcDbVisualStyle
  2
Hidden
 70
     6
 71
     1
 72
     2
 73
     2
 90
        0
 40
0.6
 41
30.0
 62
     5
 63
     7
 74
     2
 91
        2
 64
     7
 65
   257
 75
     2
175
     1
 42
40.0
 92
        0
 66
   257
 43
1.0
 76
     1
 77
     6
 78
     2
 67
     7
 79
     3
170
     0
171
     0
290
     0
174
     0
 93
        1
 44
0.0
173
     0
291
     0
 45
0.0
1001
ACAD
1000
AcDbSavedByObjectVersion
1070
     0
  0
VISUALSTYLE
  5
57B
102
{ACAD_REACTORS
330
31
102
}
102
{ACAD_XDICTIONARY
360
5CE
102
}
330
31
100
AcDbVisualStyle
  2
JitterOff
 70
    20
 71
     2
 72
     2
 73
     0
 90
        0
 40
0.6
 41
30.0
 62
     5
 63
     7
 74
     1
 91
        4
 64
     7
 65
   257
 75
     1
175
     1
 42
1.0
 92
       10
 66
     7
 43
1.0
 76
     1
 77
     6
 78
     2
 67
     7
 79
     5
170
     0
171
     0
290
     0
174
     0
 93
        1
 44
0.0
173
     0
291
     1
 45
0.0
1001
ACAD
1000
AcDbSavedByObjectVersion
1070
     0
  0
VISUALSTYLE
  5
578
102
{ACAD_REACTORS
330
31
102
}
102
{ACAD_XDICTIONARY
360
5C8
102
}
330
31
100
AcDbVisualStyle
  2
Linepattern
 70
    14
 71
     2
 72
     2
 73
     0
 90
        0
 40
0.6
 41
30.0
 62
     5
 63
     7
 74
     1
 91
        4
 64
     7
 65
   257
 75
     7
175
     7
 42
1.0
 92
        8
 66
     7
 43
1.0
 76
     1
 77
     6
 78
     2
 67
     7
 79
     5
170
     0
171
     0
290
     0
174
     0
 93
        1
 44
0.0
173
     0
291
     1
 45
0.0
1001
ACAD
1000
AcDbSavedByObjectVersion
1070
     0
  0
VISUALSTYLE
  5
57C
102
{ACAD_REACTORS
330
31
102
}
102
{ACAD_XDICTIONARY
360
5D0
102
}
330
31
100
AcDbVisualStyle
  2
OverhangOff
 70
    21
 71
     2
 72
     2
 73
     0
 90
        0
 40
0.6
 41
30.0
 62
     5
 63
     7
 74
     1
 91
        4
 64
     7
 65
   257
 75
     1
175
     1
 42
1.0
 92
        9
 66
     7
 43
1.0
 76
     1
 77
     6
 78
     2
 67
     7
 79
     5
170
     0
171
     0
290
     0
174
     0
 93
        1
 44
0.0
173
     0
291
     1
 45
0.0
1001
ACAD
1000
AcDbSavedByObjectVersion
1070
     0
  0
VISUALSTYLE
  5
32
102
{ACAD_REACTORS
330
31
102
}
102
{ACAD_XDICTIONARY
360
5AE
102
}
330
31
100
AcDbVisualStyle
  2
Realistic
 70
     8
 71
     2
 72
     3
 73
     0
 90
        2
 40
0.6
 41
30.0
 62
     5
 63
     7
 74
     0
 91
        0
 64
     7
 65
   257
 75
     1
175
     1
 42
1.0
 92
        8
 66
   257
 43
1.0
 76
     1
 77
     6
 78
     2
 67
     7
 79
     3
170
     0
171
     0
290
     0
174
     0
 93
       13
 44
0.0
173
     0
291
     0
 45
0.0
1001
ACAD
1000
AcDbSavedByObjectVersion
1070
     0
  0
VISUALSTYLE
  5
582
102
{ACAD_REACTORS
330
31
102
}
102
{ACAD_XDICTIONARY
360
5DC
102
}
330
31
100
AcDbVisualStyle
  2
Shaded
 70
    27
 71
     2
 72
     2
 73
     1
 90
        2
 40
0.6
 41
30.0
 62
     5
 63
     7
 74
     0
 91
        4
 64
     7
 65
   257
 75
     1
175
     1
 42
1.0
 92
        8
 66
   257
 43
1.0
 76
     1
 77
     6
 78
     2
 67
   251
 79
     3
170
     0
171
     0
290
     0
174
     0
 93
        5
 44
0.0
173
     0
291
     0
 45
0.0
1001
ACAD
1000
AcDbSavedByObjectVersion
1070
     0
  0
VISUALSTYLE
  5
581
102
{ACAD_REACTORS
330
31
102
}
102
{ACAD_XDICTIONARY
360
5DA
102
}
330
31
100
AcDbVisualStyle
  2
Shaded with edges
 70
    26
 71
     2
 72
     2
 73
     1
 90
        2
 40
0.6
 41
30.0
 62
     5
 63
     7
 74
     1
 91
       10
 64
     7
 65
   257
 75
     2
175
     1
 42
1.0
 92
        8
 66
   257
 43
1.0
 76
     1
 77
     6
 78
     2
 67
     7
 79
     3
170
     0
171
     0
290
     0
174
     0
 93
        5
 44
0.0
173
     0
291
     0
 45
0.0
1001
ACAD
1000
AcDbSavedByObjectVersion
1070
     0
  0
VISUALSTYLE
  5
57E
102
{ACAD_REACTORS
330
31
102
}
102
{ACAD_XDICTIONARY
360
5D4
102
}
330
31
100
AcDbVisualStyle
  2
Shades of Gray
 70
    23
 71
     2
 72
     2
 73
     3
 90
        0
 40
0.6
 41
30.0
 62
     5
 63
     7
 74
     2
 91
        2
 64
     7
 65
     7
 75
     1
175
     1
 42
40.0
 92
        8
 66
     7
 43
1.0
 76
     1
 77
     6
 78
     2
 67
     7
 79
     3
170
     0
171
     0
290
     0
174
     0
 93
        1
 44
0.0
173
     0
291
     0
 45
0.0
1001
ACAD
1000
AcDbSavedByObjectVersion
1070
     0
  0
VISUALSTYLE
  5
57F
102
{ACAD_REACTORS
330
31
102
}
102
{ACAD_XDICTIONARY
360
5D6
102
}
330
31
100
AcDbVisualStyle
  2
Sketchy
 70
    24
 71
     1
 72
     2
 73
     2
 90
        0
 40
0.6
 41
30.0
 62
     5
 63
     7
 74
     2
 91
        2
 64
     7
 65
     7
 75
     1
175
     1
 42
40.0
 92
       11
 66
     7
 43
1.0
 76
     1
 77
     6
 78
     2
 67
     7
 79
     6
170
     0
171
     0
290
     0
174
     0
 93
        1
 44
0.0
173
     0
291
     0
 45
0.0
1001
ACAD
1000
AcDbSavedByObjectVersion
1070
     0
  0
VISUALSTYLE
  5
577
102
{ACAD_REACTORS
330
31
102
}
102
{ACAD_XDICTIONARY
360
5C6
102
}
330
31
100
AcDbVisualStyle
  2
Thicken
 70
    13
 71
     2
 72
     2
 73
     0
 90
        0
 40
0.6
 41
30.0
 62
     5
 63
     7
 74
     1
 91
        4
 64
     7
 65
   257
 75
     1
175
     1
 42
1.0
 92
       12
 66
     7
 43
1.0
 76
     1
 77
     6
 78
     2
 67
     7
 79
     5
170
     0
171
     0
290
     0
174
     0
 93
        1
 44
0.0
173
     0
291
     1
 45
0.0
1001
ACAD
1000
AcDbSavedByObjectVersion
1070
     0
  0
VISUALSTYLE
  5
33
102
{ACAD_REACTORS
330
31
102
}
102
{ACAD_XDICTIONARY
360
5B0
102
}
330
31
100
AcDbVisualStyle
  2
Wireframe
 70
     5
 71
     0
 72
     2
 73
     0
 90
        0
 40
0.6
 41
30.0
 62
     5
 63
     7
 74
     1
 91
        4
 64
     7
 65
   257
 75
     1
175
     1
 42
1.0
 92
        0
 66
   257
 43
1.0
 76
     1
 77
     6
 78
     2
 67
     7
 79
     3
170
     0
171
     0
290
     0
174
     0
 93
        1
 44
0.0
173
     0
291
     0
 45
0.0
1001
ACAD
1000
AcDbSavedByObjectVersion
1070
     0
  0
VISUALSTYLE
  5
580
102
{ACAD_REACTORS
330
31
102
}
102
{ACAD_XDICTIONARY
360
5D8
102
}
330
31
100
AcDbVisualStyle
  2
X-Ray
 70
    25
 71
     2
 72
     2
 73
     1
 90
        1
 40
0.5
 41
30.0
 62
     5
 63
     7
 74
     1
 91
        0
 64
     7
 65
   257
 75
     1
175
     1
 42
1.0
 92
        8
 66
     7
 43
1.0
 76
     1
 77
     6
 78
     2
 67
     7
 79
     3
170
     0
171
     0
290
     0
174
     0
 93
       13
 44
0.0
173
     0
291
     0
 45
0.0
1001
ACAD
1000
AcDbSavedByObjectVersion
1070
     0
  0
XRECORD
  5
5A2
102
{ACAD_REACTORS
330
5A1
102
}
330
5A1
100
AcDbXrecord
280
     1
340
30
  0
XRECORD
  5
5A3
102
{ACAD_REACTORS
330
5A1
102
}
330
5A1
100
AcDbXrecord
280
     1
340
B
  0
DICTIONARYVAR
  5
567
102
{ACAD_REACTORS
330
566
102
}
330
566
100
DictionaryVariables
280
     0
  1
1:1
  0
DICTIONARYVAR
  5
59C
102
{ACAD_REACTORS
330
566
102
}
330
566
100
DictionaryVariables
280
     0
  1
Standard
  0
DICTIONARYVAR
  5
59E
102
{ACAD_REACTORS
330
566
102
}
330
566
100
DictionaryVariables
280
     0
  1
Standard
  0
DICTIONARYVAR
  5
59F
102
{ACAD_REACTORS
330
566
102
}
330
566
100
DictionaryVariables
280
     0
  1
0
  0
DICTIONARYVAR
  5
5A0
102
{ACAD_REACTORS
330
566
102
}
330
566
100
DictionaryVariables
280
     0
  1
1
  0
DICTIONARYVAR
  5
5A7
102
{ACAD_REACTORS
330
566
102
}
330
566
100
DictionaryVariables
280
     0
  1
1
  0
DICTIONARYVAR
  5
56A
102
{ACAD_REACTORS
330
566
102
}
330
566
100
DictionaryVariables
280
     0
  1
0
  0
DICTIONARY
  5
25
330
23
100
AcDbDictionary
280
     1
281
     1
  0
DICTIONARY
  5
5AC
330
5A
100
AcDbDictionary
280
     1
281
     1
  3
ACAD_XREC_ROUNDTRIP
360
5AD
  0
DICTIONARY
  5
5A8
330
14
100
AcDbDictionary
280
     1
281
     1
  3
ACAD_XREC_ROUNDTRIP
360
5A9
  0
DICTIONARY
  5
5AA
330
A
100
AcDbDictionary
280
     1
281
     1
  3
ACAD_XREC_ROUNDTRIP
360
5AB
  0
DICTIONARY
  5
5DE
330
59A
100
AcDbDictionary
280
     1
281
     1
  3
ACAD_XREC_ROUNDTRIP
360
5DF
  0
DICTIONARY
  5
5BA
330
571
100
AcDbDictionary
280
     1
281
     1
  3
ACAD_XREC_ROUNDTRIP
360
5BB
  0
DICTIONARY
  5
5BE
330
573
100
AcDbDictionary
280
     1
281
     1
  3
ACAD_XREC_ROUNDTRIP
360
5BF
  0
DICTIONARY
  5
5C4
330
576
100
AcDbDictionary
280
     1
281
     1
  3
ACAD_XREC_ROUNDTRIP
360
5C5
  0
DICTIONARY
  5
5CC
330
57A
100
AcDbDictionary
280
     1
281
     1
  3
ACAD_XREC_ROUNDTRIP
360
5CD
  0
DICTIONARY
  5
5C0
330
574
100
AcDbDictionary
280
     1
281
     1
  3
ACAD_XREC_ROUNDTRIP
360
5C1
  0
DICTIONARY
  5
5C2
330
575
100
AcDbDictionary
280
     1
281
     1
  3
ACAD_XREC_ROUNDTRIP
360
5C3
  0
DICTIONARY
  5
5D2
330
57D
100
AcDbDictionary
280
     1
281
     1
  3
ACAD_XREC_ROUNDTRIP
360
5D3
  0
DICTIONARY
  5
5CA
330
579
100
AcDbDictionary
280
     1
281
     1
  3
ACAD_XREC_ROUNDTRIP
360
5CB
  0
DICTIONARY
  5
5B2
330
56D
100
AcDbDictionary
280
     1
281
     1
  3
ACAD_XREC_ROUNDTRIP
360
5B3
  0
DICTIONARY
  5
5B4
330
56E
100
AcDbDictionary
280
     1
281
     1
  3
ACAD_XREC_ROUNDTRIP
360
5B5
  0
DICTIONARY
  5
5B6
330
56F
100
AcDbDictionary
280
     1
281
     1
  3
ACAD_XREC_ROUNDTRIP
360
5B7
  0
DICTIONARY
  5
5B8
330
570
100
AcDbDictionary
280
     1
281
     1
  3
ACAD_XREC_ROUNDTRIP
360
5B9
  0
DICTIONARY
  5
5BC
330
572
100
AcDbDictionary
280
     1
281
     1
  3
ACAD_XREC_ROUNDTRIP
360
5BD
  0
DICTIONARY
  5
5CE
330
57B
100
AcDbDictionary
280
     1
281
     1
  3
ACAD_XREC_ROUNDTRIP
360
5CF
  0
DICTIONARY
  5
5C8
330
578
100
AcDbDictionary
280
     1
281
     1
  3
ACAD_XREC_ROUNDTRIP
360
5C9
  0
DICTIONARY
  5
5D0
330
57C
100
AcDbDictionary
280
     1
281
     1
  3
ACAD_XREC_ROUNDTRIP
360
5D1
  0
DICTIONARY
  5
5AE
330
32
100
AcDbDictionary
280
     1
281
     1
  3
ACAD_XREC_ROUNDTRIP
360
5AF
  0
DICTIONARY
  5
5DC
330
582
100
AcDbDictionary
280
     1
281
     1
  3
ACAD_XREC_ROUNDTRIP
360
5DD
  0
DICTIONARY
  5
5DA
330
581
100
AcDbDictionary
280
     1
281
     1
  3
ACAD_XREC_ROUNDTRIP
360
5DB
  0
DICTIONARY
  5
5D4
330
57E
100
AcDbDictionary
280
     1
281
     1
  3
ACAD_XREC_ROUNDTRIP
360
5D5
  0
DICTIONARY
  5
5D6
330
57F
100
AcDbDictionary
280
     1
281
     1
  3
ACAD_XREC_ROUNDTRIP
360
5D7
  0
DICTIONARY
  5
5C6
330
577
100
AcDbDictionary
280
     1
281
     1
  3
ACAD_XREC_ROUNDTRIP
360
5C7
  0
DICTIONARY
  5
5B0
330
33
100
AcDbDictionary
280
     1
281
     1
  3
ACAD_XREC_ROUNDTRIP
360
5B1
  0
DICTIONARY
  5
5D8
330
580
100
AcDbDictionary
280
     1
281
     1
  3
ACAD_XREC_ROUNDTRIP
360
5D9
  0
XRECORD
  5
5AD
102
{ACAD_REACTORS
330
5AC
102
}
330
5AC
100
AcDbXrecord
280
     1
102
MATERIAL
148
0.0
149
0.0
149
0.0
 93
        0
 94
      127
282
     0
 72
     0
 77
     0
171
     0
175
     0
179
     0
273
     0
  0
XRECORD
  5
5A9
102
{ACAD_REACTORS
330
5A8
102
}
330
5A8
100
AcDbXrecord
280
     1
102
MATERIAL
148
0.0
149
0.0
149
0.0
 93
        0
 94
      127
282
     0
 72
     0
 77
     0
171
     0
175
     0
179
     0
273
     0
  0
XRECORD
  5
5AB
102
{ACAD_REACTORS
330
5AA
102
}
330
5AA
100
AcDbXrecord
280
     1
102
MATERIAL
148
0.0
149
0.0
149
0.0
 93
        0
 94
      127
282
     0
 72
     0
 77
     0
171
     0
175
     0
179
     0
273
     0
  0
XRECORD
  5
5DF
102
{ACAD_REACTORS
330
5DE
102
}
330
5DE
100
AcDbXrecord
280
     1
102
ACAD_ROUNDTRIP_2010_MLEADER_STYLE
  0
XRECORD
  5
5BB
102
{ACAD_REACTORS
330
5BA
102
}
330
5BA
100
AcDbXrecord
280
     1
102
RTVSPropertyOp0
 70
     1
102
RTVSPropertyOp1
 70
     1
102
RTVSPropertyOp2
 70
     1
102
RTVSPropertyOp3
 70
     1
102
RTVSPropertyOp4
 70
     1
102
RTVSPropertyOp5
 70
     1
102
RTVSPropertyOp6
 70
     1
102
RTVSPropertyOp7
 70
     1
102
RTVSPropertyOp8
 70
     1
102
RTVSPropertyOp9
 70
     1
102
RTVSPropertyOp10
 70
     1
102
RTVSPropertyOp11
 70
     1
102
RTVSPropertyOp12
 70
     1
102
RTVSPropertyOp13
 70
     1
102
RTVSPropertyOp14
 70
     1
102
RTVSPropertyOp15
 70
     1
102
RTVSPropertyOp16
 70
     1
102
RTVSPropertyOp17
 70
     1
102
RTVSPropertyOp18
 70
     1
102
RTVSPropertyOp19
 70
     1
102
RTVSPropertyOp20
 70
     1
102
RTVSPropertyOp21
 70
     1
102
RTVSPropertyOp22
 70
     1
102
RTVSPropertyOp23
 70
     1
102
RTVSPropertyOp24
 70
     1
102
RTVSPropertyOp25
 70
     1
102
RTVSPropertyOp26
 70
     1
102
RTVSPropertyOp27
 70
     1
102
RTVSPropertyOp28
 70
     1
102
RTVSPropertyOp29
 70
     1
102
RTVSPropertyOp30
 70
     1
102
RTVSPropertyOp31
 70
     1
102
RTVSPropertyOp32
 70
     1
102
RTVSPropertyOp33
 70
     1
102
RTVSPropertyOp34
 70
     1
102
RTVSPropertyOp35
 70
     1
102
RTVSPropertyOp36
 70
     1
102
RTVSPropertyOp37
 70
     1
102
RTVSPropertyOp38
 70
     1
102
RTVSPropertyOp39
 70
     1
102
RTVSPropertyOp40
 70
     1
102
RTVSPropertyOp41
 70
     1
102
RTVSPropertyOp42
 70
     1
102
RTVSPropertyOp43
 70
     1
102
RTVSPropertyOp44
 70
     1
102
RTVSPropertyOp45
 70
     1
102
RTVSPropertyOp46
 70
     1
102
RTVSPropertyOp47
 70
     1
102
RTVSPropertyOp48
 70
     1
102
RTVSPropertyOp49
 70
     1
102
RTVSPropertyOp50
 70
     1
102
RTVSPropertyOp51
 70
     0
102
RTVSPropertyOp52
 70
     0
102
RTVSPropertyOp53
 70
     1
102
RTVSPropertyOp54
 70
     1
102
RTVSPropertyOp55
 70
     1
102
RTVSPropertyOp56
 70
     1
102
RTVSPropertyOp57
 70
     1
102
RTVSPost2010Prop28
280
     1
102
RTVSPost2010PropOp28
 70
     1
102
RTVSPost2010Prop29
280
     1
102
RTVSPost2010PropOp29
 70
     1
102
RTVSPost2010Prop30
280
     0
102
RTVSPost2010PropOp30
 70
     1
102
RTVSPost2010Prop31
280
     0
102
RTVSPost2010PropOp31
 70
     1
102
RTVSPost2010Prop32
280
     0
102
RTVSPost2010PropOp32
 70
     1
102
RTVSPost2010Prop33
280
     0
102
RTVSPost2010PropOp33
 70
     1
102
RTVSPost2010Prop34
280
     0
102
RTVSPost2010PropOp34
 70
     1
102
RTVSPost2010Prop35
280
     0
102
RTVSPost2010PropOp35
 70
     1
102
RTVSPost2010Prop36
280
     0
102
RTVSPost2010PropOp36
 70
     1
102
RTVSPost2010Prop37
 90
       50
102
RTVSPost2010PropOp37
 70
     1
102
RTVSPost2010Prop38
140
0.0
102
RTVSPost2010PropOp38
 70
     1
102
RTVSPost2010Prop39
140
1.0
102
RTVSPost2010PropOp39
 70
     1
102
RTVSPost2010Prop40
 90
        0
102
RTVSPost2010PropOp40
 70
     1
102
RTVSPost2010Prop41ColorIndex
 90
       18
102
RTVSPost2010Prop41ColorRGB
 90
        0
102
RTVSPost2010PropOp41
 70
     1
102
RTVSPost2010Prop42
 90
       50
102
RTVSPost2010PropOp42
 70
     1
102
RTVSPost2010Prop43
 90
        3
102
RTVSPost2010PropOp43
 70
     1
102
RTVSPost2010Prop44ColorIndex
 90
        5
102
RTVSPost2010Prop44ColorRGB
 90
      255
102
RTVSPost2010PropOp44
 70
     1
102
RTVSPost2010Prop45
280
     0
102
RTVSPost2010PropOp45
 70
     1
102
RTVSPost2010Prop46
 90
       50
102
RTVSPost2010PropOp46
 70
     1
102
RTVSPost2010Prop47
 90
       50
102
RTVSPost2010PropOp47
 70
     1
102
RTVSPost2010Prop48
 90
       50
102
RTVSPost2010PropOp48
 70
     1
102
RTVSPost2010Prop49
280
     0
102
RTVSPost2010PropOp49
 70
     1
102
RTVSPost2010Prop50
 90
       50
102
RTVSPost2010PropOp50
 70
     1
102
RTVSPost2010Prop51ColorIndex
 90
      256
102
RTVSPost2010Prop51ColorRGB
 90
-16777216
102
RTVSPost2010PropOp51
 70
     0
102
RTVSPost2010Prop52
140
1.0
102
RTVSPost2010PropOp52
 70
     0
102
RTVSPost2010Prop53
 90
        2
102
RTVSPost2010PropOp53
 70
     1
102
RTVSPost2010Prop54
  1
strokes_ogs.tif
102
RTVSPost2010PropOp54
 70
     1
102
RTVSPost2010Prop55
280
     0
102
RTVSPost2010PropOp55
 70
     1
102
RTVSPost2010Prop56
140
1.0
102
RTVSPost2010PropOp56
 70
     1
102
RTVSPost2010Prop57
140
1.0
102
RTVSPost2010PropOp57
 70
     1
  0
XRECORD
  5
5BF
102
{ACAD_REACTORS
330
5BE
102
}
330
5BE
100
AcDbXrecord
280
     1
102
RTVSPropertyOp0
 70
     1
102
RTVSPropertyOp1
 70
     1
102
RTVSPropertyOp2
 70
     1
102
RTVSPropertyOp3
 70
     1
102
RTVSPropertyOp4
 70
     1
102
RTVSPropertyOp5
 70
     1
102
RTVSPropertyOp6
 70
     1
102
RTVSPropertyOp7
 70
     1
102
RTVSPropertyOp8
 70
     1
102
RTVSPropertyOp9
 70
     1
102
RTVSPropertyOp10
 70
     1
102
RTVSPropertyOp11
 70
     1
102
RTVSPropertyOp12
 70
     1
102
RTVSPropertyOp13
 70
     1
102
RTVSPropertyOp14
 70
     1
102
RTVSPropertyOp15
 70
     1
102
RTVSPropertyOp16
 70
     1
102
RTVSPropertyOp17
 70
     1
102
RTVSPropertyOp18
 70
     1
102
RTVSPropertyOp19
 70
     1
102
RTVSPropertyOp20
 70
     1
102
RTVSPropertyOp21
 70
     1
102
RTVSPropertyOp22
 70
     1
102
RTVSPropertyOp23
 70
     1
102
RTVSPropertyOp24
 70
     1
102
RTVSPropertyOp25
 70
     1
102
RTVSPropertyOp26
 70
     1
102
RTVSPropertyOp27
 70
     1
102
RTVSPropertyOp28
 70
     1
102
RTVSPropertyOp29
 70
     1
102
RTVSPropertyOp30
 70
     1
102
RTVSPropertyOp31
 70
     1
102
RTVSPropertyOp32
 70
     1
102
RTVSPropertyOp33
 70
     1
102
RTVSPropertyOp34
 70
     1
102
RTVSPropertyOp35
 70
     1
102
RTVSPropertyOp36
 70
     1
102
RTVSPropertyOp37
 70
     1
102
RTVSPropertyOp38
 70
     1
102
RTVSPropertyOp39
 70
     1
102
RTVSPropertyOp40
 70
     1
102
RTVSPropertyOp41
 70
     1
102
RTVSPropertyOp42
 70
     1
102
RTVSPropertyOp43
 70
     1
102
RTVSPropertyOp44
 70
     1
102
RTVSPropertyOp45
 70
     1
102
RTVSPropertyOp46
 70
     1
102
RTVSPropertyOp47
 70
     1
102
RTVSPropertyOp48
 70
     1
102
RTVSPropertyOp49
 70
     1
102
RTVSPropertyOp50
 70
     1
102
RTVSPropertyOp51
 70
     0
102
RTVSPropertyOp52
 70
     0
102
RTVSPropertyOp53
 70
     1
102
RTVSPropertyOp54
 70
     1
102
RTVSPropertyOp55
 70
     1
102
RTVSPropertyOp56
 70
     1
102
RTVSPropertyOp57
 70
     1
102
RTVSPost2010Prop28
280
     0
102
RTVSPost2010PropOp28
 70
     1
102
RTVSPost2010Prop29
280
     1
102
RTVSPost2010PropOp29
 70
     1
102
RTVSPost2010Prop30
280
     1
102
RTVSPost2010PropOp30
 70
     1
102
RTVSPost2010Prop31
280
     0
102
RTVSPost2010PropOp31
 70
     1
102
RTVSPost2010Prop32
280
     0
102
RTVSPost2010PropOp32
 70
     1
102
RTVSPost2010Prop33
280
     0
102
RTVSPost2010PropOp33
 70
     1
102
RTVSPost2010Prop34
280
     0
102
RTVSPost2010PropOp34
 70
     1
102
RTVSPost2010Prop35
280
     0
102
RTVSPost2010PropOp35
 70
     1
102
RTVSPost2010Prop36
280
     0
102
RTVSPost2010PropOp36
 70
     1
102
RTVSPost2010Prop37
 90
       50
102
RTVSPost2010PropOp37
 70
     1
102
RTVSPost2010Prop38
140
0.0
102
RTVSPost2010PropOp38
 70
     1
102
RTVSPost2010Prop39
140
1.0
102
RTVSPost2010PropOp39
 70
     1
102
RTVSPost2010Prop40
 90
        0
102
RTVSPost2010PropOp40
 70
     1
102
RTVSPost2010Prop41ColorIndex
 90
       18
102
RTVSPost2010Prop41ColorRGB
 90
        0
102
RTVSPost2010PropOp41
 70
     1
102
RTVSPost2010Prop42
 90
       50
102
RTVSPost2010PropOp42
 70
     1
102
RTVSPost2010Prop43
 90
        3
102
RTVSPost2010PropOp43
 70
     1
102
RTVSPost2010Prop44ColorIndex
 90
        5
102
RTVSPost2010Prop44ColorRGB
 90
      255
102
RTVSPost2010PropOp44
 70
     1
102
RTVSPost2010Prop45
280
     0
102
RTVSPost2010PropOp45
 70
     1
102
RTVSPost2010Prop46
 90
       50
102
RTVSPost2010PropOp46
 70
     1
102
RTVSPost2010Prop47
 90
       50
102
RTVSPost2010PropOp47
 70
     1
102
RTVSPost2010Prop48
 90
       50
102
RTVSPost2010PropOp48
 70
     1
102
RTVSPost2010Prop49
280
     0
102
RTVSPost2010PropOp49
 70
     1
102
RTVSPost2010Prop50
 90
       50
102
RTVSPost2010PropOp50
 70
     1
102
RTVSPost2010Prop51ColorIndex
 90
      256
102
RTVSPost2010Prop51ColorRGB
 90
-16777216
102
RTVSPost2010PropOp51
 70
     0
102
RTVSPost2010Prop52
140
1.0
102
RTVSPost2010PropOp52
 70
     0
102
RTVSPost2010Prop53
 90
        2
102
RTVSPost2010PropOp53
 70
     1
102
RTVSPost2010Prop54
  1
strokes_ogs.tif
102
RTVSPost2010PropOp54
 70
     1
102
RTVSPost2010Prop55
280
     0
102
RTVSPost2010PropOp55
 70
     1
102
RTVSPost2010Prop56
140
1.0
102
RTVSPost2010PropOp56
 70
     1
102
RTVSPost2010Prop57
140
1.0
102
RTVSPost2010PropOp57
 70
     1
  0
XRECORD
  5
5C5
102
{ACAD_REACTORS
330
5C4
102
}
330
5C4
100
AcDbXrecord
280
     1
102
RTVSPropertyOp0
 70
     1
102
RTVSPropertyOp1
 70
     1
102
RTVSPropertyOp2
 70
     1
102
RTVSPropertyOp3
 70
     1
102
RTVSPropertyOp4
 70
     1
102
RTVSPropertyOp5
 70
     1
102
RTVSPropertyOp6
 70
     1
102
RTVSPropertyOp7
 70
     1
102
RTVSPropertyOp8
 70
     1
102
RTVSPropertyOp9
 70
     1
102
RTVSPropertyOp10
 70
     1
102
RTVSPropertyOp11
 70
     1
102
RTVSPropertyOp12
 70
     1
102
RTVSPropertyOp13
 70
     1
102
RTVSPropertyOp14
 70
     1
102
RTVSPropertyOp15
 70
     1
102
RTVSPropertyOp16
 70
     1
102
RTVSPropertyOp17
 70
     1
102
RTVSPropertyOp18
 70
     1
102
RTVSPropertyOp19
 70
     1
102
RTVSPropertyOp20
 70
     1
102
RTVSPropertyOp21
 70
     1
102
RTVSPropertyOp22
 70
     1
102
RTVSPropertyOp23
 70
     1
102
RTVSPropertyOp24
 70
     1
102
RTVSPropertyOp25
 70
     1
102
RTVSPropertyOp26
 70
     1
102
RTVSPropertyOp27
 70
     1
102
RTVSPropertyOp28
 70
     1
102
RTVSPropertyOp29
 70
     1
102
RTVSPropertyOp30
 70
     1
102
RTVSPropertyOp31
 70
     1
102
RTVSPropertyOp32
 70
     1
102
RTVSPropertyOp33
 70
     1
102
RTVSPropertyOp34
 70
     1
102
RTVSPropertyOp35
 70
     1
102
RTVSPropertyOp36
 70
     1
102
RTVSPropertyOp37
 70
     1
102
RTVSPropertyOp38
 70
     1
102
RTVSPropertyOp39
 70
     1
102
RTVSPropertyOp40
 70
     1
102
RTVSPropertyOp41
 70
     1
102
RTVSPropertyOp42
 70
     1
102
RTVSPropertyOp43
 70
     1
102
RTVSPropertyOp44
 70
     1
102
RTVSPropertyOp45
 70
     1
102
RTVSPropertyOp46
 70
     1
102
RTVSPropertyOp47
 70
     1
102
RTVSPropertyOp48
 70
     1
102
RTVSPropertyOp49
 70
     1
102
RTVSPropertyOp50
 70
     1
102
RTVSPropertyOp51
 70
     0
102
RTVSPropertyOp52
 70
     0
102
RTVSPropertyOp53
 70
     1
102
RTVSPropertyOp54
 70
     1
102
RTVSPropertyOp55
 70
     1
102
RTVSPropertyOp56
 70
     1
102
RTVSPropertyOp57
 70
     1
102
RTVSPost2010Prop28
280
     0
102
RTVSPost2010PropOp28
 70
     1
102
RTVSPost2010Prop29
280
     1
102
RTVSPost2010PropOp29
 70
     1
102
RTVSPost2010Prop30
280
     1
102
RTVSPost2010PropOp30
 70
     1
102
RTVSPost2010Prop31
280
     0
102
RTVSPost2010PropOp31
 70
     1
102
RTVSPost2010Prop32
280
     0
102
RTVSPost2010PropOp32
 70
     1
102
RTVSPost2010Prop33
280
     0
102
RTVSPost2010PropOp33
 70
     1
102
RTVSPost2010Prop34
280
     0
102
RTVSPost2010PropOp34
 70
     1
102
RTVSPost2010Prop35
280
     0
102
RTVSPost2010PropOp35
 70
     1
102
RTVSPost2010Prop36
280
     0
102
RTVSPost2010PropOp36
 70
     1
102
RTVSPost2010Prop37
 90
       50
102
RTVSPost2010PropOp37
 70
     1
102
RTVSPost2010Prop38
140
0.0
102
RTVSPost2010PropOp38
 70
     1
102
RTVSPost2010Prop39
140
1.0
102
RTVSPost2010PropOp39
 70
     1
102
RTVSPost2010Prop40
 90
        0
102
RTVSPost2010PropOp40
 70
     1
102
RTVSPost2010Prop41ColorIndex
 90
       18
102
RTVSPost2010Prop41ColorRGB
 90
        0
102
RTVSPost2010PropOp41
 70
     1
102
RTVSPost2010Prop42
 90
       50
102
RTVSPost2010PropOp42
 70
     1
102
RTVSPost2010Prop43
 90
        3
102
RTVSPost2010PropOp43
 70
     1
102
RTVSPost2010Prop44ColorIndex
 90
        5
102
RTVSPost2010Prop44ColorRGB
 90
      255
102
RTVSPost2010PropOp44
 70
     1
102
RTVSPost2010Prop45
280
     0
102
RTVSPost2010PropOp45
 70
     1
102
RTVSPost2010Prop46
 90
       50
102
RTVSPost2010PropOp46
 70
     1
102
RTVSPost2010Prop47
 90
       50
102
RTVSPost2010PropOp47
 70
     1
102
RTVSPost2010Prop48
 90
       50
102
RTVSPost2010PropOp48
 70
     1
102
RTVSPost2010Prop49
280
     0
102
RTVSPost2010PropOp49
 70
     1
102
RTVSPost2010Prop50
 90
       50
102
RTVSPost2010PropOp50
 70
     1
102
RTVSPost2010Prop51ColorIndex
 90
      256
102
RTVSPost2010Prop51ColorRGB
 90
-16777216
102
RTVSPost2010PropOp51
 70
     0
102
RTVSPost2010Prop52
140
1.0
102
RTVSPost2010PropOp52
 70
     0
102
RTVSPost2010Prop53
 90
        2
102
RTVSPost2010PropOp53
 70
     1
102
RTVSPost2010Prop54
  1
strokes_ogs.tif
102
RTVSPost2010PropOp54
 70
     1
102
RTVSPost2010Prop55
280
     0
102
RTVSPost2010PropOp55
 70
     1
102
RTVSPost2010Prop56
140
1.0
102
RTVSPost2010PropOp56
 70
     1
102
RTVSPost2010Prop57
140
1.0
102
RTVSPost2010PropOp57
 70
     1
  0
XRECORD
  5
5CD
102
{ACAD_REACTORS
330
5CC
102
}
330
5CC
100
AcDbXrecord
280
     1
102
RTVSPropertyOp0
 70
     1
102
RTVSPropertyOp1
 70
     1
102
RTVSPropertyOp2
 70
     1
102
RTVSPropertyOp3
 70
     1
102
RTVSPropertyOp4
 70
     1
102
RTVSPropertyOp5
 70
     1
102
RTVSPropertyOp6
 70
     1
102
RTVSPropertyOp7
 70
     1
102
RTVSPropertyOp8
 70
     1
102
RTVSPropertyOp9
 70
     1
102
RTVSPropertyOp10
 70
     1
102
RTVSPropertyOp11
 70
     1
102
RTVSPropertyOp12
 70
     1
102
RTVSPropertyOp13
 70
     1
102
RTVSPropertyOp14
 70
     1
102
RTVSPropertyOp15
 70
     1
102
RTVSPropertyOp16
 70
     1
102
RTVSPropertyOp17
 70
     1
102
RTVSPropertyOp18
 70
     1
102
RTVSPropertyOp19
 70
     1
102
RTVSPropertyOp20
 70
     1
102
RTVSPropertyOp21
 70
     1
102
RTVSPropertyOp22
 70
     1
102
RTVSPropertyOp23
 70
     1
102
RTVSPropertyOp24
 70
     1
102
RTVSPropertyOp25
 70
     1
102
RTVSPropertyOp26
 70
     1
102
RTVSPropertyOp27
 70
     1
102
RTVSPropertyOp28
 70
     1
102
RTVSPropertyOp29
 70
     1
102
RTVSPropertyOp30
 70
     1
102
RTVSPropertyOp31
 70
     1
102
RTVSPropertyOp32
 70
     1
102
RTVSPropertyOp33
 70
     1
102
RTVSPropertyOp34
 70
     1
102
RTVSPropertyOp35
 70
     1
102
RTVSPropertyOp36
 70
     1
102
RTVSPropertyOp37
 70
     1
102
RTVSPropertyOp38
 70
     1
102
RTVSPropertyOp39
 70
     1
102
RTVSPropertyOp40
 70
     1
102
RTVSPropertyOp41
 70
     1
102
RTVSPropertyOp42
 70
     1
102
RTVSPropertyOp43
 70
     1
102
RTVSPropertyOp44
 70
     1
102
RTVSPropertyOp45
 70
     1
102
RTVSPropertyOp46
 70
     1
102
RTVSPropertyOp47
 70
     1
102
RTVSPropertyOp48
 70
     1
102
RTVSPropertyOp49
 70
     1
102
RTVSPropertyOp50
 70
     1
102
RTVSPropertyOp51
 70
     0
102
RTVSPropertyOp52
 70
     0
102
RTVSPropertyOp53
 70
     1
102
RTVSPropertyOp54
 70
     1
102
RTVSPropertyOp55
 70
     1
102
RTVSPropertyOp56
 70
     1
102
RTVSPropertyOp57
 70
     1
102
RTVSPost2010Prop28
280
     0
102
RTVSPost2010PropOp28
 70
     1
102
RTVSPost2010Prop29
280
     1
102
RTVSPost2010PropOp29
 70
     1
102
RTVSPost2010Prop30
280
     1
102
RTVSPost2010PropOp30
 70
     1
102
RTVSPost2010Prop31
280
     0
102
RTVSPost2010PropOp31
 70
     1
102
RTVSPost2010Prop32
280
     0
102
RTVSPost2010PropOp32
 70
     1
102
RTVSPost2010Prop33
280
     0
102
RTVSPost2010PropOp33
 70
     1
102
RTVSPost2010Prop34
280
     0
102
RTVSPost2010PropOp34
 70
     1
102
RTVSPost2010Prop35
280
     0
102
RTVSPost2010PropOp35
 70
     1
102
RTVSPost2010Prop36
280
     0
102
RTVSPost2010PropOp36
 70
     1
102
RTVSPost2010Prop37
 90
       50
102
RTVSPost2010PropOp37
 70
     1
102
RTVSPost2010Prop38
140
0.0
102
RTVSPost2010PropOp38
 70
     1
102
RTVSPost2010Prop39
140
1.0
102
RTVSPost2010PropOp39
 70
     1
102
RTVSPost2010Prop40
 90
        0
102
RTVSPost2010PropOp40
 70
     1
102
RTVSPost2010Prop41ColorIndex
 90
       18
102
RTVSPost2010Prop41ColorRGB
 90
        0
102
RTVSPost2010PropOp41
 70
     1
102
RTVSPost2010Prop42
 90
       50
102
RTVSPost2010PropOp42
 70
     1
102
RTVSPost2010Prop43
 90
        3
102
RTVSPost2010PropOp43
 70
     1
102
RTVSPost2010Prop44ColorIndex
 90
        5
102
RTVSPost2010Prop44ColorRGB
 90
      255
102
RTVSPost2010PropOp44
 70
     1
102
RTVSPost2010Prop45
280
     0
102
RTVSPost2010PropOp45
 70
     1
102
RTVSPost2010Prop46
 90
       50
102
RTVSPost2010PropOp46
 70
     1
102
RTVSPost2010Prop47
 90
       50
102
RTVSPost2010PropOp47
 70
     1
102
RTVSPost2010Prop48
 90
       50
102
RTVSPost2010PropOp48
 70
     1
102
RTVSPost2010Prop49
280
     0
102
RTVSPost2010PropOp49
 70
     1
102
RTVSPost2010Prop50
 90
       50
102
RTVSPost2010PropOp50
 70
     1
102
RTVSPost2010Prop51ColorIndex
 90
      256
102
RTVSPost2010Prop51ColorRGB
 90
-16777216
102
RTVSPost2010PropOp51
 70
     0
102
RTVSPost2010Prop52
140
1.0
102
RTVSPost2010PropOp52
 70
     0
102
RTVSPost2010Prop53
 90
        2
102
RTVSPost2010PropOp53
 70
     1
102
RTVSPost2010Prop54
  1
strokes_ogs.tif
102
RTVSPost2010PropOp54
 70
     1
102
RTVSPost2010Prop55
280
     0
102
RTVSPost2010PropOp55
 70
     1
102
RTVSPost2010Prop56
140
1.0
102
RTVSPost2010PropOp56
 70
     1
102
RTVSPost2010Prop57
140
1.0
102
RTVSPost2010PropOp57
 70
     1
  0
XRECORD
  5
5C1
102
{ACAD_REACTORS
330
5C0
102
}
330
5C0
100
AcDbXrecord
280
     1
102
RTVSPropertyOp0
 70
     1
102
RTVSPropertyOp1
 70
     1
102
RTVSPropertyOp2
 70
     1
102
RTVSPropertyOp3
 70
     1
102
RTVSPropertyOp4
 70
     1
102
RTVSPropertyOp5
 70
     1
102
RTVSPropertyOp6
 70
     1
102
RTVSPropertyOp7
 70
     1
102
RTVSPropertyOp8
 70
     1
102
RTVSPropertyOp9
 70
     1
102
RTVSPropertyOp10
 70
     1
102
RTVSPropertyOp11
 70
     1
102
RTVSPropertyOp12
 70
     1
102
RTVSPropertyOp13
 70
     1
102
RTVSPropertyOp14
 70
     1
102
RTVSPropertyOp15
 70
     1
102
RTVSPropertyOp16
 70
     1
102
RTVSPropertyOp17
 70
     1
102
RTVSPropertyOp18
 70
     1
102
RTVSPropertyOp19
 70
     1
102
RTVSPropertyOp20
 70
     1
102
RTVSPropertyOp21
 70
     1
102
RTVSPropertyOp22
 70
     1
102
RTVSPropertyOp23
 70
     1
102
RTVSPropertyOp24
 70
     1
102
RTVSPropertyOp25
 70
     1
102
RTVSPropertyOp26
 70
     1
102
RTVSPropertyOp27
 70
     1
102
RTVSPropertyOp28
 70
     1
102
RTVSPropertyOp29
 70
     1
102
RTVSPropertyOp30
 70
     1
102
RTVSPropertyOp31
 70
     1
102
RTVSPropertyOp32
 70
     1
102
RTVSPropertyOp33
 70
     1
102
RTVSPropertyOp34
 70
     1
102
RTVSPropertyOp35
 70
     1
102
RTVSPropertyOp36
 70
     1
102
RTVSPropertyOp37
 70
     1
102
RTVSPropertyOp38
 70
     1
102
RTVSPropertyOp39
 70
     1
102
RTVSPropertyOp40
 70
     1
102
RTVSPropertyOp41
 70
     1
102
RTVSPropertyOp42
 70
     1
102
RTVSPropertyOp43
 70
     1
102
RTVSPropertyOp44
 70
     1
102
RTVSPropertyOp45
 70
     1
102
RTVSPropertyOp46
 70
     1
102
RTVSPropertyOp47
 70
     1
102
RTVSPropertyOp48
 70
     1
102
RTVSPropertyOp49
 70
     1
102
RTVSPropertyOp50
 70
     1
102
RTVSPropertyOp51
 70
     0
102
RTVSPropertyOp52
 70
     0
102
RTVSPropertyOp53
 70
     1
102
RTVSPropertyOp54
 70
     1
102
RTVSPropertyOp55
 70
     1
102
RTVSPropertyOp56
 70
     1
102
RTVSPropertyOp57
 70
     1
102
RTVSPost2010Prop28
280
     0
102
RTVSPost2010PropOp28
 70
     1
102
RTVSPost2010Prop29
280
     1
102
RTVSPost2010PropOp29
 70
     1
102
RTVSPost2010Prop30
280
     1
102
RTVSPost2010PropOp30
 70
     1
102
RTVSPost2010Prop31
280
     0
102
RTVSPost2010PropOp31
 70
     1
102
RTVSPost2010Prop32
280
     0
102
RTVSPost2010PropOp32
 70
     1
102
RTVSPost2010Prop33
280
     0
102
RTVSPost2010PropOp33
 70
     1
102
RTVSPost2010Prop34
280
     0
102
RTVSPost2010PropOp34
 70
     1
102
RTVSPost2010Prop35
280
     0
102
RTVSPost2010PropOp35
 70
     1
102
RTVSPost2010Prop36
280
     0
102
RTVSPost2010PropOp36
 70
     1
102
RTVSPost2010Prop37
 90
       50
102
RTVSPost2010PropOp37
 70
     1
102
RTVSPost2010Prop38
140
0.0
102
RTVSPost2010PropOp38
 70
     1
102
RTVSPost2010Prop39
140
1.0
102
RTVSPost2010PropOp39
 70
     1
102
RTVSPost2010Prop40
 90
        0
102
RTVSPost2010PropOp40
 70
     1
102
RTVSPost2010Prop41ColorIndex
 90
       18
102
RTVSPost2010Prop41ColorRGB
 90
        0
102
RTVSPost2010PropOp41
 70
     1
102
RTVSPost2010Prop42
 90
       50
102
RTVSPost2010PropOp42
 70
     1
102
RTVSPost2010Prop43
 90
        3
102
RTVSPost2010PropOp43
 70
     1
102
RTVSPost2010Prop44ColorIndex
 90
        5
102
RTVSPost2010Prop44ColorRGB
 90
      255
102
RTVSPost2010PropOp44
 70
     1
102
RTVSPost2010Prop45
280
     0
102
RTVSPost2010PropOp45
 70
     1
102
RTVSPost2010Prop46
 90
       50
102
RTVSPost2010PropOp46
 70
     1
102
RTVSPost2010Prop47
 90
       50
102
RTVSPost2010PropOp47
 70
     1
102
RTVSPost2010Prop48
 90
       50
102
RTVSPost2010PropOp48
 70
     1
102
RTVSPost2010Prop49
280
     0
102
RTVSPost2010PropOp49
 70
     1
102
RTVSPost2010Prop50
 90
       50
102
RTVSPost2010PropOp50
 70
     1
102
RTVSPost2010Prop51ColorIndex
 90
      256
102
RTVSPost2010Prop51ColorRGB
 90
-16777216
102
RTVSPost2010PropOp51
 70
     0
102
RTVSPost2010Prop52
140
1.0
102
RTVSPost2010PropOp52
 70
     0
102
RTVSPost2010Prop53
 90
        2
102
RTVSPost2010PropOp53
 70
     1
102
RTVSPost2010Prop54
  1
strokes_ogs.tif
102
RTVSPost2010PropOp54
 70
     1
102
RTVSPost2010Prop55
280
     0
102
RTVSPost2010PropOp55
 70
     1
102
RTVSPost2010Prop56
140
1.0
102
RTVSPost2010PropOp56
 70
     1
102
RTVSPost2010Prop57
140
1.0
102
RTVSPost2010PropOp57
 70
     1
  0
XRECORD
  5
5C3
102
{ACAD_REACTORS
330
5C2
102
}
330
5C2
100
AcDbXrecord
280
     1
102
RTVSPropertyOp0
 70
     1
102
RTVSPropertyOp1
 70
     1
102
RTVSPropertyOp2
 70
     1
102
RTVSPropertyOp3
 70
     1
102
RTVSPropertyOp4
 70
     1
102
RTVSPropertyOp5
 70
     1
102
RTVSPropertyOp6
 70
     1
102
RTVSPropertyOp7
 70
     1
102
RTVSPropertyOp8
 70
     1
102
RTVSPropertyOp9
 70
     1
102
RTVSPropertyOp10
 70
     1
102
RTVSPropertyOp11
 70
     1
102
RTVSPropertyOp12
 70
     1
102
RTVSPropertyOp13
 70
     1
102
RTVSPropertyOp14
 70
     1
102
RTVSPropertyOp15
 70
     1
102
RTVSPropertyOp16
 70
     1
102
RTVSPropertyOp17
 70
     1
102
RTVSPropertyOp18
 70
     1
102
RTVSPropertyOp19
 70
     1
102
RTVSPropertyOp20
 70
     1
102
RTVSPropertyOp21
 70
     1
102
RTVSPropertyOp22
 70
     1
102
RTVSPropertyOp23
 70
     1
102
RTVSPropertyOp24
 70
     1
102
RTVSPropertyOp25
 70
     1
102
RTVSPropertyOp26
 70
     1
102
RTVSPropertyOp27
 70
     1
102
RTVSPropertyOp28
 70
     1
102
RTVSPropertyOp29
 70
     1
102
RTVSPropertyOp30
 70
     1
102
RTVSPropertyOp31
 70
     1
102
RTVSPropertyOp32
 70
     1
102
RTVSPropertyOp33
 70
     1
102
RTVSPropertyOp34
 70
     1
102
RTVSPropertyOp35
 70
     1
102
RTVSPropertyOp36
 70
     1
102
RTVSPropertyOp37
 70
     1
102
RTVSPropertyOp38
 70
     1
102
RTVSPropertyOp39
 70
     1
102
RTVSPropertyOp40
 70
     1
102
RTVSPropertyOp41
 70
     1
102
RTVSPropertyOp42
 70
     1
102
RTVSPropertyOp43
 70
     1
102
RTVSPropertyOp44
 70
     1
102
RTVSPropertyOp45
 70
     1
102
RTVSPropertyOp46
 70
     1
102
RTVSPropertyOp47
 70
     1
102
RTVSPropertyOp48
 70
     1
102
RTVSPropertyOp49
 70
     1
102
RTVSPropertyOp50
 70
     1
102
RTVSPropertyOp51
 70
     0
102
RTVSPropertyOp52
 70
     0
102
RTVSPropertyOp53
 70
     1
102
RTVSPropertyOp54
 70
     1
102
RTVSPropertyOp55
 70
     1
102
RTVSPropertyOp56
 70
     1
102
RTVSPropertyOp57
 70
     1
102
RTVSPost2010Prop28
280
     0
102
RTVSPost2010PropOp28
 70
     1
102
RTVSPost2010Prop29
280
     1
102
RTVSPost2010PropOp29
 70
     1
102
RTVSPost2010Prop30
280
     1
102
RTVSPost2010PropOp30
 70
     1
102
RTVSPost2010Prop31
280
     0
102
RTVSPost2010PropOp31
 70
     1
102
RTVSPost2010Prop32
280
     0
102
RTVSPost2010PropOp32
 70
     1
102
RTVSPost2010Prop33
280
     0
102
RTVSPost2010PropOp33
 70
     1
102
RTVSPost2010Prop34
280
     0
102
RTVSPost2010PropOp34
 70
     1
102
RTVSPost2010Prop35
280
     0
102
RTVSPost2010PropOp35
 70
     1
102
RTVSPost2010Prop36
280
     0
102
RTVSPost2010PropOp36
 70
     1
102
RTVSPost2010Prop37
 90
       50
102
RTVSPost2010PropOp37
 70
     1
102
RTVSPost2010Prop38
140
0.0
102
RTVSPost2010PropOp38
 70
     1
102
RTVSPost2010Prop39
140
1.0
102
RTVSPost2010PropOp39
 70
     1
102
RTVSPost2010Prop40
 90
        0
102
RTVSPost2010PropOp40
 70
     1
102
RTVSPost2010Prop41ColorIndex
 90
       18
102
RTVSPost2010Prop41ColorRGB
 90
        0
102
RTVSPost2010PropOp41
 70
     1
102
RTVSPost2010Prop42
 90
       50
102
RTVSPost2010PropOp42
 70
     1
102
RTVSPost2010Prop43
 90
        3
102
RTVSPost2010PropOp43
 70
     1
102
RTVSPost2010Prop44ColorIndex
 90
        5
102
RTVSPost2010Prop44ColorRGB
 90
      255
102
RTVSPost2010PropOp44
 70
     1
102
RTVSPost2010Prop45
280
     0
102
RTVSPost2010PropOp45
 70
     1
102
RTVSPost2010Prop46
 90
       50
102
RTVSPost2010PropOp46
 70
     1
102
RTVSPost2010Prop47
 90
       50
102
RTVSPost2010PropOp47
 70
     1
102
RTVSPost2010Prop48
 90
       50
102
RTVSPost2010PropOp48
 70
     1
102
RTVSPost2010Prop49
280
     0
102
RTVSPost2010PropOp49
 70
     1
102
RTVSPost2010Prop50
 90
       50
102
RTVSPost2010PropOp50
 70
     1
102
RTVSPost2010Prop51ColorIndex
 90
      256
102
RTVSPost2010Prop51ColorRGB
 90
-16777216
102
RTVSPost2010PropOp51
 70
     0
102
RTVSPost2010Prop52
140
1.0
102
RTVSPost2010PropOp52
 70
     0
102
RTVSPost2010Prop53
 90
        2
102
RTVSPost2010PropOp53
 70
     1
102
RTVSPost2010Prop54
  1
strokes_ogs.tif
102
RTVSPost2010PropOp54
 70
     1
102
RTVSPost2010Prop55
280
     0
102
RTVSPost2010PropOp55
 70
     1
102
RTVSPost2010Prop56
140
1.0
102
RTVSPost2010PropOp56
 70
     1
102
RTVSPost2010Prop57
140
1.0
102
RTVSPost2010PropOp57
 70
     1
  0
XRECORD
  5
5D3
102
{ACAD_REACTORS
330
5D2
102
}
330
5D2
100
AcDbXrecord
280
     1
102
RTVSPropertyOp0
 70
     0
102
RTVSPropertyOp1
 70
     0
102
RTVSPropertyOp2
 70
     0
102
RTVSPropertyOp3
 70
     0
102
RTVSPropertyOp4
 70
     0
102
RTVSPropertyOp5
 70
     0
102
RTVSPropertyOp6
 70
     0
102
RTVSPropertyOp7
 70
     0
102
RTVSPropertyOp8
 70
     0
102
RTVSPropertyOp9
 70
     0
102
RTVSPropertyOp10
 70
     0
102
RTVSPropertyOp11
 70
     0
102
RTVSPropertyOp12
 70
     0
102
RTVSPropertyOp13
 70
     0
102
RTVSPropertyOp14
 70
     0
102
RTVSPropertyOp15
 70
     0
102
RTVSPropertyOp16
 70
     0
102
RTVSPropertyOp17
 70
     0
102
RTVSPropertyOp18
 70
     0
102
RTVSPropertyOp19
 70
     0
102
RTVSPropertyOp20
 70
     0
102
RTVSPropertyOp21
 70
     0
102
RTVSPropertyOp22
 70
     0
102
RTVSPropertyOp23
 70
     0
102
RTVSPropertyOp24
 70
     0
102
RTVSPropertyOp25
 70
     0
102
RTVSPropertyOp26
 70
     0
102
RTVSPropertyOp27
 70
     0
102
RTVSPropertyOp28
 70
     1
102
RTVSPropertyOp29
 70
     1
102
RTVSPropertyOp30
 70
     1
102
RTVSPropertyOp31
 70
     1
102
RTVSPropertyOp32
 70
     1
102
RTVSPropertyOp33
 70
     1
102
RTVSPropertyOp34
 70
     1
102
RTVSPropertyOp35
 70
     1
102
RTVSPropertyOp36
 70
     1
102
RTVSPropertyOp37
 70
     1
102
RTVSPropertyOp38
 70
     1
102
RTVSPropertyOp39
 70
     1
102
RTVSPropertyOp40
 70
     1
102
RTVSPropertyOp41
 70
     1
102
RTVSPropertyOp42
 70
     1
102
RTVSPropertyOp43
 70
     1
102
RTVSPropertyOp44
 70
     1
102
RTVSPropertyOp45
 70
     1
102
RTVSPropertyOp46
 70
     1
102
RTVSPropertyOp47
 70
     1
102
RTVSPropertyOp48
 70
     1
102
RTVSPropertyOp49
 70
     1
102
RTVSPropertyOp50
 70
     1
102
RTVSPropertyOp51
 70
     0
102
RTVSPropertyOp52
 70
     0
102
RTVSPropertyOp53
 70
     1
102
RTVSPropertyOp54
 70
     1
102
RTVSPropertyOp55
 70
     1
102
RTVSPropertyOp56
 70
     1
102
RTVSPropertyOp57
 70
     1
102
RTVSPost2010Prop28
280
     0
102
RTVSPost2010PropOp28
 70
     1
102
RTVSPost2010Prop29
280
     1
102
RTVSPost2010PropOp29
 70
     1
102
RTVSPost2010Prop30
280
     1
102
RTVSPost2010PropOp30
 70
     1
102
RTVSPost2010Prop31
280
     0
102
RTVSPost2010PropOp31
 70
     1
102
RTVSPost2010Prop32
280
     0
102
RTVSPost2010PropOp32
 70
     1
102
RTVSPost2010Prop33
280
     0
102
RTVSPost2010PropOp33
 70
     1
102
RTVSPost2010Prop34
280
     0
102
RTVSPost2010PropOp34
 70
     1
102
RTVSPost2010Prop35
280
     0
102
RTVSPost2010PropOp35
 70
     1
102
RTVSPost2010Prop36
280
     0
102
RTVSPost2010PropOp36
 70
     1
102
RTVSPost2010Prop37
 90
       50
102
RTVSPost2010PropOp37
 70
     1
102
RTVSPost2010Prop38
140
0.0
102
RTVSPost2010PropOp38
 70
     1
102
RTVSPost2010Prop39
140
1.0
102
RTVSPost2010PropOp39
 70
     1
102
RTVSPost2010Prop40
 90
        0
102
RTVSPost2010PropOp40
 70
     1
102
RTVSPost2010Prop41ColorIndex
 90
       18
102
RTVSPost2010Prop41ColorRGB
 90
        0
102
RTVSPost2010PropOp41
 70
     1
102
RTVSPost2010Prop42
 90
       50
102
RTVSPost2010PropOp42
 70
     1
102
RTVSPost2010Prop43
 90
        3
102
RTVSPost2010PropOp43
 70
     1
102
RTVSPost2010Prop44ColorIndex
 90
        5
102
RTVSPost2010Prop44ColorRGB
 90
      255
102
RTVSPost2010PropOp44
 70
     1
102
RTVSPost2010Prop45
280
     0
102
RTVSPost2010PropOp45
 70
     1
102
RTVSPost2010Prop46
 90
       50
102
RTVSPost2010PropOp46
 70
     1
102
RTVSPost2010Prop47
 90
       50
102
RTVSPost2010PropOp47
 70
     1
102
RTVSPost2010Prop48
 90
       50
102
RTVSPost2010PropOp48
 70
     1
102
RTVSPost2010Prop49
280
     0
102
RTVSPost2010PropOp49
 70
     1
102
RTVSPost2010Prop50
 90
       50
102
RTVSPost2010PropOp50
 70
     1
102
RTVSPost2010Prop51ColorIndex
 90
      256
102
RTVSPost2010Prop51ColorRGB
 90
-16777216
102
RTVSPost2010PropOp51
 70
     0
102
RTVSPost2010Prop52
140
1.0
102
RTVSPost2010PropOp52
 70
     0
102
RTVSPost2010Prop53
 90
        2
102
RTVSPost2010PropOp53
 70
     1
102
RTVSPost2010Prop54
  1
strokes_ogs.tif
102
RTVSPost2010PropOp54
 70
     1
102
RTVSPost2010Prop55
280
     0
102
RTVSPost2010PropOp55
 70
     1
102
RTVSPost2010Prop56
140
1.0
102
RTVSPost2010PropOp56
 70
     1
102
RTVSPost2010Prop57
140
1.0
102
RTVSPost2010PropOp57
 70
     1
  0
XRECORD
  5
5CB
102
{ACAD_REACTORS
330
5CA
102
}
330
5CA
100
AcDbXrecord
280
     1
102
RTVSPropertyOp0
 70
     1
102
RTVSPropertyOp1
 70
     1
102
RTVSPropertyOp2
 70
     1
102
RTVSPropertyOp3
 70
     1
102
RTVSPropertyOp4
 70
     1
102
RTVSPropertyOp5
 70
     1
102
RTVSPropertyOp6
 70
     1
102
RTVSPropertyOp7
 70
     1
102
RTVSPropertyOp8
 70
     1
102
RTVSPropertyOp9
 70
     1
102
RTVSPropertyOp10
 70
     1
102
RTVSPropertyOp11
 70
     1
102
RTVSPropertyOp12
 70
     1
102
RTVSPropertyOp13
 70
     1
102
RTVSPropertyOp14
 70
     1
102
RTVSPropertyOp15
 70
     1
102
RTVSPropertyOp16
 70
     1
102
RTVSPropertyOp17
 70
     1
102
RTVSPropertyOp18
 70
     1
102
RTVSPropertyOp19
 70
     1
102
RTVSPropertyOp20
 70
     1
102
RTVSPropertyOp21
 70
     1
102
RTVSPropertyOp22
 70
     1
102
RTVSPropertyOp23
 70
     1
102
RTVSPropertyOp24
 70
     1
102
RTVSPropertyOp25
 70
     1
102
RTVSPropertyOp26
 70
     1
102
RTVSPropertyOp27
 70
     1
102
RTVSPropertyOp28
 70
     1
102
RTVSPropertyOp29
 70
     1
102
RTVSPropertyOp30
 70
     1
102
RTVSPropertyOp31
 70
     1
102
RTVSPropertyOp32
 70
     1
102
RTVSPropertyOp33
 70
     1
102
RTVSPropertyOp34
 70
     1
102
RTVSPropertyOp35
 70
     1
102
RTVSPropertyOp36
 70
     1
102
RTVSPropertyOp37
 70
     1
102
RTVSPropertyOp38
 70
     1
102
RTVSPropertyOp39
 70
     1
102
RTVSPropertyOp40
 70
     1
102
RTVSPropertyOp41
 70
     1
102
RTVSPropertyOp42
 70
     1
102
RTVSPropertyOp43
 70
     1
102
RTVSPropertyOp44
 70
     1
102
RTVSPropertyOp45
 70
     1
102
RTVSPropertyOp46
 70
     1
102
RTVSPropertyOp47
 70
     1
102
RTVSPropertyOp48
 70
     1
102
RTVSPropertyOp49
 70
     1
102
RTVSPropertyOp50
 70
     1
102
RTVSPropertyOp51
 70
     0
102
RTVSPropertyOp52
 70
     0
102
RTVSPropertyOp53
 70
     1
102
RTVSPropertyOp54
 70
     1
102
RTVSPropertyOp55
 70
     1
102
RTVSPropertyOp56
 70
     1
102
RTVSPropertyOp57
 70
     1
102
RTVSPost2010Prop28
280
     0
102
RTVSPost2010PropOp28
 70
     1
102
RTVSPost2010Prop29
280
     1
102
RTVSPost2010PropOp29
 70
     1
102
RTVSPost2010Prop30
280
     1
102
RTVSPost2010PropOp30
 70
     1
102
RTVSPost2010Prop31
280
     0
102
RTVSPost2010PropOp31
 70
     1
102
RTVSPost2010Prop32
280
     0
102
RTVSPost2010PropOp32
 70
     1
102
RTVSPost2010Prop33
280
     0
102
RTVSPost2010PropOp33
 70
     1
102
RTVSPost2010Prop34
280
     0
102
RTVSPost2010PropOp34
 70
     1
102
RTVSPost2010Prop35
280
     0
102
RTVSPost2010PropOp35
 70
     1
102
RTVSPost2010Prop36
280
     0
102
RTVSPost2010PropOp36
 70
     1
102
RTVSPost2010Prop37
 90
       50
102
RTVSPost2010PropOp37
 70
     1
102
RTVSPost2010Prop38
140
0.0
102
RTVSPost2010PropOp38
 70
     1
102
RTVSPost2010Prop39
140
1.0
102
RTVSPost2010PropOp39
 70
     1
102
RTVSPost2010Prop40
 90
        0
102
RTVSPost2010PropOp40
 70
     1
102
RTVSPost2010Prop41ColorIndex
 90
       18
102
RTVSPost2010Prop41ColorRGB
 90
        0
102
RTVSPost2010PropOp41
 70
     1
102
RTVSPost2010Prop42
 90
       50
102
RTVSPost2010PropOp42
 70
     1
102
RTVSPost2010Prop43
 90
        3
102
RTVSPost2010PropOp43
 70
     1
102
RTVSPost2010Prop44ColorIndex
 90
        5
102
RTVSPost2010Prop44ColorRGB
 90
      255
102
RTVSPost2010PropOp44
 70
     1
102
RTVSPost2010Prop45
280
     0
102
RTVSPost2010PropOp45
 70
     1
102
RTVSPost2010Prop46
 90
       50
102
RTVSPost2010PropOp46
 70
     1
102
RTVSPost2010Prop47
 90
       50
102
RTVSPost2010PropOp47
 70
     1
102
RTVSPost2010Prop48
 90
       50
102
RTVSPost2010PropOp48
 70
     1
102
RTVSPost2010Prop49
280
     0
102
RTVSPost2010PropOp49
 70
     1
102
RTVSPost2010Prop50
 90
       50
102
RTVSPost2010PropOp50
 70
     1
102
RTVSPost2010Prop51ColorIndex
 90
      256
102
RTVSPost2010Prop51ColorRGB
 90
-16777216
102
RTVSPost2010PropOp51
 70
     0
102
RTVSPost2010Prop52
140
1.0
102
RTVSPost2010PropOp52
 70
     0
102
RTVSPost2010Prop53
 90
        2
102
RTVSPost2010PropOp53
 70
     1
102
RTVSPost2010Prop54
  1
strokes_ogs.tif
102
RTVSPost2010PropOp54
 70
     1
102
RTVSPost2010Prop55
280
     0
102
RTVSPost2010PropOp55
 70
     1
102
RTVSPost2010Prop56
140
1.0
102
RTVSPost2010PropOp56
 70
     1
102
RTVSPost2010Prop57
140
1.0
102
RTVSPost2010PropOp57
 70
     1
  0
XRECORD
  5
5B3
102
{ACAD_REACTORS
330
5B2
102
}
330
5B2
100
AcDbXrecord
280
     1
102
RTVSPropertyOp0
 70
     1
102
RTVSPropertyOp1
 70
     1
102
RTVSPropertyOp2
 70
     1
102
RTVSPropertyOp3
 70
     1
102
RTVSPropertyOp4
 70
     1
102
RTVSPropertyOp5
 70
     1
102
RTVSPropertyOp6
 70
     1
102
RTVSPropertyOp7
 70
     1
102
RTVSPropertyOp8
 70
     1
102
RTVSPropertyOp9
 70
     1
102
RTVSPropertyOp10
 70
     1
102
RTVSPropertyOp11
 70
     1
102
RTVSPropertyOp12
 70
     1
102
RTVSPropertyOp13
 70
     1
102
RTVSPropertyOp14
 70
     1
102
RTVSPropertyOp15
 70
     1
102
RTVSPropertyOp16
 70
     1
102
RTVSPropertyOp17
 70
     1
102
RTVSPropertyOp18
 70
     1
102
RTVSPropertyOp19
 70
     1
102
RTVSPropertyOp20
 70
     1
102
RTVSPropertyOp21
 70
     1
102
RTVSPropertyOp22
 70
     1
102
RTVSPropertyOp23
 70
     1
102
RTVSPropertyOp24
 70
     1
102
RTVSPropertyOp25
 70
     1
102
RTVSPropertyOp26
 70
     1
102
RTVSPropertyOp27
 70
     1
102
RTVSPropertyOp28
 70
     1
102
RTVSPropertyOp29
 70
     1
102
RTVSPropertyOp30
 70
     1
102
RTVSPropertyOp31
 70
     1
102
RTVSPropertyOp32
 70
     1
102
RTVSPropertyOp33
 70
     1
102
RTVSPropertyOp34
 70
     1
102
RTVSPropertyOp35
 70
     1
102
RTVSPropertyOp36
 70
     1
102
RTVSPropertyOp37
 70
     1
102
RTVSPropertyOp38
 70
     1
102
RTVSPropertyOp39
 70
     1
102
RTVSPropertyOp40
 70
     1
102
RTVSPropertyOp41
 70
     1
102
RTVSPropertyOp42
 70
     1
102
RTVSPropertyOp43
 70
     1
102
RTVSPropertyOp44
 70
     1
102
RTVSPropertyOp45
 70
     1
102
RTVSPropertyOp46
 70
     1
102
RTVSPropertyOp47
 70
     1
102
RTVSPropertyOp48
 70
     1
102
RTVSPropertyOp49
 70
     1
102
RTVSPropertyOp50
 70
     1
102
RTVSPropertyOp51
 70
     0
102
RTVSPropertyOp52
 70
     0
102
RTVSPropertyOp53
 70
     1
102
RTVSPropertyOp54
 70
     1
102
RTVSPropertyOp55
 70
     1
102
RTVSPropertyOp56
 70
     1
102
RTVSPropertyOp57
 70
     1
102
RTVSPost2010Prop28
280
     0
102
RTVSPost2010PropOp28
 70
     1
102
RTVSPost2010Prop29
280
     1
102
RTVSPost2010PropOp29
 70
     1
102
RTVSPost2010Prop30
280
     1
102
RTVSPost2010PropOp30
 70
     1
102
RTVSPost2010Prop31
280
     0
102
RTVSPost2010PropOp31
 70
     1
102
RTVSPost2010Prop32
280
     0
102
RTVSPost2010PropOp32
 70
     1
102
RTVSPost2010Prop33
280
     0
102
RTVSPost2010PropOp33
 70
     1
102
RTVSPost2010Prop34
280
     0
102
RTVSPost2010PropOp34
 70
     1
102
RTVSPost2010Prop35
280
     0
102
RTVSPost2010PropOp35
 70
     1
102
RTVSPost2010Prop36
280
     0
102
RTVSPost2010PropOp36
 70
     1
102
RTVSPost2010Prop37
 90
       50
102
RTVSPost2010PropOp37
 70
     1
102
RTVSPost2010Prop38
140
0.0
102
RTVSPost2010PropOp38
 70
     1
102
RTVSPost2010Prop39
140
1.0
102
RTVSPost2010PropOp39
 70
     1
102
RTVSPost2010Prop40
 90
        0
102
RTVSPost2010PropOp40
 70
     1
102
RTVSPost2010Prop41ColorIndex
 90
       18
102
RTVSPost2010Prop41ColorRGB
 90
        0
102
RTVSPost2010PropOp41
 70
     1
102
RTVSPost2010Prop42
 90
       50
102
RTVSPost2010PropOp42
 70
     1
102
RTVSPost2010Prop43
 90
        3
102
RTVSPost2010PropOp43
 70
     1
102
RTVSPost2010Prop44ColorIndex
 90
        5
102
RTVSPost2010Prop44ColorRGB
 90
      255
102
RTVSPost2010PropOp44
 70
     1
102
RTVSPost2010Prop45
280
     0
102
RTVSPost2010PropOp45
 70
     1
102
RTVSPost2010Prop46
 90
       50
102
RTVSPost2010PropOp46
 70
     1
102
RTVSPost2010Prop47
 90
       50
102
RTVSPost2010PropOp47
 70
     1
102
RTVSPost2010Prop48
 90
       50
102
RTVSPost2010PropOp48
 70
     1
102
RTVSPost2010Prop49
280
     0
102
RTVSPost2010PropOp49
 70
     1
102
RTVSPost2010Prop50
 90
       50
102
RTVSPost2010PropOp50
 70
     1
102
RTVSPost2010Prop51ColorIndex
 90
      256
102
RTVSPost2010Prop51ColorRGB
 90
-16777216
102
RTVSPost2010PropOp51
 70
     0
102
RTVSPost2010Prop52
140
1.0
102
RTVSPost2010PropOp52
 70
     0
102
RTVSPost2010Prop53
 90
        2
102
RTVSPost2010PropOp53
 70
     1
102
RTVSPost2010Prop54
  1
strokes_ogs.tif
102
RTVSPost2010PropOp54
 70
     1
102
RTVSPost2010Prop55
280
     0
102
RTVSPost2010PropOp55
 70
     1
102
RTVSPost2010Prop56
140
1.0
102
RTVSPost2010PropOp56
 70
     1
102
RTVSPost2010Prop57
140
1.0
102
RTVSPost2010PropOp57
 70
     1
  0
XRECORD
  5
5B5
102
{ACAD_REACTORS
330
5B4
102
}
330
5B4
100
AcDbXrecord
280
     1
102
RTVSPropertyOp0
 70
     1
102
RTVSPropertyOp1
 70
     1
102
RTVSPropertyOp2
 70
     1
102
RTVSPropertyOp3
 70
     1
102
RTVSPropertyOp4
 70
     1
102
RTVSPropertyOp5
 70
     1
102
RTVSPropertyOp6
 70
     1
102
RTVSPropertyOp7
 70
     1
102
RTVSPropertyOp8
 70
     1
102
RTVSPropertyOp9
 70
     1
102
RTVSPropertyOp10
 70
     1
102
RTVSPropertyOp11
 70
     1
102
RTVSPropertyOp12
 70
     1
102
RTVSPropertyOp13
 70
     1
102
RTVSPropertyOp14
 70
     1
102
RTVSPropertyOp15
 70
     1
102
RTVSPropertyOp16
 70
     1
102
RTVSPropertyOp17
 70
     1
102
RTVSPropertyOp18
 70
     1
102
RTVSPropertyOp19
 70
     1
102
RTVSPropertyOp20
 70
     1
102
RTVSPropertyOp21
 70
     1
102
RTVSPropertyOp22
 70
     1
102
RTVSPropertyOp23
 70
     1
102
RTVSPropertyOp24
 70
     1
102
RTVSPropertyOp25
 70
     1
102
RTVSPropertyOp26
 70
     1
102
RTVSPropertyOp27
 70
     1
102
RTVSPropertyOp28
 70
     1
102
RTVSPropertyOp29
 70
     1
102
RTVSPropertyOp30
 70
     1
102
RTVSPropertyOp31
 70
     1
102
RTVSPropertyOp32
 70
     1
102
RTVSPropertyOp33
 70
     1
102
RTVSPropertyOp34
 70
     1
102
RTVSPropertyOp35
 70
     1
102
RTVSPropertyOp36
 70
     1
102
RTVSPropertyOp37
 70
     1
102
RTVSPropertyOp38
 70
     1
102
RTVSPropertyOp39
 70
     1
102
RTVSPropertyOp40
 70
     1
102
RTVSPropertyOp41
 70
     1
102
RTVSPropertyOp42
 70
     1
102
RTVSPropertyOp43
 70
     1
102
RTVSPropertyOp44
 70
     1
102
RTVSPropertyOp45
 70
     1
102
RTVSPropertyOp46
 70
     1
102
RTVSPropertyOp47
 70
     1
102
RTVSPropertyOp48
 70
     1
102
RTVSPropertyOp49
 70
     1
102
RTVSPropertyOp50
 70
     1
102
RTVSPropertyOp51
 70
     0
102
RTVSPropertyOp52
 70
     0
102
RTVSPropertyOp53
 70
     1
102
RTVSPropertyOp54
 70
     1
102
RTVSPropertyOp55
 70
     1
102
RTVSPropertyOp56
 70
     1
102
RTVSPropertyOp57
 70
     1
102
RTVSPost2010Prop28
280
     0
102
RTVSPost2010PropOp28
 70
     1
102
RTVSPost2010Prop29
280
     1
102
RTVSPost2010PropOp29
 70
     1
102
RTVSPost2010Prop30
280
     1
102
RTVSPost2010PropOp30
 70
     1
102
RTVSPost2010Prop31
280
     0
102
RTVSPost2010PropOp31
 70
     1
102
RTVSPost2010Prop32
280
     0
102
RTVSPost2010PropOp32
 70
     1
102
RTVSPost2010Prop33
280
     0
102
RTVSPost2010PropOp33
 70
     1
102
RTVSPost2010Prop34
280
     0
102
RTVSPost2010PropOp34
 70
     1
102
RTVSPost2010Prop35
280
     0
102
RTVSPost2010PropOp35
 70
     1
102
RTVSPost2010Prop36
280
     0
102
RTVSPost2010PropOp36
 70
     1
102
RTVSPost2010Prop37
 90
       50
102
RTVSPost2010PropOp37
 70
     1
102
RTVSPost2010Prop38
140
0.0
102
RTVSPost2010PropOp38
 70
     1
102
RTVSPost2010Prop39
140
1.0
102
RTVSPost2010PropOp39
 70
     1
102
RTVSPost2010Prop40
 90
        0
102
RTVSPost2010PropOp40
 70
     1
102
RTVSPost2010Prop41ColorIndex
 90
       18
102
RTVSPost2010Prop41ColorRGB
 90
        0
102
RTVSPost2010PropOp41
 70
     1
102
RTVSPost2010Prop42
 90
       50
102
RTVSPost2010PropOp42
 70
     1
102
RTVSPost2010Prop43
 90
        3
102
RTVSPost2010PropOp43
 70
     1
102
RTVSPost2010Prop44ColorIndex
 90
        5
102
RTVSPost2010Prop44ColorRGB
 90
      255
102
RTVSPost2010PropOp44
 70
     1
102
RTVSPost2010Prop45
280
     0
102
RTVSPost2010PropOp45
 70
     1
102
RTVSPost2010Prop46
 90
       50
102
RTVSPost2010PropOp46
 70
     1
102
RTVSPost2010Prop47
 90
       50
102
RTVSPost2010PropOp47
 70
     1
102
RTVSPost2010Prop48
 90
       50
102
RTVSPost2010PropOp48
 70
     1
102
RTVSPost2010Prop49
280
     0
102
RTVSPost2010PropOp49
 70
     1
102
RTVSPost2010Prop50
 90
       50
102
RTVSPost2010PropOp50
 70
     1
102
RTVSPost2010Prop51ColorIndex
 90
      256
102
RTVSPost2010Prop51ColorRGB
 90
-16777216
102
RTVSPost2010PropOp51
 70
     0
102
RTVSPost2010Prop52
140
1.0
102
RTVSPost2010PropOp52
 70
     0
102
RTVSPost2010Prop53
 90
        2
102
RTVSPost2010PropOp53
 70
     1
102
RTVSPost2010Prop54
  1
strokes_ogs.tif
102
RTVSPost2010PropOp54
 70
     1
102
RTVSPost2010Prop55
280
     0
102
RTVSPost2010PropOp55
 70
     1
102
RTVSPost2010Prop56
140
1.0
102
RTVSPost2010PropOp56
 70
     1
102
RTVSPost2010Prop57
140
1.0
102
RTVSPost2010PropOp57
 70
     1
  0
XRECORD
  5
5B7
102
{ACAD_REACTORS
330
5B6
102
}
330
5B6
100
AcDbXrecord
280
     1
102
RTVSPropertyOp0
 70
     1
102
RTVSPropertyOp1
 70
     1
102
RTVSPropertyOp2
 70
     1
102
RTVSPropertyOp3
 70
     1
102
RTVSPropertyOp4
 70
     1
102
RTVSPropertyOp5
 70
     1
102
RTVSPropertyOp6
 70
     1
102
RTVSPropertyOp7
 70
     1
102
RTVSPropertyOp8
 70
     1
102
RTVSPropertyOp9
 70
     1
102
RTVSPropertyOp10
 70
     1
102
RTVSPropertyOp11
 70
     1
102
RTVSPropertyOp12
 70
     1
102
RTVSPropertyOp13
 70
     1
102
RTVSPropertyOp14
 70
     1
102
RTVSPropertyOp15
 70
     1
102
RTVSPropertyOp16
 70
     1
102
RTVSPropertyOp17
 70
     1
102
RTVSPropertyOp18
 70
     1
102
RTVSPropertyOp19
 70
     1
102
RTVSPropertyOp20
 70
     1
102
RTVSPropertyOp21
 70
     1
102
RTVSPropertyOp22
 70
     1
102
RTVSPropertyOp23
 70
     1
102
RTVSPropertyOp24
 70
     1
102
RTVSPropertyOp25
 70
     1
102
RTVSPropertyOp26
 70
     1
102
RTVSPropertyOp27
 70
     1
102
RTVSPropertyOp28
 70
     1
102
RTVSPropertyOp29
 70
     1
102
RTVSPropertyOp30
 70
     1
102
RTVSPropertyOp31
 70
     1
102
RTVSPropertyOp32
 70
     1
102
RTVSPropertyOp33
 70
     1
102
RTVSPropertyOp34
 70
     1
102
RTVSPropertyOp35
 70
     1
102
RTVSPropertyOp36
 70
     1
102
RTVSPropertyOp37
 70
     1
102
RTVSPropertyOp38
 70
     1
102
RTVSPropertyOp39
 70
     1
102
RTVSPropertyOp40
 70
     1
102
RTVSPropertyOp41
 70
     1
102
RTVSPropertyOp42
 70
     1
102
RTVSPropertyOp43
 70
     1
102
RTVSPropertyOp44
 70
     1
102
RTVSPropertyOp45
 70
     1
102
RTVSPropertyOp46
 70
     1
102
RTVSPropertyOp47
 70
     1
102
RTVSPropertyOp48
 70
     1
102
RTVSPropertyOp49
 70
     1
102
RTVSPropertyOp50
 70
     1
102
RTVSPropertyOp51
 70
     0
102
RTVSPropertyOp52
 70
     0
102
RTVSPropertyOp53
 70
     1
102
RTVSPropertyOp54
 70
     1
102
RTVSPropertyOp55
 70
     1
102
RTVSPropertyOp56
 70
     1
102
RTVSPropertyOp57
 70
     1
102
RTVSPost2010Prop28
280
     0
102
RTVSPost2010PropOp28
 70
     1
102
RTVSPost2010Prop29
280
     1
102
RTVSPost2010PropOp29
 70
     1
102
RTVSPost2010Prop30
280
     1
102
RTVSPost2010PropOp30
 70
     1
102
RTVSPost2010Prop31
280
     0
102
RTVSPost2010PropOp31
 70
     1
102
RTVSPost2010Prop32
280
     0
102
RTVSPost2010PropOp32
 70
     1
102
RTVSPost2010Prop33
280
     0
102
RTVSPost2010PropOp33
 70
     1
102
RTVSPost2010Prop34
280
     0
102
RTVSPost2010PropOp34
 70
     1
102
RTVSPost2010Prop35
280
     0
102
RTVSPost2010PropOp35
 70
     1
102
RTVSPost2010Prop36
280
     0
102
RTVSPost2010PropOp36
 70
     1
102
RTVSPost2010Prop37
 90
       50
102
RTVSPost2010PropOp37
 70
     1
102
RTVSPost2010Prop38
140
0.0
102
RTVSPost2010PropOp38
 70
     1
102
RTVSPost2010Prop39
140
1.0
102
RTVSPost2010PropOp39
 70
     1
102
RTVSPost2010Prop40
 90
        0
102
RTVSPost2010PropOp40
 70
     1
102
RTVSPost2010Prop41ColorIndex
 90
       18
102
RTVSPost2010Prop41ColorRGB
 90
        0
102
RTVSPost2010PropOp41
 70
     1
102
RTVSPost2010Prop42
 90
       50
102
RTVSPost2010PropOp42
 70
     1
102
RTVSPost2010Prop43
 90
        3
102
RTVSPost2010PropOp43
 70
     1
102
RTVSPost2010Prop44ColorIndex
 90
        5
102
RTVSPost2010Prop44ColorRGB
 90
      255
102
RTVSPost2010PropOp44
 70
     1
102
RTVSPost2010Prop45
280
     0
102
RTVSPost2010PropOp45
 70
     1
102
RTVSPost2010Prop46
 90
       50
102
RTVSPost2010PropOp46
 70
     1
102
RTVSPost2010Prop47
 90
       50
102
RTVSPost2010PropOp47
 70
     1
102
RTVSPost2010Prop48
 90
       50
102
RTVSPost2010PropOp48
 70
     1
102
RTVSPost2010Prop49
280
     0
102
RTVSPost2010PropOp49
 70
     1
102
RTVSPost2010Prop50
 90
       50
102
RTVSPost2010PropOp50
 70
     1
102
RTVSPost2010Prop51ColorIndex
 90
      256
102
RTVSPost2010Prop51ColorRGB
 90
-16777216
102
RTVSPost2010PropOp51
 70
     0
102
RTVSPost2010Prop52
140
1.0
102
RTVSPost2010PropOp52
 70
     0
102
RTVSPost2010Prop53
 90
        2
102
RTVSPost2010PropOp53
 70
     1
102
RTVSPost2010Prop54
  1
strokes_ogs.tif
102
RTVSPost2010PropOp54
 70
     1
102
RTVSPost2010Prop55
280
     0
102
RTVSPost2010PropOp55
 70
     1
102
RTVSPost2010Prop56
140
1.0
102
RTVSPost2010PropOp56
 70
     1
102
RTVSPost2010Prop57
140
1.0
102
RTVSPost2010PropOp57
 70
     1
  0
XRECORD
  5
5B9
102
{ACAD_REACTORS
330
5B8
102
}
330
5B8
100
AcDbXrecord
280
     1
102
RTVSPropertyOp0
 70
     1
102
RTVSPropertyOp1
 70
     1
102
RTVSPropertyOp2
 70
     1
102
RTVSPropertyOp3
 70
     1
102
RTVSPropertyOp4
 70
     1
102
RTVSPropertyOp5
 70
     1
102
RTVSPropertyOp6
 70
     1
102
RTVSPropertyOp7
 70
     1
102
RTVSPropertyOp8
 70
     1
102
RTVSPropertyOp9
 70
     1
102
RTVSPropertyOp10
 70
     1
102
RTVSPropertyOp11
 70
     1
102
RTVSPropertyOp12
 70
     1
102
RTVSPropertyOp13
 70
     1
102
RTVSPropertyOp14
 70
     1
102
RTVSPropertyOp15
 70
     1
102
RTVSPropertyOp16
 70
     1
102
RTVSPropertyOp17
 70
     1
102
RTVSPropertyOp18
 70
     1
102
RTVSPropertyOp19
 70
     1
102
RTVSPropertyOp20
 70
     1
102
RTVSPropertyOp21
 70
     1
102
RTVSPropertyOp22
 70
     1
102
RTVSPropertyOp23
 70
     1
102
RTVSPropertyOp24
 70
     1
102
RTVSPropertyOp25
 70
     1
102
RTVSPropertyOp26
 70
     1
102
RTVSPropertyOp27
 70
     1
102
RTVSPropertyOp28
 70
     1
102
RTVSPropertyOp29
 70
     1
102
RTVSPropertyOp30
 70
     1
102
RTVSPropertyOp31
 70
     1
102
RTVSPropertyOp32
 70
     1
102
RTVSPropertyOp33
 70
     1
102
RTVSPropertyOp34
 70
     1
102
RTVSPropertyOp35
 70
     1
102
RTVSPropertyOp36
 70
     1
102
RTVSPropertyOp37
 70
     1
102
RTVSPropertyOp38
 70
     1
102
RTVSPropertyOp39
 70
     1
102
RTVSPropertyOp40
 70
     1
102
RTVSPropertyOp41
 70
     1
102
RTVSPropertyOp42
 70
     1
102
RTVSPropertyOp43
 70
     1
102
RTVSPropertyOp44
 70
     1
102
RTVSPropertyOp45
 70
     1
102
RTVSPropertyOp46
 70
     1
102
RTVSPropertyOp47
 70
     1
102
RTVSPropertyOp48
 70
     1
102
RTVSPropertyOp49
 70
     1
102
RTVSPropertyOp50
 70
     1
102
RTVSPropertyOp51
 70
     0
102
RTVSPropertyOp52
 70
     0
102
RTVSPropertyOp53
 70
     1
102
RTVSPropertyOp54
 70
     1
102
RTVSPropertyOp55
 70
     1
102
RTVSPropertyOp56
 70
     1
102
RTVSPropertyOp57
 70
     1
102
RTVSPost2010Prop28
280
     0
102
RTVSPost2010PropOp28
 70
     1
102
RTVSPost2010Prop29
280
     1
102
RTVSPost2010PropOp29
 70
     1
102
RTVSPost2010Prop30
280
     1
102
RTVSPost2010PropOp30
 70
     1
102
RTVSPost2010Prop31
280
     0
102
RTVSPost2010PropOp31
 70
     1
102
RTVSPost2010Prop32
280
     0
102
RTVSPost2010PropOp32
 70
     1
102
RTVSPost2010Prop33
280
     0
102
RTVSPost2010PropOp33
 70
     1
102
RTVSPost2010Prop34
280
     0
102
RTVSPost2010PropOp34
 70
     1
102
RTVSPost2010Prop35
280
     0
102
RTVSPost2010PropOp35
 70
     1
102
RTVSPost2010Prop36
280
     0
102
RTVSPost2010PropOp36
 70
     1
102
RTVSPost2010Prop37
 90
       50
102
RTVSPost2010PropOp37
 70
     1
102
RTVSPost2010Prop38
140
0.0
102
RTVSPost2010PropOp38
 70
     1
102
RTVSPost2010Prop39
140
1.0
102
RTVSPost2010PropOp39
 70
     1
102
RTVSPost2010Prop40
 90
        0
102
RTVSPost2010PropOp40
 70
     1
102
RTVSPost2010Prop41ColorIndex
 90
       18
102
RTVSPost2010Prop41ColorRGB
 90
        0
102
RTVSPost2010PropOp41
 70
     1
102
RTVSPost2010Prop42
 90
       50
102
RTVSPost2010PropOp42
 70
     1
102
RTVSPost2010Prop43
 90
        3
102
RTVSPost2010PropOp43
 70
     1
102
RTVSPost2010Prop44ColorIndex
 90
        5
102
RTVSPost2010Prop44ColorRGB
 90
      255
102
RTVSPost2010PropOp44
 70
     1
102
RTVSPost2010Prop45
280
     0
102
RTVSPost2010PropOp45
 70
     1
102
RTVSPost2010Prop46
 90
       50
102
RTVSPost2010PropOp46
 70
     1
102
RTVSPost2010Prop47
 90
       50
102
RTVSPost2010PropOp47
 70
     1
102
RTVSPost2010Prop48
 90
       50
102
RTVSPost2010PropOp48
 70
     1
102
RTVSPost2010Prop49
280
     0
102
RTVSPost2010PropOp49
 70
     1
102
RTVSPost2010Prop50
 90
       50
102
RTVSPost2010PropOp50
 70
     1
102
RTVSPost2010Prop51ColorIndex
 90
      256
102
RTVSPost2010Prop51ColorRGB
 90
-16777216
102
RTVSPost2010PropOp51
 70
     0
102
RTVSPost2010Prop52
140
1.0
102
RTVSPost2010PropOp52
 70
     0
102
RTVSPost2010Prop53
 90
        2
102
RTVSPost2010PropOp53
 70
     1
102
RTVSPost2010Prop54
  1
strokes_ogs.tif
102
RTVSPost2010PropOp54
 70
     1
102
RTVSPost2010Prop55
280
     0
102
RTVSPost2010PropOp55
 70
     1
102
RTVSPost2010Prop56
140
1.0
102
RTVSPost2010PropOp56
 70
     1
102
RTVSPost2010Prop57
140
1.0
102
RTVSPost2010PropOp57
 70
     1
  0
XRECORD
  5
5BD
102
{ACAD_REACTORS
330
5BC
102
}
330
5BC
100
AcDbXrecord
280
     1
102
RTVSPropertyOp0
 70
     1
102
RTVSPropertyOp1
 70
     1
102
RTVSPropertyOp2
 70
     1
102
RTVSPropertyOp3
 70
     1
102
RTVSPropertyOp4
 70
     1
102
RTVSPropertyOp5
 70
     1
102
RTVSPropertyOp6
 70
     1
102
RTVSPropertyOp7
 70
     1
102
RTVSPropertyOp8
 70
     1
102
RTVSPropertyOp9
 70
     1
102
RTVSPropertyOp10
 70
     1
102
RTVSPropertyOp11
 70
     1
102
RTVSPropertyOp12
 70
     1
102
RTVSPropertyOp13
 70
     1
102
RTVSPropertyOp14
 70
     1
102
RTVSPropertyOp15
 70
     1
102
RTVSPropertyOp16
 70
     1
102
RTVSPropertyOp17
 70
     1
102
RTVSPropertyOp18
 70
     1
102
RTVSPropertyOp19
 70
     1
102
RTVSPropertyOp20
 70
     1
102
RTVSPropertyOp21
 70
     1
102
RTVSPropertyOp22
 70
     1
102
RTVSPropertyOp23
 70
     1
102
RTVSPropertyOp24
 70
     1
102
RTVSPropertyOp25
 70
     1
102
RTVSPropertyOp26
 70
     1
102
RTVSPropertyOp27
 70
     1
102
RTVSPropertyOp28
 70
     1
102
RTVSPropertyOp29
 70
     1
102
RTVSPropertyOp30
 70
     1
102
RTVSPropertyOp31
 70
     1
102
RTVSPropertyOp32
 70
     1
102
RTVSPropertyOp33
 70
     1
102
RTVSPropertyOp34
 70
     1
102
RTVSPropertyOp35
 70
     1
102
RTVSPropertyOp36
 70
     1
102
RTVSPropertyOp37
 70
     1
102
RTVSPropertyOp38
 70
     1
102
RTVSPropertyOp39
 70
     1
102
RTVSPropertyOp40
 70
     1
102
RTVSPropertyOp41
 70
     1
102
RTVSPropertyOp42
 70
     1
102
RTVSPropertyOp43
 70
     1
102
RTVSPropertyOp44
 70
     1
102
RTVSPropertyOp45
 70
     1
102
RTVSPropertyOp46
 70
     1
102
RTVSPropertyOp47
 70
     1
102
RTVSPropertyOp48
 70
     1
102
RTVSPropertyOp49
 70
     1
102
RTVSPropertyOp50
 70
     1
102
RTVSPropertyOp51
 70
     0
102
RTVSPropertyOp52
 70
     0
102
RTVSPropertyOp53
 70
     1
102
RTVSPropertyOp54
 70
     1
102
RTVSPropertyOp55
 70
     1
102
RTVSPropertyOp56
 70
     1
102
RTVSPropertyOp57
 70
     1
102
RTVSPost2010Prop28
280
     0
102
RTVSPost2010PropOp28
 70
     1
102
RTVSPost2010Prop29
280
     1
102
RTVSPost2010PropOp29
 70
     1
102
RTVSPost2010Prop30
280
     1
102
RTVSPost2010PropOp30
 70
     1
102
RTVSPost2010Prop31
280
     0
102
RTVSPost2010PropOp31
 70
     1
102
RTVSPost2010Prop32
280
     0
102
RTVSPost2010PropOp32
 70
     1
102
RTVSPost2010Prop33
280
     0
102
RTVSPost2010PropOp33
 70
     1
102
RTVSPost2010Prop34
280
     0
102
RTVSPost2010PropOp34
 70
     1
102
RTVSPost2010Prop35
280
     0
102
RTVSPost2010PropOp35
 70
     1
102
RTVSPost2010Prop36
280
     0
102
RTVSPost2010PropOp36
 70
     1
102
RTVSPost2010Prop37
 90
       50
102
RTVSPost2010PropOp37
 70
     1
102
RTVSPost2010Prop38
140
0.0
102
RTVSPost2010PropOp38
 70
     1
102
RTVSPost2010Prop39
140
1.0
102
RTVSPost2010PropOp39
 70
     1
102
RTVSPost2010Prop40
 90
        0
102
RTVSPost2010PropOp40
 70
     1
102
RTVSPost2010Prop41ColorIndex
 90
       18
102
RTVSPost2010Prop41ColorRGB
 90
        0
102
RTVSPost2010PropOp41
 70
     1
102
RTVSPost2010Prop42
 90
       50
102
RTVSPost2010PropOp42
 70
     1
102
RTVSPost2010Prop43
 90
        3
102
RTVSPost2010PropOp43
 70
     1
102
RTVSPost2010Prop44ColorIndex
 90
        5
102
RTVSPost2010Prop44ColorRGB
 90
      255
102
RTVSPost2010PropOp44
 70
     1
102
RTVSPost2010Prop45
280
     0
102
RTVSPost2010PropOp45
 70
     1
102
RTVSPost2010Prop46
 90
       50
102
RTVSPost2010PropOp46
 70
     1
102
RTVSPost2010Prop47
 90
       50
102
RTVSPost2010PropOp47
 70
     1
102
RTVSPost2010Prop48
 90
       50
102
RTVSPost2010PropOp48
 70
     1
102
RTVSPost2010Prop49
280
     0
102
RTVSPost2010PropOp49
 70
     1
102
RTVSPost2010Prop50
 90
       50
102
RTVSPost2010PropOp50
 70
     1
102
RTVSPost2010Prop51ColorIndex
 90
      256
102
RTVSPost2010Prop51ColorRGB
 90
-16777216
102
RTVSPost2010PropOp51
 70
     0
102
RTVSPost2010Prop52
140
1.0
102
RTVSPost2010PropOp52
 70
     0
102
RTVSPost2010Prop53
 90
        2
102
RTVSPost2010PropOp53
 70
     1
102
RTVSPost2010Prop54
  1
strokes_ogs.tif
102
RTVSPost2010PropOp54
 70
     1
102
RTVSPost2010Prop55
280
     0
102
RTVSPost2010PropOp55
 70
     1
102
RTVSPost2010Prop56
140
1.0
102
RTVSPost2010PropOp56
 70
     1
102
RTVSPost2010Prop57
140
1.0
102
RTVSPost2010PropOp57
 70
     1
  0
XRECORD
  5
5CF
102
{ACAD_REACTORS
330
5CE
102
}
330
5CE
100
AcDbXrecord
280
     1
102
RTVSPropertyOp0
 70
     0
102
RTVSPropertyOp1
 70
     0
102
RTVSPropertyOp2
 70
     0
102
RTVSPropertyOp3
 70
     0
102
RTVSPropertyOp4
 70
     0
102
RTVSPropertyOp5
 70
     0
102
RTVSPropertyOp6
 70
     0
102
RTVSPropertyOp7
 70
     0
102
RTVSPropertyOp8
 70
     0
102
RTVSPropertyOp9
 70
     0
102
RTVSPropertyOp10
 70
     0
102
RTVSPropertyOp11
 70
     0
102
RTVSPropertyOp12
 70
     0
102
RTVSPropertyOp13
 70
     0
102
RTVSPropertyOp14
 70
     0
102
RTVSPropertyOp15
 70
     0
102
RTVSPropertyOp16
 70
     0
102
RTVSPropertyOp17
 70
     0
102
RTVSPropertyOp18
 70
     0
102
RTVSPropertyOp19
 70
     0
102
RTVSPropertyOp20
 70
     0
102
RTVSPropertyOp21
 70
     0
102
RTVSPropertyOp22
 70
     0
102
RTVSPropertyOp23
 70
     0
102
RTVSPropertyOp24
 70
     0
102
RTVSPropertyOp25
 70
     0
102
RTVSPropertyOp26
 70
     0
102
RTVSPropertyOp27
 70
     0
102
RTVSPropertyOp28
 70
     1
102
RTVSPropertyOp29
 70
     1
102
RTVSPropertyOp30
 70
     1
102
RTVSPropertyOp31
 70
     1
102
RTVSPropertyOp32
 70
     1
102
RTVSPropertyOp33
 70
     1
102
RTVSPropertyOp34
 70
     1
102
RTVSPropertyOp35
 70
     1
102
RTVSPropertyOp36
 70
     1
102
RTVSPropertyOp37
 70
     1
102
RTVSPropertyOp38
 70
     1
102
RTVSPropertyOp39
 70
     1
102
RTVSPropertyOp40
 70
     1
102
RTVSPropertyOp41
 70
     1
102
RTVSPropertyOp42
 70
     1
102
RTVSPropertyOp43
 70
     1
102
RTVSPropertyOp44
 70
     1
102
RTVSPropertyOp45
 70
     1
102
RTVSPropertyOp46
 70
     1
102
RTVSPropertyOp47
 70
     1
102
RTVSPropertyOp48
 70
     1
102
RTVSPropertyOp49
 70
     1
102
RTVSPropertyOp50
 70
     1
102
RTVSPropertyOp51
 70
     0
102
RTVSPropertyOp52
 70
     0
102
RTVSPropertyOp53
 70
     1
102
RTVSPropertyOp54
 70
     1
102
RTVSPropertyOp55
 70
     1
102
RTVSPropertyOp56
 70
     1
102
RTVSPropertyOp57
 70
     1
102
RTVSPost2010Prop28
280
     0
102
RTVSPost2010PropOp28
 70
     1
102
RTVSPost2010Prop29
280
     1
102
RTVSPost2010PropOp29
 70
     1
102
RTVSPost2010Prop30
280
     1
102
RTVSPost2010PropOp30
 70
     1
102
RTVSPost2010Prop31
280
     0
102
RTVSPost2010PropOp31
 70
     1
102
RTVSPost2010Prop32
280
     0
102
RTVSPost2010PropOp32
 70
     1
102
RTVSPost2010Prop33
280
     0
102
RTVSPost2010PropOp33
 70
     1
102
RTVSPost2010Prop34
280
     0
102
RTVSPost2010PropOp34
 70
     1
102
RTVSPost2010Prop35
280
     0
102
RTVSPost2010PropOp35
 70
     1
102
RTVSPost2010Prop36
280
     0
102
RTVSPost2010PropOp36
 70
     1
102
RTVSPost2010Prop37
 90
       50
102
RTVSPost2010PropOp37
 70
     1
102
RTVSPost2010Prop38
140
0.0
102
RTVSPost2010PropOp38
 70
     1
102
RTVSPost2010Prop39
140
1.0
102
RTVSPost2010PropOp39
 70
     1
102
RTVSPost2010Prop40
 90
        0
102
RTVSPost2010PropOp40
 70
     1
102
RTVSPost2010Prop41ColorIndex
 90
       18
102
RTVSPost2010Prop41ColorRGB
 90
        0
102
RTVSPost2010PropOp41
 70
     1
102
RTVSPost2010Prop42
 90
       50
102
RTVSPost2010PropOp42
 70
     1
102
RTVSPost2010Prop43
 90
        3
102
RTVSPost2010PropOp43
 70
     1
102
RTVSPost2010Prop44ColorIndex
 90
        5
102
RTVSPost2010Prop44ColorRGB
 90
      255
102
RTVSPost2010PropOp44
 70
     1
102
RTVSPost2010Prop45
280
     0
102
RTVSPost2010PropOp45
 70
     1
102
RTVSPost2010Prop46
 90
       50
102
RTVSPost2010PropOp46
 70
     1
102
RTVSPost2010Prop47
 90
       50
102
RTVSPost2010PropOp47
 70
     1
102
RTVSPost2010Prop48
 90
       50
102
RTVSPost2010PropOp48
 70
     1
102
RTVSPost2010Prop49
280
     0
102
RTVSPost2010PropOp49
 70
     1
102
RTVSPost2010Prop50
 90
       50
102
RTVSPost2010PropOp50
 70
     1
102
RTVSPost2010Prop51ColorIndex
 90
      256
102
RTVSPost2010Prop51ColorRGB
 90
-16777216
102
RTVSPost2010PropOp51
 70
     0
102
RTVSPost2010Prop52
140
1.0
102
RTVSPost2010PropOp52
 70
     0
102
RTVSPost2010Prop53
 90
        2
102
RTVSPost2010PropOp53
 70
     1
102
RTVSPost2010Prop54
  1
strokes_ogs.tif
102
RTVSPost2010PropOp54
 70
     1
102
RTVSPost2010Prop55
280
     0
102
RTVSPost2010PropOp55
 70
     1
102
RTVSPost2010Prop56
140
1.0
102
RTVSPost2010PropOp56
 70
     1
102
RTVSPost2010Prop57
140
1.0
102
RTVSPost2010PropOp57
 70
     1
  0
XRECORD
  5
5C9
102
{ACAD_REACTORS
330
5C8
102
}
330
5C8
100
AcDbXrecord
280
     1
102
RTVSPropertyOp0
 70
     1
102
RTVSPropertyOp1
 70
     1
102
RTVSPropertyOp2
 70
     1
102
RTVSPropertyOp3
 70
     1
102
RTVSPropertyOp4
 70
     1
102
RTVSPropertyOp5
 70
     1
102
RTVSPropertyOp6
 70
     1
102
RTVSPropertyOp7
 70
     1
102
RTVSPropertyOp8
 70
     1
102
RTVSPropertyOp9
 70
     1
102
RTVSPropertyOp10
 70
     1
102
RTVSPropertyOp11
 70
     1
102
RTVSPropertyOp12
 70
     1
102
RTVSPropertyOp13
 70
     1
102
RTVSPropertyOp14
 70
     1
102
RTVSPropertyOp15
 70
     1
102
RTVSPropertyOp16
 70
     1
102
RTVSPropertyOp17
 70
     1
102
RTVSPropertyOp18
 70
     1
102
RTVSPropertyOp19
 70
     1
102
RTVSPropertyOp20
 70
     1
102
RTVSPropertyOp21
 70
     1
102
RTVSPropertyOp22
 70
     1
102
RTVSPropertyOp23
 70
     1
102
RTVSPropertyOp24
 70
     1
102
RTVSPropertyOp25
 70
     1
102
RTVSPropertyOp26
 70
     1
102
RTVSPropertyOp27
 70
     1
102
RTVSPropertyOp28
 70
     1
102
RTVSPropertyOp29
 70
     1
102
RTVSPropertyOp30
 70
     1
102
RTVSPropertyOp31
 70
     1
102
RTVSPropertyOp32
 70
     1
102
RTVSPropertyOp33
 70
     1
102
RTVSPropertyOp34
 70
     1
102
RTVSPropertyOp35
 70
     1
102
RTVSPropertyOp36
 70
     1
102
RTVSPropertyOp37
 70
     1
102
RTVSPropertyOp38
 70
     1
102
RTVSPropertyOp39
 70
     1
102
RTVSPropertyOp40
 70
     1
102
RTVSPropertyOp41
 70
     1
102
RTVSPropertyOp42
 70
     1
102
RTVSPropertyOp43
 70
     1
102
RTVSPropertyOp44
 70
     1
102
RTVSPropertyOp45
 70
     1
102
RTVSPropertyOp46
 70
     1
102
RTVSPropertyOp47
 70
     1
102
RTVSPropertyOp48
 70
     1
102
RTVSPropertyOp49
 70
     1
102
RTVSPropertyOp50
 70
     1
102
RTVSPropertyOp51
 70
     0
102
RTVSPropertyOp52
 70
     0
102
RTVSPropertyOp53
 70
     1
102
RTVSPropertyOp54
 70
     1
102
RTVSPropertyOp55
 70
     1
102
RTVSPropertyOp56
 70
     1
102
RTVSPropertyOp57
 70
     1
102
RTVSPost2010Prop28
280
     0
102
RTVSPost2010PropOp28
 70
     1
102
RTVSPost2010Prop29
280
     1
102
RTVSPost2010PropOp29
 70
     1
102
RTVSPost2010Prop30
280
     1
102
RTVSPost2010PropOp30
 70
     1
102
RTVSPost2010Prop31
280
     0
102
RTVSPost2010PropOp31
 70
     1
102
RTVSPost2010Prop32
280
     0
102
RTVSPost2010PropOp32
 70
     1
102
RTVSPost2010Prop33
280
     0
102
RTVSPost2010PropOp33
 70
     1
102
RTVSPost2010Prop34
280
     0
102
RTVSPost2010PropOp34
 70
     1
102
RTVSPost2010Prop35
280
     0
102
RTVSPost2010PropOp35
 70
     1
102
RTVSPost2010Prop36
280
     0
102
RTVSPost2010PropOp36
 70
     1
102
RTVSPost2010Prop37
 90
       50
102
RTVSPost2010PropOp37
 70
     1
102
RTVSPost2010Prop38
140
0.0
102
RTVSPost2010PropOp38
 70
     1
102
RTVSPost2010Prop39
140
1.0
102
RTVSPost2010PropOp39
 70
     1
102
RTVSPost2010Prop40
 90
        0
102
RTVSPost2010PropOp40
 70
     1
102
RTVSPost2010Prop41ColorIndex
 90
       18
102
RTVSPost2010Prop41ColorRGB
 90
        0
102
RTVSPost2010PropOp41
 70
     1
102
RTVSPost2010Prop42
 90
       50
102
RTVSPost2010PropOp42
 70
     1
102
RTVSPost2010Prop43
 90
        3
102
RTVSPost2010PropOp43
 70
     1
102
RTVSPost2010Prop44ColorIndex
 90
        5
102
RTVSPost2010Prop44ColorRGB
 90
      255
102
RTVSPost2010PropOp44
 70
     1
102
RTVSPost2010Prop45
280
     0
102
RTVSPost2010PropOp45
 70
     1
102
RTVSPost2010Prop46
 90
       50
102
RTVSPost2010PropOp46
 70
     1
102
RTVSPost2010Prop47
 90
       50
102
RTVSPost2010PropOp47
 70
     1
102
RTVSPost2010Prop48
 90
       50
102
RTVSPost2010PropOp48
 70
     1
102
RTVSPost2010Prop49
280
     0
102
RTVSPost2010PropOp49
 70
     1
102
RTVSPost2010Prop50
 90
       50
102
RTVSPost2010PropOp50
 70
     1
102
RTVSPost2010Prop51ColorIndex
 90
      256
102
RTVSPost2010Prop51ColorRGB
 90
-16777216
102
RTVSPost2010PropOp51
 70
     0
102
RTVSPost2010Prop52
140
1.0
102
RTVSPost2010PropOp52
 70
     0
102
RTVSPost2010Prop53
 90
        2
102
RTVSPost2010PropOp53
 70
     1
102
RTVSPost2010Prop54
  1
strokes_ogs.tif
102
RTVSPost2010PropOp54
 70
     1
102
RTVSPost2010Prop55
280
     0
102
RTVSPost2010PropOp55
 70
     1
102
RTVSPost2010Prop56
140
1.0
102
RTVSPost2010PropOp56
 70
     1
102
RTVSPost2010Prop57
140
1.0
102
RTVSPost2010PropOp57
 70
     1
  0
XRECORD
  5
5D1
102
{ACAD_REACTORS
330
5D0
102
}
330
5D0
100
AcDbXrecord
280
     1
102
RTVSPropertyOp0
 70
     0
102
RTVSPropertyOp1
 70
     0
102
RTVSPropertyOp2
 70
     0
102
RTVSPropertyOp3
 70
     0
102
RTVSPropertyOp4
 70
     0
102
RTVSPropertyOp5
 70
     0
102
RTVSPropertyOp6
 70
     0
102
RTVSPropertyOp7
 70
     0
102
RTVSPropertyOp8
 70
     0
102
RTVSPropertyOp9
 70
     0
102
RTVSPropertyOp10
 70
     0
102
RTVSPropertyOp11
 70
     0
102
RTVSPropertyOp12
 70
     0
102
RTVSPropertyOp13
 70
     0
102
RTVSPropertyOp14
 70
     0
102
RTVSPropertyOp15
 70
     0
102
RTVSPropertyOp16
 70
     0
102
RTVSPropertyOp17
 70
     0
102
RTVSPropertyOp18
 70
     0
102
RTVSPropertyOp19
 70
     0
102
RTVSPropertyOp20
 70
     0
102
RTVSPropertyOp21
 70
     0
102
RTVSPropertyOp22
 70
     0
102
RTVSPropertyOp23
 70
     0
102
RTVSPropertyOp24
 70
     0
102
RTVSPropertyOp25
 70
     0
102
RTVSPropertyOp26
 70
     0
102
RTVSPropertyOp27
 70
     0
102
RTVSPropertyOp28
 70
     1
102
RTVSPropertyOp29
 70
     1
102
RTVSPropertyOp30
 70
     1
102
RTVSPropertyOp31
 70
     1
102
RTVSPropertyOp32
 70
     1
102
RTVSPropertyOp33
 70
     1
102
RTVSPropertyOp34
 70
     1
102
RTVSPropertyOp35
 70
     1
102
RTVSPropertyOp36
 70
     1
102
RTVSPropertyOp37
 70
     1
102
RTVSPropertyOp38
 70
     1
102
RTVSPropertyOp39
 70
     1
102
RTVSPropertyOp40
 70
     1
102
RTVSPropertyOp41
 70
     1
102
RTVSPropertyOp42
 70
     1
102
RTVSPropertyOp43
 70
     1
102
RTVSPropertyOp44
 70
     1
102
RTVSPropertyOp45
 70
     1
102
RTVSPropertyOp46
 70
     1
102
RTVSPropertyOp47
 70
     1
102
RTVSPropertyOp48
 70
     1
102
RTVSPropertyOp49
 70
     1
102
RTVSPropertyOp50
 70
     1
102
RTVSPropertyOp51
 70
     0
102
RTVSPropertyOp52
 70
     0
102
RTVSPropertyOp53
 70
     1
102
RTVSPropertyOp54
 70
     1
102
RTVSPropertyOp55
 70
     1
102
RTVSPropertyOp56
 70
     1
102
RTVSPropertyOp57
 70
     1
102
RTVSPost2010Prop28
280
     0
102
RTVSPost2010PropOp28
 70
     1
102
RTVSPost2010Prop29
280
     1
102
RTVSPost2010PropOp29
 70
     1
102
RTVSPost2010Prop30
280
     1
102
RTVSPost2010PropOp30
 70
     1
102
RTVSPost2010Prop31
280
     0
102
RTVSPost2010PropOp31
 70
     1
102
RTVSPost2010Prop32
280
     0
102
RTVSPost2010PropOp32
 70
     1
102
RTVSPost2010Prop33
280
     0
102
RTVSPost2010PropOp33
 70
     1
102
RTVSPost2010Prop34
280
     0
102
RTVSPost2010PropOp34
 70
     1
102
RTVSPost2010Prop35
280
     0
102
RTVSPost2010PropOp35
 70
     1
102
RTVSPost2010Prop36
280
     0
102
RTVSPost2010PropOp36
 70
     1
102
RTVSPost2010Prop37
 90
       50
102
RTVSPost2010PropOp37
 70
     1
102
RTVSPost2010Prop38
140
0.0
102
RTVSPost2010PropOp38
 70
     1
102
RTVSPost2010Prop39
140
1.0
102
RTVSPost2010PropOp39
 70
     1
102
RTVSPost2010Prop40
 90
        0
102
RTVSPost2010PropOp40
 70
     1
102
RTVSPost2010Prop41ColorIndex
 90
       18
102
RTVSPost2010Prop41ColorRGB
 90
        0
102
RTVSPost2010PropOp41
 70
     1
102
RTVSPost2010Prop42
 90
       50
102
RTVSPost2010PropOp42
 70
     1
102
RTVSPost2010Prop43
 90
        3
102
RTVSPost2010PropOp43
 70
     1
102
RTVSPost2010Prop44ColorIndex
 90
        5
102
RTVSPost2010Prop44ColorRGB
 90
      255
102
RTVSPost2010PropOp44
 70
     1
102
RTVSPost2010Prop45
280
     0
102
RTVSPost2010PropOp45
 70
     1
102
RTVSPost2010Prop46
 90
       50
102
RTVSPost2010PropOp46
 70
     1
102
RTVSPost2010Prop47
 90
       50
102
RTVSPost2010PropOp47
 70
     1
102
RTVSPost2010Prop48
 90
       50
102
RTVSPost2010PropOp48
 70
     1
102
RTVSPost2010Prop49
280
     0
102
RTVSPost2010PropOp49
 70
     1
102
RTVSPost2010Prop50
 90
       50
102
RTVSPost2010PropOp50
 70
     1
102
RTVSPost2010Prop51ColorIndex
 90
      256
102
RTVSPost2010Prop51ColorRGB
 90
-16777216
102
RTVSPost2010PropOp51
 70
     0
102
RTVSPost2010Prop52
140
1.0
102
RTVSPost2010PropOp52
 70
     0
102
RTVSPost2010Prop53
 90
        2
102
RTVSPost2010PropOp53
 70
     1
102
RTVSPost2010Prop54
  1
strokes_ogs.tif
102
RTVSPost2010PropOp54
 70
     1
102
RTVSPost2010Prop55
280
     0
102
RTVSPost2010PropOp55
 70
     1
102
RTVSPost2010Prop56
140
1.0
102
RTVSPost2010PropOp56
 70
     1
102
RTVSPost2010Prop57
140
1.0
102
RTVSPost2010PropOp57
 70
     1
  0
XRECORD
  5
5AF
102
{ACAD_REACTORS
330
5AE
102
}
330
5AE
100
AcDbXrecord
280
     1
102
RTVSPropertyOp0
 70
     1
102
RTVSPropertyOp1
 70
     1
102
RTVSPropertyOp2
 70
     1
102
RTVSPropertyOp3
 70
     1
102
RTVSPropertyOp4
 70
     1
102
RTVSPropertyOp5
 70
     1
102
RTVSPropertyOp6
 70
     1
102
RTVSPropertyOp7
 70
     1
102
RTVSPropertyOp8
 70
     1
102
RTVSPropertyOp9
 70
     1
102
RTVSPropertyOp10
 70
     1
102
RTVSPropertyOp11
 70
     1
102
RTVSPropertyOp12
 70
     1
102
RTVSPropertyOp13
 70
     1
102
RTVSPropertyOp14
 70
     1
102
RTVSPropertyOp15
 70
     1
102
RTVSPropertyOp16
 70
     1
102
RTVSPropertyOp17
 70
     1
102
RTVSPropertyOp18
 70
     1
102
RTVSPropertyOp19
 70
     1
102
RTVSPropertyOp20
 70
     1
102
RTVSPropertyOp21
 70
     1
102
RTVSPropertyOp22
 70
     1
102
RTVSPropertyOp23
 70
     1
102
RTVSPropertyOp24
 70
     1
102
RTVSPropertyOp25
 70
     1
102
RTVSPropertyOp26
 70
     1
102
RTVSPropertyOp27
 70
     1
102
RTVSPropertyOp28
 70
     1
102
RTVSPropertyOp29
 70
     1
102
RTVSPropertyOp30
 70
     1
102
RTVSPropertyOp31
 70
     1
102
RTVSPropertyOp32
 70
     1
102
RTVSPropertyOp33
 70
     1
102
RTVSPropertyOp34
 70
     1
102
RTVSPropertyOp35
 70
     1
102
RTVSPropertyOp36
 70
     1
102
RTVSPropertyOp37
 70
     1
102
RTVSPropertyOp38
 70
     1
102
RTVSPropertyOp39
 70
     1
102
RTVSPropertyOp40
 70
     1
102
RTVSPropertyOp41
 70
     1
102
RTVSPropertyOp42
 70
     1
102
RTVSPropertyOp43
 70
     1
102
RTVSPropertyOp44
 70
     1
102
RTVSPropertyOp45
 70
     1
102
RTVSPropertyOp46
 70
     1
102
RTVSPropertyOp47
 70
     1
102
RTVSPropertyOp48
 70
     1
102
RTVSPropertyOp49
 70
     1
102
RTVSPropertyOp50
 70
     1
102
RTVSPropertyOp51
 70
     0
102
RTVSPropertyOp52
 70
     0
102
RTVSPropertyOp53
 70
     1
102
RTVSPropertyOp54
 70
     1
102
RTVSPropertyOp55
 70
     1
102
RTVSPropertyOp56
 70
     1
102
RTVSPropertyOp57
 70
     1
102
RTVSPost2010Prop28
280
     0
102
RTVSPost2010PropOp28
 70
     1
102
RTVSPost2010Prop29
280
     1
102
RTVSPost2010PropOp29
 70
     1
102
RTVSPost2010Prop30
280
     1
102
RTVSPost2010PropOp30
 70
     1
102
RTVSPost2010Prop31
280
     0
102
RTVSPost2010PropOp31
 70
     1
102
RTVSPost2010Prop32
280
     0
102
RTVSPost2010PropOp32
 70
     1
102
RTVSPost2010Prop33
280
     0
102
RTVSPost2010PropOp33
 70
     1
102
RTVSPost2010Prop34
280
     0
102
RTVSPost2010PropOp34
 70
     1
102
RTVSPost2010Prop35
280
     0
102
RTVSPost2010PropOp35
 70
     1
102
RTVSPost2010Prop36
280
     0
102
RTVSPost2010PropOp36
 70
     1
102
RTVSPost2010Prop37
 90
       50
102
RTVSPost2010PropOp37
 70
     1
102
RTVSPost2010Prop38
140
0.0
102
RTVSPost2010PropOp38
 70
     1
102
RTVSPost2010Prop39
140
1.0
102
RTVSPost2010PropOp39
 70
     1
102
RTVSPost2010Prop40
 90
        0
102
RTVSPost2010PropOp40
 70
     1
102
RTVSPost2010Prop41ColorIndex
 90
       18
102
RTVSPost2010Prop41ColorRGB
 90
        0
102
RTVSPost2010PropOp41
 70
     1
102
RTVSPost2010Prop42
 90
       50
102
RTVSPost2010PropOp42
 70
     1
102
RTVSPost2010Prop43
 90
        3
102
RTVSPost2010PropOp43
 70
     1
102
RTVSPost2010Prop44ColorIndex
 90
        5
102
RTVSPost2010Prop44ColorRGB
 90
      255
102
RTVSPost2010PropOp44
 70
     1
102
RTVSPost2010Prop45
280
     0
102
RTVSPost2010PropOp45
 70
     1
102
RTVSPost2010Prop46
 90
       50
102
RTVSPost2010PropOp46
 70
     1
102
RTVSPost2010Prop47
 90
       50
102
RTVSPost2010PropOp47
 70
     1
102
RTVSPost2010Prop48
 90
       50
102
RTVSPost2010PropOp48
 70
     1
102
RTVSPost2010Prop49
280
     0
102
RTVSPost2010PropOp49
 70
     1
102
RTVSPost2010Prop50
 90
       50
102
RTVSPost2010PropOp50
 70
     1
102
RTVSPost2010Prop51ColorIndex
 90
      256
102
RTVSPost2010Prop51ColorRGB
 90
-16777216
102
RTVSPost2010PropOp51
 70
     0
102
RTVSPost2010Prop52
140
1.0
102
RTVSPost2010PropOp52
 70
     0
102
RTVSPost2010Prop53
 90
        2
102
RTVSPost2010PropOp53
 70
     1
102
RTVSPost2010Prop54
  1
strokes_ogs.tif
102
RTVSPost2010PropOp54
 70
     1
102
RTVSPost2010Prop55
280
     0
102
RTVSPost2010PropOp55
 70
     1
102
RTVSPost2010Prop56
140
1.0
102
RTVSPost2010PropOp56
 70
     1
102
RTVSPost2010Prop57
140
1.0
102
RTVSPost2010PropOp57
 70
     1
  0
XRECORD
  5
5DD
102
{ACAD_REACTORS
330
5DC
102
}
330
5DC
100
AcDbXrecord
280
     1
102
RTVSPropertyOp0
 70
     1
102
RTVSPropertyOp1
 70
     1
102
RTVSPropertyOp2
 70
     1
102
RTVSPropertyOp3
 70
     1
102
RTVSPropertyOp4
 70
     1
102
RTVSPropertyOp5
 70
     1
102
RTVSPropertyOp6
 70
     1
102
RTVSPropertyOp7
 70
     1
102
RTVSPropertyOp8
 70
     1
102
RTVSPropertyOp9
 70
     1
102
RTVSPropertyOp10
 70
     1
102
RTVSPropertyOp11
 70
     1
102
RTVSPropertyOp12
 70
     1
102
RTVSPropertyOp13
 70
     1
102
RTVSPropertyOp14
 70
     1
102
RTVSPropertyOp15
 70
     1
102
RTVSPropertyOp16
 70
     1
102
RTVSPropertyOp17
 70
     1
102
RTVSPropertyOp18
 70
     1
102
RTVSPropertyOp19
 70
     1
102
RTVSPropertyOp20
 70
     1
102
RTVSPropertyOp21
 70
     1
102
RTVSPropertyOp22
 70
     1
102
RTVSPropertyOp23
 70
     1
102
RTVSPropertyOp24
 70
     1
102
RTVSPropertyOp25
 70
     1
102
RTVSPropertyOp26
 70
     1
102
RTVSPropertyOp27
 70
     1
102
RTVSPropertyOp28
 70
     1
102
RTVSPropertyOp29
 70
     1
102
RTVSPropertyOp30
 70
     1
102
RTVSPropertyOp31
 70
     1
102
RTVSPropertyOp32
 70
     1
102
RTVSPropertyOp33
 70
     1
102
RTVSPropertyOp34
 70
     1
102
RTVSPropertyOp35
 70
     1
102
RTVSPropertyOp36
 70
     1
102
RTVSPropertyOp37
 70
     1
102
RTVSPropertyOp38
 70
     1
102
RTVSPropertyOp39
 70
     1
102
RTVSPropertyOp40
 70
     1
102
RTVSPropertyOp41
 70
     1
102
RTVSPropertyOp42
 70
     1
102
RTVSPropertyOp43
 70
     1
102
RTVSPropertyOp44
 70
     1
102
RTVSPropertyOp45
 70
     1
102
RTVSPropertyOp46
 70
     1
102
RTVSPropertyOp47
 70
     1
102
RTVSPropertyOp48
 70
     1
102
RTVSPropertyOp49
 70
     1
102
RTVSPropertyOp50
 70
     1
102
RTVSPropertyOp51
 70
     0
102
RTVSPropertyOp52
 70
     0
102
RTVSPropertyOp53
 70
     1
102
RTVSPropertyOp54
 70
     1
102
RTVSPropertyOp55
 70
     1
102
RTVSPropertyOp56
 70
     1
102
RTVSPropertyOp57
 70
     1
102
RTVSPost2010Prop28
280
     0
102
RTVSPost2010PropOp28
 70
     1
102
RTVSPost2010Prop29
280
     1
102
RTVSPost2010PropOp29
 70
     1
102
RTVSPost2010Prop30
280
     1
102
RTVSPost2010PropOp30
 70
     1
102
RTVSPost2010Prop31
280
     0
102
RTVSPost2010PropOp31
 70
     1
102
RTVSPost2010Prop32
280
     0
102
RTVSPost2010PropOp32
 70
     1
102
RTVSPost2010Prop33
280
     0
102
RTVSPost2010PropOp33
 70
     1
102
RTVSPost2010Prop34
280
     0
102
RTVSPost2010PropOp34
 70
     1
102
RTVSPost2010Prop35
280
     0
102
RTVSPost2010PropOp35
 70
     1
102
RTVSPost2010Prop36
280
     0
102
RTVSPost2010PropOp36
 70
     1
102
RTVSPost2010Prop37
 90
       50
102
RTVSPost2010PropOp37
 70
     1
102
RTVSPost2010Prop38
140
0.0
102
RTVSPost2010PropOp38
 70
     1
102
RTVSPost2010Prop39
140
1.0
102
RTVSPost2010PropOp39
 70
     1
102
RTVSPost2010Prop40
 90
        0
102
RTVSPost2010PropOp40
 70
     1
102
RTVSPost2010Prop41ColorIndex
 90
       18
102
RTVSPost2010Prop41ColorRGB
 90
        0
102
RTVSPost2010PropOp41
 70
     1
102
RTVSPost2010Prop42
 90
       50
102
RTVSPost2010PropOp42
 70
     1
102
RTVSPost2010Prop43
 90
        3
102
RTVSPost2010PropOp43
 70
     1
102
RTVSPost2010Prop44ColorIndex
 90
        5
102
RTVSPost2010Prop44ColorRGB
 90
      255
102
RTVSPost2010PropOp44
 70
     1
102
RTVSPost2010Prop45
280
     0
102
RTVSPost2010PropOp45
 70
     1
102
RTVSPost2010Prop46
 90
       50
102
RTVSPost2010PropOp46
 70
     1
102
RTVSPost2010Prop47
 90
       50
102
RTVSPost2010PropOp47
 70
     1
102
RTVSPost2010Prop48
 90
       50
102
RTVSPost2010PropOp48
 70
     1
102
RTVSPost2010Prop49
280
     0
102
RTVSPost2010PropOp49
 70
     1
102
RTVSPost2010Prop50
 90
       50
102
RTVSPost2010PropOp50
 70
     1
102
RTVSPost2010Prop51ColorIndex
 90
      256
102
RTVSPost2010Prop51ColorRGB
 90
-16777216
102
RTVSPost2010PropOp51
 70
     0
102
RTVSPost2010Prop52
140
1.0
102
RTVSPost2010PropOp52
 70
     0
102
RTVSPost2010Prop53
 90
        2
102
RTVSPost2010PropOp53
 70
     1
102
RTVSPost2010Prop54
  1
strokes_ogs.tif
102
RTVSPost2010PropOp54
 70
     1
102
RTVSPost2010Prop55
280
     0
102
RTVSPost2010PropOp55
 70
     1
102
RTVSPost2010Prop56
140
1.0
102
RTVSPost2010PropOp56
 70
     1
102
RTVSPost2010Prop57
140
1.0
102
RTVSPost2010PropOp57
 70
     1
  0
XRECORD
  5
5DB
102
{ACAD_REACTORS
330
5DA
102
}
330
5DA
100
AcDbXrecord
280
     1
102
RTVSPropertyOp0
 70
     1
102
RTVSPropertyOp1
 70
     1
102
RTVSPropertyOp2
 70
     1
102
RTVSPropertyOp3
 70
     1
102
RTVSPropertyOp4
 70
     1
102
RTVSPropertyOp5
 70
     1
102
RTVSPropertyOp6
 70
     1
102
RTVSPropertyOp7
 70
     1
102
RTVSPropertyOp8
 70
     1
102
RTVSPropertyOp9
 70
     1
102
RTVSPropertyOp10
 70
     1
102
RTVSPropertyOp11
 70
     1
102
RTVSPropertyOp12
 70
     1
102
RTVSPropertyOp13
 70
     1
102
RTVSPropertyOp14
 70
     1
102
RTVSPropertyOp15
 70
     1
102
RTVSPropertyOp16
 70
     1
102
RTVSPropertyOp17
 70
     1
102
RTVSPropertyOp18
 70
     1
102
RTVSPropertyOp19
 70
     1
102
RTVSPropertyOp20
 70
     1
102
RTVSPropertyOp21
 70
     1
102
RTVSPropertyOp22
 70
     1
102
RTVSPropertyOp23
 70
     1
102
RTVSPropertyOp24
 70
     1
102
RTVSPropertyOp25
 70
     1
102
RTVSPropertyOp26
 70
     1
102
RTVSPropertyOp27
 70
     1
102
RTVSPropertyOp28
 70
     1
102
RTVSPropertyOp29
 70
     1
102
RTVSPropertyOp30
 70
     1
102
RTVSPropertyOp31
 70
     1
102
RTVSPropertyOp32
 70
     1
102
RTVSPropertyOp33
 70
     1
102
RTVSPropertyOp34
 70
     1
102
RTVSPropertyOp35
 70
     1
102
RTVSPropertyOp36
 70
     1
102
RTVSPropertyOp37
 70
     1
102
RTVSPropertyOp38
 70
     1
102
RTVSPropertyOp39
 70
     1
102
RTVSPropertyOp40
 70
     1
102
RTVSPropertyOp41
 70
     1
102
RTVSPropertyOp42
 70
     1
102
RTVSPropertyOp43
 70
     1
102
RTVSPropertyOp44
 70
     1
102
RTVSPropertyOp45
 70
     1
102
RTVSPropertyOp46
 70
     1
102
RTVSPropertyOp47
 70
     1
102
RTVSPropertyOp48
 70
     1
102
RTVSPropertyOp49
 70
     1
102
RTVSPropertyOp50
 70
     1
102
RTVSPropertyOp51
 70
     0
102
RTVSPropertyOp52
 70
     0
102
RTVSPropertyOp53
 70
     1
102
RTVSPropertyOp54
 70
     1
102
RTVSPropertyOp55
 70
     1
102
RTVSPropertyOp56
 70
     1
102
RTVSPropertyOp57
 70
     1
102
RTVSPost2010Prop28
280
     0
102
RTVSPost2010PropOp28
 70
     1
102
RTVSPost2010Prop29
280
     1
102
RTVSPost2010PropOp29
 70
     1
102
RTVSPost2010Prop30
280
     1
102
RTVSPost2010PropOp30
 70
     1
102
RTVSPost2010Prop31
280
     0
102
RTVSPost2010PropOp31
 70
     1
102
RTVSPost2010Prop32
280
     0
102
RTVSPost2010PropOp32
 70
     1
102
RTVSPost2010Prop33
280
     0
102
RTVSPost2010PropOp33
 70
     1
102
RTVSPost2010Prop34
280
     0
102
RTVSPost2010PropOp34
 70
     1
102
RTVSPost2010Prop35
280
     0
102
RTVSPost2010PropOp35
 70
     1
102
RTVSPost2010Prop36
280
     0
102
RTVSPost2010PropOp36
 70
     1
102
RTVSPost2010Prop37
 90
       50
102
RTVSPost2010PropOp37
 70
     1
102
RTVSPost2010Prop38
140
0.0
102
RTVSPost2010PropOp38
 70
     1
102
RTVSPost2010Prop39
140
1.0
102
RTVSPost2010PropOp39
 70
     1
102
RTVSPost2010Prop40
 90
        0
102
RTVSPost2010PropOp40
 70
     1
102
RTVSPost2010Prop41ColorIndex
 90
       18
102
RTVSPost2010Prop41ColorRGB
 90
        0
102
RTVSPost2010PropOp41
 70
     1
102
RTVSPost2010Prop42
 90
       50
102
RTVSPost2010PropOp42
 70
     1
102
RTVSPost2010Prop43
 90
        3
102
RTVSPost2010PropOp43
 70
     1
102
RTVSPost2010Prop44ColorIndex
 90
        5
102
RTVSPost2010Prop44ColorRGB
 90
      255
102
RTVSPost2010PropOp44
 70
     1
102
RTVSPost2010Prop45
280
     0
102
RTVSPost2010PropOp45
 70
     1
102
RTVSPost2010Prop46
 90
       50
102
RTVSPost2010PropOp46
 70
     1
102
RTVSPost2010Prop47
 90
       50
102
RTVSPost2010PropOp47
 70
     1
102
RTVSPost2010Prop48
 90
       50
102
RTVSPost2010PropOp48
 70
     1
102
RTVSPost2010Prop49
280
     0
102
RTVSPost2010PropOp49
 70
     1
102
RTVSPost2010Prop50
 90
       50
102
RTVSPost2010PropOp50
 70
     1
102
RTVSPost2010Prop51ColorIndex
 90
      256
102
RTVSPost2010Prop51ColorRGB
 90
-16777216
102
RTVSPost2010PropOp51
 70
     0
102
RTVSPost2010Prop52
140
1.0
102
RTVSPost2010PropOp52
 70
     0
102
RTVSPost2010Prop53
 90
        2
102
RTVSPost2010PropOp53
 70
     1
102
RTVSPost2010Prop54
  1
strokes_ogs.tif
102
RTVSPost2010PropOp54
 70
     1
102
RTVSPost2010Prop55
280
     0
102
RTVSPost2010PropOp55
 70
     1
102
RTVSPost2010Prop56
140
1.0
102
RTVSPost2010PropOp56
 70
     1
102
RTVSPost2010Prop57
140
1.0
102
RTVSPost2010PropOp57
 70
     1
  0
XRECORD
  5
5D5
102
{ACAD_REACTORS
330
5D4
102
}
330
5D4
100
AcDbXrecord
280
     1
102
RTVSPropertyOp0
 70
     1
102
RTVSPropertyOp1
 70
     1
102
RTVSPropertyOp2
 70
     1
102
RTVSPropertyOp3
 70
     1
102
RTVSPropertyOp4
 70
     1
102
RTVSPropertyOp5
 70
     1
102
RTVSPropertyOp6
 70
     1
102
RTVSPropertyOp7
 70
     1
102
RTVSPropertyOp8
 70
     1
102
RTVSPropertyOp9
 70
     1
102
RTVSPropertyOp10
 70
     1
102
RTVSPropertyOp11
 70
     1
102
RTVSPropertyOp12
 70
     1
102
RTVSPropertyOp13
 70
     1
102
RTVSPropertyOp14
 70
     1
102
RTVSPropertyOp15
 70
     1
102
RTVSPropertyOp16
 70
     1
102
RTVSPropertyOp17
 70
     1
102
RTVSPropertyOp18
 70
     1
102
RTVSPropertyOp19
 70
     1
102
RTVSPropertyOp20
 70
     1
102
RTVSPropertyOp21
 70
     1
102
RTVSPropertyOp22
 70
     1
102
RTVSPropertyOp23
 70
     1
102
RTVSPropertyOp24
 70
     1
102
RTVSPropertyOp25
 70
     1
102
RTVSPropertyOp26
 70
     1
102
RTVSPropertyOp27
 70
     1
102
RTVSPropertyOp28
 70
     1
102
RTVSPropertyOp29
 70
     1
102
RTVSPropertyOp30
 70
     1
102
RTVSPropertyOp31
 70
     1
102
RTVSPropertyOp32
 70
     1
102
RTVSPropertyOp33
 70
     1
102
RTVSPropertyOp34
 70
     1
102
RTVSPropertyOp35
 70
     1
102
RTVSPropertyOp36
 70
     1
102
RTVSPropertyOp37
 70
     1
102
RTVSPropertyOp38
 70
     1
102
RTVSPropertyOp39
 70
     1
102
RTVSPropertyOp40
 70
     1
102
RTVSPropertyOp41
 70
     1
102
RTVSPropertyOp42
 70
     1
102
RTVSPropertyOp43
 70
     1
102
RTVSPropertyOp44
 70
     1
102
RTVSPropertyOp45
 70
     1
102
RTVSPropertyOp46
 70
     1
102
RTVSPropertyOp47
 70
     1
102
RTVSPropertyOp48
 70
     1
102
RTVSPropertyOp49
 70
     1
102
RTVSPropertyOp50
 70
     1
102
RTVSPropertyOp51
 70
     0
102
RTVSPropertyOp52
 70
     0
102
RTVSPropertyOp53
 70
     1
102
RTVSPropertyOp54
 70
     1
102
RTVSPropertyOp55
 70
     1
102
RTVSPropertyOp56
 70
     1
102
RTVSPropertyOp57
 70
     1
102
RTVSPost2010Prop28
280
     0
102
RTVSPost2010PropOp28
 70
     1
102
RTVSPost2010Prop29
280
     1
102
RTVSPost2010PropOp29
 70
     1
102
RTVSPost2010Prop30
280
     1
102
RTVSPost2010PropOp30
 70
     1
102
RTVSPost2010Prop31
280
     0
102
RTVSPost2010PropOp31
 70
     1
102
RTVSPost2010Prop32
280
     0
102
RTVSPost2010PropOp32
 70
     1
102
RTVSPost2010Prop33
280
     0
102
RTVSPost2010PropOp33
 70
     1
102
RTVSPost2010Prop34
280
     0
102
RTVSPost2010PropOp34
 70
     1
102
RTVSPost2010Prop35
280
     0
102
RTVSPost2010PropOp35
 70
     1
102
RTVSPost2010Prop36
280
     0
102
RTVSPost2010PropOp36
 70
     1
102
RTVSPost2010Prop37
 90
       50
102
RTVSPost2010PropOp37
 70
     1
102
RTVSPost2010Prop38
140
0.0
102
RTVSPost2010PropOp38
 70
     1
102
RTVSPost2010Prop39
140
1.0
102
RTVSPost2010PropOp39
 70
     1
102
RTVSPost2010Prop40
 90
        0
102
RTVSPost2010PropOp40
 70
     1
102
RTVSPost2010Prop41ColorIndex
 90
       18
102
RTVSPost2010Prop41ColorRGB
 90
        0
102
RTVSPost2010PropOp41
 70
     1
102
RTVSPost2010Prop42
 90
       50
102
RTVSPost2010PropOp42
 70
     1
102
RTVSPost2010Prop43
 90
        3
102
RTVSPost2010PropOp43
 70
     1
102
RTVSPost2010Prop44ColorIndex
 90
        5
102
RTVSPost2010Prop44ColorRGB
 90
      255
102
RTVSPost2010PropOp44
 70
     1
102
RTVSPost2010Prop45
280
     0
102
RTVSPost2010PropOp45
 70
     1
102
RTVSPost2010Prop46
 90
       50
102
RTVSPost2010PropOp46
 70
     1
102
RTVSPost2010Prop47
 90
       50
102
RTVSPost2010PropOp47
 70
     1
102
RTVSPost2010Prop48
 90
       50
102
RTVSPost2010PropOp48
 70
     1
102
RTVSPost2010Prop49
280
     0
102
RTVSPost2010PropOp49
 70
     1
102
RTVSPost2010Prop50
 90
       50
102
RTVSPost2010PropOp50
 70
     1
102
RTVSPost2010Prop51ColorIndex
 90
      256
102
RTVSPost2010Prop51ColorRGB
 90
-16777216
102
RTVSPost2010PropOp51
 70
     0
102
RTVSPost2010Prop52
140
1.0
102
RTVSPost2010PropOp52
 70
     0
102
RTVSPost2010Prop53
 90
        2
102
RTVSPost2010PropOp53
 70
     1
102
RTVSPost2010Prop54
  1
strokes_ogs.tif
102
RTVSPost2010PropOp54
 70
     1
102
RTVSPost2010Prop55
280
     0
102
RTVSPost2010PropOp55
 70
     1
102
RTVSPost2010Prop56
140
1.0
102
RTVSPost2010PropOp56
 70
     1
102
RTVSPost2010Prop57
140
1.0
102
RTVSPost2010PropOp57
 70
     1
  0
XRECORD
  5
5D7
102
{ACAD_REACTORS
330
5D6
102
}
330
5D6
100
AcDbXrecord
280
     1
102
RTVSPropertyOp0
 70
     1
102
RTVSPropertyOp1
 70
     1
102
RTVSPropertyOp2
 70
     1
102
RTVSPropertyOp3
 70
     1
102
RTVSPropertyOp4
 70
     1
102
RTVSPropertyOp5
 70
     1
102
RTVSPropertyOp6
 70
     1
102
RTVSPropertyOp7
 70
     1
102
RTVSPropertyOp8
 70
     1
102
RTVSPropertyOp9
 70
     1
102
RTVSPropertyOp10
 70
     1
102
RTVSPropertyOp11
 70
     1
102
RTVSPropertyOp12
 70
     1
102
RTVSPropertyOp13
 70
     1
102
RTVSPropertyOp14
 70
     1
102
RTVSPropertyOp15
 70
     1
102
RTVSPropertyOp16
 70
     1
102
RTVSPropertyOp17
 70
     1
102
RTVSPropertyOp18
 70
     1
102
RTVSPropertyOp19
 70
     1
102
RTVSPropertyOp20
 70
     1
102
RTVSPropertyOp21
 70
     1
102
RTVSPropertyOp22
 70
     1
102
RTVSPropertyOp23
 70
     1
102
RTVSPropertyOp24
 70
     1
102
RTVSPropertyOp25
 70
     1
102
RTVSPropertyOp26
 70
     1
102
RTVSPropertyOp27
 70
     1
102
RTVSPropertyOp28
 70
     1
102
RTVSPropertyOp29
 70
     1
102
RTVSPropertyOp30
 70
     1
102
RTVSPropertyOp31
 70
     1
102
RTVSPropertyOp32
 70
     1
102
RTVSPropertyOp33
 70
     1
102
RTVSPropertyOp34
 70
     1
102
RTVSPropertyOp35
 70
     1
102
RTVSPropertyOp36
 70
     1
102
RTVSPropertyOp37
 70
     1
102
RTVSPropertyOp38
 70
     1
102
RTVSPropertyOp39
 70
     1
102
RTVSPropertyOp40
 70
     1
102
RTVSPropertyOp41
 70
     1
102
RTVSPropertyOp42
 70
     1
102
RTVSPropertyOp43
 70
     1
102
RTVSPropertyOp44
 70
     1
102
RTVSPropertyOp45
 70
     1
102
RTVSPropertyOp46
 70
     1
102
RTVSPropertyOp47
 70
     1
102
RTVSPropertyOp48
 70
     1
102
RTVSPropertyOp49
 70
     1
102
RTVSPropertyOp50
 70
     1
102
RTVSPropertyOp51
 70
     0
102
RTVSPropertyOp52
 70
     0
102
RTVSPropertyOp53
 70
     1
102
RTVSPropertyOp54
 70
     1
102
RTVSPropertyOp55
 70
     1
102
RTVSPropertyOp56
 70
     1
102
RTVSPropertyOp57
 70
     1
102
RTVSPost2010Prop28
280
     0
102
RTVSPost2010PropOp28
 70
     1
102
RTVSPost2010Prop29
280
     1
102
RTVSPost2010PropOp29
 70
     1
102
RTVSPost2010Prop30
280
     1
102
RTVSPost2010PropOp30
 70
     1
102
RTVSPost2010Prop31
280
     0
102
RTVSPost2010PropOp31
 70
     1
102
RTVSPost2010Prop32
280
     0
102
RTVSPost2010PropOp32
 70
     1
102
RTVSPost2010Prop33
280
     0
102
RTVSPost2010PropOp33
 70
     1
102
RTVSPost2010Prop34
280
     0
102
RTVSPost2010PropOp34
 70
     1
102
RTVSPost2010Prop35
280
     0
102
RTVSPost2010PropOp35
 70
     1
102
RTVSPost2010Prop36
280
     0
102
RTVSPost2010PropOp36
 70
     1
102
RTVSPost2010Prop37
 90
       50
102
RTVSPost2010PropOp37
 70
     1
102
RTVSPost2010Prop38
140
0.0
102
RTVSPost2010PropOp38
 70
     1
102
RTVSPost2010Prop39
140
1.0
102
RTVSPost2010PropOp39
 70
     1
102
RTVSPost2010Prop40
 90
        0
102
RTVSPost2010PropOp40
 70
     1
102
RTVSPost2010Prop41ColorIndex
 90
       18
102
RTVSPost2010Prop41ColorRGB
 90
        0
102
RTVSPost2010PropOp41
 70
     1
102
RTVSPost2010Prop42
 90
       50
102
RTVSPost2010PropOp42
 70
     1
102
RTVSPost2010Prop43
 90
        3
102
RTVSPost2010PropOp43
 70
     1
102
RTVSPost2010Prop44ColorIndex
 90
        5
102
RTVSPost2010Prop44ColorRGB
 90
      255
102
RTVSPost2010PropOp44
 70
     1
102
RTVSPost2010Prop45
280
     0
102
RTVSPost2010PropOp45
 70
     1
102
RTVSPost2010Prop46
 90
       50
102
RTVSPost2010PropOp46
 70
     1
102
RTVSPost2010Prop47
 90
       50
102
RTVSPost2010PropOp47
 70
     1
102
RTVSPost2010Prop48
 90
       50
102
RTVSPost2010PropOp48
 70
     1
102
RTVSPost2010Prop49
280
     0
102
RTVSPost2010PropOp49
 70
     1
102
RTVSPost2010Prop50
 90
       50
102
RTVSPost2010PropOp50
 70
     1
102
RTVSPost2010Prop51ColorIndex
 90
      256
102
RTVSPost2010Prop51ColorRGB
 90
-16777216
102
RTVSPost2010PropOp51
 70
     0
102
RTVSPost2010Prop52
140
1.0
102
RTVSPost2010PropOp52
 70
     0
102
RTVSPost2010Prop53
 90
        2
102
RTVSPost2010PropOp53
 70
     1
102
RTVSPost2010Prop54
  1
strokes_ogs.tif
102
RTVSPost2010PropOp54
 70
     1
102
RTVSPost2010Prop55
280
     0
102
RTVSPost2010PropOp55
 70
     1
102
RTVSPost2010Prop56
140
1.0
102
RTVSPost2010PropOp56
 70
     1
102
RTVSPost2010Prop57
140
1.0
102
RTVSPost2010PropOp57
 70
     1
  0
XRECORD
  5
5C7
102
{ACAD_REACTORS
330
5C6
102
}
330
5C6
100
AcDbXrecord
280
     1
102
RTVSPropertyOp0
 70
     1
102
RTVSPropertyOp1
 70
     1
102
RTVSPropertyOp2
 70
     1
102
RTVSPropertyOp3
 70
     1
102
RTVSPropertyOp4
 70
     1
102
RTVSPropertyOp5
 70
     1
102
RTVSPropertyOp6
 70
     1
102
RTVSPropertyOp7
 70
     1
102
RTVSPropertyOp8
 70
     1
102
RTVSPropertyOp9
 70
     1
102
RTVSPropertyOp10
 70
     1
102
RTVSPropertyOp11
 70
     1
102
RTVSPropertyOp12
 70
     1
102
RTVSPropertyOp13
 70
     1
102
RTVSPropertyOp14
 70
     1
102
RTVSPropertyOp15
 70
     1
102
RTVSPropertyOp16
 70
     1
102
RTVSPropertyOp17
 70
     1
102
RTVSPropertyOp18
 70
     1
102
RTVSPropertyOp19
 70
     1
102
RTVSPropertyOp20
 70
     1
102
RTVSPropertyOp21
 70
     1
102
RTVSPropertyOp22
 70
     1
102
RTVSPropertyOp23
 70
     1
102
RTVSPropertyOp24
 70
     1
102
RTVSPropertyOp25
 70
     1
102
RTVSPropertyOp26
 70
     1
102
RTVSPropertyOp27
 70
     1
102
RTVSPropertyOp28
 70
     1
102
RTVSPropertyOp29
 70
     1
102
RTVSPropertyOp30
 70
     1
102
RTVSPropertyOp31
 70
     1
102
RTVSPropertyOp32
 70
     1
102
RTVSPropertyOp33
 70
     1
102
RTVSPropertyOp34
 70
     1
102
RTVSPropertyOp35
 70
     1
102
RTVSPropertyOp36
 70
     1
102
RTVSPropertyOp37
 70
     1
102
RTVSPropertyOp38
 70
     1
102
RTVSPropertyOp39
 70
     1
102
RTVSPropertyOp40
 70
     1
102
RTVSPropertyOp41
 70
     1
102
RTVSPropertyOp42
 70
     1
102
RTVSPropertyOp43
 70
     1
102
RTVSPropertyOp44
 70
     1
102
RTVSPropertyOp45
 70
     1
102
RTVSPropertyOp46
 70
     1
102
RTVSPropertyOp47
 70
     1
102
RTVSPropertyOp48
 70
     1
102
RTVSPropertyOp49
 70
     1
102
RTVSPropertyOp50
 70
     1
102
RTVSPropertyOp51
 70
     0
102
RTVSPropertyOp52
 70
     0
102
RTVSPropertyOp53
 70
     1
102
RTVSPropertyOp54
 70
     1
102
RTVSPropertyOp55
 70
     1
102
RTVSPropertyOp56
 70
     1
102
RTVSPropertyOp57
 70
     1
102
RTVSPost2010Prop28
280
     0
102
RTVSPost2010PropOp28
 70
     1
102
RTVSPost2010Prop29
280
     1
102
RTVSPost2010PropOp29
 70
     1
102
RTVSPost2010Prop30
280
     1
102
RTVSPost2010PropOp30
 70
     1
102
RTVSPost2010Prop31
280
     0
102
RTVSPost2010PropOp31
 70
     1
102
RTVSPost2010Prop32
280
     0
102
RTVSPost2010PropOp32
 70
     1
102
RTVSPost2010Prop33
280
     0
102
RTVSPost2010PropOp33
 70
     1
102
RTVSPost2010Prop34
280
     0
102
RTVSPost2010PropOp34
 70
     1
102
RTVSPost2010Prop35
280
     0
102
RTVSPost2010PropOp35
 70
     1
102
RTVSPost2010Prop36
280
     0
102
RTVSPost2010PropOp36
 70
     1
102
RTVSPost2010Prop37
 90
       50
102
RTVSPost2010PropOp37
 70
     1
102
RTVSPost2010Prop38
140
0.0
102
RTVSPost2010PropOp38
 70
     1
102
RTVSPost2010Prop39
140
1.0
102
RTVSPost2010PropOp39
 70
     1
102
RTVSPost2010Prop40
 90
        0
102
RTVSPost2010PropOp40
 70
     1
102
RTVSPost2010Prop41ColorIndex
 90
       18
102
RTVSPost2010Prop41ColorRGB
 90
        0
102
RTVSPost2010PropOp41
 70
     1
102
RTVSPost2010Prop42
 90
       50
102
RTVSPost2010PropOp42
 70
     1
102
RTVSPost2010Prop43
 90
        3
102
RTVSPost2010PropOp43
 70
     1
102
RTVSPost2010Prop44ColorIndex
 90
        5
102
RTVSPost2010Prop44ColorRGB
 90
      255
102
RTVSPost2010PropOp44
 70
     1
102
RTVSPost2010Prop45
280
     0
102
RTVSPost2010PropOp45
 70
     1
102
RTVSPost2010Prop46
 90
       50
102
RTVSPost2010PropOp46
 70
     1
102
RTVSPost2010Prop47
 90
       50
102
RTVSPost2010PropOp47
 70
     1
102
RTVSPost2010Prop48
 90
       50
102
RTVSPost2010PropOp48
 70
     1
102
RTVSPost2010Prop49
280
     0
102
RTVSPost2010PropOp49
 70
     1
102
RTVSPost2010Prop50
 90
       50
102
RTVSPost2010PropOp50
 70
     1
102
RTVSPost2010Prop51ColorIndex
 90
      256
102
RTVSPost2010Prop51ColorRGB
 90
-16777216
102
RTVSPost2010PropOp51
 70
     0
102
RTVSPost2010Prop52
140
1.0
102
RTVSPost2010PropOp52
 70
     0
102
RTVSPost2010Prop53
 90
        2
102
RTVSPost2010PropOp53
 70
     1
102
RTVSPost2010Prop54
  1
strokes_ogs.tif
102
RTVSPost2010PropOp54
 70
     1
102
RTVSPost2010Prop55
280
     0
102
RTVSPost2010PropOp55
 70
     1
102
RTVSPost2010Prop56
140
1.0
102
RTVSPost2010PropOp56
 70
     1
102
RTVSPost2010Prop57
140
1.0
102
RTVSPost2010PropOp57
 70
     1
  0
XRECORD
  5
5B1
102
{ACAD_REACTORS
330
5B0
102
}
330
5B0
100
AcDbXrecord
280
     1
102
RTVSPropertyOp0
 70
     1
102
RTVSPropertyOp1
 70
     1
102
RTVSPropertyOp2
 70
     1
102
RTVSPropertyOp3
 70
     1
102
RTVSPropertyOp4
 70
     1
102
RTVSPropertyOp5
 70
     1
102
RTVSPropertyOp6
 70
     1
102
RTVSPropertyOp7
 70
     1
102
RTVSPropertyOp8
 70
     1
102
RTVSPropertyOp9
 70
     1
102
RTVSPropertyOp10
 70
     1
102
RTVSPropertyOp11
 70
     1
102
RTVSPropertyOp12
 70
     1
102
RTVSPropertyOp13
 70
     1
102
RTVSPropertyOp14
 70
     1
102
RTVSPropertyOp15
 70
     1
102
RTVSPropertyOp16
 70
     1
102
RTVSPropertyOp17
 70
     1
102
RTVSPropertyOp18
 70
     1
102
RTVSPropertyOp19
 70
     1
102
RTVSPropertyOp20
 70
     1
102
RTVSPropertyOp21
 70
     1
102
RTVSPropertyOp22
 70
     1
102
RTVSPropertyOp23
 70
     1
102
RTVSPropertyOp24
 70
     1
102
RTVSPropertyOp25
 70
     1
102
RTVSPropertyOp26
 70
     1
102
RTVSPropertyOp27
 70
     1
102
RTVSPropertyOp28
 70
     1
102
RTVSPropertyOp29
 70
     1
102
RTVSPropertyOp30
 70
     1
102
RTVSPropertyOp31
 70
     1
102
RTVSPropertyOp32
 70
     1
102
RTVSPropertyOp33
 70
     1
102
RTVSPropertyOp34
 70
     1
102
RTVSPropertyOp35
 70
     1
102
RTVSPropertyOp36
 70
     1
102
RTVSPropertyOp37
 70
     1
102
RTVSPropertyOp38
 70
     1
102
RTVSPropertyOp39
 70
     1
102
RTVSPropertyOp40
 70
     1
102
RTVSPropertyOp41
 70
     1
102
RTVSPropertyOp42
 70
     1
102
RTVSPropertyOp43
 70
     1
102
RTVSPropertyOp44
 70
     1
102
RTVSPropertyOp45
 70
     1
102
RTVSPropertyOp46
 70
     1
102
RTVSPropertyOp47
 70
     1
102
RTVSPropertyOp48
 70
     1
102
RTVSPropertyOp49
 70
     1
102
RTVSPropertyOp50
 70
     1
102
RTVSPropertyOp51
 70
     0
102
RTVSPropertyOp52
 70
     0
102
RTVSPropertyOp53
 70
     1
102
RTVSPropertyOp54
 70
     1
102
RTVSPropertyOp55
 70
     1
102
RTVSPropertyOp56
 70
     1
102
RTVSPropertyOp57
 70
     1
102
RTVSPost2010Prop28
280
     0
102
RTVSPost2010PropOp28
 70
     1
102
RTVSPost2010Prop29
280
     1
102
RTVSPost2010PropOp29
 70
     1
102
RTVSPost2010Prop30
280
     1
102
RTVSPost2010PropOp30
 70
     1
102
RTVSPost2010Prop31
280
     0
102
RTVSPost2010PropOp31
 70
     1
102
RTVSPost2010Prop32
280
     0
102
RTVSPost2010PropOp32
 70
     1
102
RTVSPost2010Prop33
280
     0
102
RTVSPost2010PropOp33
 70
     1
102
RTVSPost2010Prop34
280
     0
102
RTVSPost2010PropOp34
 70
     1
102
RTVSPost2010Prop35
280
     0
102
RTVSPost2010PropOp35
 70
     1
102
RTVSPost2010Prop36
280
     0
102
RTVSPost2010PropOp36
 70
     1
102
RTVSPost2010Prop37
 90
       50
102
RTVSPost2010PropOp37
 70
     1
102
RTVSPost2010Prop38
140
0.0
102
RTVSPost2010PropOp38
 70
     1
102
RTVSPost2010Prop39
140
1.0
102
RTVSPost2010PropOp39
 70
     1
102
RTVSPost2010Prop40
 90
        0
102
RTVSPost2010PropOp40
 70
     1
102
RTVSPost2010Prop41ColorIndex
 90
       18
102
RTVSPost2010Prop41ColorRGB
 90
        0
102
RTVSPost2010PropOp41
 70
     1
102
RTVSPost2010Prop42
 90
       50
102
RTVSPost2010PropOp42
 70
     1
102
RTVSPost2010Prop43
 90
        3
102
RTVSPost2010PropOp43
 70
     1
102
RTVSPost2010Prop44ColorIndex
 90
        5
102
RTVSPost2010Prop44ColorRGB
 90
      255
102
RTVSPost2010PropOp44
 70
     1
102
RTVSPost2010Prop45
280
     0
102
RTVSPost2010PropOp45
 70
     1
102
RTVSPost2010Prop46
 90
       50
102
RTVSPost2010PropOp46
 70
     1
102
RTVSPost2010Prop47
 90
       50
102
RTVSPost2010PropOp47
 70
     1
102
RTVSPost2010Prop48
 90
       50
102
RTVSPost2010PropOp48
 70
     1
102
RTVSPost2010Prop49
280
     0
102
RTVSPost2010PropOp49
 70
     1
102
RTVSPost2010Prop50
 90
       50
102
RTVSPost2010PropOp50
 70
     1
102
RTVSPost2010Prop51ColorIndex
 90
      256
102
RTVSPost2010Prop51ColorRGB
 90
-16777216
102
RTVSPost2010PropOp51
 70
     0
102
RTVSPost2010Prop52
140
1.0
102
RTVSPost2010PropOp52
 70
     0
102
RTVSPost2010Prop53
 90
        2
102
RTVSPost2010PropOp53
 70
     1
102
RTVSPost2010Prop54
  1
strokes_ogs.tif
102
RTVSPost2010PropOp54
 70
     1
102
RTVSPost2010Prop55
280
     0
102
RTVSPost2010PropOp55
 70
     1
102
RTVSPost2010Prop56
140
1.0
102
RTVSPost2010PropOp56
 70
     1
102
RTVSPost2010Prop57
140
1.0
102
RTVSPost2010PropOp57
 70
     1
  0
XRECORD
  5
5D9
102
{ACAD_REACTORS
330
5D8
102
}
330
5D8
100
AcDbXrecord
280
     1
102
RTVSPropertyOp0
 70
     1
102
RTVSPropertyOp1
 70
     1
102
RTVSPropertyOp2
 70
     1
102
RTVSPropertyOp3
 70
     1
102
RTVSPropertyOp4
 70
     1
102
RTVSPropertyOp5
 70
     1
102
RTVSPropertyOp6
 70
     1
102
RTVSPropertyOp7
 70
     1
102
RTVSPropertyOp8
 70
     1
102
RTVSPropertyOp9
 70
     1
102
RTVSPropertyOp10
 70
     1
102
RTVSPropertyOp11
 70
     1
102
RTVSPropertyOp12
 70
     1
102
RTVSPropertyOp13
 70
     1
102
RTVSPropertyOp14
 70
     1
102
RTVSPropertyOp15
 70
     1
102
RTVSPropertyOp16
 70
     1
102
RTVSPropertyOp17
 70
     1
102
RTVSPropertyOp18
 70
     1
102
RTVSPropertyOp19
 70
     1
102
RTVSPropertyOp20
 70
     1
102
RTVSPropertyOp21
 70
     1
102
RTVSPropertyOp22
 70
     1
102
RTVSPropertyOp23
 70
     1
102
RTVSPropertyOp24
 70
     1
102
RTVSPropertyOp25
 70
     1
102
RTVSPropertyOp26
 70
     1
102
RTVSPropertyOp27
 70
     1
102
RTVSPropertyOp28
 70
     1
102
RTVSPropertyOp29
 70
     1
102
RTVSPropertyOp30
 70
     1
102
RTVSPropertyOp31
 70
     1
102
RTVSPropertyOp32
 70
     1
102
RTVSPropertyOp33
 70
     1
102
RTVSPropertyOp34
 70
     1
102
RTVSPropertyOp35
 70
     1
102
RTVSPropertyOp36
 70
     1
102
RTVSPropertyOp37
 70
     1
102
RTVSPropertyOp38
 70
     1
102
RTVSPropertyOp39
 70
     1
102
RTVSPropertyOp40
 70
     1
102
RTVSPropertyOp41
 70
     1
102
RTVSPropertyOp42
 70
     1
102
RTVSPropertyOp43
 70
     1
102
RTVSPropertyOp44
 70
     1
102
RTVSPropertyOp45
 70
     1
102
RTVSPropertyOp46
 70
     1
102
RTVSPropertyOp47
 70
     1
102
RTVSPropertyOp48
 70
     1
102
RTVSPropertyOp49
 70
     1
102
RTVSPropertyOp50
 70
     1
102
RTVSPropertyOp51
 70
     0
102
RTVSPropertyOp52
 70
     0
102
RTVSPropertyOp53
 70
     1
102
RTVSPropertyOp54
 70
     1
102
RTVSPropertyOp55
 70
     1
102
RTVSPropertyOp56
 70
     1
102
RTVSPropertyOp57
 70
     1
102
RTVSPost2010Prop28
280
     0
102
RTVSPost2010PropOp28
 70
     1
102
RTVSPost2010Prop29
280
     1
102
RTVSPost2010PropOp29
 70
     1
102
RTVSPost2010Prop30
280
     1
102
RTVSPost2010PropOp30
 70
     1
102
RTVSPost2010Prop31
280
     0
102
RTVSPost2010PropOp31
 70
     1
102
RTVSPost2010Prop32
280
     0
102
RTVSPost2010PropOp32
 70
     1
102
RTVSPost2010Prop33
280
     0
102
RTVSPost2010PropOp33
 70
     1
102
RTVSPost2010Prop34
280
     0
102
RTVSPost2010PropOp34
 70
     1
102
RTVSPost2010Prop35
280
     0
102
RTVSPost2010PropOp35
 70
     1
102
RTVSPost2010Prop36
280
     0
102
RTVSPost2010PropOp36
 70
     1
102
RTVSPost2010Prop37
 90
       50
102
RTVSPost2010PropOp37
 70
     1
102
RTVSPost2010Prop38
140
0.0
102
RTVSPost2010PropOp38
 70
     1
102
RTVSPost2010Prop39
140
1.0
102
RTVSPost2010PropOp39
 70
     1
102
RTVSPost2010Prop40
 90
        0
102
RTVSPost2010PropOp40
 70
     1
102
RTVSPost2010Prop41ColorIndex
 90
       18
102
RTVSPost2010Prop41ColorRGB
 90
        0
102
RTVSPost2010PropOp41
 70
     1
102
RTVSPost2010Prop42
 90
       50
102
RTVSPost2010PropOp42
 70
     1
102
RTVSPost2010Prop43
 90
        3
102
RTVSPost2010PropOp43
 70
     1
102
RTVSPost2010Prop44ColorIndex
 90
        5
102
RTVSPost2010Prop44ColorRGB
 90
      255
102
RTVSPost2010PropOp44
 70
     1
102
RTVSPost2010Prop45
280
     0
102
RTVSPost2010PropOp45
 70
     1
102
RTVSPost2010Prop46
 90
       50
102
RTVSPost2010PropOp46
 70
     1
102
RTVSPost2010Prop47
 90
       50
102
RTVSPost2010PropOp47
 70
     1
102
RTVSPost2010Prop48
 90
       50
102
RTVSPost2010PropOp48
 70
     1
102
RTVSPost2010Prop49
280
     0
102
RTVSPost2010PropOp49
 70
     1
102
RTVSPost2010Prop50
 90
       50
102
RTVSPost2010PropOp50
 70
     1
102
RTVSPost2010Prop51ColorIndex
 90
      256
102
RTVSPost2010Prop51ColorRGB
 90
-16777216
102
RTVSPost2010PropOp51
 70
     0
102
RTVSPost2010Prop52
140
1.0
102
RTVSPost2010PropOp52
 70
     0
102
RTVSPost2010Prop53
 90
        2
102
RTVSPost2010PropOp53
 70
     1
102
RTVSPost2010Prop54
  1
strokes_ogs.tif
102
RTVSPost2010PropOp54
 70
     1
102
RTVSPost2010Prop55
280
     0
102
RTVSPost2010PropOp55
 70
     1
102
RTVSPost2010Prop56
140
1.0
102
RTVSPost2010PropOp56
 70
     1
102
RTVSPost2010Prop57
140
1.0
102
RTVSPost2010PropOp57
 70
     1
  0
ENDSEC
  0
EOF
