  0
SECTION
  2
HEADER
  9
$ACADVER
  1
AC1015
  9
$ACADMAINTVER
 70
     6
  9
$DWGCODEPAGE
  3
ANSI_932
  9
$INSBASE
 10
614.1490464051315
 20
258.2039533213544
 30
0.0
  9
$EXTMIN
 10
84.92430267528499
 20
23.15917547246033
 30
0.0
  9
$EXTMAX
 10
754.7521759358642
 20
604.5056566975243
 30
0.0
  9
$LIMMIN
 10
0.0
 20
0.0
  9
$LIMMAX
 10
816.5000000000001
 20
565.0
  9
$ORTHOMODE
 70
     1
  9
$REGENMODE
 70
     1
  9
$FILLMODE
 70
     1
  9
$QTEXTMODE
 70
     0
  9
$MIRRTEXT
 70
     1
  9
$LTSCALE
 40
5.0
  9
$ATTMODE
 70
     1
  9
$TEXTSIZE
 40
6.0
  9
$TRACEWID
 40
0.05
  9
$TEXTSTYLE
  7
KANJI
  9
$CLAYER
  8
2
  9
$CELTYPE
  6
BYLAYER
  9
$CECOLOR
 62
   256
  9
$CELTSCALE
 40
1.0
  9
$DISPSILH
 70
     0
  9
$DIMSCALE
 40
2.0
  9
$DIMASZ
 40
2.0
  9
$DIMEXO
 40
0.5
  9
$DIMDLI
 40
0.0
  9
$DIMRND
 40
0.0
  9
$DIMDLE
 40
0.0
  9
$DIMEXE
 40
1.0
  9
$DIMTP
 40
0.0
  9
$DIMTM
 40
0.0
  9
$DIMTXT
 40
3.0
  9
$DIMCEN
 40
0.09
  9
$DIMTSZ
 40
0.0
  9
$DIMTOL
 70
     0
  9
$DIMLIM
 70
     0
  9
$DIMTIH
 70
     0
  9
$DIMTOH
 70
     0
  9
$DIMSE1
 70
     0
  9
$DIMSE2
 70
     0
  9
$DIMTAD
 70
     0
  9
$DIMZIN
 70
     8
  9
$DIMBLK
  1

  9
$DIMASO
 70
     0
  9
$DIMSHO
 70
     0
  9
$DIMPOST
  1

  9
$DIMAPOST
  1

  9
$DIMALT
 70
     0
  9
$DIMALTD
 70
     2
  9
$DIMALTF
 40
25.4
  9
$DIMLFAC
 40
1.0
  9
$DIMTOFL
 70
     1
  9
$DIMTVP
 40
1.0
  9
$DIMTIX
 70
     1
  9
$DIMSOXD
 70
     1
  9
$DIMSAH
 70
     0
  9
$DIMBLK1
  1

  9
$DIMBLK2
  1

  9
$DIMSTYLE
  2
STANDARD
  9
$DIMCLRD
 70
   256
  9
$DIMCLRE
 70
   256
  9
$DIMCLRT
 70
   256
  9
$DIMTFAC
 40
1.0
  9
$DIMGAP
 40
0.09
  9
$DIMJUST
 70
     0
  9
$DIMSD1
 70
     0
  9
$DIMSD2
 70
     0
  9
$DIMTOLJ
 70
     1
  9
$DIMTZIN
 70
     0
  9
$DIMALTZ
 70
     0
  9
$DIMALTTZ
 70
     0
  9
$DIMUPT
 70
     0
  9
$DIMDEC
 70
     1
  9
$DIMTDEC
 70
     4
  9
$DIMALTU
 70
     2
  9
$DIMALTTD
 70
     2
  9
$DIMTXSTY
  7
STANDARD
  9
$DIMAUNIT
 70
     0
  9
$DIMADEC
 70
     0
  9
$DIMALTRND
 40
0.0
  9
$DIMAZIN
 70
     0
  9
$DIMDSEP
 70
    46
  9
$DIMATFIT
 70
     3
  9
$DIMFRAC
 70
     0
  9
$DIMLDRBLK
  1

  9
$DIMLUNIT
 70
     2
  9
$DIMLWD
 70
    -2
  9
$DIMLWE
 70
    -2
  9
$DIMTMOVE
 70
     0
  9
$LUNITS
 70
     2
  9
$LUPREC
 70
     3
  9
$SKETCHINC
 40
0.1
  9
$FILLETRAD
 40
1.0
  9
$AUNITS
 70
     0
  9
$AUPREC
 70
     3
  9
$MENU
  1
C:\R13\WIN\SUPPORT\ACADFULL
  9
$ELEVATION
 40
0.0
  9
$PELEVATION
 40
0.0
  9
$THICKNESS
 40
0.0
  9
$LIMCHECK
 70
     0
  9
$CHAMFERA
 40
0.0
  9
$CHAMFERB
 40
0.0
  9
$CHAMFERC
 40
1.0
  9
$CHAMFERD
 40
0.7853981633974483
  9
$SKPOLY
 70
     0
  9
$TDCREATE
 40
2457436.807270243
  9
$TDUCREATE
 40
2457436.432270243
  9
$TDUPDATE
 40
2457870.598705868
  9
$TDUUPDATE
 40
2457870.223705868
  9
$TDINDWG
 40
0.0113138079
  9
$TDUSRTIMER
 40
0.0113131597
  9
$USRTIMER
 70
     1
  9
$ANGBASE
 50
0.0
  9
$ANGDIR
 70
     0
  9
$PDMODE
 70
     0
  9
$PDSIZE
 40
0.0
  9
$PLINEWID
 40
0.0
  9
$SPLFRAME
 70
     0
  9
$SPLINETYPE
 70
     6
  9
$SPLINESEGS
 70
     8
  9
$HANDSEED
  5
551
  9
$SURFTAB1
 70
     6
  9
$SURFTAB2
 70
     6
  9
$SURFTYPE
 70
     6
  9
$SURFU
 70
     6
  9
$SURFV
 70
     6
  9
$UCSBASE
  2

  9
$UCSNAME
  2

  9
$UCSORG
 10
0.0
 20
0.0
 30
0.0
  9
$UCSXDIR
 10
1.0
 20
0.0
 30
0.0
  9
$UCSYDIR
 10
0.0
 20
1.0
 30
0.0
  9
$UCSORTHOREF
  2

  9
$UCSORTHOVIEW
 70
     0
  9
$UCSORGTOP
 10
0.0
 20
0.0
 30
0.0
  9
$UCSORGBOTTOM
 10
0.0
 20
0.0
 30
0.0
  9
$UCSORGLEFT
 10
0.0
 20
0.0
 30
0.0
  9
$UCSORGRIGHT
 10
0.0
 20
0.0
 30
0.0
  9
$UCSORGFRONT
 10
0.0
 20
0.0
 30
0.0
  9
$UCSORGBACK
 10
0.0
 20
0.0
 30
0.0
  9
$PUCSBASE
  2

  9
$PUCSNAME
  2

  9
$PUCSORG
 10
0.0
 20
0.0
 30
0.0
  9
$PUCSXDIR
 10
1.0
 20
0.0
 30
0.0
  9
$PUCSYDIR
 10
0.0
 20
1.0
 30
0.0
  9
$PUCSORTHOREF
  2

  9
$PUCSORTHOVIEW
 70
     0
  9
$PUCSORGTOP
 10
0.0
 20
0.0
 30
0.0
  9
$PUCSORGBOTTOM
 10
0.0
 20
0.0
 30
0.0
  9
$PUCSORGLEFT
 10
0.0
 20
0.0
 30
0.0
  9
$PUCSORGRIGHT
 10
0.0
 20
0.0
 30
0.0
  9
$PUCSORGFRONT
 10
0.0
 20
0.0
 30
0.0
  9
$PUCSORGBACK
 10
0.0
 20
0.0
 30
0.0
  9
$USERI1
 70
     0
  9
$USERI2
 70
     0
  9
$USERI3
 70
     0
  9
$USERI4
 70
     0
  9
$USERI5
 70
     0
  9
$USERR1
 40
0.0
  9
$USERR2
 40
0.0
  9
$USERR3
 40
0.0
  9
$USERR4
 40
2448925.372986111
  9
$USERR5
 40
0.04166667
  9
$WORLDVIEW
 70
     1
  9
$SHADEDGE
 70
     3
  9
$SHADEDIF
 70
    70
  9
$TILEMODE
 70
     1
  9
$MAXACTVP
 70
    16
  9
$PINSBASE
 10
0.0
 20
0.0
 30
0.0
  9
$PLIMCHECK
 70
     0
  9
$PEXTMIN
 10
1.000000000000000E+20
 20
1.000000000000000E+20
 30
1.000000000000000E+20
  9
$PEXTMAX
 10
-1.000000000000000E+20
 20
-1.000000000000000E+20
 30
-1.000000000000000E+20
  9
$PLIMMIN
 10
0.0
 20
0.0
  9
$PLIMMAX
 10
12.0
 20
9.0
  9
$UNITMODE
 70
     0
  9
$VISRETAIN
 70
     0
  9
$PLINEGEN
 70
     0
  9
$PSLTSCALE
 70
     0
  9
$TREEDEPTH
 70
  3020
  9
$CMLSTYLE
  2
STANDARD
  9
$CMLJUST
 70
     0
  9
$CMLSCALE
 40
1.0
  9
$PROXYGRAPHICS
 70
     1
  9
$MEASUREMENT
 70
     0
  9
$CELWEIGHT
370
    -1
  9
$ENDCAPS
280
     0
  9
$JOINSTYLE
280
     0
  9
$LWDISPLAY
290
     0
  9
$INSUNITS
 70
     0
  9
$HYPERLINKBASE
  1

  9
$STYLESHEET
  1

  9
$XEDIT
290
     1
  9
$CEPSNTYPE
380
     0
  9
$PSTYLEMODE
290
     1
  9
$FINGERPRINTGUID
  2
{900793E6-FA8D-418E-815B-55EADF478510}
  9
$VERSIONGUID
  2
{9602A943-6914-4498-A8A2-7F4BBA7A574C}
  9
$EXTNAMES
290
     1
  9
$PSVPSCALE
 40
0.0
  9
$OLESTARTUP
290
     0
  0
ENDSEC
  0
SECTION
  2
CLASSES
  0
CLASS
  1
ACDBDICTIONARYWDFLT
  2
AcDbDictionaryWithDefault
  3
ObjectDBX Classes
 90
        0
280
     0
281
     0
  0
CLASS
  1
MATERIAL
  2
AcDbMaterial
  3
ObjectDBX Classes
 90
     1153
280
     0
281
     0
  0
CLASS
  1
SORTENTSTABLE
  2
AcDbSortentsTable
  3
ObjectDBX Classes
 90
        0
280
     0
281
     0
  0
CLASS
  1
SCALE
  2
AcDbScale
  3
ObjectDBX Classes
 90
     1153
280
     0
281
     0
  0
CLASS
  1
DICTIONARYVAR
  2
AcDbDictionaryVar
  3
ObjectDBX Classes
 90
        0
280
     0
281
     0
  0
CLASS
  1
VISUALSTYLE
  2
AcDbVisualStyle
  3
ObjectDBX Classes
 90
     4095
280
     0
281
     0
  0
CLASS
  1
MLEADERSTYLE
  2
AcDbMLeaderStyle
  3
ACDB_MLEADERSTYLE_CLASS
 90
     4095
280
     0
281
     0
  0
CLASS
  1
TABLESTYLE
  2
AcDbTableStyle
  3
ObjectDBX Classes
 90
     4095
280
     0
281
     0
  0
CLASS
  1
ACDBPLACEHOLDER
  2
AcDbPlaceHolder
  3
ObjectDBX Classes
 90
        0
280
     0
281
     0
  0
CLASS
  1
LAYOUT
  2
AcDbLayout
  3
ObjectDBX Classes
 90
        0
280
     0
281
     0
  0
ENDSEC
  0
SECTION
  2
TABLES
  0
TABLE
  2
VPORT
  5
25
102
{ACAD_XDICTIONARY
360
516
102
}
330
0
100
AcDbSymbolTable
 70
     2
  0
VPORT
  5
2A
330
25
100
AcDbSymbolTableRecord
100
AcDbViewportTableRecord
  2
*ACTIVE
 70
     0
 10
0.0
 20
0.0
 11
1.0
 21
1.0
 12
525.3556808335721
 22
313.8041918899073
 13
0.0
 23
0.0
 14
1.0
 24
1.0
 15
50.0
 25
50.0
 16
0.0
 26
0.0
 36
1.0
 17
0.0
 27
0.0
 37
0.0
 40
704.1131580073276
 41
2.177611940298507
 42
50.0
 43
0.0
 44
0.0
 50
0.0
 51
0.0
 71
     0
 72
  5000
 73
     1
 74
     0
 75
     0
 76
     0
 77
     0
 78
     0
281
     0
 65
     1
110
0.0
120
0.0
130
0.0
111
1.0
121
0.0
131
0.0
112
0.0
122
1.0
132
0.0
 79
     0
146
0.0
  0
ENDTAB
  0
TABLE
  2
LTYPE
  5
B
330
0
100
AcDbSymbolTable
 70
     2
  0
LTYPE
  5
C
330
B
100
AcDbSymbolTableRecord
100
AcDbLinetypeTableRecord
  2
BYBLOCK
 70
     0
  3

 72
    65
 73
     0
 40
0.0
  0
LTYPE
  5
D
330
B
100
AcDbSymbolTableRecord
100
AcDbLinetypeTableRecord
  2
BYLAYER
 70
     0
  3

 72
    65
 73
     0
 40
0.0
  0
LTYPE
  5
A
330
B
100
AcDbSymbolTableRecord
100
AcDbLinetypeTableRecord
  2
CONTINUOUS
 70
     0
  3
Solid line
 72
    65
 73
     0
 40
0.0
  0
LTYPE
  5
52
330
B
100
AcDbSymbolTableRecord
100
AcDbLinetypeTableRecord
  2
CENTER
 70
     0
  3
____ _ ____ _ ____ _ ____ _ ____ _ ____ _ ____
 72
    65
 73
     4
 40
2.0
 49
1.25
 74
     0
 49
-0.25
 74
     0
 49
0.25
 74
     0
 49
-0.25
 74
     0
  0
ENDTAB
  0
TABLE
  2
LAYER
  5
2
330
0
100
AcDbSymbolTable
 70
     8
  0
LAYER
  5
1B
330
2
100
AcDbSymbolTableRecord
100
AcDbLayerTableRecord
  2
0
 70
     0
 62
     7
  6
CONTINUOUS
370
    -3
390
3
  0
LAYER
  5
C6
330
2
100
AcDbSymbolTableRecord
100
AcDbLayerTableRecord
  2
1
 70
     0
 62
     9
  6
CONTINUOUS
370
    -3
390
3
  0
LAYER
  5
1
330
2
100
AcDbSymbolTableRecord
100
AcDbLayerTableRecord
  2
2
 70
     0
 62
     4
  6
CONTINUOUS
370
    -3
390
3
  0
LAYER
  5
C2
330
2
100
AcDbSymbolTableRecord
100
AcDbLayerTableRecord
  2
4
 70
     0
 62
     3
  6
CONTINUOUS
370
    -3
390
3
  0
LAYER
  5
51
330
2
100
AcDbSymbolTableRecord
100
AcDbLayerTableRecord
  2
L-CENTER
 70
     0
 62
     1
  6
CENTER
370
    -3
390
3
  0
LAYER
  5
57
330
2
100
AcDbSymbolTableRecord
100
AcDbLayerTableRecord
  2
3
 70
     0
 62
     2
  6
CONTINUOUS
370
    -3
390
3
  0
LAYER
  5
BB
102
{ACAD_XDICTIONARY
360
BC
102
}
330
2
100
AcDbSymbolTableRecord
100
AcDbLayerTableRecord
  2
5
 70
     0
 62
     6
  6
CONTINUOUS
370
    -3
390
3
  0
LAYER
  5
4A6
330
2
100
AcDbSymbolTableRecord
100
AcDbLayerTableRecord
  2
Defpoints
 70
     0
 62
     7
  6
CONTINUOUS
290
     0
370
    -3
390
3
  0
ENDTAB
  0
TABLE
  2
STYLE
  5
F
330
0
100
AcDbSymbolTable
 70
     2
  0
STYLE
  5
13
330
F
100
AcDbSymbolTableRecord
100
AcDbTextStyleTableRecord
  2
STANDARD
 70
     0
 40
0.0
 41
1.0
 50
0.0
 71
     0
 42
3.6
  3
TXT
  4

  0
STYLE
  5
E
330
F
100
AcDbSymbolTableRecord
100
AcDbTextStyleTableRecord
  2
KANJI
 70
     0
 40
0.0
 41
1.0
 50
0.0
 71
     0
 42
6.0
  3
TXT
  4
BIGFONT
  0
ENDTAB
  0
TABLE
  2
VIEW
  5
23
330
0
100
AcDbSymbolTable
 70
     0
  0
ENDTAB
  0
TABLE
  2
UCS
  5
24
330
0
100
AcDbSymbolTable
 70
     0
  0
ENDTAB
  0
TABLE
  2
APPID
  5
9
330
0
100
AcDbSymbolTable
 70
     3
  0
APPID
  5
8
330
9
100
AcDbSymbolTableRecord
100
AcDbRegAppTableRecord
  2
ACAD
 70
     0
  0
APPID
  5
480
330
9
100
AcDbSymbolTableRecord
100
AcDbRegAppTableRecord
  2
ACAD_PSEXT
 70
     0
  0
APPID
  5
506
330
9
100
AcDbSymbolTableRecord
100
AcDbRegAppTableRecord
  2
ACAD_MLEADERVER
 70
     0
  0
ENDTAB
  0
TABLE
  2
DIMSTYLE
  5
12
330
0
100
AcDbSymbolTable
 70
     1
100
AcDbDimStyleTable
  0
DIMSTYLE
105
11
330
12
100
AcDbSymbolTableRecord
100
AcDbDimStyleTableRecord
  2
STANDARD
 70
     0
178
     0
340
13
  0
ENDTAB
  0
TABLE
  2
BLOCK_RECORD
  5
16
330
0
100
AcDbSymbolTable
 70
     0
  0
BLOCK_RECORD
  5
17
102
{ACAD_XDICTIONARY
360
18
102
}
330
16
100
AcDbSymbolTableRecord
100
AcDbBlockTableRecord
  2
*MODEL_SPACE
340
1D
  0
BLOCK_RECORD
  5
1F
330
16
100
AcDbSymbolTableRecord
100
AcDbBlockTableRecord
  2
*PAPER_SPACE
340
22
  0
ENDTAB
  0
ENDSEC
  0
SECTION
  2
BLOCKS
  0
BLOCK
  5
1A
330
17
100
AcDbEntity
  8
0
100
AcDbBlockBegin
  2
*MODEL_SPACE
 70
     0
 10
0.0
 20
0.0
 30
0.0
  3
*MODEL_SPACE
  1

  0
ENDBLK
  5
1C
330
17
100
AcDbEntity
  8
0
100
AcDbBlockEnd
  0
BLOCK
  5
20
330
1F
100
AcDbEntity
 67
     1
  8
0
100
AcDbBlockBegin
  2
*PAPER_SPACE
 70
     0
 10
0.0
 20
0.0
 30
0.0
  3
*PAPER_SPACE
  1

  0
ENDBLK
  5
21
330
1F
100
AcDbEntity
 67
     1
  8
0
100
AcDbBlockEnd
  0
ENDSEC
  0
SECTION
  2
ENTITIES
  0
LINE
  5
192
330
17
100
AcDbEntity
  8
4
100
AcDbLine
 10
583.2186005929007
 20
257.1514844858175
 30
0.0
 11
585.6906292216131
 21
257.0219309550626
 31
0.0
  0
ARC
  5
193
330
17
100
AcDbEntity
  8
4
100
AcDbCircle
 10
583.1662646366577
 20
256.152854951063
 30
0.0
 40
1.0
100
AcDbArc
 50
87.00000000000091
 51
177.0000000000012
  0
LINE
  5
194
330
17
100
AcDbEntity
  8
4
100
AcDbLine
 10
580.8592361958296
 20
231.2394525384416
 30
0.0
 11
582.1676351019032
 21
256.205190907306
 31
0.0
  0
LINE
  5
195
330
17
100
AcDbEntity
  8
4
100
AcDbLine
 10
581.8055297743413
 20
230.1884870474441
 30
0.0
 11
583.9351410073235
 21
230.0768788519873
 31
0.0
  0
ARC
  5
196
330
17
100
AcDbEntity
  8
4
100
AcDbCircle
 10
581.8578657305841
 20
231.1871165821987
 30
0.0
 40
1.0
100
AcDbArc
 50
177.0000000000012
 51
267.0000000000074
  0
ARC
  5
197
330
17
100
AcDbEntity
  8
4
100
AcDbCircle
 10
219.2552340260987
 20
209.1691112210929
 30
0.0
 40
2.0
100
AcDbArc
 50
0.0
 51
106.0828482332303
  0
LINE
  5
198
330
17
100
AcDbEntity
  8
4
100
AcDbLine
 10
221.2552340260987
 20
204.0653138541448
 30
0.0
 11
221.2552340260987
 21
209.1691112210929
 31
0.0
  0
ARC
  5
199
330
17
100
AcDbEntity
  8
4
100
AcDbCircle
 10
239.7552340260987
 20
204.0653138541448
 30
0.0
 40
18.5
100
AcDbArc
 50
180.0
 51
270.0
  0
ARC
  5
19A
330
17
100
AcDbEntity
  8
4
100
AcDbCircle
 10
318.7552340260986
 20
254.0653138541446
 30
0.0
 40
3.0
100
AcDbArc
 50
0.0
 51
90.0
  0
LINE
  5
19B
330
17
100
AcDbEntity
  8
4
100
AcDbLine
 10
317.2552340260988
 20
249.5653138541444
 30
0.0
 11
317.2552340260988
 21
247.1360280684124
 31
0.0
  0
ARC
  5
19C
330
17
100
AcDbEntity
  8
4
100
AcDbCircle
 10
315.2552340260988
 20
247.1360280684124
 30
0.0
 40
2.0
100
AcDbArc
 50
314.4270040008323
 51
0.0
  0
LINE
  5
19D
330
17
100
AcDbEntity
  8
4
100
AcDbLine
 10
314.2552340260988
 20
252.5653138541444
 30
0.0
 11
306.0052340260988
 21
252.5653138541444
 31
0.0
  0
LINE
  5
19E
330
17
100
AcDbEntity
  8
4
100
AcDbLine
 10
317.2552340260988
 20
239.9945996398766
 30
0.0
 11
317.2552340260988
 21
237.5653138541444
 31
0.0
  0
ARC
  5
19F
330
17
100
AcDbEntity
  8
4
100
AcDbCircle
 10
315.2552340260988
 20
239.9945996398766
 30
0.0
 40
2.0
100
AcDbArc
 50
0.0
 51
45.57299599916316
  0
ARC
  5
1A0
330
17
100
AcDbEntity
  8
4
100
AcDbCircle
 10
314.2552340260988
 20
237.5653138541444
 30
0.0
 40
3.0
100
AcDbArc
 50
270.0
 51
0.0
  0
LINE
  5
1A1
330
17
100
AcDbEntity
  8
4
100
AcDbLine
 10
314.2552340260988
 20
234.5653138541444
 30
0.0
 11
306.0052340260991
 21
234.5653138541444
 31
0.0
  0
ARC
  5
1A2
330
17
100
AcDbEntity
  8
4
100
AcDbCircle
 10
318.7552340260988
 20
243.5653138541445
 30
0.0
 40
3.0
100
AcDbArc
 50
134.4270040008338
 51
225.5729959991678
  0
ARC
  5
1A3
330
17
100
AcDbEntity
  8
4
100
AcDbCircle
 10
314.2552340260988
 20
249.5653138541444
 30
0.0
 40
3.0
100
AcDbArc
 50
0.0
 51
90.0
  0
LINE
  5
1A4
330
17
100
AcDbEntity
  8
4
100
AcDbLine
 10
321.7552340260986
 20
254.0653138541446
 30
0.0
 11
321.7552340260988
 21
233.0653138541446
 31
0.0
  0
LINE
  5
1A5
330
17
100
AcDbEntity
  8
4
100
AcDbLine
 10
297.2552340260989
 20
245.8153138541444
 30
0.0
 11
299.7552340260989
 21
245.8153138541444
 31
0.0
  0
ARC
  5
1A6
330
17
100
AcDbEntity
  8
4
100
AcDbCircle
 10
299.7552340260989
 20
244.8153138541444
 30
0.0
 40
1.0
100
AcDbArc
 50
0.0
 51
90.0
  0
LINE
  5
1A7
330
17
100
AcDbEntity
  8
4
100
AcDbLine
 10
300.7552340260989
 20
244.8153138541444
 30
0.0
 11
300.7552340260988
 21
242.3153138541444
 31
0.0
  0
LINE
  5
1A8
330
17
100
AcDbEntity
  8
4
100
AcDbLine
 10
293.2552340260988
 20
247.0653138541444
 30
0.0
 11
293.2552340260988
 21
249.0653138541444
 31
0.0
  0
ARC
  5
1A9
330
17
100
AcDbEntity
  8
4
100
AcDbCircle
 10
289.7552340260988
 20
247.0653138541444
 30
0.0
 40
3.5
100
AcDbArc
 50
320.4788036413595
 51
0.0
  0
LINE
  5
1AA
330
17
100
AcDbEntity
  8
4
100
AcDbLine
 10
296.2552340260989
 20
244.8153138541444
 30
0.0
 11
296.2552340260988
 21
242.3153138541444
 31
0.0
  0
ARC
  5
1AB
330
17
100
AcDbEntity
  8
4
100
AcDbCircle
 10
293.9978747132182
 20
243.5653138541444
 30
0.0
 40
2.0
100
AcDbArc
 50
140.4788036413557
 51
219.5211963586421
  0
ARC
  5
1AC
330
17
100
AcDbEntity
  8
4
100
AcDbCircle
 10
297.2552340260989
 20
244.8153138541444
 30
0.0
 40
1.0
100
AcDbArc
 50
90.0
 51
180.0
  0
LINE
  5
1AD
330
17
100
AcDbEntity
  8
4
100
AcDbLine
 10
297.2552340260988
 20
241.3153138541444
 30
0.0
 11
299.7552340260988
 21
241.3153138541444
 31
0.0
  0
LINE
  5
1AE
330
17
100
AcDbEntity
  8
4
100
AcDbLine
 10
293.2552340260988
 20
238.0653138541444
 30
0.0
 11
293.2552340260988
 21
240.0653138541444
 31
0.0
  0
ARC
  5
1AF
330
17
100
AcDbEntity
  8
4
100
AcDbCircle
 10
289.7552340260988
 20
238.0653138541444
 30
0.0
 40
3.5
100
AcDbArc
 50
270.0
 51
0.0
  0
ARC
  5
1B0
330
17
100
AcDbEntity
  8
4
100
AcDbCircle
 10
297.2552340260988
 20
242.3153138541444
 30
0.0
 40
1.0
100
AcDbArc
 50
180.0
 51
270.0
  0
ARC
  5
1B1
330
17
100
AcDbEntity
  8
4
100
AcDbCircle
 10
299.7552340260988
 20
242.3153138541444
 30
0.0
 40
1.0
100
AcDbArc
 50
270.0
 51
0.0
  0
ARC
  5
1B2
330
17
100
AcDbEntity
  8
4
100
AcDbCircle
 10
289.7552340260988
 20
240.0653138541444
 30
0.0
 40
3.5
100
AcDbArc
 50
0.0
 51
39.52119635864177
  0
ARC
  5
1B3
330
17
100
AcDbEntity
  8
4
100
AcDbCircle
 10
280.7552340260988
 20
235.5653138541444
 30
0.0
 40
1.0
100
AcDbArc
 50
180.0
 51
270.0
  0
LINE
  5
1B4
330
17
100
AcDbEntity
  8
4
100
AcDbLine
 10
276.7552340260988
 20
238.0653138541444
 30
0.0
 11
276.7552340260989
 21
235.5653138541444
 31
0.0
  0
ARC
  5
1B5
330
17
100
AcDbEntity
  8
4
100
AcDbCircle
 10
275.7552340260988
 20
238.0653138541444
 30
0.0
 40
1.0
100
AcDbArc
 50
0.0
 51
90.0
  0
ARC
  5
1B6
330
17
100
AcDbEntity
  8
4
100
AcDbCircle
 10
275.7552340260989
 20
235.5653138541444
 30
0.0
 40
1.0
100
AcDbArc
 50
270.0
 51
0.0
  0
LINE
  5
1B7
330
17
100
AcDbEntity
  8
4
100
AcDbLine
 10
279.7552340260988
 20
235.5653138541444
 30
0.0
 11
279.7552340260988
 21
251.5653138541444
 31
0.0
  0
LINE
  5
1B8
330
17
100
AcDbEntity
  8
4
100
AcDbLine
 10
280.7552340260988
 20
252.5653138541444
 30
0.0
 11
289.7552340260988
 21
252.5653138541444
 31
0.0
  0
LINE
  5
1B9
330
17
100
AcDbEntity
  8
4
100
AcDbLine
 10
280.7552340260988
 20
234.5653138541444
 30
0.0
 11
289.7552340260988
 21
234.5653138541444
 31
0.0
  0
ARC
  5
1BA
330
17
100
AcDbEntity
  8
4
100
AcDbCircle
 10
280.7552340260988
 20
251.5653138541444
 30
0.0
 40
1.0
100
AcDbArc
 50
90.0
 51
180.0
  0
ARC
  5
1BB
330
17
100
AcDbEntity
  8
4
100
AcDbCircle
 10
289.7552340260988
 20
249.0653138541444
 30
0.0
 40
3.5
100
AcDbArc
 50
0.0
 51
90.0
  0
ARC
  5
1BC
330
17
100
AcDbEntity
  8
4
100
AcDbCircle
 10
306.0052340260988
 20
250.3153138541444
 30
0.0
 40
2.24999999999998
100
AcDbArc
 50
90.0
 51
233.1301023541569
  0
ARC
  5
1BD
330
17
100
AcDbEntity
  8
4
100
AcDbCircle
 10
303.0052340260991
 20
240.8153138541446
 30
0.0
 40
2.750000000000003
100
AcDbArc
 50
306.8698976458431
 51
35.37654015194055
  0
ARC
  5
1BE
330
17
100
AcDbEntity
  8
4
100
AcDbCircle
 10
306.0052340260991
 20
236.8153138541446
 30
0.0
 40
2.24999999999998
100
AcDbArc
 50
126.8698976458411
 51
270.0000000000029
  0
ARC
  5
1BF
330
17
100
AcDbEntity
  8
4
100
AcDbCircle
 10
303.0052340260988
 20
246.3153138541444
 30
0.0
 40
2.750000000000003
100
AcDbArc
 50
324.6234598480578
 51
53.13010235415361
  0
ARC
  5
1C0
330
17
100
AcDbEntity
  8
4
100
AcDbCircle
 10
306.8782173723064
 20
243.5653138541445
 30
0.0
 40
2.0
100
AcDbArc
 50
144.6234598480618
 51
215.3765401519451
  0
ARC
  5
1C1
330
17
100
AcDbEntity
  8
4
100
AcDbCircle
 10
318.7552340260988
 20
233.0653138541446
 30
0.0
 40
3.0
100
AcDbArc
 50
270.0
 51
0.0
  0
ARC
  5
1C2
330
17
100
AcDbEntity
  8
4
100
AcDbCircle
 10
261.7552340260988
 20
254.0653138541446
 30
0.0
 40
3.0
100
AcDbArc
 50
90.0
 51
180.0
  0
LINE
  5
1C3
330
17
100
AcDbEntity
  8
4
100
AcDbLine
 10
264.2552340260988
 20
252.5653138541445
 30
0.0
 11
266.7552340260988
 21
252.5653138541444
 31
0.0
  0
ARC
  5
1C4
330
17
100
AcDbEntity
  8
4
100
AcDbCircle
 10
268.7552340260988
 20
240.0653138541444
 30
0.0
 40
1.0
100
AcDbArc
 50
180.0
 51
270.0
  0
ARC
  5
1C5
330
17
100
AcDbEntity
  8
4
100
AcDbCircle
 10
264.2552340260988
 20
235.5653138541444
 30
0.0
 40
1.0
100
AcDbArc
 50
180.0
 51
270.0
  0
LINE
  5
1C6
330
17
100
AcDbEntity
  8
4
100
AcDbLine
 10
263.2552340260988
 20
251.5653138541445
 30
0.0
 11
263.2552340260988
 21
235.5653138541444
 31
0.0
  0
LINE
  5
1C7
330
17
100
AcDbEntity
  8
4
100
AcDbLine
 10
267.7552340260988
 20
251.5653138541444
 30
0.0
 11
267.7552340260988
 21
240.0653138541444
 31
0.0
  0
ARC
  5
1C8
330
17
100
AcDbEntity
  8
4
100
AcDbCircle
 10
264.2552340260988
 20
251.5653138541445
 30
0.0
 40
1.0
100
AcDbArc
 50
90.0
 51
180.0
  0
ARC
  5
1C9
330
17
100
AcDbEntity
  8
4
100
AcDbCircle
 10
266.7552340260988
 20
251.5653138541444
 30
0.0
 40
1.0
100
AcDbArc
 50
0.0
 51
89.99999999999349
  0
LINE
  5
1CA
330
17
100
AcDbEntity
  8
4
100
AcDbLine
 10
258.7552340260988
 20
254.0653138541446
 30
0.0
 11
258.7552340260986
 21
233.0653138541446
 31
0.0
  0
ARC
  5
1CB
330
17
100
AcDbEntity
  8
4
100
AcDbCircle
 10
261.7552340260986
 20
233.0653138541446
 30
0.0
 40
3.0
100
AcDbArc
 50
180.0
 51
270.0
  0
LINE
  5
1CC
330
17
100
AcDbEntity
  8
4
100
AcDbLine
 10
261.7552340260988
 20
257.0653138541446
 30
0.0
 11
318.7552340260986
 21
257.0653138541451
 31
0.0
  0
LINE
  5
1CD
330
17
100
AcDbEntity
  8
4
100
AcDbLine
 10
261.7552340260986
 20
230.0653138541446
 30
0.0
 11
318.7552340260989
 21
230.0653138541452
 31
0.0
  0
LINE
  5
1CE
330
17
100
AcDbEntity
  8
4
100
AcDbLine
 10
264.2552340260988
 20
234.5653138541444
 30
0.0
 11
275.7552340260989
 21
234.5653138541444
 31
0.0
  0
LINE
  5
1CF
330
17
100
AcDbEntity
  8
4
100
AcDbLine
 10
268.7552340260988
 20
239.0653138541444
 30
0.0
 11
275.7552340260988
 21
239.0653138541444
 31
0.0
  0
ARC
  5
1D0
330
17
100
AcDbEntity
  8
4
100
AcDbCircle
 10
271.2253628212808
 20
169.5354426493266
 30
0.0
 40
3.0
100
AcDbArc
 50
9.192202608002757
 51
80.80779739199832
  0
ARC
  5
1D1
330
17
100
AcDbEntity
  8
4
100
AcDbCircle
 10
270.362960226391
 20
168.6730400544371
 30
0.0
 40
3.0
100
AcDbArc
 50
8.938207437761028
 51
81.06179256223896
  0
ARC
  5
1D2
330
17
100
AcDbEntity
  8
4
100
AcDbCircle
 10
208.2851052309167
 20
169.5354426493266
 30
0.0
 40
3.0
100
AcDbArc
 50
99.19220260800168
 51
170.8077973919972
  0
ARC
  5
1D3
330
17
100
AcDbEntity
  8
4
100
AcDbCircle
 10
209.1475078258064
 20
168.6730400544371
 30
0.0
 40
3.0
100
AcDbArc
 50
98.93820743776104
 51
171.061792562239
  0
ARC
  5
1D4
330
17
100
AcDbEntity
  8
4
100
AcDbCircle
 10
239.7552340260987
 20
-25.93468614585521
 30
0.0
 40
200.0
100
AcDbArc
 50
81.06179256223847
 51
98.93820743776159
  0
ARC
  5
1D5
330
17
100
AcDbEntity
  8
4
100
AcDbCircle
 10
239.7552340260987
 20
-24.93468614585521
 30
0.0
 40
200.0
100
AcDbArc
 50
80.80779739199866
 51
99.19220260800134
  0
ARC
  5
1D6
330
17
100
AcDbEntity
  8
4
100
AcDbCircle
 10
260.2552340260987
 20
209.1691112210929
 30
0.0
 40
2.0
100
AcDbArc
 50
73.91715176676975
 51
180.0
  0
LINE
  5
1D7
330
17
100
AcDbEntity
  8
4
100
AcDbLine
 10
258.2552340260987
 20
204.0653138541448
 30
0.0
 11
258.2552340260987
 21
209.1691112210929
 31
0.0
  0
ARC
  5
1D8
330
17
100
AcDbEntity
  8
4
100
AcDbCircle
 10
239.7552340260987
 20
204.0653138541448
 30
0.0
 40
18.5
100
AcDbArc
 50
270.0
 51
0.0
  0
LINE
  5
1DD
330
17
100
AcDbEntity
  8
4
100
AcDbLine
 10
253.7552340260987
 20
600.8788673791926
 30
0.0
 11
252.7552340260987
 21
601.8788673791926
 31
0.0
  0
LINE
  5
1DE
330
17
100
AcDbEntity
  8
4
100
AcDbLine
 10
225.7552340260987
 20
600.8788673791926
 30
0.0
 11
236.2552340260987
 21
600.8788673791926
 31
0.0
  0
LINE
  5
1DF
330
17
100
AcDbEntity
  8
4
100
AcDbLine
 10
226.7552340260987
 20
601.8788673791926
 30
0.0
 11
225.7552340260987
 21
600.8788673791926
 31
0.0
  0
LINE
  5
1E0
330
17
100
AcDbEntity
  8
4
100
AcDbLine
 10
226.7552340260987
 20
601.8788673791926
 30
0.0
 11
252.7552340260987
 21
601.8788673791926
 31
0.0
  0
LINE
  5
1E1
330
17
100
AcDbEntity
  8
4
100
AcDbLine
 10
243.2552340260987
 20
600.8788673791926
 30
0.0
 11
253.7552340260987
 21
600.8788673791926
 31
0.0
  0
ARC
  5
1E2
330
17
100
AcDbEntity
  8
4
100
AcDbCircle
 10
347.2552340260989
 20
531.8788673791926
 30
0.0
 40
5.0
100
AcDbArc
 50
0.0
 51
90.0
  0
LINE
  5
1E3
330
17
100
AcDbEntity
  8
4
100
AcDbLine
 10
326.2552340260987
 20
535.1788673791925
 30
0.0
 11
326.2552340260987
 21
529.1788673791925
 31
0.0
  0
LINE
  5
1E4
330
17
100
AcDbEntity
  8
4
100
AcDbLine
 10
302.0351043568547
 20
532.1093912122346
 30
0.0
 11
301.8587266718646
 21
528.287874704117
 31
0.0
  0
ARC
  5
1E5
330
17
100
AcDbEntity
  8
4
100
AcDbCircle
 10
307.0297874060981
 20
531.8788673791926
 30
0.0
 40
5.0
100
AcDbArc
 50
90.0
 51
177.3574547059346
  0
LINE
  5
1E6
330
17
100
AcDbEntity
  8
4
100
AcDbLine
 10
316.2552340260987
 20
535.1788673791925
 30
0.0
 11
316.2552340260987
 21
529.1788673791925
 31
0.0
  0
LINE
  5
1E7
330
17
100
AcDbEntity
  8
4
100
AcDbLine
 10
285.5052340260986
 20
535.1788673791925
 30
0.0
 11
285.5052340260986
 21
529.1788673791925
 31
0.0
  0
LINE
  5
1E8
330
17
100
AcDbEntity
  8
4
100
AcDbLine
 10
347.2552340260989
 20
536.8788673791926
 30
0.0
 11
307.0297874060981
 21
536.8788673791926
 31
0.0
  0
LINE
  5
1E9
330
17
100
AcDbEntity
  8
4
100
AcDbLine
 10
327.0052340260987
 20
529.1788673791925
 30
0.0
 11
315.5052340260987
 21
529.1788673791925
 31
0.0
  0
LINE
  5
1EA
330
17
100
AcDbEntity
  8
4
100
AcDbLine
 10
326.2552340260987
 20
535.1788673791925
 30
0.0
 11
316.2552340260987
 21
535.1788673791925
 31
0.0
  0
LINE
  5
1EB
330
17
100
AcDbEntity
  8
L-CENTER
 48
2.0
100
AcDbLine
 10
344.46020793782
 20
521.8788673791926
 30
0.0
 11
320.0502601143777
 21
521.8788673791926
 31
0.0
  0
ARC
  5
1EC
330
17
100
AcDbEntity
  8
4
100
AcDbCircle
 10
326.7552340260986
 20
526.6788673791925
 30
0.0
 40
1.0
100
AcDbArc
 50
0.0
 51
90.0
  0
ARC
  5
1ED
330
17
100
AcDbEntity
  8
4
100
AcDbCircle
 10
332.2552340260989
 20
521.8788673791926
 30
0.0
 40
6.5
100
AcDbArc
 50
226.1869385395924
 51
133.8130614604076
  0
LINE
  5
1EE
330
17
100
AcDbEntity
  8
4
100
AcDbLine
 10
297.2552340260975
 20
527.6788673791925
 30
0.0
 11
285.5052340260986
 21
530.0288673791924
 31
0.0
  0
LINE
  5
1EF
330
17
100
AcDbEntity
  8
4
100
AcDbLine
 10
304.9037632964875
 20
527.6788673791925
 30
0.0
 11
285.5052340260986
 21
531.5585732332702
 31
0.0
  0
LINE
  5
1F0
330
17
100
AcDbEntity
  8
4
100
AcDbLine
 10
327.0052340260987
 20
529.1788673791925
 30
0.0
 11
327.0052340260987
 21
527.6788673791925
 31
0.0
  0
LINE
  5
1F1
330
17
100
AcDbEntity
  8
4
100
AcDbLine
 10
315.5052340260987
 20
529.1788673791925
 30
0.0
 11
315.5052340260987
 21
527.6788673791925
 31
0.0
  0
LINE
  5
1F2
330
17
100
AcDbEntity
  8
4
100
AcDbLine
 10
286.2552340260986
 20
529.1788673791925
 30
0.0
 11
286.2552340260986
 21
527.6788673791925
 31
0.0
  0
ARC
  5
1F3
330
17
100
AcDbEntity
  8
4
100
AcDbCircle
 10
254.7552340260988
 20
552.8788673791928
 30
0.0
 40
1.0
100
AcDbArc
 50
180.0
 51
270.0
  0
ARC
  5
1F4
330
17
100
AcDbEntity
  8
4
100
AcDbCircle
 10
239.7552340260988
 20
560.3788673791928
 30
0.0
 40
3.5
100
AcDbArc
 50
270.0
 51
0.0
  0
LINE
  5
1F5
330
17
100
AcDbEntity
  8
4
100
AcDbLine
 10
239.7552340260987
 20
556.8788673791926
 30
0.0
 11
239.7552340260987
 21
556.8788673791926
 31
0.0
  0
ARC
  5
1F6
330
17
100
AcDbEntity
  8
4
100
AcDbCircle
 10
239.7552340260988
 20
560.3788673791928
 30
0.0
 40
3.5
100
AcDbArc
 50
180.0
 51
270.0
  0
ARC
  5
1F7
330
17
100
AcDbEntity
  8
4
100
AcDbCircle
 10
224.7552340260988
 20
552.8788673791928
 30
0.0
 40
1.0
100
AcDbArc
 50
270.0
 51
0.0
  0
LINE
  5
1F8
330
17
100
AcDbEntity
  8
4
100
AcDbLine
 10
224.7552340260987
 20
551.8788673791926
 30
0.0
 11
254.7552340260987
 21
551.8788673791926
 31
0.0
  0
LINE
  5
1F9
330
17
100
AcDbEntity
  8
4
100
AcDbLine
 10
274.916010799071
 20
540.9749835143305
 30
0.0
 11
276.0752340260986
 21
535.1788673791925
 31
0.0
  0
LINE
  5
1FA
330
17
100
AcDbEntity
  8
4
100
AcDbLine
 10
264.7552340260987
 20
542.7788673791924
 30
0.0
 11
264.7552340260988
 21
541.7788673791927
 31
0.0
  0
ARC
  5
1FB
330
17
100
AcDbEntity
  8
4
100
AcDbCircle
 10
273.9354301233802
 20
540.7788673791924
 30
0.0
 40
1.0
100
AcDbArc
 50
11.30993247402406
 51
90.0
  0
LINE
  5
1FC
330
17
100
AcDbEntity
  8
4
100
AcDbLine
 10
275.5052340260986
 20
535.1788673791925
 30
0.0
 11
275.5052340260986
 21
529.1788673791925
 31
0.0
  0
LINE
  5
1FD
330
17
100
AcDbEntity
  8
4
100
AcDbLine
 10
214.7552340260987
 20
542.7788673791924
 30
0.0
 11
214.7552340260988
 21
541.7788673791927
 31
0.0
  0
LINE
  5
1FE
330
17
100
AcDbEntity
  8
4
100
AcDbLine
 10
214.7552340260988
 20
542.7788673791924
 30
0.0
 11
264.7552340260987
 21
542.7788673791924
 31
0.0
  0
LINE
  5
1FF
330
17
100
AcDbEntity
  8
4
100
AcDbLine
 10
274.7552340260986
 20
529.1788673791925
 30
0.0
 11
274.7552340260986
 21
527.6788673791925
 31
0.0
  0
ARC
  5
200
330
17
100
AcDbEntity
  8
4
100
AcDbCircle
 10
205.5750379288172
 20
540.7788673791924
 30
0.0
 40
1.0
100
AcDbArc
 50
90.0
 51
168.6900675259756
  0
LINE
  5
201
330
17
100
AcDbEntity
  8
4
100
AcDbLine
 10
204.5944572531264
 20
540.9749835143307
 30
0.0
 11
203.4352340260987
 21
535.1788673791925
 31
0.0
  0
LINE
  5
202
330
17
100
AcDbEntity
  8
4
100
AcDbLine
 10
194.0052340260988
 20
535.1788673791925
 30
0.0
 11
194.0052340260988
 21
529.1788673791925
 31
0.0
  0
LINE
  5
203
330
17
100
AcDbEntity
  8
4
100
AcDbLine
 10
204.0052340260988
 20
535.1788673791925
 30
0.0
 11
204.0052340260988
 21
529.1788673791925
 31
0.0
  0
LINE
  5
204
330
17
100
AcDbEntity
  8
4
100
AcDbLine
 10
204.0052340260988
 20
535.1788673791925
 30
0.0
 11
194.0052340260988
 21
535.1788673791925
 31
0.0
  0
LINE
  5
205
330
17
100
AcDbEntity
  8
4
100
AcDbLine
 10
204.7552340260988
 20
529.1788673791925
 30
0.0
 11
193.2552340260988
 21
529.1788673791925
 31
0.0
  0
LINE
  5
206
330
17
100
AcDbEntity
  8
4
100
AcDbLine
 10
167.7552340260987
 20
531.7788673791927
 30
0.0
 11
167.7552340260987
 21
528.6788673791925
 31
0.0
  0
ARC
  5
207
330
17
100
AcDbEntity
  8
4
100
AcDbCircle
 10
168.7552340260986
 20
531.7788673791927
 30
0.0
 40
1.0
100
AcDbArc
 50
90.0
 51
180.0
  0
LINE
  5
208
330
17
100
AcDbEntity
  8
4
100
AcDbLine
 10
164.0052340260987
 20
529.1788673791925
 30
0.0
 11
152.5052340260987
 21
529.1788673791925
 31
0.0
  0
LINE
  5
209
330
17
100
AcDbEntity
  8
4
100
AcDbLine
 10
163.2552340260987
 20
535.1788673791925
 30
0.0
 11
153.2552340260987
 21
535.1788673791925
 31
0.0
  0
LINE
  5
20A
330
17
100
AcDbEntity
  8
4
100
AcDbLine
 10
163.2552340260987
 20
535.1788673791925
 30
0.0
 11
163.2552340260987
 21
529.1788673791925
 31
0.0
  0
LINE
  5
20B
330
17
100
AcDbEntity
  8
4
100
AcDbLine
 10
153.2552340260987
 20
535.1788673791925
 30
0.0
 11
153.2552340260987
 21
529.1788673791925
 31
0.0
  0
ARC
  5
20C
330
17
100
AcDbEntity
  8
4
100
AcDbCircle
 10
172.4806806460996
 20
531.8788673791926
 30
0.0
 40
5.0
100
AcDbArc
 50
10.36975980547848
 51
90.0
  0
LINE
  5
20D
330
17
100
AcDbEntity
  8
4
100
AcDbLine
 10
168.7552340260987
 20
532.7788673791927
 30
0.0
 11
194.0052340260988
 21
532.7788673791927
 31
0.0
  0
LINE
  5
20E
330
17
100
AcDbEntity
  8
4
100
AcDbLine
 10
204.7787367179951
 20
527.6788673791925
 30
0.0
 11
193.2317313342025
 21
527.6788673791925
 31
0.0
  0
ARC
  5
20F
330
17
100
AcDbEntity
  8
4
100
AcDbCircle
 10
152.7552340260986
 20
526.6788673791925
 30
0.0
 40
1.0
100
AcDbArc
 50
90.0
 51
180.0
  0
ARC
  5
210
330
17
100
AcDbEntity
  8
4
100
AcDbCircle
 10
147.2552340260987
 20
521.8788673791926
 30
0.0
 40
6.5
100
AcDbArc
 50
46.1869385395977
 51
313.8130614604037
  0
LINE
  5
211
330
17
100
AcDbEntity
  8
L-CENTER
 48
2.0
100
AcDbLine
 10
181.7552340260987
 20
537.7788673791924
 30
0.0
 11
181.7552340260987
 21
512.7788673791924
 31
0.0
  0
LINE
  5
212
330
17
100
AcDbEntity
  8
4
100
AcDbLine
 10
174.6067047557103
 20
527.6788673791925
 30
0.0
 11
194.0052340260988
 21
531.5585732332702
 31
0.0
  0
LINE
  5
213
330
17
100
AcDbEntity
  8
4
100
AcDbLine
 10
182.2552340260992
 20
527.6788673791925
 30
0.0
 11
194.0052340260988
 21
530.0288673791924
 31
0.0
  0
ARC
  5
214
330
17
100
AcDbEntity
  8
4
100
AcDbCircle
 10
166.7552340260986
 20
528.6788673791925
 30
0.0
 40
1.0
100
AcDbArc
 50
270.0
 51
0.0
  0
LINE
  5
215
330
17
100
AcDbEntity
  8
4
100
AcDbLine
 10
164.0052340260987
 20
529.1788673791925
 30
0.0
 11
164.0052340260987
 21
527.6788673791925
 31
0.0
  0
LINE
  5
216
330
17
100
AcDbEntity
  8
4
100
AcDbLine
 10
152.5052340260987
 20
529.1788673791925
 30
0.0
 11
152.5052340260987
 21
527.6788673791925
 31
0.0
  0
LINE
  5
217
330
17
100
AcDbEntity
  8
4
100
AcDbLine
 10
204.7552340260988
 20
529.1788673791925
 30
0.0
 11
204.7552340260988
 21
527.6788673791925
 31
0.0
  0
LINE
  5
218
330
17
100
AcDbEntity
  8
4
100
AcDbLine
 10
193.2552340260988
 20
529.1788673791925
 30
0.0
 11
193.2552340260988
 21
527.6788673791925
 31
0.0
  0
LINE
  5
219
330
17
100
AcDbEntity
  8
4
100
AcDbLine
 10
204.0052340260988
 20
531.7788673791924
 30
0.0
 11
273.9354301233802
 21
531.7788673791924
 31
0.0
  0
LINE
  5
21A
330
17
100
AcDbEntity
  8
4
100
AcDbLine
 10
205.5750379288172
 20
541.7788673791924
 30
0.0
 11
273.9354301233802
 21
541.7788673791924
 31
0.0
  0
LINE
  5
21B
330
17
100
AcDbEntity
  8
4
  6
Continuous
100
AcDbLine
 10
224.7552340260987
 20
542.7788673791924
 30
0.0
 11
224.7552340260987
 21
551.8788673791926
 31
0.0
  0
LINE
  5
21C
330
17
100
AcDbEntity
  8
4
  6
Continuous
100
AcDbLine
 10
254.7552340260987
 20
542.7788673791924
 30
0.0
 11
254.7552340260987
 21
551.8788673791926
 31
0.0
  0
LINE
  5
21D
330
17
100
AcDbEntity
  8
4
100
AcDbLine
 10
301.2860032568682
 20
515.8788673791926
 30
0.0
 11
239.7552340260989
 21
515.8788673791926
 31
0.0
  0
LINE
  5
21E
330
17
100
AcDbEntity
  8
4
100
AcDbLine
 10
151.7552340260987
 20
515.8788673791926
 30
0.0
 11
327.7552340260988
 21
515.8788673791926
 31
0.0
  0
LINE
  5
21F
330
17
100
AcDbEntity
  8
4
100
AcDbLine
 10
152.5052340260987
 20
527.6788673791925
 30
0.0
 11
326.7552340260986
 21
527.6788673791925
 31
0.0
  0
LINE
  5
220
330
17
100
AcDbEntity
  8
4
100
AcDbLine
 10
285.5052340260986
 20
535.1788673791925
 30
0.0
 11
275.5052340260986
 21
535.1788673791925
 31
0.0
  0
LINE
  5
221
330
17
100
AcDbEntity
  8
4
100
AcDbLine
 10
286.2552340260986
 20
529.1788673791925
 30
0.0
 11
274.7552340260986
 21
529.1788673791925
 31
0.0
  0
LINE
  5
222
330
17
100
AcDbEntity
  8
4
100
AcDbLine
 10
388.7550660260987
 20
482.8788673791926
 30
0.0
 11
389.7550660260987
 21
481.8788673791926
 31
0.0
  0
LINE
  5
223
330
17
100
AcDbEntity
  8
4
100
AcDbLine
 10
330.7550660260987
 20
497.8787313791925
 30
0.0
 11
329.7550660260987
 21
497.8787313791925
 31
0.0
  0
ARC
  5
224
330
17
100
AcDbEntity
  8
4
100
AcDbCircle
 10
345.7550660260987
 20
483.8788673791926
 30
0.0
 40
1.0
100
AcDbArc
 50
180.0
 51
270.0
  0
LINE
  5
225
330
17
100
AcDbEntity
  8
4
100
AcDbLine
 10
344.7550660260987
 20
484.3788673791926
 30
0.0
 11
330.7550660260987
 21
484.3788673791926
 31
0.0
  0
LINE
  5
226
330
17
100
AcDbEntity
  8
4
100
AcDbLine
 10
388.7550660260987
 20
482.8788673791926
 30
0.0
 11
345.7550660260987
 21
482.8788673791926
 31
0.0
  0
LINE
  5
227
330
17
100
AcDbEntity
  8
4
100
AcDbLine
 10
388.7550660260987
 20
460.8788673791926
 30
0.0
 11
389.7550660260987
 21
461.8788673791926
 31
0.0
  0
LINE
  5
228
330
17
100
AcDbEntity
  8
4
100
AcDbLine
 10
388.7550660260987
 20
468.3788673791926
 30
0.0
 11
388.7550660260987
 21
460.8788673791926
 31
0.0
  0
ARC
  5
229
330
17
100
AcDbEntity
  8
4
100
AcDbCircle
 10
353.2550660260987
 20
471.8788673791926
 30
0.0
 40
3.5
100
AcDbArc
 50
90.0
 51
270.0
  0
ARC
  5
22A
330
17
100
AcDbEntity
  8
4
100
AcDbCircle
 10
345.7550660260987
 20
459.8788673791926
 30
0.0
 40
1.0
100
AcDbArc
 50
90.0
 51
180.0
  0
LINE
  5
22B
330
17
100
AcDbEntity
  8
4
100
AcDbLine
 10
344.7550660260987
 20
459.3788673791926
 30
0.0
 11
330.7550660260987
 21
459.3788673791926
 31
0.0
  0
LINE
  5
22C
330
17
100
AcDbEntity
  8
4
100
AcDbLine
 10
330.7550660260987
 20
445.8788673791926
 30
0.0
 11
329.7550660260987
 21
445.8788673791926
 31
0.0
  0
LINE
  5
22D
330
17
100
AcDbEntity
  8
4
100
AcDbLine
 10
389.7550660260987
 20
475.3788673791926
 30
0.0
 11
353.2550660260987
 21
475.3788673791926
 31
0.0
  0
LINE
  5
22E
330
17
100
AcDbEntity
  8
4
100
AcDbLine
 10
389.7550660260987
 20
468.3788673791926
 30
0.0
 11
353.2550660260987
 21
468.3788673791926
 31
0.0
  0
LINE
  5
22F
330
17
100
AcDbEntity
  8
4
100
AcDbLine
 10
388.7550660260987
 20
460.8788673791926
 30
0.0
 11
345.7550660260987
 21
460.8788673791926
 31
0.0
  0
LINE
  5
230
330
17
100
AcDbEntity
  8
4
100
AcDbLine
 10
344.7550660260987
 20
484.3788673791926
 30
0.0
 11
344.7550660260987
 21
459.3788673791926
 31
0.0
  0
LINE
  5
231
330
17
100
AcDbEntity
  8
4
100
AcDbLine
 10
388.7550660260987
 20
482.8788673791926
 30
0.0
 11
388.7550660260987
 21
475.3788673791926
 31
0.0
  0
LINE
  5
232
330
17
100
AcDbEntity
  8
4
100
AcDbLine
 10
389.7550660260987
 20
481.8788673791926
 30
0.0
 11
389.7550660260987
 21
461.8788673791926
 31
0.0
  0
LINE
  5
233
330
17
100
AcDbEntity
  8
4
100
AcDbLine
 10
330.7550660260987
 20
445.8788673791926
 30
0.0
 11
330.7550660260987
 21
497.8787313791925
 31
0.0
  0
LINE
  5
234
330
17
100
AcDbEntity
  8
4
100
AcDbLine
 10
148.7553100260988
 20
497.8787313791925
 30
0.0
 11
149.7553100260988
 21
497.8787313791925
 31
0.0
  0
LINE
  5
235
330
17
100
AcDbEntity
  8
4
100
AcDbLine
 10
148.7554020260987
 20
497.8787313791925
 30
0.0
 11
149.7554020260987
 21
497.8787313791925
 31
0.0
  0
LINE
  5
236
330
17
100
AcDbEntity
  8
4
100
AcDbLine
 10
146.7552340260989
 20
489.8788673791926
 30
0.0
 11
148.7554020260987
 21
489.8788673791926
 31
0.0
  0
LINE
  5
239
330
17
100
AcDbEntity
  8
4
100
AcDbLine
 10
148.7553100260988
 20
445.8788673791926
 30
0.0
 11
149.7553100260988
 21
445.8788673791926
 31
0.0
  0
LINE
  5
23A
330
17
100
AcDbEntity
  8
4
100
AcDbLine
 10
148.7554020260987
 20
445.8788673791926
 30
0.0
 11
149.7554020260987
 21
445.8788673791926
 31
0.0
  0
LINE
  5
23B
330
17
100
AcDbEntity
  8
4
100
AcDbLine
 10
146.7552340260989
 20
453.8788673791926
 30
0.0
 11
148.7554020260987
 21
453.8788673791926
 31
0.0
  0
LINE
  5
23E
330
17
100
AcDbEntity
  8
4
100
AcDbLine
 10
148.7553100260988
 20
445.8788673791926
 30
0.0
 11
148.7553100260988
 21
497.8787313791925
 31
0.0
  0
LINE
  5
23F
330
17
100
AcDbEntity
  8
4
100
AcDbLine
 10
148.7554020260987
 20
445.8788673791926
 30
0.0
 11
148.7554020260987
 21
497.8787313791925
 31
0.0
  0
LINE
  5
240
330
17
100
AcDbEntity
  8
L-CENTER
 48
2.0
100
AcDbLine
 10
194.7552340260987
 20
496.5062041935373
 30
0.0
 11
194.7552340260987
 21
447.4777315439217
 31
0.0
  0
CIRCLE
  5
241
330
17
100
AcDbEntity
  8
4
100
AcDbCircle
 10
194.7552340260987
 20
471.8788673791926
 30
0.0
 40
19.0
  0
CIRCLE
  5
242
330
17
100
AcDbEntity
  8
4
100
AcDbCircle
 10
194.7552340260987
 20
471.8788673791926
 30
0.0
 40
12.5
  0
LWPOLYLINE
  5
243
330
17
100
AcDbEntity
  8
4
100
AcDbPolyline
 90
        6
 70
     1
 43
0.0
 10
207.2552340260987
 20
471.8788673791926
 10
201.0052340260987
 20
482.7041849264981
 10
188.5052340260987
 20
482.7041849264981
 10
182.2552340260987
 20
471.8788673791926
 10
188.5052340260987
 20
461.053549831887
 10
201.0052340260987
 20
461.053549831887
  0
LINE
  5
244
330
17
100
AcDbEntity
  8
4
100
AcDbLine
 10
146.7552340260989
 20
453.8788673791926
 30
0.0
 11
146.7552340260989
 21
459.3788673791926
 31
0.0
  0
LINE
  5
248
330
17
100
AcDbEntity
  8
4
100
AcDbLine
 10
149.7552340260987
 20
508.8788673791926
 30
0.0
 11
329.7552340260987
 21
508.8788673791926
 31
0.0
  0
LINE
  5
249
330
17
100
AcDbEntity
  8
4
100
AcDbLine
 10
352.2552340260989
 20
531.8788673791926
 30
0.0
 11
352.2552340260989
 21
482.8788673791926
 31
0.0
  0
LINE
  5
24A
330
17
100
AcDbEntity
  8
L-CENTER
 48
2.0
100
AcDbLine
 10
147.2552340260987
 20
534.0838412909136
 30
0.0
 11
147.2552340260987
 21
509.6738934674715
 31
0.0
  0
LINE
  5
24B
330
17
100
AcDbEntity
  8
L-CENTER
 48
2.0
100
AcDbLine
 10
332.2552340260989
 20
534.0838412909136
 30
0.0
 11
332.2552340260989
 21
509.6738934674715
 31
0.0
  0
LINE
  5
24C
330
17
100
AcDbEntity
  8
L-CENTER
 48
2.0
100
AcDbLine
 10
321.2552340260987
 20
538.1309151246357
 30
0.0
 11
321.2552340260987
 21
504.5776622915491
 31
0.0
  0
LINE
  5
24D
330
17
100
AcDbEntity
  8
L-CENTER
 48
2.0
100
AcDbLine
 10
280.5052340260986
 20
538.1309151246357
 30
0.0
 11
280.5052340260986
 21
504.5776622915491
 31
0.0
  0
LINE
  5
24E
330
17
100
AcDbEntity
  8
L-CENTER
 48
2.0
100
AcDbLine
 10
158.2552340260987
 20
538.1309151246357
 30
0.0
 11
158.2552340260987
 21
504.5776622915491
 31
0.0
  0
LINE
  5
24F
330
17
100
AcDbEntity
  8
L-CENTER
 48
2.0
100
AcDbLine
 10
199.0052340260988
 20
538.1309151246357
 30
0.0
 11
199.0052340260988
 21
504.5776622915491
 31
0.0
  0
LINE
  5
250
330
17
100
AcDbEntity
  8
4
  6
Continuous
100
AcDbLine
 10
243.2552340260987
 20
560.3788673791926
 30
0.0
 11
243.2552340260987
 21
601.8788673791926
 31
0.0
  0
LINE
  5
251
330
17
100
AcDbEntity
  8
4
  6
Continuous
100
AcDbLine
 10
253.7552340260987
 20
552.8788673791926
 30
0.0
 11
253.7552340260987
 21
600.8788673791926
 31
0.0
  0
LINE
  5
252
330
17
100
AcDbEntity
  8
4
  6
Continuous
100
AcDbLine
 10
236.2552340260987
 20
560.3788673791926
 30
0.0
 11
236.2552340260987
 21
601.8788673791926
 31
0.0
  0
LINE
  5
253
330
17
100
AcDbEntity
  8
4
  6
Continuous
100
AcDbLine
 10
225.7552340260987
 20
552.8788673791926
 30
0.0
 11
225.7552340260987
 21
600.8788673791926
 31
0.0
  0
ARC
  5
254
330
17
100
AcDbEntity
  8
4
100
AcDbCircle
 10
132.2552340260987
 20
531.8788673791926
 30
0.0
 40
5.0
100
AcDbArc
 50
90.0
 51
180.0
  0
LINE
  5
256
330
17
100
AcDbEntity
  8
L-CENTER
 48
2.0
100
AcDbLine
 10
85.55074344424531
 20
471.8788673791926
 30
0.0
 11
393.9597246079521
 21
471.8788673791926
 31
0.0
  0
LINE
  5
257
330
17
100
AcDbEntity
  8
L-CENTER
 48
2.0
100
AcDbLine
 10
135.0502601143777
 20
521.8788673791926
 30
0.0
 11
159.4602079378197
 21
521.8788673791926
 31
0.0
  0
LINE
  5
258
330
17
100
AcDbEntity
  8
4
100
AcDbLine
 10
132.2552340260987
 20
536.8788673791926
 30
0.0
 11
172.4806806460996
 21
536.8788673791926
 31
0.0
  0
LINE
  5
25B
330
17
100
AcDbEntity
  8
L-CENTER
 48
2.0
100
AcDbLine
 10
344.46020793782
 20
421.8788673791926
 30
0.0
 11
320.0502601143777
 21
421.8788673791926
 31
0.0
  0
LINE
  5
25C
330
17
100
AcDbEntity
  8
4
100
AcDbLine
 10
302.0351043568547
 20
411.6483435461505
 30
0.0
 11
301.5496419208358
 21
422.1666963265609
 31
0.0
  0
ARC
  5
25D
330
17
100
AcDbEntity
  8
4
100
AcDbCircle
 10
332.2552340260989
 20
421.8788673791926
 30
0.0
 40
6.5
100
AcDbArc
 50
162.0797868606077
 51
133.8130614604052
  0
LINE
  5
25E
330
17
100
AcDbEntity
  8
4
100
AcDbLine
 10
327.7552340260987
 20
433.8788673791926
 30
0.0
 11
327.7552340260987
 21
423.8788673791926
 31
0.0
  0
LINE
  5
25F
330
17
100
AcDbEntity
  8
4
100
AcDbLine
 10
347.2552340260989
 20
406.8788673791926
 30
0.0
 11
307.0297874060981
 21
406.8788673791926
 31
0.0
  0
LINE
  5
260
330
17
100
AcDbEntity
  8
L-CENTER
 48
2.0
100
AcDbLine
 10
332.2552340260989
 20
409.6738934674715
 30
0.0
 11
332.2552340260989
 21
434.0838412909136
 31
0.0
  0
ARC
  5
261
330
17
100
AcDbEntity
  8
4
100
AcDbCircle
 10
347.2552340260989
 20
411.8788673791926
 30
0.0
 40
5.0
100
AcDbArc
 50
270.0
 51
0.0
  0
ARC
  5
262
330
17
100
AcDbEntity
  8
4
100
AcDbCircle
 10
307.0297874060981
 20
411.8788673791926
 30
0.0
 40
5.0
100
AcDbArc
 50
182.6425452940629
 51
270.0
  0
LINE
  5
263
330
17
100
AcDbEntity
  8
4
100
AcDbLine
 10
276.0747599721523
 20
416.3788673791923
 30
0.0
 11
276.9751022357724
 21
415.6032740975322
 31
0.0
  0
ARC
  5
264
330
17
100
AcDbEntity
  8
4
100
AcDbCircle
 10
278.7319030667271
 20
414.5581184685711
 30
0.0
 40
2.0
100
AcDbArc
 50
103.671307132193
 51
173.6598082540883
  0
LINE
  5
265
330
17
100
AcDbEntity
  8
4
100
AcDbLine
 10
271.2552340260988
 20
416.3788673791935
 30
0.0
 11
271.2552340260988
 21
423.8788673791926
 31
0.0
  0
LINE
  5
266
330
17
100
AcDbEntity
  8
4
100
AcDbLine
 10
177.4753636953429
 20
411.6483435461505
 30
0.0
 11
177.9608261313618
 21
422.1666963265609
 31
0.0
  0
LINE
  5
267
330
17
100
AcDbEntity
  8
4
100
AcDbLine
 10
203.4357080800454
 20
416.3788673791923
 30
0.0
 11
202.5353658164253
 21
415.6032740975322
 31
0.0
  0
ARC
  5
268
330
17
100
AcDbEntity
  8
4
100
AcDbCircle
 10
200.7785649854706
 20
414.5581184685711
 30
0.0
 40
2.0
100
AcDbArc
 50
6.340191745911636
 51
76.32869286780546
  0
LINE
  5
269
330
17
100
AcDbEntity
  8
4
100
AcDbLine
 10
208.2552340260987
 20
416.3788673791926
 30
0.0
 11
208.2552340260987
 21
423.8788673791926
 31
0.0
  0
LINE
  5
26A
330
17
100
AcDbEntity
  8
4
100
AcDbLine
 10
172.6023747467101
 20
423.8788673791926
 30
0.0
 11
203.4357080800456
 21
416.3788673791923
 31
0.0
  0
LINE
  5
26B
330
17
100
AcDbEntity
  8
4
100
AcDbLine
 10
170.9219006927646
 20
423.8788673791926
 30
0.0
 11
201.2512681437655
 21
416.5014536748949
 31
0.0
  0
ARC
  5
26C
330
17
100
AcDbEntity
  8
4
100
AcDbCircle
 10
147.2552340260987
 20
421.8788673791926
 30
0.0
 40
6.5
100
AcDbArc
 50
46.1869385395977
 51
17.92021313939231
  0
LINE
  5
26D
330
17
100
AcDbEntity
  8
4
100
AcDbLine
 10
151.7552340260987
 20
433.8788673791928
 30
0.0
 11
151.7552340260987
 21
423.8788673791926
 31
0.0
  0
LINE
  5
26E
330
17
100
AcDbEntity
  8
4
100
AcDbLine
 10
203.4357080800452
 20
416.3788673791923
 30
0.0
 11
276.0747599721511
 21
416.3788673791935
 31
0.0
  0
ARC
  5
26F
330
17
100
AcDbEntity
  8
4
100
AcDbCircle
 10
274.8601912329726
 20
406.8788673791926
 30
0.0
 40
1.0
100
AcDbArc
 50
270.0
 51
353.6598082540948
  0
ARC
  5
270
330
17
100
AcDbEntity
  8
4
100
AcDbCircle
 10
204.650276819225
 20
406.8788673791926
 30
0.0
 40
1.0
100
AcDbArc
 50
186.3401917459051
 51
270.0
  0
LINE
  5
271
330
17
100
AcDbEntity
  8
4
100
AcDbLine
 10
204.650276819225
 20
405.8788673791926
 30
0.0
 11
274.8601912329726
 21
405.8788673791921
 31
0.0
  0
LINE
  5
272
330
17
100
AcDbEntity
  8
L-CENTER
 48
2.0
100
AcDbLine
 10
147.2552340260987
 20
409.6738934674715
 30
0.0
 11
147.2552340260987
 21
434.0838412909136
 31
0.0
  0
ARC
  5
273
330
17
100
AcDbEntity
  8
4
100
AcDbCircle
 10
172.4806806460996
 20
411.8788673791926
 30
0.0
 40
5.0
100
AcDbArc
 50
270.0
 51
357.3574547059371
  0
LINE
  5
274
330
17
100
AcDbEntity
  8
4
100
AcDbLine
 10
203.6563930845515
 20
406.7684358531178
 30
0.0
 11
202.7663324548179
 21
414.7789815207209
 31
0.0
  0
LINE
  5
275
330
17
100
AcDbEntity
  8
4
100
AcDbLine
 10
275.8540749676462
 20
406.7684358531178
 30
0.0
 11
276.7441355973798
 21
414.7789815207209
 31
0.0
  0
LINE
  5
276
330
17
100
AcDbEntity
  8
4
100
AcDbLine
 10
149.7552340260987
 20
434.8788673791926
 30
0.0
 11
329.7552340260987
 21
434.8788673791926
 31
0.0
  0
LINE
  5
277
330
17
100
AcDbEntity
  8
4
100
AcDbLine
 10
151.7552340260987
 20
423.8788673791926
 30
0.0
 11
327.7552340260987
 21
423.8788673791926
 31
0.0
  0
LINE
  5
278
330
17
100
AcDbEntity
  8
4
100
AcDbLine
 10
308.5885673594339
 20
423.8788673791926
 30
0.0
 11
278.2591999084322
 21
416.5014536748949
 31
0.0
  0
LINE
  5
279
330
17
100
AcDbEntity
  8
4
100
AcDbLine
 10
306.9080933054877
 20
423.8788673791928
 30
0.0
 11
276.074759972152
 21
416.3788673791923
 31
0.0
  0
LINE
  5
27A
330
17
100
AcDbEntity
  8
4
100
AcDbLine
 10
149.7552340260987
 20
433.8788673791926
 30
0.0
 11
258.7552340260987
 21
433.8788673791926
 31
0.0
  0
LINE
  5
287
330
17
100
AcDbEntity
  8
4
100
AcDbLine
 10
633.3749034368432
 20
265.5653138541448
 30
0.0
 11
633.3749034368432
 21
267.5653138541448
 31
0.0
  0
LINE
  5
288
330
17
100
AcDbEntity
  8
4
100
AcDbLine
 10
632.3749034368432
 20
264.0653138541448
 30
0.0
 11
632.3749034368432
 21
265.5653138541448
 31
0.0
  0
LINE
  5
289
330
17
100
AcDbEntity
  8
4
100
AcDbLine
 10
639.8749034368432
 20
263.4001270210502
 30
0.0
 11
639.8749034368432
 21
264.0653138541448
 31
0.0
  0
ARC
  5
28A
330
17
100
AcDbEntity
  8
4
100
AcDbCircle
 10
640.8749034368432
 20
263.4001270210502
 30
0.0
 40
1.0
100
AcDbArc
 50
180.0
 51
266.1901645662077
  0
ARC
  5
28B
330
17
100
AcDbEntity
  8
4
100
AcDbCircle
 10
652.0055796651984
 20
257.423736525495
 30
0.0
 40
4.0
100
AcDbArc
 50
6.442685143781387
 51
83.96296958898033
  0
LINE
  5
28C
330
17
100
AcDbEntity
  8
4
100
AcDbLine
 10
631.7000974368432
 20
267.5653138541448
 30
0.0
 11
631.7000974368432
 21
271.5653138541448
 31
0.0
  0
LINE
  5
28D
330
17
100
AcDbEntity
  8
4
100
AcDbLine
 10
608.3749034368432
 20
265.5653138541448
 30
0.0
 11
608.3749034368432
 21
267.5653138541448
 31
0.0
  0
ARC
  5
28E
330
17
100
AcDbEntity
  8
4
100
AcDbCircle
 10
620.8749034368432
 20
-36.93468614585521
 30
0.0
 40
300.0
100
AcDbArc
 50
90.04037703048758
 51
96.03380220678027
  0
LINE
  5
28F
330
17
100
AcDbEntity
  8
4
100
AcDbLine
 10
601.8749034368432
 20
263.4001270210502
 30
0.0
 11
601.8749034368432
 21
264.0653138541448
 31
0.0
  0
ARC
  5
290
330
17
100
AcDbEntity
  8
4
100
AcDbCircle
 10
600.8749034368432
 20
263.4001270210502
 30
0.0
 40
1.0
100
AcDbArc
 50
273.8098354337923
 51
0.0
  0
LINE
  5
291
330
17
100
AcDbEntity
  8
4
100
AcDbLine
 10
609.3749034368432
 20
264.0653138541448
 30
0.0
 11
609.3749034368432
 21
265.5653138541448
 31
0.0
  0
LINE
  5
292
330
17
100
AcDbEntity
  8
4
100
AcDbLine
 10
610.0494634368431
 20
267.5653138541448
 30
0.0
 11
610.0494634368431
 21
271.5653138541448
 31
0.0
  0
ARC
  5
293
330
17
100
AcDbEntity
  8
4
100
AcDbCircle
 10
589.760812233536
 20
257.4254900475156
 30
0.0
 40
4.0
100
AcDbArc
 50
96.03380220678005
 51
173.5288275543748
  0
LINE
  5
294
330
17
100
AcDbEntity
  8
4
100
AcDbLine
 10
633.3749034368432
 20
265.5653138541448
 30
0.0
 11
608.3749034368432
 21
265.5653138541448
 31
0.0
  0
ARC
  5
295
330
17
100
AcDbEntity
  8
4
100
AcDbCircle
 10
620.8749034368432
 20
-36.93468614585521
 30
0.0
 40
300.0
100
AcDbArc
 50
83.96296958898108
 51
89.99174633089063
  0
LINE
  5
296
330
17
100
AcDbEntity
  8
4
100
AcDbLine
 10
601.8749034368432
 20
264.0653138541448
 30
0.0
 11
639.8749034368432
 21
264.0653138541448
 31
0.0
  0
LINE
  5
297
330
17
100
AcDbEntity
  8
4
100
AcDbLine
 10
633.3749034368432
 20
267.5653138541448
 30
0.0
 11
608.3749034368432
 21
267.5653138541448
 31
0.0
  0
LINE
  5
298
330
17
100
AcDbEntity
  8
4
100
AcDbLine
 10
631.7000974368432
 20
271.5653138541448
 30
0.0
 11
610.0494634368431
 21
271.5653138541448
 31
0.0
  0
LINE
  5
29E
330
17
100
AcDbEntity
  8
4
100
AcDbLine
 10
658.8613931144598
 20
226.0653138541448
 30
0.0
 11
664.8749034368432
 21
226.0653138541448
 31
0.0
  0
LINE
  5
29F
330
17
100
AcDbEntity
  8
4
100
AcDbLine
 10
675.6749034368431
 20
226.0653138541448
 30
0.0
 11
664.8749034368432
 21
226.0653138541448
 31
0.0
  0
ARC
  5
2A0
330
17
100
AcDbEntity
  8
4
100
AcDbCircle
 10
675.6749034368431
 20
225.0653138541448
 30
0.0
 40
1.0
100
AcDbArc
 50
0.0
 51
90.0
  0
LINE
  5
2A1
330
17
100
AcDbEntity
  8
4
100
AcDbLine
 10
624.3749034368432
 20
231.0653138541448
 30
0.0
 11
624.3749034368432
 21
238.0653138541448
 31
0.0
  0
ARC
  5
2A2
330
17
100
AcDbEntity
  8
4
100
AcDbCircle
 10
658.8613931144598
 20
227.0653138541448
 30
0.0
 40
1.0
100
AcDbArc
 50
180.5435598317283
 51
270.0
  0
LINE
  5
2A3
330
17
100
AcDbEntity
  8
4
100
AcDbLine
 10
617.3749034368432
 20
238.0653138541448
 30
0.0
 11
617.3749034368432
 21
231.0653138541448
 31
0.0
  0
LINE
  5
2A4
330
17
100
AcDbEntity
  8
4
100
AcDbLine
 10
573.8749034368432
 20
226.0653138541448
 30
0.0
 11
582.8749034368432
 21
226.0653138541448
 31
0.0
  0
ARC
  5
2A5
330
17
100
AcDbEntity
  8
4
100
AcDbCircle
 10
573.8749034368432
 20
225.0653138541448
 30
0.0
 40
1.0
100
AcDbArc
 50
90.0
 51
180.0
  0
LINE
  5
2A6
330
17
100
AcDbEntity
  8
4
100
AcDbLine
 10
582.8749034368432
 20
228.0653138541449
 30
0.0
 11
583.9015712888004
 21
228.0653138541449
 31
0.0
  0
LINE
  5
2A7
330
17
100
AcDbEntity
  8
L-CENTER
 48
2.0
100
AcDbLine
 10
579.6765329405907
 20
224.0653138541448
 30
0.0
 11
662.0732739330956
 21
224.0653138541448
 31
0.0
  0
LINE
  5
2A8
330
17
100
AcDbEntity
  8
4
100
AcDbLine
 10
624.3749034368432
 20
231.0653138541448
 30
0.0
 11
617.3749034368432
 21
231.0653138541448
 31
0.0
  0
LINE
  5
2A9
330
17
100
AcDbEntity
  8
4
100
AcDbLine
 10
624.3749034368432
 20
238.0653138541448
 30
0.0
 11
617.3749034368432
 21
238.0653138541448
 31
0.0
  0
LINE
  5
2AA
330
17
100
AcDbEntity
  8
4
100
AcDbLine
 10
684.1749034368431
 20
213.6463842625766
 30
0.0
 11
678.1749034368431
 21
213.6463842625766
 31
0.0
  0
LINE
  5
2AB
330
17
100
AcDbEntity
  8
4
100
AcDbLine
 10
678.1749034368431
 20
214.3963842625766
 30
0.0
 11
676.6749034368431
 21
214.3963842625766
 31
0.0
  0
LINE
  5
2AC
330
17
100
AcDbEntity
  8
2
100
AcDbLine
 10
676.6749034368431
 20
208.6463842625766
 30
0.0
 11
678.1749034368431
 21
210.1463842625766
 31
0.0
  0
LINE
  5
2AD
330
17
100
AcDbEntity
  8
L-CENTER
 48
2.0
100
AcDbLine
 10
686.9281509945422
 20
208.6463842625766
 30
0.0
 11
653.5736983491997
 21
208.6463842625766
 31
0.0
  0
LINE
  5
2AE
330
17
100
AcDbEntity
  8
4
100
AcDbLine
 10
684.1749034368431
 20
203.6463842625767
 30
0.0
 11
678.1749034368431
 21
203.6463842625766
 31
0.0
  0
LINE
  5
2AF
330
17
100
AcDbEntity
  8
4
100
AcDbLine
 10
678.1749034368431
 20
202.8963842625767
 30
0.0
 11
676.6749034368431
 21
202.8963842625767
 31
0.0
  0
LINE
  5
2B0
330
17
100
AcDbEntity
  8
4
100
AcDbLine
 10
678.1749034368431
 20
202.8963842625767
 30
0.0
 11
678.1749034368431
 21
214.3963842625766
 31
0.0
  0
LINE
  5
2B1
330
17
100
AcDbEntity
  8
4
100
AcDbLine
 10
684.1749034368431
 20
203.6463842625767
 30
0.0
 11
684.1749034368431
 21
213.6463842625766
 31
0.0
  0
LINE
  5
2B2
330
17
100
AcDbEntity
  8
2
100
AcDbLine
 10
676.6749034368431
 20
206.525063919017
 30
0.0
 11
678.1749034368431
 21
208.025063919017
 31
0.0
  0
CIRCLE
  5
2B3
330
17
100
AcDbEntity
  8
4
100
AcDbCircle
 10
620.8749034368432
 20
224.0653138541448
 30
0.0
 40
26.0
  0
LINE
  5
2B4
330
17
100
AcDbEntity
  8
4
100
AcDbLine
 10
572.8749034368432
 20
225.1258626327772
 30
0.0
 11
572.8749034368432
 21
213.7292288228343
 31
0.0
  0
ARC
  5
2B5
330
17
100
AcDbEntity
  8
4
100
AcDbCircle
 10
620.8749034368432
 20
224.0653138541448
 30
0.0
 40
10.999902
100
AcDbArc
 50
108.553177
 51
71.44682299999998
  0
ARC
  5
2BE
330
17
100
AcDbEntity
  8
4
100
AcDbCircle
 10
883.8749034368432
 20
224.0653138541448
 30
0.0
 40
300.0
100
AcDbArc
 50
173.5288275543738
 51
179.2360336359783
  0
ARC
  5
2BF
330
17
100
AcDbEntity
  8
4
100
AcDbCircle
 10
357.8749382292192
 20
224.2097971557156
 30
0.0
 40
300.0
100
AcDbArc
 50
0.5435598317263175
 51
6.442685143781727
  0
LINE
  5
2C6
330
17
100
AcDbEntity
  8
4
100
AcDbLine
 10
328.7552340261176
 20
261.0653138541448
 30
0.0
 11
329.7552340260987
 21
261.0653138541448
 31
0.0
  0
ARC
  5
2C7
330
17
100
AcDbEntity
  8
4
100
AcDbCircle
 10
326.7552340260987
 20
262.0653138541448
 30
0.0
 40
1.0
100
AcDbArc
 50
0.0
 51
90.0
  0
ARC
  5
2C8
330
17
100
AcDbEntity
  8
4
100
AcDbCircle
 10
328.7552340261176
 20
262.0653138541448
 30
0.0
 40
1.0
100
AcDbArc
 50
180.0
 51
270.0
  0
ARC
  5
2D6
330
17
100
AcDbEntity
  8
4
100
AcDbCircle
 10
214.7552340260987
 20
264.0653138541448
 30
0.0
 40
1.0
100
AcDbArc
 50
180.0
 51
270.0
  0
LINE
  5
2D7
330
17
100
AcDbEntity
  8
4
100
AcDbLine
 10
207.2552340260987
 20
265.5653138541448
 30
0.0
 11
207.2552340260987
 21
271.5653138541448
 31
0.0
  0
LINE
  5
2D8
330
17
100
AcDbEntity
  8
4
100
AcDbLine
 10
182.2552340260987
 20
265.5653138541448
 30
0.0
 11
182.2552340260987
 21
271.5653138541448
 31
0.0
  0
LINE
  5
2D9
330
17
100
AcDbEntity
  8
4
100
AcDbLine
 10
182.2552340260987
 20
265.5653138541448
 30
0.0
 11
207.2552340260987
 21
265.5653138541448
 31
0.0
  0
ARC
  5
2DA
330
17
100
AcDbEntity
  8
4
100
AcDbCircle
 10
174.7552340260987
 20
264.0653138541447
 30
0.0
 40
1.0
100
AcDbArc
 50
270.0
 51
0.0
  0
LINE
  5
2DB
330
17
100
AcDbEntity
  8
4
100
AcDbLine
 10
183.2552340260987
 20
264.0653138541448
 30
0.0
 11
183.2552340260987
 21
265.5653138541448
 31
0.0
  0
LINE
  5
2DC
330
17
100
AcDbEntity
  8
4
100
AcDbLine
 10
206.2552340260987
 20
264.0653138541448
 30
0.0
 11
206.2552340260987
 21
265.5653138541448
 31
0.0
  0
LINE
  5
2DD
330
17
100
AcDbEntity
  8
4
100
AcDbLine
 10
182.2552340260987
 20
267.5653138541448
 30
0.0
 11
207.2552340260987
 21
267.5653138541448
 31
0.0
  0
LINE
  5
2DE
330
17
100
AcDbEntity
  8
4
100
AcDbLine
 10
182.2552340260987
 20
271.5653138541448
 30
0.0
 11
207.2552340260987
 21
271.5653138541448
 31
0.0
  0
LINE
  5
2DF
330
17
100
AcDbEntity
  8
4
100
AcDbLine
 10
188.5052340260987
 20
267.5653138541448
 30
0.0
 11
188.5052340260987
 21
271.5653138541448
 31
0.0
  0
LINE
  5
2E0
330
17
100
AcDbEntity
  8
4
100
AcDbLine
 10
201.0052340260987
 20
267.5653138541448
 30
0.0
 11
201.0052340260987
 21
271.5653138541448
 31
0.0
  0
ARC
  5
2E1
330
17
100
AcDbEntity
  8
4
100
AcDbCircle
 10
152.7552340260987
 20
262.0653138541448
 30
0.0
 40
1.0
100
AcDbArc
 50
90.0
 51
180.0
  0
LINE
  5
2E2
330
17
100
AcDbEntity
  8
4
100
AcDbLine
 10
149.7552340260987
 20
261.0653138541448
 30
0.0
 11
150.7552340260817
 21
261.0653138541448
 31
0.0
  0
ARC
  5
2E3
330
17
100
AcDbEntity
  8
4
100
AcDbCircle
 10
150.7552340260817
 20
262.0653138541448
 30
0.0
 40
1.0
100
AcDbArc
 50
270.0
 51
0.0
  0
LINE
  5
2E4
330
17
100
AcDbEntity
  8
4
100
AcDbLine
 10
213.7552340260987
 20
264.0653138541448
 30
0.0
 11
175.7552340260987
 21
264.0653138541448
 31
0.0
  0
LINE
  5
2E5
330
17
100
AcDbEntity
  8
4
100
AcDbLine
 10
213.7552340260987
 20
264.0653138541448
 30
0.0
 11
175.7552340260987
 21
264.0653138541448
 31
0.0
  0
LINE
  5
2E7
330
17
100
AcDbEntity
  8
4
100
AcDbLine
 10
152.7552340260987
 20
263.0653138541448
 30
0.0
 11
326.7552340260987
 21
263.0653138541448
 31
0.0
  0
LINE
  5
2ED
330
17
100
AcDbEntity
  8
4
100
AcDbLine
 10
388.7550660260987
 20
235.0651778541447
 30
0.0
 11
389.7550660260987
 21
234.0651778541447
 31
0.0
  0
LINE
  5
2EE
330
17
100
AcDbEntity
  8
4
100
AcDbLine
 10
330.7550660260987
 20
250.0651778541447
 30
0.0
 11
329.7550660260987
 21
250.0651778541447
 31
0.0
  0
LINE
  5
2EF
330
17
100
AcDbEntity
  8
4
100
AcDbLine
 10
330.7550660260987
 20
236.5651778541447
 30
0.0
 11
344.7550660260987
 21
236.5651778541447
 31
0.0
  0
LINE
  5
2F0
330
17
100
AcDbEntity
  8
4
100
AcDbLine
 10
349.7550660260987
 20
235.0651778541447
 30
0.0
 11
349.7550660260987
 21
238.0651778541447
 31
0.0
  0
LINE
  5
2F1
330
17
100
AcDbEntity
  8
4
100
AcDbLine
 10
344.7550660260987
 20
235.0651778541447
 30
0.0
 11
388.7550660260987
 21
235.0651778541447
 31
0.0
  0
LINE
  5
2F2
330
17
100
AcDbEntity
  8
4
100
AcDbLine
 10
349.7550660260987
 20
238.0651778541447
 30
0.0
 11
389.7550660260987
 21
238.0651778541447
 31
0.0
  0
LINE
  5
2F3
330
17
100
AcDbEntity
  8
4
100
AcDbLine
 10
389.7550660260987
 20
214.0653138541448
 30
0.0
 11
388.7550660260987
 21
213.0653138541448
 31
0.0
  0
LINE
  5
2F4
330
17
100
AcDbEntity
  8
4
100
AcDbLine
 10
330.7550660260987
 20
211.5653138541448
 30
0.0
 11
344.7550660260987
 21
211.5653138541448
 31
0.0
  0
ARC
  5
2F5
330
17
100
AcDbEntity
  8
4
100
AcDbCircle
 10
316.3355044090373
 20
214.6455842370838
 30
0.0
 40
4.0
100
AcDbArc
 50
14.02484550057105
 51
75.97515449942561
  0
LINE
  5
2F6
330
17
100
AcDbEntity
  8
4
100
AcDbLine
 10
330.7550660260987
 20
198.0653138541448
 30
0.0
 11
329.7550660260987
 21
198.0653138541448
 31
0.0
  0
LINE
  5
2F7
330
17
100
AcDbEntity
  8
4
100
AcDbLine
 10
344.7550660260987
 20
213.0653138541448
 30
0.0
 11
388.7550660260987
 21
213.0653138541448
 31
0.0
  0
LINE
  5
2F8
330
17
100
AcDbEntity
  8
4
100
AcDbLine
 10
330.7550660260987
 20
198.0653138541448
 30
0.0
 11
330.7550660260987
 21
250.0651778541447
 31
0.0
  0
LINE
  5
2F9
330
17
100
AcDbEntity
  8
4
100
AcDbLine
 10
344.7550660260987
 20
236.5651778541447
 30
0.0
 11
344.7550660260987
 21
211.5653138541448
 31
0.0
  0
LINE
  5
2FA
330
17
100
AcDbEntity
  8
4
100
AcDbLine
 10
389.7550660260987
 20
214.0653138541448
 30
0.0
 11
389.7550660260987
 21
238.0651778541447
 31
0.0
  0
LINE
  5
2FB
330
17
100
AcDbEntity
  8
4
100
AcDbLine
 10
388.7550660260987
 20
235.0651778541447
 30
0.0
 11
388.7550660260987
 21
213.0653138541448
 31
0.0
  0
LINE
  5
2FC
330
17
100
AcDbEntity
  8
4
100
AcDbLine
 10
148.7554020260987
 20
250.0651778541447
 30
0.0
 11
149.7554020260987
 21
250.0651778541447
 31
0.0
  0
LINE
  5
2FD
330
17
100
AcDbEntity
  8
4
100
AcDbLine
 10
148.7553100260988
 20
250.0651778541447
 30
0.0
 11
149.7553100260988
 21
250.0651778541447
 31
0.0
  0
ARC
  5
2FE
330
17
100
AcDbEntity
  8
4
100
AcDbCircle
 10
163.1749636431601
 20
214.6455842370838
 30
0.0
 40
4.0
100
AcDbArc
 50
104.0248455005744
 51
165.9751544994291
  0
LINE
  5
2FF
330
17
100
AcDbEntity
  8
4
100
AcDbLine
 10
148.7554020260987
 20
198.0653138541448
 30
0.0
 11
149.7554020260987
 21
198.0653138541448
 31
0.0
  0
LINE
  5
300
330
17
100
AcDbEntity
  8
4
100
AcDbLine
 10
148.7553100260988
 20
198.0653138541448
 30
0.0
 11
149.7553100260988
 21
198.0653138541448
 31
0.0
  0
LINE
  5
301
330
17
100
AcDbEntity
  8
4
100
AcDbLine
 10
148.7554020260987
 20
198.0653138541448
 30
0.0
 11
148.7554020260987
 21
250.0651778541447
 31
0.0
  0
LINE
  5
302
330
17
100
AcDbEntity
  8
4
100
AcDbLine
 10
148.7553100260988
 20
198.0653138541448
 30
0.0
 11
148.7553100260988
 21
250.0651778541447
 31
0.0
  0
LINE
  5
303
330
17
100
AcDbEntity
  8
L-CENTER
 48
2.0
100
AcDbLine
 10
394.5861653769126
 20
224.0653138541448
 30
0.0
 11
84.92430267528482
 21
224.0653138541448
 31
0.0
  0
ARC
  5
304
330
17
100
AcDbEntity
  8
4
100
AcDbCircle
 10
239.7552340260987
 20
-91.9346861458551
 30
0.0
 40
320.0
100
AcDbArc
 50
75.97515449942686
 51
104.0248455005731
  0
LINE
  5
305
330
17
100
AcDbEntity
  8
4
100
AcDbLine
 10
149.7552340260987
 20
224.0653138541448
 30
0.0
 11
149.7552340260987
 21
261.0653138541448
 31
0.0
  0
LINE
  5
306
330
17
100
AcDbEntity
  8
4
100
AcDbLine
 10
151.7552340260987
 20
262.0653138541448
 30
0.0
 11
151.7552340260985
 21
229.0653138541448
 31
0.0
  0
LINE
  5
307
330
17
100
AcDbEntity
  8
L-CENTER
 48
2.0
100
AcDbLine
 10
194.7552340260987
 20
253.9554050120998
 30
0.0
 11
194.7552340260987
 21
275.5838405648665
 31
0.0
  0
LINE
  5
308
330
17
100
AcDbEntity
  8
4
100
AcDbLine
 10
327.7552340260987
 20
262.0653138541448
 30
0.0
 11
327.7552340260989
 21
229.0653138541448
 31
0.0
  0
ARC
  5
30C
330
17
100
AcDbEntity
  8
4
100
AcDbCircle
 10
132.2552340260987
 20
411.8788673791926
 30
0.0
 40
5.0
100
AcDbArc
 50
180.0
 51
270.0
  0
LINE
  5
30D
330
17
100
AcDbEntity
  8
4
100
AcDbLine
 10
132.2552340260987
 20
406.8788673791926
 30
0.0
 11
172.4806806460996
 21
406.8788673791926
 31
0.0
  0
LINE
  5
30E
330
17
100
AcDbEntity
  8
L-CENTER
 48
2.0
100
AcDbLine
 10
135.0502601143777
 20
421.8788673791926
 30
0.0
 11
159.4602079378197
 21
421.8788673791926
 31
0.0
  0
LINE
  5
30F
330
17
100
AcDbEntity
  8
L-CENTER
 48
2.0
100
AcDbLine
 10
239.7552340260987
 20
604.5056566975243
 30
0.0
 11
239.7552340260987
 21
339.2520780608609
 31
0.0
  0
LINE
  5
310
330
17
100
AcDbEntity
  8
4
100
AcDbLine
 10
127.2552340260987
 20
531.8788673791926
 30
0.0
 11
127.2552340260987
 21
482.8788673791926
 31
0.0
  0
LINE
  5
311
330
17
100
AcDbEntity
  8
4
100
AcDbLine
 10
352.2552340260989
 20
411.8788673791926
 30
0.0
 11
352.2552340260989
 21
460.8788673791926
 31
0.0
  0
LINE
  5
312
330
17
100
AcDbEntity
  8
4
100
AcDbLine
 10
327.7552340260989
 20
526.6788673791925
 30
0.0
 11
327.7552340260982
 21
434.8788673791926
 31
0.0
  0
LINE
  5
313
330
17
100
AcDbEntity
  8
4
100
AcDbLine
 10
151.7552340260987
 20
526.6788673791925
 30
0.0
 11
151.7552340260984
 21
434.8788673791926
 31
0.0
  0
LINE
  5
314
330
17
100
AcDbEntity
  8
4
100
AcDbLine
 10
149.7552340260987
 20
508.8788673791926
 30
0.0
 11
149.7552340260987
 21
433.8788673791926
 31
0.0
  0
LINE
  5
315
330
17
100
AcDbEntity
  8
4
100
AcDbLine
 10
329.7552340260988
 20
508.8788673791928
 30
0.0
 11
329.7552340260987
 21
433.8788673791926
 31
0.0
  0
LINE
  5
31B
330
17
100
AcDbEntity
  8
4
100
AcDbLine
 10
749.874903436843
 20
152.0653138541448
 30
0.0
 11
750.874903436843
 21
151.0653138541448
 31
0.0
  0
LINE
  5
31C
330
17
100
AcDbEntity
  8
4
100
AcDbLine
 10
705.8749034368432
 20
155.0653138541448
 30
0.0
 11
705.8749034368432
 21
152.0653138541448
 31
0.0
  0
LINE
  5
31D
330
17
100
AcDbEntity
  8
4
100
AcDbLine
 10
750.8749034368432
 20
155.0653138541448
 30
0.0
 11
705.8749034368432
 21
155.0653138541448
 31
0.0
  0
LINE
  5
31E
330
17
100
AcDbEntity
  8
4
100
AcDbLine
 10
749.874903436843
 20
152.0653138541448
 30
0.0
 11
700.8749034368432
 21
152.0653138541448
 31
0.0
  0
LINE
  5
320
330
17
100
AcDbEntity
  8
4
100
AcDbLine
 10
750.874903436843
 20
125.0653138541448
 30
0.0
 11
749.874903436843
 21
124.0653138541448
 31
0.0
  0
LINE
  5
321
330
17
100
AcDbEntity
  8
4
100
AcDbLine
 10
749.874903436843
 20
124.0653138541448
 30
0.0
 11
700.8749034368432
 21
124.0653138541448
 31
0.0
  0
LINE
  5
322
330
17
100
AcDbEntity
  8
4
100
AcDbLine
 10
750.8749034368432
 20
155.0653138541448
 30
0.0
 11
750.874903436843
 21
125.0653138541448
 31
0.0
  0
LINE
  5
323
330
17
100
AcDbEntity
  8
4
100
AcDbLine
 10
749.874903436843
 20
152.0653138541448
 30
0.0
 11
749.874903436843
 21
124.0653138541448
 31
0.0
  0
LINE
  5
328
330
17
100
AcDbEntity
  8
4
100
AcDbLine
 10
700.8749034368432
 20
123.0653138541448
 30
0.0
 11
700.8749034368432
 21
153.0653138541448
 31
0.0
  0
ARC
  5
329
330
17
100
AcDbEntity
  8
4
100
AcDbCircle
 10
682.4745766080405
 20
176.7649870253424
 30
0.0
 40
2.0
100
AcDbArc
 50
191.3099324740192
 51
258.6900675259791
  0
LINE
  5
32A
330
17
100
AcDbEntity
  8
4
100
AcDbLine
 10
680.8266803681738
 20
158.5653138541444
 30
0.0
 11
676.6749034368431
 21
157.2187916061454
 31
0.0
  0
LINE
  5
32B
330
17
100
AcDbEntity
  8
4
100
AcDbLine
 10
682.3683470348406
 20
158.5653138541446
 30
0.0
 11
680.826680368174
 21
158.5653138541444
 31
0.0
  0
LINE
  5
32C
330
17
100
AcDbEntity
  8
4
100
AcDbLine
 10
691.8746594368431
 20
163.0653138541448
 30
0.0
 11
690.8746594368431
 21
163.0653138541448
 31
0.0
  0
ARC
  5
32D
330
17
100
AcDbEntity
  8
4
100
AcDbCircle
 10
689.774903436843
 20
172.2455099514263
 30
0.0
 40
1.0
100
AcDbArc
 50
0.0
 51
78.69006752598236
  0
LINE
  5
32E
330
17
100
AcDbEntity
  8
4
100
AcDbLine
 10
680.8266803681738
 20
158.5653138541444
 30
0.0
 11
680.8266803681738
 21
174.815028383639
 31
0.0
  0
LINE
  5
32F
330
17
100
AcDbEntity
  8
4
100
AcDbLine
 10
689.9710195719811
 20
173.2260906271171
 30
0.0
 11
682.0823443377642
 21
174.8038256739605
 31
0.0
  0
LINE
  5
330
330
17
100
AcDbEntity
  8
4
100
AcDbLine
 10
555.7644719107686
 20
174.164154795692
 30
0.0
 11
563.7750175783715
 21
175.0542154254256
 31
0.0
  0
ARC
  5
331
330
17
100
AcDbEntity
  8
4
100
AcDbCircle
 10
563.5541545262217
 20
177.041982894773
 30
0.0
 40
2.0
100
AcDbArc
 50
276.3401917459083
 51
346.3286928678039
  0
LINE
  5
332
330
17
100
AcDbEntity
  8
4
100
AcDbLine
 10
563.6249034368429
 20
158.5653138541446
 30
0.0
 11
565.1665701035095
 21
158.5653138541444
 31
0.0
  0
LINE
  5
333
330
17
100
AcDbEntity
  8
4
100
AcDbLine
 10
565.1665701035095
 20
158.5653138541444
 30
0.0
 11
565.1665701035097
 21
174.9707425835323
 31
0.0
  0
ARC
  5
334
330
17
100
AcDbEntity
  8
4
100
AcDbCircle
 10
555.8749034368434
 20
173.1702710610185
 30
0.0
 40
1.0
100
AcDbArc
 50
96.34019174591171
 51
180.0
  0
LINE
  5
335
330
17
100
AcDbEntity
  8
4
100
AcDbLine
 10
678.1749034368431
 20
143.8153138541447
 30
0.0
 11
676.6749034368431
 21
143.8153138541447
 31
0.0
  0
LINE
  5
336
330
17
100
AcDbEntity
  8
4
100
AcDbLine
 10
684.1749034368431
 20
143.0653138541448
 30
0.0
 11
678.1749034368431
 21
143.0653138541447
 31
0.0
  0
LINE
  5
337
330
17
100
AcDbEntity
  8
2
100
AcDbLine
 10
676.6749034368431
 20
138.0653138541448
 30
0.0
 11
678.1749034368431
 21
139.5653138541448
 31
0.0
  0
LINE
  5
338
330
17
100
AcDbEntity
  8
2
100
AcDbLine
 10
676.6749034368431
 20
135.9439935105852
 30
0.0
 11
678.1749034368431
 21
137.4439935105852
 31
0.0
  0
LINE
  5
339
330
17
100
AcDbEntity
  8
4
100
AcDbLine
 10
678.1749034368431
 20
132.3153138541448
 30
0.0
 11
676.6749034368431
 21
132.3153138541448
 31
0.0
  0
LINE
  5
33A
330
17
100
AcDbEntity
  8
4
100
AcDbLine
 10
684.1749034368431
 20
133.0653138541448
 30
0.0
 11
678.1749034368431
 21
133.0653138541447
 31
0.0
  0
LINE
  5
33B
330
17
100
AcDbEntity
  8
4
100
AcDbLine
 10
678.1749034368431
 20
132.3153138541448
 30
0.0
 11
678.1749034368431
 21
143.8153138541447
 31
0.0
  0
LINE
  5
33C
330
17
100
AcDbEntity
  8
4
100
AcDbLine
 10
684.1749034368431
 20
133.0653138541448
 30
0.0
 11
684.1749034368431
 21
143.0653138541448
 31
0.0
  0
LINE
  5
33D
330
17
100
AcDbEntity
  8
4
100
AcDbLine
 10
563.6249034368429
 20
158.5653138541444
 30
0.0
 11
572.8749034368432
 21
155.5653138541446
 31
0.0
  0
LINE
  5
33E
330
17
100
AcDbEntity
  8
4
100
AcDbLine
 10
565.1665701035097
 20
158.5653138541444
 30
0.0
 11
572.8749034368432
 21
156.0653138541446
 31
0.0
  0
LINE
  5
33F
330
17
100
AcDbEntity
  8
4
100
AcDbLine
 10
682.3683470348406
 20
158.5653138541444
 30
0.0
 11
676.6749034368434
 21
156.7187916061455
 31
0.0
  0
LINE
  5
340
330
17
100
AcDbEntity
  8
4
100
AcDbLine
 10
682.3683470348407
 20
143.0653138541448
 30
0.0
 11
682.3683470348406
 21
158.5653138541446
 31
0.0
  0
LINE
  5
347
330
17
100
AcDbEntity
  8
4
100
AcDbLine
 10
682.3683470348406
 20
117.5653138541452
 30
0.0
 11
676.6749034368434
 21
119.4118361021442
 31
0.0
  0
LINE
  5
348
330
17
100
AcDbEntity
  8
4
100
AcDbLine
 10
680.8266803681738
 20
117.5653138541451
 30
0.0
 11
676.6749034368431
 21
118.9118361021443
 31
0.0
  0
LINE
  5
349
330
17
100
AcDbEntity
  8
4
100
AcDbLine
 10
682.3683470348406
 20
117.565313854145
 30
0.0
 11
680.826680368174
 21
117.5653138541451
 31
0.0
  0
LINE
  5
34A
330
17
100
AcDbEntity
  8
4
100
AcDbLine
 10
691.8746594368431
 20
113.0653138541448
 30
0.0
 11
690.8746594368431
 21
113.0653138541448
 31
0.0
  0
LINE
  5
34B
330
17
100
AcDbEntity
  8
4
100
AcDbLine
 10
689.9710195719811
 20
102.9045370811725
 30
0.0
 11
682.0823443377642
 21
101.3268020343291
 31
0.0
  0
ARC
  5
34C
330
17
100
AcDbEntity
  8
4
100
AcDbCircle
 10
682.4745766080405
 20
99.36564068294723
 30
0.0
 40
2.0
100
AcDbArc
 50
101.3099324740209
 51
168.6900675259808
  0
ARC
  5
34D
330
17
100
AcDbEntity
  8
4
100
AcDbCircle
 10
689.774903436843
 20
103.8851177568633
 30
0.0
 40
1.0
100
AcDbArc
 50
281.3099324740177
 51
0.0
  0
LINE
  5
34E
330
17
100
AcDbEntity
  8
4
100
AcDbLine
 10
680.8266803681738
 20
117.5653138541451
 30
0.0
 11
680.8266803681738
 21
101.3155993246506
 31
0.0
  0
LINE
  5
34F
330
17
100
AcDbEntity
  8
4
100
AcDbLine
 10
563.6249034368429
 20
117.5653138541452
 30
0.0
 11
572.8749034368432
 21
120.565313854145
 31
0.0
  0
LINE
  5
350
330
17
100
AcDbEntity
  8
4
100
AcDbLine
 10
565.1665701035097
 20
117.5653138541451
 30
0.0
 11
572.8749034368432
 21
120.065313854145
 31
0.0
  0
LINE
  5
351
330
17
100
AcDbEntity
  8
4
100
AcDbLine
 10
563.6249034368429
 20
117.565313854145
 30
0.0
 11
565.1665701035095
 21
117.5653138541451
 31
0.0
  0
LINE
  5
352
330
17
100
AcDbEntity
  8
4
100
AcDbLine
 10
555.7644719107686
 20
101.9664729125975
 30
0.0
 11
563.7750175783715
 21
101.0764122828638
 31
0.0
  0
ARC
  5
353
330
17
100
AcDbEntity
  8
4
100
AcDbCircle
 10
555.8749034368434
 20
102.9603566472711
 30
0.0
 40
1.0
100
AcDbArc
 50
180.0
 51
263.6598082540883
  0
ARC
  5
354
330
17
100
AcDbEntity
  8
4
100
AcDbCircle
 10
562.012487859555
 20
99.25994110981293
 30
0.0
 40
2.0
100
AcDbArc
 50
13.67130713219611
 51
83.65980825409171
  0
ARC
  5
355
330
17
100
AcDbEntity
  8
4
100
AcDbCircle
 10
563.5541545262217
 20
99.08864481351651
 30
0.0
 40
2.0
100
AcDbArc
 50
13.67130713219611
 51
83.65980825409171
  0
LINE
  5
356
330
17
100
AcDbEntity
  8
4
100
AcDbLine
 10
565.1665701035097
 20
100.9217953356263
 30
0.0
 11
565.1665701035095
 21
117.5653138541452
 31
0.0
  0
LINE
  5
357
330
17
100
AcDbEntity
  8
2
100
AcDbLine
 10
676.6749034368431
 20
67.48424344571293
 30
0.0
 11
678.1749034368431
 21
68.98424344571293
 31
0.0
  0
LINE
  5
358
330
17
100
AcDbEntity
  8
4
100
AcDbLine
 10
678.1749034368431
 20
61.73424344571299
 30
0.0
 11
678.1749034368431
 21
73.23424344571288
 31
0.0
  0
LINE
  5
359
330
17
100
AcDbEntity
  8
4
100
AcDbLine
 10
684.1749034368431
 20
62.48424344571299
 30
0.0
 11
684.1749034368431
 21
72.48424344571293
 31
0.0
  0
LINE
  5
35A
330
17
100
AcDbEntity
  8
2
100
AcDbLine
 10
676.6749034368431
 20
65.36292310215333
 30
0.0
 11
678.1749034368431
 21
66.86292310215333
 31
0.0
  0
LINE
  5
35B
330
17
100
AcDbEntity
  8
4
100
AcDbLine
 10
678.1749034368431
 20
61.73424344571299
 30
0.0
 11
676.6749034368431
 21
61.73424344571299
 31
0.0
  0
LINE
  5
35C
330
17
100
AcDbEntity
  8
4
100
AcDbLine
 10
684.1749034368431
 20
62.48424344571299
 30
0.0
 11
678.1749034368431
 21
62.48424344571288
 31
0.0
  0
LINE
  5
35D
330
17
100
AcDbEntity
  8
4
100
AcDbLine
 10
678.1749034368431
 20
73.23424344571288
 30
0.0
 11
676.6749034368431
 21
73.23424344571288
 31
0.0
  0
LINE
  5
35E
330
17
100
AcDbEntity
  8
4
100
AcDbLine
 10
684.1749034368431
 20
72.48424344571293
 30
0.0
 11
678.1749034368431
 21
72.48424344571288
 31
0.0
  0
LINE
  5
35F
330
17
100
AcDbEntity
  8
L-CENTER
 48
2.0
100
AcDbLine
 10
686.9281509945422
 20
67.48424344571293
 30
0.0
 11
653.5736983491997
 21
67.48424344571293
 31
0.0
  0
LINE
  5
360
330
17
100
AcDbEntity
  8
4
100
AcDbLine
 10
572.8749034368427
 20
69.23198052081153
 30
0.0
 11
565.4974897325455
 21
99.56134797181147
 31
0.0
  0
LINE
  5
361
330
17
100
AcDbEntity
  8
4
100
AcDbLine
 10
572.8749034368432
 20
63.06531385414468
 30
0.0
 11
563.9558230658788
 21
99.73264426810789
 31
0.0
  0
LINE
  5
362
330
17
100
AcDbEntity
  8
4
100
AcDbLine
 10
676.6749034368431
 20
72.91678458375651
 30
0.0
 11
682.3683470348406
 21
101.3840025737443
 31
0.0
  0
LINE
  5
363
330
17
100
AcDbEntity
  8
4
100
AcDbLine
 10
676.6749034368429
 20
80.5653138541457
 30
0.0
 11
680.5134152566586
 21
99.75787295322351
 31
0.0
  0
LINE
  5
365
330
17
100
AcDbEntity
  8
4
100
AcDbLine
 10
554.8749034368434
 20
173.1702710610185
 30
0.0
 11
554.8749034368432
 21
102.9603566472711
 31
0.0
  0
LINE
  5
366
330
17
100
AcDbEntity
  8
4
100
AcDbLine
 10
563.6249034368429
 20
117.5653138541452
 30
0.0
 11
563.6249034368429
 21
158.5653138541446
 31
0.0
  0
LINE
  5
367
330
17
100
AcDbEntity
  8
4
100
AcDbLine
 10
690.774903436843
 20
172.2455099514263
 30
0.0
 11
690.774903436843
 21
103.8851177568633
 31
0.0
  0
LINE
  5
368
330
17
100
AcDbEntity
  8
4
100
AcDbLine
 10
691.8746594368431
 20
163.0653138541448
 30
0.0
 11
691.8746594368431
 21
113.0653138541448
 31
0.0
  0
LINE
  5
369
330
17
100
AcDbEntity
  8
4
100
AcDbLine
 10
682.3683470348406
 20
117.5653138541452
 30
0.0
 11
682.3683470348407
 21
133.0653138541448
 31
0.0
  0
ARC
  5
36B
330
17
100
AcDbEntity
  8
4
100
AcDbCircle
 10
330.089824446383
 20
185.0935001584184
 30
0.0
 40
2.0
100
AcDbArc
 50
99.63059393228053
 51
182.0309142368539
  0
ARC
  5
36C
330
17
100
AcDbEntity
  8
4
100
AcDbCircle
 10
309.7219968428977
 20
158.8896289914493
 30
0.0
 40
3.0
100
AcDbArc
 50
265.4873310503889
 51
16.57466510217323
  0
ARC
  5
36D
330
17
100
AcDbEntity
  8
4
100
AcDbCircle
 10
279.3114626045491
 20
162.2928656098325
 30
0.0
 40
4.0
100
AcDbArc
 50
186.8206888240435
 51
265.48733105039
  0
ARC
  5
36E
330
17
100
AcDbEntity
  8
4
100
AcDbCircle
 10
149.4206436058145
 20
185.0935001584184
 30
0.0
 40
2.0
100
AcDbArc
 50
357.9690857631461
 51
80.36940606771947
  0
ARC
  5
36F
330
17
100
AcDbEntity
  8
4
100
AcDbCircle
 10
200.1990054476483
 20
162.2928656098325
 30
0.0
 40
4.0
100
AcDbArc
 50
274.51266894961
 51
353.1793111759566
  0
ARC
  5
370
330
17
100
AcDbEntity
  8
4
100
AcDbCircle
 10
169.7884712092997
 20
158.8896289914493
 30
0.0
 40
3.0
100
AcDbArc
 50
163.4253348978266
 51
274.5126689496111
  0
LINE
  5
371
330
17
100
AcDbEntity
  8
4
100
AcDbLine
 10
170.0245097905041
 20
155.8989291087825
 30
0.0
 11
200.5137235559208
 21
158.3052657662768
 31
0.0
  0
LINE
  5
372
330
17
100
AcDbEntity
  8
L-CENTER
 48
2.0
100
AcDbLine
 10
143.9218660878629
 20
138.0653138541448
 30
0.0
 11
335.5886019643345
 21
138.0653138541448
 31
0.0
  0
LINE
  5
373
330
17
100
AcDbEntity
  8
4
100
AcDbLine
 10
309.4859582616933
 20
155.8989291087825
 30
0.0
 11
278.9967444962766
 21
158.3052657662767
 31
0.0
  0
ARC
  5
374
330
17
100
AcDbEntity
  8
4
100
AcDbCircle
 10
309.7219968428977
 20
117.2409987168404
 30
0.0
 40
3.0
100
AcDbArc
 50
343.4253348978268
 51
94.51266894961115
  0
ARC
  5
375
330
17
100
AcDbEntity
  8
4
100
AcDbCircle
 10
279.3114626045491
 20
113.8377620984572
 30
0.0
 40
4.0
100
AcDbArc
 50
94.51266894961007
 51
173.1793111759565
  0
ARC
  5
376
330
17
100
AcDbEntity
  8
4
100
AcDbCircle
 10
263.9827857817864
 20
98.50908527569453
 30
0.0
 40
4.0
100
AcDbArc
 50
96.82068882404359
 51
175.4873310503899
  0
ARC
  5
377
330
17
100
AcDbEntity
  8
4
100
AcDbCircle
 10
271.2253628212808
 20
106.595185058963
 30
0.0
 40
3.0
100
AcDbArc
 50
279.1922026080017
 51
350.8077973919972
  0
ARC
  5
378
330
17
100
AcDbEntity
  8
4
100
AcDbCircle
 10
215.527682270411
 20
98.50908527569453
 30
0.0
 40
4.0
100
AcDbArc
 50
4.51266894961006
 51
83.17931117595643
  0
ARC
  5
379
330
17
100
AcDbEntity
  8
4
100
AcDbCircle
 10
270.362960226391
 20
107.4575876538525
 30
0.0
 40
3.0
100
AcDbArc
 50
278.938207437761
 51
351.061792562239
  0
ARC
  5
37A
330
17
100
AcDbEntity
  8
4
100
AcDbCircle
 10
200.1990054476483
 20
113.8377620984572
 30
0.0
 40
4.0
100
AcDbArc
 50
6.820688824043479
 51
85.48733105038995
  0
ARC
  5
37B
330
17
100
AcDbEntity
  8
4
100
AcDbCircle
 10
169.7884712092997
 20
117.2409987168404
 30
0.0
 40
3.0
100
AcDbArc
 50
85.48733105038887
 51
196.5746651021734
  0
ARC
  5
37C
330
17
100
AcDbEntity
  8
4
100
AcDbCircle
 10
146.7552340260989
 20
122.0653138541448
 30
0.0
 40
3.0
100
AcDbArc
 50
270.0
 51
0.0
  0
LINE
  5
37D
330
17
100
AcDbEntity
  8
4
100
AcDbLine
 10
145.2552340260989
 20
115.0653138541448
 30
0.0
 11
146.7552340260989
 21
115.0653138541448
 31
0.0
  0
LINE
  5
37E
330
17
100
AcDbEntity
  8
4
100
AcDbLine
 10
170.0245097905041
 20
120.2316985995072
 30
0.0
 11
200.5137235559208
 21
117.8253619420129
 31
0.0
  0
ARC
  5
37F
330
17
100
AcDbEntity
  8
4
100
AcDbCircle
 10
208.2851052309167
 20
106.595185058963
 30
0.0
 40
3.0
100
AcDbArc
 50
189.1922026080028
 51
260.8077973919983
  0
ARC
  5
380
330
17
100
AcDbEntity
  8
4
100
AcDbCircle
 10
209.1475078258064
 20
107.4575876538525
 30
0.0
 40
3.0
100
AcDbArc
 50
188.938207437761
 51
261.061792562239
  0
ARC
  5
381
330
17
100
AcDbEntity
  8
4
100
AcDbCircle
 10
239.7552340260987
 20
302.0653138541448
 30
0.0
 40
200.0
100
AcDbArc
 50
261.0617925622385
 51
278.9382074377615
  0
ARC
  5
382
330
17
100
AcDbEntity
  8
4
100
AcDbCircle
 10
239.7552340260987
 20
301.0653138541448
 30
0.0
 40
200.0
100
AcDbArc
 50
260.8077973919987
 51
279.1922026080013
  0
ARC
  5
383
330
17
100
AcDbEntity
  8
4
100
AcDbCircle
 10
260.5795491634032
 20
68.09855103734589
 30
0.0
 40
3.0
100
AcDbArc
 50
175.4873310503889
 51
286.5746651021743
  0
ARC
  5
384
330
17
100
AcDbEntity
  8
4
100
AcDbCircle
 10
218.9309188887943
 20
68.09855103734589
 30
0.0
 40
3.0
100
AcDbArc
 50
253.4253348978262
 51
4.512668949611111
  0
LINE
  5
385
330
17
100
AcDbEntity
  8
4
100
AcDbLine
 10
144.7552340260989
 20
74.06531385414479
 30
0.0
 11
146.7552340260989
 21
74.06531385414479
 31
0.0
  0
ARC
  5
386
330
17
100
AcDbEntity
  8
4
100
AcDbCircle
 10
146.7552340260992
 20
79.06531385414479
 30
0.0
 40
1.0
100
AcDbArc
 50
270.0
 51
0.0
  0
ARC
  5
387
330
17
100
AcDbEntity
  8
4
100
AcDbCircle
 10
146.7552340260989
 20
82.06531385414479
 30
0.0
 40
1.0
100
AcDbArc
 50
0.0
 51
90.0
  0
LINE
  5
388
330
17
100
AcDbEntity
  8
4
100
AcDbLine
 10
145.2552340260989
 20
87.06531385414479
 30
0.0
 11
146.7552340260989
 21
87.06531385414479
 31
0.0
  0
LINE
  5
389
330
17
100
AcDbEntity
  8
L-CENTER
 48
2.0
100
AcDbLine
 10
160.9100321014459
 20
68.06531385414479
 30
0.0
 11
140.689764787826
 21
68.06531385414479
 31
0.0
  0
ARC
  5
38A
330
17
100
AcDbEntity
  8
4
100
AcDbCircle
 10
146.7552340260989
 20
57.06531385414479
 30
0.0
 40
1.0
100
AcDbArc
 50
0.0
 51
90.0
  0
LINE
  5
38B
330
17
100
AcDbEntity
  8
4
100
AcDbLine
 10
144.7552340260989
 20
62.06531385414479
 30
0.0
 11
146.7552340260989
 21
62.06531385414479
 31
0.0
  0
LINE
  5
38C
330
17
100
AcDbEntity
  8
4
100
AcDbLine
 10
144.7552340260989
 20
62.06531385414479
 30
0.0
 11
144.7552340260989
 21
74.06531385414479
 31
0.0
  0
LINE
  5
38D
330
17
100
AcDbEntity
  8
4
100
AcDbLine
 10
146.7552340260989
 20
78.06531385414479
 30
0.0
 11
146.7552340260989
 21
58.06531385414479
 31
0.0
  0
LINE
  5
38E
330
17
100
AcDbEntity
  8
4
100
AcDbLine
 10
257.5888492807363
 20
68.3345896185503
 30
0.0
 11
259.9951859382307
 21
98.823803383967
 31
0.0
  0
LINE
  5
38F
330
17
100
AcDbEntity
  8
4
100
AcDbLine
 10
221.9216187714611
 20
68.3345896185503
 30
0.0
 11
219.5152821139667
 21
98.823803383967
 31
0.0
  0
LINE
  5
390
330
17
100
AcDbEntity
  8
4
100
AcDbLine
 10
146.7552340260989
 20
87.06531385414479
 30
0.0
 11
146.7552340260989
 21
115.0653138541448
 31
0.0
  0
LINE
  5
391
330
17
100
AcDbEntity
  8
4
100
AcDbLine
 10
145.2552340260989
 20
86.06531385414479
 30
0.0
 11
145.2552340260989
 21
116.0653138541448
 31
0.0
  0
LINE
  5
392
330
17
100
AcDbEntity
  8
4
100
AcDbLine
 10
143.2552340260989
 20
86.06531385414479
 30
0.0
 11
143.2552340260989
 21
116.0653138541448
 31
0.0
  0
LINE
  5
393
330
17
100
AcDbEntity
  8
4
100
AcDbLine
 10
146.7552340260989
 20
119.0653138541448
 30
0.0
 11
146.7552340260989
 21
83.06531385414479
 31
0.0
  0
LINE
  5
394
330
17
100
AcDbEntity
  8
4
100
AcDbLine
 10
309.4859582616933
 20
120.2316985995072
 30
0.0
 11
278.9967444962766
 21
117.8253619420129
 31
0.0
  0
LINE
  5
395
330
17
100
AcDbEntity
  8
4
100
AcDbLine
 10
329.7552340260987
 20
138.0653138541448
 30
0.0
 11
329.7552340260987
 21
59.06531385414479
 31
0.0
  0
ARC
  5
396
330
17
100
AcDbEntity
  8
4
100
AcDbCircle
 10
9.755234026098833
 20
138.0653138541452
 30
0.0
 40
320.0
100
AcDbArc
 50
345.52248781407
 51
0.0
  0
LINE
  5
397
330
17
100
AcDbEntity
  8
4
100
AcDbLine
 10
149.7552340260987
 20
138.0653138541448
 30
0.0
 11
149.7552340260987
 21
59.06531385414479
 31
0.0
  0
ARC
  5
398
330
17
100
AcDbEntity
  8
4
100
AcDbCircle
 10
469.7552340260987
 20
138.0653138541452
 30
0.0
 40
320.0
100
AcDbArc
 50
180.0
 51
194.47751218593
  0
LINE
  5
399
330
17
100
AcDbEntity
  8
4
100
AcDbLine
 10
149.7552340260989
 20
138.0653138541448
 30
0.0
 11
149.7552340260989
 21
122.0653138541448
 31
0.0
  0
ARC
  5
39A
330
17
100
AcDbEntity
  8
4
100
AcDbCircle
 10
76.75523402609883
 20
138.0653138541448
 30
0.0
 40
200.0
100
AcDbArc
 50
350.8077973919987
 51
9.192202608001365
  0
ARC
  5
39B
330
17
100
AcDbEntity
  8
4
100
AcDbCircle
 10
402.7552340260987
 20
138.0653138541448
 30
0.0
 40
200.0
100
AcDbArc
 50
170.8077973919986
 51
189.1922026080014
  0
ARC
  5
39C
330
17
100
AcDbEntity
  8
4
100
AcDbCircle
 10
403.7552340260987
 20
138.0653138541448
 30
0.0
 40
200.0
100
AcDbArc
 50
171.0617925622384
 51
188.9382074377616
  0
ARC
  5
39D
330
17
100
AcDbEntity
  8
4
100
AcDbCircle
 10
75.75523402609883
 20
138.0653138541448
 30
0.0
 40
200.0
100
AcDbArc
 50
351.0617925622385
 51
8.938207437761601
  0
ARC
  5
39E
330
17
100
AcDbEntity
  8
4
100
AcDbCircle
 10
683.8749034368432
 20
51.06531385414479
 30
0.0
 40
2.0
100
AcDbArc
 50
0.0
 51
90.0
  0
ARC
  5
39F
330
17
100
AcDbEntity
  8
4
100
AcDbCircle
 10
647.8749034368434
 20
55.0653138541449
 30
0.0
 40
2.0
100
AcDbArc
 50
180.0
 51
270.0
  0
LINE
  5
3A0
330
17
100
AcDbEntity
  8
4
100
AcDbLine
 10
685.8749034368432
 20
33.06531385414479
 30
0.0
 11
685.8749034368432
 21
51.06531385414479
 31
0.0
  0
LINE
  5
3A1
330
17
100
AcDbEntity
  8
4
100
AcDbLine
 10
685.8749034368432
 20
33.06531385414479
 30
0.0
 11
685.8749034368432
 21
51.06531385414479
 31
0.0
  0
ARC
  5
3A2
330
17
100
AcDbEntity
  8
4
100
AcDbCircle
 10
593.8749034368429
 20
55.0653138541449
 30
0.0
 40
2.0
100
AcDbArc
 50
270.0
 51
0.0
  0
ARC
  5
3A3
330
17
100
AcDbEntity
  8
4
100
AcDbCircle
 10
557.8749034368432
 20
51.06531385414479
 30
0.0
 40
2.0
100
AcDbArc
 50
90.0
 51
180.0
  0
LINE
  5
3A4
330
17
100
AcDbEntity
  8
4
100
AcDbLine
 10
555.8749034368432
 20
33.06531385414479
 30
0.0
 11
555.8749034368432
 21
51.06531385414479
 31
0.0
  0
LINE
  5
3A5
330
17
100
AcDbEntity
  8
4
100
AcDbLine
 10
555.8749034368432
 20
33.06531385414479
 30
0.0
 11
685.8749034368432
 21
33.06531385414479
 31
0.0
  0
LINE
  5
3A6
330
17
100
AcDbEntity
  8
4
100
AcDbLine
 10
557.8749034368432
 20
53.0653138541449
 30
0.0
 11
683.8749034368432
 21
53.0653138541449
 31
0.0
  0
ARC
  5
3BD
330
17
100
AcDbEntity
  8
4
100
AcDbCircle
 10
350.2552340260987
 20
51.06531385414479
 30
0.0
 40
2.0
100
AcDbArc
 50
0.0
 51
90.0
  0
ARC
  5
3BE
330
17
100
AcDbEntity
  8
4
100
AcDbCircle
 10
318.797226026099
 20
46.96784185414657
 30
0.0
 40
2.571858
100
AcDbArc
 50
125.3589809999995
 51
227.7104640000007
  0
ARC
  5
3BF
330
17
100
AcDbEntity
  8
4
100
AcDbCircle
 10
318.797226026099
 20
46.96784185414657
 30
0.0
 40
2.571858
100
AcDbArc
 50
125.3589809999995
 51
227.7104640000007
  0
ARC
  5
3C0
330
17
100
AcDbEntity
  8
4
100
AcDbCircle
 10
299.2552340260987
 20
44.06531385414479
 30
0.0
 40
3.0
100
AcDbArc
 50
0.0
 51
90.0
  0
ARC
  5
3C1
330
17
100
AcDbEntity
  8
4
100
AcDbCircle
 10
300.2552340260987
 20
50.79999801948048
 30
0.0
 40
2.0
100
AcDbArc
 50
0.0
 51
100.8295674758928
  0
ARC
  5
3C2
330
17
100
AcDbEntity
  8
4
100
AcDbCircle
 10
304.2552340260987
 20
51.06531385414479
 30
0.0
 40
2.0
100
AcDbArc
 50
90.0
 51
180.0
  0
LINE
  5
3C3
330
17
100
AcDbEntity
  8
4
100
AcDbLine
 10
350.2552340260987
 20
53.06531385414479
 30
0.0
 11
304.2552340260987
 21
53.06531385414479
 31
0.0
  0
ARC
  5
3C4
330
17
100
AcDbEntity
  8
4
100
AcDbCircle
 10
315.336044026099
 20
43.16278785414653
 30
0.0
 40
2.571856
100
AcDbArc
 50
305.3594649999995
 51
47.70996000000044
  0
ARC
  5
3C5
330
17
100
AcDbEntity
  8
4
100
AcDbCircle
 10
315.336044026099
 20
43.16278785414653
 30
0.0
 40
2.571856
100
AcDbArc
 50
305.3594649999995
 51
47.70996000000044
  0
ARC
  5
3C6
330
17
100
AcDbEntity
  8
4
100
AcDbCircle
 10
315.8206640260989
 20
51.16278785414653
 30
0.0
 40
2.571854
100
AcDbArc
 50
305.3594470000007
 51
47.70997599999974
  0
ARC
  5
3C7
330
17
100
AcDbEntity
  8
4
100
AcDbCircle
 10
315.8206640260989
 20
51.16278785414653
 30
0.0
 40
2.571854
100
AcDbArc
 50
305.3594470000007
 51
47.70997599999974
  0
ARC
  5
3C9
330
17
100
AcDbEntity
  8
4
100
AcDbCircle
 10
314.851668026099
 20
35.16278785414653
 30
0.0
 40
2.571856
100
AcDbArc
 50
305.3594649999995
 51
47.70996000000044
  0
ARC
  5
3CA
330
17
100
AcDbEntity
  8
4
100
AcDbCircle
 10
314.851668026099
 20
35.16278785414653
 30
0.0
 40
2.571856
100
AcDbArc
 50
305.3594649999995
 51
47.70996000000044
  0
LINE
  5
3CB
330
17
100
AcDbEntity
  8
4
100
AcDbLine
 10
302.2552340260987
 20
33.06531385414479
 30
0.0
 11
352.2552340260987
 21
33.06531385414479
 31
0.0
  0
LINE
  5
3CC
330
17
100
AcDbEntity
  8
4
100
AcDbLine
 10
325.7552340260989
 20
53.0653138541465
 30
0.0
 11
325.7552340260989
 21
33.0653138541465
 31
0.0
  0
LINE
  5
3CD
330
17
100
AcDbEntity
  8
4
100
AcDbLine
 10
302.2552340260987
 20
51.06531385414479
 30
0.0
 11
302.2552340260987
 21
33.06531385414479
 31
0.0
  0
ARC
  5
3CE
330
17
100
AcDbEntity
  8
4
100
AcDbCircle
 10
318.3126060260989
 20
38.96784185414657
 30
0.0
 40
2.571858
100
AcDbArc
 50
125.3589809999995
 51
227.7104640000007
  0
ARC
  5
3CF
330
17
100
AcDbEntity
  8
4
100
AcDbCircle
 10
318.3126060260989
 20
38.96784185414657
 30
0.0
 40
2.571858
100
AcDbArc
 50
125.3589809999995
 51
227.7104640000007
  0
LINE
  5
3D0
330
17
100
AcDbEntity
  8
4
100
AcDbLine
 10
338.7552340260989
 20
53.0653138541465
 30
0.0
 11
338.7552340260989
 21
33.0653138541465
 31
0.0
  0
LINE
  5
3D1
330
17
100
AcDbEntity
  8
4
100
AcDbLine
 10
352.2552340260987
 20
51.06531385414479
 30
0.0
 11
352.2552340260987
 21
33.06531385414479
 31
0.0
  0
TEXT
  5
3D5
330
17
100
AcDbEntity
  8
3
100
AcDbText
 10
424.9592105808052
 20
23.15917547246033
 30
0.0
 40
6.0
  1
LB3-06
  7
KANJI
 72
     1
 11
441.4592105808052
 21
23.15917547246033
 31
0.0
100
AcDbText
  0
ARC
  5
3D9
330
17
100
AcDbEntity
  8
4
100
AcDbCircle
 10
180.2552340260987
 20
44.06531385414479
 30
0.0
 40
3.0
100
AcDbArc
 50
90.0
 51
180.0
  0
ARC
  5
3DA
330
17
100
AcDbEntity
  8
4
100
AcDbCircle
 10
175.2552340260987
 20
51.06531385414479
 30
0.0
 40
2.0
100
AcDbArc
 50
0.0
 51
90.0
  0
ARC
  5
3DB
330
17
100
AcDbEntity
  8
4
100
AcDbCircle
 10
179.2552340260987
 20
50.79999801948048
 30
0.0
 40
2.0
100
AcDbArc
 50
79.17043252410727
 51
180.0
  0
LINE
  5
3DC
330
17
100
AcDbEntity
  8
4
100
AcDbLine
 10
177.2552340260987
 20
51.06531385414479
 30
0.0
 11
177.2552340260987
 21
33.06531385414479
 31
0.0
  0
ARC
  5
3DD
330
17
100
AcDbEntity
  8
4
100
AcDbCircle
 10
239.7552340260987
 20
367.0653138541447
 30
0.0
 40
320.0
100
AcDbArc
 50
259.1704325241047
 51
270.0
  0
LINE
  5
3E2
330
17
100
AcDbEntity
  8
4
100
AcDbLine
 10
180.2552340260987
 20
47.06531385414479
 30
0.0
 11
299.2552340260987
 21
47.06531385414479
 31
0.0
  0
ARC
  5
3E3
330
17
100
AcDbEntity
  8
4
100
AcDbCircle
 10
239.7552340260987
 20
367.0653138541447
 30
0.0
 40
320.0
100
AcDbArc
 50
270.0
 51
280.8295674758953
  0
LINE
  5
3EF
330
17
100
AcDbEntity
  8
4
100
AcDbLine
 10
147.7552340260989
 20
101.0653138541448
 30
0.0
 11
147.7552340260988
 21
54.59317789914536
 31
0.0
  0
LINE
  5
3F0
330
17
100
AcDbEntity
  8
L-CENTER
 48
2.0
100
AcDbLine
 10
147.2552340260987
 20
58.06531385414479
 30
0.0
 11
147.2552340260987
 21
30.53550522445431
 31
0.0
  0
ARC
  5
3F1
330
17
100
AcDbEntity
  8
4
100
AcDbCircle
 10
143.7552340260987
 20
59.06531385414479
 30
0.0
 40
6.0
100
AcDbArc
 50
270.0
 51
0.0
  0
ARC
  5
3F2
330
17
100
AcDbEntity
  8
4
100
AcDbCircle
 10
156.0435829832981
 20
57.06531385414479
 30
0.0
 40
4.0
100
AcDbArc
 50
270.0
 51
14.47751218592829
  0
ARC
  5
3F3
330
17
100
AcDbEntity
  8
4
100
AcDbCircle
 10
335.7552340260987
 20
59.06531385414479
 30
0.0
 40
6.0
100
AcDbArc
 50
180.0
 51
270.0
  0
ARC
  5
3F4
330
17
100
AcDbEntity
  8
4
100
AcDbCircle
 10
323.4668850688994
 20
57.06531385414479
 30
0.0
 40
4.0
100
AcDbArc
 50
165.5224878140717
 51
270.0
  0
LINE
  5
3F5
330
17
100
AcDbEntity
  8
L-CENTER
 48
2.0
100
AcDbLine
 10
332.2552340260989
 20
58.2102679376506
 30
0.0
 11
332.2552340260989
 21
29.67994741912736
 31
0.0
  0
LINE
  5
3F6
330
17
100
AcDbEntity
  8
4
100
AcDbLine
 10
645.8749034368434
 20
55.0653138541449
 30
0.0
 11
645.8749034368432
 21
133.5636428645485
 31
0.0
  0
LINE
  5
3F7
330
17
100
AcDbEntity
  8
4
100
AcDbLine
 10
595.8749034368432
 20
133.5636428645485
 30
0.0
 11
595.8749034368429
 21
54.95027073702437
 31
0.0
  0
LINE
  5
3F9
330
17
100
AcDbEntity
  8
L-CENTER
 48
2.0
100
AcDbLine
 10
570.8749034368432
 20
58.29250452252478
 30
0.0
 11
570.8749034368432
 21
28.45559262646299
 31
0.0
  0
LINE
  5
3FA
330
17
100
AcDbEntity
  8
L-CENTER
 48
2.0
100
AcDbLine
 10
670.8749034368432
 20
58.29250452252478
 30
0.0
 11
670.8749034368432
 21
28.20900728799785
 31
0.0
  0
LINE
  5
3FB
330
17
100
AcDbEntity
  8
4
100
AcDbLine
 10
138.2552340260989
 20
86.06531385414479
 30
0.0
 11
138.2552340260989
 21
116.0653138541448
 31
0.0
  0
ARC
  5
3FC
330
17
100
AcDbEntity
  8
4
100
AcDbCircle
 10
129.2552340260987
 20
51.06531385414479
 30
0.0
 40
2.0
100
AcDbArc
 50
90.0
 51
180.0
  0
LINE
  5
3FD
330
17
100
AcDbEntity
  8
4
100
AcDbLine
 10
127.2552340260987
 20
51.06531385414479
 30
0.0
 11
127.2552340260987
 21
33.06531385414479
 31
0.0
  0
LINE
  5
400
330
17
100
AcDbEntity
  8
4
100
AcDbLine
 10
127.2552340260987
 20
33.06531385414479
 30
0.0
 11
177.2552340260987
 21
33.06531385414479
 31
0.0
  0
LINE
  5
401
330
17
100
AcDbEntity
  8
4
100
AcDbLine
 10
129.2552340260987
 20
53.06531385414479
 30
0.0
 11
175.2552340260987
 21
53.06531385414479
 31
0.0
  0
LINE
  5
403
330
17
100
AcDbEntity
  8
L-CENTER
 48
2.0
100
AcDbLine
 10
157.854938045824
 20
101.0653138541448
 30
0.0
 11
133.9439467205444
 21
101.0653138541448
 31
0.0
  0
LINE
  5
404
330
17
100
AcDbEntity
  8
4
100
AcDbLine
 10
143.2552340260989
 20
93.56531385414479
 30
0.0
 11
138.2552340260989
 21
93.56531385414479
 31
0.0
  0
LINE
  5
405
330
17
100
AcDbEntity
  8
4
100
AcDbLine
 10
145.2552340260989
 20
86.06531385414479
 30
0.0
 11
138.2552340260989
 21
86.06531385414479
 31
0.0
  0
LINE
  5
406
330
17
100
AcDbEntity
  8
4
100
AcDbLine
 10
143.2552340260989
 20
108.5653138541448
 30
0.0
 11
138.2552340260989
 21
108.5653138541448
 31
0.0
  0
LINE
  5
407
330
17
100
AcDbEntity
  8
4
100
AcDbLine
 10
138.2552340260989
 20
116.0653138541448
 30
0.0
 11
145.2552340260989
 21
116.0653138541448
 31
0.0
  0
LINE
  5
442
330
17
100
AcDbEntity
  8
L-CENTER
 48
2.0
100
AcDbLine
 10
754.7521759358642
 20
138.0653138541448
 30
0.0
 11
486.9976309378221
 21
138.0653138541448
 31
0.0
  0
LINE
  5
443
330
17
100
AcDbEntity
  8
4
100
AcDbLine
 10
691.8746594368431
 20
123.0653138541448
 30
0.0
 11
700.8749034368432
 21
123.0653138541448
 31
0.0
  0
LINE
  5
444
330
17
100
AcDbEntity
  8
4
100
AcDbLine
 10
691.8746594368431
 20
153.0653138541448
 30
0.0
 11
700.8749034368432
 21
153.0653138541448
 31
0.0
  0
ARC
  5
445
330
17
100
AcDbEntity
  8
4
100
AcDbCircle
 10
239.7552340260987
 20
138.0653138541448
 30
0.0
 40
76.0
100
AcDbArc
 50
270.0000000000001
 51
73.91715176677023
  0
ARC
  5
446
330
17
100
AcDbEntity
  8
4
100
AcDbCircle
 10
239.7552340260987
 20
138.0653138541448
 30
0.0
 40
88.0
100
AcDbArc
 50
270.0
 51
90.0
  0
LINE
  5
447
330
17
100
AcDbEntity
  8
L-CENTER
 48
2.0
100
AcDbLine
 10
239.7552340260987
 20
270.4015654807923
 30
0.0
 11
239.7552340260987
 21
42.23194591590908
 31
0.0
  0
ARC
  5
448
330
17
100
AcDbEntity
  8
4
100
AcDbCircle
 10
239.7552340260987
 20
138.0653138541448
 30
0.0
 40
76.0
100
AcDbArc
 50
106.0828482332298
 51
270.0
  0
ARC
  5
449
330
17
100
AcDbEntity
  8
4
100
AcDbCircle
 10
239.7552340260987
 20
138.0653138541448
 30
0.0
 40
88.0
100
AcDbArc
 50
90.0
 51
270.0
  0
ARC
  5
44A
330
17
100
AcDbEntity
  8
4
100
AcDbCircle
 10
469.7552340260987
 20
138.0653138541448
 30
0.0
 40
320.0
100
AcDbArc
 50
165.9751544994268
 51
180.0
  0
LINE
  5
44B
330
17
100
AcDbEntity
  8
4
100
AcDbLine
 10
149.7552340260987
 20
187.0653138541448
 30
0.0
 11
149.7552340260987
 21
224.0653138541448
 31
0.0
  0
LINE
  5
44C
330
17
100
AcDbEntity
  8
4
100
AcDbLine
 10
151.7552340260985
 20
219.0653138541448
 30
0.0
 11
151.7552340260985
 21
173.7864560531264
 31
0.0
  0
ARC
  5
44D
330
17
100
AcDbEntity
  8
4
100
AcDbCircle
 10
9.755234026098833
 20
138.0653138541448
 30
0.0
 40
320.0
100
AcDbArc
 50
0.0
 51
14.02484550057317
  0
LINE
  5
44E
330
17
100
AcDbEntity
  8
4
100
AcDbLine
 10
327.7552340260989
 20
219.0653138541448
 30
0.0
 11
327.7552340260989
 21
173.7864560531264
 31
0.0
  0
LINE
  5
44F
330
17
100
AcDbEntity
  8
4
100
AcDbLine
 10
329.7552340260987
 20
187.0653138541448
 30
0.0
 11
329.7552340260987
 21
261.0653138541448
 31
0.0
  0
LINE
  5
450
330
17
100
AcDbEntity
  8
4
100
AcDbLine
 10
329.7552340260987
 20
261.0653138541447
 30
0.0
 11
329.7552340260987
 21
187.0653138541448
 31
0.0
  0
LINE
  5
451
330
17
100
AcDbEntity
  8
L-CENTER
 48
2.0
100
AcDbLine
 10
620.8749034368432
 20
26.88499471632662
 30
0.0
 11
620.8749034368432
 21
274.6168882869479
 31
0.0
  0
LINE
  5
452
330
17
100
AcDbEntity
  8
4
100
AcDbLine
 10
572.8749034368432
 20
225.0653138541448
 30
0.0
 11
572.8749034368429
 21
53.06531385414479
 31
0.0
  0
LINE
  5
453
330
17
100
AcDbEntity
  8
4
100
AcDbLine
 10
582.8749034368432
 20
228.0653138541449
 30
0.0
 11
582.8749034368432
 21
53.06531385414479
 31
0.0
  0
LINE
  5
454
330
17
100
AcDbEntity
  8
4
100
AcDbLine
 10
664.8749034368432
 20
226.0653138541448
 30
0.0
 11
664.8749034368432
 21
53.06531385414502
 31
0.0
  0
LINE
  5
455
330
17
100
AcDbEntity
  8
4
100
AcDbLine
 10
657.8749034368432
 20
224.0653138541448
 30
0.0
 11
657.8749034368432
 21
53.0653138541449
 31
0.0
  0
LINE
  5
456
330
17
100
AcDbEntity
  8
4
100
AcDbLine
 10
676.6749034368431
 20
53.0653138541449
 30
0.0
 11
676.6749034368431
 21
225.0653138541448
 31
0.0
  0
LINE
  5
45B
330
17
100
AcDbEntity
  8
4
100
AcDbLine
 10
583.8749034368432
 20
224.0653138541448
 30
0.0
 11
583.8749034368432
 21
149.9435523301036
 31
0.0
  0
CIRCLE
  5
45C
330
17
100
AcDbEntity
  8
4
100
AcDbCircle
 10
620.8749034368432
 20
224.0653138541448
 30
0.0
 40
37.0
  0
LINE
  5
45D
330
17
100
AcDbEntity
  8
4
  6
Continuous
100
AcDbLine
 10
572.8749034368432
 20
206.8986471874785
 30
0.0
 11
565.4974897325451
 21
176.569279736478
 31
0.0
  0
LINE
  5
45F
330
17
100
AcDbEntity
  8
4
100
AcDbLine
 10
676.7383952092345
 20
202.8963842625767
 30
0.0
 11
682.3683470348406
 21
174.7466251345452
 31
0.0
  0
LINE
  5
460
330
17
100
AcDbEntity
  8
4
100
AcDbLine
 10
676.6749034368429
 20
195.5653138541439
 30
0.0
 11
680.5134152566586
 21
176.3727547550661
 31
0.0
  0
LINE
  5
483
330
17
100
AcDbEntity
  8
4
100
AcDbLine
 10
90.75540202609875
 20
482.8788673791926
 30
0.0
 11
89.75540202609875
 21
481.8788673791926
 31
0.0
  0
ARC
  5
484
330
17
100
AcDbEntity
  8
4
100
AcDbCircle
 10
133.7554020260987
 20
483.8788673791926
 30
0.0
 40
1.0
100
AcDbArc
 50
270.0
 51
0.0
  0
LINE
  5
485
330
17
100
AcDbEntity
  8
4
100
AcDbLine
 10
134.7554020260987
 20
484.3788673791926
 30
0.0
 11
148.7554020260987
 21
484.3788673791926
 31
0.0
  0
LINE
  5
486
330
17
100
AcDbEntity
  8
4
100
AcDbLine
 10
90.75540202609875
 20
482.8788673791926
 30
0.0
 11
133.7554020260987
 21
482.8788673791926
 31
0.0
  0
LINE
  5
487
330
17
100
AcDbEntity
  8
4
100
AcDbLine
 10
90.75540202609875
 20
460.8788673791926
 30
0.0
 11
89.75540202609875
 21
461.8788673791926
 31
0.0
  0
LINE
  5
488
330
17
100
AcDbEntity
  8
4
100
AcDbLine
 10
90.75540202609875
 20
468.3788673791926
 30
0.0
 11
90.75540202609875
 21
460.8788673791926
 31
0.0
  0
ARC
  5
489
330
17
100
AcDbEntity
  8
4
100
AcDbCircle
 10
126.2554020260987
 20
471.8788673791926
 30
0.0
 40
3.5
100
AcDbArc
 50
270.0
 51
90.0
  0
ARC
  5
48A
330
17
100
AcDbEntity
  8
4
100
AcDbCircle
 10
133.7554020260987
 20
459.8788673791926
 30
0.0
 40
1.0
100
AcDbArc
 50
0.0
 51
90.0
  0
LINE
  5
48B
330
17
100
AcDbEntity
  8
4
100
AcDbLine
 10
134.7554020260987
 20
459.3788673791926
 30
0.0
 11
148.7554020260987
 21
459.3788673791926
 31
0.0
  0
LINE
  5
48C
330
17
100
AcDbEntity
  8
4
100
AcDbLine
 10
89.75540202609875
 20
475.3788673791926
 30
0.0
 11
126.2554020260987
 21
475.3788673791926
 31
0.0
  0
LINE
  5
48D
330
17
100
AcDbEntity
  8
4
100
AcDbLine
 10
89.75540202609875
 20
468.3788673791926
 30
0.0
 11
126.2554020260987
 21
468.3788673791926
 31
0.0
  0
LINE
  5
48E
330
17
100
AcDbEntity
  8
4
100
AcDbLine
 10
90.75540202609875
 20
460.8788673791926
 30
0.0
 11
133.7554020260987
 21
460.8788673791926
 31
0.0
  0
LINE
  5
48F
330
17
100
AcDbEntity
  8
4
100
AcDbLine
 10
134.7554020260987
 20
484.3788673791926
 30
0.0
 11
134.7554020260987
 21
459.3788673791926
 31
0.0
  0
LINE
  5
490
330
17
100
AcDbEntity
  8
4
100
AcDbLine
 10
90.75540202609875
 20
482.8788673791926
 30
0.0
 11
90.75540202609875
 21
475.3788673791926
 31
0.0
  0
LINE
  5
491
330
17
100
AcDbEntity
  8
4
100
AcDbLine
 10
89.75540202609875
 20
481.8788673791926
 30
0.0
 11
89.75540202609875
 21
461.8788673791926
 31
0.0
  0
LINE
  5
493
330
17
100
AcDbEntity
  8
4
100
AcDbLine
 10
127.2552340260987
 20
460.8788673791926
 30
0.0
 11
127.2552340260987
 21
411.8788673791926
 31
0.0
  0
LINE
  5
494
330
17
100
AcDbEntity
  8
4
100
AcDbLine
 10
146.7552340260989
 20
484.3788673791926
 30
0.0
 11
146.7552340260989
 21
489.8788673791926
 31
0.0
  0
LINE
  5
495
330
17
100
AcDbEntity
  8
4
100
AcDbLine
 10
90.75540202609875
 20
235.0651778541447
 30
0.0
 11
89.75540202609875
 21
234.0651778541447
 31
0.0
  0
LINE
  5
496
330
17
100
AcDbEntity
  8
4
100
AcDbLine
 10
148.7554020260987
 20
236.5651778541447
 30
0.0
 11
134.7554020260987
 21
236.5651778541447
 31
0.0
  0
LINE
  5
497
330
17
100
AcDbEntity
  8
4
100
AcDbLine
 10
129.7554020260987
 20
235.0651778541447
 30
0.0
 11
129.7554020260987
 21
238.0651778541447
 31
0.0
  0
LINE
  5
498
330
17
100
AcDbEntity
  8
4
100
AcDbLine
 10
134.7554020260987
 20
235.0651778541447
 30
0.0
 11
90.75540202609875
 21
235.0651778541447
 31
0.0
  0
LINE
  5
499
330
17
100
AcDbEntity
  8
4
100
AcDbLine
 10
129.7554020260987
 20
238.0651778541447
 30
0.0
 11
89.75540202609875
 21
238.0651778541447
 31
0.0
  0
LINE
  5
49A
330
17
100
AcDbEntity
  8
4
100
AcDbLine
 10
89.75540202609875
 20
214.0653138541448
 30
0.0
 11
90.75540202609875
 21
213.0653138541448
 31
0.0
  0
LINE
  5
49B
330
17
100
AcDbEntity
  8
4
100
AcDbLine
 10
148.7554020260987
 20
211.5653138541448
 30
0.0
 11
134.7554020260987
 21
211.5653138541448
 31
0.0
  0
LINE
  5
49C
330
17
100
AcDbEntity
  8
4
100
AcDbLine
 10
134.7554020260987
 20
213.0653138541448
 30
0.0
 11
90.75540202609875
 21
213.0653138541448
 31
0.0
  0
LINE
  5
49D
330
17
100
AcDbEntity
  8
4
100
AcDbLine
 10
134.7554020260987
 20
236.5651778541447
 30
0.0
 11
134.7554020260987
 21
211.5653138541448
 31
0.0
  0
LINE
  5
49E
330
17
100
AcDbEntity
  8
4
100
AcDbLine
 10
89.75540202609875
 20
214.0653138541448
 30
0.0
 11
89.75540202609875
 21
238.0651778541447
 31
0.0
  0
LINE
  5
49F
330
17
100
AcDbEntity
  8
4
100
AcDbLine
 10
90.75540202609875
 20
235.0651778541447
 30
0.0
 11
90.75540202609875
 21
213.0653138541448
 31
0.0
  0
LINE
  5
4BF
330
17
100
AcDbEntity
  8
4
100
AcDbLine
 10
491.8749034368433
 20
152.0653138541448
 30
0.0
 11
490.8749034368433
 21
151.0653138541448
 31
0.0
  0
LINE
  5
4C0
330
17
100
AcDbEntity
  8
4
100
AcDbLine
 10
535.8749034368432
 20
155.0653138541448
 30
0.0
 11
535.8749034368432
 21
152.0653138541448
 31
0.0
  0
LINE
  5
4C1
330
17
100
AcDbEntity
  8
4
100
AcDbLine
 10
490.8749034368432
 20
155.0653138541448
 30
0.0
 11
535.8749034368432
 21
155.0653138541448
 31
0.0
  0
LINE
  5
4C2
330
17
100
AcDbEntity
  8
4
100
AcDbLine
 10
491.8749034368433
 20
152.0653138541448
 30
0.0
 11
540.8749034368432
 21
152.0653138541448
 31
0.0
  0
LINE
  5
4C4
330
17
100
AcDbEntity
  8
4
100
AcDbLine
 10
490.8749034368433
 20
125.0653138541448
 30
0.0
 11
491.8749034368433
 21
124.0653138541448
 31
0.0
  0
LINE
  5
4C5
330
17
100
AcDbEntity
  8
4
100
AcDbLine
 10
491.8749034368433
 20
124.0653138541448
 30
0.0
 11
540.8749034368432
 21
124.0653138541448
 31
0.0
  0
LINE
  5
4C6
330
17
100
AcDbEntity
  8
4
100
AcDbLine
 10
490.8749034368432
 20
155.0653138541448
 30
0.0
 11
490.8749034368433
 21
125.0653138541448
 31
0.0
  0
LINE
  5
4C7
330
17
100
AcDbEntity
  8
4
100
AcDbLine
 10
491.8749034368433
 20
152.0653138541448
 30
0.0
 11
491.8749034368433
 21
124.0653138541448
 31
0.0
  0
LINE
  5
4C9
330
17
100
AcDbEntity
  8
4
100
AcDbLine
 10
540.8749034368432
 20
123.0653138541448
 30
0.0
 11
540.8749034368432
 21
153.0653138541448
 31
0.0
  0
LINE
  5
4CA
330
17
100
AcDbEntity
  8
4
100
AcDbLine
 10
553.8749034368433
 20
163.0653138541448
 30
0.0
 11
554.8749034368433
 21
163.0653138541448
 31
0.0
  0
LINE
  5
4CB
330
17
100
AcDbEntity
  8
4
100
AcDbLine
 10
553.8749034368433
 20
113.0653138541448
 30
0.0
 11
554.8749034368433
 21
113.0653138541448
 31
0.0
  0
LINE
  5
4CC
330
17
100
AcDbEntity
  8
4
100
AcDbLine
 10
553.8749034368433
 20
163.0653138541448
 30
0.0
 11
553.8749034368433
 21
113.0653138541448
 31
0.0
  0
LINE
  5
4CD
330
17
100
AcDbEntity
  8
4
100
AcDbLine
 10
553.8749034368433
 20
123.0653138541448
 30
0.0
 11
540.8749034368432
 21
123.0653138541448
 31
0.0
  0
LINE
  5
4CE
330
17
100
AcDbEntity
  8
4
100
AcDbLine
 10
553.8749034368433
 20
153.0653138541448
 30
0.0
 11
540.8749034368432
 21
153.0653138541448
 31
0.0
  0
LINE
  5
4D5
330
17
100
AcDbEntity
  8
4
100
AcDbLine
 10
243.2552340260987
 20
155.0653138541448
 30
0.0
 11
243.2552340260987
 21
148.0653138541448
 31
0.0
  0
LINE
  5
4D6
330
17
100
AcDbEntity
  8
4
100
AcDbLine
 10
236.2552340260987
 20
155.0653138541448
 30
0.0
 11
236.2552340260987
 21
148.0653138541448
 31
0.0
  0
ARC
  5
4D7
330
17
100
AcDbEntity
  8
4
100
AcDbCircle
 10
239.7552340260987
 20
138.0653138541448
 30
0.0
 40
14.0
100
AcDbArc
 50
104.4775121859299
 51
75.52248800000002
  0
LINE
  5
4D8
330
17
100
AcDbEntity
  8
4
100
AcDbLine
 10
243.2552340260987
 20
155.0653138541448
 30
0.0
 11
236.2552340260987
 21
155.0653138541448
 31
0.0
  0
LINE
  5
4D9
330
17
100
AcDbEntity
  8
4
100
AcDbLine
 10
243.2552340260987
 20
148.0653138541448
 30
0.0
 11
236.2552340260987
 21
148.0653138541448
 31
0.0
  0
CIRCLE
  5
4DA
330
17
100
AcDbEntity
  8
4
100
AcDbCircle
 10
239.7552340260987
 20
138.0653138541448
 30
0.0
 40
25.0
  0
LINE
  5
4EF
330
17
100
AcDbEntity
  8
4
100
AcDbLine
 10
253.7552340260987
 20
342.8788673791926
 30
0.0
 11
252.7552340260987
 21
341.8788673791926
 31
0.0
  0
LINE
  5
4F0
330
17
100
AcDbEntity
  8
4
100
AcDbLine
 10
225.7552340260987
 20
342.8788673791926
 30
0.0
 11
236.2552340260987
 21
342.8788673791926
 31
0.0
  0
LINE
  5
4F1
330
17
100
AcDbEntity
  8
4
100
AcDbLine
 10
226.7552340260987
 20
341.8788673791926
 30
0.0
 11
225.7552340260987
 21
342.8788673791926
 31
0.0
  0
LINE
  5
4F2
330
17
100
AcDbEntity
  8
4
100
AcDbLine
 10
226.7552340260987
 20
341.8788673791926
 30
0.0
 11
252.7552340260987
 21
341.8788673791926
 31
0.0
  0
LINE
  5
4F3
330
17
100
AcDbEntity
  8
4
100
AcDbLine
 10
243.2552340260987
 20
342.8788673791926
 30
0.0
 11
253.7552340260987
 21
342.8788673791926
 31
0.0
  0
ARC
  5
4F4
330
17
100
AcDbEntity
  8
4
100
AcDbCircle
 10
254.7552340260988
 20
390.8788673791923
 30
0.0
 40
1.0
100
AcDbArc
 50
90.0
 51
180.0
  0
ARC
  5
4F5
330
17
100
AcDbEntity
  8
4
100
AcDbCircle
 10
239.7552340260988
 20
383.3788673791923
 30
0.0
 40
3.5
100
AcDbArc
 50
0.0
 51
90.0
  0
LINE
  5
4F6
330
17
100
AcDbEntity
  8
4
100
AcDbLine
 10
239.7552340260987
 20
386.8788673791926
 30
0.0
 11
239.7552340260987
 21
386.8788673791926
 31
0.0
  0
ARC
  5
4F7
330
17
100
AcDbEntity
  8
4
100
AcDbCircle
 10
239.7552340260988
 20
383.3788673791923
 30
0.0
 40
3.5
100
AcDbArc
 50
90.0
 51
180.0
  0
ARC
  5
4F8
330
17
100
AcDbEntity
  8
4
100
AcDbCircle
 10
224.7552340260988
 20
390.8788673791923
 30
0.0
 40
1.0
100
AcDbArc
 50
0.0
 51
90.0
  0
LINE
  5
4F9
330
17
100
AcDbEntity
  8
4
100
AcDbLine
 10
224.7552340260987
 20
391.8788673791926
 30
0.0
 11
254.7552340260987
 21
391.8788673791926
 31
0.0
  0
LINE
  5
4FA
330
17
100
AcDbEntity
  8
4
100
AcDbLine
 10
264.7552340260987
 20
404.8788673791926
 30
0.0
 11
264.7552340260988
 21
405.8788673791923
 31
0.0
  0
LINE
  5
4FB
330
17
100
AcDbEntity
  8
4
100
AcDbLine
 10
214.7552340260987
 20
404.8788673791926
 30
0.0
 11
214.7552340260988
 21
405.8788673791923
 31
0.0
  0
LINE
  5
4FC
330
17
100
AcDbEntity
  8
4
100
AcDbLine
 10
214.7552340260988
 20
404.8788673791926
 30
0.0
 11
264.7552340260987
 21
404.8788673791926
 31
0.0
  0
LINE
  5
4FD
330
17
100
AcDbEntity
  8
4
  6
Continuous
100
AcDbLine
 10
224.7552340260987
 20
404.8788673791926
 30
0.0
 11
224.7552340260987
 21
391.8788673791926
 31
0.0
  0
LINE
  5
4FE
330
17
100
AcDbEntity
  8
4
  6
Continuous
100
AcDbLine
 10
254.7552340260987
 20
404.8788673791926
 30
0.0
 11
254.7552340260987
 21
391.8788673791926
 31
0.0
  0
LINE
  5
4FF
330
17
100
AcDbEntity
  8
4
  6
Continuous
100
AcDbLine
 10
243.2552340260987
 20
383.3788673791926
 30
0.0
 11
243.2552340260987
 21
341.8788673791926
 31
0.0
  0
LINE
  5
500
330
17
100
AcDbEntity
  8
4
  6
Continuous
100
AcDbLine
 10
253.7552340260987
 20
390.8788673791926
 30
0.0
 11
253.7552340260987
 21
342.8788673791926
 31
0.0
  0
LINE
  5
501
330
17
100
AcDbEntity
  8
4
  6
Continuous
100
AcDbLine
 10
236.2552340260987
 20
383.3788673791926
 30
0.0
 11
236.2552340260987
 21
341.8788673791926
 31
0.0
  0
LINE
  5
502
330
17
100
AcDbEntity
  8
4
  6
Continuous
100
AcDbLine
 10
225.7552340260987
 20
390.8788673791926
 30
0.0
 11
225.7552340260987
 21
342.8788673791926
 31
0.0
  0
LINE
  5
507
330
17
100
AcDbEntity
  8
4
100
AcDbLine
 10
321.7552340260987
 20
434.8788673791926
 30
0.0
 11
321.7552340260987
 21
432.8788673791926
 31
0.0
  0
LINE
  5
508
330
17
100
AcDbEntity
  8
4
100
AcDbLine
 10
258.7552340260987
 20
434.8788673791926
 30
0.0
 11
258.7552340260987
 21
432.8788673791926
 31
0.0
  0
LINE
  5
509
330
17
100
AcDbEntity
  8
4
100
AcDbLine
 10
259.7552340260987
 20
431.8788673791926
 30
0.0
 11
320.7552340260987
 21
431.8788673791926
 31
0.0
  0
ARC
  5
50A
330
17
100
AcDbEntity
  8
4
100
AcDbCircle
 10
259.7552340260987
 20
432.8788673791926
 30
0.0
 40
1.0
100
AcDbArc
 50
180.0
 51
270.0
  0
ARC
  5
50B
330
17
100
AcDbEntity
  8
4
100
AcDbCircle
 10
320.7552340260987
 20
432.8788673791926
 30
0.0
 40
1.0
100
AcDbArc
 50
270.0
 51
0.0
  0
LINE
  5
50C
330
17
100
AcDbEntity
  8
4
100
AcDbLine
 10
321.7552340260987
 20
433.8788673791926
 30
0.0
 11
329.7552340260987
 21
433.8788673791926
 31
0.0
  0
ENDSEC
  0
SECTION
  2
OBJECTS
  0
DICTIONARY
  5
5
330
0
100
AcDbDictionary
281
     1
  3
ACAD_COLOR
350
28
  3
ACAD_GROUP
350
26
  3
ACAD_LAYOUT
350
1E
  3
ACAD_MATERIAL
350
7
  3
ACAD_MLEADERSTYLE
350
464
  3
ACAD_MLINESTYLE
350
15
  3
ACAD_PLOTSETTINGS
350
27
  3
ACAD_PLOTSTYLENAME
350
4
  3
ACAD_SCALELIST
350
2C
  3
ACAD_TABLESTYLE
350
463
  3
ACAD_VISUALSTYLE
350
29
  3
ACDBHEADERROUNDTRIPXREC
350
512
  3
AcDbVariableDictionary
350
461
  3
DWGPROPS
350
515
  0
DICTIONARY
  5
516
330
25
100
AcDbDictionary
280
     1
281
     1
  3
ACAD_XREC_ROUNDTRIP
360
517
  0
DICTIONARY
  5
BC
330
BB
100
AcDbDictionary
280
     1
281
     1
  3
ADSK_XREC_LAYER_RECONCILED
360
BD
  0
DICTIONARY
  5
18
330
17
100
AcDbDictionary
280
     1
281
     1
  3
ACAD_SORTENTS
360
19
  0
DICTIONARY
  5
28
102
{ACAD_REACTORS
330
5
102
}
330
5
100
AcDbDictionary
281
     1
  0
DICTIONARY
  5
26
102
{ACAD_REACTORS
330
5
102
}
330
5
100
AcDbDictionary
281
     1
  0
DICTIONARY
  5
1E
102
{ACAD_REACTORS
330
5
102
}
330
5
100
AcDbDictionary
281
     1
  3
Model
350
1D
  3
ﾚｲｱｳﾄ1
350
22
  0
DICTIONARY
  5
7
102
{ACAD_REACTORS
330
5
102
}
330
5
100
AcDbDictionary
281
     1
  3
ByBlock
350
4F
  3
ByLayer
350
10
  3
Global
350
6
  0
DICTIONARY
  5
464
102
{ACAD_REACTORS
330
5
102
}
330
5
100
AcDbDictionary
281
     1
  3
Standard
350
505
  0
DICTIONARY
  5
15
102
{ACAD_REACTORS
330
5
102
}
330
5
100
AcDbDictionary
281
     1
  3
STANDARD
350
14
  0
DICTIONARY
  5
27
102
{ACAD_REACTORS
330
5
102
}
330
5
100
AcDbDictionary
281
     1
  0
ACDBDICTIONARYWDFLT
  5
4
102
{ACAD_REACTORS
330
5
102
}
330
5
100
AcDbDictionary
281
     1
  3
Normal
350
3
100
AcDbDictionaryWithDefault
340
3
  0
DICTIONARY
  5
2C
102
{ACAD_REACTORS
330
5
102
}
330
5
100
AcDbDictionary
281
     1
  3
*A1
350
4E
  0
DICTIONARY
  5
463
102
{ACAD_REACTORS
330
5
102
}
330
5
100
AcDbDictionary
281
     1
  3
Standard
350
50E
  0
DICTIONARY
  5
29
102
{ACAD_REACTORS
330
5
102
}
330
5
100
AcDbDictionary
281
     1
  3
2dWireframe
350
46C
  3
Basic
350
46F
  3
Brighten
350
473
  3
ColorChange
350
477
  3
Conceptual
350
471
  3
Dim
350
472
  3
EdgeColorOff
350
47A
  3
Facepattern
350
476
  3
Flat
350
468
  3
FlatWithEdges
350
469
  3
Gouraud
350
46A
  3
GouraudWithEdges
350
46B
  3
Hidden
350
46E
  3
JitterOff
350
478
  3
Linepattern
350
475
  3
OverhangOff
350
479
  3
Realistic
350
470
  3
Shaded
350
47F
  3
Shaded with edges
350
47E
  3
Shades of Gray
350
47B
  3
Sketchy
350
47C
  3
Thicken
350
474
  3
Wireframe
350
46D
  3
X-Ray
350
47D
  0
DICTIONARY
  5
512
102
{ACAD_REACTORS
330
5
102
}
330
5
100
AcDbDictionary
281
     1
  3
COLORDICT
350
513
  3
MATERIALDICT
350
514
  0
DICTIONARY
  5
461
102
{ACAD_REACTORS
330
5
102
}
330
5
100
AcDbDictionary
281
     1
  3
CANNOSCALE
350
462
  3
CMLEADERSTYLE
350
50D
  3
CTABLESTYLE
350
50F
  3
DIMASSOC
350
510
  3
HIDETEXT
350
511
  3
MSLTSCALE
350
518
  3
XCLIPFRAME
350
465
  0
XRECORD
  5
515
102
{ACAD_REACTORS
330
5
102
}
330
5
100
AcDbXrecord
280
     1
  1
DWGPROPS COOKIE
  2

  3

  4

  6

  7

  8
sg-d04
  9

300
=
301
=
302
=
303
=
304
=
305
=
306
=
307
=
308
=
309
=
 40
0.0
 41
2457436.432270243
 42
2457870.223705868
  1

 90
        0
  0
XRECORD
  5
517
102
{ACAD_REACTORS
330
516
102
}
330
516
100
AcDbXrecord
280
     1
102
VTR_0.000_0.000_1.000_1.000_VISUALSTYLE
340
46C
102
VTR_0.000_0.000_1.000_1.000_GRIDDISPLAY
 70
     3
102
VTR_0.000_0.000_1.000_1.000_GRIDMAJOR
 70
     5
102
VTR_0.000_0.000_1.000_1.000_DEFAULTLIGHTING
280
     1
102
VTR_0.000_0.000_1.000_1.000_DEFAULTLIGHTINGTYPE
 70
     1
102
VTR_0.000_0.000_1.000_1.000_BRIGHTNESS
141
0.0
102
VTR_0.000_0.000_1.000_1.000_CONTRAST
142
0.0
  0
XRECORD
  5
BD
102
{ACAD_REACTORS
330
BC
102
}
330
BC
100
AcDbXrecord
280
     1
290
     1
  0
SORTENTSTABLE
  5
19
102
{ACAD_REACTORS
330
18
102
}
330
18
100
AcDbSortentsTable
330
17
331
0
  5
281
331
248
  5
249
331
249
  5
24A
331
24A
  5
24B
331
24B
  5
24C
331
24C
  5
24D
331
24D
  5
24E
331
24E
  5
24F
331
24F
  5
250
331
250
  5
251
331
251
  5
252
331
252
  5
253
331
253
  5
254
331
254
  5
255
331
256
  5
257
331
257
  5
258
331
258
  5
259
331
25B
  5
25C
331
25C
  5
25D
331
25D
  5
25E
331
25E
  5
25F
331
25F
  5
260
331
260
  5
261
331
261
  5
262
331
262
  5
263
331
263
  5
264
331
264
  5
265
331
265
  5
266
331
266
  5
267
331
267
  5
268
331
268
  5
269
331
269
  5
26A
331
26A
  5
26B
331
26B
  5
26C
331
26C
  5
26D
331
26D
  5
26E
331
26E
  5
26F
331
26F
  5
270
331
270
  5
271
331
271
  5
272
331
272
  5
273
331
273
  5
274
331
274
  5
275
331
275
  5
276
331
276
  5
277
331
277
  5
279
331
278
  5
27A
331
279
  5
27B
331
27A
  5
27D
331
287
  5
28A
331
288
  5
28B
331
289
  5
28C
331
28A
  5
28D
331
28B
  5
28E
331
28C
  5
28F
331
28D
  5
290
331
28E
  5
291
331
28F
  5
292
331
290
  5
293
331
291
  5
294
331
292
  5
295
331
293
  5
296
331
294
  5
297
331
295
  5
298
331
296
  5
299
331
297
  5
29A
331
298
  5
29B
331
29E
  5
2A1
331
29F
  5
2A2
331
2A0
  5
2A3
331
2A1
  5
2A4
331
2A2
  5
2A5
331
2A3
  5
2A6
331
2A4
  5
2A7
331
2A5
  5
2A8
331
2A6
  5
2A9
331
2A7
  5
2AA
331
2A8
  5
2AB
331
2A9
  5
2AC
331
2AA
  5
2AD
331
2AB
  5
2AE
331
2AC
  5
2AF
331
2AD
  5
2B0
331
2AE
  5
2B1
331
2AF
  5
2B2
331
2B0
  5
2B3
331
2B1
  5
2B4
331
2B2
  5
2B5
331
2B3
  5
2B6
331
2B4
  5
2B7
331
2B5
  5
2B8
331
2BE
  5
2C2
331
2BF
  5
2C4
331
2C6
  5
2C9
331
2C7
  5
2CA
331
2C8
  5
2CB
331
2D6
  5
2D9
331
2D7
  5
2DA
331
2D8
  5
2DB
331
2D9
  5
2DC
331
2DA
  5
2DD
331
2DB
  5
2DE
331
2DC
  5
2DF
331
2DD
  5
2E0
331
2DE
  5
2E1
331
2DF
  5
2E2
331
2E0
  5
2E3
331
2E1
  5
2E4
331
2E2
  5
2E5
331
2E3
  5
2E6
331
2E4
  5
2E7
331
2E5
  5
2E8
331
2E7
  5
2EB
331
2ED
  5
2F0
331
2EE
  5
2F1
331
2EF
  5
2F2
331
2F0
  5
2F3
331
2F1
  5
2F4
331
2F2
  5
2F5
331
2F3
  5
2F6
331
2F4
  5
2F7
331
2F5
  5
2F8
331
2F6
  5
2F9
331
2F7
  5
2FA
331
2F8
  5
2FB
331
2F9
  5
2FC
331
2FA
  5
2FD
331
2FB
  5
2FE
331
2FC
  5
2FF
331
2FD
  5
300
331
2FE
  5
301
331
2FF
  5
302
331
300
  5
303
331
301
  5
304
331
302
  5
305
331
303
  5
306
331
304
  5
307
331
305
  5
308
331
306
  5
309
331
307
  5
30A
331
308
  5
30B
331
30C
  5
30F
331
30D
  5
310
331
30E
  5
311
331
30F
  5
312
331
310
  5
313
331
311
  5
315
331
312
  5
316
331
313
  5
317
331
314
  5
319
331
315
  5
31A
331
31B
  5
31F
331
31C
  5
320
331
31D
  5
321
331
31E
  5
322
331
320
  5
324
331
321
  5
325
331
322
  5
326
331
323
  5
327
331
328
  5
32C
331
329
  5
32D
331
32A
  5
32E
331
32B
  5
32F
331
32C
  5
330
331
32D
  5
331
331
32E
  5
332
331
32F
  5
333
331
330
  5
334
331
331
  5
335
331
332
  5
336
331
333
  5
337
331
334
  5
338
331
335
  5
339
331
336
  5
33A
331
337
  5
33B
331
338
  5
33C
331
339
  5
33D
331
33A
  5
33E
331
33B
  5
33F
331
33C
  5
340
331
33D
  5
341
331
33E
  5
342
331
33F
  5
343
331
340
  5
344
331
347
  5
34B
331
348
  5
34C
331
349
  5
34D
331
34A
  5
34E
331
34B
  5
34F
331
34C
  5
350
331
34D
  5
351
331
34E
  5
352
331
34F
  5
353
331
350
  5
354
331
351
  5
355
331
352
  5
356
331
353
  5
357
331
354
  5
358
331
355
  5
359
331
356
  5
35A
331
357
  5
35B
331
358
  5
35C
331
359
  5
35D
331
35A
  5
35E
331
35B
  5
35F
331
35C
  5
360
331
35D
  5
361
331
35E
  5
362
331
35F
  5
363
331
360
  5
364
331
361
  5
365
331
362
  5
366
331
363
  5
367
331
365
  5
369
331
366
  5
36A
331
367
  5
36B
331
368
  5
36C
331
369
  5
36D
331
36B
  5
36F
331
36C
  5
370
331
36D
  5
371
331
36E
  5
372
331
36F
  5
373
331
370
  5
374
331
371
  5
375
331
372
  5
376
331
373
  5
377
331
374
  5
378
331
375
  5
379
331
376
  5
37A
331
377
  5
37B
331
378
  5
37C
331
379
  5
37D
331
37A
  5
37E
331
37B
  5
37F
331
37C
  5
380
331
37D
  5
381
331
37E
  5
382
331
37F
  5
383
331
380
  5
384
331
381
  5
385
331
382
  5
386
331
383
  5
387
331
384
  5
388
331
385
  5
389
331
386
  5
38A
331
387
  5
38B
331
388
  5
38C
331
389
  5
38D
331
38A
  5
38E
331
38B
  5
38F
331
38C
  5
390
331
38D
  5
391
331
38E
  5
392
331
38F
  5
393
331
390
  5
394
331
391
  5
395
331
392
  5
396
331
393
  5
397
331
394
  5
398
331
395
  5
399
331
396
  5
39A
331
397
  5
39B
331
398
  5
39C
331
399
  5
39D
331
39A
  5
39E
331
39B
  5
39F
331
39C
  5
3A0
331
39D
  5
3A1
331
39E
  5
3A2
331
39F
  5
3A3
331
3A0
  5
3A4
331
3A1
  5
3A5
331
3A2
  5
3A6
331
3A3
  5
3A7
331
3A4
  5
3A8
331
3A5
  5
3A9
331
3A6
  5
3AA
331
3BD
  5
3C1
331
3BE
  5
3C2
331
3BF
  5
3C3
331
3C0
  5
3C4
331
3C1
  5
3C5
331
3C2
  5
3C6
331
3C3
  5
3C7
331
3C4
  5
3C8
331
3C5
  5
3C9
331
3C6
  5
3CA
331
3C7
  5
3CB
331
3C9
  5
3CD
331
3CA
  5
3CE
331
3CB
  5
3CF
331
3CC
  5
3D0
331
3CD
  5
3D1
331
3CE
  5
3D2
331
3CF
  5
3D3
331
3D0
  5
3D4
331
3D1
  5
3D5
331
3D5
  5
3D9
331
3D9
  5
3DD
331
3DA
  5
3DE
331
3DB
  5
3DF
331
3DC
  5
3E0
331
3DD
  5
3E1
331
3E2
  5
3E6
331
3E3
  5
3E7
331
3EF
  5
3F3
331
3F0
  5
3F4
331
3F1
  5
3F5
331
3F2
  5
3F6
331
3F3
  5
3F7
331
3F4
  5
3F8
331
3F5
  5
3F9
331
3F6
  5
3FA
331
3F7
  5
3FB
331
3F9
  5
3FD
331
3FA
  5
3FE
331
3FB
  5
3FF
331
3FC
  5
400
331
3FD
  5
401
331
400
  5
404
331
401
  5
405
331
403
  5
407
331
404
  5
408
331
405
  5
409
331
406
  5
40A
331
407
  5
40B
331
442
  5
446
331
443
  5
447
331
444
  5
448
331
445
  5
449
331
446
  5
44A
331
447
  5
44B
331
448
  5
44C
331
449
  5
44D
331
44A
  5
44E
331
44B
  5
44F
331
44C
  5
450
331
44D
  5
451
331
44E
  5
452
331
44F
  5
453
331
450
  5
454
331
451
  5
455
331
452
  5
456
331
453
  5
457
331
454
  5
458
331
455
  5
459
331
456
  5
45A
331
45B
  5
45F
331
45C
  5
460
331
45D
  5
483
331
45F
  5
485
331
460
  5
486
331
483
  5
487
331
484
  5
488
331
485
  5
489
331
486
  5
48A
331
487
  5
48B
331
488
  5
48C
331
489
  5
48D
331
48A
  5
48E
331
48B
  5
48F
331
48C
  5
490
331
48D
  5
491
331
48E
  5
492
331
48F
  5
493
331
490
  5
495
331
491
  5
496
331
493
  5
314
331
494
  5
245
331
495
  5
497
331
496
  5
498
331
497
  5
499
331
498
  5
49A
331
499
  5
49B
331
49A
  5
49C
331
49B
  5
49D
331
49C
  5
49E
331
49D
  5
49F
331
49E
  5
4A1
331
49F
  5
4A2
331
4BF
  5
4C1
331
4C0
  5
4C2
331
4C1
  5
4C3
331
4C2
  5
4C4
331
4C4
  5
4C6
331
4C5
  5
4C7
331
4C6
  5
4C8
331
4C7
  5
4C9
331
4C9
  5
4CB
331
4CA
  5
4CC
331
4CB
  5
4CD
331
4CC
  5
4CE
331
4CD
  5
4D0
331
4CE
  5
4D2
331
4D5
  5
4D7
331
4D6
  5
4D8
331
4D7
  5
4D9
331
4D8
  5
4DA
331
4D9
  5
4DB
331
4DA
  5
4DC
331
4EF
  5
4F1
331
4F0
  5
4F2
331
4F1
  5
4F3
331
4F2
  5
4F4
331
4F3
  5
4F5
331
4F4
  5
4F6
331
4F5
  5
4F7
331
4F6
  5
4F8
331
4F7
  5
4F9
331
4F8
  5
4FA
331
4F9
  5
4FB
331
4FA
  5
4FC
331
4FB
  5
4FD
331
4FC
  5
4FE
331
4FD
  5
4FF
331
4FE
  5
500
331
4FF
  5
501
331
500
  5
502
331
501
  5
507
331
502
  5
508
331
507
  5
509
331
508
  5
50A
331
509
  5
278
331
50A
  5
50B
331
50B
  5
50C
331
50C
  5
280
  0
LAYOUT
  5
1D
102
{ACAD_REACTORS
330
1E
102
}
330
1E
100
AcDbPlotSettings
  1

  2
Bullzip PDF Printer.pc3
  4
A3
  6

 40
0.2
 41
0.0
 42
0.0
 43
0.0
 44
420.2
 45
297.1
 46
25.0
 47
12.0
 48
45.99999990666663
 49
10.0
140
809.9999981566668
141
554.9999987283333
142
1.0
143
2.0
 70
 11936
 72
     1
 73
     0
 74
     4
  7
monochrome.ctb
 75
    17
147
0.5
148
-45.99999990666663
149
-10.0
100
AcDbLayout
  1
Model
 70
     0
 71
     0
 10
0.0
 20
0.0
 11
12.0
 21
9.0
 12
0.0
 22
0.0
 32
0.0
 14
84.92430267528499
 24
23.15917547246033
 34
0.0
 15
754.7521759358642
 25
604.5056566975243
 35
0.0
146
0.0
 13
0.0
 23
0.0
 33
0.0
 16
1.0
 26
0.0
 36
0.0
 17
0.0
 27
1.0
 37
0.0
 76
     0
330
17
331
2A
1001
ACAD_PSEXT
1000
Bullzip PDF Printer.pc3
1000
Bullzip PDF Printer
1000
BULLZIP
1000
Bullzip PDF Printer 10.1.0.1871
1070
     0
  0
LAYOUT
  5
22
102
{ACAD_REACTORS
330
1E
102
}
330
1E
100
AcDbPlotSettings
  1

  2
SR-LP8300F
  4

  6

 40
0.0
 41
0.0
 42
0.0
 43
0.0
 44
0.0
 45
0.0
 46
0.0
 47
0.0
 48
0.0
 49
0.0
140
0.0
141
0.0
142
1.0
143
1.0
 70
   688
 72
     0
 73
     0
 74
     5
  7
monochrome.ctb
 75
    16
147
1.0
148
0.0
149
0.0
100
AcDbLayout
  1
ﾚｲｱｳﾄ1
 70
     0
 71
     1
 10
0.0
 20
0.0
 11
12.0
 21
9.0
 12
0.0
 22
0.0
 32
0.0
 14
1.000000000000000E+20
 24
1.000000000000000E+20
 34
1.000000000000000E+20
 15
-1.000000000000000E+20
 25
-1.000000000000000E+20
 35
-1.000000000000000E+20
146
0.0
 13
0.0
 23
0.0
 33
0.0
 16
1.0
 26
0.0
 36
0.0
 17
0.0
 27
1.0
 37
0.0
 76
     0
330
1F
  0
MATERIAL
  5
4F
102
{ACAD_REACTORS
330
7
102
}
102
{ACAD_XDICTIONARY
360
51D
102
}
330
7
100
AcDbMaterial
  1
ByBlock
  0
MATERIAL
  5
10
102
{ACAD_REACTORS
330
7
102
}
102
{ACAD_XDICTIONARY
360
519
102
}
330
7
100
AcDbMaterial
  1
ByLayer
  0
MATERIAL
  5
6
102
{ACAD_REACTORS
330
7
102
}
102
{ACAD_XDICTIONARY
360
51B
102
}
330
7
100
AcDbMaterial
  1
Global
1001
ACAD
1070
    -1
1070
     3
1070
     0
1000

1071
        0
  0
MLEADERSTYLE
  5
505
102
{ACAD_REACTORS
330
464
102
}
102
{ACAD_XDICTIONARY
360
54F
102
}
330
464
100
AcDbMLeaderStyle
170
     2
171
     1
172
     0
 90
        2
 40
0.0
 41
0.0
173
     1
 91
-1056964608
340
D
 92
       -2
290
     1
 42
0.09
291
     1
 43
0.36
  3
Standard
341
0
 44
0.18
300

342
E
174
     1
178
     6
175
     1
176
     0
 93
-1056964608
 45
0.18
292
     0
297
     0
 46
0.18
343
0
 94
-1056964608
 47
1.0
 49
1.0
140
1.0
293
     1
141
0.0
294
     1
177
     0
142
1.0
295
     0
296
     0
143
0.125
1001
ACAD_MLEADERVER
1070
     2
  0
MLINESTYLE
  5
14
102
{ACAD_REACTORS
330
15
102
}
330
15
100
AcDbMlineStyle
  2
STANDARD
 70
     0
  3

 62
     0
 51
90.0
 52
90.0
 71
     2
 49
0.5
 62
   256
  6
BYLAYER
 49
-0.5
 62
   256
  6
BYLAYER
  0
ACDBPLACEHOLDER
  5
3
102
{ACAD_REACTORS
330
4
102
}
330
4
  0
SCALE
  5
4E
102
{ACAD_REACTORS
330
2C
102
}
330
2C
100
AcDbScale
 70
     0
300
1:1
140
1.0
141
1.0
290
     1
  0
TABLESTYLE
  5
50E
102
{ACAD_REACTORS
330
463
102
}
330
463
100
AcDbTableStyle
  3
Standard
 70
     0
 71
     0
 40
0.06
 41
0.06
280
     0
281
     0
  7
STANDARD
140
0.18
170
     2
 62
     0
 63
   257
283
     0
274
    -2
284
     1
 64
     0
275
    -2
285
     1
 65
     0
276
    -2
286
     1
 66
     0
277
    -2
287
     1
 67
     0
278
    -2
288
     1
 68
     0
279
    -2
289
     1
 69
     0
  7
STANDARD
140
0.25
170
     5
 62
     0
 63
   257
283
     0
274
    -2
284
     1
 64
     0
275
    -2
285
     1
 65
     0
276
    -2
286
     1
 66
     0
277
    -2
287
     1
 67
     0
278
    -2
288
     1
 68
     0
279
    -2
289
     1
 69
     0
  7
STANDARD
140
0.18
170
     5
 62
     0
 63
   257
283
     0
274
    -2
284
     1
 64
     0
275
    -2
285
     1
 65
     0
276
    -2
286
     1
 66
     0
277
    -2
287
     1
 67
     0
278
    -2
288
     1
 68
     0
279
    -2
289
     1
 69
     0
  0
VISUALSTYLE
  5
46C
102
{ACAD_REACTORS
330
29
102
}
102
{ACAD_XDICTIONARY
360
527
102
}
330
29
100
AcDbVisualStyle
  2
2dWireframe
 70
     4
 71
     0
 72
     2
 73
     0
 90
        0
 40
0.6
 41
30.0
 62
     5
 63
     7
 74
     1
 91
        4
 64
     7
 65
   257
 75
     1
175
     1
 42
1.0
 92
        0
 66
   257
 43
1.0
 76
     1
 77
     6
 78
     2
 67
     7
 79
     5
170
     0
171
     0
290
     0
174
     0
 93
        1
 44
0.0
173
     0
291
     0
 45
0.0
1001
ACAD
1000
AcDbSavedByObjectVersion
1070
     0
  0
VISUALSTYLE
  5
46F
102
{ACAD_REACTORS
330
29
102
}
102
{ACAD_XDICTIONARY
360
52D
102
}
330
29
100
AcDbVisualStyle
  2
Basic
 70
     7
 71
     1
 72
     0
 73
     1
 90
        0
 40
0.6
 41
30.0
 62
     5
 63
     7
 74
     0
 91
        4
 64
     7
 65
   257
 75
     1
175
     1
 42
1.0
 92
        8
 66
     7
 43
1.0
 76
     1
 77
     6
 78
     2
 67
     7
 79
     5
170
     0
171
     0
290
     0
174
     0
 93
        1
 44
0.0
173
     0
291
     1
 45
0.0
1001
ACAD
1000
AcDbSavedByObjectVersion
1070
     0
  0
VISUALSTYLE
  5
473
102
{ACAD_REACTORS
330
29
102
}
102
{ACAD_XDICTIONARY
360
535
102
}
330
29
100
AcDbVisualStyle
  2
Brighten
 70
    12
 71
     2
 72
     2
 73
     0
 90
        0
 40
0.6
 41
30.0
 62
     5
 63
     7
 74
     1
 91
        4
 64
     7
 65
   257
 75
     1
175
     1
 42
1.0
 92
        8
 66
     7
 43
1.0
 76
     1
 77
     6
 78
     2
 67
     7
 79
     5
170
     0
171
     0
290
     0
174
     0
 93
        1
 44
50.0
173
     0
291
     1
 45
0.0
1001
ACAD
1000
AcDbSavedByObjectVersion
1070
     0
  0
VISUALSTYLE
  5
477
102
{ACAD_REACTORS
330
29
102
}
102
{ACAD_XDICTIONARY
360
53D
102
}
330
29
100
AcDbVisualStyle
  2
ColorChange
 70
    16
 71
     2
 72
     2
 73
     3
 90
        0
 40
0.6
 41
30.0
 62
     5
 63
     8
 74
     1
 91
        4
 64
     7
 65
   257
 75
     1
175
     1
 42
1.0
 92
        8
 66
     8
 43
1.0
 76
     1
 77
     6
 78
     2
 67
     7
 79
     5
170
     0
171
     0
290
     0
174
     0
 93
        1
 44
0.0
173
     0
291
     1
 45
0.0
1001
ACAD
1000
AcDbSavedByObjectVersion
1070
     0
  0
VISUALSTYLE
  5
471
102
{ACAD_REACTORS
330
29
102
}
102
{ACAD_XDICTIONARY
360
531
102
}
330
29
100
AcDbVisualStyle
  2
Conceptual
 70
     9
 71
     3
 72
     2
 73
     0
 90
        0
 40
0.6
 41
30.0
 62
     5
 63
     7
 74
     2
 91
        2
 64
     7
 65
   257
 75
     1
175
     1
 42
40.0
 92
        8
 66
     7
 43
1.0
 76
     1
 77
     6
 78
     2
 67
     7
 79
     3
170
     0
171
     0
290
     0
174
     0
 93
        1
 44
0.0
173
     0
291
     0
 45
0.0
1001
ACAD
1000
AcDbSavedByObjectVersion
1070
     0
  0
VISUALSTYLE
  5
472
102
{ACAD_REACTORS
330
29
102
}
102
{ACAD_XDICTIONARY
360
533
102
}
330
29
100
AcDbVisualStyle
  2
Dim
 70
    11
 71
     2
 72
     2
 73
     0
 90
        0
 40
0.6
 41
30.0
 62
     5
 63
     7
 74
     1
 91
        4
 64
     7
 65
   257
 75
     1
175
     1
 42
1.0
 92
        8
 66
     7
 43
1.0
 76
     1
 77
     6
 78
     2
 67
     7
 79
     5
170
     0
171
     0
290
     0
174
     0
 93
        1
 44
-50.0
173
     0
291
     1
 45
0.0
1001
ACAD
1000
AcDbSavedByObjectVersion
1070
     0
  0
VISUALSTYLE
  5
47A
102
{ACAD_REACTORS
330
29
102
}
102
{ACAD_XDICTIONARY
360
543
102
}
330
29
100
AcDbVisualStyle
  2
EdgeColorOff
 70
    22
 71
     2
 72
     2
 73
     0
 90
        0
 40
0.6
 41
30.0
 62
     5
 63
     7
 74
     1
 91
        4
 64
     7
 65
   257
 75
     1
175
     1
 42
1.0
 92
        8
 66
     7
 43
1.0
 76
     1
 77
     6
 78
     2
 67
     7
 79
     5
170
     0
171
     0
290
     0
174
     0
 93
        1
 44
0.0
173
     0
291
     1
 45
0.0
1001
ACAD
1000
AcDbSavedByObjectVersion
1070
     0
  0
VISUALSTYLE
  5
476
102
{ACAD_REACTORS
330
29
102
}
102
{ACAD_XDICTIONARY
360
53B
102
}
330
29
100
AcDbVisualStyle
  2
Facepattern
 70
    15
 71
     2
 72
     2
 73
     0
 90
        0
 40
0.6
 41
30.0
 62
     5
 63
     7
 74
     1
 91
        4
 64
     7
 65
   257
 75
     1
175
     1
 42
1.0
 92
        8
 66
     7
 43
1.0
 76
     1
 77
     6
 78
     2
 67
     7
 79
     5
170
     0
171
     0
290
     0
174
     0
 93
        1
 44
0.0
173
     0
291
     1
 45
0.0
1001
ACAD
1000
AcDbSavedByObjectVersion
1070
     0
  0
VISUALSTYLE
  5
468
102
{ACAD_REACTORS
330
29
102
}
102
{ACAD_XDICTIONARY
360
51F
102
}
330
29
100
AcDbVisualStyle
  2
Flat
 70
     0
 71
     2
 72
     1
 73
     1
 90
        2
 40
0.6
 41
30.0
 62
     5
 63
     7
 74
     0
 91
        4
 64
     7
 65
   257
 75
     1
175
     1
 42
1.0
 92
        8
 66
     7
 43
1.0
 76
     1
 77
     6
 78
     2
 67
     7
 79
     5
170
     0
171
     0
290
     0
174
     0
 93
       13
 44
0.0
173
     0
291
     1
 45
0.0
1001
ACAD
1000
AcDbSavedByObjectVersion
1070
     0
  0
VISUALSTYLE
  5
469
102
{ACAD_REACTORS
330
29
102
}
102
{ACAD_XDICTIONARY
360
521
102
}
330
29
100
AcDbVisualStyle
  2
FlatWithEdges
 70
     1
 71
     2
 72
     1
 73
     1
 90
        2
 40
0.6
 41
30.0
 62
     5
 63
     7
 74
     1
 91
        4
 64
     7
 65
   257
 75
     1
175
     1
 42
1.0
 92
        0
 66
   257
 43
1.0
 76
     1
 77
     6
 78
     2
 67
     7
 79
     5
170
     0
171
     0
290
     0
174
     0
 93
       13
 44
0.0
173
     0
291
     1
 45
0.0
1001
ACAD
1000
AcDbSavedByObjectVersion
1070
     0
  0
VISUALSTYLE
  5
46A
102
{ACAD_REACTORS
330
29
102
}
102
{ACAD_XDICTIONARY
360
523
102
}
330
29
100
AcDbVisualStyle
  2
Gouraud
 70
     2
 71
     2
 72
     2
 73
     1
 90
        2
 40
0.6
 41
30.0
 62
     5
 63
     7
 74
     0
 91
        4
 64
     7
 65
   257
 75
     1
175
     1
 42
1.0
 92
        0
 66
     7
 43
1.0
 76
     1
 77
     6
 78
     2
 67
     7
 79
     5
170
     0
171
     0
290
     0
174
     0
 93
       13
 44
0.0
173
     0
291
     1
 45
0.0
1001
ACAD
1000
AcDbSavedByObjectVersion
1070
     0
  0
VISUALSTYLE
  5
46B
102
{ACAD_REACTORS
330
29
102
}
102
{ACAD_XDICTIONARY
360
525
102
}
330
29
100
AcDbVisualStyle
  2
GouraudWithEdges
 70
     3
 71
     2
 72
     2
 73
     1
 90
        2
 40
0.6
 41
30.0
 62
     5
 63
     7
 74
     1
 91
        4
 64
     7
 65
   257
 75
     1
175
     1
 42
1.0
 92
        0
 66
   257
 43
1.0
 76
     1
 77
     6
 78
     2
 67
     7
 79
     5
170
     0
171
     0
290
     0
174
     0
 93
       13
 44
0.0
173
     0
291
     1
 45
0.0
1001
ACAD
1000
AcDbSavedByObjectVersion
1070
     0
  0
VISUALSTYLE
  5
46E
102
{ACAD_REACTORS
330
29
102
}
102
{ACAD_XDICTIONARY
360
52B
102
}
330
29
100
AcDbVisualStyle
  2
Hidden
 70
     6
 71
     1
 72
     2
 73
     2
 90
        0
 40
0.6
 41
30.0
 62
     5
 63
     7
 74
     2
 91
        2
 64
     7
 65
   257
 75
     2
175
     1
 42
40.0
 92
        0
 66
   257
 43
1.0
 76
     1
 77
     6
 78
     2
 67
     7
 79
     3
170
     0
171
     0
290
     0
174
     0
 93
        1
 44
0.0
173
     0
291
     0
 45
0.0
1001
ACAD
1000
AcDbSavedByObjectVersion
1070
     0
  0
VISUALSTYLE
  5
478
102
{ACAD_REACTORS
330
29
102
}
102
{ACAD_XDICTIONARY
360
53F
102
}
330
29
100
AcDbVisualStyle
  2
JitterOff
 70
    20
 71
     2
 72
     2
 73
     0
 90
        0
 40
0.6
 41
30.0
 62
     5
 63
     7
 74
     1
 91
        4
 64
     7
 65
   257
 75
     1
175
     1
 42
1.0
 92
       10
 66
     7
 43
1.0
 76
     1
 77
     6
 78
     2
 67
     7
 79
     5
170
     0
171
     0
290
     0
174
     0
 93
        1
 44
0.0
173
     0
291
     1
 45
0.0
1001
ACAD
1000
AcDbSavedByObjectVersion
1070
     0
  0
VISUALSTYLE
  5
475
102
{ACAD_REACTORS
330
29
102
}
102
{ACAD_XDICTIONARY
360
539
102
}
330
29
100
AcDbVisualStyle
  2
Linepattern
 70
    14
 71
     2
 72
     2
 73
     0
 90
        0
 40
0.6
 41
30.0
 62
     5
 63
     7
 74
     1
 91
        4
 64
     7
 65
   257
 75
     7
175
     7
 42
1.0
 92
        8
 66
     7
 43
1.0
 76
     1
 77
     6
 78
     2
 67
     7
 79
     5
170
     0
171
     0
290
     0
174
     0
 93
        1
 44
0.0
173
     0
291
     1
 45
0.0
1001
ACAD
1000
AcDbSavedByObjectVersion
1070
     0
  0
VISUALSTYLE
  5
479
102
{ACAD_REACTORS
330
29
102
}
102
{ACAD_XDICTIONARY
360
541
102
}
330
29
100
AcDbVisualStyle
  2
OverhangOff
 70
    21
 71
     2
 72
     2
 73
     0
 90
        0
 40
0.6
 41
30.0
 62
     5
 63
     7
 74
     1
 91
        4
 64
     7
 65
   257
 75
     1
175
     1
 42
1.0
 92
        9
 66
     7
 43
1.0
 76
     1
 77
     6
 78
     2
 67
     7
 79
     5
170
     0
171
     0
290
     0
174
     0
 93
        1
 44
0.0
173
     0
291
     1
 45
0.0
1001
ACAD
1000
AcDbSavedByObjectVersion
1070
     0
  0
VISUALSTYLE
  5
470
102
{ACAD_REACTORS
330
29
102
}
102
{ACAD_XDICTIONARY
360
52F
102
}
330
29
100
AcDbVisualStyle
  2
Realistic
 70
     8
 71
     2
 72
     3
 73
     0
 90
        2
 40
0.6
 41
30.0
 62
     5
 63
     7
 74
     0
 91
        0
 64
     7
 65
   257
 75
     1
175
     1
 42
1.0
 92
        8
 66
   257
 43
1.0
 76
     1
 77
     6
 78
     2
 67
     7
 79
     3
170
     0
171
     0
290
     0
174
     0
 93
       13
 44
0.0
173
     0
291
     0
 45
0.0
1001
ACAD
1000
AcDbSavedByObjectVersion
1070
     0
  0
VISUALSTYLE
  5
47F
102
{ACAD_REACTORS
330
29
102
}
102
{ACAD_XDICTIONARY
360
54D
102
}
330
29
100
AcDbVisualStyle
  2
Shaded
 70
    27
 71
     2
 72
     2
 73
     1
 90
        2
 40
0.6
 41
30.0
 62
     5
 63
     7
 74
     0
 91
        4
 64
     7
 65
   257
 75
     1
175
     1
 42
1.0
 92
        8
 66
   257
 43
1.0
 76
     1
 77
     6
 78
     2
 67
   251
 79
     3
170
     0
171
     0
290
     0
174
     0
 93
        5
 44
0.0
173
     0
291
     0
 45
0.0
1001
ACAD
1000
AcDbSavedByObjectVersion
1070
     0
  0
VISUALSTYLE
  5
47E
102
{ACAD_REACTORS
330
29
102
}
102
{ACAD_XDICTIONARY
360
54B
102
}
330
29
100
AcDbVisualStyle
  2
Shaded with edges
 70
    26
 71
     2
 72
     2
 73
     1
 90
        2
 40
0.6
 41
30.0
 62
     5
 63
     7
 74
     1
 91
       10
 64
     7
 65
   257
 75
     2
175
     1
 42
1.0
 92
        8
 66
   257
 43
1.0
 76
     1
 77
     6
 78
     2
 67
     7
 79
     3
170
     0
171
     0
290
     0
174
     0
 93
        5
 44
0.0
173
     0
291
     0
 45
0.0
1001
ACAD
1000
AcDbSavedByObjectVersion
1070
     0
  0
VISUALSTYLE
  5
47B
102
{ACAD_REACTORS
330
29
102
}
102
{ACAD_XDICTIONARY
360
545
102
}
330
29
100
AcDbVisualStyle
  2
Shades of Gray
 70
    23
 71
     2
 72
     2
 73
     3
 90
        0
 40
0.6
 41
30.0
 62
     5
 63
     7
 74
     2
 91
        2
 64
     7
 65
     7
 75
     1
175
     1
 42
40.0
 92
        8
 66
     7
 43
1.0
 76
     1
 77
     6
 78
     2
 67
     7
 79
     3
170
     0
171
     0
290
     0
174
     0
 93
        1
 44
0.0
173
     0
291
     0
 45
0.0
1001
ACAD
1000
AcDbSavedByObjectVersion
1070
     0
  0
VISUALSTYLE
  5
47C
102
{ACAD_REACTORS
330
29
102
}
102
{ACAD_XDICTIONARY
360
547
102
}
330
29
100
AcDbVisualStyle
  2
Sketchy
 70
    24
 71
     1
 72
     2
 73
     2
 90
        0
 40
0.6
 41
30.0
 62
     5
 63
     7
 74
     2
 91
        2
 64
     7
 65
     7
 75
     1
175
     1
 42
40.0
 92
       11
 66
     7
 43
1.0
 76
     1
 77
     6
 78
     2
 67
     7
 79
     6
170
     0
171
     0
290
     0
174
     0
 93
        1
 44
0.0
173
     0
291
     0
 45
0.0
1001
ACAD
1000
AcDbSavedByObjectVersion
1070
     0
  0
VISUALSTYLE
  5
474
102
{ACAD_REACTORS
330
29
102
}
102
{ACAD_XDICTIONARY
360
537
102
}
330
29
100
AcDbVisualStyle
  2
Thicken
 70
    13
 71
     2
 72
     2
 73
     0
 90
        0
 40
0.6
 41
30.0
 62
     5
 63
     7
 74
     1
 91
        4
 64
     7
 65
   257
 75
     1
175
     1
 42
1.0
 92
       12
 66
     7
 43
1.0
 76
     1
 77
     6
 78
     2
 67
     7
 79
     5
170
     0
171
     0
290
     0
174
     0
 93
        1
 44
0.0
173
     0
291
     1
 45
0.0
1001
ACAD
1000
AcDbSavedByObjectVersion
1070
     0
  0
VISUALSTYLE
  5
46D
102
{ACAD_REACTORS
330
29
102
}
102
{ACAD_XDICTIONARY
360
529
102
}
330
29
100
AcDbVisualStyle
  2
Wireframe
 70
     5
 71
     0
 72
     2
 73
     0
 90
        0
 40
0.6
 41
30.0
 62
     5
 63
     7
 74
     1
 91
        4
 64
     7
 65
   257
 75
     1
175
     1
 42
1.0
 92
        0
 66
   257
 43
1.0
 76
     1
 77
     6
 78
     2
 67
     7
 79
     5
170
     0
171
     0
290
     0
174
     0
 93
        1
 44
0.0
173
     0
291
     0
 45
0.0
1001
ACAD
1000
AcDbSavedByObjectVersion
1070
     0
  0
VISUALSTYLE
  5
47D
102
{ACAD_REACTORS
330
29
102
}
102
{ACAD_XDICTIONARY
360
549
102
}
330
29
100
AcDbVisualStyle
  2
X-Ray
 70
    25
 71
     2
 72
     2
 73
     1
 90
        1
 40
0.5
 41
30.0
 62
     5
 63
     7
 74
     1
 91
        0
 64
     7
 65
   257
 75
     1
175
     1
 42
1.0
 92
        8
 66
     7
 43
1.0
 76
     1
 77
     6
 78
     2
 67
     7
 79
     3
170
     0
171
     0
290
     0
174
     0
 93
       13
 44
0.0
173
     0
291
     0
 45
0.0
1001
ACAD
1000
AcDbSavedByObjectVersion
1070
     0
  0
XRECORD
  5
513
102
{ACAD_REACTORS
330
512
102
}
330
512
100
AcDbXrecord
280
     1
340
28
  0
XRECORD
  5
514
102
{ACAD_REACTORS
330
512
102
}
330
512
100
AcDbXrecord
280
     1
340
7
  0
DICTIONARYVAR
  5
462
102
{ACAD_REACTORS
330
461
102
}
330
461
100
DictionaryVariables
280
     0
  1
1:1
  0
DICTIONARYVAR
  5
50D
102
{ACAD_REACTORS
330
461
102
}
330
461
100
DictionaryVariables
280
     0
  1
Standard
  0
DICTIONARYVAR
  5
50F
102
{ACAD_REACTORS
330
461
102
}
330
461
100
DictionaryVariables
280
     0
  1
Standard
  0
DICTIONARYVAR
  5
510
102
{ACAD_REACTORS
330
461
102
}
330
461
100
DictionaryVariables
280
     0
  1
0
  0
DICTIONARYVAR
  5
511
102
{ACAD_REACTORS
330
461
102
}
330
461
100
DictionaryVariables
280
     0
  1
1
  0
DICTIONARYVAR
  5
518
102
{ACAD_REACTORS
330
461
102
}
330
461
100
DictionaryVariables
280
     0
  1
1
  0
DICTIONARYVAR
  5
465
102
{ACAD_REACTORS
330
461
102
}
330
461
100
DictionaryVariables
280
     0
  1
0
  0
DICTIONARY
  5
51D
330
4F
100
AcDbDictionary
280
     1
281
     1
  3
ACAD_XREC_ROUNDTRIP
360
51E
  0
DICTIONARY
  5
519
330
10
100
AcDbDictionary
280
     1
281
     1
  3
ACAD_XREC_ROUNDTRIP
360
51A
  0
DICTIONARY
  5
51B
330
6
100
AcDbDictionary
280
     1
281
     1
  3
ACAD_XREC_ROUNDTRIP
360
51C
  0
DICTIONARY
  5
54F
330
505
100
AcDbDictionary
280
     1
281
     1
  3
ACAD_XREC_ROUNDTRIP
360
550
  0
DICTIONARY
  5
527
330
46C
100
AcDbDictionary
280
     1
281
     1
  3
ACAD_XREC_ROUNDTRIP
360
528
  0
DICTIONARY
  5
52D
330
46F
100
AcDbDictionary
280
     1
281
     1
  3
ACAD_XREC_ROUNDTRIP
360
52E
  0
DICTIONARY
  5
535
330
473
100
AcDbDictionary
280
     1
281
     1
  3
ACAD_XREC_ROUNDTRIP
360
536
  0
DICTIONARY
  5
53D
330
477
100
AcDbDictionary
280
     1
281
     1
  3
ACAD_XREC_ROUNDTRIP
360
53E
  0
DICTIONARY
  5
531
330
471
100
AcDbDictionary
280
     1
281
     1
  3
ACAD_XREC_ROUNDTRIP
360
532
  0
DICTIONARY
  5
533
330
472
100
AcDbDictionary
280
     1
281
     1
  3
ACAD_XREC_ROUNDTRIP
360
534
  0
DICTIONARY
  5
543
330
47A
100
AcDbDictionary
280
     1
281
     1
  3
ACAD_XREC_ROUNDTRIP
360
544
  0
DICTIONARY
  5
53B
330
476
100
AcDbDictionary
280
     1
281
     1
  3
ACAD_XREC_ROUNDTRIP
360
53C
  0
DICTIONARY
  5
51F
330
468
100
AcDbDictionary
280
     1
281
     1
  3
ACAD_XREC_ROUNDTRIP
360
520
  0
DICTIONARY
  5
521
330
469
100
AcDbDictionary
280
     1
281
     1
  3
ACAD_XREC_ROUNDTRIP
360
522
  0
DICTIONARY
  5
523
330
46A
100
AcDbDictionary
280
     1
281
     1
  3
ACAD_XREC_ROUNDTRIP
360
524
  0
DICTIONARY
  5
525
330
46B
100
AcDbDictionary
280
     1
281
     1
  3
ACAD_XREC_ROUNDTRIP
360
526
  0
DICTIONARY
  5
52B
330
46E
100
AcDbDictionary
280
     1
281
     1
  3
ACAD_XREC_ROUNDTRIP
360
52C
  0
DICTIONARY
  5
53F
330
478
100
AcDbDictionary
280
     1
281
     1
  3
ACAD_XREC_ROUNDTRIP
360
540
  0
DICTIONARY
  5
539
330
475
100
AcDbDictionary
280
     1
281
     1
  3
ACAD_XREC_ROUNDTRIP
360
53A
  0
DICTIONARY
  5
541
330
479
100
AcDbDictionary
280
     1
281
     1
  3
ACAD_XREC_ROUNDTRIP
360
542
  0
DICTIONARY
  5
52F
330
470
100
AcDbDictionary
280
     1
281
     1
  3
ACAD_XREC_ROUNDTRIP
360
530
  0
DICTIONARY
  5
54D
330
47F
100
AcDbDictionary
280
     1
281
     1
  3
ACAD_XREC_ROUNDTRIP
360
54E
  0
DICTIONARY
  5
54B
330
47E
100
AcDbDictionary
280
     1
281
     1
  3
ACAD_XREC_ROUNDTRIP
360
54C
  0
DICTIONARY
  5
545
330
47B
100
AcDbDictionary
280
     1
281
     1
  3
ACAD_XREC_ROUNDTRIP
360
546
  0
DICTIONARY
  5
547
330
47C
100
AcDbDictionary
280
     1
281
     1
  3
ACAD_XREC_ROUNDTRIP
360
548
  0
DICTIONARY
  5
537
330
474
100
AcDbDictionary
280
     1
281
     1
  3
ACAD_XREC_ROUNDTRIP
360
538
  0
DICTIONARY
  5
529
330
46D
100
AcDbDictionary
280
     1
281
     1
  3
ACAD_XREC_ROUNDTRIP
360
52A
  0
DICTIONARY
  5
549
330
47D
100
AcDbDictionary
280
     1
281
     1
  3
ACAD_XREC_ROUNDTRIP
360
54A
  0
XRECORD
  5
51E
102
{ACAD_REACTORS
330
51D
102
}
330
51D
100
AcDbXrecord
280
     1
102
MATERIAL
148
0.0
149
0.0
149
0.0
 93
        0
 94
      127
282
     0
 72
     1
 77
     1
171
     1
175
     1
179
     1
273
     0
  0
XRECORD
  5
51A
102
{ACAD_REACTORS
330
519
102
}
330
519
100
AcDbXrecord
280
     1
102
MATERIAL
148
0.0
149
0.0
149
0.0
 93
        0
 94
      127
282
     0
 72
     1
 77
     1
171
     1
175
     1
179
     1
273
     0
  0
XRECORD
  5
51C
102
{ACAD_REACTORS
330
51B
102
}
330
51B
100
AcDbXrecord
280
     1
102
MATERIAL
148
0.0
149
0.0
149
0.0
 93
        0
 94
      127
282
     0
 72
     1
 77
     1
171
     1
175
     1
179
     1
273
     0
  0
XRECORD
  5
550
102
{ACAD_REACTORS
330
54F
102
}
330
54F
100
AcDbXrecord
280
     1
102
ACAD_ROUNDTRIP_2010_MLEADER_STYLE
  0
XRECORD
  5
528
102
{ACAD_REACTORS
330
527
102
}
330
527
100
AcDbXrecord
280
     1
102
RTVSPropertyOp0
 70
     1
102
RTVSPropertyOp1
 70
     1
102
RTVSPropertyOp2
 70
     1
102
RTVSPropertyOp3
 70
     1
102
RTVSPropertyOp4
 70
     1
102
RTVSPropertyOp5
 70
     1
102
RTVSPropertyOp6
 70
     1
102
RTVSPropertyOp7
 70
     1
102
RTVSPropertyOp8
 70
     1
102
RTVSPropertyOp9
 70
     1
102
RTVSPropertyOp10
 70
     1
102
RTVSPropertyOp11
 70
     1
102
RTVSPropertyOp12
 70
     1
102
RTVSPropertyOp13
 70
     1
102
RTVSPropertyOp14
 70
     1
102
RTVSPropertyOp15
 70
     1
102
RTVSPropertyOp16
 70
     1
102
RTVSPropertyOp17
 70
     1
102
RTVSPropertyOp18
 70
     1
102
RTVSPropertyOp19
 70
     1
102
RTVSPropertyOp20
 70
     1
102
RTVSPropertyOp21
 70
     1
102
RTVSPropertyOp22
 70
     1
102
RTVSPropertyOp23
 70
     1
102
RTVSPropertyOp24
 70
     1
102
RTVSPropertyOp25
 70
     1
102
RTVSPropertyOp26
 70
     1
102
RTVSPropertyOp27
 70
     1
102
RTVSPropertyOp28
 70
     1
102
RTVSPropertyOp29
 70
     1
102
RTVSPropertyOp30
 70
     1
102
RTVSPropertyOp31
 70
     1
102
RTVSPropertyOp32
 70
     1
102
RTVSPropertyOp33
 70
     1
102
RTVSPropertyOp34
 70
     1
102
RTVSPropertyOp35
 70
     1
102
RTVSPropertyOp36
 70
     1
102
RTVSPropertyOp37
 70
     1
102
RTVSPropertyOp38
 70
     1
102
RTVSPropertyOp39
 70
     1
102
RTVSPropertyOp40
 70
     1
102
RTVSPropertyOp41
 70
     1
102
RTVSPropertyOp42
 70
     1
102
RTVSPropertyOp43
 70
     1
102
RTVSPropertyOp44
 70
     1
102
RTVSPropertyOp45
 70
     1
102
RTVSPropertyOp46
 70
     1
102
RTVSPropertyOp47
 70
     1
102
RTVSPropertyOp48
 70
     1
102
RTVSPropertyOp49
 70
     1
102
RTVSPropertyOp50
 70
     1
102
RTVSPropertyOp51
 70
     0
102
RTVSPropertyOp52
 70
     0
102
RTVSPropertyOp53
 70
     1
102
RTVSPropertyOp54
 70
     1
102
RTVSPropertyOp55
 70
     1
102
RTVSPropertyOp56
 70
     1
102
RTVSPropertyOp57
 70
     1
102
RTVSPost2010Prop28
280
     1
102
RTVSPost2010PropOp28
 70
     1
102
RTVSPost2010Prop29
280
     1
102
RTVSPost2010PropOp29
 70
     1
102
RTVSPost2010Prop30
280
     0
102
RTVSPost2010PropOp30
 70
     1
102
RTVSPost2010Prop31
280
     0
102
RTVSPost2010PropOp31
 70
     1
102
RTVSPost2010Prop32
280
     0
102
RTVSPost2010PropOp32
 70
     1
102
RTVSPost2010Prop33
280
     0
102
RTVSPost2010PropOp33
 70
     1
102
RTVSPost2010Prop34
280
     0
102
RTVSPost2010PropOp34
 70
     1
102
RTVSPost2010Prop35
280
     0
102
RTVSPost2010PropOp35
 70
     1
102
RTVSPost2010Prop36
280
     0
102
RTVSPost2010PropOp36
 70
     1
102
RTVSPost2010Prop37
 90
       50
102
RTVSPost2010PropOp37
 70
     1
102
RTVSPost2010Prop38
140
0.0
102
RTVSPost2010PropOp38
 70
     1
102
RTVSPost2010Prop39
140
1.0
102
RTVSPost2010PropOp39
 70
     1
102
RTVSPost2010Prop40
 90
        0
102
RTVSPost2010PropOp40
 70
     1
102
RTVSPost2010Prop41ColorIndex
 90
       18
102
RTVSPost2010Prop41ColorRGB
 90
        0
102
RTVSPost2010PropOp41
 70
     1
102
RTVSPost2010Prop42
 90
       50
102
RTVSPost2010PropOp42
 70
     1
102
RTVSPost2010Prop43
 90
        3
102
RTVSPost2010PropOp43
 70
     1
102
RTVSPost2010Prop44ColorIndex
 90
        5
102
RTVSPost2010Prop44ColorRGB
 90
      255
102
RTVSPost2010PropOp44
 70
     1
102
RTVSPost2010Prop45
280
     0
102
RTVSPost2010PropOp45
 70
     1
102
RTVSPost2010Prop46
 90
       50
102
RTVSPost2010PropOp46
 70
     1
102
RTVSPost2010Prop47
 90
       50
102
RTVSPost2010PropOp47
 70
     1
102
RTVSPost2010Prop48
 90
       50
102
RTVSPost2010PropOp48
 70
     1
102
RTVSPost2010Prop49
280
     0
102
RTVSPost2010PropOp49
 70
     1
102
RTVSPost2010Prop50
 90
       50
102
RTVSPost2010PropOp50
 70
     1
102
RTVSPost2010Prop51ColorIndex
 90
      256
102
RTVSPost2010Prop51ColorRGB
 90
-16777216
102
RTVSPost2010PropOp51
 70
     0
102
RTVSPost2010Prop52
140
1.0
102
RTVSPost2010PropOp52
 70
     0
102
RTVSPost2010Prop53
 90
        2
102
RTVSPost2010PropOp53
 70
     1
102
RTVSPost2010Prop54
  1
strokes_ogs.tif
102
RTVSPost2010PropOp54
 70
     1
102
RTVSPost2010Prop55
280
     0
102
RTVSPost2010PropOp55
 70
     1
102
RTVSPost2010Prop56
140
1.0
102
RTVSPost2010PropOp56
 70
     1
102
RTVSPost2010Prop57
140
1.0
102
RTVSPost2010PropOp57
 70
     1
  0
XRECORD
  5
52E
102
{ACAD_REACTORS
330
52D
102
}
330
52D
100
AcDbXrecord
280
     1
102
RTVSPropertyOp0
 70
     1
102
RTVSPropertyOp1
 70
     1
102
RTVSPropertyOp2
 70
     1
102
RTVSPropertyOp3
 70
     1
102
RTVSPropertyOp4
 70
     1
102
RTVSPropertyOp5
 70
     1
102
RTVSPropertyOp6
 70
     1
102
RTVSPropertyOp7
 70
     1
102
RTVSPropertyOp8
 70
     1
102
RTVSPropertyOp9
 70
     1
102
RTVSPropertyOp10
 70
     1
102
RTVSPropertyOp11
 70
     1
102
RTVSPropertyOp12
 70
     1
102
RTVSPropertyOp13
 70
     1
102
RTVSPropertyOp14
 70
     1
102
RTVSPropertyOp15
 70
     1
102
RTVSPropertyOp16
 70
     1
102
RTVSPropertyOp17
 70
     1
102
RTVSPropertyOp18
 70
     1
102
RTVSPropertyOp19
 70
     1
102
RTVSPropertyOp20
 70
     1
102
RTVSPropertyOp21
 70
     1
102
RTVSPropertyOp22
 70
     1
102
RTVSPropertyOp23
 70
     1
102
RTVSPropertyOp24
 70
     1
102
RTVSPropertyOp25
 70
     1
102
RTVSPropertyOp26
 70
     1
102
RTVSPropertyOp27
 70
     1
102
RTVSPropertyOp28
 70
     1
102
RTVSPropertyOp29
 70
     1
102
RTVSPropertyOp30
 70
     1
102
RTVSPropertyOp31
 70
     1
102
RTVSPropertyOp32
 70
     1
102
RTVSPropertyOp33
 70
     1
102
RTVSPropertyOp34
 70
     1
102
RTVSPropertyOp35
 70
     1
102
RTVSPropertyOp36
 70
     1
102
RTVSPropertyOp37
 70
     1
102
RTVSPropertyOp38
 70
     1
102
RTVSPropertyOp39
 70
     1
102
RTVSPropertyOp40
 70
     1
102
RTVSPropertyOp41
 70
     1
102
RTVSPropertyOp42
 70
     1
102
RTVSPropertyOp43
 70
     1
102
RTVSPropertyOp44
 70
     1
102
RTVSPropertyOp45
 70
     1
102
RTVSPropertyOp46
 70
     1
102
RTVSPropertyOp47
 70
     1
102
RTVSPropertyOp48
 70
     1
102
RTVSPropertyOp49
 70
     1
102
RTVSPropertyOp50
 70
     1
102
RTVSPropertyOp51
 70
     0
102
RTVSPropertyOp52
 70
     0
102
RTVSPropertyOp53
 70
     1
102
RTVSPropertyOp54
 70
     1
102
RTVSPropertyOp55
 70
     1
102
RTVSPropertyOp56
 70
     1
102
RTVSPropertyOp57
 70
     1
102
RTVSPost2010Prop28
280
     0
102
RTVSPost2010PropOp28
 70
     1
102
RTVSPost2010Prop29
280
     1
102
RTVSPost2010PropOp29
 70
     1
102
RTVSPost2010Prop30
280
     1
102
RTVSPost2010PropOp30
 70
     1
102
RTVSPost2010Prop31
280
     0
102
RTVSPost2010PropOp31
 70
     1
102
RTVSPost2010Prop32
280
     0
102
RTVSPost2010PropOp32
 70
     1
102
RTVSPost2010Prop33
280
     0
102
RTVSPost2010PropOp33
 70
     1
102
RTVSPost2010Prop34
280
     0
102
RTVSPost2010PropOp34
 70
     1
102
RTVSPost2010Prop35
280
     0
102
RTVSPost2010PropOp35
 70
     1
102
RTVSPost2010Prop36
280
     0
102
RTVSPost2010PropOp36
 70
     1
102
RTVSPost2010Prop37
 90
       50
102
RTVSPost2010PropOp37
 70
     1
102
RTVSPost2010Prop38
140
0.0
102
RTVSPost2010PropOp38
 70
     1
102
RTVSPost2010Prop39
140
1.0
102
RTVSPost2010PropOp39
 70
     1
102
RTVSPost2010Prop40
 90
        0
102
RTVSPost2010PropOp40
 70
     1
102
RTVSPost2010Prop41ColorIndex
 90
       18
102
RTVSPost2010Prop41ColorRGB
 90
        0
102
RTVSPost2010PropOp41
 70
     1
102
RTVSPost2010Prop42
 90
       50
102
RTVSPost2010PropOp42
 70
     1
102
RTVSPost2010Prop43
 90
        3
102
RTVSPost2010PropOp43
 70
     1
102
RTVSPost2010Prop44ColorIndex
 90
        5
102
RTVSPost2010Prop44ColorRGB
 90
      255
102
RTVSPost2010PropOp44
 70
     1
102
RTVSPost2010Prop45
280
     0
102
RTVSPost2010PropOp45
 70
     1
102
RTVSPost2010Prop46
 90
       50
102
RTVSPost2010PropOp46
 70
     1
102
RTVSPost2010Prop47
 90
       50
102
RTVSPost2010PropOp47
 70
     1
102
RTVSPost2010Prop48
 90
       50
102
RTVSPost2010PropOp48
 70
     1
102
RTVSPost2010Prop49
280
     0
102
RTVSPost2010PropOp49
 70
     1
102
RTVSPost2010Prop50
 90
       50
102
RTVSPost2010PropOp50
 70
     1
102
RTVSPost2010Prop51ColorIndex
 90
      256
102
RTVSPost2010Prop51ColorRGB
 90
-16777216
102
RTVSPost2010PropOp51
 70
     0
102
RTVSPost2010Prop52
140
1.0
102
RTVSPost2010PropOp52
 70
     0
102
RTVSPost2010Prop53
 90
        2
102
RTVSPost2010PropOp53
 70
     1
102
RTVSPost2010Prop54
  1
strokes_ogs.tif
102
RTVSPost2010PropOp54
 70
     1
102
RTVSPost2010Prop55
280
     0
102
RTVSPost2010PropOp55
 70
     1
102
RTVSPost2010Prop56
140
1.0
102
RTVSPost2010PropOp56
 70
     1
102
RTVSPost2010Prop57
140
1.0
102
RTVSPost2010PropOp57
 70
     1
  0
XRECORD
  5
536
102
{ACAD_REACTORS
330
535
102
}
330
535
100
AcDbXrecord
280
     1
102
RTVSPropertyOp0
 70
     1
102
RTVSPropertyOp1
 70
     1
102
RTVSPropertyOp2
 70
     1
102
RTVSPropertyOp3
 70
     1
102
RTVSPropertyOp4
 70
     1
102
RTVSPropertyOp5
 70
     1
102
RTVSPropertyOp6
 70
     1
102
RTVSPropertyOp7
 70
     1
102
RTVSPropertyOp8
 70
     1
102
RTVSPropertyOp9
 70
     1
102
RTVSPropertyOp10
 70
     1
102
RTVSPropertyOp11
 70
     1
102
RTVSPropertyOp12
 70
     1
102
RTVSPropertyOp13
 70
     1
102
RTVSPropertyOp14
 70
     1
102
RTVSPropertyOp15
 70
     1
102
RTVSPropertyOp16
 70
     1
102
RTVSPropertyOp17
 70
     1
102
RTVSPropertyOp18
 70
     1
102
RTVSPropertyOp19
 70
     1
102
RTVSPropertyOp20
 70
     1
102
RTVSPropertyOp21
 70
     1
102
RTVSPropertyOp22
 70
     1
102
RTVSPropertyOp23
 70
     1
102
RTVSPropertyOp24
 70
     1
102
RTVSPropertyOp25
 70
     1
102
RTVSPropertyOp26
 70
     1
102
RTVSPropertyOp27
 70
     1
102
RTVSPropertyOp28
 70
     1
102
RTVSPropertyOp29
 70
     1
102
RTVSPropertyOp30
 70
     1
102
RTVSPropertyOp31
 70
     1
102
RTVSPropertyOp32
 70
     1
102
RTVSPropertyOp33
 70
     1
102
RTVSPropertyOp34
 70
     1
102
RTVSPropertyOp35
 70
     1
102
RTVSPropertyOp36
 70
     1
102
RTVSPropertyOp37
 70
     1
102
RTVSPropertyOp38
 70
     1
102
RTVSPropertyOp39
 70
     1
102
RTVSPropertyOp40
 70
     1
102
RTVSPropertyOp41
 70
     1
102
RTVSPropertyOp42
 70
     1
102
RTVSPropertyOp43
 70
     1
102
RTVSPropertyOp44
 70
     1
102
RTVSPropertyOp45
 70
     1
102
RTVSPropertyOp46
 70
     1
102
RTVSPropertyOp47
 70
     1
102
RTVSPropertyOp48
 70
     1
102
RTVSPropertyOp49
 70
     1
102
RTVSPropertyOp50
 70
     1
102
RTVSPropertyOp51
 70
     0
102
RTVSPropertyOp52
 70
     0
102
RTVSPropertyOp53
 70
     1
102
RTVSPropertyOp54
 70
     1
102
RTVSPropertyOp55
 70
     1
102
RTVSPropertyOp56
 70
     1
102
RTVSPropertyOp57
 70
     1
102
RTVSPost2010Prop28
280
     0
102
RTVSPost2010PropOp28
 70
     1
102
RTVSPost2010Prop29
280
     1
102
RTVSPost2010PropOp29
 70
     1
102
RTVSPost2010Prop30
280
     1
102
RTVSPost2010PropOp30
 70
     1
102
RTVSPost2010Prop31
280
     0
102
RTVSPost2010PropOp31
 70
     1
102
RTVSPost2010Prop32
280
     0
102
RTVSPost2010PropOp32
 70
     1
102
RTVSPost2010Prop33
280
     0
102
RTVSPost2010PropOp33
 70
     1
102
RTVSPost2010Prop34
280
     0
102
RTVSPost2010PropOp34
 70
     1
102
RTVSPost2010Prop35
280
     0
102
RTVSPost2010PropOp35
 70
     1
102
RTVSPost2010Prop36
280
     0
102
RTVSPost2010PropOp36
 70
     1
102
RTVSPost2010Prop37
 90
       50
102
RTVSPost2010PropOp37
 70
     1
102
RTVSPost2010Prop38
140
0.0
102
RTVSPost2010PropOp38
 70
     1
102
RTVSPost2010Prop39
140
1.0
102
RTVSPost2010PropOp39
 70
     1
102
RTVSPost2010Prop40
 90
        0
102
RTVSPost2010PropOp40
 70
     1
102
RTVSPost2010Prop41ColorIndex
 90
       18
102
RTVSPost2010Prop41ColorRGB
 90
        0
102
RTVSPost2010PropOp41
 70
     1
102
RTVSPost2010Prop42
 90
       50
102
RTVSPost2010PropOp42
 70
     1
102
RTVSPost2010Prop43
 90
        3
102
RTVSPost2010PropOp43
 70
     1
102
RTVSPost2010Prop44ColorIndex
 90
        5
102
RTVSPost2010Prop44ColorRGB
 90
      255
102
RTVSPost2010PropOp44
 70
     1
102
RTVSPost2010Prop45
280
     0
102
RTVSPost2010PropOp45
 70
     1
102
RTVSPost2010Prop46
 90
       50
102
RTVSPost2010PropOp46
 70
     1
102
RTVSPost2010Prop47
 90
       50
102
RTVSPost2010PropOp47
 70
     1
102
RTVSPost2010Prop48
 90
       50
102
RTVSPost2010PropOp48
 70
     1
102
RTVSPost2010Prop49
280
     0
102
RTVSPost2010PropOp49
 70
     1
102
RTVSPost2010Prop50
 90
       50
102
RTVSPost2010PropOp50
 70
     1
102
RTVSPost2010Prop51ColorIndex
 90
      256
102
RTVSPost2010Prop51ColorRGB
 90
-16777216
102
RTVSPost2010PropOp51
 70
     0
102
RTVSPost2010Prop52
140
1.0
102
RTVSPost2010PropOp52
 70
     0
102
RTVSPost2010Prop53
 90
        2
102
RTVSPost2010PropOp53
 70
     1
102
RTVSPost2010Prop54
  1
strokes_ogs.tif
102
RTVSPost2010PropOp54
 70
     1
102
RTVSPost2010Prop55
280
     0
102
RTVSPost2010PropOp55
 70
     1
102
RTVSPost2010Prop56
140
1.0
102
RTVSPost2010PropOp56
 70
     1
102
RTVSPost2010Prop57
140
1.0
102
RTVSPost2010PropOp57
 70
     1
  0
XRECORD
  5
53E
102
{ACAD_REACTORS
330
53D
102
}
330
53D
100
AcDbXrecord
280
     1
102
RTVSPropertyOp0
 70
     1
102
RTVSPropertyOp1
 70
     1
102
RTVSPropertyOp2
 70
     1
102
RTVSPropertyOp3
 70
     1
102
RTVSPropertyOp4
 70
     1
102
RTVSPropertyOp5
 70
     1
102
RTVSPropertyOp6
 70
     1
102
RTVSPropertyOp7
 70
     1
102
RTVSPropertyOp8
 70
     1
102
RTVSPropertyOp9
 70
     1
102
RTVSPropertyOp10
 70
     1
102
RTVSPropertyOp11
 70
     1
102
RTVSPropertyOp12
 70
     1
102
RTVSPropertyOp13
 70
     1
102
RTVSPropertyOp14
 70
     1
102
RTVSPropertyOp15
 70
     1
102
RTVSPropertyOp16
 70
     1
102
RTVSPropertyOp17
 70
     1
102
RTVSPropertyOp18
 70
     1
102
RTVSPropertyOp19
 70
     1
102
RTVSPropertyOp20
 70
     1
102
RTVSPropertyOp21
 70
     1
102
RTVSPropertyOp22
 70
     1
102
RTVSPropertyOp23
 70
     1
102
RTVSPropertyOp24
 70
     1
102
RTVSPropertyOp25
 70
     1
102
RTVSPropertyOp26
 70
     1
102
RTVSPropertyOp27
 70
     1
102
RTVSPropertyOp28
 70
     1
102
RTVSPropertyOp29
 70
     1
102
RTVSPropertyOp30
 70
     1
102
RTVSPropertyOp31
 70
     1
102
RTVSPropertyOp32
 70
     1
102
RTVSPropertyOp33
 70
     1
102
RTVSPropertyOp34
 70
     1
102
RTVSPropertyOp35
 70
     1
102
RTVSPropertyOp36
 70
     1
102
RTVSPropertyOp37
 70
     1
102
RTVSPropertyOp38
 70
     1
102
RTVSPropertyOp39
 70
     1
102
RTVSPropertyOp40
 70
     1
102
RTVSPropertyOp41
 70
     1
102
RTVSPropertyOp42
 70
     1
102
RTVSPropertyOp43
 70
     1
102
RTVSPropertyOp44
 70
     1
102
RTVSPropertyOp45
 70
     1
102
RTVSPropertyOp46
 70
     1
102
RTVSPropertyOp47
 70
     1
102
RTVSPropertyOp48
 70
     1
102
RTVSPropertyOp49
 70
     1
102
RTVSPropertyOp50
 70
     1
102
RTVSPropertyOp51
 70
     0
102
RTVSPropertyOp52
 70
     0
102
RTVSPropertyOp53
 70
     1
102
RTVSPropertyOp54
 70
     1
102
RTVSPropertyOp55
 70
     1
102
RTVSPropertyOp56
 70
     1
102
RTVSPropertyOp57
 70
     1
102
RTVSPost2010Prop28
280
     0
102
RTVSPost2010PropOp28
 70
     1
102
RTVSPost2010Prop29
280
     1
102
RTVSPost2010PropOp29
 70
     1
102
RTVSPost2010Prop30
280
     1
102
RTVSPost2010PropOp30
 70
     1
102
RTVSPost2010Prop31
280
     0
102
RTVSPost2010PropOp31
 70
     1
102
RTVSPost2010Prop32
280
     0
102
RTVSPost2010PropOp32
 70
     1
102
RTVSPost2010Prop33
280
     0
102
RTVSPost2010PropOp33
 70
     1
102
RTVSPost2010Prop34
280
     0
102
RTVSPost2010PropOp34
 70
     1
102
RTVSPost2010Prop35
280
     0
102
RTVSPost2010PropOp35
 70
     1
102
RTVSPost2010Prop36
280
     0
102
RTVSPost2010PropOp36
 70
     1
102
RTVSPost2010Prop37
 90
       50
102
RTVSPost2010PropOp37
 70
     1
102
RTVSPost2010Prop38
140
0.0
102
RTVSPost2010PropOp38
 70
     1
102
RTVSPost2010Prop39
140
1.0
102
RTVSPost2010PropOp39
 70
     1
102
RTVSPost2010Prop40
 90
        0
102
RTVSPost2010PropOp40
 70
     1
102
RTVSPost2010Prop41ColorIndex
 90
       18
102
RTVSPost2010Prop41ColorRGB
 90
        0
102
RTVSPost2010PropOp41
 70
     1
102
RTVSPost2010Prop42
 90
       50
102
RTVSPost2010PropOp42
 70
     1
102
RTVSPost2010Prop43
 90
        3
102
RTVSPost2010PropOp43
 70
     1
102
RTVSPost2010Prop44ColorIndex
 90
        5
102
RTVSPost2010Prop44ColorRGB
 90
      255
102
RTVSPost2010PropOp44
 70
     1
102
RTVSPost2010Prop45
280
     0
102
RTVSPost2010PropOp45
 70
     1
102
RTVSPost2010Prop46
 90
       50
102
RTVSPost2010PropOp46
 70
     1
102
RTVSPost2010Prop47
 90
       50
102
RTVSPost2010PropOp47
 70
     1
102
RTVSPost2010Prop48
 90
       50
102
RTVSPost2010PropOp48
 70
     1
102
RTVSPost2010Prop49
280
     0
102
RTVSPost2010PropOp49
 70
     1
102
RTVSPost2010Prop50
 90
       50
102
RTVSPost2010PropOp50
 70
     1
102
RTVSPost2010Prop51ColorIndex
 90
      256
102
RTVSPost2010Prop51ColorRGB
 90
-16777216
102
RTVSPost2010PropOp51
 70
     0
102
RTVSPost2010Prop52
140
1.0
102
RTVSPost2010PropOp52
 70
     0
102
RTVSPost2010Prop53
 90
        2
102
RTVSPost2010PropOp53
 70
     1
102
RTVSPost2010Prop54
  1
strokes_ogs.tif
102
RTVSPost2010PropOp54
 70
     1
102
RTVSPost2010Prop55
280
     0
102
RTVSPost2010PropOp55
 70
     1
102
RTVSPost2010Prop56
140
1.0
102
RTVSPost2010PropOp56
 70
     1
102
RTVSPost2010Prop57
140
1.0
102
RTVSPost2010PropOp57
 70
     1
  0
XRECORD
  5
532
102
{ACAD_REACTORS
330
531
102
}
330
531
100
AcDbXrecord
280
     1
102
RTVSPropertyOp0
 70
     1
102
RTVSPropertyOp1
 70
     1
102
RTVSPropertyOp2
 70
     1
102
RTVSPropertyOp3
 70
     1
102
RTVSPropertyOp4
 70
     1
102
RTVSPropertyOp5
 70
     1
102
RTVSPropertyOp6
 70
     1
102
RTVSPropertyOp7
 70
     1
102
RTVSPropertyOp8
 70
     1
102
RTVSPropertyOp9
 70
     1
102
RTVSPropertyOp10
 70
     1
102
RTVSPropertyOp11
 70
     1
102
RTVSPropertyOp12
 70
     1
102
RTVSPropertyOp13
 70
     1
102
RTVSPropertyOp14
 70
     1
102
RTVSPropertyOp15
 70
     1
102
RTVSPropertyOp16
 70
     1
102
RTVSPropertyOp17
 70
     1
102
RTVSPropertyOp18
 70
     1
102
RTVSPropertyOp19
 70
     1
102
RTVSPropertyOp20
 70
     1
102
RTVSPropertyOp21
 70
     1
102
RTVSPropertyOp22
 70
     1
102
RTVSPropertyOp23
 70
     1
102
RTVSPropertyOp24
 70
     1
102
RTVSPropertyOp25
 70
     1
102
RTVSPropertyOp26
 70
     1
102
RTVSPropertyOp27
 70
     1
102
RTVSPropertyOp28
 70
     1
102
RTVSPropertyOp29
 70
     1
102
RTVSPropertyOp30
 70
     1
102
RTVSPropertyOp31
 70
     1
102
RTVSPropertyOp32
 70
     1
102
RTVSPropertyOp33
 70
     1
102
RTVSPropertyOp34
 70
     1
102
RTVSPropertyOp35
 70
     1
102
RTVSPropertyOp36
 70
     1
102
RTVSPropertyOp37
 70
     1
102
RTVSPropertyOp38
 70
     1
102
RTVSPropertyOp39
 70
     1
102
RTVSPropertyOp40
 70
     1
102
RTVSPropertyOp41
 70
     1
102
RTVSPropertyOp42
 70
     1
102
RTVSPropertyOp43
 70
     1
102
RTVSPropertyOp44
 70
     1
102
RTVSPropertyOp45
 70
     1
102
RTVSPropertyOp46
 70
     1
102
RTVSPropertyOp47
 70
     1
102
RTVSPropertyOp48
 70
     1
102
RTVSPropertyOp49
 70
     1
102
RTVSPropertyOp50
 70
     1
102
RTVSPropertyOp51
 70
     0
102
RTVSPropertyOp52
 70
     0
102
RTVSPropertyOp53
 70
     1
102
RTVSPropertyOp54
 70
     1
102
RTVSPropertyOp55
 70
     1
102
RTVSPropertyOp56
 70
     1
102
RTVSPropertyOp57
 70
     1
102
RTVSPost2010Prop28
280
     0
102
RTVSPost2010PropOp28
 70
     1
102
RTVSPost2010Prop29
280
     1
102
RTVSPost2010PropOp29
 70
     1
102
RTVSPost2010Prop30
280
     1
102
RTVSPost2010PropOp30
 70
     1
102
RTVSPost2010Prop31
280
     0
102
RTVSPost2010PropOp31
 70
     1
102
RTVSPost2010Prop32
280
     0
102
RTVSPost2010PropOp32
 70
     1
102
RTVSPost2010Prop33
280
     0
102
RTVSPost2010PropOp33
 70
     1
102
RTVSPost2010Prop34
280
     0
102
RTVSPost2010PropOp34
 70
     1
102
RTVSPost2010Prop35
280
     0
102
RTVSPost2010PropOp35
 70
     1
102
RTVSPost2010Prop36
280
     0
102
RTVSPost2010PropOp36
 70
     1
102
RTVSPost2010Prop37
 90
       50
102
RTVSPost2010PropOp37
 70
     1
102
RTVSPost2010Prop38
140
0.0
102
RTVSPost2010PropOp38
 70
     1
102
RTVSPost2010Prop39
140
1.0
102
RTVSPost2010PropOp39
 70
     1
102
RTVSPost2010Prop40
 90
        0
102
RTVSPost2010PropOp40
 70
     1
102
RTVSPost2010Prop41ColorIndex
 90
       18
102
RTVSPost2010Prop41ColorRGB
 90
        0
102
RTVSPost2010PropOp41
 70
     1
102
RTVSPost2010Prop42
 90
       50
102
RTVSPost2010PropOp42
 70
     1
102
RTVSPost2010Prop43
 90
        3
102
RTVSPost2010PropOp43
 70
     1
102
RTVSPost2010Prop44ColorIndex
 90
        5
102
RTVSPost2010Prop44ColorRGB
 90
      255
102
RTVSPost2010PropOp44
 70
     1
102
RTVSPost2010Prop45
280
     0
102
RTVSPost2010PropOp45
 70
     1
102
RTVSPost2010Prop46
 90
       50
102
RTVSPost2010PropOp46
 70
     1
102
RTVSPost2010Prop47
 90
       50
102
RTVSPost2010PropOp47
 70
     1
102
RTVSPost2010Prop48
 90
       50
102
RTVSPost2010PropOp48
 70
     1
102
RTVSPost2010Prop49
280
     0
102
RTVSPost2010PropOp49
 70
     1
102
RTVSPost2010Prop50
 90
       50
102
RTVSPost2010PropOp50
 70
     1
102
RTVSPost2010Prop51ColorIndex
 90
      256
102
RTVSPost2010Prop51ColorRGB
 90
-16777216
102
RTVSPost2010PropOp51
 70
     0
102
RTVSPost2010Prop52
140
1.0
102
RTVSPost2010PropOp52
 70
     0
102
RTVSPost2010Prop53
 90
        2
102
RTVSPost2010PropOp53
 70
     1
102
RTVSPost2010Prop54
  1
strokes_ogs.tif
102
RTVSPost2010PropOp54
 70
     1
102
RTVSPost2010Prop55
280
     0
102
RTVSPost2010PropOp55
 70
     1
102
RTVSPost2010Prop56
140
1.0
102
RTVSPost2010PropOp56
 70
     1
102
RTVSPost2010Prop57
140
1.0
102
RTVSPost2010PropOp57
 70
     1
  0
XRECORD
  5
534
102
{ACAD_REACTORS
330
533
102
}
330
533
100
AcDbXrecord
280
     1
102
RTVSPropertyOp0
 70
     1
102
RTVSPropertyOp1
 70
     1
102
RTVSPropertyOp2
 70
     1
102
RTVSPropertyOp3
 70
     1
102
RTVSPropertyOp4
 70
     1
102
RTVSPropertyOp5
 70
     1
102
RTVSPropertyOp6
 70
     1
102
RTVSPropertyOp7
 70
     1
102
RTVSPropertyOp8
 70
     1
102
RTVSPropertyOp9
 70
     1
102
RTVSPropertyOp10
 70
     1
102
RTVSPropertyOp11
 70
     1
102
RTVSPropertyOp12
 70
     1
102
RTVSPropertyOp13
 70
     1
102
RTVSPropertyOp14
 70
     1
102
RTVSPropertyOp15
 70
     1
102
RTVSPropertyOp16
 70
     1
102
RTVSPropertyOp17
 70
     1
102
RTVSPropertyOp18
 70
     1
102
RTVSPropertyOp19
 70
     1
102
RTVSPropertyOp20
 70
     1
102
RTVSPropertyOp21
 70
     1
102
RTVSPropertyOp22
 70
     1
102
RTVSPropertyOp23
 70
     1
102
RTVSPropertyOp24
 70
     1
102
RTVSPropertyOp25
 70
     1
102
RTVSPropertyOp26
 70
     1
102
RTVSPropertyOp27
 70
     1
102
RTVSPropertyOp28
 70
     1
102
RTVSPropertyOp29
 70
     1
102
RTVSPropertyOp30
 70
     1
102
RTVSPropertyOp31
 70
     1
102
RTVSPropertyOp32
 70
     1
102
RTVSPropertyOp33
 70
     1
102
RTVSPropertyOp34
 70
     1
102
RTVSPropertyOp35
 70
     1
102
RTVSPropertyOp36
 70
     1
102
RTVSPropertyOp37
 70
     1
102
RTVSPropertyOp38
 70
     1
102
RTVSPropertyOp39
 70
     1
102
RTVSPropertyOp40
 70
     1
102
RTVSPropertyOp41
 70
     1
102
RTVSPropertyOp42
 70
     1
102
RTVSPropertyOp43
 70
     1
102
RTVSPropertyOp44
 70
     1
102
RTVSPropertyOp45
 70
     1
102
RTVSPropertyOp46
 70
     1
102
RTVSPropertyOp47
 70
     1
102
RTVSPropertyOp48
 70
     1
102
RTVSPropertyOp49
 70
     1
102
RTVSPropertyOp50
 70
     1
102
RTVSPropertyOp51
 70
     0
102
RTVSPropertyOp52
 70
     0
102
RTVSPropertyOp53
 70
     1
102
RTVSPropertyOp54
 70
     1
102
RTVSPropertyOp55
 70
     1
102
RTVSPropertyOp56
 70
     1
102
RTVSPropertyOp57
 70
     1
102
RTVSPost2010Prop28
280
     0
102
RTVSPost2010PropOp28
 70
     1
102
RTVSPost2010Prop29
280
     1
102
RTVSPost2010PropOp29
 70
     1
102
RTVSPost2010Prop30
280
     1
102
RTVSPost2010PropOp30
 70
     1
102
RTVSPost2010Prop31
280
     0
102
RTVSPost2010PropOp31
 70
     1
102
RTVSPost2010Prop32
280
     0
102
RTVSPost2010PropOp32
 70
     1
102
RTVSPost2010Prop33
280
     0
102
RTVSPost2010PropOp33
 70
     1
102
RTVSPost2010Prop34
280
     0
102
RTVSPost2010PropOp34
 70
     1
102
RTVSPost2010Prop35
280
     0
102
RTVSPost2010PropOp35
 70
     1
102
RTVSPost2010Prop36
280
     0
102
RTVSPost2010PropOp36
 70
     1
102
RTVSPost2010Prop37
 90
       50
102
RTVSPost2010PropOp37
 70
     1
102
RTVSPost2010Prop38
140
0.0
102
RTVSPost2010PropOp38
 70
     1
102
RTVSPost2010Prop39
140
1.0
102
RTVSPost2010PropOp39
 70
     1
102
RTVSPost2010Prop40
 90
        0
102
RTVSPost2010PropOp40
 70
     1
102
RTVSPost2010Prop41ColorIndex
 90
       18
102
RTVSPost2010Prop41ColorRGB
 90
        0
102
RTVSPost2010PropOp41
 70
     1
102
RTVSPost2010Prop42
 90
       50
102
RTVSPost2010PropOp42
 70
     1
102
RTVSPost2010Prop43
 90
        3
102
RTVSPost2010PropOp43
 70
     1
102
RTVSPost2010Prop44ColorIndex
 90
        5
102
RTVSPost2010Prop44ColorRGB
 90
      255
102
RTVSPost2010PropOp44
 70
     1
102
RTVSPost2010Prop45
280
     0
102
RTVSPost2010PropOp45
 70
     1
102
RTVSPost2010Prop46
 90
       50
102
RTVSPost2010PropOp46
 70
     1
102
RTVSPost2010Prop47
 90
       50
102
RTVSPost2010PropOp47
 70
     1
102
RTVSPost2010Prop48
 90
       50
102
RTVSPost2010PropOp48
 70
     1
102
RTVSPost2010Prop49
280
     0
102
RTVSPost2010PropOp49
 70
     1
102
RTVSPost2010Prop50
 90
       50
102
RTVSPost2010PropOp50
 70
     1
102
RTVSPost2010Prop51ColorIndex
 90
      256
102
RTVSPost2010Prop51ColorRGB
 90
-16777216
102
RTVSPost2010PropOp51
 70
     0
102
RTVSPost2010Prop52
140
1.0
102
RTVSPost2010PropOp52
 70
     0
102
RTVSPost2010Prop53
 90
        2
102
RTVSPost2010PropOp53
 70
     1
102
RTVSPost2010Prop54
  1
strokes_ogs.tif
102
RTVSPost2010PropOp54
 70
     1
102
RTVSPost2010Prop55
280
     0
102
RTVSPost2010PropOp55
 70
     1
102
RTVSPost2010Prop56
140
1.0
102
RTVSPost2010PropOp56
 70
     1
102
RTVSPost2010Prop57
140
1.0
102
RTVSPost2010PropOp57
 70
     1
  0
XRECORD
  5
544
102
{ACAD_REACTORS
330
543
102
}
330
543
100
AcDbXrecord
280
     1
102
RTVSPropertyOp0
 70
     0
102
RTVSPropertyOp1
 70
     0
102
RTVSPropertyOp2
 70
     0
102
RTVSPropertyOp3
 70
     0
102
RTVSPropertyOp4
 70
     0
102
RTVSPropertyOp5
 70
     0
102
RTVSPropertyOp6
 70
     0
102
RTVSPropertyOp7
 70
     0
102
RTVSPropertyOp8
 70
     0
102
RTVSPropertyOp9
 70
     0
102
RTVSPropertyOp10
 70
     0
102
RTVSPropertyOp11
 70
     0
102
RTVSPropertyOp12
 70
     0
102
RTVSPropertyOp13
 70
     0
102
RTVSPropertyOp14
 70
     0
102
RTVSPropertyOp15
 70
     0
102
RTVSPropertyOp16
 70
     0
102
RTVSPropertyOp17
 70
     0
102
RTVSPropertyOp18
 70
     0
102
RTVSPropertyOp19
 70
     0
102
RTVSPropertyOp20
 70
     0
102
RTVSPropertyOp21
 70
     0
102
RTVSPropertyOp22
 70
     0
102
RTVSPropertyOp23
 70
     0
102
RTVSPropertyOp24
 70
     0
102
RTVSPropertyOp25
 70
     0
102
RTVSPropertyOp26
 70
     0
102
RTVSPropertyOp27
 70
     0
102
RTVSPropertyOp28
 70
     1
102
RTVSPropertyOp29
 70
     1
102
RTVSPropertyOp30
 70
     1
102
RTVSPropertyOp31
 70
     1
102
RTVSPropertyOp32
 70
     1
102
RTVSPropertyOp33
 70
     1
102
RTVSPropertyOp34
 70
     1
102
RTVSPropertyOp35
 70
     1
102
RTVSPropertyOp36
 70
     1
102
RTVSPropertyOp37
 70
     1
102
RTVSPropertyOp38
 70
     1
102
RTVSPropertyOp39
 70
     1
102
RTVSPropertyOp40
 70
     1
102
RTVSPropertyOp41
 70
     1
102
RTVSPropertyOp42
 70
     1
102
RTVSPropertyOp43
 70
     1
102
RTVSPropertyOp44
 70
     1
102
RTVSPropertyOp45
 70
     1
102
RTVSPropertyOp46
 70
     1
102
RTVSPropertyOp47
 70
     1
102
RTVSPropertyOp48
 70
     1
102
RTVSPropertyOp49
 70
     1
102
RTVSPropertyOp50
 70
     1
102
RTVSPropertyOp51
 70
     0
102
RTVSPropertyOp52
 70
     0
102
RTVSPropertyOp53
 70
     1
102
RTVSPropertyOp54
 70
     1
102
RTVSPropertyOp55
 70
     1
102
RTVSPropertyOp56
 70
     1
102
RTVSPropertyOp57
 70
     1
102
RTVSPost2010Prop28
280
     0
102
RTVSPost2010PropOp28
 70
     1
102
RTVSPost2010Prop29
280
     1
102
RTVSPost2010PropOp29
 70
     1
102
RTVSPost2010Prop30
280
     1
102
RTVSPost2010PropOp30
 70
     1
102
RTVSPost2010Prop31
280
     0
102
RTVSPost2010PropOp31
 70
     1
102
RTVSPost2010Prop32
280
     0
102
RTVSPost2010PropOp32
 70
     1
102
RTVSPost2010Prop33
280
     0
102
RTVSPost2010PropOp33
 70
     1
102
RTVSPost2010Prop34
280
     0
102
RTVSPost2010PropOp34
 70
     1
102
RTVSPost2010Prop35
280
     0
102
RTVSPost2010PropOp35
 70
     1
102
RTVSPost2010Prop36
280
     0
102
RTVSPost2010PropOp36
 70
     1
102
RTVSPost2010Prop37
 90
       50
102
RTVSPost2010PropOp37
 70
     1
102
RTVSPost2010Prop38
140
0.0
102
RTVSPost2010PropOp38
 70
     1
102
RTVSPost2010Prop39
140
1.0
102
RTVSPost2010PropOp39
 70
     1
102
RTVSPost2010Prop40
 90
        0
102
RTVSPost2010PropOp40
 70
     1
102
RTVSPost2010Prop41ColorIndex
 90
       18
102
RTVSPost2010Prop41ColorRGB
 90
        0
102
RTVSPost2010PropOp41
 70
     1
102
RTVSPost2010Prop42
 90
       50
102
RTVSPost2010PropOp42
 70
     1
102
RTVSPost2010Prop43
 90
        3
102
RTVSPost2010PropOp43
 70
     1
102
RTVSPost2010Prop44ColorIndex
 90
        5
102
RTVSPost2010Prop44ColorRGB
 90
      255
102
RTVSPost2010PropOp44
 70
     1
102
RTVSPost2010Prop45
280
     0
102
RTVSPost2010PropOp45
 70
     1
102
RTVSPost2010Prop46
 90
       50
102
RTVSPost2010PropOp46
 70
     1
102
RTVSPost2010Prop47
 90
       50
102
RTVSPost2010PropOp47
 70
     1
102
RTVSPost2010Prop48
 90
       50
102
RTVSPost2010PropOp48
 70
     1
102
RTVSPost2010Prop49
280
     0
102
RTVSPost2010PropOp49
 70
     1
102
RTVSPost2010Prop50
 90
       50
102
RTVSPost2010PropOp50
 70
     1
102
RTVSPost2010Prop51ColorIndex
 90
      256
102
RTVSPost2010Prop51ColorRGB
 90
-16777216
102
RTVSPost2010PropOp51
 70
     0
102
RTVSPost2010Prop52
140
1.0
102
RTVSPost2010PropOp52
 70
     0
102
RTVSPost2010Prop53
 90
        2
102
RTVSPost2010PropOp53
 70
     1
102
RTVSPost2010Prop54
  1
strokes_ogs.tif
102
RTVSPost2010PropOp54
 70
     1
102
RTVSPost2010Prop55
280
     0
102
RTVSPost2010PropOp55
 70
     1
102
RTVSPost2010Prop56
140
1.0
102
RTVSPost2010PropOp56
 70
     1
102
RTVSPost2010Prop57
140
1.0
102
RTVSPost2010PropOp57
 70
     1
  0
XRECORD
  5
53C
102
{ACAD_REACTORS
330
53B
102
}
330
53B
100
AcDbXrecord
280
     1
102
RTVSPropertyOp0
 70
     1
102
RTVSPropertyOp1
 70
     1
102
RTVSPropertyOp2
 70
     1
102
RTVSPropertyOp3
 70
     1
102
RTVSPropertyOp4
 70
     1
102
RTVSPropertyOp5
 70
     1
102
RTVSPropertyOp6
 70
     1
102
RTVSPropertyOp7
 70
     1
102
RTVSPropertyOp8
 70
     1
102
RTVSPropertyOp9
 70
     1
102
RTVSPropertyOp10
 70
     1
102
RTVSPropertyOp11
 70
     1
102
RTVSPropertyOp12
 70
     1
102
RTVSPropertyOp13
 70
     1
102
RTVSPropertyOp14
 70
     1
102
RTVSPropertyOp15
 70
     1
102
RTVSPropertyOp16
 70
     1
102
RTVSPropertyOp17
 70
     1
102
RTVSPropertyOp18
 70
     1
102
RTVSPropertyOp19
 70
     1
102
RTVSPropertyOp20
 70
     1
102
RTVSPropertyOp21
 70
     1
102
RTVSPropertyOp22
 70
     1
102
RTVSPropertyOp23
 70
     1
102
RTVSPropertyOp24
 70
     1
102
RTVSPropertyOp25
 70
     1
102
RTVSPropertyOp26
 70
     1
102
RTVSPropertyOp27
 70
     1
102
RTVSPropertyOp28
 70
     1
102
RTVSPropertyOp29
 70
     1
102
RTVSPropertyOp30
 70
     1
102
RTVSPropertyOp31
 70
     1
102
RTVSPropertyOp32
 70
     1
102
RTVSPropertyOp33
 70
     1
102
RTVSPropertyOp34
 70
     1
102
RTVSPropertyOp35
 70
     1
102
RTVSPropertyOp36
 70
     1
102
RTVSPropertyOp37
 70
     1
102
RTVSPropertyOp38
 70
     1
102
RTVSPropertyOp39
 70
     1
102
RTVSPropertyOp40
 70
     1
102
RTVSPropertyOp41
 70
     1
102
RTVSPropertyOp42
 70
     1
102
RTVSPropertyOp43
 70
     1
102
RTVSPropertyOp44
 70
     1
102
RTVSPropertyOp45
 70
     1
102
RTVSPropertyOp46
 70
     1
102
RTVSPropertyOp47
 70
     1
102
RTVSPropertyOp48
 70
     1
102
RTVSPropertyOp49
 70
     1
102
RTVSPropertyOp50
 70
     1
102
RTVSPropertyOp51
 70
     0
102
RTVSPropertyOp52
 70
     0
102
RTVSPropertyOp53
 70
     1
102
RTVSPropertyOp54
 70
     1
102
RTVSPropertyOp55
 70
     1
102
RTVSPropertyOp56
 70
     1
102
RTVSPropertyOp57
 70
     1
102
RTVSPost2010Prop28
280
     0
102
RTVSPost2010PropOp28
 70
     1
102
RTVSPost2010Prop29
280
     1
102
RTVSPost2010PropOp29
 70
     1
102
RTVSPost2010Prop30
280
     1
102
RTVSPost2010PropOp30
 70
     1
102
RTVSPost2010Prop31
280
     0
102
RTVSPost2010PropOp31
 70
     1
102
RTVSPost2010Prop32
280
     0
102
RTVSPost2010PropOp32
 70
     1
102
RTVSPost2010Prop33
280
     0
102
RTVSPost2010PropOp33
 70
     1
102
RTVSPost2010Prop34
280
     0
102
RTVSPost2010PropOp34
 70
     1
102
RTVSPost2010Prop35
280
     0
102
RTVSPost2010PropOp35
 70
     1
102
RTVSPost2010Prop36
280
     0
102
RTVSPost2010PropOp36
 70
     1
102
RTVSPost2010Prop37
 90
       50
102
RTVSPost2010PropOp37
 70
     1
102
RTVSPost2010Prop38
140
0.0
102
RTVSPost2010PropOp38
 70
     1
102
RTVSPost2010Prop39
140
1.0
102
RTVSPost2010PropOp39
 70
     1
102
RTVSPost2010Prop40
 90
        0
102
RTVSPost2010PropOp40
 70
     1
102
RTVSPost2010Prop41ColorIndex
 90
       18
102
RTVSPost2010Prop41ColorRGB
 90
        0
102
RTVSPost2010PropOp41
 70
     1
102
RTVSPost2010Prop42
 90
       50
102
RTVSPost2010PropOp42
 70
     1
102
RTVSPost2010Prop43
 90
        3
102
RTVSPost2010PropOp43
 70
     1
102
RTVSPost2010Prop44ColorIndex
 90
        5
102
RTVSPost2010Prop44ColorRGB
 90
      255
102
RTVSPost2010PropOp44
 70
     1
102
RTVSPost2010Prop45
280
     0
102
RTVSPost2010PropOp45
 70
     1
102
RTVSPost2010Prop46
 90
       50
102
RTVSPost2010PropOp46
 70
     1
102
RTVSPost2010Prop47
 90
       50
102
RTVSPost2010PropOp47
 70
     1
102
RTVSPost2010Prop48
 90
       50
102
RTVSPost2010PropOp48
 70
     1
102
RTVSPost2010Prop49
280
     0
102
RTVSPost2010PropOp49
 70
     1
102
RTVSPost2010Prop50
 90
       50
102
RTVSPost2010PropOp50
 70
     1
102
RTVSPost2010Prop51ColorIndex
 90
      256
102
RTVSPost2010Prop51ColorRGB
 90
-16777216
102
RTVSPost2010PropOp51
 70
     0
102
RTVSPost2010Prop52
140
1.0
102
RTVSPost2010PropOp52
 70
     0
102
RTVSPost2010Prop53
 90
        2
102
RTVSPost2010PropOp53
 70
     1
102
RTVSPost2010Prop54
  1
strokes_ogs.tif
102
RTVSPost2010PropOp54
 70
     1
102
RTVSPost2010Prop55
280
     0
102
RTVSPost2010PropOp55
 70
     1
102
RTVSPost2010Prop56
140
1.0
102
RTVSPost2010PropOp56
 70
     1
102
RTVSPost2010Prop57
140
1.0
102
RTVSPost2010PropOp57
 70
     1
  0
XRECORD
  5
520
102
{ACAD_REACTORS
330
51F
102
}
330
51F
100
AcDbXrecord
280
     1
102
RTVSPropertyOp0
 70
     1
102
RTVSPropertyOp1
 70
     1
102
RTVSPropertyOp2
 70
     1
102
RTVSPropertyOp3
 70
     1
102
RTVSPropertyOp4
 70
     1
102
RTVSPropertyOp5
 70
     1
102
RTVSPropertyOp6
 70
     1
102
RTVSPropertyOp7
 70
     1
102
RTVSPropertyOp8
 70
     1
102
RTVSPropertyOp9
 70
     1
102
RTVSPropertyOp10
 70
     1
102
RTVSPropertyOp11
 70
     1
102
RTVSPropertyOp12
 70
     1
102
RTVSPropertyOp13
 70
     1
102
RTVSPropertyOp14
 70
     1
102
RTVSPropertyOp15
 70
     1
102
RTVSPropertyOp16
 70
     1
102
RTVSPropertyOp17
 70
     1
102
RTVSPropertyOp18
 70
     1
102
RTVSPropertyOp19
 70
     1
102
RTVSPropertyOp20
 70
     1
102
RTVSPropertyOp21
 70
     1
102
RTVSPropertyOp22
 70
     1
102
RTVSPropertyOp23
 70
     1
102
RTVSPropertyOp24
 70
     1
102
RTVSPropertyOp25
 70
     1
102
RTVSPropertyOp26
 70
     1
102
RTVSPropertyOp27
 70
     1
102
RTVSPropertyOp28
 70
     1
102
RTVSPropertyOp29
 70
     1
102
RTVSPropertyOp30
 70
     1
102
RTVSPropertyOp31
 70
     1
102
RTVSPropertyOp32
 70
     1
102
RTVSPropertyOp33
 70
     1
102
RTVSPropertyOp34
 70
     1
102
RTVSPropertyOp35
 70
     1
102
RTVSPropertyOp36
 70
     1
102
RTVSPropertyOp37
 70
     1
102
RTVSPropertyOp38
 70
     1
102
RTVSPropertyOp39
 70
     1
102
RTVSPropertyOp40
 70
     1
102
RTVSPropertyOp41
 70
     1
102
RTVSPropertyOp42
 70
     1
102
RTVSPropertyOp43
 70
     1
102
RTVSPropertyOp44
 70
     1
102
RTVSPropertyOp45
 70
     1
102
RTVSPropertyOp46
 70
     1
102
RTVSPropertyOp47
 70
     1
102
RTVSPropertyOp48
 70
     1
102
RTVSPropertyOp49
 70
     1
102
RTVSPropertyOp50
 70
     1
102
RTVSPropertyOp51
 70
     0
102
RTVSPropertyOp52
 70
     0
102
RTVSPropertyOp53
 70
     1
102
RTVSPropertyOp54
 70
     1
102
RTVSPropertyOp55
 70
     1
102
RTVSPropertyOp56
 70
     1
102
RTVSPropertyOp57
 70
     1
102
RTVSPost2010Prop28
280
     0
102
RTVSPost2010PropOp28
 70
     1
102
RTVSPost2010Prop29
280
     1
102
RTVSPost2010PropOp29
 70
     1
102
RTVSPost2010Prop30
280
     1
102
RTVSPost2010PropOp30
 70
     1
102
RTVSPost2010Prop31
280
     0
102
RTVSPost2010PropOp31
 70
     1
102
RTVSPost2010Prop32
280
     0
102
RTVSPost2010PropOp32
 70
     1
102
RTVSPost2010Prop33
280
     0
102
RTVSPost2010PropOp33
 70
     1
102
RTVSPost2010Prop34
280
     0
102
RTVSPost2010PropOp34
 70
     1
102
RTVSPost2010Prop35
280
     0
102
RTVSPost2010PropOp35
 70
     1
102
RTVSPost2010Prop36
280
     0
102
RTVSPost2010PropOp36
 70
     1
102
RTVSPost2010Prop37
 90
       50
102
RTVSPost2010PropOp37
 70
     1
102
RTVSPost2010Prop38
140
0.0
102
RTVSPost2010PropOp38
 70
     1
102
RTVSPost2010Prop39
140
1.0
102
RTVSPost2010PropOp39
 70
     1
102
RTVSPost2010Prop40
 90
        0
102
RTVSPost2010PropOp40
 70
     1
102
RTVSPost2010Prop41ColorIndex
 90
       18
102
RTVSPost2010Prop41ColorRGB
 90
        0
102
RTVSPost2010PropOp41
 70
     1
102
RTVSPost2010Prop42
 90
       50
102
RTVSPost2010PropOp42
 70
     1
102
RTVSPost2010Prop43
 90
        3
102
RTVSPost2010PropOp43
 70
     1
102
RTVSPost2010Prop44ColorIndex
 90
        5
102
RTVSPost2010Prop44ColorRGB
 90
      255
102
RTVSPost2010PropOp44
 70
     1
102
RTVSPost2010Prop45
280
     0
102
RTVSPost2010PropOp45
 70
     1
102
RTVSPost2010Prop46
 90
       50
102
RTVSPost2010PropOp46
 70
     1
102
RTVSPost2010Prop47
 90
       50
102
RTVSPost2010PropOp47
 70
     1
102
RTVSPost2010Prop48
 90
       50
102
RTVSPost2010PropOp48
 70
     1
102
RTVSPost2010Prop49
280
     0
102
RTVSPost2010PropOp49
 70
     1
102
RTVSPost2010Prop50
 90
       50
102
RTVSPost2010PropOp50
 70
     1
102
RTVSPost2010Prop51ColorIndex
 90
      256
102
RTVSPost2010Prop51ColorRGB
 90
-16777216
102
RTVSPost2010PropOp51
 70
     0
102
RTVSPost2010Prop52
140
1.0
102
RTVSPost2010PropOp52
 70
     0
102
RTVSPost2010Prop53
 90
        2
102
RTVSPost2010PropOp53
 70
     1
102
RTVSPost2010Prop54
  1
strokes_ogs.tif
102
RTVSPost2010PropOp54
 70
     1
102
RTVSPost2010Prop55
280
     0
102
RTVSPost2010PropOp55
 70
     1
102
RTVSPost2010Prop56
140
1.0
102
RTVSPost2010PropOp56
 70
     1
102
RTVSPost2010Prop57
140
1.0
102
RTVSPost2010PropOp57
 70
     1
  0
XRECORD
  5
522
102
{ACAD_REACTORS
330
521
102
}
330
521
100
AcDbXrecord
280
     1
102
RTVSPropertyOp0
 70
     1
102
RTVSPropertyOp1
 70
     1
102
RTVSPropertyOp2
 70
     1
102
RTVSPropertyOp3
 70
     1
102
RTVSPropertyOp4
 70
     1
102
RTVSPropertyOp5
 70
     1
102
RTVSPropertyOp6
 70
     1
102
RTVSPropertyOp7
 70
     1
102
RTVSPropertyOp8
 70
     1
102
RTVSPropertyOp9
 70
     1
102
RTVSPropertyOp10
 70
     1
102
RTVSPropertyOp11
 70
     1
102
RTVSPropertyOp12
 70
     1
102
RTVSPropertyOp13
 70
     1
102
RTVSPropertyOp14
 70
     1
102
RTVSPropertyOp15
 70
     1
102
RTVSPropertyOp16
 70
     1
102
RTVSPropertyOp17
 70
     1
102
RTVSPropertyOp18
 70
     1
102
RTVSPropertyOp19
 70
     1
102
RTVSPropertyOp20
 70
     1
102
RTVSPropertyOp21
 70
     1
102
RTVSPropertyOp22
 70
     1
102
RTVSPropertyOp23
 70
     1
102
RTVSPropertyOp24
 70
     1
102
RTVSPropertyOp25
 70
     1
102
RTVSPropertyOp26
 70
     1
102
RTVSPropertyOp27
 70
     1
102
RTVSPropertyOp28
 70
     1
102
RTVSPropertyOp29
 70
     1
102
RTVSPropertyOp30
 70
     1
102
RTVSPropertyOp31
 70
     1
102
RTVSPropertyOp32
 70
     1
102
RTVSPropertyOp33
 70
     1
102
RTVSPropertyOp34
 70
     1
102
RTVSPropertyOp35
 70
     1
102
RTVSPropertyOp36
 70
     1
102
RTVSPropertyOp37
 70
     1
102
RTVSPropertyOp38
 70
     1
102
RTVSPropertyOp39
 70
     1
102
RTVSPropertyOp40
 70
     1
102
RTVSPropertyOp41
 70
     1
102
RTVSPropertyOp42
 70
     1
102
RTVSPropertyOp43
 70
     1
102
RTVSPropertyOp44
 70
     1
102
RTVSPropertyOp45
 70
     1
102
RTVSPropertyOp46
 70
     1
102
RTVSPropertyOp47
 70
     1
102
RTVSPropertyOp48
 70
     1
102
RTVSPropertyOp49
 70
     1
102
RTVSPropertyOp50
 70
     1
102
RTVSPropertyOp51
 70
     0
102
RTVSPropertyOp52
 70
     0
102
RTVSPropertyOp53
 70
     1
102
RTVSPropertyOp54
 70
     1
102
RTVSPropertyOp55
 70
     1
102
RTVSPropertyOp56
 70
     1
102
RTVSPropertyOp57
 70
     1
102
RTVSPost2010Prop28
280
     0
102
RTVSPost2010PropOp28
 70
     1
102
RTVSPost2010Prop29
280
     1
102
RTVSPost2010PropOp29
 70
     1
102
RTVSPost2010Prop30
280
     1
102
RTVSPost2010PropOp30
 70
     1
102
RTVSPost2010Prop31
280
     0
102
RTVSPost2010PropOp31
 70
     1
102
RTVSPost2010Prop32
280
     0
102
RTVSPost2010PropOp32
 70
     1
102
RTVSPost2010Prop33
280
     0
102
RTVSPost2010PropOp33
 70
     1
102
RTVSPost2010Prop34
280
     0
102
RTVSPost2010PropOp34
 70
     1
102
RTVSPost2010Prop35
280
     0
102
RTVSPost2010PropOp35
 70
     1
102
RTVSPost2010Prop36
280
     0
102
RTVSPost2010PropOp36
 70
     1
102
RTVSPost2010Prop37
 90
       50
102
RTVSPost2010PropOp37
 70
     1
102
RTVSPost2010Prop38
140
0.0
102
RTVSPost2010PropOp38
 70
     1
102
RTVSPost2010Prop39
140
1.0
102
RTVSPost2010PropOp39
 70
     1
102
RTVSPost2010Prop40
 90
        0
102
RTVSPost2010PropOp40
 70
     1
102
RTVSPost2010Prop41ColorIndex
 90
       18
102
RTVSPost2010Prop41ColorRGB
 90
        0
102
RTVSPost2010PropOp41
 70
     1
102
RTVSPost2010Prop42
 90
       50
102
RTVSPost2010PropOp42
 70
     1
102
RTVSPost2010Prop43
 90
        3
102
RTVSPost2010PropOp43
 70
     1
102
RTVSPost2010Prop44ColorIndex
 90
        5
102
RTVSPost2010Prop44ColorRGB
 90
      255
102
RTVSPost2010PropOp44
 70
     1
102
RTVSPost2010Prop45
280
     0
102
RTVSPost2010PropOp45
 70
     1
102
RTVSPost2010Prop46
 90
       50
102
RTVSPost2010PropOp46
 70
     1
102
RTVSPost2010Prop47
 90
       50
102
RTVSPost2010PropOp47
 70
     1
102
RTVSPost2010Prop48
 90
       50
102
RTVSPost2010PropOp48
 70
     1
102
RTVSPost2010Prop49
280
     0
102
RTVSPost2010PropOp49
 70
     1
102
RTVSPost2010Prop50
 90
       50
102
RTVSPost2010PropOp50
 70
     1
102
RTVSPost2010Prop51ColorIndex
 90
      256
102
RTVSPost2010Prop51ColorRGB
 90
-16777216
102
RTVSPost2010PropOp51
 70
     0
102
RTVSPost2010Prop52
140
1.0
102
RTVSPost2010PropOp52
 70
     0
102
RTVSPost2010Prop53
 90
        2
102
RTVSPost2010PropOp53
 70
     1
102
RTVSPost2010Prop54
  1
strokes_ogs.tif
102
RTVSPost2010PropOp54
 70
     1
102
RTVSPost2010Prop55
280
     0
102
RTVSPost2010PropOp55
 70
     1
102
RTVSPost2010Prop56
140
1.0
102
RTVSPost2010PropOp56
 70
     1
102
RTVSPost2010Prop57
140
1.0
102
RTVSPost2010PropOp57
 70
     1
  0
XRECORD
  5
524
102
{ACAD_REACTORS
330
523
102
}
330
523
100
AcDbXrecord
280
     1
102
RTVSPropertyOp0
 70
     1
102
RTVSPropertyOp1
 70
     1
102
RTVSPropertyOp2
 70
     1
102
RTVSPropertyOp3
 70
     1
102
RTVSPropertyOp4
 70
     1
102
RTVSPropertyOp5
 70
     1
102
RTVSPropertyOp6
 70
     1
102
RTVSPropertyOp7
 70
     1
102
RTVSPropertyOp8
 70
     1
102
RTVSPropertyOp9
 70
     1
102
RTVSPropertyOp10
 70
     1
102
RTVSPropertyOp11
 70
     1
102
RTVSPropertyOp12
 70
     1
102
RTVSPropertyOp13
 70
     1
102
RTVSPropertyOp14
 70
     1
102
RTVSPropertyOp15
 70
     1
102
RTVSPropertyOp16
 70
     1
102
RTVSPropertyOp17
 70
     1
102
RTVSPropertyOp18
 70
     1
102
RTVSPropertyOp19
 70
     1
102
RTVSPropertyOp20
 70
     1
102
RTVSPropertyOp21
 70
     1
102
RTVSPropertyOp22
 70
     1
102
RTVSPropertyOp23
 70
     1
102
RTVSPropertyOp24
 70
     1
102
RTVSPropertyOp25
 70
     1
102
RTVSPropertyOp26
 70
     1
102
RTVSPropertyOp27
 70
     1
102
RTVSPropertyOp28
 70
     1
102
RTVSPropertyOp29
 70
     1
102
RTVSPropertyOp30
 70
     1
102
RTVSPropertyOp31
 70
     1
102
RTVSPropertyOp32
 70
     1
102
RTVSPropertyOp33
 70
     1
102
RTVSPropertyOp34
 70
     1
102
RTVSPropertyOp35
 70
     1
102
RTVSPropertyOp36
 70
     1
102
RTVSPropertyOp37
 70
     1
102
RTVSPropertyOp38
 70
     1
102
RTVSPropertyOp39
 70
     1
102
RTVSPropertyOp40
 70
     1
102
RTVSPropertyOp41
 70
     1
102
RTVSPropertyOp42
 70
     1
102
RTVSPropertyOp43
 70
     1
102
RTVSPropertyOp44
 70
     1
102
RTVSPropertyOp45
 70
     1
102
RTVSPropertyOp46
 70
     1
102
RTVSPropertyOp47
 70
     1
102
RTVSPropertyOp48
 70
     1
102
RTVSPropertyOp49
 70
     1
102
RTVSPropertyOp50
 70
     1
102
RTVSPropertyOp51
 70
     0
102
RTVSPropertyOp52
 70
     0
102
RTVSPropertyOp53
 70
     1
102
RTVSPropertyOp54
 70
     1
102
RTVSPropertyOp55
 70
     1
102
RTVSPropertyOp56
 70
     1
102
RTVSPropertyOp57
 70
     1
102
RTVSPost2010Prop28
280
     0
102
RTVSPost2010PropOp28
 70
     1
102
RTVSPost2010Prop29
280
     1
102
RTVSPost2010PropOp29
 70
     1
102
RTVSPost2010Prop30
280
     1
102
RTVSPost2010PropOp30
 70
     1
102
RTVSPost2010Prop31
280
     0
102
RTVSPost2010PropOp31
 70
     1
102
RTVSPost2010Prop32
280
     0
102
RTVSPost2010PropOp32
 70
     1
102
RTVSPost2010Prop33
280
     0
102
RTVSPost2010PropOp33
 70
     1
102
RTVSPost2010Prop34
280
     0
102
RTVSPost2010PropOp34
 70
     1
102
RTVSPost2010Prop35
280
     0
102
RTVSPost2010PropOp35
 70
     1
102
RTVSPost2010Prop36
280
     0
102
RTVSPost2010PropOp36
 70
     1
102
RTVSPost2010Prop37
 90
       50
102
RTVSPost2010PropOp37
 70
     1
102
RTVSPost2010Prop38
140
0.0
102
RTVSPost2010PropOp38
 70
     1
102
RTVSPost2010Prop39
140
1.0
102
RTVSPost2010PropOp39
 70
     1
102
RTVSPost2010Prop40
 90
        0
102
RTVSPost2010PropOp40
 70
     1
102
RTVSPost2010Prop41ColorIndex
 90
       18
102
RTVSPost2010Prop41ColorRGB
 90
        0
102
RTVSPost2010PropOp41
 70
     1
102
RTVSPost2010Prop42
 90
       50
102
RTVSPost2010PropOp42
 70
     1
102
RTVSPost2010Prop43
 90
        3
102
RTVSPost2010PropOp43
 70
     1
102
RTVSPost2010Prop44ColorIndex
 90
        5
102
RTVSPost2010Prop44ColorRGB
 90
      255
102
RTVSPost2010PropOp44
 70
     1
102
RTVSPost2010Prop45
280
     0
102
RTVSPost2010PropOp45
 70
     1
102
RTVSPost2010Prop46
 90
       50
102
RTVSPost2010PropOp46
 70
     1
102
RTVSPost2010Prop47
 90
       50
102
RTVSPost2010PropOp47
 70
     1
102
RTVSPost2010Prop48
 90
       50
102
RTVSPost2010PropOp48
 70
     1
102
RTVSPost2010Prop49
280
     0
102
RTVSPost2010PropOp49
 70
     1
102
RTVSPost2010Prop50
 90
       50
102
RTVSPost2010PropOp50
 70
     1
102
RTVSPost2010Prop51ColorIndex
 90
      256
102
RTVSPost2010Prop51ColorRGB
 90
-16777216
102
RTVSPost2010PropOp51
 70
     0
102
RTVSPost2010Prop52
140
1.0
102
RTVSPost2010PropOp52
 70
     0
102
RTVSPost2010Prop53
 90
        2
102
RTVSPost2010PropOp53
 70
     1
102
RTVSPost2010Prop54
  1
strokes_ogs.tif
102
RTVSPost2010PropOp54
 70
     1
102
RTVSPost2010Prop55
280
     0
102
RTVSPost2010PropOp55
 70
     1
102
RTVSPost2010Prop56
140
1.0
102
RTVSPost2010PropOp56
 70
     1
102
RTVSPost2010Prop57
140
1.0
102
RTVSPost2010PropOp57
 70
     1
  0
XRECORD
  5
526
102
{ACAD_REACTORS
330
525
102
}
330
525
100
AcDbXrecord
280
     1
102
RTVSPropertyOp0
 70
     1
102
RTVSPropertyOp1
 70
     1
102
RTVSPropertyOp2
 70
     1
102
RTVSPropertyOp3
 70
     1
102
RTVSPropertyOp4
 70
     1
102
RTVSPropertyOp5
 70
     1
102
RTVSPropertyOp6
 70
     1
102
RTVSPropertyOp7
 70
     1
102
RTVSPropertyOp8
 70
     1
102
RTVSPropertyOp9
 70
     1
102
RTVSPropertyOp10
 70
     1
102
RTVSPropertyOp11
 70
     1
102
RTVSPropertyOp12
 70
     1
102
RTVSPropertyOp13
 70
     1
102
RTVSPropertyOp14
 70
     1
102
RTVSPropertyOp15
 70
     1
102
RTVSPropertyOp16
 70
     1
102
RTVSPropertyOp17
 70
     1
102
RTVSPropertyOp18
 70
     1
102
RTVSPropertyOp19
 70
     1
102
RTVSPropertyOp20
 70
     1
102
RTVSPropertyOp21
 70
     1
102
RTVSPropertyOp22
 70
     1
102
RTVSPropertyOp23
 70
     1
102
RTVSPropertyOp24
 70
     1
102
RTVSPropertyOp25
 70
     1
102
RTVSPropertyOp26
 70
     1
102
RTVSPropertyOp27
 70
     1
102
RTVSPropertyOp28
 70
     1
102
RTVSPropertyOp29
 70
     1
102
RTVSPropertyOp30
 70
     1
102
RTVSPropertyOp31
 70
     1
102
RTVSPropertyOp32
 70
     1
102
RTVSPropertyOp33
 70
     1
102
RTVSPropertyOp34
 70
     1
102
RTVSPropertyOp35
 70
     1
102
RTVSPropertyOp36
 70
     1
102
RTVSPropertyOp37
 70
     1
102
RTVSPropertyOp38
 70
     1
102
RTVSPropertyOp39
 70
     1
102
RTVSPropertyOp40
 70
     1
102
RTVSPropertyOp41
 70
     1
102
RTVSPropertyOp42
 70
     1
102
RTVSPropertyOp43
 70
     1
102
RTVSPropertyOp44
 70
     1
102
RTVSPropertyOp45
 70
     1
102
RTVSPropertyOp46
 70
     1
102
RTVSPropertyOp47
 70
     1
102
RTVSPropertyOp48
 70
     1
102
RTVSPropertyOp49
 70
     1
102
RTVSPropertyOp50
 70
     1
102
RTVSPropertyOp51
 70
     0
102
RTVSPropertyOp52
 70
     0
102
RTVSPropertyOp53
 70
     1
102
RTVSPropertyOp54
 70
     1
102
RTVSPropertyOp55
 70
     1
102
RTVSPropertyOp56
 70
     1
102
RTVSPropertyOp57
 70
     1
102
RTVSPost2010Prop28
280
     0
102
RTVSPost2010PropOp28
 70
     1
102
RTVSPost2010Prop29
280
     1
102
RTVSPost2010PropOp29
 70
     1
102
RTVSPost2010Prop30
280
     1
102
RTVSPost2010PropOp30
 70
     1
102
RTVSPost2010Prop31
280
     0
102
RTVSPost2010PropOp31
 70
     1
102
RTVSPost2010Prop32
280
     0
102
RTVSPost2010PropOp32
 70
     1
102
RTVSPost2010Prop33
280
     0
102
RTVSPost2010PropOp33
 70
     1
102
RTVSPost2010Prop34
280
     0
102
RTVSPost2010PropOp34
 70
     1
102
RTVSPost2010Prop35
280
     0
102
RTVSPost2010PropOp35
 70
     1
102
RTVSPost2010Prop36
280
     0
102
RTVSPost2010PropOp36
 70
     1
102
RTVSPost2010Prop37
 90
       50
102
RTVSPost2010PropOp37
 70
     1
102
RTVSPost2010Prop38
140
0.0
102
RTVSPost2010PropOp38
 70
     1
102
RTVSPost2010Prop39
140
1.0
102
RTVSPost2010PropOp39
 70
     1
102
RTVSPost2010Prop40
 90
        0
102
RTVSPost2010PropOp40
 70
     1
102
RTVSPost2010Prop41ColorIndex
 90
       18
102
RTVSPost2010Prop41ColorRGB
 90
        0
102
RTVSPost2010PropOp41
 70
     1
102
RTVSPost2010Prop42
 90
       50
102
RTVSPost2010PropOp42
 70
     1
102
RTVSPost2010Prop43
 90
        3
102
RTVSPost2010PropOp43
 70
     1
102
RTVSPost2010Prop44ColorIndex
 90
        5
102
RTVSPost2010Prop44ColorRGB
 90
      255
102
RTVSPost2010PropOp44
 70
     1
102
RTVSPost2010Prop45
280
     0
102
RTVSPost2010PropOp45
 70
     1
102
RTVSPost2010Prop46
 90
       50
102
RTVSPost2010PropOp46
 70
     1
102
RTVSPost2010Prop47
 90
       50
102
RTVSPost2010PropOp47
 70
     1
102
RTVSPost2010Prop48
 90
       50
102
RTVSPost2010PropOp48
 70
     1
102
RTVSPost2010Prop49
280
     0
102
RTVSPost2010PropOp49
 70
     1
102
RTVSPost2010Prop50
 90
       50
102
RTVSPost2010PropOp50
 70
     1
102
RTVSPost2010Prop51ColorIndex
 90
      256
102
RTVSPost2010Prop51ColorRGB
 90
-16777216
102
RTVSPost2010PropOp51
 70
     0
102
RTVSPost2010Prop52
140
1.0
102
RTVSPost2010PropOp52
 70
     0
102
RTVSPost2010Prop53
 90
        2
102
RTVSPost2010PropOp53
 70
     1
102
RTVSPost2010Prop54
  1
strokes_ogs.tif
102
RTVSPost2010PropOp54
 70
     1
102
RTVSPost2010Prop55
280
     0
102
RTVSPost2010PropOp55
 70
     1
102
RTVSPost2010Prop56
140
1.0
102
RTVSPost2010PropOp56
 70
     1
102
RTVSPost2010Prop57
140
1.0
102
RTVSPost2010PropOp57
 70
     1
  0
XRECORD
  5
52C
102
{ACAD_REACTORS
330
52B
102
}
330
52B
100
AcDbXrecord
280
     1
102
RTVSPropertyOp0
 70
     1
102
RTVSPropertyOp1
 70
     1
102
RTVSPropertyOp2
 70
     1
102
RTVSPropertyOp3
 70
     1
102
RTVSPropertyOp4
 70
     1
102
RTVSPropertyOp5
 70
     1
102
RTVSPropertyOp6
 70
     1
102
RTVSPropertyOp7
 70
     1
102
RTVSPropertyOp8
 70
     1
102
RTVSPropertyOp9
 70
     1
102
RTVSPropertyOp10
 70
     1
102
RTVSPropertyOp11
 70
     1
102
RTVSPropertyOp12
 70
     1
102
RTVSPropertyOp13
 70
     1
102
RTVSPropertyOp14
 70
     1
102
RTVSPropertyOp15
 70
     1
102
RTVSPropertyOp16
 70
     1
102
RTVSPropertyOp17
 70
     1
102
RTVSPropertyOp18
 70
     1
102
RTVSPropertyOp19
 70
     1
102
RTVSPropertyOp20
 70
     1
102
RTVSPropertyOp21
 70
     1
102
RTVSPropertyOp22
 70
     1
102
RTVSPropertyOp23
 70
     1
102
RTVSPropertyOp24
 70
     1
102
RTVSPropertyOp25
 70
     1
102
RTVSPropertyOp26
 70
     1
102
RTVSPropertyOp27
 70
     1
102
RTVSPropertyOp28
 70
     1
102
RTVSPropertyOp29
 70
     1
102
RTVSPropertyOp30
 70
     1
102
RTVSPropertyOp31
 70
     1
102
RTVSPropertyOp32
 70
     1
102
RTVSPropertyOp33
 70
     1
102
RTVSPropertyOp34
 70
     1
102
RTVSPropertyOp35
 70
     1
102
RTVSPropertyOp36
 70
     1
102
RTVSPropertyOp37
 70
     1
102
RTVSPropertyOp38
 70
     1
102
RTVSPropertyOp39
 70
     1
102
RTVSPropertyOp40
 70
     1
102
RTVSPropertyOp41
 70
     1
102
RTVSPropertyOp42
 70
     1
102
RTVSPropertyOp43
 70
     1
102
RTVSPropertyOp44
 70
     1
102
RTVSPropertyOp45
 70
     1
102
RTVSPropertyOp46
 70
     1
102
RTVSPropertyOp47
 70
     1
102
RTVSPropertyOp48
 70
     1
102
RTVSPropertyOp49
 70
     1
102
RTVSPropertyOp50
 70
     1
102
RTVSPropertyOp51
 70
     0
102
RTVSPropertyOp52
 70
     0
102
RTVSPropertyOp53
 70
     1
102
RTVSPropertyOp54
 70
     1
102
RTVSPropertyOp55
 70
     1
102
RTVSPropertyOp56
 70
     1
102
RTVSPropertyOp57
 70
     1
102
RTVSPost2010Prop28
280
     0
102
RTVSPost2010PropOp28
 70
     1
102
RTVSPost2010Prop29
280
     1
102
RTVSPost2010PropOp29
 70
     1
102
RTVSPost2010Prop30
280
     1
102
RTVSPost2010PropOp30
 70
     1
102
RTVSPost2010Prop31
280
     0
102
RTVSPost2010PropOp31
 70
     1
102
RTVSPost2010Prop32
280
     0
102
RTVSPost2010PropOp32
 70
     1
102
RTVSPost2010Prop33
280
     0
102
RTVSPost2010PropOp33
 70
     1
102
RTVSPost2010Prop34
280
     0
102
RTVSPost2010PropOp34
 70
     1
102
RTVSPost2010Prop35
280
     0
102
RTVSPost2010PropOp35
 70
     1
102
RTVSPost2010Prop36
280
     0
102
RTVSPost2010PropOp36
 70
     1
102
RTVSPost2010Prop37
 90
       50
102
RTVSPost2010PropOp37
 70
     1
102
RTVSPost2010Prop38
140
0.0
102
RTVSPost2010PropOp38
 70
     1
102
RTVSPost2010Prop39
140
1.0
102
RTVSPost2010PropOp39
 70
     1
102
RTVSPost2010Prop40
 90
        0
102
RTVSPost2010PropOp40
 70
     1
102
RTVSPost2010Prop41ColorIndex
 90
       18
102
RTVSPost2010Prop41ColorRGB
 90
        0
102
RTVSPost2010PropOp41
 70
     1
102
RTVSPost2010Prop42
 90
       50
102
RTVSPost2010PropOp42
 70
     1
102
RTVSPost2010Prop43
 90
        3
102
RTVSPost2010PropOp43
 70
     1
102
RTVSPost2010Prop44ColorIndex
 90
        5
102
RTVSPost2010Prop44ColorRGB
 90
      255
102
RTVSPost2010PropOp44
 70
     1
102
RTVSPost2010Prop45
280
     0
102
RTVSPost2010PropOp45
 70
     1
102
RTVSPost2010Prop46
 90
       50
102
RTVSPost2010PropOp46
 70
     1
102
RTVSPost2010Prop47
 90
       50
102
RTVSPost2010PropOp47
 70
     1
102
RTVSPost2010Prop48
 90
       50
102
RTVSPost2010PropOp48
 70
     1
102
RTVSPost2010Prop49
280
     0
102
RTVSPost2010PropOp49
 70
     1
102
RTVSPost2010Prop50
 90
       50
102
RTVSPost2010PropOp50
 70
     1
102
RTVSPost2010Prop51ColorIndex
 90
      256
102
RTVSPost2010Prop51ColorRGB
 90
-16777216
102
RTVSPost2010PropOp51
 70
     0
102
RTVSPost2010Prop52
140
1.0
102
RTVSPost2010PropOp52
 70
     0
102
RTVSPost2010Prop53
 90
        2
102
RTVSPost2010PropOp53
 70
     1
102
RTVSPost2010Prop54
  1
strokes_ogs.tif
102
RTVSPost2010PropOp54
 70
     1
102
RTVSPost2010Prop55
280
     0
102
RTVSPost2010PropOp55
 70
     1
102
RTVSPost2010Prop56
140
1.0
102
RTVSPost2010PropOp56
 70
     1
102
RTVSPost2010Prop57
140
1.0
102
RTVSPost2010PropOp57
 70
     1
  0
XRECORD
  5
540
102
{ACAD_REACTORS
330
53F
102
}
330
53F
100
AcDbXrecord
280
     1
102
RTVSPropertyOp0
 70
     0
102
RTVSPropertyOp1
 70
     0
102
RTVSPropertyOp2
 70
     0
102
RTVSPropertyOp3
 70
     0
102
RTVSPropertyOp4
 70
     0
102
RTVSPropertyOp5
 70
     0
102
RTVSPropertyOp6
 70
     0
102
RTVSPropertyOp7
 70
     0
102
RTVSPropertyOp8
 70
     0
102
RTVSPropertyOp9
 70
     0
102
RTVSPropertyOp10
 70
     0
102
RTVSPropertyOp11
 70
     0
102
RTVSPropertyOp12
 70
     0
102
RTVSPropertyOp13
 70
     0
102
RTVSPropertyOp14
 70
     0
102
RTVSPropertyOp15
 70
     0
102
RTVSPropertyOp16
 70
     0
102
RTVSPropertyOp17
 70
     0
102
RTVSPropertyOp18
 70
     0
102
RTVSPropertyOp19
 70
     0
102
RTVSPropertyOp20
 70
     0
102
RTVSPropertyOp21
 70
     0
102
RTVSPropertyOp22
 70
     0
102
RTVSPropertyOp23
 70
     0
102
RTVSPropertyOp24
 70
     0
102
RTVSPropertyOp25
 70
     0
102
RTVSPropertyOp26
 70
     0
102
RTVSPropertyOp27
 70
     0
102
RTVSPropertyOp28
 70
     1
102
RTVSPropertyOp29
 70
     1
102
RTVSPropertyOp30
 70
     1
102
RTVSPropertyOp31
 70
     1
102
RTVSPropertyOp32
 70
     1
102
RTVSPropertyOp33
 70
     1
102
RTVSPropertyOp34
 70
     1
102
RTVSPropertyOp35
 70
     1
102
RTVSPropertyOp36
 70
     1
102
RTVSPropertyOp37
 70
     1
102
RTVSPropertyOp38
 70
     1
102
RTVSPropertyOp39
 70
     1
102
RTVSPropertyOp40
 70
     1
102
RTVSPropertyOp41
 70
     1
102
RTVSPropertyOp42
 70
     1
102
RTVSPropertyOp43
 70
     1
102
RTVSPropertyOp44
 70
     1
102
RTVSPropertyOp45
 70
     1
102
RTVSPropertyOp46
 70
     1
102
RTVSPropertyOp47
 70
     1
102
RTVSPropertyOp48
 70
     1
102
RTVSPropertyOp49
 70
     1
102
RTVSPropertyOp50
 70
     1
102
RTVSPropertyOp51
 70
     0
102
RTVSPropertyOp52
 70
     0
102
RTVSPropertyOp53
 70
     1
102
RTVSPropertyOp54
 70
     1
102
RTVSPropertyOp55
 70
     1
102
RTVSPropertyOp56
 70
     1
102
RTVSPropertyOp57
 70
     1
102
RTVSPost2010Prop28
280
     0
102
RTVSPost2010PropOp28
 70
     1
102
RTVSPost2010Prop29
280
     1
102
RTVSPost2010PropOp29
 70
     1
102
RTVSPost2010Prop30
280
     1
102
RTVSPost2010PropOp30
 70
     1
102
RTVSPost2010Prop31
280
     0
102
RTVSPost2010PropOp31
 70
     1
102
RTVSPost2010Prop32
280
     0
102
RTVSPost2010PropOp32
 70
     1
102
RTVSPost2010Prop33
280
     0
102
RTVSPost2010PropOp33
 70
     1
102
RTVSPost2010Prop34
280
     0
102
RTVSPost2010PropOp34
 70
     1
102
RTVSPost2010Prop35
280
     0
102
RTVSPost2010PropOp35
 70
     1
102
RTVSPost2010Prop36
280
     0
102
RTVSPost2010PropOp36
 70
     1
102
RTVSPost2010Prop37
 90
       50
102
RTVSPost2010PropOp37
 70
     1
102
RTVSPost2010Prop38
140
0.0
102
RTVSPost2010PropOp38
 70
     1
102
RTVSPost2010Prop39
140
1.0
102
RTVSPost2010PropOp39
 70
     1
102
RTVSPost2010Prop40
 90
        0
102
RTVSPost2010PropOp40
 70
     1
102
RTVSPost2010Prop41ColorIndex
 90
       18
102
RTVSPost2010Prop41ColorRGB
 90
        0
102
RTVSPost2010PropOp41
 70
     1
102
RTVSPost2010Prop42
 90
       50
102
RTVSPost2010PropOp42
 70
     1
102
RTVSPost2010Prop43
 90
        3
102
RTVSPost2010PropOp43
 70
     1
102
RTVSPost2010Prop44ColorIndex
 90
        5
102
RTVSPost2010Prop44ColorRGB
 90
      255
102
RTVSPost2010PropOp44
 70
     1
102
RTVSPost2010Prop45
280
     0
102
RTVSPost2010PropOp45
 70
     1
102
RTVSPost2010Prop46
 90
       50
102
RTVSPost2010PropOp46
 70
     1
102
RTVSPost2010Prop47
 90
       50
102
RTVSPost2010PropOp47
 70
     1
102
RTVSPost2010Prop48
 90
       50
102
RTVSPost2010PropOp48
 70
     1
102
RTVSPost2010Prop49
280
     0
102
RTVSPost2010PropOp49
 70
     1
102
RTVSPost2010Prop50
 90
       50
102
RTVSPost2010PropOp50
 70
     1
102
RTVSPost2010Prop51ColorIndex
 90
      256
102
RTVSPost2010Prop51ColorRGB
 90
-16777216
102
RTVSPost2010PropOp51
 70
     0
102
RTVSPost2010Prop52
140
1.0
102
RTVSPost2010PropOp52
 70
     0
102
RTVSPost2010Prop53
 90
        2
102
RTVSPost2010PropOp53
 70
     1
102
RTVSPost2010Prop54
  1
strokes_ogs.tif
102
RTVSPost2010PropOp54
 70
     1
102
RTVSPost2010Prop55
280
     0
102
RTVSPost2010PropOp55
 70
     1
102
RTVSPost2010Prop56
140
1.0
102
RTVSPost2010PropOp56
 70
     1
102
RTVSPost2010Prop57
140
1.0
102
RTVSPost2010PropOp57
 70
     1
  0
XRECORD
  5
53A
102
{ACAD_REACTORS
330
539
102
}
330
539
100
AcDbXrecord
280
     1
102
RTVSPropertyOp0
 70
     1
102
RTVSPropertyOp1
 70
     1
102
RTVSPropertyOp2
 70
     1
102
RTVSPropertyOp3
 70
     1
102
RTVSPropertyOp4
 70
     1
102
RTVSPropertyOp5
 70
     1
102
RTVSPropertyOp6
 70
     1
102
RTVSPropertyOp7
 70
     1
102
RTVSPropertyOp8
 70
     1
102
RTVSPropertyOp9
 70
     1
102
RTVSPropertyOp10
 70
     1
102
RTVSPropertyOp11
 70
     1
102
RTVSPropertyOp12
 70
     1
102
RTVSPropertyOp13
 70
     1
102
RTVSPropertyOp14
 70
     1
102
RTVSPropertyOp15
 70
     1
102
RTVSPropertyOp16
 70
     1
102
RTVSPropertyOp17
 70
     1
102
RTVSPropertyOp18
 70
     1
102
RTVSPropertyOp19
 70
     1
102
RTVSPropertyOp20
 70
     1
102
RTVSPropertyOp21
 70
     1
102
RTVSPropertyOp22
 70
     1
102
RTVSPropertyOp23
 70
     1
102
RTVSPropertyOp24
 70
     1
102
RTVSPropertyOp25
 70
     1
102
RTVSPropertyOp26
 70
     1
102
RTVSPropertyOp27
 70
     1
102
RTVSPropertyOp28
 70
     1
102
RTVSPropertyOp29
 70
     1
102
RTVSPropertyOp30
 70
     1
102
RTVSPropertyOp31
 70
     1
102
RTVSPropertyOp32
 70
     1
102
RTVSPropertyOp33
 70
     1
102
RTVSPropertyOp34
 70
     1
102
RTVSPropertyOp35
 70
     1
102
RTVSPropertyOp36
 70
     1
102
RTVSPropertyOp37
 70
     1
102
RTVSPropertyOp38
 70
     1
102
RTVSPropertyOp39
 70
     1
102
RTVSPropertyOp40
 70
     1
102
RTVSPropertyOp41
 70
     1
102
RTVSPropertyOp42
 70
     1
102
RTVSPropertyOp43
 70
     1
102
RTVSPropertyOp44
 70
     1
102
RTVSPropertyOp45
 70
     1
102
RTVSPropertyOp46
 70
     1
102
RTVSPropertyOp47
 70
     1
102
RTVSPropertyOp48
 70
     1
102
RTVSPropertyOp49
 70
     1
102
RTVSPropertyOp50
 70
     1
102
RTVSPropertyOp51
 70
     0
102
RTVSPropertyOp52
 70
     0
102
RTVSPropertyOp53
 70
     1
102
RTVSPropertyOp54
 70
     1
102
RTVSPropertyOp55
 70
     1
102
RTVSPropertyOp56
 70
     1
102
RTVSPropertyOp57
 70
     1
102
RTVSPost2010Prop28
280
     0
102
RTVSPost2010PropOp28
 70
     1
102
RTVSPost2010Prop29
280
     1
102
RTVSPost2010PropOp29
 70
     1
102
RTVSPost2010Prop30
280
     1
102
RTVSPost2010PropOp30
 70
     1
102
RTVSPost2010Prop31
280
     0
102
RTVSPost2010PropOp31
 70
     1
102
RTVSPost2010Prop32
280
     0
102
RTVSPost2010PropOp32
 70
     1
102
RTVSPost2010Prop33
280
     0
102
RTVSPost2010PropOp33
 70
     1
102
RTVSPost2010Prop34
280
     0
102
RTVSPost2010PropOp34
 70
     1
102
RTVSPost2010Prop35
280
     0
102
RTVSPost2010PropOp35
 70
     1
102
RTVSPost2010Prop36
280
     0
102
RTVSPost2010PropOp36
 70
     1
102
RTVSPost2010Prop37
 90
       50
102
RTVSPost2010PropOp37
 70
     1
102
RTVSPost2010Prop38
140
0.0
102
RTVSPost2010PropOp38
 70
     1
102
RTVSPost2010Prop39
140
1.0
102
RTVSPost2010PropOp39
 70
     1
102
RTVSPost2010Prop40
 90
        0
102
RTVSPost2010PropOp40
 70
     1
102
RTVSPost2010Prop41ColorIndex
 90
       18
102
RTVSPost2010Prop41ColorRGB
 90
        0
102
RTVSPost2010PropOp41
 70
     1
102
RTVSPost2010Prop42
 90
       50
102
RTVSPost2010PropOp42
 70
     1
102
RTVSPost2010Prop43
 90
        3
102
RTVSPost2010PropOp43
 70
     1
102
RTVSPost2010Prop44ColorIndex
 90
        5
102
RTVSPost2010Prop44ColorRGB
 90
      255
102
RTVSPost2010PropOp44
 70
     1
102
RTVSPost2010Prop45
280
     0
102
RTVSPost2010PropOp45
 70
     1
102
RTVSPost2010Prop46
 90
       50
102
RTVSPost2010PropOp46
 70
     1
102
RTVSPost2010Prop47
 90
       50
102
RTVSPost2010PropOp47
 70
     1
102
RTVSPost2010Prop48
 90
       50
102
RTVSPost2010PropOp48
 70
     1
102
RTVSPost2010Prop49
280
     0
102
RTVSPost2010PropOp49
 70
     1
102
RTVSPost2010Prop50
 90
       50
102
RTVSPost2010PropOp50
 70
     1
102
RTVSPost2010Prop51ColorIndex
 90
      256
102
RTVSPost2010Prop51ColorRGB
 90
-16777216
102
RTVSPost2010PropOp51
 70
     0
102
RTVSPost2010Prop52
140
1.0
102
RTVSPost2010PropOp52
 70
     0
102
RTVSPost2010Prop53
 90
        2
102
RTVSPost2010PropOp53
 70
     1
102
RTVSPost2010Prop54
  1
strokes_ogs.tif
102
RTVSPost2010PropOp54
 70
     1
102
RTVSPost2010Prop55
280
     0
102
RTVSPost2010PropOp55
 70
     1
102
RTVSPost2010Prop56
140
1.0
102
RTVSPost2010PropOp56
 70
     1
102
RTVSPost2010Prop57
140
1.0
102
RTVSPost2010PropOp57
 70
     1
  0
XRECORD
  5
542
102
{ACAD_REACTORS
330
541
102
}
330
541
100
AcDbXrecord
280
     1
102
RTVSPropertyOp0
 70
     0
102
RTVSPropertyOp1
 70
     0
102
RTVSPropertyOp2
 70
     0
102
RTVSPropertyOp3
 70
     0
102
RTVSPropertyOp4
 70
     0
102
RTVSPropertyOp5
 70
     0
102
RTVSPropertyOp6
 70
     0
102
RTVSPropertyOp7
 70
     0
102
RTVSPropertyOp8
 70
     0
102
RTVSPropertyOp9
 70
     0
102
RTVSPropertyOp10
 70
     0
102
RTVSPropertyOp11
 70
     0
102
RTVSPropertyOp12
 70
     0
102
RTVSPropertyOp13
 70
     0
102
RTVSPropertyOp14
 70
     0
102
RTVSPropertyOp15
 70
     0
102
RTVSPropertyOp16
 70
     0
102
RTVSPropertyOp17
 70
     0
102
RTVSPropertyOp18
 70
     0
102
RTVSPropertyOp19
 70
     0
102
RTVSPropertyOp20
 70
     0
102
RTVSPropertyOp21
 70
     0
102
RTVSPropertyOp22
 70
     0
102
RTVSPropertyOp23
 70
     0
102
RTVSPropertyOp24
 70
     0
102
RTVSPropertyOp25
 70
     0
102
RTVSPropertyOp26
 70
     0
102
RTVSPropertyOp27
 70
     0
102
RTVSPropertyOp28
 70
     1
102
RTVSPropertyOp29
 70
     1
102
RTVSPropertyOp30
 70
     1
102
RTVSPropertyOp31
 70
     1
102
RTVSPropertyOp32
 70
     1
102
RTVSPropertyOp33
 70
     1
102
RTVSPropertyOp34
 70
     1
102
RTVSPropertyOp35
 70
     1
102
RTVSPropertyOp36
 70
     1
102
RTVSPropertyOp37
 70
     1
102
RTVSPropertyOp38
 70
     1
102
RTVSPropertyOp39
 70
     1
102
RTVSPropertyOp40
 70
     1
102
RTVSPropertyOp41
 70
     1
102
RTVSPropertyOp42
 70
     1
102
RTVSPropertyOp43
 70
     1
102
RTVSPropertyOp44
 70
     1
102
RTVSPropertyOp45
 70
     1
102
RTVSPropertyOp46
 70
     1
102
RTVSPropertyOp47
 70
     1
102
RTVSPropertyOp48
 70
     1
102
RTVSPropertyOp49
 70
     1
102
RTVSPropertyOp50
 70
     1
102
RTVSPropertyOp51
 70
     0
102
RTVSPropertyOp52
 70
     0
102
RTVSPropertyOp53
 70
     1
102
RTVSPropertyOp54
 70
     1
102
RTVSPropertyOp55
 70
     1
102
RTVSPropertyOp56
 70
     1
102
RTVSPropertyOp57
 70
     1
102
RTVSPost2010Prop28
280
     0
102
RTVSPost2010PropOp28
 70
     1
102
RTVSPost2010Prop29
280
     1
102
RTVSPost2010PropOp29
 70
     1
102
RTVSPost2010Prop30
280
     1
102
RTVSPost2010PropOp30
 70
     1
102
RTVSPost2010Prop31
280
     0
102
RTVSPost2010PropOp31
 70
     1
102
RTVSPost2010Prop32
280
     0
102
RTVSPost2010PropOp32
 70
     1
102
RTVSPost2010Prop33
280
     0
102
RTVSPost2010PropOp33
 70
     1
102
RTVSPost2010Prop34
280
     0
102
RTVSPost2010PropOp34
 70
     1
102
RTVSPost2010Prop35
280
     0
102
RTVSPost2010PropOp35
 70
     1
102
RTVSPost2010Prop36
280
     0
102
RTVSPost2010PropOp36
 70
     1
102
RTVSPost2010Prop37
 90
       50
102
RTVSPost2010PropOp37
 70
     1
102
RTVSPost2010Prop38
140
0.0
102
RTVSPost2010PropOp38
 70
     1
102
RTVSPost2010Prop39
140
1.0
102
RTVSPost2010PropOp39
 70
     1
102
RTVSPost2010Prop40
 90
        0
102
RTVSPost2010PropOp40
 70
     1
102
RTVSPost2010Prop41ColorIndex
 90
       18
102
RTVSPost2010Prop41ColorRGB
 90
        0
102
RTVSPost2010PropOp41
 70
     1
102
RTVSPost2010Prop42
 90
       50
102
RTVSPost2010PropOp42
 70
     1
102
RTVSPost2010Prop43
 90
        3
102
RTVSPost2010PropOp43
 70
     1
102
RTVSPost2010Prop44ColorIndex
 90
        5
102
RTVSPost2010Prop44ColorRGB
 90
      255
102
RTVSPost2010PropOp44
 70
     1
102
RTVSPost2010Prop45
280
     0
102
RTVSPost2010PropOp45
 70
     1
102
RTVSPost2010Prop46
 90
       50
102
RTVSPost2010PropOp46
 70
     1
102
RTVSPost2010Prop47
 90
       50
102
RTVSPost2010PropOp47
 70
     1
102
RTVSPost2010Prop48
 90
       50
102
RTVSPost2010PropOp48
 70
     1
102
RTVSPost2010Prop49
280
     0
102
RTVSPost2010PropOp49
 70
     1
102
RTVSPost2010Prop50
 90
       50
102
RTVSPost2010PropOp50
 70
     1
102
RTVSPost2010Prop51ColorIndex
 90
      256
102
RTVSPost2010Prop51ColorRGB
 90
-16777216
102
RTVSPost2010PropOp51
 70
     0
102
RTVSPost2010Prop52
140
1.0
102
RTVSPost2010PropOp52
 70
     0
102
RTVSPost2010Prop53
 90
        2
102
RTVSPost2010PropOp53
 70
     1
102
RTVSPost2010Prop54
  1
strokes_ogs.tif
102
RTVSPost2010PropOp54
 70
     1
102
RTVSPost2010Prop55
280
     0
102
RTVSPost2010PropOp55
 70
     1
102
RTVSPost2010Prop56
140
1.0
102
RTVSPost2010PropOp56
 70
     1
102
RTVSPost2010Prop57
140
1.0
102
RTVSPost2010PropOp57
 70
     1
  0
XRECORD
  5
530
102
{ACAD_REACTORS
330
52F
102
}
330
52F
100
AcDbXrecord
280
     1
102
RTVSPropertyOp0
 70
     1
102
RTVSPropertyOp1
 70
     1
102
RTVSPropertyOp2
 70
     1
102
RTVSPropertyOp3
 70
     1
102
RTVSPropertyOp4
 70
     1
102
RTVSPropertyOp5
 70
     1
102
RTVSPropertyOp6
 70
     1
102
RTVSPropertyOp7
 70
     1
102
RTVSPropertyOp8
 70
     1
102
RTVSPropertyOp9
 70
     1
102
RTVSPropertyOp10
 70
     1
102
RTVSPropertyOp11
 70
     1
102
RTVSPropertyOp12
 70
     1
102
RTVSPropertyOp13
 70
     1
102
RTVSPropertyOp14
 70
     1
102
RTVSPropertyOp15
 70
     1
102
RTVSPropertyOp16
 70
     1
102
RTVSPropertyOp17
 70
     1
102
RTVSPropertyOp18
 70
     1
102
RTVSPropertyOp19
 70
     1
102
RTVSPropertyOp20
 70
     1
102
RTVSPropertyOp21
 70
     1
102
RTVSPropertyOp22
 70
     1
102
RTVSPropertyOp23
 70
     1
102
RTVSPropertyOp24
 70
     1
102
RTVSPropertyOp25
 70
     1
102
RTVSPropertyOp26
 70
     1
102
RTVSPropertyOp27
 70
     1
102
RTVSPropertyOp28
 70
     1
102
RTVSPropertyOp29
 70
     1
102
RTVSPropertyOp30
 70
     1
102
RTVSPropertyOp31
 70
     1
102
RTVSPropertyOp32
 70
     1
102
RTVSPropertyOp33
 70
     1
102
RTVSPropertyOp34
 70
     1
102
RTVSPropertyOp35
 70
     1
102
RTVSPropertyOp36
 70
     1
102
RTVSPropertyOp37
 70
     1
102
RTVSPropertyOp38
 70
     1
102
RTVSPropertyOp39
 70
     1
102
RTVSPropertyOp40
 70
     1
102
RTVSPropertyOp41
 70
     1
102
RTVSPropertyOp42
 70
     1
102
RTVSPropertyOp43
 70
     1
102
RTVSPropertyOp44
 70
     1
102
RTVSPropertyOp45
 70
     1
102
RTVSPropertyOp46
 70
     1
102
RTVSPropertyOp47
 70
     1
102
RTVSPropertyOp48
 70
     1
102
RTVSPropertyOp49
 70
     1
102
RTVSPropertyOp50
 70
     1
102
RTVSPropertyOp51
 70
     0
102
RTVSPropertyOp52
 70
     0
102
RTVSPropertyOp53
 70
     1
102
RTVSPropertyOp54
 70
     1
102
RTVSPropertyOp55
 70
     1
102
RTVSPropertyOp56
 70
     1
102
RTVSPropertyOp57
 70
     1
102
RTVSPost2010Prop28
280
     0
102
RTVSPost2010PropOp28
 70
     1
102
RTVSPost2010Prop29
280
     1
102
RTVSPost2010PropOp29
 70
     1
102
RTVSPost2010Prop30
280
     1
102
RTVSPost2010PropOp30
 70
     1
102
RTVSPost2010Prop31
280
     0
102
RTVSPost2010PropOp31
 70
     1
102
RTVSPost2010Prop32
280
     0
102
RTVSPost2010PropOp32
 70
     1
102
RTVSPost2010Prop33
280
     0
102
RTVSPost2010PropOp33
 70
     1
102
RTVSPost2010Prop34
280
     0
102
RTVSPost2010PropOp34
 70
     1
102
RTVSPost2010Prop35
280
     0
102
RTVSPost2010PropOp35
 70
     1
102
RTVSPost2010Prop36
280
     0
102
RTVSPost2010PropOp36
 70
     1
102
RTVSPost2010Prop37
 90
       50
102
RTVSPost2010PropOp37
 70
     1
102
RTVSPost2010Prop38
140
0.0
102
RTVSPost2010PropOp38
 70
     1
102
RTVSPost2010Prop39
140
1.0
102
RTVSPost2010PropOp39
 70
     1
102
RTVSPost2010Prop40
 90
        0
102
RTVSPost2010PropOp40
 70
     1
102
RTVSPost2010Prop41ColorIndex
 90
       18
102
RTVSPost2010Prop41ColorRGB
 90
        0
102
RTVSPost2010PropOp41
 70
     1
102
RTVSPost2010Prop42
 90
       50
102
RTVSPost2010PropOp42
 70
     1
102
RTVSPost2010Prop43
 90
        3
102
RTVSPost2010PropOp43
 70
     1
102
RTVSPost2010Prop44ColorIndex
 90
        5
102
RTVSPost2010Prop44ColorRGB
 90
      255
102
RTVSPost2010PropOp44
 70
     1
102
RTVSPost2010Prop45
280
     0
102
RTVSPost2010PropOp45
 70
     1
102
RTVSPost2010Prop46
 90
       50
102
RTVSPost2010PropOp46
 70
     1
102
RTVSPost2010Prop47
 90
       50
102
RTVSPost2010PropOp47
 70
     1
102
RTVSPost2010Prop48
 90
       50
102
RTVSPost2010PropOp48
 70
     1
102
RTVSPost2010Prop49
280
     0
102
RTVSPost2010PropOp49
 70
     1
102
RTVSPost2010Prop50
 90
       50
102
RTVSPost2010PropOp50
 70
     1
102
RTVSPost2010Prop51ColorIndex
 90
      256
102
RTVSPost2010Prop51ColorRGB
 90
-16777216
102
RTVSPost2010PropOp51
 70
     0
102
RTVSPost2010Prop52
140
1.0
102
RTVSPost2010PropOp52
 70
     0
102
RTVSPost2010Prop53
 90
        2
102
RTVSPost2010PropOp53
 70
     1
102
RTVSPost2010Prop54
  1
strokes_ogs.tif
102
RTVSPost2010PropOp54
 70
     1
102
RTVSPost2010Prop55
280
     0
102
RTVSPost2010PropOp55
 70
     1
102
RTVSPost2010Prop56
140
1.0
102
RTVSPost2010PropOp56
 70
     1
102
RTVSPost2010Prop57
140
1.0
102
RTVSPost2010PropOp57
 70
     1
  0
XRECORD
  5
54E
102
{ACAD_REACTORS
330
54D
102
}
330
54D
100
AcDbXrecord
280
     1
102
RTVSPropertyOp0
 70
     1
102
RTVSPropertyOp1
 70
     1
102
RTVSPropertyOp2
 70
     1
102
RTVSPropertyOp3
 70
     1
102
RTVSPropertyOp4
 70
     1
102
RTVSPropertyOp5
 70
     1
102
RTVSPropertyOp6
 70
     1
102
RTVSPropertyOp7
 70
     1
102
RTVSPropertyOp8
 70
     1
102
RTVSPropertyOp9
 70
     1
102
RTVSPropertyOp10
 70
     1
102
RTVSPropertyOp11
 70
     1
102
RTVSPropertyOp12
 70
     1
102
RTVSPropertyOp13
 70
     1
102
RTVSPropertyOp14
 70
     1
102
RTVSPropertyOp15
 70
     1
102
RTVSPropertyOp16
 70
     1
102
RTVSPropertyOp17
 70
     1
102
RTVSPropertyOp18
 70
     1
102
RTVSPropertyOp19
 70
     1
102
RTVSPropertyOp20
 70
     1
102
RTVSPropertyOp21
 70
     1
102
RTVSPropertyOp22
 70
     1
102
RTVSPropertyOp23
 70
     1
102
RTVSPropertyOp24
 70
     1
102
RTVSPropertyOp25
 70
     1
102
RTVSPropertyOp26
 70
     1
102
RTVSPropertyOp27
 70
     1
102
RTVSPropertyOp28
 70
     1
102
RTVSPropertyOp29
 70
     1
102
RTVSPropertyOp30
 70
     1
102
RTVSPropertyOp31
 70
     1
102
RTVSPropertyOp32
 70
     1
102
RTVSPropertyOp33
 70
     1
102
RTVSPropertyOp34
 70
     1
102
RTVSPropertyOp35
 70
     1
102
RTVSPropertyOp36
 70
     1
102
RTVSPropertyOp37
 70
     1
102
RTVSPropertyOp38
 70
     1
102
RTVSPropertyOp39
 70
     1
102
RTVSPropertyOp40
 70
     1
102
RTVSPropertyOp41
 70
     1
102
RTVSPropertyOp42
 70
     1
102
RTVSPropertyOp43
 70
     1
102
RTVSPropertyOp44
 70
     1
102
RTVSPropertyOp45
 70
     1
102
RTVSPropertyOp46
 70
     1
102
RTVSPropertyOp47
 70
     1
102
RTVSPropertyOp48
 70
     1
102
RTVSPropertyOp49
 70
     1
102
RTVSPropertyOp50
 70
     1
102
RTVSPropertyOp51
 70
     0
102
RTVSPropertyOp52
 70
     0
102
RTVSPropertyOp53
 70
     1
102
RTVSPropertyOp54
 70
     1
102
RTVSPropertyOp55
 70
     1
102
RTVSPropertyOp56
 70
     1
102
RTVSPropertyOp57
 70
     1
102
RTVSPost2010Prop28
280
     0
102
RTVSPost2010PropOp28
 70
     1
102
RTVSPost2010Prop29
280
     1
102
RTVSPost2010PropOp29
 70
     1
102
RTVSPost2010Prop30
280
     1
102
RTVSPost2010PropOp30
 70
     1
102
RTVSPost2010Prop31
280
     0
102
RTVSPost2010PropOp31
 70
     1
102
RTVSPost2010Prop32
280
     0
102
RTVSPost2010PropOp32
 70
     1
102
RTVSPost2010Prop33
280
     0
102
RTVSPost2010PropOp33
 70
     1
102
RTVSPost2010Prop34
280
     0
102
RTVSPost2010PropOp34
 70
     1
102
RTVSPost2010Prop35
280
     0
102
RTVSPost2010PropOp35
 70
     1
102
RTVSPost2010Prop36
280
     0
102
RTVSPost2010PropOp36
 70
     1
102
RTVSPost2010Prop37
 90
       50
102
RTVSPost2010PropOp37
 70
     1
102
RTVSPost2010Prop38
140
0.0
102
RTVSPost2010PropOp38
 70
     1
102
RTVSPost2010Prop39
140
1.0
102
RTVSPost2010PropOp39
 70
     1
102
RTVSPost2010Prop40
 90
        0
102
RTVSPost2010PropOp40
 70
     1
102
RTVSPost2010Prop41ColorIndex
 90
       18
102
RTVSPost2010Prop41ColorRGB
 90
        0
102
RTVSPost2010PropOp41
 70
     1
102
RTVSPost2010Prop42
 90
       50
102
RTVSPost2010PropOp42
 70
     1
102
RTVSPost2010Prop43
 90
        3
102
RTVSPost2010PropOp43
 70
     1
102
RTVSPost2010Prop44ColorIndex
 90
        5
102
RTVSPost2010Prop44ColorRGB
 90
      255
102
RTVSPost2010PropOp44
 70
     1
102
RTVSPost2010Prop45
280
     0
102
RTVSPost2010PropOp45
 70
     1
102
RTVSPost2010Prop46
 90
       50
102
RTVSPost2010PropOp46
 70
     1
102
RTVSPost2010Prop47
 90
       50
102
RTVSPost2010PropOp47
 70
     1
102
RTVSPost2010Prop48
 90
       50
102
RTVSPost2010PropOp48
 70
     1
102
RTVSPost2010Prop49
280
     0
102
RTVSPost2010PropOp49
 70
     1
102
RTVSPost2010Prop50
 90
       50
102
RTVSPost2010PropOp50
 70
     1
102
RTVSPost2010Prop51ColorIndex
 90
      256
102
RTVSPost2010Prop51ColorRGB
 90
-16777216
102
RTVSPost2010PropOp51
 70
     0
102
RTVSPost2010Prop52
140
1.0
102
RTVSPost2010PropOp52
 70
     0
102
RTVSPost2010Prop53
 90
        2
102
RTVSPost2010PropOp53
 70
     1
102
RTVSPost2010Prop54
  1
strokes_ogs.tif
102
RTVSPost2010PropOp54
 70
     1
102
RTVSPost2010Prop55
280
     0
102
RTVSPost2010PropOp55
 70
     1
102
RTVSPost2010Prop56
140
1.0
102
RTVSPost2010PropOp56
 70
     1
102
RTVSPost2010Prop57
140
1.0
102
RTVSPost2010PropOp57
 70
     1
  0
XRECORD
  5
54C
102
{ACAD_REACTORS
330
54B
102
}
330
54B
100
AcDbXrecord
280
     1
102
RTVSPropertyOp0
 70
     1
102
RTVSPropertyOp1
 70
     1
102
RTVSPropertyOp2
 70
     1
102
RTVSPropertyOp3
 70
     1
102
RTVSPropertyOp4
 70
     1
102
RTVSPropertyOp5
 70
     1
102
RTVSPropertyOp6
 70
     1
102
RTVSPropertyOp7
 70
     1
102
RTVSPropertyOp8
 70
     1
102
RTVSPropertyOp9
 70
     1
102
RTVSPropertyOp10
 70
     1
102
RTVSPropertyOp11
 70
     1
102
RTVSPropertyOp12
 70
     1
102
RTVSPropertyOp13
 70
     1
102
RTVSPropertyOp14
 70
     1
102
RTVSPropertyOp15
 70
     1
102
RTVSPropertyOp16
 70
     1
102
RTVSPropertyOp17
 70
     1
102
RTVSPropertyOp18
 70
     1
102
RTVSPropertyOp19
 70
     1
102
RTVSPropertyOp20
 70
     1
102
RTVSPropertyOp21
 70
     1
102
RTVSPropertyOp22
 70
     1
102
RTVSPropertyOp23
 70
     1
102
RTVSPropertyOp24
 70
     1
102
RTVSPropertyOp25
 70
     1
102
RTVSPropertyOp26
 70
     1
102
RTVSPropertyOp27
 70
     1
102
RTVSPropertyOp28
 70
     1
102
RTVSPropertyOp29
 70
     1
102
RTVSPropertyOp30
 70
     1
102
RTVSPropertyOp31
 70
     1
102
RTVSPropertyOp32
 70
     1
102
RTVSPropertyOp33
 70
     1
102
RTVSPropertyOp34
 70
     1
102
RTVSPropertyOp35
 70
     1
102
RTVSPropertyOp36
 70
     1
102
RTVSPropertyOp37
 70
     1
102
RTVSPropertyOp38
 70
     1
102
RTVSPropertyOp39
 70
     1
102
RTVSPropertyOp40
 70
     1
102
RTVSPropertyOp41
 70
     1
102
RTVSPropertyOp42
 70
     1
102
RTVSPropertyOp43
 70
     1
102
RTVSPropertyOp44
 70
     1
102
RTVSPropertyOp45
 70
     1
102
RTVSPropertyOp46
 70
     1
102
RTVSPropertyOp47
 70
     1
102
RTVSPropertyOp48
 70
     1
102
RTVSPropertyOp49
 70
     1
102
RTVSPropertyOp50
 70
     1
102
RTVSPropertyOp51
 70
     0
102
RTVSPropertyOp52
 70
     0
102
RTVSPropertyOp53
 70
     1
102
RTVSPropertyOp54
 70
     1
102
RTVSPropertyOp55
 70
     1
102
RTVSPropertyOp56
 70
     1
102
RTVSPropertyOp57
 70
     1
102
RTVSPost2010Prop28
280
     0
102
RTVSPost2010PropOp28
 70
     1
102
RTVSPost2010Prop29
280
     1
102
RTVSPost2010PropOp29
 70
     1
102
RTVSPost2010Prop30
280
     1
102
RTVSPost2010PropOp30
 70
     1
102
RTVSPost2010Prop31
280
     0
102
RTVSPost2010PropOp31
 70
     1
102
RTVSPost2010Prop32
280
     0
102
RTVSPost2010PropOp32
 70
     1
102
RTVSPost2010Prop33
280
     0
102
RTVSPost2010PropOp33
 70
     1
102
RTVSPost2010Prop34
280
     0
102
RTVSPost2010PropOp34
 70
     1
102
RTVSPost2010Prop35
280
     0
102
RTVSPost2010PropOp35
 70
     1
102
RTVSPost2010Prop36
280
     0
102
RTVSPost2010PropOp36
 70
     1
102
RTVSPost2010Prop37
 90
       50
102
RTVSPost2010PropOp37
 70
     1
102
RTVSPost2010Prop38
140
0.0
102
RTVSPost2010PropOp38
 70
     1
102
RTVSPost2010Prop39
140
1.0
102
RTVSPost2010PropOp39
 70
     1
102
RTVSPost2010Prop40
 90
        0
102
RTVSPost2010PropOp40
 70
     1
102
RTVSPost2010Prop41ColorIndex
 90
       18
102
RTVSPost2010Prop41ColorRGB
 90
        0
102
RTVSPost2010PropOp41
 70
     1
102
RTVSPost2010Prop42
 90
       50
102
RTVSPost2010PropOp42
 70
     1
102
RTVSPost2010Prop43
 90
        3
102
RTVSPost2010PropOp43
 70
     1
102
RTVSPost2010Prop44ColorIndex
 90
        5
102
RTVSPost2010Prop44ColorRGB
 90
      255
102
RTVSPost2010PropOp44
 70
     1
102
RTVSPost2010Prop45
280
     0
102
RTVSPost2010PropOp45
 70
     1
102
RTVSPost2010Prop46
 90
       50
102
RTVSPost2010PropOp46
 70
     1
102
RTVSPost2010Prop47
 90
       50
102
RTVSPost2010PropOp47
 70
     1
102
RTVSPost2010Prop48
 90
       50
102
RTVSPost2010PropOp48
 70
     1
102
RTVSPost2010Prop49
280
     0
102
RTVSPost2010PropOp49
 70
     1
102
RTVSPost2010Prop50
 90
       50
102
RTVSPost2010PropOp50
 70
     1
102
RTVSPost2010Prop51ColorIndex
 90
      256
102
RTVSPost2010Prop51ColorRGB
 90
-16777216
102
RTVSPost2010PropOp51
 70
     0
102
RTVSPost2010Prop52
140
1.0
102
RTVSPost2010PropOp52
 70
     0
102
RTVSPost2010Prop53
 90
        2
102
RTVSPost2010PropOp53
 70
     1
102
RTVSPost2010Prop54
  1
strokes_ogs.tif
102
RTVSPost2010PropOp54
 70
     1
102
RTVSPost2010Prop55
280
     0
102
RTVSPost2010PropOp55
 70
     1
102
RTVSPost2010Prop56
140
1.0
102
RTVSPost2010PropOp56
 70
     1
102
RTVSPost2010Prop57
140
1.0
102
RTVSPost2010PropOp57
 70
     1
  0
XRECORD
  5
546
102
{ACAD_REACTORS
330
545
102
}
330
545
100
AcDbXrecord
280
     1
102
RTVSPropertyOp0
 70
     1
102
RTVSPropertyOp1
 70
     1
102
RTVSPropertyOp2
 70
     1
102
RTVSPropertyOp3
 70
     1
102
RTVSPropertyOp4
 70
     1
102
RTVSPropertyOp5
 70
     1
102
RTVSPropertyOp6
 70
     1
102
RTVSPropertyOp7
 70
     1
102
RTVSPropertyOp8
 70
     1
102
RTVSPropertyOp9
 70
     1
102
RTVSPropertyOp10
 70
     1
102
RTVSPropertyOp11
 70
     1
102
RTVSPropertyOp12
 70
     1
102
RTVSPropertyOp13
 70
     1
102
RTVSPropertyOp14
 70
     1
102
RTVSPropertyOp15
 70
     1
102
RTVSPropertyOp16
 70
     1
102
RTVSPropertyOp17
 70
     1
102
RTVSPropertyOp18
 70
     1
102
RTVSPropertyOp19
 70
     1
102
RTVSPropertyOp20
 70
     1
102
RTVSPropertyOp21
 70
     1
102
RTVSPropertyOp22
 70
     1
102
RTVSPropertyOp23
 70
     1
102
RTVSPropertyOp24
 70
     1
102
RTVSPropertyOp25
 70
     1
102
RTVSPropertyOp26
 70
     1
102
RTVSPropertyOp27
 70
     1
102
RTVSPropertyOp28
 70
     1
102
RTVSPropertyOp29
 70
     1
102
RTVSPropertyOp30
 70
     1
102
RTVSPropertyOp31
 70
     1
102
RTVSPropertyOp32
 70
     1
102
RTVSPropertyOp33
 70
     1
102
RTVSPropertyOp34
 70
     1
102
RTVSPropertyOp35
 70
     1
102
RTVSPropertyOp36
 70
     1
102
RTVSPropertyOp37
 70
     1
102
RTVSPropertyOp38
 70
     1
102
RTVSPropertyOp39
 70
     1
102
RTVSPropertyOp40
 70
     1
102
RTVSPropertyOp41
 70
     1
102
RTVSPropertyOp42
 70
     1
102
RTVSPropertyOp43
 70
     1
102
RTVSPropertyOp44
 70
     1
102
RTVSPropertyOp45
 70
     1
102
RTVSPropertyOp46
 70
     1
102
RTVSPropertyOp47
 70
     1
102
RTVSPropertyOp48
 70
     1
102
RTVSPropertyOp49
 70
     1
102
RTVSPropertyOp50
 70
     1
102
RTVSPropertyOp51
 70
     0
102
RTVSPropertyOp52
 70
     0
102
RTVSPropertyOp53
 70
     1
102
RTVSPropertyOp54
 70
     1
102
RTVSPropertyOp55
 70
     1
102
RTVSPropertyOp56
 70
     1
102
RTVSPropertyOp57
 70
     1
102
RTVSPost2010Prop28
280
     0
102
RTVSPost2010PropOp28
 70
     1
102
RTVSPost2010Prop29
280
     1
102
RTVSPost2010PropOp29
 70
     1
102
RTVSPost2010Prop30
280
     1
102
RTVSPost2010PropOp30
 70
     1
102
RTVSPost2010Prop31
280
     0
102
RTVSPost2010PropOp31
 70
     1
102
RTVSPost2010Prop32
280
     0
102
RTVSPost2010PropOp32
 70
     1
102
RTVSPost2010Prop33
280
     0
102
RTVSPost2010PropOp33
 70
     1
102
RTVSPost2010Prop34
280
     0
102
RTVSPost2010PropOp34
 70
     1
102
RTVSPost2010Prop35
280
     0
102
RTVSPost2010PropOp35
 70
     1
102
RTVSPost2010Prop36
280
     0
102
RTVSPost2010PropOp36
 70
     1
102
RTVSPost2010Prop37
 90
       50
102
RTVSPost2010PropOp37
 70
     1
102
RTVSPost2010Prop38
140
0.0
102
RTVSPost2010PropOp38
 70
     1
102
RTVSPost2010Prop39
140
1.0
102
RTVSPost2010PropOp39
 70
     1
102
RTVSPost2010Prop40
 90
        0
102
RTVSPost2010PropOp40
 70
     1
102
RTVSPost2010Prop41ColorIndex
 90
       18
102
RTVSPost2010Prop41ColorRGB
 90
        0
102
RTVSPost2010PropOp41
 70
     1
102
RTVSPost2010Prop42
 90
       50
102
RTVSPost2010PropOp42
 70
     1
102
RTVSPost2010Prop43
 90
        3
102
RTVSPost2010PropOp43
 70
     1
102
RTVSPost2010Prop44ColorIndex
 90
        5
102
RTVSPost2010Prop44ColorRGB
 90
      255
102
RTVSPost2010PropOp44
 70
     1
102
RTVSPost2010Prop45
280
     0
102
RTVSPost2010PropOp45
 70
     1
102
RTVSPost2010Prop46
 90
       50
102
RTVSPost2010PropOp46
 70
     1
102
RTVSPost2010Prop47
 90
       50
102
RTVSPost2010PropOp47
 70
     1
102
RTVSPost2010Prop48
 90
       50
102
RTVSPost2010PropOp48
 70
     1
102
RTVSPost2010Prop49
280
     0
102
RTVSPost2010PropOp49
 70
     1
102
RTVSPost2010Prop50
 90
       50
102
RTVSPost2010PropOp50
 70
     1
102
RTVSPost2010Prop51ColorIndex
 90
      256
102
RTVSPost2010Prop51ColorRGB
 90
-16777216
102
RTVSPost2010PropOp51
 70
     0
102
RTVSPost2010Prop52
140
1.0
102
RTVSPost2010PropOp52
 70
     0
102
RTVSPost2010Prop53
 90
        2
102
RTVSPost2010PropOp53
 70
     1
102
RTVSPost2010Prop54
  1
strokes_ogs.tif
102
RTVSPost2010PropOp54
 70
     1
102
RTVSPost2010Prop55
280
     0
102
RTVSPost2010PropOp55
 70
     1
102
RTVSPost2010Prop56
140
1.0
102
RTVSPost2010PropOp56
 70
     1
102
RTVSPost2010Prop57
140
1.0
102
RTVSPost2010PropOp57
 70
     1
  0
XRECORD
  5
548
102
{ACAD_REACTORS
330
547
102
}
330
547
100
AcDbXrecord
280
     1
102
RTVSPropertyOp0
 70
     1
102
RTVSPropertyOp1
 70
     1
102
RTVSPropertyOp2
 70
     1
102
RTVSPropertyOp3
 70
     1
102
RTVSPropertyOp4
 70
     1
102
RTVSPropertyOp5
 70
     1
102
RTVSPropertyOp6
 70
     1
102
RTVSPropertyOp7
 70
     1
102
RTVSPropertyOp8
 70
     1
102
RTVSPropertyOp9
 70
     1
102
RTVSPropertyOp10
 70
     1
102
RTVSPropertyOp11
 70
     1
102
RTVSPropertyOp12
 70
     1
102
RTVSPropertyOp13
 70
     1
102
RTVSPropertyOp14
 70
     1
102
RTVSPropertyOp15
 70
     1
102
RTVSPropertyOp16
 70
     1
102
RTVSPropertyOp17
 70
     1
102
RTVSPropertyOp18
 70
     1
102
RTVSPropertyOp19
 70
     1
102
RTVSPropertyOp20
 70
     1
102
RTVSPropertyOp21
 70
     1
102
RTVSPropertyOp22
 70
     1
102
RTVSPropertyOp23
 70
     1
102
RTVSPropertyOp24
 70
     1
102
RTVSPropertyOp25
 70
     1
102
RTVSPropertyOp26
 70
     1
102
RTVSPropertyOp27
 70
     1
102
RTVSPropertyOp28
 70
     1
102
RTVSPropertyOp29
 70
     1
102
RTVSPropertyOp30
 70
     1
102
RTVSPropertyOp31
 70
     1
102
RTVSPropertyOp32
 70
     1
102
RTVSPropertyOp33
 70
     1
102
RTVSPropertyOp34
 70
     1
102
RTVSPropertyOp35
 70
     1
102
RTVSPropertyOp36
 70
     1
102
RTVSPropertyOp37
 70
     1
102
RTVSPropertyOp38
 70
     1
102
RTVSPropertyOp39
 70
     1
102
RTVSPropertyOp40
 70
     1
102
RTVSPropertyOp41
 70
     1
102
RTVSPropertyOp42
 70
     1
102
RTVSPropertyOp43
 70
     1
102
RTVSPropertyOp44
 70
     1
102
RTVSPropertyOp45
 70
     1
102
RTVSPropertyOp46
 70
     1
102
RTVSPropertyOp47
 70
     1
102
RTVSPropertyOp48
 70
     1
102
RTVSPropertyOp49
 70
     1
102
RTVSPropertyOp50
 70
     1
102
RTVSPropertyOp51
 70
     0
102
RTVSPropertyOp52
 70
     0
102
RTVSPropertyOp53
 70
     1
102
RTVSPropertyOp54
 70
     1
102
RTVSPropertyOp55
 70
     1
102
RTVSPropertyOp56
 70
     1
102
RTVSPropertyOp57
 70
     1
102
RTVSPost2010Prop28
280
     0
102
RTVSPost2010PropOp28
 70
     1
102
RTVSPost2010Prop29
280
     1
102
RTVSPost2010PropOp29
 70
     1
102
RTVSPost2010Prop30
280
     1
102
RTVSPost2010PropOp30
 70
     1
102
RTVSPost2010Prop31
280
     0
102
RTVSPost2010PropOp31
 70
     1
102
RTVSPost2010Prop32
280
     0
102
RTVSPost2010PropOp32
 70
     1
102
RTVSPost2010Prop33
280
     0
102
RTVSPost2010PropOp33
 70
     1
102
RTVSPost2010Prop34
280
     0
102
RTVSPost2010PropOp34
 70
     1
102
RTVSPost2010Prop35
280
     0
102
RTVSPost2010PropOp35
 70
     1
102
RTVSPost2010Prop36
280
     0
102
RTVSPost2010PropOp36
 70
     1
102
RTVSPost2010Prop37
 90
       50
102
RTVSPost2010PropOp37
 70
     1
102
RTVSPost2010Prop38
140
0.0
102
RTVSPost2010PropOp38
 70
     1
102
RTVSPost2010Prop39
140
1.0
102
RTVSPost2010PropOp39
 70
     1
102
RTVSPost2010Prop40
 90
        0
102
RTVSPost2010PropOp40
 70
     1
102
RTVSPost2010Prop41ColorIndex
 90
       18
102
RTVSPost2010Prop41ColorRGB
 90
        0
102
RTVSPost2010PropOp41
 70
     1
102
RTVSPost2010Prop42
 90
       50
102
RTVSPost2010PropOp42
 70
     1
102
RTVSPost2010Prop43
 90
        3
102
RTVSPost2010PropOp43
 70
     1
102
RTVSPost2010Prop44ColorIndex
 90
        5
102
RTVSPost2010Prop44ColorRGB
 90
      255
102
RTVSPost2010PropOp44
 70
     1
102
RTVSPost2010Prop45
280
     0
102
RTVSPost2010PropOp45
 70
     1
102
RTVSPost2010Prop46
 90
       50
102
RTVSPost2010PropOp46
 70
     1
102
RTVSPost2010Prop47
 90
       50
102
RTVSPost2010PropOp47
 70
     1
102
RTVSPost2010Prop48
 90
       50
102
RTVSPost2010PropOp48
 70
     1
102
RTVSPost2010Prop49
280
     0
102
RTVSPost2010PropOp49
 70
     1
102
RTVSPost2010Prop50
 90
       50
102
RTVSPost2010PropOp50
 70
     1
102
RTVSPost2010Prop51ColorIndex
 90
      256
102
RTVSPost2010Prop51ColorRGB
 90
-16777216
102
RTVSPost2010PropOp51
 70
     0
102
RTVSPost2010Prop52
140
1.0
102
RTVSPost2010PropOp52
 70
     0
102
RTVSPost2010Prop53
 90
        2
102
RTVSPost2010PropOp53
 70
     1
102
RTVSPost2010Prop54
  1
strokes_ogs.tif
102
RTVSPost2010PropOp54
 70
     1
102
RTVSPost2010Prop55
280
     0
102
RTVSPost2010PropOp55
 70
     1
102
RTVSPost2010Prop56
140
1.0
102
RTVSPost2010PropOp56
 70
     1
102
RTVSPost2010Prop57
140
1.0
102
RTVSPost2010PropOp57
 70
     1
  0
XRECORD
  5
538
102
{ACAD_REACTORS
330
537
102
}
330
537
100
AcDbXrecord
280
     1
102
RTVSPropertyOp0
 70
     1
102
RTVSPropertyOp1
 70
     1
102
RTVSPropertyOp2
 70
     1
102
RTVSPropertyOp3
 70
     1
102
RTVSPropertyOp4
 70
     1
102
RTVSPropertyOp5
 70
     1
102
RTVSPropertyOp6
 70
     1
102
RTVSPropertyOp7
 70
     1
102
RTVSPropertyOp8
 70
     1
102
RTVSPropertyOp9
 70
     1
102
RTVSPropertyOp10
 70
     1
102
RTVSPropertyOp11
 70
     1
102
RTVSPropertyOp12
 70
     1
102
RTVSPropertyOp13
 70
     1
102
RTVSPropertyOp14
 70
     1
102
RTVSPropertyOp15
 70
     1
102
RTVSPropertyOp16
 70
     1
102
RTVSPropertyOp17
 70
     1
102
RTVSPropertyOp18
 70
     1
102
RTVSPropertyOp19
 70
     1
102
RTVSPropertyOp20
 70
     1
102
RTVSPropertyOp21
 70
     1
102
RTVSPropertyOp22
 70
     1
102
RTVSPropertyOp23
 70
     1
102
RTVSPropertyOp24
 70
     1
102
RTVSPropertyOp25
 70
     1
102
RTVSPropertyOp26
 70
     1
102
RTVSPropertyOp27
 70
     1
102
RTVSPropertyOp28
 70
     1
102
RTVSPropertyOp29
 70
     1
102
RTVSPropertyOp30
 70
     1
102
RTVSPropertyOp31
 70
     1
102
RTVSPropertyOp32
 70
     1
102
RTVSPropertyOp33
 70
     1
102
RTVSPropertyOp34
 70
     1
102
RTVSPropertyOp35
 70
     1
102
RTVSPropertyOp36
 70
     1
102
RTVSPropertyOp37
 70
     1
102
RTVSPropertyOp38
 70
     1
102
RTVSPropertyOp39
 70
     1
102
RTVSPropertyOp40
 70
     1
102
RTVSPropertyOp41
 70
     1
102
RTVSPropertyOp42
 70
     1
102
RTVSPropertyOp43
 70
     1
102
RTVSPropertyOp44
 70
     1
102
RTVSPropertyOp45
 70
     1
102
RTVSPropertyOp46
 70
     1
102
RTVSPropertyOp47
 70
     1
102
RTVSPropertyOp48
 70
     1
102
RTVSPropertyOp49
 70
     1
102
RTVSPropertyOp50
 70
     1
102
RTVSPropertyOp51
 70
     0
102
RTVSPropertyOp52
 70
     0
102
RTVSPropertyOp53
 70
     1
102
RTVSPropertyOp54
 70
     1
102
RTVSPropertyOp55
 70
     1
102
RTVSPropertyOp56
 70
     1
102
RTVSPropertyOp57
 70
     1
102
RTVSPost2010Prop28
280
     0
102
RTVSPost2010PropOp28
 70
     1
102
RTVSPost2010Prop29
280
     1
102
RTVSPost2010PropOp29
 70
     1
102
RTVSPost2010Prop30
280
     1
102
RTVSPost2010PropOp30
 70
     1
102
RTVSPost2010Prop31
280
     0
102
RTVSPost2010PropOp31
 70
     1
102
RTVSPost2010Prop32
280
     0
102
RTVSPost2010PropOp32
 70
     1
102
RTVSPost2010Prop33
280
     0
102
RTVSPost2010PropOp33
 70
     1
102
RTVSPost2010Prop34
280
     0
102
RTVSPost2010PropOp34
 70
     1
102
RTVSPost2010Prop35
280
     0
102
RTVSPost2010PropOp35
 70
     1
102
RTVSPost2010Prop36
280
     0
102
RTVSPost2010PropOp36
 70
     1
102
RTVSPost2010Prop37
 90
       50
102
RTVSPost2010PropOp37
 70
     1
102
RTVSPost2010Prop38
140
0.0
102
RTVSPost2010PropOp38
 70
     1
102
RTVSPost2010Prop39
140
1.0
102
RTVSPost2010PropOp39
 70
     1
102
RTVSPost2010Prop40
 90
        0
102
RTVSPost2010PropOp40
 70
     1
102
RTVSPost2010Prop41ColorIndex
 90
       18
102
RTVSPost2010Prop41ColorRGB
 90
        0
102
RTVSPost2010PropOp41
 70
     1
102
RTVSPost2010Prop42
 90
       50
102
RTVSPost2010PropOp42
 70
     1
102
RTVSPost2010Prop43
 90
        3
102
RTVSPost2010PropOp43
 70
     1
102
RTVSPost2010Prop44ColorIndex
 90
        5
102
RTVSPost2010Prop44ColorRGB
 90
      255
102
RTVSPost2010PropOp44
 70
     1
102
RTVSPost2010Prop45
280
     0
102
RTVSPost2010PropOp45
 70
     1
102
RTVSPost2010Prop46
 90
       50
102
RTVSPost2010PropOp46
 70
     1
102
RTVSPost2010Prop47
 90
       50
102
RTVSPost2010PropOp47
 70
     1
102
RTVSPost2010Prop48
 90
       50
102
RTVSPost2010PropOp48
 70
     1
102
RTVSPost2010Prop49
280
     0
102
RTVSPost2010PropOp49
 70
     1
102
RTVSPost2010Prop50
 90
       50
102
RTVSPost2010PropOp50
 70
     1
102
RTVSPost2010Prop51ColorIndex
 90
      256
102
RTVSPost2010Prop51ColorRGB
 90
-16777216
102
RTVSPost2010PropOp51
 70
     0
102
RTVSPost2010Prop52
140
1.0
102
RTVSPost2010PropOp52
 70
     0
102
RTVSPost2010Prop53
 90
        2
102
RTVSPost2010PropOp53
 70
     1
102
RTVSPost2010Prop54
  1
strokes_ogs.tif
102
RTVSPost2010PropOp54
 70
     1
102
RTVSPost2010Prop55
280
     0
102
RTVSPost2010PropOp55
 70
     1
102
RTVSPost2010Prop56
140
1.0
102
RTVSPost2010PropOp56
 70
     1
102
RTVSPost2010Prop57
140
1.0
102
RTVSPost2010PropOp57
 70
     1
  0
XRECORD
  5
52A
102
{ACAD_REACTORS
330
529
102
}
330
529
100
AcDbXrecord
280
     1
102
RTVSPropertyOp0
 70
     1
102
RTVSPropertyOp1
 70
     1
102
RTVSPropertyOp2
 70
     1
102
RTVSPropertyOp3
 70
     1
102
RTVSPropertyOp4
 70
     1
102
RTVSPropertyOp5
 70
     1
102
RTVSPropertyOp6
 70
     1
102
RTVSPropertyOp7
 70
     1
102
RTVSPropertyOp8
 70
     1
102
RTVSPropertyOp9
 70
     1
102
RTVSPropertyOp10
 70
     1
102
RTVSPropertyOp11
 70
     1
102
RTVSPropertyOp12
 70
     1
102
RTVSPropertyOp13
 70
     1
102
RTVSPropertyOp14
 70
     1
102
RTVSPropertyOp15
 70
     1
102
RTVSPropertyOp16
 70
     1
102
RTVSPropertyOp17
 70
     1
102
RTVSPropertyOp18
 70
     1
102
RTVSPropertyOp19
 70
     1
102
RTVSPropertyOp20
 70
     1
102
RTVSPropertyOp21
 70
     1
102
RTVSPropertyOp22
 70
     1
102
RTVSPropertyOp23
 70
     1
102
RTVSPropertyOp24
 70
     1
102
RTVSPropertyOp25
 70
     1
102
RTVSPropertyOp26
 70
     1
102
RTVSPropertyOp27
 70
     1
102
RTVSPropertyOp28
 70
     1
102
RTVSPropertyOp29
 70
     1
102
RTVSPropertyOp30
 70
     1
102
RTVSPropertyOp31
 70
     1
102
RTVSPropertyOp32
 70
     1
102
RTVSPropertyOp33
 70
     1
102
RTVSPropertyOp34
 70
     1
102
RTVSPropertyOp35
 70
     1
102
RTVSPropertyOp36
 70
     1
102
RTVSPropertyOp37
 70
     1
102
RTVSPropertyOp38
 70
     1
102
RTVSPropertyOp39
 70
     1
102
RTVSPropertyOp40
 70
     1
102
RTVSPropertyOp41
 70
     1
102
RTVSPropertyOp42
 70
     1
102
RTVSPropertyOp43
 70
     1
102
RTVSPropertyOp44
 70
     1
102
RTVSPropertyOp45
 70
     1
102
RTVSPropertyOp46
 70
     1
102
RTVSPropertyOp47
 70
     1
102
RTVSPropertyOp48
 70
     1
102
RTVSPropertyOp49
 70
     1
102
RTVSPropertyOp50
 70
     1
102
RTVSPropertyOp51
 70
     0
102
RTVSPropertyOp52
 70
     0
102
RTVSPropertyOp53
 70
     1
102
RTVSPropertyOp54
 70
     1
102
RTVSPropertyOp55
 70
     1
102
RTVSPropertyOp56
 70
     1
102
RTVSPropertyOp57
 70
     1
102
RTVSPost2010Prop28
280
     0
102
RTVSPost2010PropOp28
 70
     1
102
RTVSPost2010Prop29
280
     1
102
RTVSPost2010PropOp29
 70
     1
102
RTVSPost2010Prop30
280
     1
102
RTVSPost2010PropOp30
 70
     1
102
RTVSPost2010Prop31
280
     0
102
RTVSPost2010PropOp31
 70
     1
102
RTVSPost2010Prop32
280
     0
102
RTVSPost2010PropOp32
 70
     1
102
RTVSPost2010Prop33
280
     0
102
RTVSPost2010PropOp33
 70
     1
102
RTVSPost2010Prop34
280
     0
102
RTVSPost2010PropOp34
 70
     1
102
RTVSPost2010Prop35
280
     0
102
RTVSPost2010PropOp35
 70
     1
102
RTVSPost2010Prop36
280
     0
102
RTVSPost2010PropOp36
 70
     1
102
RTVSPost2010Prop37
 90
       50
102
RTVSPost2010PropOp37
 70
     1
102
RTVSPost2010Prop38
140
0.0
102
RTVSPost2010PropOp38
 70
     1
102
RTVSPost2010Prop39
140
1.0
102
RTVSPost2010PropOp39
 70
     1
102
RTVSPost2010Prop40
 90
        0
102
RTVSPost2010PropOp40
 70
     1
102
RTVSPost2010Prop41ColorIndex
 90
       18
102
RTVSPost2010Prop41ColorRGB
 90
        0
102
RTVSPost2010PropOp41
 70
     1
102
RTVSPost2010Prop42
 90
       50
102
RTVSPost2010PropOp42
 70
     1
102
RTVSPost2010Prop43
 90
        3
102
RTVSPost2010PropOp43
 70
     1
102
RTVSPost2010Prop44ColorIndex
 90
        5
102
RTVSPost2010Prop44ColorRGB
 90
      255
102
RTVSPost2010PropOp44
 70
     1
102
RTVSPost2010Prop45
280
     0
102
RTVSPost2010PropOp45
 70
     1
102
RTVSPost2010Prop46
 90
       50
102
RTVSPost2010PropOp46
 70
     1
102
RTVSPost2010Prop47
 90
       50
102
RTVSPost2010PropOp47
 70
     1
102
RTVSPost2010Prop48
 90
       50
102
RTVSPost2010PropOp48
 70
     1
102
RTVSPost2010Prop49
280
     0
102
RTVSPost2010PropOp49
 70
     1
102
RTVSPost2010Prop50
 90
       50
102
RTVSPost2010PropOp50
 70
     1
102
RTVSPost2010Prop51ColorIndex
 90
      256
102
RTVSPost2010Prop51ColorRGB
 90
-16777216
102
RTVSPost2010PropOp51
 70
     0
102
RTVSPost2010Prop52
140
1.0
102
RTVSPost2010PropOp52
 70
     0
102
RTVSPost2010Prop53
 90
        2
102
RTVSPost2010PropOp53
 70
     1
102
RTVSPost2010Prop54
  1
strokes_ogs.tif
102
RTVSPost2010PropOp54
 70
     1
102
RTVSPost2010Prop55
280
     0
102
RTVSPost2010PropOp55
 70
     1
102
RTVSPost2010Prop56
140
1.0
102
RTVSPost2010PropOp56
 70
     1
102
RTVSPost2010Prop57
140
1.0
102
RTVSPost2010PropOp57
 70
     1
  0
XRECORD
  5
54A
102
{ACAD_REACTORS
330
549
102
}
330
549
100
AcDbXrecord
280
     1
102
RTVSPropertyOp0
 70
     1
102
RTVSPropertyOp1
 70
     1
102
RTVSPropertyOp2
 70
     1
102
RTVSPropertyOp3
 70
     1
102
RTVSPropertyOp4
 70
     1
102
RTVSPropertyOp5
 70
     1
102
RTVSPropertyOp6
 70
     1
102
RTVSPropertyOp7
 70
     1
102
RTVSPropertyOp8
 70
     1
102
RTVSPropertyOp9
 70
     1
102
RTVSPropertyOp10
 70
     1
102
RTVSPropertyOp11
 70
     1
102
RTVSPropertyOp12
 70
     1
102
RTVSPropertyOp13
 70
     1
102
RTVSPropertyOp14
 70
     1
102
RTVSPropertyOp15
 70
     1
102
RTVSPropertyOp16
 70
     1
102
RTVSPropertyOp17
 70
     1
102
RTVSPropertyOp18
 70
     1
102
RTVSPropertyOp19
 70
     1
102
RTVSPropertyOp20
 70
     1
102
RTVSPropertyOp21
 70
     1
102
RTVSPropertyOp22
 70
     1
102
RTVSPropertyOp23
 70
     1
102
RTVSPropertyOp24
 70
     1
102
RTVSPropertyOp25
 70
     1
102
RTVSPropertyOp26
 70
     1
102
RTVSPropertyOp27
 70
     1
102
RTVSPropertyOp28
 70
     1
102
RTVSPropertyOp29
 70
     1
102
RTVSPropertyOp30
 70
     1
102
RTVSPropertyOp31
 70
     1
102
RTVSPropertyOp32
 70
     1
102
RTVSPropertyOp33
 70
     1
102
RTVSPropertyOp34
 70
     1
102
RTVSPropertyOp35
 70
     1
102
RTVSPropertyOp36
 70
     1
102
RTVSPropertyOp37
 70
     1
102
RTVSPropertyOp38
 70
     1
102
RTVSPropertyOp39
 70
     1
102
RTVSPropertyOp40
 70
     1
102
RTVSPropertyOp41
 70
     1
102
RTVSPropertyOp42
 70
     1
102
RTVSPropertyOp43
 70
     1
102
RTVSPropertyOp44
 70
     1
102
RTVSPropertyOp45
 70
     1
102
RTVSPropertyOp46
 70
     1
102
RTVSPropertyOp47
 70
     1
102
RTVSPropertyOp48
 70
     1
102
RTVSPropertyOp49
 70
     1
102
RTVSPropertyOp50
 70
     1
102
RTVSPropertyOp51
 70
     0
102
RTVSPropertyOp52
 70
     0
102
RTVSPropertyOp53
 70
     1
102
RTVSPropertyOp54
 70
     1
102
RTVSPropertyOp55
 70
     1
102
RTVSPropertyOp56
 70
     1
102
RTVSPropertyOp57
 70
     1
102
RTVSPost2010Prop28
280
     0
102
RTVSPost2010PropOp28
 70
     1
102
RTVSPost2010Prop29
280
     1
102
RTVSPost2010PropOp29
 70
     1
102
RTVSPost2010Prop30
280
     1
102
RTVSPost2010PropOp30
 70
     1
102
RTVSPost2010Prop31
280
     0
102
RTVSPost2010PropOp31
 70
     1
102
RTVSPost2010Prop32
280
     0
102
RTVSPost2010PropOp32
 70
     1
102
RTVSPost2010Prop33
280
     0
102
RTVSPost2010PropOp33
 70
     1
102
RTVSPost2010Prop34
280
     0
102
RTVSPost2010PropOp34
 70
     1
102
RTVSPost2010Prop35
280
     0
102
RTVSPost2010PropOp35
 70
     1
102
RTVSPost2010Prop36
280
     0
102
RTVSPost2010PropOp36
 70
     1
102
RTVSPost2010Prop37
 90
       50
102
RTVSPost2010PropOp37
 70
     1
102
RTVSPost2010Prop38
140
0.0
102
RTVSPost2010PropOp38
 70
     1
102
RTVSPost2010Prop39
140
1.0
102
RTVSPost2010PropOp39
 70
     1
102
RTVSPost2010Prop40
 90
        0
102
RTVSPost2010PropOp40
 70
     1
102
RTVSPost2010Prop41ColorIndex
 90
       18
102
RTVSPost2010Prop41ColorRGB
 90
        0
102
RTVSPost2010PropOp41
 70
     1
102
RTVSPost2010Prop42
 90
       50
102
RTVSPost2010PropOp42
 70
     1
102
RTVSPost2010Prop43
 90
        3
102
RTVSPost2010PropOp43
 70
     1
102
RTVSPost2010Prop44ColorIndex
 90
        5
102
RTVSPost2010Prop44ColorRGB
 90
      255
102
RTVSPost2010PropOp44
 70
     1
102
RTVSPost2010Prop45
280
     0
102
RTVSPost2010PropOp45
 70
     1
102
RTVSPost2010Prop46
 90
       50
102
RTVSPost2010PropOp46
 70
     1
102
RTVSPost2010Prop47
 90
       50
102
RTVSPost2010PropOp47
 70
     1
102
RTVSPost2010Prop48
 90
       50
102
RTVSPost2010PropOp48
 70
     1
102
RTVSPost2010Prop49
280
     0
102
RTVSPost2010PropOp49
 70
     1
102
RTVSPost2010Prop50
 90
       50
102
RTVSPost2010PropOp50
 70
     1
102
RTVSPost2010Prop51ColorIndex
 90
      256
102
RTVSPost2010Prop51ColorRGB
 90
-16777216
102
RTVSPost2010PropOp51
 70
     0
102
RTVSPost2010Prop52
140
1.0
102
RTVSPost2010PropOp52
 70
     0
102
RTVSPost2010Prop53
 90
        2
102
RTVSPost2010PropOp53
 70
     1
102
RTVSPost2010Prop54
  1
strokes_ogs.tif
102
RTVSPost2010PropOp54
 70
     1
102
RTVSPost2010Prop55
280
     0
102
RTVSPost2010PropOp55
 70
     1
102
RTVSPost2010Prop56
140
1.0
102
RTVSPost2010PropOp56
 70
     1
102
RTVSPost2010Prop57
140
1.0
102
RTVSPost2010PropOp57
 70
     1
  0
ENDSEC
  0
EOF
