  0
SECTION
  2
HEADER
  9
$ACADVER
  1
AC1015
  9
$ACADMAINTVER
 70
     6
  9
$DWGCODEPAGE
  3
ANSI_932
  9
$INSBASE
 10
247.2732453101761
 20
631.1624066664837
 30
0.0
  9
$EXTMIN
 10
61.07446506189206
 20
15.14168951154153
 30
0.0
  9
$EXTMAX
 10
680.4231657395652
 20
561.5700667516572
 30
0.0
  9
$LIMMIN
 10
0.0
 20
0.0
  9
$LIMMAX
 10
816.5000000000001
 20
565.0
  9
$ORTHOMODE
 70
     1
  9
$REGENMODE
 70
     1
  9
$FILLMODE
 70
     1
  9
$QTEXTMODE
 70
     0
  9
$MIRRTEXT
 70
     1
  9
$LTSCALE
 40
5.0
  9
$ATTMODE
 70
     1
  9
$TEXTSIZE
 40
6.0
  9
$TRACEWID
 40
0.05
  9
$TEXTSTYLE
  7
KANJI
  9
$CLAYER
  8
2
  9
$CELTYPE
  6
BYLAYER
  9
$CECOLOR
 62
   256
  9
$CELTSCALE
 40
1.0
  9
$DISPSILH
 70
     0
  9
$DIMSCALE
 40
2.0
  9
$DIMASZ
 40
2.0
  9
$DIMEXO
 40
0.5
  9
$DIMDLI
 40
0.0
  9
$DIMRND
 40
0.0
  9
$DIMDLE
 40
0.0
  9
$DIMEXE
 40
1.0
  9
$DIMTP
 40
0.0
  9
$DIMTM
 40
0.0
  9
$DIMTXT
 40
3.0
  9
$DIMCEN
 40
0.09
  9
$DIMTSZ
 40
0.0
  9
$DIMTOL
 70
     0
  9
$DIMLIM
 70
     0
  9
$DIMTIH
 70
     0
  9
$DIMTOH
 70
     0
  9
$DIMSE1
 70
     0
  9
$DIMSE2
 70
     0
  9
$DIMTAD
 70
     0
  9
$DIMZIN
 70
     8
  9
$DIMBLK
  1

  9
$DIMASO
 70
     0
  9
$DIMSHO
 70
     0
  9
$DIMPOST
  1

  9
$DIMAPOST
  1

  9
$DIMALT
 70
     0
  9
$DIMALTD
 70
     2
  9
$DIMALTF
 40
25.4
  9
$DIMLFAC
 40
1.0
  9
$DIMTOFL
 70
     1
  9
$DIMTVP
 40
1.0
  9
$DIMTIX
 70
     1
  9
$DIMSOXD
 70
     1
  9
$DIMSAH
 70
     0
  9
$DIMBLK1
  1

  9
$DIMBLK2
  1

  9
$DIMSTYLE
  2
STANDARD
  9
$DIMCLRD
 70
   256
  9
$DIMCLRE
 70
   256
  9
$DIMCLRT
 70
   256
  9
$DIMTFAC
 40
1.0
  9
$DIMGAP
 40
0.09
  9
$DIMJUST
 70
     0
  9
$DIMSD1
 70
     0
  9
$DIMSD2
 70
     0
  9
$DIMTOLJ
 70
     1
  9
$DIMTZIN
 70
     0
  9
$DIMALTZ
 70
     0
  9
$DIMALTTZ
 70
     0
  9
$DIMUPT
 70
     0
  9
$DIMDEC
 70
     1
  9
$DIMTDEC
 70
     4
  9
$DIMALTU
 70
     2
  9
$DIMALTTD
 70
     2
  9
$DIMTXSTY
  7
STANDARD
  9
$DIMAUNIT
 70
     0
  9
$DIMADEC
 70
     0
  9
$DIMALTRND
 40
0.0
  9
$DIMAZIN
 70
     0
  9
$DIMDSEP
 70
    46
  9
$DIMATFIT
 70
     3
  9
$DIMFRAC
 70
     0
  9
$DIMLDRBLK
  1

  9
$DIMLUNIT
 70
     2
  9
$DIMLWD
 70
    -2
  9
$DIMLWE
 70
    -2
  9
$DIMTMOVE
 70
     0
  9
$LUNITS
 70
     2
  9
$LUPREC
 70
     3
  9
$SKETCHINC
 40
0.1
  9
$FILLETRAD
 40
2.0
  9
$AUNITS
 70
     0
  9
$AUPREC
 70
     3
  9
$MENU
  1
C:\R13\WIN\SUPPORT\ACADFULL
  9
$ELEVATION
 40
0.0
  9
$PELEVATION
 40
0.0
  9
$THICKNESS
 40
0.0
  9
$LIMCHECK
 70
     0
  9
$CHAMFERA
 40
0.0
  9
$CHAMFERB
 40
0.0
  9
$CHAMFERC
 40
0.0
  9
$CHAMFERD
 40
0.0
  9
$SKPOLY
 70
     0
  9
$TDCREATE
 40
2457528.420364398
  9
$TDUCREATE
 40
2457528.045364398
  9
$TDUPDATE
 40
2457870.613800521
  9
$TDUUPDATE
 40
2457870.238800521
  9
$TDINDWG
 40
0.0046157292
  9
$TDUSRTIMER
 40
0.0046151852
  9
$USRTIMER
 70
     1
  9
$ANGBASE
 50
0.0
  9
$ANGDIR
 70
     0
  9
$PDMODE
 70
     0
  9
$PDSIZE
 40
0.0
  9
$PLINEWID
 40
0.0
  9
$SPLFRAME
 70
     0
  9
$SPLINETYPE
 70
     6
  9
$SPLINESEGS
 70
     8
  9
$HANDSEED
  5
50C
  9
$SURFTAB1
 70
     6
  9
$SURFTAB2
 70
     6
  9
$SURFTYPE
 70
     6
  9
$SURFU
 70
     6
  9
$SURFV
 70
     6
  9
$UCSBASE
  2

  9
$UCSNAME
  2

  9
$UCSORG
 10
0.0
 20
0.0
 30
0.0
  9
$UCSXDIR
 10
1.0
 20
0.0
 30
0.0
  9
$UCSYDIR
 10
0.0
 20
1.0
 30
0.0
  9
$UCSORTHOREF
  2

  9
$UCSORTHOVIEW
 70
     0
  9
$UCSORGTOP
 10
0.0
 20
0.0
 30
0.0
  9
$UCSORGBOTTOM
 10
0.0
 20
0.0
 30
0.0
  9
$UCSORGLEFT
 10
0.0
 20
0.0
 30
0.0
  9
$UCSORGRIGHT
 10
0.0
 20
0.0
 30
0.0
  9
$UCSORGFRONT
 10
0.0
 20
0.0
 30
0.0
  9
$UCSORGBACK
 10
0.0
 20
0.0
 30
0.0
  9
$PUCSBASE
  2

  9
$PUCSNAME
  2

  9
$PUCSORG
 10
0.0
 20
0.0
 30
0.0
  9
$PUCSXDIR
 10
1.0
 20
0.0
 30
0.0
  9
$PUCSYDIR
 10
0.0
 20
1.0
 30
0.0
  9
$PUCSORTHOREF
  2

  9
$PUCSORTHOVIEW
 70
     0
  9
$PUCSORGTOP
 10
0.0
 20
0.0
 30
0.0
  9
$PUCSORGBOTTOM
 10
0.0
 20
0.0
 30
0.0
  9
$PUCSORGLEFT
 10
0.0
 20
0.0
 30
0.0
  9
$PUCSORGRIGHT
 10
0.0
 20
0.0
 30
0.0
  9
$PUCSORGFRONT
 10
0.0
 20
0.0
 30
0.0
  9
$PUCSORGBACK
 10
0.0
 20
0.0
 30
0.0
  9
$USERI1
 70
     0
  9
$USERI2
 70
     0
  9
$USERI3
 70
     0
  9
$USERI4
 70
     0
  9
$USERI5
 70
     0
  9
$USERR1
 40
0.0
  9
$USERR2
 40
0.0
  9
$USERR3
 40
0.0
  9
$USERR4
 40
2448925.372986111
  9
$USERR5
 40
0.04166667
  9
$WORLDVIEW
 70
     1
  9
$SHADEDGE
 70
     3
  9
$SHADEDIF
 70
    70
  9
$TILEMODE
 70
     1
  9
$MAXACTVP
 70
    16
  9
$PINSBASE
 10
0.0
 20
0.0
 30
0.0
  9
$PLIMCHECK
 70
     0
  9
$PEXTMIN
 10
1.000000000000000E+20
 20
1.000000000000000E+20
 30
1.000000000000000E+20
  9
$PEXTMAX
 10
-1.000000000000000E+20
 20
-1.000000000000000E+20
 30
-1.000000000000000E+20
  9
$PLIMMIN
 10
0.0
 20
0.0
  9
$PLIMMAX
 10
12.0
 20
9.0
  9
$UNITMODE
 70
     0
  9
$VISRETAIN
 70
     0
  9
$PLINEGEN
 70
     0
  9
$PSLTSCALE
 70
     0
  9
$TREEDEPTH
 70
  3020
  9
$CMLSTYLE
  2
STANDARD
  9
$CMLJUST
 70
     0
  9
$CMLSCALE
 40
1.0
  9
$PROXYGRAPHICS
 70
     1
  9
$MEASUREMENT
 70
     0
  9
$CELWEIGHT
370
    -1
  9
$ENDCAPS
280
     0
  9
$JOINSTYLE
280
     0
  9
$LWDISPLAY
290
     0
  9
$INSUNITS
 70
     0
  9
$HYPERLINKBASE
  1

  9
$STYLESHEET
  1

  9
$XEDIT
290
     1
  9
$CEPSNTYPE
380
     0
  9
$PSTYLEMODE
290
     1
  9
$FINGERPRINTGUID
  2
{4CD1E96B-E608-455E-A213-D17A19F2BC18}
  9
$VERSIONGUID
  2
{8D3381B0-2869-449F-8E41-864422808CBE}
  9
$EXTNAMES
290
     1
  9
$PSVPSCALE
 40
0.0
  9
$OLESTARTUP
290
     0
  0
ENDSEC
  0
SECTION
  2
CLASSES
  0
CLASS
  1
ACDBDICTIONARYWDFLT
  2
AcDbDictionaryWithDefault
  3
ObjectDBX Classes
 90
        0
280
     0
281
     0
  0
CLASS
  1
MATERIAL
  2
AcDbMaterial
  3
ObjectDBX Classes
 90
     1153
280
     0
281
     0
  0
CLASS
  1
SORTENTSTABLE
  2
AcDbSortentsTable
  3
ObjectDBX Classes
 90
        0
280
     0
281
     0
  0
CLASS
  1
SCALE
  2
AcDbScale
  3
ObjectDBX Classes
 90
     1153
280
     0
281
     0
  0
CLASS
  1
DICTIONARYVAR
  2
AcDbDictionaryVar
  3
ObjectDBX Classes
 90
        0
280
     0
281
     0
  0
CLASS
  1
VISUALSTYLE
  2
AcDbVisualStyle
  3
ObjectDBX Classes
 90
     4095
280
     0
281
     0
  0
CLASS
  1
MLEADERSTYLE
  2
AcDbMLeaderStyle
  3
ACDB_MLEADERSTYLE_CLASS
 90
     4095
280
     0
281
     0
  0
CLASS
  1
TABLESTYLE
  2
AcDbTableStyle
  3
ObjectDBX Classes
 90
     4095
280
     0
281
     0
  0
CLASS
  1
ACDBPLACEHOLDER
  2
AcDbPlaceHolder
  3
ObjectDBX Classes
 90
        0
280
     0
281
     0
  0
CLASS
  1
LAYOUT
  2
AcDbLayout
  3
ObjectDBX Classes
 90
        0
280
     0
281
     0
  0
ENDSEC
  0
SECTION
  2
TABLES
  0
TABLE
  2
VPORT
  5
2C
102
{ACAD_XDICTIONARY
360
4D1
102
}
330
0
100
AcDbSymbolTable
 70
     1
  0
VPORT
  5
31
330
2C
100
AcDbSymbolTableRecord
100
AcDbViewportTableRecord
  2
*ACTIVE
 70
     0
 10
0.0
 20
0.0
 11
1.0
 21
1.0
 12
619.5372317042766
 22
288.7122023150164
 13
0.0
 23
0.0
 14
1.0
 24
1.0
 15
50.0
 25
50.0
 16
0.0
 26
0.0
 36
1.0
 17
0.0
 27
0.0
 37
0.0
 40
778.4914308403125
 41
2.177611940298507
 42
50.0
 43
0.0
 44
0.0
 50
0.0
 51
0.0
 71
     0
 72
  5000
 73
     1
 74
     0
 75
     0
 76
     0
 77
     0
 78
     0
281
     0
 65
     1
110
0.0
120
0.0
130
0.0
111
1.0
121
0.0
131
0.0
112
0.0
122
1.0
132
0.0
 79
     0
146
0.0
1001
ACAD_NAV_VCDISPLAY
1070
     3
  0
ENDTAB
  0
TABLE
  2
LTYPE
  5
F
330
0
100
AcDbSymbolTable
 70
     2
  0
LTYPE
  5
10
330
F
100
AcDbSymbolTableRecord
100
AcDbLinetypeTableRecord
  2
BYBLOCK
 70
     0
  3

 72
    65
 73
     0
 40
0.0
  0
LTYPE
  5
11
330
F
100
AcDbSymbolTableRecord
100
AcDbLinetypeTableRecord
  2
BYLAYER
 70
     0
  3

 72
    65
 73
     0
 40
0.0
  0
LTYPE
  5
E
330
F
100
AcDbSymbolTableRecord
100
AcDbLinetypeTableRecord
  2
CONTINUOUS
 70
     0
  3
Solid line
 72
    65
 73
     0
 40
0.0
  0
LTYPE
  5
DC
330
F
100
AcDbSymbolTableRecord
100
AcDbLinetypeTableRecord
  2
CENTER
 70
     0
  3
____ _ ____ _ ____ _ ____ _ ____ _ ____ _ ____
 72
    65
 73
     4
 40
2.0
 49
1.25
 74
     0
 49
-0.25
 74
     0
 49
0.25
 74
     0
 49
-0.25
 74
     0
  0
ENDTAB
  0
TABLE
  2
LAYER
  5
2
102
{ACAD_XDICTIONARY
360
3
102
}
330
0
100
AcDbSymbolTable
 70
     8
  0
LAYER
  5
1F
102
{ACAD_XDICTIONARY
360
20
102
}
330
2
100
AcDbSymbolTableRecord
100
AcDbLayerTableRecord
  2
0
 70
     0
 62
     7
  6
CONTINUOUS
370
    -3
390
7
  0
LAYER
  5
2E4
102
{ACAD_XDICTIONARY
360
2E5
102
}
330
2
100
AcDbSymbolTableRecord
100
AcDbLayerTableRecord
  2
1
 70
     0
 62
     9
  6
CONTINUOUS
370
    -3
390
7
  0
LAYER
  5
1
102
{ACAD_XDICTIONARY
360
5
102
}
330
2
100
AcDbSymbolTableRecord
100
AcDbLayerTableRecord
  2
2
 70
     0
 62
     4
  6
CONTINUOUS
370
    -3
390
7
  0
LAYER
  5
78
102
{ACAD_XDICTIONARY
360
79
102
}
330
2
100
AcDbSymbolTableRecord
100
AcDbLayerTableRecord
  2
4
 70
     0
 62
     3
  6
CONTINUOUS
370
    -3
390
7
  0
LAYER
  5
D9
102
{ACAD_XDICTIONARY
360
DA
102
}
330
2
100
AcDbSymbolTableRecord
100
AcDbLayerTableRecord
  2
L-CENTER
 70
     0
 62
     1
  6
CENTER
370
    -3
390
7
  0
LAYER
  5
5B
102
{ACAD_XDICTIONARY
360
5C
102
}
330
2
100
AcDbSymbolTableRecord
100
AcDbLayerTableRecord
  2
3
 70
     0
 62
     2
  6
CONTINUOUS
370
    -3
390
7
  0
LAYER
  5
2DC
102
{ACAD_XDICTIONARY
360
2DD
102
}
330
2
100
AcDbSymbolTableRecord
100
AcDbLayerTableRecord
  2
5
 70
     0
 62
     6
  6
CONTINUOUS
370
    -3
390
7
  0
ENDTAB
  0
TABLE
  2
STYLE
  5
13
330
0
100
AcDbSymbolTable
 70
     2
  0
STYLE
  5
17
330
13
100
AcDbSymbolTableRecord
100
AcDbTextStyleTableRecord
  2
STANDARD
 70
     0
 40
0.0
 41
1.0
 50
0.0
 71
     0
 42
3.6
  3
TXT
  4

  0
STYLE
  5
12
330
13
100
AcDbSymbolTableRecord
100
AcDbTextStyleTableRecord
  2
KANJI
 70
     0
 40
0.0
 41
1.0
 50
0.0
 71
     0
 42
6.0
  3
TXT
  4
BIGFONT
  0
ENDTAB
  0
TABLE
  2
VIEW
  5
2A
330
0
100
AcDbSymbolTable
 70
     0
  0
ENDTAB
  0
TABLE
  2
UCS
  5
2B
330
0
100
AcDbSymbolTable
 70
     0
  0
ENDTAB
  0
TABLE
  2
APPID
  5
D
330
0
100
AcDbSymbolTable
 70
     5
  0
APPID
  5
C
330
D
100
AcDbSymbolTableRecord
100
AcDbRegAppTableRecord
  2
ACAD
 70
     0
  0
APPID
  5
32
330
D
100
AcDbSymbolTableRecord
100
AcDbRegAppTableRecord
  2
ACAD_NAV_VCDISPLAY
 70
     0
  0
APPID
  5
25
330
D
100
AcDbSymbolTableRecord
100
AcDbRegAppTableRecord
  2
ACAD_PSEXT
 70
     0
  0
APPID
  5
4C4
330
D
100
AcDbSymbolTableRecord
100
AcDbRegAppTableRecord
  2
ACAD_MLEADERVER
 70
     0
  0
ENDTAB
  0
TABLE
  2
DIMSTYLE
  5
16
330
0
100
AcDbSymbolTable
 70
     1
100
AcDbDimStyleTable
  0
DIMSTYLE
105
15
330
16
100
AcDbSymbolTableRecord
100
AcDbDimStyleTableRecord
  2
STANDARD
 70
     0
178
     0
340
17
  0
ENDTAB
  0
TABLE
  2
BLOCK_RECORD
  5
1A
330
0
100
AcDbSymbolTable
 70
     0
  0
BLOCK_RECORD
  5
1B
102
{ACAD_XDICTIONARY
360
1C
102
}
330
1A
100
AcDbSymbolTableRecord
100
AcDbBlockTableRecord
  2
*MODEL_SPACE
340
23
  0
BLOCK_RECORD
  5
26
330
1A
100
AcDbSymbolTableRecord
100
AcDbBlockTableRecord
  2
*PAPER_SPACE
340
29
  0
ENDTAB
  0
ENDSEC
  0
SECTION
  2
BLOCKS
  0
BLOCK
  5
1E
330
1B
100
AcDbEntity
  8
0
100
AcDbBlockBegin
  2
*MODEL_SPACE
 70
     0
 10
0.0
 20
0.0
 30
0.0
  3
*MODEL_SPACE
  1

  0
ENDBLK
  5
22
330
1B
100
AcDbEntity
  8
0
100
AcDbBlockEnd
  0
BLOCK
  5
27
330
26
100
AcDbEntity
 67
     1
  8
0
100
AcDbBlockBegin
  2
*PAPER_SPACE
 70
     0
 10
0.0
 20
0.0
 30
0.0
  3
*PAPER_SPACE
  1

  0
ENDBLK
  5
28
330
26
100
AcDbEntity
 67
     1
  8
0
100
AcDbBlockEnd
  0
ENDSEC
  0
SECTION
  2
ENTITIES
  0
LINE
  5
77
330
1B
100
AcDbEntity
  8
4
100
AcDbLine
 10
238.7732453101762
 20
376.8906447139017
 30
0.0
 11
238.7732453101761
 21
338.3906447139017
 31
0.0
  0
LINE
  5
7B
330
1B
100
AcDbEntity
  8
4
100
AcDbLine
 10
262.7732453101761
 20
376.8906447139017
 30
0.0
 11
262.7732453101761
 21
338.3906447139017
 31
0.0
  0
LINE
  5
7C
330
1B
100
AcDbEntity
  8
4
100
AcDbLine
 10
254.2732453101761
 20
337.3906447139017
 30
0.0
 11
254.2732453101761
 21
370.8906447139017
 31
0.0
  0
LINE
  5
7D
330
1B
100
AcDbEntity
  8
4
100
AcDbLine
 10
247.2732453101761
 20
337.3906447139017
 30
0.0
 11
247.2732453101761
 21
370.8906447139017
 31
0.0
  0
LINE
  5
7E
330
1B
100
AcDbEntity
  8
4
100
AcDbLine
 10
254.2732453101762
 20
338.3906447139017
 30
0.0
 11
262.7732453101761
 21
338.3906447139017
 31
0.0
  0
LINE
  5
7F
330
1B
100
AcDbEntity
  8
4
100
AcDbLine
 10
262.7732453101761
 20
338.3906447139017
 30
0.0
 11
261.7732453101761
 21
337.3906447139017
 31
0.0
  0
LINE
  5
80
330
1B
100
AcDbEntity
  8
4
100
AcDbLine
 10
238.7732453101761
 20
338.3906447139017
 30
0.0
 11
239.7732453101761
 21
337.3906447139017
 31
0.0
  0
LINE
  5
81
330
1B
100
AcDbEntity
  8
4
100
AcDbLine
 10
239.7732453101761
 20
337.3906447139017
 30
0.0
 11
261.7732453101761
 21
337.3906447139017
 31
0.0
  0
LINE
  5
82
330
1B
100
AcDbEntity
  8
4
100
AcDbLine
 10
238.7732453101761
 20
338.3906447139017
 30
0.0
 11
247.2732453101761
 21
338.3906447139017
 31
0.0
  0
ARC
  5
83
330
1B
100
AcDbEntity
  8
4
100
AcDbCircle
 10
250.7732453101763
 20
370.8906447139016
 30
0.0
 40
3.5
100
AcDbArc
 50
0.0
 51
180.0
  0
LINE
  5
84
330
1B
100
AcDbEntity
  8
4
100
AcDbLine
 10
274.2732453101761
 20
391.3906447139016
 30
0.0
 11
274.2732453101762
 21
392.3906447139017
 31
0.0
  0
LINE
  5
85
330
1B
100
AcDbEntity
  8
4
100
AcDbLine
 10
263.2732453101761
 20
391.3906447139016
 30
0.0
 11
263.2732453101761
 21
377.3906447139017
 31
0.0
  0
ARC
  5
86
330
1B
100
AcDbEntity
  8
4
100
AcDbCircle
 10
263.2732453101762
 20
376.8906447139016
 30
0.0
 40
0.5
100
AcDbArc
 50
90.0
 51
180.0
  0
LINE
  5
87
330
1B
100
AcDbEntity
  8
4
100
AcDbLine
 10
263.2732453101761
 20
377.3906447139017
 30
0.0
 11
263.2732453101761
 21
377.3906447139017
 31
0.0
  0
LINE
  5
88
330
1B
100
AcDbEntity
  8
4
100
AcDbLine
 10
227.2732453101762
 20
391.3906447139017
 30
0.0
 11
227.2732453101762
 21
392.3906447139017
 31
0.0
  0
LINE
  5
89
330
1B
100
AcDbEntity
  8
4
100
AcDbLine
 10
238.2732453101761
 20
391.3906447139018
 30
0.0
 11
238.2732453101761
 21
377.3906447139017
 31
0.0
  0
ARC
  5
8A
330
1B
100
AcDbEntity
  8
4
100
AcDbCircle
 10
238.2732453101763
 20
376.8906447139016
 30
0.0
 40
0.5
100
AcDbArc
 50
0.0
 51
90.0
  0
LINE
  5
8B
330
1B
100
AcDbEntity
  8
4
100
AcDbLine
 10
238.2732453101761
 20
377.3906447139017
 30
0.0
 11
238.2732453101762
 21
377.3906447139017
 31
0.0
  0
LINE
  5
8C
330
1B
100
AcDbEntity
  8
4
100
AcDbLine
 10
227.2732453101762
 20
391.3906447139018
 30
0.0
 11
274.2732453101761
 21
391.3906447139016
 31
0.0
  0
LINE
  5
8D
330
1B
100
AcDbEntity
  8
4
100
AcDbLine
 10
238.2732453101761
 20
377.3906447139017
 30
0.0
 11
263.2732453101761
 21
377.3906447139017
 31
0.0
  0
CIRCLE
  5
8E
330
1B
100
AcDbEntity
  8
4
100
AcDbCircle
 10
250.7732453101762
 20
136.7524871658227
 30
0.0
 40
23.5
  0
ARC
  5
8F
330
1B
100
AcDbEntity
  8
4
100
AcDbCircle
 10
250.7732453101762
 20
136.7524871658227
 30
0.0
 40
12.0
100
AcDbArc
 50
106.9577633000041
 51
73.04223800000044
  0
LINE
  5
90
330
1B
100
AcDbEntity
  8
4
100
AcDbLine
 10
254.2732453101762
 20
151.7524871658227
 30
0.0
 11
254.2732453101762
 21
144.7524871658227
 31
0.0
  0
LINE
  5
91
330
1B
100
AcDbEntity
  8
4
100
AcDbLine
 10
247.2732453101762
 20
144.7524871658227
 30
0.0
 11
247.2732453101762
 21
151.7524871658227
 31
0.0
  0
LINE
  5
92
330
1B
100
AcDbEntity
  8
4
100
AcDbLine
 10
254.2732453101762
 20
144.7524871658227
 30
0.0
 11
247.2732453101762
 21
144.7524871658227
 31
0.0
  0
LINE
  5
93
330
1B
100
AcDbEntity
  8
4
100
AcDbLine
 10
254.2732453101762
 20
151.7524871658227
 30
0.0
 11
247.2732453101762
 21
151.7524871658227
 31
0.0
  0
LINE
  5
A9
330
1B
100
AcDbEntity
  8
4
100
AcDbLine
 10
496.4930682466851
 20
124.7524871658227
 30
0.0
 11
457.4930682466851
 21
124.7524871658227
 31
0.0
  0
LINE
  5
AA
330
1B
100
AcDbEntity
  8
4
100
AcDbLine
 10
496.4930682466851
 20
148.7524871658227
 30
0.0
 11
457.4930682466851
 21
148.7524871658227
 31
0.0
  0
LINE
  5
AB
330
1B
100
AcDbEntity
  8
4
100
AcDbLine
 10
456.4930682466851
 20
151.7524871658227
 30
0.0
 11
493.4930682466851
 21
151.7524871658227
 31
0.0
  0
LINE
  5
AC
330
1B
100
AcDbEntity
  8
4
100
AcDbLine
 10
510.493068246685
 20
160.2524871658227
 30
0.0
 11
510.493068246685
 21
113.2524871658227
 31
0.0
  0
LINE
  5
AD
330
1B
100
AcDbEntity
  8
4
100
AcDbLine
 10
510.493068246685
 20
113.2524871658227
 30
0.0
 11
511.493068246685
 21
113.2524871658227
 31
0.0
  0
LINE
  5
AE
330
1B
100
AcDbEntity
  8
4
100
AcDbLine
 10
493.4930682466851
 20
151.7524871658227
 30
0.0
 11
493.4930682466851
 21
148.7524871658227
 31
0.0
  0
LINE
  5
AF
330
1B
100
AcDbEntity
  8
4
100
AcDbLine
 10
496.4930682466851
 20
149.2524871658227
 30
0.0
 11
496.4930682466851
 21
124.2524871658227
 31
0.0
  0
LINE
  5
B0
330
1B
100
AcDbEntity
  8
4
100
AcDbLine
 10
496.4930682466851
 20
124.2524871658227
 30
0.0
 11
510.493068246685
 21
124.2524871658227
 31
0.0
  0
LINE
  5
B1
330
1B
100
AcDbEntity
  8
4
100
AcDbLine
 10
496.4930682466851
 20
149.2524871658227
 30
0.0
 11
510.493068246685
 21
149.2524871658227
 31
0.0
  0
LINE
  5
B2
330
1B
100
AcDbEntity
  8
4
100
AcDbLine
 10
511.493068246685
 20
160.2524871658227
 30
0.0
 11
510.493068246685
 21
160.2524871658227
 31
0.0
  0
LINE
  5
B3
330
1B
100
AcDbEntity
  8
4
100
AcDbLine
 10
456.4930682466851
 20
151.7524871658227
 30
0.0
 11
456.4930682466851
 21
125.7524871658227
 31
0.0
  0
LINE
  5
B4
330
1B
100
AcDbEntity
  8
4
100
AcDbLine
 10
457.4930682466851
 20
148.7524871658227
 30
0.0
 11
457.4930682466851
 21
124.7524871658227
 31
0.0
  0
LINE
  5
B5
330
1B
100
AcDbEntity
  8
4
100
AcDbLine
 10
457.4930682466851
 20
124.7524871658227
 30
0.0
 11
456.4930682466851
 21
125.7524871658227
 31
0.0
  0
LINE
  5
B6
330
1B
100
AcDbEntity
  8
4
100
AcDbLine
 10
456.4930682466851
 20
147.7524871658227
 30
0.0
 11
457.4930682466851
 21
148.7524871658227
 31
0.0
  0
LINE
  5
B9
330
1B
100
AcDbEntity
  8
4
100
AcDbLine
 10
120.7732453101762
 20
455.3906447139017
 30
0.0
 11
121.7732453101762
 21
456.3906447139017
 31
0.0
  0
ARC
  5
BA
330
1B
100
AcDbEntity
  8
4
100
AcDbCircle
 10
150.2732453101762
 20
447.3906447139017
 30
0.0
 40
2.5
100
AcDbArc
 50
270.0
 51
90.0
  0
LINE
  5
BB
330
1B
100
AcDbEntity
  8
4
100
AcDbLine
 10
120.7732453101762
 20
444.8906447139017
 30
0.0
 11
150.2732453101763
 21
444.8906447139017
 31
0.0
  0
LINE
  5
BC
330
1B
100
AcDbEntity
  8
4
100
AcDbLine
 10
120.7732453101762
 20
449.8906447139016
 30
0.0
 11
150.2732453101763
 21
449.8906447139017
 31
0.0
  0
LINE
  5
BD
330
1B
100
AcDbEntity
  8
4
100
AcDbLine
 10
120.7732453101762
 20
455.3906447139017
 30
0.0
 11
120.7732453101762
 21
439.3906447139017
 31
0.0
  0
LINE
  5
BE
330
1B
100
AcDbEntity
  8
4
100
AcDbLine
 10
121.7732453101762
 20
449.8906447139017
 30
0.0
 11
121.7732453101762
 21
456.3906447139017
 31
0.0
  0
LINE
  5
BF
330
1B
100
AcDbEntity
  8
4
100
AcDbLine
 10
169.7732453101762
 20
457.3906447139017
 30
0.0
 11
155.7732453101762
 21
457.3906447139017
 31
0.0
  0
LINE
  5
C0
330
1B
100
AcDbEntity
  8
4
100
AcDbLine
 10
155.7732453101762
 20
456.3906447139017
 30
0.0
 11
121.7732453101762
 21
456.3906447139017
 31
0.0
  0
LINE
  5
C1
330
1B
100
AcDbEntity
  8
4
100
AcDbLine
 10
155.7732453101762
 20
437.3906447139017
 30
0.0
 11
169.7732453101762
 21
437.3906447139017
 31
0.0
  0
LINE
  5
C2
330
1B
100
AcDbEntity
  8
4
100
AcDbLine
 10
155.7732453101762
 20
438.3906447139017
 30
0.0
 11
121.7732453101762
 21
438.3906447139017
 31
0.0
  0
LINE
  5
C3
330
1B
100
AcDbEntity
  8
4
100
AcDbLine
 10
155.7732453101762
 20
457.3906447139017
 30
0.0
 11
155.7732453101762
 21
437.3906447139017
 31
0.0
  0
LINE
  5
C4
330
1B
100
AcDbEntity
  8
4
100
AcDbLine
 10
121.7732453101762
 20
438.3906447139017
 30
0.0
 11
121.7732453101762
 21
444.8906447139017
 31
0.0
  0
LINE
  5
C5
330
1B
100
AcDbEntity
  8
4
100
AcDbLine
 10
121.7732453101762
 20
438.3906447139017
 30
0.0
 11
120.7732453101762
 21
439.3906447139017
 31
0.0
  0
LINE
  5
CC
330
1B
100
AcDbEntity
  8
4
100
AcDbLine
 10
120.7732453101762
 20
223.7524871658228
 30
0.0
 11
120.7732453101762
 21
204.7524871658228
 31
0.0
  0
LINE
  5
CD
330
1B
100
AcDbEntity
  8
4
100
AcDbLine
 10
121.7732453101762
 20
203.7524871658228
 30
0.0
 11
121.7732453101762
 21
221.7524871658228
 31
0.0
  0
LINE
  5
CE
330
1B
100
AcDbEntity
  8
4
100
AcDbLine
 10
155.7732453101762
 20
222.7524871658228
 30
0.0
 11
155.7732453101762
 21
202.7524871658228
 31
0.0
  0
LINE
  5
CF
330
1B
100
AcDbEntity
  8
4
100
AcDbLine
 10
155.7732453101762
 20
203.7524871658228
 30
0.0
 11
121.7732453101762
 21
203.7524871658228
 31
0.0
  0
LINE
  5
D0
330
1B
100
AcDbEntity
  8
4
100
AcDbLine
 10
155.7732453101762
 20
202.7524871658228
 30
0.0
 11
169.7732453101762
 21
202.7524871658228
 31
0.0
  0
LINE
  5
D1
330
1B
100
AcDbEntity
  8
4
100
AcDbLine
 10
121.7732453101762
 20
203.7524871658228
 30
0.0
 11
120.7732453101762
 21
204.7524871658228
 31
0.0
  0
LINE
  5
D2
330
1B
100
AcDbEntity
  8
4
100
AcDbLine
 10
155.7732453101762
 20
221.7524871658228
 30
0.0
 11
121.7732453101762
 21
221.7524871658228
 31
0.0
  0
LINE
  5
D3
330
1B
100
AcDbEntity
  8
4
100
AcDbLine
 10
169.7732453101762
 20
222.7524871658228
 30
0.0
 11
155.7732453101762
 21
222.7524871658228
 31
0.0
  0
LINE
  5
D4
330
1B
100
AcDbEntity
  8
4
100
AcDbLine
 10
120.7732453101762
 20
223.7524871658228
 30
0.0
 11
152.7732453101762
 21
223.7524871658228
 31
0.0
  0
LINE
  5
D5
330
1B
100
AcDbEntity
  8
4
100
AcDbLine
 10
152.7732453101762
 20
223.7524871658228
 30
0.0
 11
152.7732453101762
 21
221.7524871658228
 31
0.0
  0
LINE
  5
D6
330
1B
100
AcDbEntity
  8
4
100
AcDbLine
 10
120.7732453101762
 20
220.7524871658228
 30
0.0
 11
121.7732453101762
 21
221.7524871658228
 31
0.0
  0
LINE
  5
D8
330
1B
100
AcDbEntity
  8
L-CENTER
 48
2.0
100
AcDbLine
 10
566.4930682466851
 20
39.98731948422829
 30
0.0
 11
566.4930682466851
 21
258.5837538676649
 31
0.0
  0
LINE
  5
DD
330
1B
100
AcDbEntity
  8
4
 62
     3
100
AcDbLine
 10
605.4930682466851
 20
64.75248716582274
 30
0.0
 11
605.4930682466851
 21
214.7524871658227
 31
0.0
  0
LINE
  5
DE
330
1B
100
AcDbEntity
  8
4
 62
     3
100
AcDbLine
 10
525.4930682466851
 20
64.75248716582274
 30
0.0
 11
525.4930682466851
 21
213.7524871658227
 31
0.0
  0
LINE
  5
DF
330
1B
100
AcDbEntity
  8
4
100
AcDbLine
 10
532.4930622466851
 20
215.7524871658227
 30
0.0
 11
532.4930622466851
 21
64.75248716582274
 31
0.0
  0
LINE
  5
E0
330
1B
100
AcDbEntity
  8
4
100
AcDbLine
 10
600.4930682466851
 20
215.7524871658227
 30
0.0
 11
600.4930682466851
 21
64.75248716582269
 31
0.0
  0
LINE
  5
E1
330
1B
100
AcDbEntity
  8
4
100
AcDbLine
 10
615.293068246685
 20
64.75248716582269
 30
0.0
 11
615.293068246685
 21
213.7524871658227
 31
0.0
  0
LINE
  5
E5
330
1B
100
AcDbEntity
  8
4
100
AcDbLine
 10
598.9930682466851
 20
212.7524871658227
 30
0.0
 11
598.9930682466851
 21
169.5549261658227
 31
0.0
  0
LINE
  5
E6
330
1B
100
AcDbEntity
  8
4
100
AcDbLine
 10
520.736023246685
 20
169.6494811658227
 30
0.0
 11
525.4930682466851
 21
197.0024884437543
 31
0.0
  0
LINE
  5
E7
330
1B
100
AcDbEntity
  8
4
100
AcDbLine
 10
533.9930682466851
 20
212.7524871658227
 30
0.0
 11
533.9930682466851
 21
169.5549261658227
 31
0.0
  0
CIRCLE
  5
E8
330
1B
100
AcDbEntity
  8
4
100
AcDbCircle
 10
566.4930682466851
 20
212.7524871658227
 30
0.0
 40
32.5
  0
ARC
  5
EA
330
1B
100
AcDbEntity
  8
4
 62
     3
100
AcDbCircle
 10
60.77324531017621
 20
136.7524871658227
 30
0.0
 40
270.0
100
AcDbArc
 50
345.898739
 51
14.78908400000003
  0
ARC
  5
EB
330
1B
100
AcDbEntity
  8
4
 62
     3
100
AcDbCircle
 10
250.7732453101762
 20
136.7524871658227
 30
0.0
 40
66.0
100
AcDbArc
 50
105.8689209862304
 51
270.0
  0
LINE
  5
EC
330
1B
100
AcDbEntity
  8
L-CENTER
 48
2.0
100
AcDbLine
 10
250.7732453101762
 20
50.38383516582275
 30
0.0
 11
250.7732453101762
 21
250.5057320747322
 31
0.0
  0
ARC
  5
ED
330
1B
100
AcDbEntity
  8
4
 62
     3
100
AcDbCircle
 10
250.7732453101762
 20
136.7524871658227
 30
0.0
 40
66.0
100
AcDbArc
 50
270.0
 51
74.13107901376965
  0
ARC
  5
EE
330
1B
100
AcDbEntity
  8
4
 62
     3
100
AcDbCircle
 10
250.7732453101762
 20
136.7524871658227
 30
0.0
 40
78.0
100
AcDbArc
 50
270.0
 51
90.0
  0
ARC
  5
EF
330
1B
100
AcDbEntity
  8
4
 62
     3
100
AcDbCircle
 10
440.7732453101762
 20
136.7524871658227
 30
0.0
 40
270.0
100
AcDbArc
 50
165.210916
 51
194.101261
  0
ARC
  5
F0
330
1B
100
AcDbEntity
  8
4
 62
     3
100
AcDbCircle
 10
250.7732453101762
 20
136.7524871658227
 30
0.0
 40
78.0
100
AcDbArc
 50
90.0
 51
270.0
  0
LINE
  5
F1
330
1B
100
AcDbEntity
  8
4
 62
     3
100
AcDbLine
 10
172.7732453101762
 20
169.5549261658228
 30
0.0
 11
172.7732453101762
 21
201.7524871658227
 31
0.0
  0
LINE
  5
F2
330
1B
100
AcDbEntity
  8
4
 62
     3
100
AcDbLine
 10
170.7732453101762
 20
180.2524871658227
 30
0.0
 11
170.7732453101762
 21
245.2524871658227
 31
0.0
  0
LINE
  5
F3
330
1B
100
AcDbEntity
  8
4
 62
     3
100
AcDbLine
 10
170.7732453101762
 20
180.2524871658227
 30
0.0
 11
170.7732453101762
 21
245.2524871658227
 31
0.0
  0
LINE
  5
F4
330
1B
100
AcDbEntity
  8
4
 62
     3
100
AcDbLine
 10
170.7732453101762
 20
180.2524871658227
 30
0.0
 11
170.7732453101762
 21
245.2524871658227
 31
0.0
  0
LINE
  5
F5
330
1B
100
AcDbEntity
  8
4
 62
     3
100
AcDbLine
 10
328.7732453101762
 20
169.5549261658228
 30
0.0
 11
328.7732453101762
 21
201.7524871658227
 31
0.0
  0
LINE
  5
F6
330
1B
100
AcDbEntity
  8
4
 62
     3
100
AcDbLine
 10
330.7732453101762
 20
180.2524871658227
 30
0.0
 11
330.7732453101762
 21
245.2524871658227
 31
0.0
  0
LINE
  5
F7
330
1B
100
AcDbEntity
  8
4
 62
     3
100
AcDbLine
 10
330.7732453101762
 20
180.2524871658227
 30
0.0
 11
330.7732453101762
 21
245.2524871658227
 31
0.0
  0
LINE
  5
10C
330
1B
100
AcDbEntity
  8
L-CENTER
 48
2.0
100
AcDbLine
 10
75.78955306189192
 20
227.4675751658228
 30
0.0
 11
75.78955306189192
 21
198.037399165823
 31
0.0
  0
ARC
  5
10D
330
1B
100
AcDbEntity
  8
4
100
AcDbCircle
 10
75.78955306189192
 20
212.7524871658229
 30
0.0
 40
9.000002
100
AcDbArc
 50
106.1276165314944
 51
73.8723879999999
  0
LINE
  5
113
330
1B
100
AcDbEntity
  8
4
100
AcDbLine
 10
78.28955306189192
 20
223.7524871658229
 30
0.0
 11
78.28955306189192
 21
218.7524871658229
 31
0.0
  0
LINE
  5
114
330
1B
100
AcDbEntity
  8
4
100
AcDbLine
 10
73.28955306189192
 20
218.7524871658229
 30
0.0
 11
73.28955306189192
 21
223.7524871658229
 31
0.0
  0
LINE
  5
117
330
1B
100
AcDbEntity
  8
4
100
AcDbLine
 10
78.28955306189192
 20
218.7524871658229
 30
0.0
 11
73.28955306189192
 21
218.7524871658229
 31
0.0
  0
LINE
  5
118
330
1B
100
AcDbEntity
  8
L-CENTER
 48
2.0
100
AcDbLine
 10
90.50464106189185
 20
212.7524871658229
 30
0.0
 11
61.074465061892
 21
212.7524871658229
 31
0.0
  0
LINE
  5
11F
330
1B
100
AcDbEntity
  8
4
100
AcDbLine
 10
78.28955306189192
 20
223.7524871658229
 30
0.0
 11
73.28955306189192
 21
223.7524871658229
 31
0.0
  0
LINE
  5
137
330
1B
100
AcDbEntity
  8
4
 62
     3
100
AcDbLine
 10
320.2732453101762
 20
63.75248716582274
 30
0.0
 11
320.2732453101762
 21
44.75248716582274
 31
0.0
  0
LINE
  5
138
330
1B
100
AcDbEntity
  8
4
 62
     3
100
AcDbLine
 10
318.2732453101762
 20
63.75248716582274
 30
0.0
 11
318.2732453101762
 21
44.75248716582274
 31
0.0
  0
ARC
  5
139
330
1B
100
AcDbEntity
  8
4
 62
     3
100
AcDbCircle
 10
313.2732453101762
 20
50.75248716582274
 30
0.0
 40
5.0
100
AcDbArc
 50
0.0
 51
90.0
  0
LINE
  5
13A
330
1B
100
AcDbEntity
  8
4
 62
     3
100
AcDbLine
 10
358.2732453101762
 20
63.75248716582274
 30
0.0
 11
358.2732453101762
 21
44.75248716582274
 31
0.0
  0
LINE
  5
13B
330
1B
100
AcDbEntity
  8
4
100
AcDbLine
 10
351.2732453101762
 20
64.75248716582274
 30
0.0
 11
351.2732453101762
 21
44.75248716582274
 31
0.0
  0
LINE
  5
13C
330
1B
100
AcDbEntity
  8
L-CENTER
 48
2.0
100
AcDbLine
 10
345.7732453101762
 20
71.75248716582274
 30
0.0
 11
345.7732453101762
 21
37.75248716582274
 31
0.0
  0
LINE
  5
13D
330
1B
100
AcDbEntity
  8
4
100
AcDbLine
 10
340.2732453101762
 20
64.75248716582274
 30
0.0
 11
340.2732453101762
 21
44.75248716582274
 31
0.0
  0
LWPOLYLINE
  5
13E
330
1B
100
AcDbEntity
  8
4
100
AcDbPolyline
 90
       30
 70
     0
 43
0.0
 10
334.9281973101763
 20
64.72011116582274
 10
335.2900613101763
 20
64.35821716582274
 10
335.6362093101761
 20
63.99520316582272
 10
335.9509213101762
 20
63.62995116582277
 10
336.2184813101762
 20
63.26134116582267
 10
336.4231713101763
 20
62.88825316582273
 10
336.5492773101762
 20
62.50957116582282
 10
336.5858933101763
 20
62.1467371658228
 10
336.5484573101762
 20
61.77838116582274
 10
336.4466953101762
 20
61.40494316582277
 10
335.8527333101763
 20
60.25857116582273
 10
335.0300573101763
 20
59.08240316582277
 10
334.2413333101763
 20
57.88839116582272
 10
334.0313693101762
 20
57.48848516582274
 10
333.8640913101763
 20
57.08836716582272
 10
333.7492273101761
 20
56.68848116582268
 10
333.6886033101762
 20
56.16924916582281
 10
333.7205413101763
 20
55.65090116582275
 10
333.8324793101763
 20
55.13318716582268
 10
334.5227013101762
 20
53.58130916582269
 10
335.4807733101761
 20
52.02602116582278
 10
336.3675853101763
 20
50.4604971658228
 10
336.5887393101762
 20
49.93520316582277
 10
336.7517353101762
 20
49.40775916582271
 10
336.8440153101762
 20
48.8779151658228
 10
336.8352173101762
 20
48.07461716582276
 10
336.6750913101762
 20
47.26649716582273
 10
336.4014673101763
 20
46.45475916582274
 10
336.0521793101761
 20
45.6406111658228
 10
335.6650593101763
 20
44.82525716582273
  0
LINE
  5
141
330
1B
100
AcDbEntity
  8
4
 62
     3
100
AcDbLine
 10
183.2732453101762
 20
63.75248716582274
 30
0.0
 11
183.2732453101762
 21
44.75248716582274
 31
0.0
  0
LINE
  5
142
330
1B
100
AcDbEntity
  8
4
 62
     3
100
AcDbLine
 10
181.2732453101762
 20
63.75248716582274
 30
0.0
 11
181.2732453101762
 21
44.75248716582274
 31
0.0
  0
ARC
  5
143
330
1B
100
AcDbEntity
  8
4
 62
     3
100
AcDbCircle
 10
188.2732453101762
 20
50.75248716582274
 30
0.0
 40
5.0
100
AcDbArc
 50
90.0
 51
180.0
  0
LINE
  5
144
330
1B
100
AcDbEntity
  8
L-CENTER
 48
2.0
100
AcDbLine
 10
155.7732453101762
 20
71.75248716582274
 30
0.0
 11
155.7732453101762
 21
37.75248716582274
 31
0.0
  0
LINE
  5
145
330
1B
100
AcDbEntity
  8
4
 62
     3
100
AcDbLine
 10
143.2732453101762
 20
63.75248716582274
 30
0.0
 11
143.2732453101762
 21
44.75248716582274
 31
0.0
  0
LINE
  5
150
330
1B
100
AcDbEntity
  8
4
 62
     3
100
AcDbLine
 10
143.2732453101762
 20
44.75248716582274
 30
0.0
 11
183.2732453101762
 21
44.75248716582274
 31
0.0
  0
TEXT
  5
154
330
1B
100
AcDbEntity
  8
3
100
AcDbText
 10
399.6347644643646
 20
15.14168951154153
 30
0.0
 40
6.0
  1
LB2-07
  7
KANJI
 72
     1
 11
416.1347644643646
 21
15.14168951154153
 31
0.0
100
AcDbText
  0
LINE
  5
15B
330
1B
100
AcDbEntity
  8
4
 62
     3
100
AcDbLine
 10
318.2732453101762
 20
44.75248716582274
 30
0.0
 11
358.2732453101762
 21
44.75248716582274
 31
0.0
  0
ARC
  5
15F
330
1B
100
AcDbEntity
  8
4
 62
     3
100
AcDbCircle
 10
250.7732453101762
 20
326.7524871658227
 30
0.0
 40
270.0
100
AcDbArc
 50
270.0
 51
283.1365589999999
  0
LINE
  5
160
330
1B
100
AcDbEntity
  8
4
 62
     3
100
AcDbLine
 10
188.2732453101762
 20
55.75248716582274
 30
0.0
 11
313.2732453101762
 21
55.75248716582274
 31
0.0
  0
LINE
  5
161
330
1B
100
AcDbEntity
  8
4
 62
     3
100
AcDbLine
 10
283.7316523101763
 20
119.4044011658228
 30
0.0
 11
310.7541323101761
 21
121.0578501658227
 31
0.0
  0
LINE
  5
162
330
1B
100
AcDbEntity
  8
4
 62
     3
100
AcDbLine
 10
310.7123132455019
 20
152.4496829868735
 30
0.0
 11
283.7381668214698
 21
154.1001745565098
 31
0.0
  0
LINE
  5
163
330
1B
100
AcDbEntity
  8
L-CENTER
 48
2.0
100
AcDbLine
 10
164.4045933101762
 20
136.7524871658227
 30
0.0
 11
337.1418973101762
 21
136.7524871658227
 31
0.0
  0
ARC
  5
164
330
1B
100
AcDbEntity
  8
4
 62
     3
100
AcDbCircle
 10
130.7732453101762
 20
136.7524871658227
 30
0.0
 40
150.0
100
AcDbArc
 50
350.2559519999999
 51
9.744047999999987
  0
ARC
  5
165
330
1B
100
AcDbEntity
  8
4
 62
     3
100
AcDbCircle
 10
132.2732453101762
 20
136.7524871658227
 30
0.0
 40
150.0
100
AcDbArc
 50
349.751247
 51
10.24875300000003
  0
ARC
  5
166
330
1B
100
AcDbEntity
  8
4
 62
     3
100
AcDbCircle
 10
283.9148733101761
 20
116.4100011658227
 30
0.0
 40
3.0
100
AcDbArc
 50
93.50144499999976
 51
172.3594759999997
  0
ARC
  5
167
330
1B
100
AcDbEntity
  8
4
 62
     3
100
AcDbCircle
 10
370.7732453101762
 20
136.7524871658227
 30
0.0
 40
150.0
100
AcDbArc
 50
170.255952
 51
189.744048
  0
ARC
  5
168
330
1B
100
AcDbEntity
  8
4
 62
     3
100
AcDbCircle
 10
369.2732453101762
 20
136.7524871658227
 30
0.0
 40
150.0
100
AcDbArc
 50
169.751247
 51
190.2487529999999
  0
ARC
  5
169
330
1B
100
AcDbEntity
  8
4
 62
     3
100
AcDbCircle
 10
190.6091373101763
 20
118.0634501658228
 30
0.0
 40
3.0
100
AcDbArc
 50
86.49855500000022
 51
197.2565870000001
  0
ARC
  5
16A
330
1B
100
AcDbEntity
  8
4
 62
     3
100
AcDbCircle
 10
217.6316173101764
 20
116.4100011658227
 30
0.0
 40
3.0
100
AcDbArc
 50
7.640524000000441
 51
86.49855500000022
  0
LINE
  5
16B
330
1B
100
AcDbEntity
  8
4
100
AcDbLine
 10
168.7732453101762
 20
96.25248716582274
 30
0.0
 11
168.7732453101762
 21
119.2524871658227
 31
0.0
  0
LINE
  5
16C
330
1B
100
AcDbEntity
  8
4
 62
     3
100
AcDbLine
 10
170.7732453101762
 20
136.7524871658227
 30
0.0
 11
170.7732453101762
 21
69.75248716582274
 31
0.0
  0
LINE
  5
16D
330
1B
100
AcDbEntity
  8
4
100
AcDbLine
 10
160.2732453101762
 20
95.25248716582274
 30
0.0
 11
160.2732453101762
 21
120.2524871658227
 31
0.0
  0
LINE
  5
16E
330
1B
100
AcDbEntity
  8
4
100
AcDbLine
 10
165.2732453101762
 20
120.2524871658227
 30
0.0
 11
165.2732453101762
 21
95.25248716582274
 31
0.0
  0
LINE
  5
16F
330
1B
100
AcDbEntity
  8
4
100
AcDbLine
 10
167.2732453101762
 20
95.25248716582274
 30
0.0
 11
167.2732453101762
 21
120.2524871658227
 31
0.0
  0
LINE
  5
170
330
1B
100
AcDbEntity
  8
4
 62
     3
100
AcDbLine
 10
168.7732453101762
 20
92.75248716582274
 30
0.0
 11
168.7732453101762
 21
122.7524871658227
 31
0.0
  0
ARC
  5
171
330
1B
100
AcDbEntity
  8
4
 62
     3
100
AcDbCircle
 10
250.7732453101762
 20
326.7524871658227
 30
0.0
 40
270.0
100
AcDbArc
 50
256.863441
 51
270.0
  0
LINE
  5
172
330
1B
100
AcDbEntity
  8
4
 62
     3
100
AcDbLine
 10
169.7732453101762
 20
92.25248716582274
 30
0.0
 11
169.7732453101762
 21
84.75248716582274
 31
0.0
  0
ARC
  5
173
330
1B
100
AcDbEntity
  8
4
 62
     3
100
AcDbCircle
 10
174.0599163101763
 20
69.75248716582274
 30
0.0
 40
5.0
100
AcDbArc
 50
270.0
 51
14.10126100000022
  0
LINE
  5
174
330
1B
100
AcDbEntity
  8
4
 62
     3
100
AcDbLine
 10
168.7732453101762
 20
69.25248716582274
 30
0.0
 11
168.7732453101762
 21
84.25248716582274
 31
0.0
  0
LINE
  5
175
330
1B
100
AcDbEntity
  8
4
 62
     3
100
AcDbLine
 10
144.2732453101762
 20
64.75248716582274
 30
0.0
 11
182.2732453101762
 21
64.75248716582274
 31
0.0
  0
ARC
  5
176
330
1B
100
AcDbEntity
  8
4
 62
     3
100
AcDbCircle
 10
144.2732453101762
 20
63.75248716582274
 30
0.0
 40
1.0
100
AcDbArc
 50
90.0
 51
180.0
  0
ARC
  5
177
330
1B
100
AcDbEntity
  8
4
 62
     3
100
AcDbCircle
 10
182.2732453101762
 20
63.75248716582274
 30
0.0
 40
1.0
100
AcDbArc
 50
0.0
 51
90.0
  0
ARC
  5
178
330
1B
100
AcDbEntity
  8
4
 62
     3
100
AcDbCircle
 10
180.2732453101762
 20
63.75248716582274
 30
0.0
 40
1.0
100
AcDbArc
 50
0.0
 51
90.0
  0
ARC
  5
179
330
1B
100
AcDbEntity
  8
4
 62
     3
100
AcDbCircle
 10
188.2732453101762
 20
58.94892116582275
 30
0.0
 40
5.0
100
AcDbArc
 50
76.86344100000008
 51
180.0
  0
ARC
  5
17A
330
1B
100
AcDbEntity
  8
4
 62
     3
100
AcDbCircle
 10
165.7732453101762
 20
69.75248716582274
 30
0.0
 40
5.0
100
AcDbArc
 50
270.0
 51
0.0
  0
ARC
  5
17B
330
1B
100
AcDbEntity
  8
4
 62
     3
100
AcDbCircle
 10
169.1607273101762
 20
68.75248716582274
 30
0.0
 40
0.5
100
AcDbArc
 50
347.1604120000013
 51
90.0
  0
LINE
  5
17C
330
1B
100
AcDbEntity
  8
4
 62
     3
100
AcDbLine
 10
169.1607273101762
 20
69.25248716582274
 30
0.0
 11
168.7732453101762
 21
69.25248716582274
 31
0.0
  0
ARC
  5
17D
330
1B
100
AcDbEntity
  8
4
 62
     3
100
AcDbCircle
 10
164.7732453101762
 20
69.75248716582274
 30
0.0
 40
5.0
100
AcDbArc
 50
270.0
 51
347.1604119999997
  0
LINE
  5
17E
330
1B
100
AcDbEntity
  8
4
100
AcDbLine
 10
167.7732453101762
 20
72.25248716582274
 30
0.0
 11
167.7732453101762
 21
81.25248716582274
 31
0.0
  0
LINE
  5
17F
330
1B
100
AcDbEntity
  8
4
100
AcDbLine
 10
167.7732453101762
 20
72.25248716582274
 30
0.0
 11
168.7732453101762
 21
72.25248716582274
 31
0.0
  0
LINE
  5
180
330
1B
100
AcDbEntity
  8
4
100
AcDbLine
 10
167.7732453101762
 20
81.25248716582274
 30
0.0
 11
168.7732453101762
 21
81.25248716582274
 31
0.0
  0
ARC
  5
181
330
1B
100
AcDbEntity
  8
4
 62
     3
100
AcDbCircle
 10
169.2732453101762
 20
84.75248716582274
 30
0.0
 40
0.5
100
AcDbArc
 50
270.0
 51
0.0
  0
LINE
  5
182
330
1B
100
AcDbEntity
  8
4
 62
     3
100
AcDbLine
 10
169.2732453101762
 20
84.25248716582274
 30
0.0
 11
168.7732453101762
 21
84.25248716582274
 31
0.0
  0
LINE
  5
183
330
1B
100
AcDbEntity
  8
L-CENTER
 48
2.0
100
AcDbLine
 10
181.2978423101763
 20
76.75248716582274
 30
0.0
 11
165.8570773101762
 21
76.75248716582274
 31
0.0
  0
LINE
  5
184
330
1B
100
AcDbEntity
  8
4
100
AcDbLine
 10
160.2732453101762
 20
95.25248716582274
 30
0.0
 11
167.2732453101762
 21
95.25248716582274
 31
0.0
  0
LINE
  5
185
330
1B
100
AcDbEntity
  8
4
100
AcDbLine
 10
165.2732453101762
 20
101.5024871658227
 30
0.0
 11
160.2732453101762
 21
101.5024871658227
 31
0.0
  0
LINE
  5
186
330
1B
100
AcDbEntity
  8
4
100
AcDbLine
 10
168.7732453101762
 20
96.25248716582274
 30
0.0
 11
167.2732453101762
 21
96.25248716582274
 31
0.0
  0
LINE
  5
187
330
1B
100
AcDbEntity
  8
4
 62
     3
100
AcDbLine
 10
169.2732453101762
 20
92.75248716582274
 30
0.0
 11
168.7732453101762
 21
92.75248716582274
 31
0.0
  0
ARC
  5
188
330
1B
100
AcDbEntity
  8
4
 62
     3
100
AcDbCircle
 10
169.2732453101762
 20
92.25248716582274
 30
0.0
 40
0.5
100
AcDbArc
 50
0.0
 51
90.0
  0
LINE
  5
189
330
1B
100
AcDbEntity
  8
4
100
AcDbLine
 10
165.2732453101762
 20
114.0024871658227
 30
0.0
 11
160.2732453101762
 21
114.0024871658227
 31
0.0
  0
LINE
  5
18A
330
1B
100
AcDbEntity
  8
L-CENTER
 48
2.0
100
AcDbLine
 10
178.3556733101761
 20
107.7524871658227
 30
0.0
 11
156.5095763350637
 21
107.7524871658227
 31
0.0
  0
LINE
  5
18B
330
1B
100
AcDbEntity
  8
4
 62
     3
100
AcDbLine
 10
268.1213313101762
 20
103.7940801658228
 30
0.0
 11
266.4678823101763
 21
76.77160016582269
 31
0.0
  0
LINE
  5
18C
330
1B
100
AcDbEntity
  8
4
 62
     3
100
AcDbLine
 10
233.4251593101762
 20
103.7940801658228
 30
0.0
 11
235.0786083101762
 21
76.77160016582269
 31
0.0
  0
ARC
  5
18D
330
1B
100
AcDbEntity
  8
4
 62
     3
100
AcDbCircle
 10
232.0842083101761
 20
76.58837916582274
 30
0.0
 40
3.0
100
AcDbArc
 50
252.7434130000001
 51
3.501444999999718
  0
ARC
  5
18E
330
1B
100
AcDbEntity
  8
4
 62
     3
100
AcDbCircle
 10
269.4622823101763
 20
76.58837916582274
 30
0.0
 40
3.0
100
AcDbArc
 50
176.4985550000003
 51
287.256587
  0
ARC
  5
18F
330
1B
100
AcDbEntity
  8
4
 62
     3
100
AcDbCircle
 10
250.7732453101762
 20
256.7524871658227
 30
0.0
 40
150.0
100
AcDbArc
 50
260.255952
 51
279.744048
  0
ARC
  5
190
330
1B
100
AcDbEntity
  8
4
 62
     3
100
AcDbCircle
 10
250.7732453101762
 20
255.2524871658227
 30
0.0
 40
150.0
100
AcDbArc
 50
259.751128601455
 51
280.248753
  0
ARC
  5
191
330
1B
100
AcDbEntity
  8
4
 62
     3
100
AcDbCircle
 10
230.4307593101762
 20
103.6108591658228
 30
0.0
 40
3.0
100
AcDbArc
 50
3.501444999999718
 51
82.35947600000019
  0
ARC
  5
192
330
1B
100
AcDbEntity
  8
4
 62
     3
100
AcDbCircle
 10
224.6186933101762
 20
110.5979351658228
 30
0.0
 40
3.0
100
AcDbArc
 50
190.2487529999995
 51
259.7512469999999
  0
ARC
  5
193
330
1B
100
AcDbEntity
  8
4
 62
     3
100
AcDbCircle
 10
225.8939193101762
 20
111.8731611658228
 30
0.0
 40
3.0
100
AcDbArc
 50
189.7440479999997
 51
260.2559519999998
  0
ARC
  5
194
330
1B
100
AcDbEntity
  8
4
 62
     3
100
AcDbCircle
 10
271.1157313101762
 20
103.6108591658228
 30
0.0
 40
3.0
100
AcDbArc
 50
97.64052400000037
 51
176.4985550000003
  0
ARC
  5
195
330
1B
100
AcDbEntity
  8
4
 62
     3
100
AcDbCircle
 10
276.9277973101762
 20
110.5979351658228
 30
0.0
 40
3.0
100
AcDbArc
 50
280.2487529999995
 51
349.7512470000005
  0
ARC
  5
196
330
1B
100
AcDbEntity
  8
4
 62
     3
100
AcDbCircle
 10
275.6525713101762
 20
111.8731611658228
 30
0.0
 40
3.0
100
AcDbArc
 50
279.7440479999997
 51
350.2559520000003
  0
ARC
  5
197
330
1B
100
AcDbEntity
  8
4
 62
     3
100
AcDbCircle
 10
190.6091373101763
 20
155.4415241658227
 30
0.0
 40
3.0
100
AcDbArc
 50
162.7434129999999
 51
273.5014449999998
  0
LINE
  5
198
330
1B
100
AcDbEntity
  8
4
 62
     3
100
AcDbLine
 10
170.7732453101762
 20
136.7524871658227
 30
0.0
 11
170.7732453101762
 21
124.7524871658227
 31
0.0
  0
LINE
  5
199
330
1B
100
AcDbEntity
  8
4
100
AcDbLine
 10
167.2732453101762
 20
120.2524871658227
 30
0.0
 11
160.2732453101762
 21
120.2524871658227
 31
0.0
  0
ARC
  5
19A
330
1B
100
AcDbEntity
  8
4
 62
     3
100
AcDbCircle
 10
168.7732453101762
 20
124.7524871658227
 30
0.0
 40
2.0
100
AcDbArc
 50
270.0
 51
0.0
  0
LINE
  5
19B
330
1B
100
AcDbEntity
  8
4
100
AcDbLine
 10
168.7732453101762
 20
119.2524871658227
 30
0.0
 11
167.2732453101762
 21
119.2524871658227
 31
0.0
  0
LINE
  5
19C
330
1B
100
AcDbEntity
  8
4
 62
     3
100
AcDbLine
 10
172.7732453101762
 20
169.5549261658228
 30
0.0
 11
172.7732453101762
 21
178.3524871658228
 31
0.0
  0
LINE
  5
19D
330
1B
100
AcDbEntity
  8
4
 62
     3
100
AcDbLine
 10
170.8732453101762
 20
180.2524871658227
 30
0.0
 11
170.7732453101762
 21
180.2524871658227
 31
0.0
  0
LINE
  5
19E
330
1B
100
AcDbEntity
  8
4
 62
     3
100
AcDbLine
 10
170.8421783101762
 20
180.2524871658227
 30
0.0
 11
170.7732453101762
 21
180.2524871658227
 31
0.0
  0
LINE
  5
19F
330
1B
100
AcDbEntity
  8
4
 62
     3
100
AcDbLine
 10
170.8732453101761
 20
180.2524871658227
 30
0.0
 11
170.7732453101762
 21
180.2524871658227
 31
0.0
  0
ARC
  5
1A0
330
1B
100
AcDbEntity
  8
4
 62
     3
100
AcDbCircle
 10
170.8732453101762
 20
178.3524871658228
 30
0.0
 40
1.9
100
AcDbArc
 50
0.0
 51
90.0
  0
ARC
  5
1A1
330
1B
100
AcDbEntity
  8
4
 62
     3
100
AcDbCircle
 10
170.8732453101761
 20
178.3524871658228
 30
0.0
 40
1.9
100
AcDbArc
 50
0.0
 51
90.0
  0
LINE
  5
1A2
330
1B
100
AcDbEntity
  8
4
 62
     3
100
AcDbLine
 10
217.8148383101761
 20
119.4044011658228
 30
0.0
 11
190.7923583101763
 21
121.0578501658227
 31
0.0
  0
ARC
  5
1A3
330
1B
100
AcDbEntity
  8
4
 62
     3
100
AcDbCircle
 10
250.7732453101762
 20
18.25248716582274
 30
0.0
 40
150.0
100
AcDbArc
 50
79.75124699999999
 51
100.2488713985449
  0
ARC
  5
1A4
330
1B
100
AcDbEntity
  8
4
 62
     3
100
AcDbCircle
 10
250.7732453101762
 20
16.75248716582274
 30
0.0
 40
150.0
100
AcDbArc
 50
80.25595200000002
 51
99.744048
  0
LINE
  5
1A5
330
1B
100
AcDbEntity
  8
4
 62
     3
100
AcDbLine
 10
217.8148383101761
 20
154.1005731658227
 30
0.0
 11
190.7923583101763
 21
152.4471241658228
 31
0.0
  0
ARC
  5
1A6
330
1B
100
AcDbEntity
  8
4
 62
     3
100
AcDbCircle
 10
225.8939193101762
 20
161.6318131658227
 30
0.0
 40
3.0
100
AcDbArc
 50
99.7440480000002
 51
170.2559520000003
  0
ARC
  5
1A7
330
1B
100
AcDbEntity
  8
4
 62
     3
100
AcDbCircle
 10
224.6186933101762
 20
162.9070391658227
 30
0.0
 40
3.0
100
AcDbArc
 50
100.2487530000001
 51
169.7512470000005
  0
ARC
  5
1A8
330
1B
100
AcDbEntity
  8
4
 62
     3
100
AcDbCircle
 10
217.6316173101764
 20
157.0949731658228
 30
0.0
 40
3.0
100
AcDbArc
 50
273.5014449999998
 51
352.3594759999996
  0
ARC
  5
1A9
330
1B
100
AcDbEntity
  8
4
 62
     3
100
AcDbCircle
 10
283.9148733101761
 20
157.0949731658228
 30
0.0
 40
3.0
100
AcDbArc
 50
187.6405240000003
 51
266.4985550000002
  0
ARC
  5
1AA
330
1B
100
AcDbEntity
  8
4
 62
     3
100
AcDbCircle
 10
276.9277973101762
 20
162.9070391658227
 30
0.0
 40
3.0
100
AcDbArc
 50
10.24875299999949
 51
79.75124700000049
  0
ARC
  5
1AB
330
1B
100
AcDbEntity
  8
4
 62
     3
100
AcDbCircle
 10
275.6525713101762
 20
161.6318131658227
 30
0.0
 40
3.0
100
AcDbArc
 50
9.744047999999724
 51
80.25595200000033
  0
LINE
  5
1AC
330
1B
100
AcDbEntity
  8
4
 62
     3
100
AcDbLine
 10
330.7732453101762
 20
136.7524871658227
 30
0.0
 11
330.7732453101762
 21
69.75248716582274
 31
0.0
  0
ARC
  5
1AD
330
1B
100
AcDbEntity
  8
4
 62
     3
100
AcDbCircle
 10
310.9373533101761
 20
118.0634501658228
 30
0.0
 40
3.0
100
AcDbArc
 50
342.743413
 51
93.50144499999976
  0
LINE
  5
1AE
330
1B
100
AcDbEntity
  8
4
 62
     3
100
AcDbLine
 10
319.2732453101762
 20
64.75248716582274
 30
0.0
 11
357.2732453101762
 21
64.75248716582274
 31
0.0
  0
ARC
  5
1AF
330
1B
100
AcDbEntity
  8
4
 62
     3
100
AcDbCircle
 10
327.4865743101761
 20
69.75248716582274
 30
0.0
 40
5.0
100
AcDbArc
 50
165.8987389999998
 51
270.0
  0
ARC
  5
1B0
330
1B
100
AcDbEntity
  8
4
 62
     3
100
AcDbCircle
 10
319.2732453101762
 20
63.75248716582274
 30
0.0
 40
1.0
100
AcDbArc
 50
90.0
 51
180.0
  0
ARC
  5
1B1
330
1B
100
AcDbEntity
  8
4
 62
     3
100
AcDbCircle
 10
321.2732453101762
 20
63.75248716582274
 30
0.0
 40
1.0
100
AcDbArc
 50
90.0
 51
180.0
  0
ARC
  5
1B2
330
1B
100
AcDbEntity
  8
4
 62
     3
100
AcDbCircle
 10
313.2732453101762
 20
58.94892116582275
 30
0.0
 40
5.0
100
AcDbArc
 50
0.0
 51
103.1365590000003
  0
ARC
  5
1B3
330
1B
100
AcDbEntity
  8
4
 62
     3
100
AcDbCircle
 10
335.7732453101762
 20
69.75248716582274
 30
0.0
 40
5.0
100
AcDbArc
 50
180.0
 51
270.0
  0
ARC
  5
1B5
330
1B
100
AcDbEntity
  8
4
 62
     3
100
AcDbCircle
 10
357.2732453101762
 20
63.75248716582274
 30
0.0
 40
1.0
100
AcDbArc
 50
0.0
 51
90.0
  0
ARC
  5
1B7
330
1B
100
AcDbEntity
  8
4
 62
     3
100
AcDbCircle
 10
310.9373533101761
 20
155.4415241658227
 30
0.0
 40
3.0
100
AcDbArc
 50
266.4985550000002
 51
17.25658699999994
  0
ARC
  5
1B8
330
1B
100
AcDbEntity
  8
4
 62
     3
100
AcDbCircle
 10
330.6732453101763
 20
178.3524871658228
 30
0.0
 40
1.9
100
AcDbArc
 50
90.0
 51
180.0
  0
LINE
  5
1B9
330
1B
100
AcDbEntity
  8
4
 62
     3
100
AcDbLine
 10
330.6732453101763
 20
180.2524871658227
 30
0.0
 11
330.7732453101762
 21
180.2524871658227
 31
0.0
  0
LINE
  5
1BA
330
1B
100
AcDbEntity
  8
4
 62
     3
100
AcDbLine
 10
330.7043123101762
 20
180.2524871658227
 30
0.0
 11
330.7732453101762
 21
180.2524871658227
 31
0.0
  0
LINE
  5
1BC
330
1B
100
AcDbEntity
  8
4
 62
     3
100
AcDbLine
 10
626.4930682466851
 20
63.75248716582274
 30
0.0
 11
626.4930682466851
 21
44.75248716582274
 31
0.0
  0
LINE
  5
1BD
330
1B
100
AcDbEntity
  8
L-CENTER
 48
2.0
100
AcDbLine
 10
521.4930682466851
 20
71.75248716582274
 30
0.0
 11
521.4930682466851
 21
37.75248716582274
 31
0.0
  0
LINE
  5
1BE
330
1B
100
AcDbEntity
  8
4
 62
     3
100
AcDbLine
 10
506.4930682466851
 20
63.75248716582274
 30
0.0
 11
506.4930682466851
 21
44.75248716582274
 31
0.0
  0
LINE
  5
1BF
330
1B
100
AcDbEntity
  8
L-CENTER
 48
2.0
100
AcDbLine
 10
611.4930682466851
 20
71.75248716582274
 30
0.0
 11
611.4930682466851
 21
37.75248716582274
 31
0.0
  0
LINE
  5
1C3
330
1B
100
AcDbEntity
  8
4
 62
     3
100
AcDbLine
 10
626.4930682466851
 20
44.75248716582274
 30
0.0
 11
506.4930682466851
 21
44.75248716582274
 31
0.0
  0
LINE
  5
1D2
330
1B
100
AcDbEntity
  8
4
100
AcDbLine
 10
636.4930682466851
 20
124.7524871658227
 30
0.0
 11
675.4930682466851
 21
124.7524871658227
 31
0.0
  0
LINE
  5
1D3
330
1B
100
AcDbEntity
  8
4
100
AcDbLine
 10
636.4930682466851
 20
148.7524871658227
 30
0.0
 11
675.4930682466851
 21
148.7524871658227
 31
0.0
  0
LINE
  5
1D4
330
1B
100
AcDbEntity
  8
4
100
AcDbLine
 10
676.4930682466851
 20
151.7524871658227
 30
0.0
 11
639.4930682466851
 21
151.7524871658227
 31
0.0
  0
LINE
  5
1D6
330
1B
100
AcDbEntity
  8
L-CENTER
 48
2.0
100
AcDbLine
 10
680.4231657395652
 20
136.7524871658227
 30
0.0
 11
452.562970753805
 21
136.7524871658227
 31
0.0
  0
LINE
  5
1D7
330
1B
100
AcDbEntity
  8
4
100
AcDbLine
 10
624.3928722466852
 20
160.2524871658227
 30
0.0
 11
624.3928722466852
 21
113.2524871658227
 31
0.0
  0
LINE
  5
1D8
330
1B
100
AcDbEntity
  8
4
100
AcDbLine
 10
623.393068246685
 20
165.9206701126564
 30
0.0
 11
623.393068246685
 21
107.5843042189891
 31
0.0
  0
LINE
  5
1D9
330
1B
100
AcDbEntity
  8
4
100
AcDbLine
 10
598.9930682466851
 20
124.2832476220413
 30
0.0
 11
598.9930682466851
 21
64.75248716582269
 31
0.0
  0
LINE
  5
1DA
330
1B
100
AcDbEntity
  8
4
100
AcDbLine
 10
520.4930676853247
 20
105.252487568462
 30
0.0
 11
520.4930676853247
 21
119.252487636172
 31
0.0
  0
LINE
  5
1DB
330
1B
100
AcDbEntity
  8
4
100
AcDbLine
 10
533.9930682466851
 20
124.2832476220413
 30
0.0
 11
533.9930682466851
 21
64.75248716582269
 31
0.0
  0
LINE
  5
1DC
330
1B
100
AcDbEntity
  8
4
 62
     3
100
AcDbLine
 10
511.4930682466851
 20
107.5996141658227
 30
0.0
 11
511.4930682466851
 21
165.9053601658227
 31
0.0
  0
LINE
  5
1DD
330
1B
100
AcDbEntity
  8
4
 62
     3
100
AcDbLine
 10
507.4930682466851
 20
64.75248716582274
 30
0.0
 11
625.4930682466851
 21
64.75248716582274
 31
0.0
  0
LINE
  5
1DE
330
1B
100
AcDbEntity
  8
4
100
AcDbLine
 10
520.7357663050294
 20
103.856970580263
 30
0.0
 11
525.4930682466851
 21
76.50248588789015
 31
0.0
  0
LINE
  5
1DF
330
1B
100
AcDbEntity
  8
4
 62
     3
100
AcDbLine
 10
519.6904573038315
 20
104.0311885871193
 30
0.0
 11
525.4930682466851
 21
70.66617816582271
 31
0.0
  0
ARC
  5
1E1
330
1B
100
AcDbEntity
  8
4
 62
     3
100
AcDbCircle
 10
507.4930682466851
 20
63.75248716582274
 30
0.0
 40
1.0
100
AcDbArc
 50
90.0
 51
180.0
  0
LINE
  5
1E2
330
1B
100
AcDbEntity
  8
4
100
AcDbLine
 10
518.049089246685
 20
105.6598171658227
 30
0.0
 11
519.094398246685
 21
105.4855991658227
 31
0.0
  0
ARC
  5
1E3
330
1B
100
AcDbEntity
  8
4
 62
     3
100
AcDbCircle
 10
517.720291246685
 20
103.6870291658227
 30
0.0
 40
2.0
100
AcDbArc
 50
9.86580700000068
 51
80.53767799999983
  0
ARC
  5
1E4
330
1B
100
AcDbEntity
  8
4
100
AcDbCircle
 10
518.765600246685
 20
103.5128111658227
 30
0.0
 40
2.0
100
AcDbArc
 50
9.86580700000068
 51
80.53767799999983
  0
ARC
  5
1E5
330
1B
100
AcDbEntity
  8
4
 62
     3
100
AcDbCircle
 10
512.4930682466851
 20
107.5996141658227
 30
0.0
 40
1.0
100
AcDbArc
 50
180.0
 51
260.5376779999998
  0
LINE
  5
1E6
330
1B
100
AcDbEntity
  8
4
 62
     3
100
AcDbLine
 10
512.3286692466851
 20
106.6132201658227
 30
0.0
 11
519.026159158862
 21
105.4969722373945
 31
0.0
  0
LINE
  5
1E7
330
1B
100
AcDbEntity
  8
L-CENTER
 48
2.0
100
AcDbLine
 10
624.1264102237659
 20
73.53263290161817
 30
0.0
 11
597.7345115868924
 21
73.53263290161817
 31
0.0
  0
LINE
  5
1E8
330
1B
100
AcDbEntity
  8
4
100
AcDbLine
 10
621.593068246685
 20
69.28263290161817
 30
0.0
 11
621.593068246685
 21
77.78263290161817
 31
0.0
  0
LINE
  5
1E9
330
1B
100
AcDbEntity
  8
4
100
AcDbLine
 10
616.593068246685
 20
69.28263290161817
 30
0.0
 11
616.593068246685
 21
77.78263290161817
 31
0.0
  0
LINE
  5
1EA
330
1B
100
AcDbEntity
  8
4
100
AcDbLine
 10
621.593068246685
 20
69.28263290161817
 30
0.0
 11
615.293068246685
 21
69.28263290161817
 31
0.0
  0
ARC
  5
1EB
330
1B
100
AcDbEntity
  8
4
 62
     3
100
AcDbCircle
 10
625.4930682466851
 20
63.75248716582274
 30
0.0
 40
1.0
100
AcDbArc
 50
0.0
 51
90.0
  0
LINE
  5
1EC
330
1B
100
AcDbEntity
  8
2
100
AcDbLine
 10
615.293068246685
 20
73.53263290161817
 30
0.0
 11
616.593068246685
 21
74.83263290161818
 31
0.0
  0
LINE
  5
1ED
330
1B
100
AcDbEntity
  8
2
100
AcDbLine
 10
615.293068246685
 20
71.6941552705332
 30
0.0
 11
616.593068246685
 21
72.99415527053321
 31
0.0
  0
LINE
  5
1EE
330
1B
100
AcDbEntity
  8
4
100
AcDbLine
 10
621.593068246685
 20
77.78263290161817
 30
0.0
 11
615.293068246685
 21
77.78263290161817
 31
0.0
  0
LINE
  5
1EF
330
1B
100
AcDbEntity
  8
4
100
AcDbLine
 10
615.2930682466848
 20
93.70909078520748
 30
0.0
 11
616.3075137819293
 21
105.3752144405158
 31
0.0
  0
LINE
  5
1F0
330
1B
100
AcDbEntity
  8
4
100
AcDbLine
 10
624.3928722466852
 20
113.2524871658227
 30
0.0
 11
623.3928722466852
 21
113.2524871658227
 31
0.0
  0
ARC
  5
1F1
330
1B
100
AcDbEntity
  8
4
100
AcDbCircle
 10
622.393068246685
 20
107.5843042189891
 30
0.0
 40
1.0
100
AcDbArc
 50
280.491477012334
 51
0.0
  0
ARC
  5
1F2
330
1B
100
AcDbEntity
  8
4
100
AcDbCircle
 10
617.1537074731406
 20
103.5630455088337
 30
0.0
 40
2.0
100
AcDbArc
 50
115.0302592718877
 51
175.0302592718904
  0
ARC
  5
1F3
330
1B
100
AcDbEntity
  8
4
100
AcDbCircle
 10
617.1537074731406
 20
103.5630455088337
 30
0.0
 40
2.0
100
AcDbArc
 50
100.4914770123309
 51
112.4563817741526
  0
LINE
  5
1F4
330
1B
100
AcDbEntity
  8
4
100
AcDbLine
 10
616.7895289527761
 20
105.5296095188026
 30
0.0
 11
622.5751575068672
 21
106.6010222140047
 31
0.0
  0
LINE
  5
1F5
330
1B
100
AcDbEntity
  8
4
100
AcDbLine
 10
519.4477586611005
 20
119.2524876361722
 30
0.0
 11
519.4477586611005
 21
154.2524866954735
 31
0.0
  0
LINE
  5
1FB
330
1B
100
AcDbEntity
  8
4
100
AcDbLine
 10
520.4930676853247
 20
119.252487636172
 30
0.0
 11
525.4930682466851
 21
120.9576300049192
 31
0.0
  0
LINE
  5
1FC
330
1B
100
AcDbEntity
  8
4
100
AcDbLine
 10
519.4477586611005
 20
119.252487636172
 30
0.0
 11
525.4930682466851
 21
121.3141101060241
 31
0.0
  0
LINE
  5
1FD
330
1B
100
AcDbEntity
  8
4
100
AcDbLine
 10
519.4477586611005
 20
119.252487636172
 30
0.0
 11
520.4930676853247
 21
119.252487636172
 31
0.0
  0
LINE
  5
1FF
330
1B
100
AcDbEntity
  8
4
100
AcDbLine
 10
520.4930676853247
 20
154.2524866954735
 30
0.0
 11
520.4930676853247
 21
168.1654110817543
 31
0.0
  0
ARC
  5
200
330
1B
100
AcDbEntity
  8
4
 62
     3
100
AcDbCircle
 10
512.4930682466851
 20
165.9053601658227
 30
0.0
 40
1.0
100
AcDbArc
 50
99.46232200000019
 51
180.0
  0
LINE
  5
201
330
1B
100
AcDbEntity
  8
4
 62
     3
100
AcDbLine
 10
512.3286692466851
 20
166.8917541658228
 30
0.0
 11
518.8218662466851
 21
167.9739531658227
 31
0.0
  0
LINE
  5
202
330
1B
100
AcDbEntity
  8
4
100
AcDbLine
 10
519.4477586611005
 20
154.2524866954735
 30
0.0
 11
525.4930682466851
 21
152.1908642256214
 31
0.0
  0
LINE
  5
203
330
1B
100
AcDbEntity
  8
4
100
AcDbLine
 10
520.4930676853247
 20
154.2524866954735
 30
0.0
 11
525.4930682466851
 21
152.5473443267263
 31
0.0
  0
LINE
  5
204
330
1B
100
AcDbEntity
  8
4
100
AcDbLine
 10
519.4477586611005
 20
154.2524866954735
 30
0.0
 11
520.4930676853247
 21
154.2524866954735
 31
0.0
  0
LINE
  5
205
330
1B
100
AcDbEntity
  8
4
100
AcDbLine
 10
518.8218662466851
 20
167.9739531658227
 30
0.0
 11
519.094398246685
 21
168.0193751658227
 31
0.0
  0
ARC
  5
206
330
1B
100
AcDbEntity
  8
4
100
AcDbCircle
 10
518.765600246685
 20
169.9921631658228
 30
0.0
 40
2.0
100
AcDbArc
 50
279.4623220000002
 51
350.1341929999993
  0
LINE
  5
207
330
1B
100
AcDbEntity
  8
4
100
AcDbLine
 10
639.4930682466851
 20
151.7524871658227
 30
0.0
 11
639.4930682466851
 21
148.7524871658227
 31
0.0
  0
LINE
  5
209
330
1B
100
AcDbEntity
  8
4
100
AcDbLine
 10
621.593068246685
 20
132.5024871658227
 30
0.0
 11
621.593068246685
 21
141.0024871658227
 31
0.0
  0
LINE
  5
20A
330
1B
100
AcDbEntity
  8
4
100
AcDbLine
 10
616.593068246685
 20
132.5024871658227
 30
0.0
 11
616.593068246685
 21
141.0024871658227
 31
0.0
  0
LINE
  5
20B
330
1B
100
AcDbEntity
  8
4
100
AcDbLine
 10
636.4930682466851
 20
149.2524871658227
 30
0.0
 11
636.4930682466851
 21
124.2524871658227
 31
0.0
  0
LINE
  5
20C
330
1B
100
AcDbEntity
  8
4
100
AcDbLine
 10
636.4930682466851
 20
124.2524871658227
 30
0.0
 11
624.3928722466852
 21
124.2524871658227
 31
0.0
  0
LINE
  5
20D
330
1B
100
AcDbEntity
  8
4
100
AcDbLine
 10
621.593068246685
 20
132.5024871658227
 30
0.0
 11
615.293068246685
 21
132.5024871658227
 31
0.0
  0
LINE
  5
20E
330
1B
100
AcDbEntity
  8
4
100
AcDbLine
 10
636.4930682466851
 20
149.2524871658227
 30
0.0
 11
624.3928722466852
 21
149.2524871658227
 31
0.0
  0
LINE
  5
20F
330
1B
100
AcDbEntity
  8
2
100
AcDbLine
 10
615.293068246685
 20
134.9140095347378
 30
0.0
 11
616.593068246685
 21
136.2140095347378
 31
0.0
  0
LINE
  5
210
330
1B
100
AcDbEntity
  8
2
100
AcDbLine
 10
615.293068246685
 20
136.7524871658227
 30
0.0
 11
616.593068246685
 21
138.0524871658228
 31
0.0
  0
LINE
  5
211
330
1B
100
AcDbEntity
  8
4
100
AcDbLine
 10
621.593068246685
 20
141.0024871658227
 30
0.0
 11
615.293068246685
 21
141.0024871658227
 31
0.0
  0
ARC
  5
212
330
1B
100
AcDbEntity
  8
4
100
AcDbCircle
 10
622.393068246685
 20
165.9206701126564
 30
0.0
 40
1.0
100
AcDbArc
 50
0.0
 51
79.50852298766591
  0
LINE
  5
213
330
1B
100
AcDbEntity
  8
4
100
AcDbLine
 10
616.7895289527761
 20
167.9753648128429
 30
0.0
 11
622.5751575068672
 21
166.9039521176408
 31
0.0
  0
LINE
  5
214
330
1B
100
AcDbEntity
  8
4
100
AcDbLine
 10
623.3928722466852
 20
160.2524871658227
 30
0.0
 11
624.3928722466852
 21
160.2524871658227
 31
0.0
  0
LINE
  5
215
330
1B
100
AcDbEntity
  8
4
  6
Continuous
 62
     3
100
AcDbLine
 10
615.293068246685
 20
179.7958835464354
 30
0.0
 11
616.3075137819293
 21
168.1297598911297
 31
0.0
  0
ARC
  5
216
330
1B
100
AcDbEntity
  8
4
100
AcDbCircle
 10
617.1537074731408
 20
169.9419288228118
 30
0.0
 40
2.0
100
AcDbArc
 50
201.5153082470839
 51
259.5085229876691
  0
LINE
  5
218
330
1B
100
AcDbEntity
  8
4
100
AcDbLine
 10
676.4930682466851
 20
151.7524871658227
 30
0.0
 11
676.4930682466851
 21
125.7524871658227
 31
0.0
  0
LINE
  5
21A
330
1B
100
AcDbEntity
  8
4
100
AcDbLine
 10
675.4930682466851
 20
148.7524871658227
 30
0.0
 11
675.4930682466851
 21
124.7524871658227
 31
0.0
  0
LINE
  5
21B
330
1B
100
AcDbEntity
  8
4
100
AcDbLine
 10
675.4930682466851
 20
124.7524871658227
 30
0.0
 11
676.4930682466851
 21
125.7524871658227
 31
0.0
  0
LINE
  5
21C
330
1B
100
AcDbEntity
  8
4
100
AcDbLine
 10
676.4930682466851
 20
147.7524871658227
 30
0.0
 11
675.4930682466851
 21
148.7524871658227
 31
0.0
  0
CIRCLE
  5
222
330
1B
100
AcDbEntity
  8
4
 62
     3
100
AcDbCircle
 10
345.7732453101762
 20
402.3906447139017
 30
0.0
 40
5.5
  0
LINE
  5
223
330
1B
100
AcDbEntity
  8
4
 62
     3
100
AcDbLine
 10
320.1765763101762
 20
390.2907007139016
 30
0.0
 11
319.6399116417578
 21
406.3906447139017
 31
0.0
  0
LINE
  5
224
330
1B
100
AcDbEntity
  8
4
 62
     3
100
AcDbLine
 10
181.3699143101762
 20
390.2907007139016
 30
0.0
 11
181.9065789785946
 21
406.3906447139017
 31
0.0
  0
LINE
  5
225
330
1B
100
AcDbEntity
  8
4
 62
     3
100
AcDbLine
 10
189.6899123101762
 20
406.3906447139017
 30
0.0
 11
217.8680483101762
 21
401.6281427139016
 31
0.0
  0
LINE
  5
226
330
1B
100
AcDbEntity
  8
4
 62
     3
100
AcDbLine
 10
311.8565783101762
 20
406.3906447139017
 30
0.0
 11
283.6784423101763
 21
401.6281427139016
 31
0.0
  0
LINE
  5
227
330
1B
100
AcDbEntity
  8
L-CENTER
 48
2.0
100
AcDbLine
 10
250.7732453101762
 20
561.5700667516572
 30
0.0
 11
250.7732453101762
 21
333.2112226761461
 31
0.0
  0
LINE
  5
228
330
1B
100
AcDbEntity
  8
L-CENTER
 48
2.0
100
AcDbLine
 10
345.7732453101762
 20
391.4326217139017
 30
0.0
 11
345.7732453101762
 21
413.3486677139017
 31
0.0
  0
CIRCLE
  5
229
330
1B
100
AcDbEntity
  8
4
 62
     3
100
AcDbCircle
 10
155.7732453101762
 20
402.3906447139017
 30
0.0
 40
5.5
  0
LINE
  5
22A
330
1B
100
AcDbEntity
  8
4
 62
     3
100
AcDbLine
 10
143.2732453101762
 20
438.3906447139017
 30
0.0
 11
143.2732453101762
 21
390.3906447139017
 31
0.0
  0
LINE
  5
22B
330
1B
100
AcDbEntity
  8
4
 62
     3
100
AcDbLine
 10
143.2732453101762
 20
504.3906447139017
 30
0.0
 11
143.2732453101762
 21
456.3906447139017
 31
0.0
  0
LINE
  5
22C
330
1B
100
AcDbEntity
  8
L-CENTER
 48
2.0
100
AcDbLine
 10
155.7732453101762
 20
413.3486677139017
 30
0.0
 11
155.7732453101762
 21
391.4326217139017
 31
0.0
  0
LINE
  5
22D
330
1B
100
AcDbEntity
  8
4
 62
     3
100
AcDbLine
 10
173.7732453101762
 20
246.7524871658229
 30
0.0
 11
327.7732453101762
 21
246.7524871658227
 31
0.0
  0
ARC
  5
22E
330
1B
100
AcDbEntity
  8
4
 62
     3
100
AcDbCircle
 10
250.7732453101762
 20
-53.24751283417726
 30
0.0
 40
270.0
100
AcDbArc
 50
75.210916
 51
90.0
  0
LINE
  5
22F
330
1B
100
AcDbEntity
  8
L-CENTER
 48
2.0
100
AcDbLine
 10
334.1278295646651
 20
212.7524871658226
 30
0.0
 11
117.188481077026
 21
212.7524871658229
 31
0.0
  0
LINE
  5
230
330
1B
100
AcDbEntity
  8
4
100
AcDbLine
 10
227.2732453101762
 20
247.7524871658227
 30
0.0
 11
227.2732453101762
 21
249.2524871658227
 31
0.0
  0
LINE
  5
231
330
1B
100
AcDbEntity
  8
4
100
AcDbLine
 10
204.2732453101762
 20
247.7524871658227
 30
0.0
 11
204.2732453101762
 21
249.2524871658227
 31
0.0
  0
LINE
  5
232
330
1B
100
AcDbEntity
  8
L-CENTER
 48
2.0
100
AcDbLine
 10
215.7732453101762
 20
240.1259951658228
 30
0.0
 11
215.7732453101762
 21
260.1146371747807
 31
0.0
  0
ARC
  5
233
330
1B
100
AcDbEntity
  8
4
 62
     3
100
AcDbCircle
 10
250.7732453101762
 20
-53.24751283417726
 30
0.0
 40
270.0
100
AcDbArc
 50
90.0
 51
104.789084
  0
LINE
  5
234
330
1B
100
AcDbEntity
  8
4
100
AcDbLine
 10
169.7735493101762
 20
236.2524871658228
 30
0.0
 11
169.7735493101762
 21
189.2524871658228
 31
0.0
  0
LINE
  5
235
330
1B
100
AcDbEntity
  8
4
100
AcDbLine
 10
169.7735493101762
 20
189.2524871658228
 30
0.0
 11
170.7735493101762
 21
189.2524871658228
 31
0.0
  0
ARC
  5
236
330
1B
100
AcDbEntity
  8
4
 62
     3
100
AcDbCircle
 10
182.6184113101763
 20
204.9073211658227
 30
0.0
 40
3.0
100
AcDbArc
 50
104.7890840000002
 51
165.2109159999998
  0
ARC
  5
237
330
1B
100
AcDbEntity
  8
4
 62
     3
100
AcDbCircle
 10
171.7732453101762
 20
201.7524871658227
 30
0.0
 40
1.0
100
AcDbArc
 50
0.0
 51
90.0
  0
LINE
  5
238
330
1B
100
AcDbEntity
  8
4
 62
     3
100
AcDbLine
 10
172.7732453101762
 20
223.7524871658227
 30
0.0
 11
172.7732453101762
 21
245.7524871658227
 31
0.0
  0
ARC
  5
239
330
1B
100
AcDbEntity
  8
4
 62
     3
100
AcDbCircle
 10
171.7732453101762
 20
223.7524871658227
 30
0.0
 40
1.0
100
AcDbArc
 50
270.0
 51
0.0
  0
LINE
  5
23A
330
1B
100
AcDbEntity
  8
4
100
AcDbLine
 10
170.7735493101762
 20
236.2524871658228
 30
0.0
 11
169.7735493101762
 21
236.2524871658228
 31
0.0
  0
ARC
  5
23B
330
1B
100
AcDbEntity
  8
4
 62
     3
100
AcDbCircle
 10
171.8367533101762
 20
246.2524871658227
 30
0.0
 40
1.0
100
AcDbArc
 50
270.0
 51
345.5224879999987
  0
LINE
  5
23C
330
1B
100
AcDbEntity
  8
4
 62
     3
100
AcDbLine
 10
171.8367533101762
 20
245.2524871658227
 30
0.0
 11
170.7732453101762
 21
245.2524871658227
 31
0.0
  0
LINE
  5
23D
330
1B
100
AcDbEntity
  8
4
 62
     3
100
AcDbLine
 10
171.8367533101762
 20
245.2524871658227
 30
0.0
 11
170.7732453101762
 21
245.2524871658227
 31
0.0
  0
ARC
  5
23E
330
1B
100
AcDbEntity
  8
4
 62
     3
100
AcDbCircle
 10
171.8367533101762
 20
246.2524871658227
 30
0.0
 40
1.0
100
AcDbArc
 50
270.0
 51
345.5224879999987
  0
ARC
  5
23F
330
1B
100
AcDbEntity
  8
4
 62
     3
100
AcDbCircle
 10
173.7732453101762
 20
245.7524871658227
 30
0.0
 40
1.0
100
AcDbArc
 50
90.0
 51
165.5224879999987
  0
ARC
  5
240
330
1B
100
AcDbEntity
  8
4
 62
     3
100
AcDbCircle
 10
173.7732453101762
 20
245.7524871658227
 30
0.0
 40
1.0
100
AcDbArc
 50
90.0
 51
180.0
  0
LINE
  5
241
330
1B
100
AcDbEntity
  8
4
100
AcDbLine
 10
204.2732453101762
 20
247.7524871658227
 30
0.0
 11
227.2732453101762
 21
247.7524871658227
 31
0.0
  0
LINE
  5
242
330
1B
100
AcDbEntity
  8
4
 62
     3
100
AcDbLine
 10
229.7732453101762
 20
247.7524871658227
 30
0.0
 11
201.7732453101762
 21
247.7524871658227
 31
0.0
  0
ARC
  5
243
330
1B
100
AcDbEntity
  8
4
 62
     3
100
AcDbCircle
 10
200.8732453101761
 20
247.6524871658227
 30
0.0
 40
0.9
100
AcDbArc
 50
270.0
 51
0.0
  0
LINE
  5
244
330
1B
100
AcDbEntity
  8
4
100
AcDbLine
 10
201.7732453101762
 20
247.7524871658227
 30
0.0
 11
201.7732453101762
 21
247.7424871658228
 31
0.0
  0
LINE
  5
245
330
1B
100
AcDbEntity
  8
4
 62
     3
100
AcDbLine
 10
201.7732453101762
 20
247.7524871658227
 30
0.0
 11
201.7732453101762
 21
247.6524871658227
 31
0.0
  0
ARC
  5
246
330
1B
100
AcDbEntity
  8
4
 62
     3
100
AcDbCircle
 10
230.6732453101763
 20
247.6524871658227
 30
0.0
 40
0.9
100
AcDbArc
 50
180.0
 51
270.0
  0
LINE
  5
247
330
1B
100
AcDbEntity
  8
4
 62
     3
100
AcDbLine
 10
229.7732453101762
 20
247.7524871658227
 30
0.0
 11
229.7732453101762
 21
247.6524871658227
 31
0.0
  0
LINE
  5
248
330
1B
100
AcDbEntity
  8
4
100
AcDbLine
 10
203.2732453101762
 20
255.2524871658227
 30
0.0
 11
228.2732453101762
 21
255.2524871658227
 31
0.0
  0
LINE
  5
249
330
1B
100
AcDbEntity
  8
4
100
AcDbLine
 10
203.2732453101762
 20
251.2524871658227
 30
0.0
 11
228.2732453101762
 21
251.2524871658227
 31
0.0
  0
LINE
  5
24A
330
1B
100
AcDbEntity
  8
4
100
AcDbLine
 10
203.2732453101762
 20
249.2524871658227
 30
0.0
 11
228.2732453101762
 21
249.2524871658227
 31
0.0
  0
LINE
  5
24B
330
1B
100
AcDbEntity
  8
4
100
AcDbLine
 10
209.5232453101762
 20
251.2524871658227
 30
0.0
 11
209.5232453101762
 21
255.2524871658227
 31
0.0
  0
LINE
  5
24C
330
1B
100
AcDbEntity
  8
4
100
AcDbLine
 10
203.2732453101762
 20
249.2524871658227
 30
0.0
 11
203.2732453101762
 21
255.2524871658227
 31
0.0
  0
LINE
  5
24D
330
1B
100
AcDbEntity
  8
4
100
AcDbLine
 10
222.0232453101762
 20
251.2524871658227
 30
0.0
 11
222.0232453101762
 21
255.2524871658227
 31
0.0
  0
LINE
  5
24E
330
1B
100
AcDbEntity
  8
4
100
AcDbLine
 10
228.2732453101762
 20
249.2524871658227
 30
0.0
 11
228.2732453101762
 21
255.2524871658227
 31
0.0
  0
LINE
  5
24F
330
1B
100
AcDbEntity
  8
4
100
AcDbLine
 10
331.7732453101762
 20
189.2524871658228
 30
0.0
 11
331.7732453101762
 21
236.2524871658228
 31
0.0
  0
LINE
  5
250
330
1B
100
AcDbEntity
  8
4
100
AcDbLine
 10
331.7732453101762
 20
189.2524871658228
 30
0.0
 11
330.7732453101762
 21
189.2524871658228
 31
0.0
  0
ARC
  5
251
330
1B
100
AcDbEntity
  8
4
 62
     3
100
AcDbCircle
 10
318.9280793101761
 20
204.9073211658227
 30
0.0
 40
3.0
100
AcDbArc
 50
14.78908400000021
 51
75.21091599999983
  0
ARC
  5
252
330
1B
100
AcDbEntity
  8
4
 62
     3
100
AcDbCircle
 10
329.7732453101762
 20
201.7524871658227
 30
0.0
 40
1.0
100
AcDbArc
 50
90.0
 51
180.0
  0
LINE
  5
253
330
1B
100
AcDbEntity
  8
4
 62
     3
100
AcDbLine
 10
328.7732453101762
 20
223.7524871658227
 30
0.0
 11
328.7732453101762
 21
245.7524871658227
 31
0.0
  0
ARC
  5
254
330
1B
100
AcDbEntity
  8
4
 62
     3
100
AcDbCircle
 10
329.7732453101762
 20
223.7524871658227
 30
0.0
 40
1.0
100
AcDbArc
 50
180.0
 51
270.0
  0
ARC
  5
255
330
1B
100
AcDbEntity
  8
4
 62
     3
100
AcDbCircle
 10
327.7732453101762
 20
245.7524871658227
 30
0.0
 40
1.0
100
AcDbArc
 50
0.0
 51
90.0
  0
LINE
  5
256
330
1B
100
AcDbEntity
  8
4
100
AcDbLine
 10
331.7732453101762
 20
236.2524871658228
 30
0.0
 11
330.7732453101762
 21
236.2524871658228
 31
0.0
  0
ARC
  5
257
330
1B
100
AcDbEntity
  8
4
 62
     3
100
AcDbCircle
 10
329.7097373101763
 20
246.2524871658227
 30
0.0
 40
1.0
100
AcDbArc
 50
194.4775120000017
 51
270.0
  0
LINE
  5
258
330
1B
100
AcDbEntity
  8
4
 62
     3
100
AcDbLine
 10
329.7097373101763
 20
245.2524871658227
 30
0.0
 11
330.7732453101762
 21
245.2524871658227
 31
0.0
  0
ARC
  5
25A
330
1B
100
AcDbEntity
  8
4
 62
     3
100
AcDbCircle
 10
178.3715793101762
 20
390.3906447139017
 30
0.0
 40
3.0
100
AcDbArc
 50
270.0
 51
358.0908479999999
  0
ARC
  5
25B
330
1B
100
AcDbEntity
  8
4
 62
     3
100
AcDbCircle
 10
146.2732453101762
 20
390.3906447139017
 30
0.0
 40
3.0
100
AcDbArc
 50
180.0
 51
270.0
  0
LINE
  5
25C
330
1B
100
AcDbEntity
  8
4
 62
     3
100
AcDbLine
 10
146.2732453101762
 20
387.3906447139017
 30
0.0
 11
178.3715793101762
 21
387.3906447139017
 31
0.0
  0
LINE
  5
25D
330
1B
100
AcDbEntity
  8
L-CENTER
 48
2.0
100
AcDbLine
 10
144.8152223101762
 20
402.3906447139017
 30
0.0
 11
166.7312683101762
 21
402.3906447139017
 31
0.0
  0
LINE
  5
25E
330
1B
100
AcDbEntity
  8
4
 62
     3
100
AcDbLine
 10
279.9261183101762
 20
392.3906447139017
 30
0.0
 11
221.6203723101762
 21
392.3906447139017
 31
0.0
  0
LINE
  5
25F
330
1B
100
AcDbEntity
  8
4
 62
     3
100
AcDbLine
 10
219.2732453101762
 20
401.3906447139017
 30
0.0
 11
282.2732453101762
 21
401.3906447139017
 31
0.0
  0
LINE
  5
260
330
1B
100
AcDbEntity
  8
4
 62
     3
100
AcDbLine
 10
226.2732453101762
 20
405.0426447139016
 30
0.0
 11
275.2732453101762
 21
405.0426447139018
 31
0.0
  0
LINE
  5
261
330
1B
100
AcDbEntity
  8
4
100
AcDbLine
 10
226.2732453101762
 20
401.3906447139017
 30
0.0
 11
226.2732453101762
 21
405.0426447139016
 31
0.0
  0
LINE
  5
262
330
1B
100
AcDbEntity
  8
4
 62
     3
100
AcDbLine
 10
220.6339783101762
 20
393.2262457139017
 30
0.0
 11
219.5075343101762
 21
399.9849087139017
 31
0.0
  0
ARC
  5
263
330
1B
100
AcDbEntity
  8
4
 62
     3
100
AcDbCircle
 10
217.5347463101762
 20
399.6561107139017
 30
0.0
 40
2.0
100
AcDbArc
 50
9.462321999999995
 51
80.40686600000002
  0
ARC
  5
264
330
1B
100
AcDbEntity
  8
4
 62
     3
100
AcDbCircle
 10
221.6203723101762
 20
393.3906447139017
 30
0.0
 40
1.0
100
AcDbArc
 50
189.4623220000001
 51
270.0
  0
LINE
  5
265
330
1B
100
AcDbEntity
  8
4
 62
     3
100
AcDbLine
 10
280.9125123101762
 20
393.2262457139017
 30
0.0
 11
282.0389563101762
 21
399.9849087139017
 31
0.0
  0
ARC
  5
266
330
1B
100
AcDbEntity
  8
4
 62
     3
100
AcDbCircle
 10
284.0117443101763
 20
399.6561107139017
 30
0.0
 40
2.0
100
AcDbArc
 50
99.59313400000079
 51
170.5376779999999
  0
LINE
  5
267
330
1B
100
AcDbEntity
  8
4
100
AcDbLine
 10
275.2732453101762
 20
401.3906447139017
 30
0.0
 11
275.2732453101762
 21
405.0426447139016
 31
0.0
  0
ARC
  5
268
330
1B
100
AcDbEntity
  8
4
 62
     3
100
AcDbCircle
 10
279.9261183101762
 20
393.3906447139017
 30
0.0
 40
1.0
100
AcDbArc
 50
270.0
 51
350.5376779999999
  0
LINE
  5
269
330
1B
100
AcDbEntity
  8
L-CENTER
 48
2.0
100
AcDbLine
 10
334.8293363101761
 20
402.3906447139017
 30
0.0
 11
356.7312683101762
 21
402.3906447139017
 31
0.0
  0
LINE
  5
26A
330
1B
100
AcDbEntity
  8
4
 62
     3
100
AcDbLine
 10
323.1749113101762
 20
387.3906447139017
 30
0.0
 11
355.2732453101762
 21
387.3906447139017
 31
0.0
  0
ARC
  5
26B
330
1B
100
AcDbEntity
  8
4
 62
     3
100
AcDbCircle
 10
323.1749113101762
 20
390.3906447139017
 30
0.0
 40
3.0
100
AcDbArc
 50
181.9091520000001
 51
270.0
  0
ARC
  5
26C
330
1B
100
AcDbEntity
  8
4
 62
     3
100
AcDbCircle
 10
355.2732453101762
 20
390.3906447139017
 30
0.0
 40
3.0
100
AcDbArc
 50
270.0
 51
0.0
  0
LINE
  5
26D
330
1B
100
AcDbEntity
  8
4
100
AcDbLine
 10
238.7732453101762
 20
517.8906447139017
 30
0.0
 11
238.7732453101761
 21
556.3906447139017
 31
0.0
  0
LINE
  5
26E
330
1B
100
AcDbEntity
  8
4
100
AcDbLine
 10
262.7732453101761
 20
517.8906447139017
 30
0.0
 11
262.7732453101761
 21
556.3906447139017
 31
0.0
  0
LINE
  5
26F
330
1B
100
AcDbEntity
  8
4
100
AcDbLine
 10
254.2732453101761
 20
557.3906447139017
 30
0.0
 11
254.2732453101761
 21
523.8906447139017
 31
0.0
  0
LINE
  5
270
330
1B
100
AcDbEntity
  8
4
100
AcDbLine
 10
247.2732453101761
 20
557.3906447139017
 30
0.0
 11
247.2732453101761
 21
523.8906447139017
 31
0.0
  0
LINE
  5
271
330
1B
100
AcDbEntity
  8
4
100
AcDbLine
 10
173.5232453101762
 20
496.1906447139015
 30
0.0
 11
328.0232453101762
 21
496.1906447139016
 31
0.0
  0
LINE
  5
272
330
1B
100
AcDbEntity
  8
L-CENTER
 48
2.0
100
AcDbLine
 10
361.5951250152077
 20
447.3906447139017
 30
0.0
 11
118.0805826755422
 21
447.3906447139017
 31
0.0
  0
LINE
  5
273
330
1B
100
AcDbEntity
  8
4
 62
     3
100
AcDbLine
 10
330.7732453101762
 20
479.8906447139017
 30
0.0
 11
170.7732453101762
 21
479.8906447139017
 31
0.0
  0
LINE
  5
274
330
1B
100
AcDbEntity
  8
4
 62
     3
100
AcDbLine
 10
328.7732453101762
 20
406.3906447139017
 30
0.0
 11
172.7732453101762
 21
406.3906447139017
 31
0.0
  0
LINE
  5
275
330
1B
100
AcDbEntity
  8
4
 62
     3
100
AcDbLine
 10
330.7732453101762
 20
414.8906447139017
 30
0.0
 11
170.7732453101762
 21
414.8906447139017
 31
0.0
  0
LINE
  5
3B2
330
1B
100
AcDbEntity
  8
4
 62
     3
100
AcDbLine
 10
322.7732453101762
 20
414.8906447139017
 30
0.0
 11
322.7732453101762
 21
412.8906447139017
 31
0.0
  0
LINE
  5
3B3
330
1B
100
AcDbEntity
  8
4
 62
     3
100
AcDbLine
 10
273.7732453101762
 20
414.8906447139017
 30
0.0
 11
273.7732453101762
 21
412.8906447139017
 31
0.0
  0
LINE
  5
3B4
330
1B
100
AcDbEntity
  8
4
 62
     3
100
AcDbLine
 10
235.2732453101762
 20
194.7524871658227
 30
0.0
 11
235.2732453101762
 21
198.3134325776664
 31
0.0
  0
ARC
  5
3B5
330
1B
100
AcDbEntity
  8
4
 62
     3
100
AcDbCircle
 10
233.2732453101762
 20
198.3134325776664
 30
0.0
 40
2.0
100
AcDbArc
 50
0.0
 51
105.8689209862303
  0
LINE
  5
3B6
330
1B
100
AcDbEntity
  8
4
 62
     3
100
AcDbLine
 10
534.111692796598
 20
240.7904332411001
 30
0.0
 11
535.4455146431291
 21
240.7205306001642
 31
0.0
  0
ARC
  5
3B7
330
1B
100
AcDbEntity
  8
4
 62
     3
100
AcDbCircle
 10
534.059356840355
 20
239.7918037063455
 30
0.0
 40
1.0
100
AcDbArc
 50
87.00000000000742
 51
176.999999999998
  0
LINE
  5
3B8
330
1B
100
AcDbEntity
  8
4
 62
     3
100
AcDbLine
 10
533.0126378725041
 20
219.8192160071426
 30
0.0
 11
534.0840987314992
 21
219.763063122934
 31
0.0
  0
ARC
  5
3B9
330
1B
100
AcDbEntity
  8
4
 62
     3
100
AcDbCircle
 10
533.0649738287469
 20
220.8178455418973
 30
0.0
 40
1.0
100
AcDbArc
 50
177.0000000000012
 51
267.0000000000074
  0
LINE
  5
3BA
330
1B
100
AcDbEntity
  8
4
 62
     3
100
AcDbLine
 10
532.0663442939923
 20
220.8701814981402
 30
0.0
 11
533.0607273056004
 21
239.8441396625885
 31
0.0
  0
ARC
  5
3BB
330
1B
100
AcDbEntity
  8
4
 62
     3
100
AcDbCircle
 10
319.7732453101762
 20
237.7524871658227
 30
0.0
 40
3.0
100
AcDbArc
 50
0.0
 51
90.0
  0
LINE
  5
3BC
330
1B
100
AcDbEntity
  8
4
 62
     3
100
AcDbLine
 10
313.7732513101762
 20
237.2524861658227
 30
0.0
 11
314.2732513101762
 21
237.2524861658227
 31
0.0
  0
ARC
  5
3BD
330
1B
100
AcDbEntity
  8
4
 62
     3
100
AcDbCircle
 10
314.2732513101762
 20
232.2524861658227
 30
0.0
 40
5.0
100
AcDbArc
 50
30.52252099999851
 51
90.0
  0
ARC
  5
3BE
330
1B
100
AcDbEntity
  8
4
 62
     3
100
AcDbCircle
 10
290.2732433101762
 20
236.7524881658227
 30
0.0
 40
0.5
100
AcDbArc
 50
90.0
 51
180.0
  0
LINE
  5
3BF
330
1B
100
AcDbEntity
  8
4
 62
     3
100
AcDbLine
 10
300.2732453101762
 20
233.9605871658227
 30
0.0
 11
300.2732453101762
 21
234.7524881658227
 31
0.0
  0
ARC
  5
3C0
330
1B
100
AcDbEntity
  8
4
 62
     3
100
AcDbCircle
 10
297.7732453101762
 20
234.7524881658227
 30
0.0
 40
2.5
100
AcDbArc
 50
0.0
 51
90.0
  0
LINE
  5
3C1
330
1B
100
AcDbEntity
  8
4
 62
     3
100
AcDbLine
 10
290.2732433101762
 20
237.2524881658227
 30
0.0
 11
297.7732453101762
 21
237.2524881658227
 31
0.0
  0
LINE
  5
3C2
330
1B
100
AcDbEntity
  8
4
 62
     3
100
AcDbLine
 10
277.7732673101762
 20
237.2524881658227
 30
0.0
 11
280.2732663101763
 21
237.2524881658227
 31
0.0
  0
ARC
  5
3C3
330
1B
100
AcDbEntity
  8
4
 62
     3
100
AcDbCircle
 10
280.2732663101763
 20
236.7524881658227
 30
0.0
 40
0.5
100
AcDbArc
 50
0.0
 51
90.0
  0
ARC
  5
3C4
330
1B
100
AcDbEntity
  8
4
 62
     3
100
AcDbCircle
 10
319.7732453101762
 20
222.7524901658227
 30
0.0
 40
3.0
100
AcDbArc
 50
270.0
 51
0.0
  0
LINE
  5
3C5
330
1B
100
AcDbEntity
  8
4
 62
     3
100
AcDbLine
 10
316.2836573101761
 20
229.3131461658227
 30
0.0
 11
318.1174313101762
 21
231.1469201658227
 31
0.0
  0
LINE
  5
3C6
330
1B
100
AcDbEntity
  8
4
 62
     3
100
AcDbLine
 10
319.2732513101762
 20
223.7524861658227
 30
0.0
 11
319.2732513101762
 21
226.2524861658227
 31
0.0
  0
LINE
  5
3C7
330
1B
100
AcDbEntity
  8
4
 62
     3
100
AcDbLine
 10
317.3443173101762
 20
226.7524861658227
 30
0.0
 11
318.7732513101762
 21
226.7524861658227
 31
0.0
  0
ARC
  5
3C8
330
1B
100
AcDbEntity
  8
4
 62
     3
100
AcDbCircle
 10
318.7732513101762
 20
226.2524861658227
 30
0.0
 40
0.5
100
AcDbArc
 50
0.0
 51
90.0
  0
ARC
  5
3C9
330
1B
100
AcDbEntity
  8
4
 62
     3
100
AcDbCircle
 10
318.7732513101762
 20
223.7524861658227
 30
0.0
 40
0.5
100
AcDbArc
 50
270.0
 51
0.0
  0
ARC
  5
3CA
330
1B
100
AcDbEntity
  8
4
 62
     3
100
AcDbCircle
 10
317.3443173101762
 20
228.2524861658227
 30
0.0
 40
1.5
100
AcDbArc
 50
135.000006999999
 51
270.0
  0
LINE
  5
3CB
330
1B
100
AcDbEntity
  8
4
 62
     3
100
AcDbLine
 10
306.2732513101762
 20
229.0024881658227
 30
0.0
 11
306.2732513101762
 21
231.5024881658227
 31
0.0
  0
ARC
  5
3CC
330
1B
100
AcDbEntity
  8
4
 62
     3
100
AcDbCircle
 10
310.4019323101763
 20
230.5024881658227
 30
0.0
 40
1.5
100
AcDbArc
 50
315.000006999999
 51
90.0
  0
LINE
  5
3CD
330
1B
100
AcDbEntity
  8
4
 62
     3
100
AcDbLine
 10
308.9196973101762
 20
226.8989321658227
 30
0.0
 11
311.4625923101762
 21
229.4418281658228
 31
0.0
  0
LINE
  5
3CE
330
1B
100
AcDbEntity
  8
4
 62
     3
100
AcDbLine
 10
308.7732513101762
 20
226.5453791658227
 30
0.0
 11
308.7732513101762
 21
223.7524861658227
 31
0.0
  0
ARC
  5
3CF
330
1B
100
AcDbEntity
  8
4
 62
     3
100
AcDbCircle
 10
305.7732513101762
 20
229.0024881658227
 30
0.0
 40
0.5
100
AcDbArc
 50
270.0
 51
0.0
  0
ARC
  5
3D0
330
1B
100
AcDbEntity
  8
4
 62
     3
100
AcDbCircle
 10
309.2732513101762
 20
226.5453791658227
 30
0.0
 40
0.5
100
AcDbArc
 50
135.000006999999
 51
180.0
  0
ARC
  5
3D1
330
1B
100
AcDbEntity
  8
4
 62
     3
100
AcDbCircle
 10
309.2732513101762
 20
223.7524861658227
 30
0.0
 40
0.5
100
AcDbArc
 50
180.0
 51
270.0
  0
LINE
  5
3D2
330
1B
100
AcDbEntity
  8
4
 62
     3
100
AcDbLine
 10
309.2802013101762
 20
232.0024881658227
 30
0.0
 11
310.4019323101763
 21
232.0024881658227
 31
0.0
  0
ARC
  5
3D3
330
1B
100
AcDbEntity
  8
4
 62
     3
100
AcDbCircle
 10
305.7732513101762
 20
231.5024881658227
 30
0.0
 40
0.5
100
AcDbArc
 50
0.0
 51
90.0
  0
ARC
  5
3D4
330
1B
100
AcDbEntity
  8
4
 62
     3
100
AcDbCircle
 10
309.2802013101762
 20
232.5024881658227
 30
0.0
 40
0.5
100
AcDbArc
 50
176.8152309999994
 51
270.0
  0
LINE
  5
3D5
330
1B
100
AcDbEntity
  8
4
 62
     3
100
AcDbLine
 10
302.7732513101762
 20
229.0024881658227
 30
0.0
 11
302.7732513101762
 21
231.5024881658227
 31
0.0
  0
ARC
  5
3D6
330
1B
100
AcDbEntity
  8
4
 62
     3
100
AcDbCircle
 10
303.2732513101762
 20
229.0024881658227
 30
0.0
 40
0.5
100
AcDbArc
 50
180.0
 51
270.0
  0
ARC
  5
3D7
330
1B
100
AcDbEntity
  8
4
 62
     3
100
AcDbCircle
 10
303.2732513101762
 20
231.5024881658227
 30
0.0
 40
0.5
100
AcDbArc
 50
90.0
 51
180.0
  0
LINE
  5
3D8
330
1B
100
AcDbEntity
  8
4
 62
     3
100
AcDbLine
 10
305.7732513101762
 20
228.5024881658227
 30
0.0
 11
303.2732513101762
 21
228.5024881658227
 31
0.0
  0
LINE
  5
3D9
330
1B
100
AcDbEntity
  8
4
 62
     3
100
AcDbLine
 10
305.7732513101762
 20
232.0024881658227
 30
0.0
 11
303.2732513101762
 21
232.0024881658227
 31
0.0
  0
LINE
  5
3DA
330
1B
100
AcDbEntity
  8
4
 62
     3
100
AcDbLine
 10
309.2732513101762
 20
223.2524861658227
 30
0.0
 11
318.7732513101762
 21
223.2524861658227
 31
0.0
  0
ARC
  5
3DB
330
1B
100
AcDbEntity
  8
4
 62
     3
100
AcDbCircle
 10
290.2732433101762
 20
223.7524881658227
 30
0.0
 40
0.5
100
AcDbArc
 50
180.0
 51
270.0
  0
ARC
  5
3DC
330
1B
100
AcDbEntity
  8
4
 62
     3
100
AcDbCircle
 10
299.2732453101762
 20
230.2524881658227
 30
0.0
 40
1.5
100
AcDbArc
 50
112.0243130000021
 51
247.9756869999979
  0
LINE
  5
3DD
330
1B
100
AcDbEntity
  8
4
 62
     3
100
AcDbLine
 10
300.2732453101762
 20
226.5443891658227
 30
0.0
 11
300.2732453101762
 21
225.7524881658227
 31
0.0
  0
ARC
  5
3DE
330
1B
100
AcDbEntity
  8
4
 62
     3
100
AcDbCircle
 10
297.7732453101762
 20
225.7524881658227
 30
0.0
 40
2.5
100
AcDbArc
 50
270.0
 51
0.0
  0
ARC
  5
3DF
330
1B
100
AcDbEntity
  8
4
 62
     3
100
AcDbCircle
 10
297.7732453101762
 20
226.5443891658227
 30
0.0
 40
2.5
100
AcDbArc
 50
0.0
 51
67.97568699999826
  0
LINE
  5
3E0
330
1B
100
AcDbEntity
  8
4
 62
     3
100
AcDbLine
 10
290.2732433101762
 20
223.2524881658227
 30
0.0
 11
297.7732453101762
 21
223.2524881658227
 31
0.0
  0
LINE
  5
3E1
330
1B
100
AcDbEntity
  8
4
 62
     3
100
AcDbLine
 10
277.7732393101762
 20
223.2524871658227
 30
0.0
 11
286.7732393101762
 21
223.2524881658227
 31
0.0
  0
LINE
  5
3E2
330
1B
100
AcDbEntity
  8
4
 62
     3
100
AcDbLine
 10
281.2732413101762
 20
226.7524881658227
 30
0.0
 11
286.7732393101762
 21
226.7524881658227
 31
0.0
  0
LINE
  5
3E3
330
1B
100
AcDbEntity
  8
4
 62
     3
100
AcDbLine
 10
287.2732393101762
 20
223.7524881658227
 30
0.0
 11
287.2732393101762
 21
226.2524881658227
 31
0.0
  0
ARC
  5
3E4
330
1B
100
AcDbEntity
  8
4
 62
     3
100
AcDbCircle
 10
281.2732413101762
 20
227.2524881658227
 30
0.0
 40
0.5
100
AcDbArc
 50
180.0
 51
270.0
  0
ARC
  5
3E5
330
1B
100
AcDbEntity
  8
4
 62
     3
100
AcDbCircle
 10
286.7732393101762
 20
226.2524881658227
 30
0.0
 40
0.5
100
AcDbArc
 50
0.0
 51
90.0
  0
ARC
  5
3E6
330
1B
100
AcDbEntity
  8
4
 62
     3
100
AcDbCircle
 10
286.7732393101762
 20
223.7524881658227
 30
0.0
 40
0.5
100
AcDbArc
 50
270.0
 51
0.0
  0
ARC
  5
3E7
330
1B
100
AcDbEntity
  8
4
 62
     3
100
AcDbCircle
 10
313.7732513101762
 20
232.2524861658227
 30
0.0
 40
5.0
100
AcDbArc
 50
90.0
 51
176.8152310000004
  0
LINE
  5
3E8
330
1B
100
AcDbEntity
  8
4
 62
     3
100
AcDbLine
 10
280.7732393101762
 20
227.2524881658227
 30
0.0
 11
280.7732683101763
 21
236.7524881658227
 31
0.0
  0
LINE
  5
3E9
330
1B
100
AcDbEntity
  8
4
 62
     3
100
AcDbLine
 10
289.7732433101762
 20
223.7524881658227
 30
0.0
 11
289.7732433101762
 21
236.7524881658227
 31
0.0
  0
ARC
  5
3EA
330
1B
100
AcDbEntity
  8
4
 62
     3
100
AcDbCircle
 10
297.7732453101762
 20
233.9605871658227
 30
0.0
 40
2.5
100
AcDbArc
 50
292.0243130000017
 51
0.0
  0
LINE
  5
3EB
330
1B
100
AcDbEntity
  8
4
 62
     3
100
AcDbLine
 10
322.7732453101762
 20
237.7524871658227
 30
0.0
 11
322.7732453101762
 21
222.7524901658227
 31
0.0
  0
ARC
  5
3EC
330
1B
100
AcDbEntity
  8
4
 62
     3
100
AcDbCircle
 10
315.9961103101762
 20
233.2682401658228
 30
0.0
 40
3.0
100
AcDbArc
 50
315.0000070000004
 51
30.52252099999653
  0
ARC
  5
3ED
330
1B
100
AcDbEntity
  8
4
 62
     3
100
AcDbCircle
 10
276.7732453101762
 20
237.7524871658227
 30
0.0
 40
3.0
100
AcDbArc
 50
90.0
 51
180.0
  0
ARC
  5
3EE
330
1B
100
AcDbEntity
  8
4
 62
     3
100
AcDbCircle
 10
276.7732453101762
 20
222.7524901658227
 30
0.0
 40
3.0
100
AcDbArc
 50
180.0
 51
270.0
  0
LINE
  5
3EF
330
1B
100
AcDbEntity
  8
4
 62
     3
100
AcDbLine
 10
273.7732453101762
 20
237.7524871658227
 30
0.0
 11
273.7732453101762
 21
222.7524901658227
 31
0.0
  0
LINE
  5
3F0
330
1B
100
AcDbEntity
  8
4
 62
     3
100
AcDbLine
 10
277.2732403101761
 20
223.7524891658227
 30
0.0
 11
277.2732683101763
 21
236.7524881658227
 31
0.0
  0
LINE
  5
3F1
330
1B
100
AcDbEntity
  8
4
 62
     3
100
AcDbLine
 10
276.7732453101762
 20
219.7524901658227
 30
0.0
 11
319.7732453101762
 21
219.7524901658227
 31
0.0
  0
LINE
  5
3F2
330
1B
100
AcDbEntity
  8
4
 62
     3
100
AcDbLine
 10
276.7732453101762
 20
240.7524871658227
 30
0.0
 11
319.7732453101762
 21
240.7524871658227
 31
0.0
  0
ARC
  5
3F3
330
1B
100
AcDbEntity
  8
4
 62
     3
100
AcDbCircle
 10
277.7732673101762
 20
236.7524881658227
 30
0.0
 40
0.5
100
AcDbArc
 50
90.0
 51
180.0
  0
ARC
  5
3F4
330
1B
100
AcDbEntity
  8
4
 62
     3
100
AcDbCircle
 10
277.7732403101761
 20
223.7524881658227
 30
0.0
 40
0.5
100
AcDbArc
 50
179.9998800030328
 51
269.9998800000139
  0
ARC
  5
3F5
330
1B
100
AcDbEntity
  8
4
 62
     3
100
AcDbCircle
 10
250.7732453101762
 20
194.7524871658227
 30
0.0
 40
15.5
100
AcDbArc
 50
180.0
 51
0.0
  0
LINE
  5
3F6
330
1B
100
AcDbEntity
  8
4
 62
     3
100
AcDbLine
 10
266.2732453101762
 20
194.7524871658227
 30
0.0
 11
266.2732453101762
 21
198.3134325776664
 31
0.0
  0
ARC
  5
3F7
330
1B
100
AcDbEntity
  8
4
 62
     3
100
AcDbCircle
 10
268.2732453101762
 20
198.3134325776664
 30
0.0
 40
2.0
100
AcDbArc
 50
74.1310790137697
 51
180.0
  0
LINE
  5
3FD
330
1B
100
AcDbEntity
  8
4
100
AcDbLine
 10
578.9930682466851
 20
249.2524871658227
 30
0.0
 11
578.9930682466851
 21
251.2524871658227
 31
0.0
  0
LINE
  5
3FE
330
1B
100
AcDbEntity
  8
4
100
AcDbLine
 10
577.3182642466851
 20
251.2524871658227
 30
0.0
 11
577.3182642466851
 21
255.2524871658227
 31
0.0
  0
LINE
  5
3FF
330
1B
100
AcDbEntity
  8
4
100
AcDbLine
 10
553.9930682466851
 20
249.2524871658227
 30
0.0
 11
553.9930682466851
 21
251.2524871658227
 31
0.0
  0
LINE
  5
400
330
1B
100
AcDbEntity
  8
4
100
AcDbLine
 10
555.667628246685
 20
251.2524871658227
 30
0.0
 11
555.667628246685
 21
255.2524871658227
 31
0.0
  0
LINE
  5
401
330
1B
100
AcDbEntity
  8
4
100
AcDbLine
 10
578.9930682466851
 20
249.2524871658227
 30
0.0
 11
553.9930682466851
 21
249.2524871658227
 31
0.0
  0
LINE
  5
402
330
1B
100
AcDbEntity
  8
4
100
AcDbLine
 10
578.9930682466851
 20
251.2524871658227
 30
0.0
 11
553.9930682466851
 21
251.2524871658227
 31
0.0
  0
LINE
  5
403
330
1B
100
AcDbEntity
  8
4
100
AcDbLine
 10
577.3182642466851
 20
255.2524871658227
 30
0.0
 11
555.667628246685
 21
255.2524871658227
 31
0.0
  0
LINE
  5
407
330
1B
100
AcDbEntity
  8
4
 62
     3
100
AcDbLine
 10
580.4930682466851
 20
247.7524871658227
 30
0.0
 11
580.4930682466851
 21
247.3370391658228
 31
0.0
  0
ARC
  5
408
330
1B
100
AcDbEntity
  8
4
 62
     3
100
AcDbCircle
 10
581.4930682466851
 20
247.3370391658228
 30
0.0
 40
1.0
100
AcDbArc
 50
180.0
 51
266.8270250000029
  0
ARC
  5
409
330
1B
100
AcDbEntity
  8
4
 62
     3
100
AcDbCircle
 10
595.2573762466851
 20
243.2043861658228
 30
0.0
 40
2.0
100
AcDbArc
 50
6.524408999999578
 51
83.83860399999942
  0
LINE
  5
40A
330
1B
100
AcDbEntity
  8
4
 62
     3
100
AcDbLine
 10
552.4930682466851
 20
247.7524871658227
 30
0.0
 11
552.4930682466851
 21
247.3370391658228
 31
0.0
  0
ARC
  5
40B
330
1B
100
AcDbEntity
  8
4
 62
     3
100
AcDbCircle
 10
551.4930682466851
 20
247.3370391658228
 30
0.0
 40
1.0
100
AcDbArc
 50
273.1729749999971
 51
0.0
  0
LINE
  5
40C
330
1B
100
AcDbEntity
  8
4
100
AcDbLine
 10
577.9930682466851
 20
247.7524871658227
 30
0.0
 11
554.9930682466851
 21
247.7524871658227
 31
0.0
  0
LINE
  5
40D
330
1B
100
AcDbEntity
  8
4
 62
     3
100
AcDbLine
 10
580.4930682466851
 20
247.7524871658227
 30
0.0
 11
552.4930682466851
 21
247.7524871658227
 31
0.0
  0
ARC
  5
40E
330
1B
100
AcDbEntity
  8
4
 62
     3
100
AcDbCircle
 10
599.946939246685
 20
217.7524871658227
 30
0.0
 40
1.0
100
AcDbArc
 50
181.0571779999997
 51
270.0
  0
LINE
  5
40F
330
1B
100
AcDbEntity
  8
4
 62
     3
100
AcDbLine
 10
600.4930682466851
 20
215.7524871658227
 30
0.0
 11
600.4930682466851
 21
215.7524871658227
 31
0.0
  0
LINE
  5
410
330
1B
100
AcDbEntity
  8
4
 62
     3
100
AcDbLine
 10
600.4930682466851
 20
216.2524871658227
 30
0.0
 11
600.4930682466851
 21
215.7524871658227
 31
0.0
  0
LINE
  5
411
330
1B
100
AcDbEntity
  8
4
 62
     3
100
AcDbLine
 10
599.946939246685
 20
216.7524871658227
 30
0.0
 11
599.9930682466851
 21
216.7524871658227
 31
0.0
  0
ARC
  5
412
330
1B
100
AcDbEntity
  8
4
 62
     3
100
AcDbCircle
 10
599.9930682466851
 20
216.2524871658227
 30
0.0
 40
0.5
100
AcDbArc
 50
0.0
 51
90.0
  0
ARC
  5
413
330
1B
100
AcDbEntity
  8
4
 62
     3
100
AcDbCircle
 10
328.9930682466851
 20
212.7524871658227
 30
0.0
 40
270.0
100
AcDbArc
 50
0.9972242662842217
 51
6.524408999999913
  0
LINE
  5
414
330
1B
100
AcDbEntity
  8
4
 62
     3
100
AcDbLine
 10
601.4930682466851
 20
214.7524871658227
 30
0.0
 11
605.4930682466851
 21
214.7524871658227
 31
0.0
  0
LINE
  5
415
330
1B
100
AcDbEntity
  8
4
100
AcDbLine
 10
614.293068246685
 20
214.7524871658227
 30
0.0
 11
605.4930682466851
 21
214.7524871658227
 31
0.0
  0
ARC
  5
416
330
1B
100
AcDbEntity
  8
4
100
AcDbCircle
 10
614.293068246685
 20
213.7524871658227
 30
0.0
 40
1.0
100
AcDbArc
 50
0.0
 51
90.0
  0
LINE
  5
417
330
1B
100
AcDbEntity
  8
4
100
AcDbLine
 10
621.593068246685
 20
204.2223414300273
 30
0.0
 11
615.293068246685
 21
204.2223414300273
 31
0.0
  0
LINE
  5
418
330
1B
100
AcDbEntity
  8
2
100
AcDbLine
 10
615.293068246685
 20
199.9723414300273
 30
0.0
 11
616.593068246685
 21
201.2723414300273
 31
0.0
  0
LINE
  5
419
330
1B
100
AcDbEntity
  8
4
100
AcDbLine
 10
621.593068246685
 20
195.7223414300273
 30
0.0
 11
615.293068246685
 21
195.7223414300273
 31
0.0
  0
LINE
  5
41A
330
1B
100
AcDbEntity
  8
2
100
AcDbLine
 10
615.293068246685
 20
198.1338637989423
 30
0.0
 11
616.593068246685
 21
199.4338637989424
 31
0.0
  0
LINE
  5
41B
330
1B
100
AcDbEntity
  8
4
100
AcDbLine
 10
616.593068246685
 20
195.7223414300273
 30
0.0
 11
616.593068246685
 21
204.2223414300273
 31
0.0
  0
LINE
  5
41C
330
1B
100
AcDbEntity
  8
4
100
AcDbLine
 10
621.593068246685
 20
195.7223414300273
 30
0.0
 11
621.593068246685
 21
204.2223414300273
 31
0.0
  0
LINE
  5
41D
330
1B
100
AcDbEntity
  8
L-CENTER
 48
2.0
100
AcDbLine
 10
623.7668396902194
 20
199.9723414300273
 30
0.0
 11
597.7345115868924
 21
199.9723414300273
 31
0.0
  0
ARC
  5
41E
330
1B
100
AcDbEntity
  8
4
 62
     3
100
AcDbCircle
 10
601.4930682466851
 20
215.7524871658227
 30
0.0
 40
1.0
100
AcDbArc
 50
180.0
 51
270.0
  0
ARC
  5
41F
330
1B
100
AcDbEntity
  8
4
 62
     3
100
AcDbCircle
 10
537.728759246685
 20
243.2043861658228
 30
0.0
 40
2.0
100
AcDbArc
 50
96.16139600000058
 51
173.4755910000004
  0
ARC
  5
420
330
1B
100
AcDbEntity
  8
4
 62
     3
100
AcDbCircle
 10
533.0391972466851
 20
217.7524871658227
 30
0.0
 40
1.0
100
AcDbArc
 50
270.0
 51
358.9428220000003
  0
LINE
  5
421
330
1B
100
AcDbEntity
  8
4
 62
     3
100
AcDbLine
 10
533.0391972466851
 20
216.7524871658227
 30
0.0
 11
532.993065246685
 21
216.7524871658227
 31
0.0
  0
LINE
  5
422
330
1B
100
AcDbEntity
  8
4
 62
     3
100
AcDbLine
 10
532.4930622466851
 20
215.7524871658227
 30
0.0
 11
532.4930682466851
 21
216.2524871658227
 31
0.0
  0
ARC
  5
423
330
1B
100
AcDbEntity
  8
4
 62
     3
100
AcDbCircle
 10
532.993065246685
 20
216.2524871658227
 30
0.0
 40
0.5
100
AcDbArc
 50
90.0
 51
180.0
  0
ARC
  5
424
330
1B
100
AcDbEntity
  8
4
 62
     3
100
AcDbCircle
 10
803.9930682466851
 20
212.7524871658227
 30
0.0
 40
270.0
100
AcDbArc
 50
173.4755910000001
 51
178.9428219999999
  0
LINE
  5
426
330
1B
100
AcDbEntity
  8
4
 62
     3
100
AcDbLine
 10
531.493065246685
 20
214.7524871658227
 30
0.0
 11
526.4930682466851
 21
214.7524871658227
 31
0.0
  0
ARC
  5
427
330
1B
100
AcDbEntity
  8
4
 62
     3
100
AcDbCircle
 10
526.4930682466851
 20
213.7524871658227
 30
0.0
 40
1.0
100
AcDbArc
 50
90.00000299999769
 51
180.0000029575587
  0
ARC
  5
42F
330
1B
100
AcDbEntity
  8
4
 62
     3
100
AcDbCircle
 10
531.493065246685
 20
215.7524871658227
 30
0.0
 40
1.0
100
AcDbArc
 50
270.0
 51
0.0
  0
ARC
  5
430
330
1B
100
AcDbEntity
  8
4
 62
     3
100
AcDbCircle
 10
566.4930682466851
 20
-23.24751283417726
 30
0.0
 40
270.0
100
AcDbArc
 50
83.83860399999999
 51
96.16139600000001
  0
LINE
  5
431
330
1B
100
AcDbEntity
  8
L-CENTER
 48
2.0
100
AcDbLine
 10
529.2843489921992
 20
212.7524871658227
 30
0.0
 11
603.701787501171
 21
212.7524871658227
 31
0.0
  0
CIRCLE
  5
432
330
1B
100
AcDbEntity
  8
4
 62
     3
100
AcDbCircle
 10
566.4930682466851
 20
212.7524871658227
 30
0.0
 40
23.5
  0
LINE
  5
434
330
1B
100
AcDbEntity
  8
4
100
AcDbLine
 10
554.9930682466851
 20
247.7524871658227
 30
0.0
 11
554.9930682466851
 21
249.2524871658227
 31
0.0
  0
LINE
  5
435
330
1B
100
AcDbEntity
  8
4
100
AcDbLine
 10
577.9930682466851
 20
247.7524871658227
 30
0.0
 11
577.9930682466851
 21
249.2524871658227
 31
0.0
  0
LINE
  5
437
330
1B
100
AcDbEntity
  8
4
100
AcDbLine
 10
254.2732453101762
 20
556.3906447139017
 30
0.0
 11
262.7732453101761
 21
556.3906447139017
 31
0.0
  0
LINE
  5
438
330
1B
100
AcDbEntity
  8
4
100
AcDbLine
 10
262.7732453101761
 20
556.3906447139017
 30
0.0
 11
261.7732453101761
 21
557.3906447139017
 31
0.0
  0
LINE
  5
439
330
1B
100
AcDbEntity
  8
4
100
AcDbLine
 10
238.7732453101761
 20
556.3906447139017
 30
0.0
 11
239.7732453101761
 21
557.3906447139017
 31
0.0
  0
LINE
  5
43A
330
1B
100
AcDbEntity
  8
4
100
AcDbLine
 10
239.7732453101761
 20
557.3906447139017
 30
0.0
 11
261.7732453101761
 21
557.3906447139017
 31
0.0
  0
LINE
  5
43B
330
1B
100
AcDbEntity
  8
4
100
AcDbLine
 10
238.7732453101761
 20
556.3906447139017
 30
0.0
 11
247.2732453101761
 21
556.3906447139017
 31
0.0
  0
ARC
  5
43C
330
1B
100
AcDbEntity
  8
4
 62
     3
100
AcDbCircle
 10
355.2732453101762
 20
504.3906447139017
 30
0.0
 40
3.0
100
AcDbArc
 50
0.0
 51
90.0
  0
ARC
  5
43D
330
1B
100
AcDbEntity
  8
4
 62
     3
100
AcDbCircle
 10
323.1749113101762
 20
504.3906447139017
 30
0.0
 40
3.0
100
AcDbArc
 50
90.0
 51
178.0908479999999
  0
LINE
  5
43E
330
1B
100
AcDbEntity
  8
4
 62
     3
100
AcDbLine
 10
323.1749113101762
 20
507.3906447139017
 30
0.0
 11
355.2732453101762
 21
507.3906447139017
 31
0.0
  0
ARC
  5
43F
330
1B
100
AcDbEntity
  8
4
100
AcDbCircle
 10
327.773245310176
 20
495.1906447139016
 30
0.0
 40
1.0
100
AcDbArc
 50
0.0
 51
90.0
  0
LINE
  5
440
330
1B
100
AcDbEntity
  8
4
100
AcDbLine
 10
328.0232453101762
 20
502.4906447139016
 30
0.0
 11
328.0232453101762
 21
496.1906447139016
 31
0.0
  0
LINE
  5
441
330
1B
100
AcDbEntity
  8
4
100
AcDbLine
 10
319.5232453101762
 20
502.4906447139016
 30
0.0
 11
319.5232453101762
 21
496.1906447139017
 31
0.0
  0
LINE
  5
442
330
1B
100
AcDbEntity
  8
4
100
AcDbLine
 10
319.5232453101762
 20
497.4906447139017
 30
0.0
 11
328.0232453101762
 21
497.4906447139017
 31
0.0
  0
LINE
  5
443
330
1B
100
AcDbEntity
  8
4
100
AcDbLine
 10
319.5232453101762
 20
502.4906447139016
 30
0.0
 11
328.0232453101762
 21
502.4906447139017
 31
0.0
  0
LINE
  5
444
330
1B
100
AcDbEntity
  8
4
100
AcDbLine
 10
328.7732453101763
 20
486.3906447139016
 30
0.0
 11
328.7732453101763
 21
481.3906447139016
 31
0.0
  0
LINE
  5
445
330
1B
100
AcDbEntity
  8
4
100
AcDbLine
 10
328.7732453101761
 20
495.1906447139016
 30
0.0
 11
328.7732453101761
 21
486.6906447139016
 31
0.0
  0
CIRCLE
  5
446
330
1B
100
AcDbEntity
  8
4
 62
     3
100
AcDbCircle
 10
345.7732453101762
 20
492.3906447139017
 30
0.0
 40
5.5
  0
LINE
  5
447
330
1B
100
AcDbEntity
  8
L-CENTER
 48
2.0
100
AcDbLine
 10
334.8152223101762
 20
492.3906447139017
 30
0.0
 11
356.7312683101762
 21
492.3906447139017
 31
0.0
  0
LINE
  5
448
330
1B
100
AcDbEntity
  8
4
 62
     3
100
AcDbLine
 10
320.1784883109394
 20
504.5479487508599
 30
0.0
 11
320.1099115265215
 21
502.4906447139016
 31
0.0
  0
LINE
  5
449
330
1B
100
AcDbEntity
  8
L-CENTER
 48
2.0
100
AcDbLine
 10
345.7732453101762
 20
481.4326217139017
 30
0.0
 11
345.7732453101762
 21
503.3486677139017
 31
0.0
  0
LINE
  5
44A
330
1B
100
AcDbEntity
  8
L-CENTER
 48
2.0
100
AcDbLine
 10
323.7732453101762
 20
503.6006907861607
 30
0.0
 11
323.7732453101762
 21
479.9692253899851
 31
0.0
  0
LINE
  5
44B
330
1B
100
AcDbEntity
  8
4
100
AcDbLine
 10
331.7732453101762
 20
470.8906447139017
 30
0.0
 11
330.7732453101762
 21
470.8906447139017
 31
0.0
  0
LINE
  5
44C
330
1B
100
AcDbEntity
  8
4
100
AcDbLine
 10
331.7732453101762
 20
423.8906447139017
 30
0.0
 11
330.7732453101762
 21
423.8906447139017
 31
0.0
  0
LINE
  5
44D
330
1B
100
AcDbEntity
  8
4
100
AcDbLine
 10
328.7732453101762
 20
413.3906447139017
 30
0.0
 11
328.7732453101762
 21
406.3906447139017
 31
0.0
  0
LINE
  5
44E
330
1B
100
AcDbEntity
  8
4
100
AcDbLine
 10
331.7732453101762
 20
423.8906447139017
 30
0.0
 11
331.7732453101762
 21
470.8906447139017
 31
0.0
  0
LINE
  5
44F
330
1B
100
AcDbEntity
  8
4
100
AcDbLine
 10
328.7732453101763
 20
479.8906447139017
 30
0.0
 11
328.7732453101762
 21
414.8906447139017
 31
0.0
  0
LINE
  5
450
330
1B
100
AcDbEntity
  8
4
100
AcDbLine
 10
330.7732453101762
 20
481.3906447139017
 30
0.0
 11
330.7732453101762
 21
413.3906447139017
 31
0.0
  0
LINE
  5
451
330
1B
100
AcDbEntity
  8
4
 62
     3
100
AcDbLine
 10
358.2732453101762
 20
504.3906447139017
 30
0.0
 11
358.2732453101762
 21
390.3906447139017
 31
0.0
  0
ARC
  5
452
330
1B
100
AcDbEntity
  8
4
100
AcDbCircle
 10
250.7732453101763
 20
523.8906447139018
 30
0.0
 40
3.5
100
AcDbArc
 50
180.0
 51
0.0
  0
LINE
  5
453
330
1B
100
AcDbEntity
  8
4
100
AcDbLine
 10
274.2732453101761
 20
505.2906447139017
 30
0.0
 11
274.2732453101762
 21
504.2906447139015
 31
0.0
  0
ARC
  5
454
330
1B
100
AcDbEntity
  8
4
100
AcDbCircle
 10
279.9414282570096
 20
503.2906447139015
 30
0.0
 40
1.0
100
AcDbArc
 50
10.49147701233408
 51
90.0
  0
LINE
  5
455
330
1B
100
AcDbEntity
  8
4
100
AcDbLine
 10
263.2732453101761
 20
505.2906447139017
 30
0.0
 11
263.2732453101761
 21
517.3906447139017
 31
0.0
  0
ARC
  5
456
330
1B
100
AcDbEntity
  8
4
100
AcDbCircle
 10
263.2732453101762
 20
517.8906447139018
 30
0.0
 40
0.5
100
AcDbArc
 50
180.0
 51
270.0
  0
LINE
  5
457
330
1B
100
AcDbEntity
  8
4
100
AcDbLine
 10
263.2732453101761
 20
517.3906447139017
 30
0.0
 11
263.2732453101761
 21
517.3906447139017
 31
0.0
  0
ARC
  5
458
330
1B
100
AcDbEntity
  8
4
100
AcDbCircle
 10
221.6050623633424
 20
503.2906447139015
 30
0.0
 40
1.0
100
AcDbArc
 50
90.0
 51
169.5085229876659
  0
LINE
  5
459
330
1B
100
AcDbEntity
  8
4
100
AcDbLine
 10
227.2732453101762
 20
505.2906447139015
 30
0.0
 11
227.2732453101762
 21
504.2906447139015
 31
0.0
  0
LINE
  5
45A
330
1B
100
AcDbEntity
  8
4
100
AcDbLine
 10
238.2732453101761
 20
505.2906447139015
 30
0.0
 11
238.2732453101761
 21
517.3906447139017
 31
0.0
  0
ARC
  5
45B
330
1B
100
AcDbEntity
  8
4
100
AcDbCircle
 10
238.2732453101763
 20
517.8906447139018
 30
0.0
 40
0.5
100
AcDbArc
 50
270.0
 51
0.0
  0
LINE
  5
45C
330
1B
100
AcDbEntity
  8
4
100
AcDbLine
 10
238.2732453101761
 20
517.3906447139017
 30
0.0
 11
238.2732453101762
 21
517.3906447139017
 31
0.0
  0
LINE
  5
45D
330
1B
100
AcDbEntity
  8
4
100
AcDbLine
 10
221.6050623633425
 20
504.2906447139015
 30
0.0
 11
279.9414282570098
 21
504.2906447139015
 31
0.0
  0
LINE
  5
45E
330
1B
100
AcDbEntity
  8
4
100
AcDbLine
 10
227.2732453101762
 20
505.2906447139014
 30
0.0
 11
274.2732453101761
 21
505.2906447139017
 31
0.0
  0
LINE
  5
45F
330
1B
100
AcDbEntity
  8
4
100
AcDbLine
 10
238.2732453101761
 20
517.3906447139017
 30
0.0
 11
263.2732453101761
 21
517.3906447139017
 31
0.0
  0
LINE
  5
460
330
1B
100
AcDbEntity
  8
4
100
AcDbLine
 10
283.0232456774737
 20
497.1292008889731
 30
0.0
 11
282.1505180354831
 21
497.2050902491459
 31
0.0
  0
ARC
  5
461
330
1B
100
AcDbEntity
  8
4
100
AcDbCircle
 10
283.9626869671652
 20
498.0512839403572
 30
0.0
 40
2.0
100
AcDbArc
 50
190.4914770123308
 51
202.4563817741526
  0
LINE
  5
462
330
1B
100
AcDbEntity
  8
4
100
AcDbLine
 10
293.8166416908064
 20
496.1906447139016
 30
0.0
 11
291.5232456774737
 21
496.3900704541915
 31
0.0
  0
LINE
  5
463
330
1B
100
AcDbEntity
  8
4
100
AcDbLine
 10
283.0232456774737
 20
502.4906447139016
 30
0.0
 11
291.5232456774737
 21
502.4906447139017
 31
0.0
  0
LINE
  5
464
330
1B
100
AcDbEntity
  8
4
100
AcDbLine
 10
283.0232456774737
 20
497.4906447139017
 30
0.0
 11
291.5232456774737
 21
497.4906447139017
 31
0.0
  0
LINE
  5
465
330
1B
100
AcDbEntity
  8
4
100
AcDbLine
 10
291.5232456774737
 20
502.4906447139016
 30
0.0
 11
291.5232456774737
 21
496.1906447139017
 31
0.0
  0
ARC
  5
466
330
1B
100
AcDbEntity
  8
4
100
AcDbCircle
 10
283.9626869671654
 20
498.0512839403574
 30
0.0
 40
2.0
100
AcDbArc
 50
190.4914770123308
 51
241.9838354828969
  0
LINE
  5
467
330
1B
100
AcDbEntity
  8
4
100
AcDbLine
 10
283.0232456774737
 20
502.4906447139016
 30
0.0
 11
283.0232456774737
 21
496.1906447139017
 31
0.0
  0
ARC
  5
468
330
1B
100
AcDbEntity
  8
4
100
AcDbCircle
 10
217.583803653187
 20
498.0512839403574
 30
0.0
 40
2.0
100
AcDbArc
 50
298.0161645171038
 51
349.5085229876692
  0
LINE
  5
469
330
1B
100
AcDbEntity
  8
4
100
AcDbLine
 10
218.5232449428787
 20
502.4906447139016
 30
0.0
 11
218.5232449428787
 21
496.1906447139017
 31
0.0
  0
LINE
  5
46A
330
1B
100
AcDbEntity
  8
4
  6
Continuous
 62
     3
100
AcDbLine
 10
207.7298489295659
 20
496.1906447139016
 30
0.0
 11
210.0232449428787
 21
496.3900704541895
 31
0.0
  0
LINE
  5
46B
330
1B
100
AcDbEntity
  8
4
100
AcDbLine
 10
210.0232449428787
 20
502.4906447139016
 30
0.0
 11
210.0232449428787
 21
496.1906447139017
 31
0.0
  0
LINE
  5
46C
330
1B
100
AcDbEntity
  8
4
100
AcDbLine
 10
218.5232449428787
 20
497.4906447139017
 30
0.0
 11
210.0232449428787
 21
497.4906447139017
 31
0.0
  0
LINE
  5
46D
330
1B
100
AcDbEntity
  8
4
100
AcDbLine
 10
218.5232449428787
 20
502.4906447139016
 30
0.0
 11
210.0232449428787
 21
502.4906447139017
 31
0.0
  0
LINE
  5
46E
330
1B
100
AcDbEntity
  8
L-CENTER
 48
2.0
100
AcDbLine
 10
214.2732449428787
 20
503.6006907861607
 30
0.0
 11
214.2732449428787
 21
479.9692253899851
 31
0.0
  0
LINE
  5
46F
330
1B
100
AcDbEntity
  8
4
100
AcDbLine
 10
219.5503676631561
 20
497.6871054199927
 30
0.0
 11
220.621780358358
 21
503.4727339740838
 31
0.0
  0
LINE
  5
470
330
1B
100
AcDbEntity
  8
4
100
AcDbLine
 10
281.9961229571962
 20
497.6871054199927
 30
0.0
 11
280.9247102619943
 21
503.4727339740838
 31
0.0
  0
LINE
  5
471
330
1B
100
AcDbEntity
  8
L-CENTER
 48
2.0
100
AcDbLine
 10
287.2732456774737
 20
503.6006907861607
 30
0.0
 11
287.2732456774737
 21
479.9692253899851
 31
0.0
  0
ARC
  5
472
330
1B
100
AcDbEntity
  8
4
 62
     3
100
AcDbCircle
 10
178.3715793101762
 20
504.3906447139017
 30
0.0
 40
3.0
100
AcDbArc
 50
1.909152000000113
 51
90.0
  0
ARC
  5
473
330
1B
100
AcDbEntity
  8
4
 62
     3
100
AcDbCircle
 10
146.2732453101762
 20
504.3906447139017
 30
0.0
 40
3.0
100
AcDbArc
 50
90.0
 51
180.0
  0
LINE
  5
474
330
1B
100
AcDbEntity
  8
4
 62
     3
100
AcDbLine
 10
146.2732453101762
 20
507.3906447139017
 30
0.0
 11
178.3715793101762
 21
507.3906447139017
 31
0.0
  0
ARC
  5
475
330
1B
100
AcDbEntity
  8
4
100
AcDbCircle
 10
173.773245310176
 20
495.1906447139016
 30
0.0
 40
1.0
100
AcDbArc
 50
90.0
 51
180.0
  0
LINE
  5
476
330
1B
100
AcDbEntity
  8
4
100
AcDbLine
 10
186.7732453101762
 20
497.1906447139016
 30
0.0
 11
186.7732453101762
 21
496.1906447139016
 31
0.0
  0
LINE
  5
477
330
1B
100
AcDbEntity
  8
4
100
AcDbLine
 10
182.0232453101762
 20
502.4906447139016
 30
0.0
 11
173.5232453101762
 21
502.4906447139017
 31
0.0
  0
LINE
  5
478
330
1B
100
AcDbEntity
  8
4
100
AcDbLine
 10
182.0232453101762
 20
497.4906447139017
 30
0.0
 11
173.5232453101762
 21
497.4906447139017
 31
0.0
  0
LINE
  5
479
330
1B
100
AcDbEntity
  8
4
100
AcDbLine
 10
182.0232453101762
 20
502.4906447139016
 30
0.0
 11
182.0232453101762
 21
496.1906447139017
 31
0.0
  0
LINE
  5
47A
330
1B
100
AcDbEntity
  8
4
100
AcDbLine
 10
173.5232453101762
 20
502.4906447139016
 30
0.0
 11
173.5232453101762
 21
496.1906447139015
 31
0.0
  0
LINE
  5
47B
330
1B
100
AcDbEntity
  8
L-CENTER
 48
2.0
100
AcDbLine
 10
144.8152223101762
 20
492.3906447139017
 30
0.0
 11
166.7312683101762
 21
492.3906447139017
 31
0.0
  0
LINE
  5
47C
330
1B
100
AcDbEntity
  8
4
100
AcDbLine
 10
172.7732453101762
 20
486.3906447139017
 30
0.0
 11
172.7732453101762
 21
481.3906447139018
 31
0.0
  0
CIRCLE
  5
47D
330
1B
100
AcDbEntity
  8
4
 62
     3
100
AcDbCircle
 10
155.7732453101762
 20
492.3906447139017
 30
0.0
 40
5.5
  0
LINE
  5
47E
330
1B
100
AcDbEntity
  8
4
100
AcDbLine
 10
172.7732453101761
 20
495.1906447139016
 30
0.0
 11
172.7732453101761
 21
486.6906447139016
 31
0.0
  0
LINE
  5
47F
330
1B
100
AcDbEntity
  8
L-CENTER
 48
2.0
100
AcDbLine
 10
155.7732453101762
 20
481.4326217139017
 30
0.0
 11
155.7732453101762
 21
503.3486677139017
 31
0.0
  0
LINE
  5
480
330
1B
100
AcDbEntity
  8
L-CENTER
 48
2.0
100
AcDbLine
 10
177.7732453101762
 20
503.6006907861607
 30
0.0
 11
177.7732453101762
 21
479.9692253899851
 31
0.0
  0
LINE
  5
481
330
1B
100
AcDbEntity
  8
4
 62
     3
100
AcDbLine
 10
181.3699142942834
 20
504.4905891906877
 30
0.0
 11
181.4365790938311
 21
502.4906447139017
 31
0.0
  0
LINE
  5
482
330
1B
100
AcDbEntity
  8
4
100
AcDbLine
 10
186.7732453101762
 20
497.1906447139016
 30
0.0
 11
210.0232449428787
 21
497.1906447139016
 31
0.0
  0
LWPOLYLINE
  5
483
330
1B
100
AcDbEntity
  8
4
100
AcDbPolyline
 90
        6
 70
     1
 43
0.0
 10
228.2732453101762
 20
447.3906447139017
 10
222.0232453101762
 20
458.2159622612072
 10
209.5232453101762
 20
458.2159622612072
 10
203.2732453101762
 20
447.3906447139017
 10
209.5232453101762
 20
436.5653271665961
 10
222.0232453101762
 20
436.5653271665961
  0
CIRCLE
  5
484
330
1B
100
AcDbEntity
  8
4
100
AcDbCircle
 10
215.7732453101762
 20
447.3906447139017
 30
0.0
 40
12.5
  0
CIRCLE
  5
485
330
1B
100
AcDbEntity
  8
4
100
AcDbCircle
 10
215.7732453101762
 20
447.3906447139017
 30
0.0
 40
14.0
  0
LINE
  5
486
330
1B
100
AcDbEntity
  8
L-CENTER
 48
2.0
100
AcDbLine
 10
215.7732453101762
 20
465.2561382631912
 30
0.0
 11
215.7732453101762
 21
429.5251511646121
 31
0.0
  0
LINE
  5
487
330
1B
100
AcDbEntity
  8
4
100
AcDbLine
 10
169.7735493101762
 20
462.3906447139017
 30
0.0
 11
168.7732453101762
 21
462.3906447139017
 31
0.0
  0
LINE
  5
488
330
1B
100
AcDbEntity
  8
4
100
AcDbLine
 10
167.2732453101762
 20
458.8906447139017
 30
0.0
 11
168.7732453101762
 21
458.8906447139017
 31
0.0
  0
LINE
  5
489
330
1B
100
AcDbEntity
  8
4
100
AcDbLine
 10
165.2732453101762
 20
459.8906447139017
 30
0.0
 11
167.2732453101762
 21
459.8906447139017
 31
0.0
  0
LINE
  5
48A
330
1B
100
AcDbEntity
  8
4
100
AcDbLine
 10
170.7735493101762
 20
470.8906447139017
 30
0.0
 11
169.7735493101762
 21
470.8906447139017
 31
0.0
  0
LWPOLYLINE
  5
48B
330
1B
100
AcDbEntity
  8
4
100
AcDbPolyline
 90
        2
 70
     0
 43
0.0
 10
165.2732453101762
 20
458.2159622612072
 10
160.2732453101762
 20
458.2159622612072
  0
LINE
  5
48C
330
1B
100
AcDbEntity
  8
4
100
AcDbLine
 10
169.7735493101762
 20
423.8906447139017
 30
0.0
 11
170.7735493101762
 21
423.8906447139017
 31
0.0
  0
LINE
  5
48D
330
1B
100
AcDbEntity
  8
4
100
AcDbLine
 10
169.7735493101762
 20
432.3906447139017
 30
0.0
 11
168.7732453101762
 21
432.3906447139017
 31
0.0
  0
LINE
  5
48E
330
1B
100
AcDbEntity
  8
4
100
AcDbLine
 10
167.2732453101762
 20
435.8906447139017
 30
0.0
 11
168.7732453101762
 21
435.8906447139017
 31
0.0
  0
LINE
  5
48F
330
1B
100
AcDbEntity
  8
4
100
AcDbLine
 10
165.2732453101762
 20
434.8906447139017
 30
0.0
 11
167.2732453101762
 21
434.8906447139017
 31
0.0
  0
LWPOLYLINE
  5
490
330
1B
100
AcDbEntity
  8
4
100
AcDbPolyline
 90
        2
 70
     0
 43
0.0
 10
160.2732453101762
 20
436.5653271665961
 10
165.2732453101762
 20
436.5653271665961
  0
LINE
  5
491
330
1B
100
AcDbEntity
  8
4
100
AcDbLine
 10
172.7732453101762
 20
413.3906447139017
 30
0.0
 11
172.7732453101762
 21
406.3906447139017
 31
0.0
  0
LINE
  5
492
330
1B
100
AcDbEntity
  8
4
100
AcDbLine
 10
167.2732453101762
 20
457.3906447139017
 30
0.0
 11
167.2732453101762
 21
459.8906447139017
 31
0.0
  0
LINE
  5
493
330
1B
100
AcDbEntity
  8
4
100
AcDbLine
 10
167.2732453101762
 20
434.8906447139017
 30
0.0
 11
167.2732453101762
 21
437.3906447139017
 31
0.0
  0
LINE
  5
494
330
1B
100
AcDbEntity
  8
4
100
AcDbLine
 10
165.2732453101762
 20
457.3906447139017
 30
0.0
 11
165.2732453101762
 21
459.8906447139017
 31
0.0
  0
LINE
  5
495
330
1B
100
AcDbEntity
  8
4
100
AcDbLine
 10
165.2732453101762
 20
434.8906447139017
 30
0.0
 11
165.2732453101762
 21
437.3906447139017
 31
0.0
  0
LINE
  5
496
330
1B
100
AcDbEntity
  8
4
100
AcDbLine
 10
168.7732453101762
 20
457.3906447139017
 30
0.0
 11
168.7732453101762
 21
462.3906447139016
 31
0.0
  0
LINE
  5
497
330
1B
100
AcDbEntity
  8
4
100
AcDbLine
 10
168.7732453101762
 20
432.3906447139017
 30
0.0
 11
168.7732453101762
 21
437.3906447139017
 31
0.0
  0
LINE
  5
498
330
1B
100
AcDbEntity
  8
4
100
AcDbLine
 10
160.2732453101762
 20
457.3906447139017
 30
0.0
 11
160.2732453101762
 21
458.2159622612072
 31
0.0
  0
LINE
  5
499
330
1B
100
AcDbEntity
  8
4
100
AcDbLine
 10
160.2732453101762
 20
436.5653271665961
 30
0.0
 11
160.2732453101762
 21
437.3906447139017
 31
0.0
  0
LINE
  5
49A
330
1B
100
AcDbEntity
  8
4
100
AcDbLine
 10
169.7735493101762
 20
470.8906447139017
 30
0.0
 11
169.7735493101762
 21
423.8906447139017
 31
0.0
  0
LINE
  5
49B
330
1B
100
AcDbEntity
  8
4
100
AcDbLine
 10
172.7732453101762
 20
479.8906447139017
 30
0.0
 11
172.7732453101762
 21
414.8906447139017
 31
0.0
  0
LINE
  5
49C
330
1B
100
AcDbEntity
  8
4
100
AcDbLine
 10
170.7732453101762
 20
481.3906447139018
 30
0.0
 11
170.7732453101762
 21
413.3906447139017
 31
0.0
  0
LINE
  5
49D
330
1B
100
AcDbEntity
  8
4
100
AcDbLine
 10
172.7732453101761
 20
486.6906447139016
 30
0.0
 11
328.7732453101761
 21
486.6906447139016
 31
0.0
  0
LINE
  5
49E
330
1B
100
AcDbEntity
  8
4
 62
     3
100
AcDbLine
 10
273.7732453101762
 20
413.3906447139017
 30
0.0
 11
170.7732453101762
 21
413.3906447139017
 31
0.0
  0
LINE
  5
49F
330
1B
100
AcDbEntity
  8
4
 62
     3
100
AcDbLine
 10
330.7732453101762
 20
413.3906447139017
 30
0.0
 11
322.7732453101762
 21
413.3906447139017
 31
0.0
  0
LINE
  5
4A0
330
1B
100
AcDbEntity
  8
4
 62
     3
100
AcDbLine
 10
328.7732453101763
 20
486.3906447139016
 30
0.0
 11
172.7732453101762
 21
486.3906447139017
 31
0.0
  0
LINE
  5
4A1
330
1B
100
AcDbEntity
  8
4
 62
     3
100
AcDbLine
 10
330.7732453101762
 20
481.3906447139017
 30
0.0
 11
170.7732453101762
 21
481.3906447139018
 31
0.0
  0
LINE
  5
4A2
330
1B
100
AcDbEntity
  8
4
 62
     3
100
AcDbLine
 10
322.7732453101762
 20
412.8906447139017
 30
0.0
 11
273.7732453101762
 21
412.8906447139017
 31
0.0
  0
ENDSEC
  0
SECTION
  2
OBJECTS
  0
DICTIONARY
  5
9
330
0
100
AcDbDictionary
281
     1
  3
ACAD_COLOR
350
2F
  3
ACAD_GROUP
350
2D
  3
ACAD_LAYOUT
350
24
  3
ACAD_MATERIAL
350
B
  3
ACAD_MLEADERSTYLE
350
4A6
  3
ACAD_MLINESTYLE
350
19
  3
ACAD_PLOTSETTINGS
350
2E
  3
ACAD_PLOTSTYLENAME
350
8
  3
ACAD_SCALELIST
350
34
  3
ACAD_TABLESTYLE
350
4A5
  3
ACAD_VISUALSTYLE
350
30
  3
ACDBHEADERROUNDTRIPXREC
350
4CD
  3
AcDbVariableDictionary
350
4A3
  3
DWGPROPS
350
4D0
  0
DICTIONARY
  5
4D1
330
2C
100
AcDbDictionary
280
     1
281
     1
  3
ACAD_XREC_ROUNDTRIP
360
4D2
  0
DICTIONARY
  5
3
330
2
100
AcDbDictionary
280
     1
281
     1
  3
ACAD_LAYERSTATES
360
4
  0
DICTIONARY
  5
20
330
1F
100
AcDbDictionary
280
     1
281
     1
  3
ADSK_XREC_LAYER_RECONCILED
360
21
  0
DICTIONARY
  5
2E5
330
2E4
100
AcDbDictionary
280
     1
281
     1
  3
ADSK_XREC_LAYER_RECONCILED
360
2E6
  0
DICTIONARY
  5
5
330
1
100
AcDbDictionary
280
     1
281
     1
  3
ADSK_XREC_LAYER_RECONCILED
360
6
  0
DICTIONARY
  5
79
330
78
100
AcDbDictionary
280
     1
281
     1
  3
ADSK_XREC_LAYER_RECONCILED
360
7A
  0
DICTIONARY
  5
DA
330
D9
100
AcDbDictionary
280
     1
281
     1
  3
ADSK_XREC_LAYER_RECONCILED
360
DB
  0
DICTIONARY
  5
5C
330
5B
100
AcDbDictionary
280
     1
281
     1
  3
ADSK_XREC_LAYER_RECONCILED
360
5D
  0
DICTIONARY
  5
2DD
330
2DC
100
AcDbDictionary
280
     1
281
     1
  3
ADSK_XREC_LAYER_RECONCILED
360
2DE
  0
DICTIONARY
  5
1C
330
1B
100
AcDbDictionary
280
     1
281
     1
  3
ACAD_SORTENTS
360
1D
  0
DICTIONARY
  5
2F
102
{ACAD_REACTORS
330
9
102
}
330
9
100
AcDbDictionary
281
     1
  0
DICTIONARY
  5
2D
102
{ACAD_REACTORS
330
9
102
}
330
9
100
AcDbDictionary
281
     1
  0
DICTIONARY
  5
24
102
{ACAD_REACTORS
330
9
102
}
330
9
100
AcDbDictionary
281
     1
  3
Model
350
23
  3
ﾚｲｱｳﾄ1
350
29
  0
DICTIONARY
  5
B
102
{ACAD_REACTORS
330
9
102
}
330
9
100
AcDbDictionary
281
     1
  3
ByBlock
350
57
  3
ByLayer
350
14
  3
Global
350
A
  0
DICTIONARY
  5
4A6
102
{ACAD_REACTORS
330
9
102
}
330
9
100
AcDbDictionary
281
     1
  3
Standard
350
4C3
  0
DICTIONARY
  5
19
102
{ACAD_REACTORS
330
9
102
}
330
9
100
AcDbDictionary
281
     1
  3
STANDARD
350
18
  0
DICTIONARY
  5
2E
102
{ACAD_REACTORS
330
9
102
}
330
9
100
AcDbDictionary
281
     1
  0
ACDBDICTIONARYWDFLT
  5
8
102
{ACAD_REACTORS
330
9
102
}
330
9
100
AcDbDictionary
281
     1
  3
Normal
350
7
100
AcDbDictionaryWithDefault
340
7
  0
DICTIONARY
  5
34
102
{ACAD_REACTORS
330
9
102
}
330
9
100
AcDbDictionary
281
     1
  3
*A1
350
56
  0
DICTIONARY
  5
4A5
102
{ACAD_REACTORS
330
9
102
}
330
9
100
AcDbDictionary
281
     1
  3
Standard
350
4C9
  0
DICTIONARY
  5
30
102
{ACAD_REACTORS
330
9
102
}
330
9
100
AcDbDictionary
281
     1
  3
2dWireframe
350
4AE
  3
Basic
350
4B1
  3
Brighten
350
4B5
  3
ColorChange
350
4B9
  3
Conceptual
350
4B3
  3
Dim
350
4B4
  3
EdgeColorOff
350
4BC
  3
Facepattern
350
4B8
  3
Flat
350
4AA
  3
FlatWithEdges
350
4AB
  3
Gouraud
350
4AC
  3
GouraudWithEdges
350
4AD
  3
Hidden
350
4B0
  3
JitterOff
350
4BA
  3
Linepattern
350
4B7
  3
OverhangOff
350
4BB
  3
Realistic
350
4B2
  3
Shaded
350
4C1
  3
Shaded with edges
350
4C0
  3
Shades of Gray
350
4BD
  3
Sketchy
350
4BE
  3
Thicken
350
4B6
  3
Wireframe
350
4AF
  3
X-Ray
350
4BF
  0
DICTIONARY
  5
4CD
102
{ACAD_REACTORS
330
9
102
}
330
9
100
AcDbDictionary
281
     1
  3
COLORDICT
350
4CE
  3
MATERIALDICT
350
4CF
  0
DICTIONARY
  5
4A3
102
{ACAD_REACTORS
330
9
102
}
330
9
100
AcDbDictionary
281
     1
  3
CANNOSCALE
350
4A4
  3
CMLEADERSTYLE
350
4C7
  3
CTABLESTYLE
350
4CA
  3
DIMASSOC
350
4CB
  3
HIDETEXT
350
4CC
  3
MSLTSCALE
350
4D3
  3
XCLIPFRAME
350
4A7
  0
XRECORD
  5
4D0
102
{ACAD_REACTORS
330
9
102
}
330
9
100
AcDbXrecord
280
     1
  1
DWGPROPS COOKIE
  2

  3

  4

  6

  7

  8
sg-d04
  9

300
=
301
=
302
=
303
=
304
=
305
=
306
=
307
=
308
=
309
=
 40
0.0
 41
2457528.045364398
 42
2457870.238800521
  1

 90
        0
  0
XRECORD
  5
4D2
102
{ACAD_REACTORS
330
4D1
102
}
330
4D1
100
AcDbXrecord
280
     1
102
VTR_0.000_0.000_1.000_1.000_VISUALSTYLE
340
4AE
102
VTR_0.000_0.000_1.000_1.000_GRIDDISPLAY
 70
     3
102
VTR_0.000_0.000_1.000_1.000_GRIDMAJOR
 70
     5
102
VTR_0.000_0.000_1.000_1.000_DEFAULTLIGHTING
280
     1
102
VTR_0.000_0.000_1.000_1.000_DEFAULTLIGHTINGTYPE
 70
     1
102
VTR_0.000_0.000_1.000_1.000_BRIGHTNESS
141
0.0
102
VTR_0.000_0.000_1.000_1.000_CONTRAST
142
0.0
  0
DICTIONARY
  5
4
102
{ACAD_REACTORS
330
3
102
}
330
3
100
AcDbDictionary
281
     1
  0
XRECORD
  5
21
102
{ACAD_REACTORS
330
20
102
}
330
20
100
AcDbXrecord
280
     1
290
     1
  0
XRECORD
  5
2E6
102
{ACAD_REACTORS
330
2E5
102
}
330
2E5
100
AcDbXrecord
280
     1
290
     1
  0
XRECORD
  5
6
102
{ACAD_REACTORS
330
5
102
}
330
5
100
AcDbXrecord
280
     1
290
     1
  0
XRECORD
  5
7A
102
{ACAD_REACTORS
330
79
102
}
330
79
100
AcDbXrecord
280
     1
290
     1
  0
XRECORD
  5
DB
102
{ACAD_REACTORS
330
DA
102
}
330
DA
100
AcDbXrecord
280
     1
290
     1
  0
XRECORD
  5
5D
102
{ACAD_REACTORS
330
5C
102
}
330
5C
100
AcDbXrecord
280
     1
290
     1
  0
XRECORD
  5
2DE
102
{ACAD_REACTORS
330
2DD
102
}
330
2DD
100
AcDbXrecord
280
     1
290
     1
  0
SORTENTSTABLE
  5
1D
102
{ACAD_REACTORS
330
1C
102
}
330
1C
100
AcDbSortentsTable
330
1B
331
0
  5
411
331
B9
  5
4C6
331
BA
  5
4C5
331
BB
  5
4A2
331
BC
  5
4A1
331
BD
  5
4A0
331
BE
  5
49F
331
BF
  5
49E
331
C0
  5
49D
331
C1
  5
49C
331
C2
  5
49B
331
C3
  5
49A
331
C4
  5
499
331
C5
  5
498
331
CC
  5
491
331
CD
  5
490
331
CE
  5
48F
331
CF
  5
48E
331
D0
  5
48D
331
D1
  5
48C
331
D2
  5
48B
331
D3
  5
48A
331
D4
  5
489
331
D5
  5
488
331
D6
  5
487
331
D8
  5
485
331
DD
  5
484
331
DE
  5
483
331
DF
  5
482
331
E0
  5
481
331
E1
  5
480
331
E5
  5
47C
331
E6
  5
47B
331
E7
  5
47A
331
E8
  5
479
331
EA
  5
477
331
EB
  5
476
331
EC
  5
475
331
ED
  5
474
331
EE
  5
473
331
EF
  5
472
331
F0
  5
471
331
F1
  5
470
331
F2
  5
46F
331
F3
  5
46E
331
F4
  5
46D
331
F5
  5
46C
331
F6
  5
46B
331
F7
  5
46A
331
10C
  5
455
331
10D
  5
454
331
113
  5
44E
331
114
  5
44D
331
117
  5
44A
331
118
  5
449
331
11F
  5
442
331
137
  5
42A
331
138
  5
429
331
139
  5
428
331
13A
  5
427
331
13B
  5
426
331
13C
  5
425
331
13D
  5
424
331
13E
  5
423
331
141
  5
420
331
142
  5
41F
331
143
  5
41E
331
144
  5
41D
331
145
  5
41C
331
150
  5
410
331
154
  5
40C
331
15B
  5
405
331
15F
  5
401
331
160
  5
400
331
161
  5
3FF
331
162
  5
3FE
331
163
  5
3FD
331
164
  5
3FC
331
165
  5
3FB
331
166
  5
3FA
331
167
  5
3F9
331
168
  5
3F8
331
169
  5
3F7
331
16A
  5
3F6
331
16B
  5
3F5
331
16C
  5
3F4
331
16D
  5
3F3
331
16E
  5
3F2
331
16F
  5
3F1
331
170
  5
3F0
331
171
  5
3EF
331
172
  5
3EE
331
173
  5
3ED
331
174
  5
3EC
331
175
  5
3EA
331
176
  5
3E9
331
177
  5
3E8
331
178
  5
3E7
331
179
  5
3E6
331
17A
  5
3E5
331
17B
  5
3E4
331
17C
  5
3E3
331
17D
  5
3E2
331
17E
  5
3E1
331
17F
  5
3E0
331
180
  5
3DF
331
181
  5
3DE
331
182
  5
3DD
331
183
  5
3DC
331
184
  5
3DB
331
185
  5
3DA
331
186
  5
3D9
331
187
  5
3D8
331
188
  5
3D7
331
189
  5
3D6
331
18A
  5
3D5
331
18B
  5
3D4
331
18C
  5
3D3
331
18D
  5
3D2
331
18E
  5
3D1
331
18F
  5
3D0
331
190
  5
3CF
331
191
  5
3CE
331
192
  5
3CD
331
193
  5
3CC
331
194
  5
3CB
331
195
  5
3CA
331
196
  5
3C9
331
197
  5
3C8
331
198
  5
3C7
331
199
  5
3C6
331
19A
  5
3C5
331
19B
  5
3C4
331
19C
  5
3C3
331
19D
  5
3C2
331
19E
  5
3C1
331
19F
  5
3C0
331
1A0
  5
3BF
331
1A1
  5
3BE
331
1A2
  5
3BD
331
1A3
  5
3BC
331
1A4
  5
3BB
331
1A5
  5
3BA
331
1A6
  5
3B9
331
1A7
  5
3B8
331
1A8
  5
3B7
331
1A9
  5
3B6
331
1AA
  5
3B5
331
1AB
  5
3B4
331
1AC
  5
3B3
331
1AD
  5
3B2
331
1AE
  5
3B1
331
1AF
  5
3B0
331
1B0
  5
3AF
331
1B1
  5
3AE
331
1B2
  5
3AD
331
1B3
  5
3AC
331
1B5
  5
3AA
331
1B7
  5
3A8
331
1B8
  5
3A7
331
1B9
  5
3A6
331
1BA
  5
3A5
331
1BC
  5
3A3
331
1BD
  5
3A2
331
1BE
  5
3A1
331
1BF
  5
3A0
331
1C3
  5
39C
331
1D2
  5
38D
331
1D3
  5
38C
331
1D4
  5
38B
331
1D6
  5
389
331
1D7
  5
388
331
1D8
  5
387
331
1D9
  5
386
331
1DA
  5
385
331
1DB
  5
384
331
1DC
  5
383
331
1DD
  5
382
331
1DE
  5
381
331
1DF
  5
380
331
1E1
  5
37E
331
1E2
  5
37D
331
1E3
  5
37C
331
1E4
  5
37B
331
1E5
  5
37A
331
1E6
  5
379
331
1E7
  5
378
331
1E8
  5
377
331
1E9
  5
376
331
1EA
  5
375
331
1EB
  5
374
331
1EC
  5
373
331
1ED
  5
372
331
1EE
  5
371
331
1EF
  5
370
331
1F0
  5
36F
331
1F1
  5
36E
331
1F2
  5
36D
331
1F3
  5
36C
331
1F4
  5
36B
331
1F5
  5
36A
331
1FB
  5
364
331
1FC
  5
363
331
1FD
  5
362
331
1FF
  5
360
331
200
  5
35F
331
201
  5
35E
331
202
  5
35D
331
203
  5
35C
331
204
  5
35B
331
205
  5
35A
331
206
  5
359
331
207
  5
358
331
209
  5
356
331
20A
  5
355
331
20B
  5
354
331
20C
  5
353
331
20D
  5
352
331
20E
  5
351
331
20F
  5
350
331
210
  5
34F
331
211
  5
34E
331
212
  5
34D
331
213
  5
34C
331
214
  5
34B
331
215
  5
34A
331
216
  5
349
331
218
  5
347
331
21A
  5
345
331
21B
  5
344
331
21C
  5
343
331
222
  5
33D
331
223
  5
33C
331
224
  5
33B
331
225
  5
33A
331
226
  5
339
331
227
  5
338
331
228
  5
337
331
229
  5
336
331
22A
  5
335
331
22B
  5
334
331
22C
  5
333
331
22D
  5
332
331
22E
  5
331
331
22F
  5
330
331
230
  5
32F
331
231
  5
32E
331
232
  5
32D
331
233
  5
32C
331
234
  5
32B
331
235
  5
32A
331
236
  5
329
331
237
  5
328
331
238
  5
327
331
239
  5
326
331
23A
  5
325
331
23B
  5
324
331
23C
  5
323
331
23D
  5
322
331
23E
  5
321
331
23F
  5
320
331
240
  5
31F
331
241
  5
31E
331
242
  5
31D
331
243
  5
31C
331
244
  5
31B
331
245
  5
31A
331
246
  5
319
331
247
  5
318
331
248
  5
317
331
249
  5
316
331
24A
  5
315
331
24B
  5
314
331
24C
  5
313
331
24D
  5
312
331
24E
  5
311
331
24F
  5
310
331
250
  5
30F
331
251
  5
30E
331
252
  5
30D
331
253
  5
30C
331
254
  5
30B
331
255
  5
30A
331
256
  5
309
331
257
  5
308
331
258
  5
307
331
25A
  5
305
331
25B
  5
304
331
25C
  5
303
331
25D
  5
302
331
25E
  5
301
331
25F
  5
300
331
260
  5
2FF
331
261
  5
2FE
331
262
  5
2FD
331
263
  5
2FC
331
264
  5
2FB
331
265
  5
2FA
331
266
  5
2F9
331
267
  5
2F8
331
268
  5
2F7
331
269
  5
2F6
331
26A
  5
2F5
331
26B
  5
2F4
331
26C
  5
2F3
331
26D
  5
2F2
331
26E
  5
2F1
331
26F
  5
2F0
331
270
  5
2EF
331
271
  5
2EE
331
272
  5
2ED
331
273
  5
2EC
331
274
  5
2EB
331
275
  5
2EA
331
3B2
  5
1AD
331
3B3
  5
1AC
331
3B4
  5
1AB
331
3B5
  5
1AA
331
3B6
  5
1A9
331
3B7
  5
1A8
331
3B8
  5
1A7
331
3B9
  5
1A6
331
3BA
  5
1A5
331
3BB
  5
1A4
331
3BC
  5
1A3
331
3BD
  5
1A2
331
3BE
  5
1A1
331
3BF
  5
1A0
331
3C0
  5
19F
331
3C1
  5
19E
331
3C2
  5
19D
331
3C3
  5
19C
331
3C4
  5
19B
331
3C5
  5
19A
331
3C6
  5
199
331
3C7
  5
198
331
3C8
  5
197
331
3C9
  5
196
331
3CA
  5
195
331
3CB
  5
194
331
3CC
  5
193
331
3CD
  5
192
331
3CE
  5
191
331
3CF
  5
190
331
3D0
  5
18F
331
3D1
  5
18E
331
3D2
  5
18D
331
3D3
  5
18C
331
3D4
  5
18B
331
3D5
  5
18A
331
3D6
  5
189
331
3D7
  5
188
331
3D8
  5
187
331
3D9
  5
186
331
3DA
  5
185
331
3DB
  5
184
331
3DC
  5
183
331
3DD
  5
182
331
3DE
  5
181
331
3DF
  5
180
331
3E0
  5
17F
331
3E1
  5
17E
331
3E2
  5
17D
331
3E3
  5
17C
331
3E4
  5
17B
331
3E5
  5
17A
331
3E6
  5
179
331
3E7
  5
178
331
3E8
  5
177
331
3E9
  5
176
331
3EA
  5
175
331
3EB
  5
174
331
3EC
  5
173
331
3ED
  5
172
331
3EE
  5
171
331
3EF
  5
170
331
3F0
  5
16F
331
3F1
  5
16E
331
3F2
  5
16D
331
3F3
  5
16C
331
3F4
  5
16B
331
3F5
  5
16A
331
3F6
  5
169
331
3F7
  5
168
331
3FD
  5
162
331
3FE
  5
161
331
3FF
  5
160
331
400
  5
15F
331
401
  5
15E
331
402
  5
15D
331
403
  5
15C
331
407
  5
158
331
408
  5
157
331
409
  5
156
331
40A
  5
155
331
40B
  5
154
331
40C
  5
153
331
40D
  5
152
331
40E
  5
151
331
40F
  5
150
331
410
  5
14F
331
411
  5
14E
331
412
  5
14D
331
413
  5
14C
331
414
  5
14B
331
415
  5
14A
331
416
  5
149
331
417
  5
148
331
418
  5
147
331
419
  5
146
331
41A
  5
145
331
41B
  5
144
331
41C
  5
143
331
41D
  5
142
331
41E
  5
141
331
41F
  5
140
331
420
  5
13F
331
421
  5
13E
331
422
  5
13D
331
423
  5
13C
331
424
  5
13B
331
426
  5
139
331
427
  5
138
331
42F
  5
130
331
430
  5
12F
331
431
  5
12E
331
432
  5
12D
331
434
  5
12B
331
435
  5
12A
331
437
  5
128
331
438
  5
127
331
439
  5
126
331
43A
  5
125
331
43B
  5
124
331
43C
  5
123
331
43D
  5
122
331
43E
  5
121
331
43F
  5
120
331
440
  5
11F
331
441
  5
11E
331
442
  5
11D
331
443
  5
11C
331
444
  5
11B
331
445
  5
11A
331
446
  5
119
331
447
  5
118
331
448
  5
117
331
449
  5
116
331
44A
  5
115
331
44B
  5
114
331
44C
  5
113
331
44D
  5
112
331
44E
  5
111
331
44F
  5
110
331
450
  5
10F
331
451
  5
10E
331
452
  5
10D
331
453
  5
10C
331
454
  5
10B
331
455
  5
10A
331
456
  5
109
331
457
  5
108
331
458
  5
107
331
459
  5
106
331
45A
  5
105
331
45B
  5
104
331
45C
  5
103
331
45D
  5
102
331
45E
  5
101
331
45F
  5
100
331
460
  5
FF
331
461
  5
FE
331
462
  5
FD
331
463
  5
FC
331
464
  5
FB
331
465
  5
FA
331
466
  5
F9
331
467
  5
F8
331
468
  5
F7
331
469
  5
F6
331
46A
  5
F5
331
46B
  5
F4
331
46C
  5
F3
331
46D
  5
F2
331
46E
  5
F1
331
46F
  5
F0
331
470
  5
EF
331
471
  5
EE
331
472
  5
ED
331
473
  5
EC
331
474
  5
EB
331
475
  5
EA
331
476
  5
E9
331
477
  5
E8
331
478
  5
E7
331
479
  5
E6
331
47A
  5
E5
331
47B
  5
E4
331
47C
  5
E3
331
47D
  5
E2
331
47E
  5
E1
331
47F
  5
E0
331
480
  5
DF
331
481
  5
DE
331
482
  5
DD
331
483
  5
D8
331
484
  5
D7
331
485
  5
D6
331
486
  5
D5
331
487
  5
D4
331
488
  5
D3
331
489
  5
D2
331
48A
  5
D1
331
48B
  5
D0
331
48C
  5
CF
331
48D
  5
CE
331
48E
  5
CD
331
48F
  5
CC
331
490
  5
CB
331
491
  5
CA
331
492
  5
C9
331
493
  5
C8
331
494
  5
C7
331
495
  5
C6
331
496
  5
C5
331
497
  5
C4
331
498
  5
C3
331
499
  5
C2
331
49A
  5
C1
331
49B
  5
C0
331
49C
  5
BF
331
49D
  5
BE
331
49E
  5
BD
331
49F
  5
BC
331
4A0
  5
BB
331
4A1
  5
BA
331
4A2
  5
B9
  0
LAYOUT
  5
23
102
{ACAD_REACTORS
330
24
102
}
330
24
100
AcDbPlotSettings
  1

  2
Bullzip PDF Printer.pc3
  4
A3
  6

 40
0.2
 41
0.0
 42
0.0
 43
0.0
 44
420.2
 45
297.1
 46
25.0
 47
12.0
 48
45.99999990666663
 49
10.0
140
809.9999981566668
141
554.9999987283333
142
1.0
143
2.0
 70
 11936
 72
     1
 73
     0
 74
     4
  7
monochrome.ctb
 75
    17
147
0.5
148
-45.99999990666663
149
-10.0
100
AcDbLayout
  1
Model
 70
     0
 71
     0
 10
0.0
 20
0.0
 11
12.0
 21
9.0
 12
0.0
 22
0.0
 32
0.0
 14
61.07446506189206
 24
15.14168951154153
 34
0.0
 15
680.4231657395652
 25
561.5700667516572
 35
0.0
146
0.0
 13
0.0
 23
0.0
 33
0.0
 16
1.0
 26
0.0
 36
0.0
 17
0.0
 27
1.0
 37
0.0
 76
     0
330
1B
331
31
1001
ACAD_PSEXT
1000
Bullzip PDF Printer.pc3
1000
Bullzip PDF Printer
1000
BULLZIP
1000
Bullzip PDF Printer 10.1.0.1871
1070
     0
  0
LAYOUT
  5
29
102
{ACAD_REACTORS
330
24
102
}
330
24
100
AcDbPlotSettings
  1

  2
SR-LP8300F
  4

  6

 40
0.0
 41
0.0
 42
0.0
 43
0.0
 44
0.0
 45
0.0
 46
0.0
 47
0.0
 48
0.0
 49
0.0
140
0.0
141
0.0
142
1.0
143
1.0
 70
   688
 72
     0
 73
     0
 74
     5
  7
monochrome.ctb
 75
    16
147
1.0
148
0.0
149
0.0
100
AcDbLayout
  1
ﾚｲｱｳﾄ1
 70
     0
 71
     1
 10
0.0
 20
0.0
 11
12.0
 21
9.0
 12
0.0
 22
0.0
 32
0.0
 14
1.000000000000000E+20
 24
1.000000000000000E+20
 34
1.000000000000000E+20
 15
-1.000000000000000E+20
 25
-1.000000000000000E+20
 35
-1.000000000000000E+20
146
0.0
 13
0.0
 23
0.0
 33
0.0
 16
1.0
 26
0.0
 36
0.0
 17
0.0
 27
1.0
 37
0.0
 76
     0
330
26
  0
MATERIAL
  5
57
102
{ACAD_REACTORS
330
B
102
}
102
{ACAD_XDICTIONARY
360
4D8
102
}
330
B
100
AcDbMaterial
  1
ByBlock
 72
     0
 73
     2
 43
0.0208333333333333
 43
0.0
 43
0.0
 43
0.0
 43
0.0
 43
0.0208333333333333
 43
0.0
 43
0.0
 43
0.0
 43
0.0
 43
1.0
 43
0.0
 43
0.0
 43
0.0
 43
0.0
 43
1.0
 77
     0
 78
     2
 47
0.0208333333333333
 47
0.0
 47
0.0
 47
0.0
 47
0.0
 47
0.0208333333333333
 47
0.0
 47
0.0
 47
0.0
 47
0.0
 47
1.0
 47
0.0
 47
0.0
 47
0.0
 47
0.0
 47
1.0
171
     0
172
     2
 49
0.0208333333333333
 49
0.0
 49
0.0
 49
0.0
 49
0.0
 49
0.0208333333333333
 49
0.0
 49
0.0
 49
0.0
 49
0.0
 49
1.0
 49
0.0
 49
0.0
 49
0.0
 49
0.0
 49
1.0
175
     0
176
     2
142
0.0208333333333333
142
0.0
142
0.0
142
0.0
142
0.0
142
0.0208333333333333
142
0.0
142
0.0
142
0.0
142
0.0
142
1.0
142
0.0
142
0.0
142
0.0
142
0.0
142
1.0
179
     0
270
     2
144
0.0208333333333333
144
0.0
144
0.0
144
0.0
144
0.0
144
0.0208333333333333
144
0.0
144
0.0
144
0.0
144
0.0
144
1.0
144
0.0
144
0.0
144
0.0
144
0.0
144
1.0
274
     2
147
0.0208333333333333
147
0.0
147
0.0
147
0.0
147
0.0
147
0.0208333333333333
147
0.0
147
0.0
147
0.0
147
0.0
147
1.0
147
0.0
147
0.0
147
0.0
147
0.0
147
1.0
  0
MATERIAL
  5
14
102
{ACAD_REACTORS
330
B
102
}
102
{ACAD_XDICTIONARY
360
4D4
102
}
330
B
100
AcDbMaterial
  1
ByLayer
 72
     0
 73
     2
 43
0.0208333333333333
 43
0.0
 43
0.0
 43
0.0
 43
0.0
 43
0.0208333333333333
 43
0.0
 43
0.0
 43
0.0
 43
0.0
 43
1.0
 43
0.0
 43
0.0
 43
0.0
 43
0.0
 43
1.0
 77
     0
 78
     2
 47
0.0208333333333333
 47
0.0
 47
0.0
 47
0.0
 47
0.0
 47
0.0208333333333333
 47
0.0
 47
0.0
 47
0.0
 47
0.0
 47
1.0
 47
0.0
 47
0.0
 47
0.0
 47
0.0
 47
1.0
171
     0
172
     2
 49
0.0208333333333333
 49
0.0
 49
0.0
 49
0.0
 49
0.0
 49
0.0208333333333333
 49
0.0
 49
0.0
 49
0.0
 49
0.0
 49
1.0
 49
0.0
 49
0.0
 49
0.0
 49
0.0
 49
1.0
175
     0
176
     2
142
0.0208333333333333
142
0.0
142
0.0
142
0.0
142
0.0
142
0.0208333333333333
142
0.0
142
0.0
142
0.0
142
0.0
142
1.0
142
0.0
142
0.0
142
0.0
142
0.0
142
1.0
179
     0
270
     2
144
0.0208333333333333
144
0.0
144
0.0
144
0.0
144
0.0
144
0.0208333333333333
144
0.0
144
0.0
144
0.0
144
0.0
144
1.0
144
0.0
144
0.0
144
0.0
144
0.0
144
1.0
274
     2
147
0.0208333333333333
147
0.0
147
0.0
147
0.0
147
0.0
147
0.0208333333333333
147
0.0
147
0.0
147
0.0
147
0.0
147
1.0
147
0.0
147
0.0
147
0.0
147
0.0
147
1.0
  0
MATERIAL
  5
A
102
{ACAD_REACTORS
330
B
102
}
102
{ACAD_XDICTIONARY
360
4D6
102
}
330
B
100
AcDbMaterial
  1
Global
 72
     0
 73
     2
 43
0.0208333333333333
 43
0.0
 43
0.0
 43
0.0
 43
0.0
 43
0.0208333333333333
 43
0.0
 43
0.0
 43
0.0
 43
0.0
 43
1.0
 43
0.0
 43
0.0
 43
0.0
 43
0.0
 43
1.0
 77
     0
 78
     2
 47
0.0208333333333333
 47
0.0
 47
0.0
 47
0.0
 47
0.0
 47
0.0208333333333333
 47
0.0
 47
0.0
 47
0.0
 47
0.0
 47
1.0
 47
0.0
 47
0.0
 47
0.0
 47
0.0
 47
1.0
171
     0
172
     2
 49
0.0208333333333333
 49
0.0
 49
0.0
 49
0.0
 49
0.0
 49
0.0208333333333333
 49
0.0
 49
0.0
 49
0.0
 49
0.0
 49
1.0
 49
0.0
 49
0.0
 49
0.0
 49
0.0
 49
1.0
175
     0
176
     2
142
0.0208333333333333
142
0.0
142
0.0
142
0.0
142
0.0
142
0.0208333333333333
142
0.0
142
0.0
142
0.0
142
0.0
142
1.0
142
0.0
142
0.0
142
0.0
142
0.0
142
1.0
179
     0
270
     2
144
0.0208333333333333
144
0.0
144
0.0
144
0.0
144
0.0
144
0.0208333333333333
144
0.0
144
0.0
144
0.0
144
0.0
144
1.0
144
0.0
144
0.0
144
0.0
144
0.0
144
1.0
274
     2
147
0.0208333333333333
147
0.0
147
0.0
147
0.0
147
0.0
147
0.0208333333333333
147
0.0
147
0.0
147
0.0
147
0.0
147
1.0
147
0.0
147
0.0
147
0.0
147
0.0
147
1.0
1001
ACAD
1070
    -1
1070
     3
1070
     0
1000

1071
        0
  0
MLEADERSTYLE
  5
4C3
102
{ACAD_REACTORS
330
4A6
102
}
102
{ACAD_XDICTIONARY
360
50A
102
}
330
4A6
100
AcDbMLeaderStyle
170
     2
171
     1
172
     0
 90
        2
 40
0.0
 41
0.0
173
     1
 91
-1056964608
340
11
 92
       -2
290
     1
 42
0.09
291
     1
 43
0.36
  3
Standard
341
0
 44
0.18
300

342
12
174
     1
178
     6
175
     1
176
     0
 93
-1056964608
 45
0.18
292
     0
297
     0
 46
0.18
343
0
 94
-1056964608
 47
1.0
 49
1.0
140
1.0
293
     1
141
0.0
294
     1
177
     0
142
1.0
295
     0
296
     0
143
0.125
1001
ACAD_MLEADERVER
1070
     2
  0
MLINESTYLE
  5
18
102
{ACAD_REACTORS
330
19
102
}
330
19
100
AcDbMlineStyle
  2
STANDARD
 70
     0
  3

 62
     0
 51
90.0
 52
90.0
 71
     2
 49
0.5
 62
   256
  6
BYLAYER
 49
-0.5
 62
   256
  6
BYLAYER
  0
ACDBPLACEHOLDER
  5
7
102
{ACAD_REACTORS
330
8
102
}
330
8
  0
SCALE
  5
56
102
{ACAD_REACTORS
330
34
102
}
330
34
100
AcDbScale
 70
     0
300
1:1
140
1.0
141
1.0
290
     1
  0
TABLESTYLE
  5
4C9
102
{ACAD_REACTORS
330
4A5
102
}
330
4A5
100
AcDbTableStyle
  3
Standard
 70
     0
 71
     0
 40
0.06
 41
0.06
280
     0
281
     0
  7
STANDARD
140
0.18
170
     2
 62
     0
 63
   257
283
     0
274
    -2
284
     1
 64
     0
275
    -2
285
     1
 65
     0
276
    -2
286
     1
 66
     0
277
    -2
287
     1
 67
     0
278
    -2
288
     1
 68
     0
279
    -2
289
     1
 69
     0
  7
STANDARD
140
0.25
170
     5
 62
     0
 63
   257
283
     0
274
    -2
284
     1
 64
     0
275
    -2
285
     1
 65
     0
276
    -2
286
     1
 66
     0
277
    -2
287
     1
 67
     0
278
    -2
288
     1
 68
     0
279
    -2
289
     1
 69
     0
  7
STANDARD
140
0.18
170
     5
 62
     0
 63
   257
283
     0
274
    -2
284
     1
 64
     0
275
    -2
285
     1
 65
     0
276
    -2
286
     1
 66
     0
277
    -2
287
     1
 67
     0
278
    -2
288
     1
 68
     0
279
    -2
289
     1
 69
     0
  0
VISUALSTYLE
  5
4AE
102
{ACAD_REACTORS
330
30
102
}
102
{ACAD_XDICTIONARY
360
4E2
102
}
330
30
100
AcDbVisualStyle
  2
2dWireframe
 70
     4
 71
     0
 72
     2
 73
     0
 90
        0
 40
0.6
 41
30.0
 62
     5
 63
     7
 74
     1
 91
        4
 64
     7
 65
   257
 75
     1
175
     1
 42
1.0
 92
        0
 66
   257
 43
1.0
 76
     1
 77
     6
 78
     2
 67
     7
 79
     5
170
     0
171
     0
290
     0
174
     0
 93
        1
 44
0.0
173
     0
291
     0
 45
0.0
1001
ACAD
1000
AcDbSavedByObjectVersion
1070
     0
  0
VISUALSTYLE
  5
4B1
102
{ACAD_REACTORS
330
30
102
}
102
{ACAD_XDICTIONARY
360
4E8
102
}
330
30
100
AcDbVisualStyle
  2
Basic
 70
     7
 71
     1
 72
     0
 73
     1
 90
        0
 40
0.6
 41
30.0
 62
     5
 63
     7
 74
     0
 91
        4
 64
     7
 65
   257
 75
     1
175
     1
 42
1.0
 92
        8
 66
     7
 43
1.0
 76
     1
 77
     6
 78
     2
 67
     7
 79
     5
170
     0
171
     0
290
     0
174
     0
 93
        1
 44
0.0
173
     0
291
     1
 45
0.0
1001
ACAD
1000
AcDbSavedByObjectVersion
1070
     0
  0
VISUALSTYLE
  5
4B5
102
{ACAD_REACTORS
330
30
102
}
102
{ACAD_XDICTIONARY
360
4F0
102
}
330
30
100
AcDbVisualStyle
  2
Brighten
 70
    12
 71
     2
 72
     2
 73
     0
 90
        0
 40
0.6
 41
30.0
 62
     5
 63
     7
 74
     1
 91
        4
 64
     7
 65
   257
 75
     1
175
     1
 42
1.0
 92
        8
 66
     7
 43
1.0
 76
     1
 77
     6
 78
     2
 67
     7
 79
     5
170
     0
171
     0
290
     0
174
     0
 93
        1
 44
50.0
173
     0
291
     1
 45
0.0
1001
ACAD
1000
AcDbSavedByObjectVersion
1070
     0
  0
VISUALSTYLE
  5
4B9
102
{ACAD_REACTORS
330
30
102
}
102
{ACAD_XDICTIONARY
360
4F8
102
}
330
30
100
AcDbVisualStyle
  2
ColorChange
 70
    16
 71
     2
 72
     2
 73
     3
 90
        0
 40
0.6
 41
30.0
 62
     5
 63
     8
 74
     1
 91
        4
 64
     7
 65
   257
 75
     1
175
     1
 42
1.0
 92
        8
 66
     8
 43
1.0
 76
     1
 77
     6
 78
     2
 67
     7
 79
     5
170
     0
171
     0
290
     0
174
     0
 93
        1
 44
0.0
173
     0
291
     1
 45
0.0
1001
ACAD
1000
AcDbSavedByObjectVersion
1070
     0
  0
VISUALSTYLE
  5
4B3
102
{ACAD_REACTORS
330
30
102
}
102
{ACAD_XDICTIONARY
360
4EC
102
}
330
30
100
AcDbVisualStyle
  2
Conceptual
 70
     9
 71
     3
 72
     2
 73
     0
 90
        0
 40
0.6
 41
30.0
 62
     5
 63
     7
 74
     2
 91
        2
 64
     7
 65
   257
 75
     1
175
     1
 42
40.0
 92
        8
 66
     7
 43
1.0
 76
     1
 77
     6
 78
     2
 67
     7
 79
     3
170
     0
171
     0
290
     0
174
     0
 93
        1
 44
0.0
173
     0
291
     0
 45
0.0
1001
ACAD
1000
AcDbSavedByObjectVersion
1070
     0
  0
VISUALSTYLE
  5
4B4
102
{ACAD_REACTORS
330
30
102
}
102
{ACAD_XDICTIONARY
360
4EE
102
}
330
30
100
AcDbVisualStyle
  2
Dim
 70
    11
 71
     2
 72
     2
 73
     0
 90
        0
 40
0.6
 41
30.0
 62
     5
 63
     7
 74
     1
 91
        4
 64
     7
 65
   257
 75
     1
175
     1
 42
1.0
 92
        8
 66
     7
 43
1.0
 76
     1
 77
     6
 78
     2
 67
     7
 79
     5
170
     0
171
     0
290
     0
174
     0
 93
        1
 44
-50.0
173
     0
291
     1
 45
0.0
1001
ACAD
1000
AcDbSavedByObjectVersion
1070
     0
  0
VISUALSTYLE
  5
4BC
102
{ACAD_REACTORS
330
30
102
}
102
{ACAD_XDICTIONARY
360
4FE
102
}
330
30
100
AcDbVisualStyle
  2
EdgeColorOff
 70
    22
 71
     2
 72
     2
 73
     0
 90
        0
 40
0.6
 41
30.0
 62
     5
 63
     7
 74
     1
 91
        4
 64
     7
 65
   257
 75
     1
175
     1
 42
1.0
 92
        8
 66
     7
 43
1.0
 76
     1
 77
     6
 78
     2
 67
     7
 79
     5
170
     0
171
     0
290
     0
174
     0
 93
        1
 44
0.0
173
     0
291
     1
 45
0.0
1001
ACAD
1000
AcDbSavedByObjectVersion
1070
     0
  0
VISUALSTYLE
  5
4B8
102
{ACAD_REACTORS
330
30
102
}
102
{ACAD_XDICTIONARY
360
4F6
102
}
330
30
100
AcDbVisualStyle
  2
Facepattern
 70
    15
 71
     2
 72
     2
 73
     0
 90
        0
 40
0.6
 41
30.0
 62
     5
 63
     7
 74
     1
 91
        4
 64
     7
 65
   257
 75
     1
175
     1
 42
1.0
 92
        8
 66
     7
 43
1.0
 76
     1
 77
     6
 78
     2
 67
     7
 79
     5
170
     0
171
     0
290
     0
174
     0
 93
        1
 44
0.0
173
     0
291
     1
 45
0.0
1001
ACAD
1000
AcDbSavedByObjectVersion
1070
     0
  0
VISUALSTYLE
  5
4AA
102
{ACAD_REACTORS
330
30
102
}
102
{ACAD_XDICTIONARY
360
4DA
102
}
330
30
100
AcDbVisualStyle
  2
Flat
 70
     0
 71
     2
 72
     1
 73
     1
 90
        2
 40
0.6
 41
30.0
 62
     5
 63
     7
 74
     0
 91
        4
 64
     7
 65
   257
 75
     1
175
     1
 42
1.0
 92
        8
 66
     7
 43
1.0
 76
     1
 77
     6
 78
     2
 67
     7
 79
     5
170
     0
171
     0
290
     0
174
     0
 93
       13
 44
0.0
173
     0
291
     1
 45
0.0
1001
ACAD
1000
AcDbSavedByObjectVersion
1070
     0
  0
VISUALSTYLE
  5
4AB
102
{ACAD_REACTORS
330
30
102
}
102
{ACAD_XDICTIONARY
360
4DC
102
}
330
30
100
AcDbVisualStyle
  2
FlatWithEdges
 70
     1
 71
     2
 72
     1
 73
     1
 90
        2
 40
0.6
 41
30.0
 62
     5
 63
     7
 74
     1
 91
        4
 64
     7
 65
   257
 75
     1
175
     1
 42
1.0
 92
        0
 66
   257
 43
1.0
 76
     1
 77
     6
 78
     2
 67
     7
 79
     5
170
     0
171
     0
290
     0
174
     0
 93
       13
 44
0.0
173
     0
291
     1
 45
0.0
1001
ACAD
1000
AcDbSavedByObjectVersion
1070
     0
  0
VISUALSTYLE
  5
4AC
102
{ACAD_REACTORS
330
30
102
}
102
{ACAD_XDICTIONARY
360
4DE
102
}
330
30
100
AcDbVisualStyle
  2
Gouraud
 70
     2
 71
     2
 72
     2
 73
     1
 90
        2
 40
0.6
 41
30.0
 62
     5
 63
     7
 74
     0
 91
        4
 64
     7
 65
   257
 75
     1
175
     1
 42
1.0
 92
        0
 66
     7
 43
1.0
 76
     1
 77
     6
 78
     2
 67
     7
 79
     5
170
     0
171
     0
290
     0
174
     0
 93
       13
 44
0.0
173
     0
291
     1
 45
0.0
1001
ACAD
1000
AcDbSavedByObjectVersion
1070
     0
  0
VISUALSTYLE
  5
4AD
102
{ACAD_REACTORS
330
30
102
}
102
{ACAD_XDICTIONARY
360
4E0
102
}
330
30
100
AcDbVisualStyle
  2
GouraudWithEdges
 70
     3
 71
     2
 72
     2
 73
     1
 90
        2
 40
0.6
 41
30.0
 62
     5
 63
     7
 74
     1
 91
        4
 64
     7
 65
   257
 75
     1
175
     1
 42
1.0
 92
        0
 66
   257
 43
1.0
 76
     1
 77
     6
 78
     2
 67
     7
 79
     5
170
     0
171
     0
290
     0
174
     0
 93
       13
 44
0.0
173
     0
291
     1
 45
0.0
1001
ACAD
1000
AcDbSavedByObjectVersion
1070
     0
  0
VISUALSTYLE
  5
4B0
102
{ACAD_REACTORS
330
30
102
}
102
{ACAD_XDICTIONARY
360
4E6
102
}
330
30
100
AcDbVisualStyle
  2
Hidden
 70
     6
 71
     1
 72
     2
 73
     2
 90
        0
 40
0.6
 41
30.0
 62
     5
 63
     7
 74
     2
 91
        2
 64
     7
 65
   257
 75
     2
175
     1
 42
40.0
 92
        0
 66
   257
 43
1.0
 76
     1
 77
     6
 78
     2
 67
     7
 79
     3
170
     0
171
     0
290
     0
174
     0
 93
        1
 44
0.0
173
     0
291
     0
 45
0.0
1001
ACAD
1000
AcDbSavedByObjectVersion
1070
     0
  0
VISUALSTYLE
  5
4BA
102
{ACAD_REACTORS
330
30
102
}
102
{ACAD_XDICTIONARY
360
4FA
102
}
330
30
100
AcDbVisualStyle
  2
JitterOff
 70
    20
 71
     2
 72
     2
 73
     0
 90
        0
 40
0.6
 41
30.0
 62
     5
 63
     7
 74
     1
 91
        4
 64
     7
 65
   257
 75
     1
175
     1
 42
1.0
 92
       10
 66
     7
 43
1.0
 76
     1
 77
     6
 78
     2
 67
     7
 79
     5
170
     0
171
     0
290
     0
174
     0
 93
        1
 44
0.0
173
     0
291
     1
 45
0.0
1001
ACAD
1000
AcDbSavedByObjectVersion
1070
     0
  0
VISUALSTYLE
  5
4B7
102
{ACAD_REACTORS
330
30
102
}
102
{ACAD_XDICTIONARY
360
4F4
102
}
330
30
100
AcDbVisualStyle
  2
Linepattern
 70
    14
 71
     2
 72
     2
 73
     0
 90
        0
 40
0.6
 41
30.0
 62
     5
 63
     7
 74
     1
 91
        4
 64
     7
 65
   257
 75
     7
175
     7
 42
1.0
 92
        8
 66
     7
 43
1.0
 76
     1
 77
     6
 78
     2
 67
     7
 79
     5
170
     0
171
     0
290
     0
174
     0
 93
        1
 44
0.0
173
     0
291
     1
 45
0.0
1001
ACAD
1000
AcDbSavedByObjectVersion
1070
     0
  0
VISUALSTYLE
  5
4BB
102
{ACAD_REACTORS
330
30
102
}
102
{ACAD_XDICTIONARY
360
4FC
102
}
330
30
100
AcDbVisualStyle
  2
OverhangOff
 70
    21
 71
     2
 72
     2
 73
     0
 90
        0
 40
0.6
 41
30.0
 62
     5
 63
     7
 74
     1
 91
        4
 64
     7
 65
   257
 75
     1
175
     1
 42
1.0
 92
        9
 66
     7
 43
1.0
 76
     1
 77
     6
 78
     2
 67
     7
 79
     5
170
     0
171
     0
290
     0
174
     0
 93
        1
 44
0.0
173
     0
291
     1
 45
0.0
1001
ACAD
1000
AcDbSavedByObjectVersion
1070
     0
  0
VISUALSTYLE
  5
4B2
102
{ACAD_REACTORS
330
30
102
}
102
{ACAD_XDICTIONARY
360
4EA
102
}
330
30
100
AcDbVisualStyle
  2
Realistic
 70
     8
 71
     2
 72
     3
 73
     0
 90
        2
 40
0.6
 41
30.0
 62
     5
 63
     7
 74
     0
 91
        0
 64
     7
 65
   257
 75
     1
175
     1
 42
1.0
 92
        8
 66
   257
 43
1.0
 76
     1
 77
     6
 78
     2
 67
     7
 79
     3
170
     0
171
     0
290
     0
174
     0
 93
       13
 44
0.0
173
     0
291
     0
 45
0.0
1001
ACAD
1000
AcDbSavedByObjectVersion
1070
     0
  0
VISUALSTYLE
  5
4C1
102
{ACAD_REACTORS
330
30
102
}
102
{ACAD_XDICTIONARY
360
508
102
}
330
30
100
AcDbVisualStyle
  2
Shaded
 70
    27
 71
     2
 72
     2
 73
     1
 90
        2
 40
0.6
 41
30.0
 62
     5
 63
     7
 74
     0
 91
        4
 64
     7
 65
   257
 75
     1
175
     1
 42
1.0
 92
        8
 66
   257
 43
1.0
 76
     1
 77
     6
 78
     2
 67
   251
 79
     3
170
     0
171
     0
290
     0
174
     0
 93
        5
 44
0.0
173
     0
291
     0
 45
0.0
1001
ACAD
1000
AcDbSavedByObjectVersion
1070
     0
  0
VISUALSTYLE
  5
4C0
102
{ACAD_REACTORS
330
30
102
}
102
{ACAD_XDICTIONARY
360
506
102
}
330
30
100
AcDbVisualStyle
  2
Shaded with edges
 70
    26
 71
     2
 72
     2
 73
     1
 90
        2
 40
0.6
 41
30.0
 62
     5
 63
     7
 74
     1
 91
       10
 64
     7
 65
   257
 75
     2
175
     1
 42
1.0
 92
        8
 66
   257
 43
1.0
 76
     1
 77
     6
 78
     2
 67
     7
 79
     3
170
     0
171
     0
290
     0
174
     0
 93
        5
 44
0.0
173
     0
291
     0
 45
0.0
1001
ACAD
1000
AcDbSavedByObjectVersion
1070
     0
  0
VISUALSTYLE
  5
4BD
102
{ACAD_REACTORS
330
30
102
}
102
{ACAD_XDICTIONARY
360
500
102
}
330
30
100
AcDbVisualStyle
  2
Shades of Gray
 70
    23
 71
     2
 72
     2
 73
     3
 90
        0
 40
0.6
 41
30.0
 62
     5
 63
     7
 74
     2
 91
        2
 64
     7
 65
     7
 75
     1
175
     1
 42
40.0
 92
        8
 66
     7
 43
1.0
 76
     1
 77
     6
 78
     2
 67
     7
 79
     3
170
     0
171
     0
290
     0
174
     0
 93
        1
 44
0.0
173
     0
291
     0
 45
0.0
1001
ACAD
1000
AcDbSavedByObjectVersion
1070
     0
  0
VISUALSTYLE
  5
4BE
102
{ACAD_REACTORS
330
30
102
}
102
{ACAD_XDICTIONARY
360
502
102
}
330
30
100
AcDbVisualStyle
  2
Sketchy
 70
    24
 71
     1
 72
     2
 73
     2
 90
        0
 40
0.6
 41
30.0
 62
     5
 63
     7
 74
     2
 91
        2
 64
     7
 65
     7
 75
     1
175
     1
 42
40.0
 92
       11
 66
     7
 43
1.0
 76
     1
 77
     6
 78
     2
 67
     7
 79
     6
170
     0
171
     0
290
     0
174
     0
 93
        1
 44
0.0
173
     0
291
     0
 45
0.0
1001
ACAD
1000
AcDbSavedByObjectVersion
1070
     0
  0
VISUALSTYLE
  5
4B6
102
{ACAD_REACTORS
330
30
102
}
102
{ACAD_XDICTIONARY
360
4F2
102
}
330
30
100
AcDbVisualStyle
  2
Thicken
 70
    13
 71
     2
 72
     2
 73
     0
 90
        0
 40
0.6
 41
30.0
 62
     5
 63
     7
 74
     1
 91
        4
 64
     7
 65
   257
 75
     1
175
     1
 42
1.0
 92
       12
 66
     7
 43
1.0
 76
     1
 77
     6
 78
     2
 67
     7
 79
     5
170
     0
171
     0
290
     0
174
     0
 93
        1
 44
0.0
173
     0
291
     1
 45
0.0
1001
ACAD
1000
AcDbSavedByObjectVersion
1070
     0
  0
VISUALSTYLE
  5
4AF
102
{ACAD_REACTORS
330
30
102
}
102
{ACAD_XDICTIONARY
360
4E4
102
}
330
30
100
AcDbVisualStyle
  2
Wireframe
 70
     5
 71
     0
 72
     2
 73
     0
 90
        0
 40
0.6
 41
30.0
 62
     5
 63
     7
 74
     1
 91
        4
 64
     7
 65
   257
 75
     1
175
     1
 42
1.0
 92
        0
 66
   257
 43
1.0
 76
     1
 77
     6
 78
     2
 67
     7
 79
     5
170
     0
171
     0
290
     0
174
     0
 93
        1
 44
0.0
173
     0
291
     0
 45
0.0
1001
ACAD
1000
AcDbSavedByObjectVersion
1070
     0
  0
VISUALSTYLE
  5
4BF
102
{ACAD_REACTORS
330
30
102
}
102
{ACAD_XDICTIONARY
360
504
102
}
330
30
100
AcDbVisualStyle
  2
X-Ray
 70
    25
 71
     2
 72
     2
 73
     1
 90
        1
 40
0.5
 41
30.0
 62
     5
 63
     7
 74
     1
 91
        0
 64
     7
 65
   257
 75
     1
175
     1
 42
1.0
 92
        8
 66
     7
 43
1.0
 76
     1
 77
     6
 78
     2
 67
     7
 79
     3
170
     0
171
     0
290
     0
174
     0
 93
       13
 44
0.0
173
     0
291
     0
 45
0.0
1001
ACAD
1000
AcDbSavedByObjectVersion
1070
     0
  0
XRECORD
  5
4CE
102
{ACAD_REACTORS
330
4CD
102
}
330
4CD
100
AcDbXrecord
280
     1
340
2F
  0
XRECORD
  5
4CF
102
{ACAD_REACTORS
330
4CD
102
}
330
4CD
100
AcDbXrecord
280
     1
340
B
  0
DICTIONARYVAR
  5
4A4
102
{ACAD_REACTORS
330
4A3
102
}
330
4A3
100
DictionaryVariables
280
     0
  1
1:1
  0
DICTIONARYVAR
  5
4C7
102
{ACAD_REACTORS
330
4A3
102
}
330
4A3
100
DictionaryVariables
280
     0
  1
Standard
  0
DICTIONARYVAR
  5
4CA
102
{ACAD_REACTORS
330
4A3
102
}
330
4A3
100
DictionaryVariables
280
     0
  1
Standard
  0
DICTIONARYVAR
  5
4CB
102
{ACAD_REACTORS
330
4A3
102
}
330
4A3
100
DictionaryVariables
280
     0
  1
0
  0
DICTIONARYVAR
  5
4CC
102
{ACAD_REACTORS
330
4A3
102
}
330
4A3
100
DictionaryVariables
280
     0
  1
1
  0
DICTIONARYVAR
  5
4D3
102
{ACAD_REACTORS
330
4A3
102
}
330
4A3
100
DictionaryVariables
280
     0
  1
1
  0
DICTIONARYVAR
  5
4A7
102
{ACAD_REACTORS
330
4A3
102
}
330
4A3
100
DictionaryVariables
280
     0
  1
0
  0
DICTIONARY
  5
4D8
330
57
100
AcDbDictionary
280
     1
281
     1
  3
ACAD_XREC_ROUNDTRIP
360
4D9
  0
DICTIONARY
  5
4D4
330
14
100
AcDbDictionary
280
     1
281
     1
  3
ACAD_XREC_ROUNDTRIP
360
4D5
  0
DICTIONARY
  5
4D6
330
A
100
AcDbDictionary
280
     1
281
     1
  3
ACAD_XREC_ROUNDTRIP
360
4D7
  0
DICTIONARY
  5
50A
330
4C3
100
AcDbDictionary
280
     1
281
     1
  3
ACAD_XREC_ROUNDTRIP
360
50B
  0
DICTIONARY
  5
4E2
330
4AE
100
AcDbDictionary
280
     1
281
     1
  3
ACAD_XREC_ROUNDTRIP
360
4E3
  0
DICTIONARY
  5
4E8
330
4B1
100
AcDbDictionary
280
     1
281
     1
  3
ACAD_XREC_ROUNDTRIP
360
4E9
  0
DICTIONARY
  5
4F0
330
4B5
100
AcDbDictionary
280
     1
281
     1
  3
ACAD_XREC_ROUNDTRIP
360
4F1
  0
DICTIONARY
  5
4F8
330
4B9
100
AcDbDictionary
280
     1
281
     1
  3
ACAD_XREC_ROUNDTRIP
360
4F9
  0
DICTIONARY
  5
4EC
330
4B3
100
AcDbDictionary
280
     1
281
     1
  3
ACAD_XREC_ROUNDTRIP
360
4ED
  0
DICTIONARY
  5
4EE
330
4B4
100
AcDbDictionary
280
     1
281
     1
  3
ACAD_XREC_ROUNDTRIP
360
4EF
  0
DICTIONARY
  5
4FE
330
4BC
100
AcDbDictionary
280
     1
281
     1
  3
ACAD_XREC_ROUNDTRIP
360
4FF
  0
DICTIONARY
  5
4F6
330
4B8
100
AcDbDictionary
280
     1
281
     1
  3
ACAD_XREC_ROUNDTRIP
360
4F7
  0
DICTIONARY
  5
4DA
330
4AA
100
AcDbDictionary
280
     1
281
     1
  3
ACAD_XREC_ROUNDTRIP
360
4DB
  0
DICTIONARY
  5
4DC
330
4AB
100
AcDbDictionary
280
     1
281
     1
  3
ACAD_XREC_ROUNDTRIP
360
4DD
  0
DICTIONARY
  5
4DE
330
4AC
100
AcDbDictionary
280
     1
281
     1
  3
ACAD_XREC_ROUNDTRIP
360
4DF
  0
DICTIONARY
  5
4E0
330
4AD
100
AcDbDictionary
280
     1
281
     1
  3
ACAD_XREC_ROUNDTRIP
360
4E1
  0
DICTIONARY
  5
4E6
330
4B0
100
AcDbDictionary
280
     1
281
     1
  3
ACAD_XREC_ROUNDTRIP
360
4E7
  0
DICTIONARY
  5
4FA
330
4BA
100
AcDbDictionary
280
     1
281
     1
  3
ACAD_XREC_ROUNDTRIP
360
4FB
  0
DICTIONARY
  5
4F4
330
4B7
100
AcDbDictionary
280
     1
281
     1
  3
ACAD_XREC_ROUNDTRIP
360
4F5
  0
DICTIONARY
  5
4FC
330
4BB
100
AcDbDictionary
280
     1
281
     1
  3
ACAD_XREC_ROUNDTRIP
360
4FD
  0
DICTIONARY
  5
4EA
330
4B2
100
AcDbDictionary
280
     1
281
     1
  3
ACAD_XREC_ROUNDTRIP
360
4EB
  0
DICTIONARY
  5
508
330
4C1
100
AcDbDictionary
280
     1
281
     1
  3
ACAD_XREC_ROUNDTRIP
360
509
  0
DICTIONARY
  5
506
330
4C0
100
AcDbDictionary
280
     1
281
     1
  3
ACAD_XREC_ROUNDTRIP
360
507
  0
DICTIONARY
  5
500
330
4BD
100
AcDbDictionary
280
     1
281
     1
  3
ACAD_XREC_ROUNDTRIP
360
501
  0
DICTIONARY
  5
502
330
4BE
100
AcDbDictionary
280
     1
281
     1
  3
ACAD_XREC_ROUNDTRIP
360
503
  0
DICTIONARY
  5
4F2
330
4B6
100
AcDbDictionary
280
     1
281
     1
  3
ACAD_XREC_ROUNDTRIP
360
4F3
  0
DICTIONARY
  5
4E4
330
4AF
100
AcDbDictionary
280
     1
281
     1
  3
ACAD_XREC_ROUNDTRIP
360
4E5
  0
DICTIONARY
  5
504
330
4BF
100
AcDbDictionary
280
     1
281
     1
  3
ACAD_XREC_ROUNDTRIP
360
505
  0
XRECORD
  5
4D9
102
{ACAD_REACTORS
330
4D8
102
}
330
4D8
100
AcDbXrecord
280
     1
102
MATERIAL
148
0.0
149
0.0
149
0.0
 93
        0
 94
      127
282
     0
 72
     0
 77
     0
171
     0
175
     0
179
     0
273
     0
  0
XRECORD
  5
4D5
102
{ACAD_REACTORS
330
4D4
102
}
330
4D4
100
AcDbXrecord
280
     1
102
MATERIAL
148
0.0
149
0.0
149
0.0
 93
        0
 94
      127
282
     0
 72
     0
 77
     0
171
     0
175
     0
179
     0
273
     0
  0
XRECORD
  5
4D7
102
{ACAD_REACTORS
330
4D6
102
}
330
4D6
100
AcDbXrecord
280
     1
102
MATERIAL
148
0.0
149
0.0
149
0.0
 93
        0
 94
      127
282
     0
 72
     0
 77
     0
171
     0
175
     0
179
     0
273
     0
  0
XRECORD
  5
50B
102
{ACAD_REACTORS
330
50A
102
}
330
50A
100
AcDbXrecord
280
     1
102
ACAD_ROUNDTRIP_2010_MLEADER_STYLE
  0
XRECORD
  5
4E3
102
{ACAD_REACTORS
330
4E2
102
}
330
4E2
100
AcDbXrecord
280
     1
102
RTVSPropertyOp0
 70
     1
102
RTVSPropertyOp1
 70
     1
102
RTVSPropertyOp2
 70
     1
102
RTVSPropertyOp3
 70
     1
102
RTVSPropertyOp4
 70
     1
102
RTVSPropertyOp5
 70
     1
102
RTVSPropertyOp6
 70
     1
102
RTVSPropertyOp7
 70
     1
102
RTVSPropertyOp8
 70
     1
102
RTVSPropertyOp9
 70
     1
102
RTVSPropertyOp10
 70
     1
102
RTVSPropertyOp11
 70
     1
102
RTVSPropertyOp12
 70
     1
102
RTVSPropertyOp13
 70
     1
102
RTVSPropertyOp14
 70
     1
102
RTVSPropertyOp15
 70
     1
102
RTVSPropertyOp16
 70
     1
102
RTVSPropertyOp17
 70
     1
102
RTVSPropertyOp18
 70
     1
102
RTVSPropertyOp19
 70
     1
102
RTVSPropertyOp20
 70
     1
102
RTVSPropertyOp21
 70
     1
102
RTVSPropertyOp22
 70
     1
102
RTVSPropertyOp23
 70
     1
102
RTVSPropertyOp24
 70
     1
102
RTVSPropertyOp25
 70
     1
102
RTVSPropertyOp26
 70
     1
102
RTVSPropertyOp27
 70
     1
102
RTVSPropertyOp28
 70
     1
102
RTVSPropertyOp29
 70
     1
102
RTVSPropertyOp30
 70
     1
102
RTVSPropertyOp31
 70
     1
102
RTVSPropertyOp32
 70
     1
102
RTVSPropertyOp33
 70
     1
102
RTVSPropertyOp34
 70
     1
102
RTVSPropertyOp35
 70
     1
102
RTVSPropertyOp36
 70
     1
102
RTVSPropertyOp37
 70
     1
102
RTVSPropertyOp38
 70
     1
102
RTVSPropertyOp39
 70
     1
102
RTVSPropertyOp40
 70
     1
102
RTVSPropertyOp41
 70
     1
102
RTVSPropertyOp42
 70
     1
102
RTVSPropertyOp43
 70
     1
102
RTVSPropertyOp44
 70
     1
102
RTVSPropertyOp45
 70
     1
102
RTVSPropertyOp46
 70
     1
102
RTVSPropertyOp47
 70
     1
102
RTVSPropertyOp48
 70
     1
102
RTVSPropertyOp49
 70
     1
102
RTVSPropertyOp50
 70
     1
102
RTVSPropertyOp51
 70
     0
102
RTVSPropertyOp52
 70
     0
102
RTVSPropertyOp53
 70
     1
102
RTVSPropertyOp54
 70
     1
102
RTVSPropertyOp55
 70
     1
102
RTVSPropertyOp56
 70
     1
102
RTVSPropertyOp57
 70
     1
102
RTVSPost2010Prop28
280
     1
102
RTVSPost2010PropOp28
 70
     1
102
RTVSPost2010Prop29
280
     1
102
RTVSPost2010PropOp29
 70
     1
102
RTVSPost2010Prop30
280
     0
102
RTVSPost2010PropOp30
 70
     1
102
RTVSPost2010Prop31
280
     0
102
RTVSPost2010PropOp31
 70
     1
102
RTVSPost2010Prop32
280
     0
102
RTVSPost2010PropOp32
 70
     1
102
RTVSPost2010Prop33
280
     0
102
RTVSPost2010PropOp33
 70
     1
102
RTVSPost2010Prop34
280
     0
102
RTVSPost2010PropOp34
 70
     1
102
RTVSPost2010Prop35
280
     0
102
RTVSPost2010PropOp35
 70
     1
102
RTVSPost2010Prop36
280
     0
102
RTVSPost2010PropOp36
 70
     1
102
RTVSPost2010Prop37
 90
       50
102
RTVSPost2010PropOp37
 70
     1
102
RTVSPost2010Prop38
140
0.0
102
RTVSPost2010PropOp38
 70
     1
102
RTVSPost2010Prop39
140
1.0
102
RTVSPost2010PropOp39
 70
     1
102
RTVSPost2010Prop40
 90
        0
102
RTVSPost2010PropOp40
 70
     1
102
RTVSPost2010Prop41ColorIndex
 90
       18
102
RTVSPost2010Prop41ColorRGB
 90
        0
102
RTVSPost2010PropOp41
 70
     1
102
RTVSPost2010Prop42
 90
       50
102
RTVSPost2010PropOp42
 70
     1
102
RTVSPost2010Prop43
 90
        3
102
RTVSPost2010PropOp43
 70
     1
102
RTVSPost2010Prop44ColorIndex
 90
        5
102
RTVSPost2010Prop44ColorRGB
 90
      255
102
RTVSPost2010PropOp44
 70
     1
102
RTVSPost2010Prop45
280
     0
102
RTVSPost2010PropOp45
 70
     1
102
RTVSPost2010Prop46
 90
       50
102
RTVSPost2010PropOp46
 70
     1
102
RTVSPost2010Prop47
 90
       50
102
RTVSPost2010PropOp47
 70
     1
102
RTVSPost2010Prop48
 90
       50
102
RTVSPost2010PropOp48
 70
     1
102
RTVSPost2010Prop49
280
     0
102
RTVSPost2010PropOp49
 70
     1
102
RTVSPost2010Prop50
 90
       50
102
RTVSPost2010PropOp50
 70
     1
102
RTVSPost2010Prop51ColorIndex
 90
      256
102
RTVSPost2010Prop51ColorRGB
 90
-16777216
102
RTVSPost2010PropOp51
 70
     0
102
RTVSPost2010Prop52
140
1.0
102
RTVSPost2010PropOp52
 70
     0
102
RTVSPost2010Prop53
 90
        2
102
RTVSPost2010PropOp53
 70
     1
102
RTVSPost2010Prop54
  1
strokes_ogs.tif
102
RTVSPost2010PropOp54
 70
     1
102
RTVSPost2010Prop55
280
     0
102
RTVSPost2010PropOp55
 70
     1
102
RTVSPost2010Prop56
140
1.0
102
RTVSPost2010PropOp56
 70
     1
102
RTVSPost2010Prop57
140
1.0
102
RTVSPost2010PropOp57
 70
     1
  0
XRECORD
  5
4E9
102
{ACAD_REACTORS
330
4E8
102
}
330
4E8
100
AcDbXrecord
280
     1
102
RTVSPropertyOp0
 70
     1
102
RTVSPropertyOp1
 70
     1
102
RTVSPropertyOp2
 70
     1
102
RTVSPropertyOp3
 70
     1
102
RTVSPropertyOp4
 70
     1
102
RTVSPropertyOp5
 70
     1
102
RTVSPropertyOp6
 70
     1
102
RTVSPropertyOp7
 70
     1
102
RTVSPropertyOp8
 70
     1
102
RTVSPropertyOp9
 70
     1
102
RTVSPropertyOp10
 70
     1
102
RTVSPropertyOp11
 70
     1
102
RTVSPropertyOp12
 70
     1
102
RTVSPropertyOp13
 70
     1
102
RTVSPropertyOp14
 70
     1
102
RTVSPropertyOp15
 70
     1
102
RTVSPropertyOp16
 70
     1
102
RTVSPropertyOp17
 70
     1
102
RTVSPropertyOp18
 70
     1
102
RTVSPropertyOp19
 70
     1
102
RTVSPropertyOp20
 70
     1
102
RTVSPropertyOp21
 70
     1
102
RTVSPropertyOp22
 70
     1
102
RTVSPropertyOp23
 70
     1
102
RTVSPropertyOp24
 70
     1
102
RTVSPropertyOp25
 70
     1
102
RTVSPropertyOp26
 70
     1
102
RTVSPropertyOp27
 70
     1
102
RTVSPropertyOp28
 70
     1
102
RTVSPropertyOp29
 70
     1
102
RTVSPropertyOp30
 70
     1
102
RTVSPropertyOp31
 70
     1
102
RTVSPropertyOp32
 70
     1
102
RTVSPropertyOp33
 70
     1
102
RTVSPropertyOp34
 70
     1
102
RTVSPropertyOp35
 70
     1
102
RTVSPropertyOp36
 70
     1
102
RTVSPropertyOp37
 70
     1
102
RTVSPropertyOp38
 70
     1
102
RTVSPropertyOp39
 70
     1
102
RTVSPropertyOp40
 70
     1
102
RTVSPropertyOp41
 70
     1
102
RTVSPropertyOp42
 70
     1
102
RTVSPropertyOp43
 70
     1
102
RTVSPropertyOp44
 70
     1
102
RTVSPropertyOp45
 70
     1
102
RTVSPropertyOp46
 70
     1
102
RTVSPropertyOp47
 70
     1
102
RTVSPropertyOp48
 70
     1
102
RTVSPropertyOp49
 70
     1
102
RTVSPropertyOp50
 70
     1
102
RTVSPropertyOp51
 70
     0
102
RTVSPropertyOp52
 70
     0
102
RTVSPropertyOp53
 70
     1
102
RTVSPropertyOp54
 70
     1
102
RTVSPropertyOp55
 70
     1
102
RTVSPropertyOp56
 70
     1
102
RTVSPropertyOp57
 70
     1
102
RTVSPost2010Prop28
280
     0
102
RTVSPost2010PropOp28
 70
     1
102
RTVSPost2010Prop29
280
     1
102
RTVSPost2010PropOp29
 70
     1
102
RTVSPost2010Prop30
280
     1
102
RTVSPost2010PropOp30
 70
     1
102
RTVSPost2010Prop31
280
     0
102
RTVSPost2010PropOp31
 70
     1
102
RTVSPost2010Prop32
280
     0
102
RTVSPost2010PropOp32
 70
     1
102
RTVSPost2010Prop33
280
     0
102
RTVSPost2010PropOp33
 70
     1
102
RTVSPost2010Prop34
280
     0
102
RTVSPost2010PropOp34
 70
     1
102
RTVSPost2010Prop35
280
     0
102
RTVSPost2010PropOp35
 70
     1
102
RTVSPost2010Prop36
280
     0
102
RTVSPost2010PropOp36
 70
     1
102
RTVSPost2010Prop37
 90
       50
102
RTVSPost2010PropOp37
 70
     1
102
RTVSPost2010Prop38
140
0.0
102
RTVSPost2010PropOp38
 70
     1
102
RTVSPost2010Prop39
140
1.0
102
RTVSPost2010PropOp39
 70
     1
102
RTVSPost2010Prop40
 90
        0
102
RTVSPost2010PropOp40
 70
     1
102
RTVSPost2010Prop41ColorIndex
 90
       18
102
RTVSPost2010Prop41ColorRGB
 90
        0
102
RTVSPost2010PropOp41
 70
     1
102
RTVSPost2010Prop42
 90
       50
102
RTVSPost2010PropOp42
 70
     1
102
RTVSPost2010Prop43
 90
        3
102
RTVSPost2010PropOp43
 70
     1
102
RTVSPost2010Prop44ColorIndex
 90
        5
102
RTVSPost2010Prop44ColorRGB
 90
      255
102
RTVSPost2010PropOp44
 70
     1
102
RTVSPost2010Prop45
280
     0
102
RTVSPost2010PropOp45
 70
     1
102
RTVSPost2010Prop46
 90
       50
102
RTVSPost2010PropOp46
 70
     1
102
RTVSPost2010Prop47
 90
       50
102
RTVSPost2010PropOp47
 70
     1
102
RTVSPost2010Prop48
 90
       50
102
RTVSPost2010PropOp48
 70
     1
102
RTVSPost2010Prop49
280
     0
102
RTVSPost2010PropOp49
 70
     1
102
RTVSPost2010Prop50
 90
       50
102
RTVSPost2010PropOp50
 70
     1
102
RTVSPost2010Prop51ColorIndex
 90
      256
102
RTVSPost2010Prop51ColorRGB
 90
-16777216
102
RTVSPost2010PropOp51
 70
     0
102
RTVSPost2010Prop52
140
1.0
102
RTVSPost2010PropOp52
 70
     0
102
RTVSPost2010Prop53
 90
        2
102
RTVSPost2010PropOp53
 70
     1
102
RTVSPost2010Prop54
  1
strokes_ogs.tif
102
RTVSPost2010PropOp54
 70
     1
102
RTVSPost2010Prop55
280
     0
102
RTVSPost2010PropOp55
 70
     1
102
RTVSPost2010Prop56
140
1.0
102
RTVSPost2010PropOp56
 70
     1
102
RTVSPost2010Prop57
140
1.0
102
RTVSPost2010PropOp57
 70
     1
  0
XRECORD
  5
4F1
102
{ACAD_REACTORS
330
4F0
102
}
330
4F0
100
AcDbXrecord
280
     1
102
RTVSPropertyOp0
 70
     1
102
RTVSPropertyOp1
 70
     1
102
RTVSPropertyOp2
 70
     1
102
RTVSPropertyOp3
 70
     1
102
RTVSPropertyOp4
 70
     1
102
RTVSPropertyOp5
 70
     1
102
RTVSPropertyOp6
 70
     1
102
RTVSPropertyOp7
 70
     1
102
RTVSPropertyOp8
 70
     1
102
RTVSPropertyOp9
 70
     1
102
RTVSPropertyOp10
 70
     1
102
RTVSPropertyOp11
 70
     1
102
RTVSPropertyOp12
 70
     1
102
RTVSPropertyOp13
 70
     1
102
RTVSPropertyOp14
 70
     1
102
RTVSPropertyOp15
 70
     1
102
RTVSPropertyOp16
 70
     1
102
RTVSPropertyOp17
 70
     1
102
RTVSPropertyOp18
 70
     1
102
RTVSPropertyOp19
 70
     1
102
RTVSPropertyOp20
 70
     1
102
RTVSPropertyOp21
 70
     1
102
RTVSPropertyOp22
 70
     1
102
RTVSPropertyOp23
 70
     1
102
RTVSPropertyOp24
 70
     1
102
RTVSPropertyOp25
 70
     1
102
RTVSPropertyOp26
 70
     1
102
RTVSPropertyOp27
 70
     1
102
RTVSPropertyOp28
 70
     1
102
RTVSPropertyOp29
 70
     1
102
RTVSPropertyOp30
 70
     1
102
RTVSPropertyOp31
 70
     1
102
RTVSPropertyOp32
 70
     1
102
RTVSPropertyOp33
 70
     1
102
RTVSPropertyOp34
 70
     1
102
RTVSPropertyOp35
 70
     1
102
RTVSPropertyOp36
 70
     1
102
RTVSPropertyOp37
 70
     1
102
RTVSPropertyOp38
 70
     1
102
RTVSPropertyOp39
 70
     1
102
RTVSPropertyOp40
 70
     1
102
RTVSPropertyOp41
 70
     1
102
RTVSPropertyOp42
 70
     1
102
RTVSPropertyOp43
 70
     1
102
RTVSPropertyOp44
 70
     1
102
RTVSPropertyOp45
 70
     1
102
RTVSPropertyOp46
 70
     1
102
RTVSPropertyOp47
 70
     1
102
RTVSPropertyOp48
 70
     1
102
RTVSPropertyOp49
 70
     1
102
RTVSPropertyOp50
 70
     1
102
RTVSPropertyOp51
 70
     0
102
RTVSPropertyOp52
 70
     0
102
RTVSPropertyOp53
 70
     1
102
RTVSPropertyOp54
 70
     1
102
RTVSPropertyOp55
 70
     1
102
RTVSPropertyOp56
 70
     1
102
RTVSPropertyOp57
 70
     1
102
RTVSPost2010Prop28
280
     0
102
RTVSPost2010PropOp28
 70
     1
102
RTVSPost2010Prop29
280
     1
102
RTVSPost2010PropOp29
 70
     1
102
RTVSPost2010Prop30
280
     1
102
RTVSPost2010PropOp30
 70
     1
102
RTVSPost2010Prop31
280
     0
102
RTVSPost2010PropOp31
 70
     1
102
RTVSPost2010Prop32
280
     0
102
RTVSPost2010PropOp32
 70
     1
102
RTVSPost2010Prop33
280
     0
102
RTVSPost2010PropOp33
 70
     1
102
RTVSPost2010Prop34
280
     0
102
RTVSPost2010PropOp34
 70
     1
102
RTVSPost2010Prop35
280
     0
102
RTVSPost2010PropOp35
 70
     1
102
RTVSPost2010Prop36
280
     0
102
RTVSPost2010PropOp36
 70
     1
102
RTVSPost2010Prop37
 90
       50
102
RTVSPost2010PropOp37
 70
     1
102
RTVSPost2010Prop38
140
0.0
102
RTVSPost2010PropOp38
 70
     1
102
RTVSPost2010Prop39
140
1.0
102
RTVSPost2010PropOp39
 70
     1
102
RTVSPost2010Prop40
 90
        0
102
RTVSPost2010PropOp40
 70
     1
102
RTVSPost2010Prop41ColorIndex
 90
       18
102
RTVSPost2010Prop41ColorRGB
 90
        0
102
RTVSPost2010PropOp41
 70
     1
102
RTVSPost2010Prop42
 90
       50
102
RTVSPost2010PropOp42
 70
     1
102
RTVSPost2010Prop43
 90
        3
102
RTVSPost2010PropOp43
 70
     1
102
RTVSPost2010Prop44ColorIndex
 90
        5
102
RTVSPost2010Prop44ColorRGB
 90
      255
102
RTVSPost2010PropOp44
 70
     1
102
RTVSPost2010Prop45
280
     0
102
RTVSPost2010PropOp45
 70
     1
102
RTVSPost2010Prop46
 90
       50
102
RTVSPost2010PropOp46
 70
     1
102
RTVSPost2010Prop47
 90
       50
102
RTVSPost2010PropOp47
 70
     1
102
RTVSPost2010Prop48
 90
       50
102
RTVSPost2010PropOp48
 70
     1
102
RTVSPost2010Prop49
280
     0
102
RTVSPost2010PropOp49
 70
     1
102
RTVSPost2010Prop50
 90
       50
102
RTVSPost2010PropOp50
 70
     1
102
RTVSPost2010Prop51ColorIndex
 90
      256
102
RTVSPost2010Prop51ColorRGB
 90
-16777216
102
RTVSPost2010PropOp51
 70
     0
102
RTVSPost2010Prop52
140
1.0
102
RTVSPost2010PropOp52
 70
     0
102
RTVSPost2010Prop53
 90
        2
102
RTVSPost2010PropOp53
 70
     1
102
RTVSPost2010Prop54
  1
strokes_ogs.tif
102
RTVSPost2010PropOp54
 70
     1
102
RTVSPost2010Prop55
280
     0
102
RTVSPost2010PropOp55
 70
     1
102
RTVSPost2010Prop56
140
1.0
102
RTVSPost2010PropOp56
 70
     1
102
RTVSPost2010Prop57
140
1.0
102
RTVSPost2010PropOp57
 70
     1
  0
XRECORD
  5
4F9
102
{ACAD_REACTORS
330
4F8
102
}
330
4F8
100
AcDbXrecord
280
     1
102
RTVSPropertyOp0
 70
     1
102
RTVSPropertyOp1
 70
     1
102
RTVSPropertyOp2
 70
     1
102
RTVSPropertyOp3
 70
     1
102
RTVSPropertyOp4
 70
     1
102
RTVSPropertyOp5
 70
     1
102
RTVSPropertyOp6
 70
     1
102
RTVSPropertyOp7
 70
     1
102
RTVSPropertyOp8
 70
     1
102
RTVSPropertyOp9
 70
     1
102
RTVSPropertyOp10
 70
     1
102
RTVSPropertyOp11
 70
     1
102
RTVSPropertyOp12
 70
     1
102
RTVSPropertyOp13
 70
     1
102
RTVSPropertyOp14
 70
     1
102
RTVSPropertyOp15
 70
     1
102
RTVSPropertyOp16
 70
     1
102
RTVSPropertyOp17
 70
     1
102
RTVSPropertyOp18
 70
     1
102
RTVSPropertyOp19
 70
     1
102
RTVSPropertyOp20
 70
     1
102
RTVSPropertyOp21
 70
     1
102
RTVSPropertyOp22
 70
     1
102
RTVSPropertyOp23
 70
     1
102
RTVSPropertyOp24
 70
     1
102
RTVSPropertyOp25
 70
     1
102
RTVSPropertyOp26
 70
     1
102
RTVSPropertyOp27
 70
     1
102
RTVSPropertyOp28
 70
     1
102
RTVSPropertyOp29
 70
     1
102
RTVSPropertyOp30
 70
     1
102
RTVSPropertyOp31
 70
     1
102
RTVSPropertyOp32
 70
     1
102
RTVSPropertyOp33
 70
     1
102
RTVSPropertyOp34
 70
     1
102
RTVSPropertyOp35
 70
     1
102
RTVSPropertyOp36
 70
     1
102
RTVSPropertyOp37
 70
     1
102
RTVSPropertyOp38
 70
     1
102
RTVSPropertyOp39
 70
     1
102
RTVSPropertyOp40
 70
     1
102
RTVSPropertyOp41
 70
     1
102
RTVSPropertyOp42
 70
     1
102
RTVSPropertyOp43
 70
     1
102
RTVSPropertyOp44
 70
     1
102
RTVSPropertyOp45
 70
     1
102
RTVSPropertyOp46
 70
     1
102
RTVSPropertyOp47
 70
     1
102
RTVSPropertyOp48
 70
     1
102
RTVSPropertyOp49
 70
     1
102
RTVSPropertyOp50
 70
     1
102
RTVSPropertyOp51
 70
     0
102
RTVSPropertyOp52
 70
     0
102
RTVSPropertyOp53
 70
     1
102
RTVSPropertyOp54
 70
     1
102
RTVSPropertyOp55
 70
     1
102
RTVSPropertyOp56
 70
     1
102
RTVSPropertyOp57
 70
     1
102
RTVSPost2010Prop28
280
     0
102
RTVSPost2010PropOp28
 70
     1
102
RTVSPost2010Prop29
280
     1
102
RTVSPost2010PropOp29
 70
     1
102
RTVSPost2010Prop30
280
     1
102
RTVSPost2010PropOp30
 70
     1
102
RTVSPost2010Prop31
280
     0
102
RTVSPost2010PropOp31
 70
     1
102
RTVSPost2010Prop32
280
     0
102
RTVSPost2010PropOp32
 70
     1
102
RTVSPost2010Prop33
280
     0
102
RTVSPost2010PropOp33
 70
     1
102
RTVSPost2010Prop34
280
     0
102
RTVSPost2010PropOp34
 70
     1
102
RTVSPost2010Prop35
280
     0
102
RTVSPost2010PropOp35
 70
     1
102
RTVSPost2010Prop36
280
     0
102
RTVSPost2010PropOp36
 70
     1
102
RTVSPost2010Prop37
 90
       50
102
RTVSPost2010PropOp37
 70
     1
102
RTVSPost2010Prop38
140
0.0
102
RTVSPost2010PropOp38
 70
     1
102
RTVSPost2010Prop39
140
1.0
102
RTVSPost2010PropOp39
 70
     1
102
RTVSPost2010Prop40
 90
        0
102
RTVSPost2010PropOp40
 70
     1
102
RTVSPost2010Prop41ColorIndex
 90
       18
102
RTVSPost2010Prop41ColorRGB
 90
        0
102
RTVSPost2010PropOp41
 70
     1
102
RTVSPost2010Prop42
 90
       50
102
RTVSPost2010PropOp42
 70
     1
102
RTVSPost2010Prop43
 90
        3
102
RTVSPost2010PropOp43
 70
     1
102
RTVSPost2010Prop44ColorIndex
 90
        5
102
RTVSPost2010Prop44ColorRGB
 90
      255
102
RTVSPost2010PropOp44
 70
     1
102
RTVSPost2010Prop45
280
     0
102
RTVSPost2010PropOp45
 70
     1
102
RTVSPost2010Prop46
 90
       50
102
RTVSPost2010PropOp46
 70
     1
102
RTVSPost2010Prop47
 90
       50
102
RTVSPost2010PropOp47
 70
     1
102
RTVSPost2010Prop48
 90
       50
102
RTVSPost2010PropOp48
 70
     1
102
RTVSPost2010Prop49
280
     0
102
RTVSPost2010PropOp49
 70
     1
102
RTVSPost2010Prop50
 90
       50
102
RTVSPost2010PropOp50
 70
     1
102
RTVSPost2010Prop51ColorIndex
 90
      256
102
RTVSPost2010Prop51ColorRGB
 90
-16777216
102
RTVSPost2010PropOp51
 70
     0
102
RTVSPost2010Prop52
140
1.0
102
RTVSPost2010PropOp52
 70
     0
102
RTVSPost2010Prop53
 90
        2
102
RTVSPost2010PropOp53
 70
     1
102
RTVSPost2010Prop54
  1
strokes_ogs.tif
102
RTVSPost2010PropOp54
 70
     1
102
RTVSPost2010Prop55
280
     0
102
RTVSPost2010PropOp55
 70
     1
102
RTVSPost2010Prop56
140
1.0
102
RTVSPost2010PropOp56
 70
     1
102
RTVSPost2010Prop57
140
1.0
102
RTVSPost2010PropOp57
 70
     1
  0
XRECORD
  5
4ED
102
{ACAD_REACTORS
330
4EC
102
}
330
4EC
100
AcDbXrecord
280
     1
102
RTVSPropertyOp0
 70
     1
102
RTVSPropertyOp1
 70
     1
102
RTVSPropertyOp2
 70
     1
102
RTVSPropertyOp3
 70
     1
102
RTVSPropertyOp4
 70
     1
102
RTVSPropertyOp5
 70
     1
102
RTVSPropertyOp6
 70
     1
102
RTVSPropertyOp7
 70
     1
102
RTVSPropertyOp8
 70
     1
102
RTVSPropertyOp9
 70
     1
102
RTVSPropertyOp10
 70
     1
102
RTVSPropertyOp11
 70
     1
102
RTVSPropertyOp12
 70
     1
102
RTVSPropertyOp13
 70
     1
102
RTVSPropertyOp14
 70
     1
102
RTVSPropertyOp15
 70
     1
102
RTVSPropertyOp16
 70
     1
102
RTVSPropertyOp17
 70
     1
102
RTVSPropertyOp18
 70
     1
102
RTVSPropertyOp19
 70
     1
102
RTVSPropertyOp20
 70
     1
102
RTVSPropertyOp21
 70
     1
102
RTVSPropertyOp22
 70
     1
102
RTVSPropertyOp23
 70
     1
102
RTVSPropertyOp24
 70
     1
102
RTVSPropertyOp25
 70
     1
102
RTVSPropertyOp26
 70
     1
102
RTVSPropertyOp27
 70
     1
102
RTVSPropertyOp28
 70
     1
102
RTVSPropertyOp29
 70
     1
102
RTVSPropertyOp30
 70
     1
102
RTVSPropertyOp31
 70
     1
102
RTVSPropertyOp32
 70
     1
102
RTVSPropertyOp33
 70
     1
102
RTVSPropertyOp34
 70
     1
102
RTVSPropertyOp35
 70
     1
102
RTVSPropertyOp36
 70
     1
102
RTVSPropertyOp37
 70
     1
102
RTVSPropertyOp38
 70
     1
102
RTVSPropertyOp39
 70
     1
102
RTVSPropertyOp40
 70
     1
102
RTVSPropertyOp41
 70
     1
102
RTVSPropertyOp42
 70
     1
102
RTVSPropertyOp43
 70
     1
102
RTVSPropertyOp44
 70
     1
102
RTVSPropertyOp45
 70
     1
102
RTVSPropertyOp46
 70
     1
102
RTVSPropertyOp47
 70
     1
102
RTVSPropertyOp48
 70
     1
102
RTVSPropertyOp49
 70
     1
102
RTVSPropertyOp50
 70
     1
102
RTVSPropertyOp51
 70
     0
102
RTVSPropertyOp52
 70
     0
102
RTVSPropertyOp53
 70
     1
102
RTVSPropertyOp54
 70
     1
102
RTVSPropertyOp55
 70
     1
102
RTVSPropertyOp56
 70
     1
102
RTVSPropertyOp57
 70
     1
102
RTVSPost2010Prop28
280
     0
102
RTVSPost2010PropOp28
 70
     1
102
RTVSPost2010Prop29
280
     1
102
RTVSPost2010PropOp29
 70
     1
102
RTVSPost2010Prop30
280
     1
102
RTVSPost2010PropOp30
 70
     1
102
RTVSPost2010Prop31
280
     0
102
RTVSPost2010PropOp31
 70
     1
102
RTVSPost2010Prop32
280
     0
102
RTVSPost2010PropOp32
 70
     1
102
RTVSPost2010Prop33
280
     0
102
RTVSPost2010PropOp33
 70
     1
102
RTVSPost2010Prop34
280
     0
102
RTVSPost2010PropOp34
 70
     1
102
RTVSPost2010Prop35
280
     0
102
RTVSPost2010PropOp35
 70
     1
102
RTVSPost2010Prop36
280
     0
102
RTVSPost2010PropOp36
 70
     1
102
RTVSPost2010Prop37
 90
       50
102
RTVSPost2010PropOp37
 70
     1
102
RTVSPost2010Prop38
140
0.0
102
RTVSPost2010PropOp38
 70
     1
102
RTVSPost2010Prop39
140
1.0
102
RTVSPost2010PropOp39
 70
     1
102
RTVSPost2010Prop40
 90
        0
102
RTVSPost2010PropOp40
 70
     1
102
RTVSPost2010Prop41ColorIndex
 90
       18
102
RTVSPost2010Prop41ColorRGB
 90
        0
102
RTVSPost2010PropOp41
 70
     1
102
RTVSPost2010Prop42
 90
       50
102
RTVSPost2010PropOp42
 70
     1
102
RTVSPost2010Prop43
 90
        3
102
RTVSPost2010PropOp43
 70
     1
102
RTVSPost2010Prop44ColorIndex
 90
        5
102
RTVSPost2010Prop44ColorRGB
 90
      255
102
RTVSPost2010PropOp44
 70
     1
102
RTVSPost2010Prop45
280
     0
102
RTVSPost2010PropOp45
 70
     1
102
RTVSPost2010Prop46
 90
       50
102
RTVSPost2010PropOp46
 70
     1
102
RTVSPost2010Prop47
 90
       50
102
RTVSPost2010PropOp47
 70
     1
102
RTVSPost2010Prop48
 90
       50
102
RTVSPost2010PropOp48
 70
     1
102
RTVSPost2010Prop49
280
     0
102
RTVSPost2010PropOp49
 70
     1
102
RTVSPost2010Prop50
 90
       50
102
RTVSPost2010PropOp50
 70
     1
102
RTVSPost2010Prop51ColorIndex
 90
      256
102
RTVSPost2010Prop51ColorRGB
 90
-16777216
102
RTVSPost2010PropOp51
 70
     0
102
RTVSPost2010Prop52
140
1.0
102
RTVSPost2010PropOp52
 70
     0
102
RTVSPost2010Prop53
 90
        2
102
RTVSPost2010PropOp53
 70
     1
102
RTVSPost2010Prop54
  1
strokes_ogs.tif
102
RTVSPost2010PropOp54
 70
     1
102
RTVSPost2010Prop55
280
     0
102
RTVSPost2010PropOp55
 70
     1
102
RTVSPost2010Prop56
140
1.0
102
RTVSPost2010PropOp56
 70
     1
102
RTVSPost2010Prop57
140
1.0
102
RTVSPost2010PropOp57
 70
     1
  0
XRECORD
  5
4EF
102
{ACAD_REACTORS
330
4EE
102
}
330
4EE
100
AcDbXrecord
280
     1
102
RTVSPropertyOp0
 70
     1
102
RTVSPropertyOp1
 70
     1
102
RTVSPropertyOp2
 70
     1
102
RTVSPropertyOp3
 70
     1
102
RTVSPropertyOp4
 70
     1
102
RTVSPropertyOp5
 70
     1
102
RTVSPropertyOp6
 70
     1
102
RTVSPropertyOp7
 70
     1
102
RTVSPropertyOp8
 70
     1
102
RTVSPropertyOp9
 70
     1
102
RTVSPropertyOp10
 70
     1
102
RTVSPropertyOp11
 70
     1
102
RTVSPropertyOp12
 70
     1
102
RTVSPropertyOp13
 70
     1
102
RTVSPropertyOp14
 70
     1
102
RTVSPropertyOp15
 70
     1
102
RTVSPropertyOp16
 70
     1
102
RTVSPropertyOp17
 70
     1
102
RTVSPropertyOp18
 70
     1
102
RTVSPropertyOp19
 70
     1
102
RTVSPropertyOp20
 70
     1
102
RTVSPropertyOp21
 70
     1
102
RTVSPropertyOp22
 70
     1
102
RTVSPropertyOp23
 70
     1
102
RTVSPropertyOp24
 70
     1
102
RTVSPropertyOp25
 70
     1
102
RTVSPropertyOp26
 70
     1
102
RTVSPropertyOp27
 70
     1
102
RTVSPropertyOp28
 70
     1
102
RTVSPropertyOp29
 70
     1
102
RTVSPropertyOp30
 70
     1
102
RTVSPropertyOp31
 70
     1
102
RTVSPropertyOp32
 70
     1
102
RTVSPropertyOp33
 70
     1
102
RTVSPropertyOp34
 70
     1
102
RTVSPropertyOp35
 70
     1
102
RTVSPropertyOp36
 70
     1
102
RTVSPropertyOp37
 70
     1
102
RTVSPropertyOp38
 70
     1
102
RTVSPropertyOp39
 70
     1
102
RTVSPropertyOp40
 70
     1
102
RTVSPropertyOp41
 70
     1
102
RTVSPropertyOp42
 70
     1
102
RTVSPropertyOp43
 70
     1
102
RTVSPropertyOp44
 70
     1
102
RTVSPropertyOp45
 70
     1
102
RTVSPropertyOp46
 70
     1
102
RTVSPropertyOp47
 70
     1
102
RTVSPropertyOp48
 70
     1
102
RTVSPropertyOp49
 70
     1
102
RTVSPropertyOp50
 70
     1
102
RTVSPropertyOp51
 70
     0
102
RTVSPropertyOp52
 70
     0
102
RTVSPropertyOp53
 70
     1
102
RTVSPropertyOp54
 70
     1
102
RTVSPropertyOp55
 70
     1
102
RTVSPropertyOp56
 70
     1
102
RTVSPropertyOp57
 70
     1
102
RTVSPost2010Prop28
280
     0
102
RTVSPost2010PropOp28
 70
     1
102
RTVSPost2010Prop29
280
     1
102
RTVSPost2010PropOp29
 70
     1
102
RTVSPost2010Prop30
280
     1
102
RTVSPost2010PropOp30
 70
     1
102
RTVSPost2010Prop31
280
     0
102
RTVSPost2010PropOp31
 70
     1
102
RTVSPost2010Prop32
280
     0
102
RTVSPost2010PropOp32
 70
     1
102
RTVSPost2010Prop33
280
     0
102
RTVSPost2010PropOp33
 70
     1
102
RTVSPost2010Prop34
280
     0
102
RTVSPost2010PropOp34
 70
     1
102
RTVSPost2010Prop35
280
     0
102
RTVSPost2010PropOp35
 70
     1
102
RTVSPost2010Prop36
280
     0
102
RTVSPost2010PropOp36
 70
     1
102
RTVSPost2010Prop37
 90
       50
102
RTVSPost2010PropOp37
 70
     1
102
RTVSPost2010Prop38
140
0.0
102
RTVSPost2010PropOp38
 70
     1
102
RTVSPost2010Prop39
140
1.0
102
RTVSPost2010PropOp39
 70
     1
102
RTVSPost2010Prop40
 90
        0
102
RTVSPost2010PropOp40
 70
     1
102
RTVSPost2010Prop41ColorIndex
 90
       18
102
RTVSPost2010Prop41ColorRGB
 90
        0
102
RTVSPost2010PropOp41
 70
     1
102
RTVSPost2010Prop42
 90
       50
102
RTVSPost2010PropOp42
 70
     1
102
RTVSPost2010Prop43
 90
        3
102
RTVSPost2010PropOp43
 70
     1
102
RTVSPost2010Prop44ColorIndex
 90
        5
102
RTVSPost2010Prop44ColorRGB
 90
      255
102
RTVSPost2010PropOp44
 70
     1
102
RTVSPost2010Prop45
280
     0
102
RTVSPost2010PropOp45
 70
     1
102
RTVSPost2010Prop46
 90
       50
102
RTVSPost2010PropOp46
 70
     1
102
RTVSPost2010Prop47
 90
       50
102
RTVSPost2010PropOp47
 70
     1
102
RTVSPost2010Prop48
 90
       50
102
RTVSPost2010PropOp48
 70
     1
102
RTVSPost2010Prop49
280
     0
102
RTVSPost2010PropOp49
 70
     1
102
RTVSPost2010Prop50
 90
       50
102
RTVSPost2010PropOp50
 70
     1
102
RTVSPost2010Prop51ColorIndex
 90
      256
102
RTVSPost2010Prop51ColorRGB
 90
-16777216
102
RTVSPost2010PropOp51
 70
     0
102
RTVSPost2010Prop52
140
1.0
102
RTVSPost2010PropOp52
 70
     0
102
RTVSPost2010Prop53
 90
        2
102
RTVSPost2010PropOp53
 70
     1
102
RTVSPost2010Prop54
  1
strokes_ogs.tif
102
RTVSPost2010PropOp54
 70
     1
102
RTVSPost2010Prop55
280
     0
102
RTVSPost2010PropOp55
 70
     1
102
RTVSPost2010Prop56
140
1.0
102
RTVSPost2010PropOp56
 70
     1
102
RTVSPost2010Prop57
140
1.0
102
RTVSPost2010PropOp57
 70
     1
  0
XRECORD
  5
4FF
102
{ACAD_REACTORS
330
4FE
102
}
330
4FE
100
AcDbXrecord
280
     1
102
RTVSPropertyOp0
 70
     0
102
RTVSPropertyOp1
 70
     0
102
RTVSPropertyOp2
 70
     0
102
RTVSPropertyOp3
 70
     0
102
RTVSPropertyOp4
 70
     0
102
RTVSPropertyOp5
 70
     0
102
RTVSPropertyOp6
 70
     0
102
RTVSPropertyOp7
 70
     0
102
RTVSPropertyOp8
 70
     0
102
RTVSPropertyOp9
 70
     0
102
RTVSPropertyOp10
 70
     0
102
RTVSPropertyOp11
 70
     0
102
RTVSPropertyOp12
 70
     0
102
RTVSPropertyOp13
 70
     0
102
RTVSPropertyOp14
 70
     0
102
RTVSPropertyOp15
 70
     0
102
RTVSPropertyOp16
 70
     0
102
RTVSPropertyOp17
 70
     0
102
RTVSPropertyOp18
 70
     0
102
RTVSPropertyOp19
 70
     0
102
RTVSPropertyOp20
 70
     0
102
RTVSPropertyOp21
 70
     0
102
RTVSPropertyOp22
 70
     0
102
RTVSPropertyOp23
 70
     0
102
RTVSPropertyOp24
 70
     0
102
RTVSPropertyOp25
 70
     0
102
RTVSPropertyOp26
 70
     0
102
RTVSPropertyOp27
 70
     0
102
RTVSPropertyOp28
 70
     1
102
RTVSPropertyOp29
 70
     1
102
RTVSPropertyOp30
 70
     1
102
RTVSPropertyOp31
 70
     1
102
RTVSPropertyOp32
 70
     1
102
RTVSPropertyOp33
 70
     1
102
RTVSPropertyOp34
 70
     1
102
RTVSPropertyOp35
 70
     1
102
RTVSPropertyOp36
 70
     1
102
RTVSPropertyOp37
 70
     1
102
RTVSPropertyOp38
 70
     1
102
RTVSPropertyOp39
 70
     1
102
RTVSPropertyOp40
 70
     1
102
RTVSPropertyOp41
 70
     1
102
RTVSPropertyOp42
 70
     1
102
RTVSPropertyOp43
 70
     1
102
RTVSPropertyOp44
 70
     1
102
RTVSPropertyOp45
 70
     1
102
RTVSPropertyOp46
 70
     1
102
RTVSPropertyOp47
 70
     1
102
RTVSPropertyOp48
 70
     1
102
RTVSPropertyOp49
 70
     1
102
RTVSPropertyOp50
 70
     1
102
RTVSPropertyOp51
 70
     0
102
RTVSPropertyOp52
 70
     0
102
RTVSPropertyOp53
 70
     1
102
RTVSPropertyOp54
 70
     1
102
RTVSPropertyOp55
 70
     1
102
RTVSPropertyOp56
 70
     1
102
RTVSPropertyOp57
 70
     1
102
RTVSPost2010Prop28
280
     0
102
RTVSPost2010PropOp28
 70
     1
102
RTVSPost2010Prop29
280
     1
102
RTVSPost2010PropOp29
 70
     1
102
RTVSPost2010Prop30
280
     1
102
RTVSPost2010PropOp30
 70
     1
102
RTVSPost2010Prop31
280
     0
102
RTVSPost2010PropOp31
 70
     1
102
RTVSPost2010Prop32
280
     0
102
RTVSPost2010PropOp32
 70
     1
102
RTVSPost2010Prop33
280
     0
102
RTVSPost2010PropOp33
 70
     1
102
RTVSPost2010Prop34
280
     0
102
RTVSPost2010PropOp34
 70
     1
102
RTVSPost2010Prop35
280
     0
102
RTVSPost2010PropOp35
 70
     1
102
RTVSPost2010Prop36
280
     0
102
RTVSPost2010PropOp36
 70
     1
102
RTVSPost2010Prop37
 90
       50
102
RTVSPost2010PropOp37
 70
     1
102
RTVSPost2010Prop38
140
0.0
102
RTVSPost2010PropOp38
 70
     1
102
RTVSPost2010Prop39
140
1.0
102
RTVSPost2010PropOp39
 70
     1
102
RTVSPost2010Prop40
 90
        0
102
RTVSPost2010PropOp40
 70
     1
102
RTVSPost2010Prop41ColorIndex
 90
       18
102
RTVSPost2010Prop41ColorRGB
 90
        0
102
RTVSPost2010PropOp41
 70
     1
102
RTVSPost2010Prop42
 90
       50
102
RTVSPost2010PropOp42
 70
     1
102
RTVSPost2010Prop43
 90
        3
102
RTVSPost2010PropOp43
 70
     1
102
RTVSPost2010Prop44ColorIndex
 90
        5
102
RTVSPost2010Prop44ColorRGB
 90
      255
102
RTVSPost2010PropOp44
 70
     1
102
RTVSPost2010Prop45
280
     0
102
RTVSPost2010PropOp45
 70
     1
102
RTVSPost2010Prop46
 90
       50
102
RTVSPost2010PropOp46
 70
     1
102
RTVSPost2010Prop47
 90
       50
102
RTVSPost2010PropOp47
 70
     1
102
RTVSPost2010Prop48
 90
       50
102
RTVSPost2010PropOp48
 70
     1
102
RTVSPost2010Prop49
280
     0
102
RTVSPost2010PropOp49
 70
     1
102
RTVSPost2010Prop50
 90
       50
102
RTVSPost2010PropOp50
 70
     1
102
RTVSPost2010Prop51ColorIndex
 90
      256
102
RTVSPost2010Prop51ColorRGB
 90
-16777216
102
RTVSPost2010PropOp51
 70
     0
102
RTVSPost2010Prop52
140
1.0
102
RTVSPost2010PropOp52
 70
     0
102
RTVSPost2010Prop53
 90
        2
102
RTVSPost2010PropOp53
 70
     1
102
RTVSPost2010Prop54
  1
strokes_ogs.tif
102
RTVSPost2010PropOp54
 70
     1
102
RTVSPost2010Prop55
280
     0
102
RTVSPost2010PropOp55
 70
     1
102
RTVSPost2010Prop56
140
1.0
102
RTVSPost2010PropOp56
 70
     1
102
RTVSPost2010Prop57
140
1.0
102
RTVSPost2010PropOp57
 70
     1
  0
XRECORD
  5
4F7
102
{ACAD_REACTORS
330
4F6
102
}
330
4F6
100
AcDbXrecord
280
     1
102
RTVSPropertyOp0
 70
     1
102
RTVSPropertyOp1
 70
     1
102
RTVSPropertyOp2
 70
     1
102
RTVSPropertyOp3
 70
     1
102
RTVSPropertyOp4
 70
     1
102
RTVSPropertyOp5
 70
     1
102
RTVSPropertyOp6
 70
     1
102
RTVSPropertyOp7
 70
     1
102
RTVSPropertyOp8
 70
     1
102
RTVSPropertyOp9
 70
     1
102
RTVSPropertyOp10
 70
     1
102
RTVSPropertyOp11
 70
     1
102
RTVSPropertyOp12
 70
     1
102
RTVSPropertyOp13
 70
     1
102
RTVSPropertyOp14
 70
     1
102
RTVSPropertyOp15
 70
     1
102
RTVSPropertyOp16
 70
     1
102
RTVSPropertyOp17
 70
     1
102
RTVSPropertyOp18
 70
     1
102
RTVSPropertyOp19
 70
     1
102
RTVSPropertyOp20
 70
     1
102
RTVSPropertyOp21
 70
     1
102
RTVSPropertyOp22
 70
     1
102
RTVSPropertyOp23
 70
     1
102
RTVSPropertyOp24
 70
     1
102
RTVSPropertyOp25
 70
     1
102
RTVSPropertyOp26
 70
     1
102
RTVSPropertyOp27
 70
     1
102
RTVSPropertyOp28
 70
     1
102
RTVSPropertyOp29
 70
     1
102
RTVSPropertyOp30
 70
     1
102
RTVSPropertyOp31
 70
     1
102
RTVSPropertyOp32
 70
     1
102
RTVSPropertyOp33
 70
     1
102
RTVSPropertyOp34
 70
     1
102
RTVSPropertyOp35
 70
     1
102
RTVSPropertyOp36
 70
     1
102
RTVSPropertyOp37
 70
     1
102
RTVSPropertyOp38
 70
     1
102
RTVSPropertyOp39
 70
     1
102
RTVSPropertyOp40
 70
     1
102
RTVSPropertyOp41
 70
     1
102
RTVSPropertyOp42
 70
     1
102
RTVSPropertyOp43
 70
     1
102
RTVSPropertyOp44
 70
     1
102
RTVSPropertyOp45
 70
     1
102
RTVSPropertyOp46
 70
     1
102
RTVSPropertyOp47
 70
     1
102
RTVSPropertyOp48
 70
     1
102
RTVSPropertyOp49
 70
     1
102
RTVSPropertyOp50
 70
     1
102
RTVSPropertyOp51
 70
     0
102
RTVSPropertyOp52
 70
     0
102
RTVSPropertyOp53
 70
     1
102
RTVSPropertyOp54
 70
     1
102
RTVSPropertyOp55
 70
     1
102
RTVSPropertyOp56
 70
     1
102
RTVSPropertyOp57
 70
     1
102
RTVSPost2010Prop28
280
     0
102
RTVSPost2010PropOp28
 70
     1
102
RTVSPost2010Prop29
280
     1
102
RTVSPost2010PropOp29
 70
     1
102
RTVSPost2010Prop30
280
     1
102
RTVSPost2010PropOp30
 70
     1
102
RTVSPost2010Prop31
280
     0
102
RTVSPost2010PropOp31
 70
     1
102
RTVSPost2010Prop32
280
     0
102
RTVSPost2010PropOp32
 70
     1
102
RTVSPost2010Prop33
280
     0
102
RTVSPost2010PropOp33
 70
     1
102
RTVSPost2010Prop34
280
     0
102
RTVSPost2010PropOp34
 70
     1
102
RTVSPost2010Prop35
280
     0
102
RTVSPost2010PropOp35
 70
     1
102
RTVSPost2010Prop36
280
     0
102
RTVSPost2010PropOp36
 70
     1
102
RTVSPost2010Prop37
 90
       50
102
RTVSPost2010PropOp37
 70
     1
102
RTVSPost2010Prop38
140
0.0
102
RTVSPost2010PropOp38
 70
     1
102
RTVSPost2010Prop39
140
1.0
102
RTVSPost2010PropOp39
 70
     1
102
RTVSPost2010Prop40
 90
        0
102
RTVSPost2010PropOp40
 70
     1
102
RTVSPost2010Prop41ColorIndex
 90
       18
102
RTVSPost2010Prop41ColorRGB
 90
        0
102
RTVSPost2010PropOp41
 70
     1
102
RTVSPost2010Prop42
 90
       50
102
RTVSPost2010PropOp42
 70
     1
102
RTVSPost2010Prop43
 90
        3
102
RTVSPost2010PropOp43
 70
     1
102
RTVSPost2010Prop44ColorIndex
 90
        5
102
RTVSPost2010Prop44ColorRGB
 90
      255
102
RTVSPost2010PropOp44
 70
     1
102
RTVSPost2010Prop45
280
     0
102
RTVSPost2010PropOp45
 70
     1
102
RTVSPost2010Prop46
 90
       50
102
RTVSPost2010PropOp46
 70
     1
102
RTVSPost2010Prop47
 90
       50
102
RTVSPost2010PropOp47
 70
     1
102
RTVSPost2010Prop48
 90
       50
102
RTVSPost2010PropOp48
 70
     1
102
RTVSPost2010Prop49
280
     0
102
RTVSPost2010PropOp49
 70
     1
102
RTVSPost2010Prop50
 90
       50
102
RTVSPost2010PropOp50
 70
     1
102
RTVSPost2010Prop51ColorIndex
 90
      256
102
RTVSPost2010Prop51ColorRGB
 90
-16777216
102
RTVSPost2010PropOp51
 70
     0
102
RTVSPost2010Prop52
140
1.0
102
RTVSPost2010PropOp52
 70
     0
102
RTVSPost2010Prop53
 90
        2
102
RTVSPost2010PropOp53
 70
     1
102
RTVSPost2010Prop54
  1
strokes_ogs.tif
102
RTVSPost2010PropOp54
 70
     1
102
RTVSPost2010Prop55
280
     0
102
RTVSPost2010PropOp55
 70
     1
102
RTVSPost2010Prop56
140
1.0
102
RTVSPost2010PropOp56
 70
     1
102
RTVSPost2010Prop57
140
1.0
102
RTVSPost2010PropOp57
 70
     1
  0
XRECORD
  5
4DB
102
{ACAD_REACTORS
330
4DA
102
}
330
4DA
100
AcDbXrecord
280
     1
102
RTVSPropertyOp0
 70
     1
102
RTVSPropertyOp1
 70
     1
102
RTVSPropertyOp2
 70
     1
102
RTVSPropertyOp3
 70
     1
102
RTVSPropertyOp4
 70
     1
102
RTVSPropertyOp5
 70
     1
102
RTVSPropertyOp6
 70
     1
102
RTVSPropertyOp7
 70
     1
102
RTVSPropertyOp8
 70
     1
102
RTVSPropertyOp9
 70
     1
102
RTVSPropertyOp10
 70
     1
102
RTVSPropertyOp11
 70
     1
102
RTVSPropertyOp12
 70
     1
102
RTVSPropertyOp13
 70
     1
102
RTVSPropertyOp14
 70
     1
102
RTVSPropertyOp15
 70
     1
102
RTVSPropertyOp16
 70
     1
102
RTVSPropertyOp17
 70
     1
102
RTVSPropertyOp18
 70
     1
102
RTVSPropertyOp19
 70
     1
102
RTVSPropertyOp20
 70
     1
102
RTVSPropertyOp21
 70
     1
102
RTVSPropertyOp22
 70
     1
102
RTVSPropertyOp23
 70
     1
102
RTVSPropertyOp24
 70
     1
102
RTVSPropertyOp25
 70
     1
102
RTVSPropertyOp26
 70
     1
102
RTVSPropertyOp27
 70
     1
102
RTVSPropertyOp28
 70
     1
102
RTVSPropertyOp29
 70
     1
102
RTVSPropertyOp30
 70
     1
102
RTVSPropertyOp31
 70
     1
102
RTVSPropertyOp32
 70
     1
102
RTVSPropertyOp33
 70
     1
102
RTVSPropertyOp34
 70
     1
102
RTVSPropertyOp35
 70
     1
102
RTVSPropertyOp36
 70
     1
102
RTVSPropertyOp37
 70
     1
102
RTVSPropertyOp38
 70
     1
102
RTVSPropertyOp39
 70
     1
102
RTVSPropertyOp40
 70
     1
102
RTVSPropertyOp41
 70
     1
102
RTVSPropertyOp42
 70
     1
102
RTVSPropertyOp43
 70
     1
102
RTVSPropertyOp44
 70
     1
102
RTVSPropertyOp45
 70
     1
102
RTVSPropertyOp46
 70
     1
102
RTVSPropertyOp47
 70
     1
102
RTVSPropertyOp48
 70
     1
102
RTVSPropertyOp49
 70
     1
102
RTVSPropertyOp50
 70
     1
102
RTVSPropertyOp51
 70
     0
102
RTVSPropertyOp52
 70
     0
102
RTVSPropertyOp53
 70
     1
102
RTVSPropertyOp54
 70
     1
102
RTVSPropertyOp55
 70
     1
102
RTVSPropertyOp56
 70
     1
102
RTVSPropertyOp57
 70
     1
102
RTVSPost2010Prop28
280
     0
102
RTVSPost2010PropOp28
 70
     1
102
RTVSPost2010Prop29
280
     1
102
RTVSPost2010PropOp29
 70
     1
102
RTVSPost2010Prop30
280
     1
102
RTVSPost2010PropOp30
 70
     1
102
RTVSPost2010Prop31
280
     0
102
RTVSPost2010PropOp31
 70
     1
102
RTVSPost2010Prop32
280
     0
102
RTVSPost2010PropOp32
 70
     1
102
RTVSPost2010Prop33
280
     0
102
RTVSPost2010PropOp33
 70
     1
102
RTVSPost2010Prop34
280
     0
102
RTVSPost2010PropOp34
 70
     1
102
RTVSPost2010Prop35
280
     0
102
RTVSPost2010PropOp35
 70
     1
102
RTVSPost2010Prop36
280
     0
102
RTVSPost2010PropOp36
 70
     1
102
RTVSPost2010Prop37
 90
       50
102
RTVSPost2010PropOp37
 70
     1
102
RTVSPost2010Prop38
140
0.0
102
RTVSPost2010PropOp38
 70
     1
102
RTVSPost2010Prop39
140
1.0
102
RTVSPost2010PropOp39
 70
     1
102
RTVSPost2010Prop40
 90
        0
102
RTVSPost2010PropOp40
 70
     1
102
RTVSPost2010Prop41ColorIndex
 90
       18
102
RTVSPost2010Prop41ColorRGB
 90
        0
102
RTVSPost2010PropOp41
 70
     1
102
RTVSPost2010Prop42
 90
       50
102
RTVSPost2010PropOp42
 70
     1
102
RTVSPost2010Prop43
 90
        3
102
RTVSPost2010PropOp43
 70
     1
102
RTVSPost2010Prop44ColorIndex
 90
        5
102
RTVSPost2010Prop44ColorRGB
 90
      255
102
RTVSPost2010PropOp44
 70
     1
102
RTVSPost2010Prop45
280
     0
102
RTVSPost2010PropOp45
 70
     1
102
RTVSPost2010Prop46
 90
       50
102
RTVSPost2010PropOp46
 70
     1
102
RTVSPost2010Prop47
 90
       50
102
RTVSPost2010PropOp47
 70
     1
102
RTVSPost2010Prop48
 90
       50
102
RTVSPost2010PropOp48
 70
     1
102
RTVSPost2010Prop49
280
     0
102
RTVSPost2010PropOp49
 70
     1
102
RTVSPost2010Prop50
 90
       50
102
RTVSPost2010PropOp50
 70
     1
102
RTVSPost2010Prop51ColorIndex
 90
      256
102
RTVSPost2010Prop51ColorRGB
 90
-16777216
102
RTVSPost2010PropOp51
 70
     0
102
RTVSPost2010Prop52
140
1.0
102
RTVSPost2010PropOp52
 70
     0
102
RTVSPost2010Prop53
 90
        2
102
RTVSPost2010PropOp53
 70
     1
102
RTVSPost2010Prop54
  1
strokes_ogs.tif
102
RTVSPost2010PropOp54
 70
     1
102
RTVSPost2010Prop55
280
     0
102
RTVSPost2010PropOp55
 70
     1
102
RTVSPost2010Prop56
140
1.0
102
RTVSPost2010PropOp56
 70
     1
102
RTVSPost2010Prop57
140
1.0
102
RTVSPost2010PropOp57
 70
     1
  0
XRECORD
  5
4DD
102
{ACAD_REACTORS
330
4DC
102
}
330
4DC
100
AcDbXrecord
280
     1
102
RTVSPropertyOp0
 70
     1
102
RTVSPropertyOp1
 70
     1
102
RTVSPropertyOp2
 70
     1
102
RTVSPropertyOp3
 70
     1
102
RTVSPropertyOp4
 70
     1
102
RTVSPropertyOp5
 70
     1
102
RTVSPropertyOp6
 70
     1
102
RTVSPropertyOp7
 70
     1
102
RTVSPropertyOp8
 70
     1
102
RTVSPropertyOp9
 70
     1
102
RTVSPropertyOp10
 70
     1
102
RTVSPropertyOp11
 70
     1
102
RTVSPropertyOp12
 70
     1
102
RTVSPropertyOp13
 70
     1
102
RTVSPropertyOp14
 70
     1
102
RTVSPropertyOp15
 70
     1
102
RTVSPropertyOp16
 70
     1
102
RTVSPropertyOp17
 70
     1
102
RTVSPropertyOp18
 70
     1
102
RTVSPropertyOp19
 70
     1
102
RTVSPropertyOp20
 70
     1
102
RTVSPropertyOp21
 70
     1
102
RTVSPropertyOp22
 70
     1
102
RTVSPropertyOp23
 70
     1
102
RTVSPropertyOp24
 70
     1
102
RTVSPropertyOp25
 70
     1
102
RTVSPropertyOp26
 70
     1
102
RTVSPropertyOp27
 70
     1
102
RTVSPropertyOp28
 70
     1
102
RTVSPropertyOp29
 70
     1
102
RTVSPropertyOp30
 70
     1
102
RTVSPropertyOp31
 70
     1
102
RTVSPropertyOp32
 70
     1
102
RTVSPropertyOp33
 70
     1
102
RTVSPropertyOp34
 70
     1
102
RTVSPropertyOp35
 70
     1
102
RTVSPropertyOp36
 70
     1
102
RTVSPropertyOp37
 70
     1
102
RTVSPropertyOp38
 70
     1
102
RTVSPropertyOp39
 70
     1
102
RTVSPropertyOp40
 70
     1
102
RTVSPropertyOp41
 70
     1
102
RTVSPropertyOp42
 70
     1
102
RTVSPropertyOp43
 70
     1
102
RTVSPropertyOp44
 70
     1
102
RTVSPropertyOp45
 70
     1
102
RTVSPropertyOp46
 70
     1
102
RTVSPropertyOp47
 70
     1
102
RTVSPropertyOp48
 70
     1
102
RTVSPropertyOp49
 70
     1
102
RTVSPropertyOp50
 70
     1
102
RTVSPropertyOp51
 70
     0
102
RTVSPropertyOp52
 70
     0
102
RTVSPropertyOp53
 70
     1
102
RTVSPropertyOp54
 70
     1
102
RTVSPropertyOp55
 70
     1
102
RTVSPropertyOp56
 70
     1
102
RTVSPropertyOp57
 70
     1
102
RTVSPost2010Prop28
280
     0
102
RTVSPost2010PropOp28
 70
     1
102
RTVSPost2010Prop29
280
     1
102
RTVSPost2010PropOp29
 70
     1
102
RTVSPost2010Prop30
280
     1
102
RTVSPost2010PropOp30
 70
     1
102
RTVSPost2010Prop31
280
     0
102
RTVSPost2010PropOp31
 70
     1
102
RTVSPost2010Prop32
280
     0
102
RTVSPost2010PropOp32
 70
     1
102
RTVSPost2010Prop33
280
     0
102
RTVSPost2010PropOp33
 70
     1
102
RTVSPost2010Prop34
280
     0
102
RTVSPost2010PropOp34
 70
     1
102
RTVSPost2010Prop35
280
     0
102
RTVSPost2010PropOp35
 70
     1
102
RTVSPost2010Prop36
280
     0
102
RTVSPost2010PropOp36
 70
     1
102
RTVSPost2010Prop37
 90
       50
102
RTVSPost2010PropOp37
 70
     1
102
RTVSPost2010Prop38
140
0.0
102
RTVSPost2010PropOp38
 70
     1
102
RTVSPost2010Prop39
140
1.0
102
RTVSPost2010PropOp39
 70
     1
102
RTVSPost2010Prop40
 90
        0
102
RTVSPost2010PropOp40
 70
     1
102
RTVSPost2010Prop41ColorIndex
 90
       18
102
RTVSPost2010Prop41ColorRGB
 90
        0
102
RTVSPost2010PropOp41
 70
     1
102
RTVSPost2010Prop42
 90
       50
102
RTVSPost2010PropOp42
 70
     1
102
RTVSPost2010Prop43
 90
        3
102
RTVSPost2010PropOp43
 70
     1
102
RTVSPost2010Prop44ColorIndex
 90
        5
102
RTVSPost2010Prop44ColorRGB
 90
      255
102
RTVSPost2010PropOp44
 70
     1
102
RTVSPost2010Prop45
280
     0
102
RTVSPost2010PropOp45
 70
     1
102
RTVSPost2010Prop46
 90
       50
102
RTVSPost2010PropOp46
 70
     1
102
RTVSPost2010Prop47
 90
       50
102
RTVSPost2010PropOp47
 70
     1
102
RTVSPost2010Prop48
 90
       50
102
RTVSPost2010PropOp48
 70
     1
102
RTVSPost2010Prop49
280
     0
102
RTVSPost2010PropOp49
 70
     1
102
RTVSPost2010Prop50
 90
       50
102
RTVSPost2010PropOp50
 70
     1
102
RTVSPost2010Prop51ColorIndex
 90
      256
102
RTVSPost2010Prop51ColorRGB
 90
-16777216
102
RTVSPost2010PropOp51
 70
     0
102
RTVSPost2010Prop52
140
1.0
102
RTVSPost2010PropOp52
 70
     0
102
RTVSPost2010Prop53
 90
        2
102
RTVSPost2010PropOp53
 70
     1
102
RTVSPost2010Prop54
  1
strokes_ogs.tif
102
RTVSPost2010PropOp54
 70
     1
102
RTVSPost2010Prop55
280
     0
102
RTVSPost2010PropOp55
 70
     1
102
RTVSPost2010Prop56
140
1.0
102
RTVSPost2010PropOp56
 70
     1
102
RTVSPost2010Prop57
140
1.0
102
RTVSPost2010PropOp57
 70
     1
  0
XRECORD
  5
4DF
102
{ACAD_REACTORS
330
4DE
102
}
330
4DE
100
AcDbXrecord
280
     1
102
RTVSPropertyOp0
 70
     1
102
RTVSPropertyOp1
 70
     1
102
RTVSPropertyOp2
 70
     1
102
RTVSPropertyOp3
 70
     1
102
RTVSPropertyOp4
 70
     1
102
RTVSPropertyOp5
 70
     1
102
RTVSPropertyOp6
 70
     1
102
RTVSPropertyOp7
 70
     1
102
RTVSPropertyOp8
 70
     1
102
RTVSPropertyOp9
 70
     1
102
RTVSPropertyOp10
 70
     1
102
RTVSPropertyOp11
 70
     1
102
RTVSPropertyOp12
 70
     1
102
RTVSPropertyOp13
 70
     1
102
RTVSPropertyOp14
 70
     1
102
RTVSPropertyOp15
 70
     1
102
RTVSPropertyOp16
 70
     1
102
RTVSPropertyOp17
 70
     1
102
RTVSPropertyOp18
 70
     1
102
RTVSPropertyOp19
 70
     1
102
RTVSPropertyOp20
 70
     1
102
RTVSPropertyOp21
 70
     1
102
RTVSPropertyOp22
 70
     1
102
RTVSPropertyOp23
 70
     1
102
RTVSPropertyOp24
 70
     1
102
RTVSPropertyOp25
 70
     1
102
RTVSPropertyOp26
 70
     1
102
RTVSPropertyOp27
 70
     1
102
RTVSPropertyOp28
 70
     1
102
RTVSPropertyOp29
 70
     1
102
RTVSPropertyOp30
 70
     1
102
RTVSPropertyOp31
 70
     1
102
RTVSPropertyOp32
 70
     1
102
RTVSPropertyOp33
 70
     1
102
RTVSPropertyOp34
 70
     1
102
RTVSPropertyOp35
 70
     1
102
RTVSPropertyOp36
 70
     1
102
RTVSPropertyOp37
 70
     1
102
RTVSPropertyOp38
 70
     1
102
RTVSPropertyOp39
 70
     1
102
RTVSPropertyOp40
 70
     1
102
RTVSPropertyOp41
 70
     1
102
RTVSPropertyOp42
 70
     1
102
RTVSPropertyOp43
 70
     1
102
RTVSPropertyOp44
 70
     1
102
RTVSPropertyOp45
 70
     1
102
RTVSPropertyOp46
 70
     1
102
RTVSPropertyOp47
 70
     1
102
RTVSPropertyOp48
 70
     1
102
RTVSPropertyOp49
 70
     1
102
RTVSPropertyOp50
 70
     1
102
RTVSPropertyOp51
 70
     0
102
RTVSPropertyOp52
 70
     0
102
RTVSPropertyOp53
 70
     1
102
RTVSPropertyOp54
 70
     1
102
RTVSPropertyOp55
 70
     1
102
RTVSPropertyOp56
 70
     1
102
RTVSPropertyOp57
 70
     1
102
RTVSPost2010Prop28
280
     0
102
RTVSPost2010PropOp28
 70
     1
102
RTVSPost2010Prop29
280
     1
102
RTVSPost2010PropOp29
 70
     1
102
RTVSPost2010Prop30
280
     1
102
RTVSPost2010PropOp30
 70
     1
102
RTVSPost2010Prop31
280
     0
102
RTVSPost2010PropOp31
 70
     1
102
RTVSPost2010Prop32
280
     0
102
RTVSPost2010PropOp32
 70
     1
102
RTVSPost2010Prop33
280
     0
102
RTVSPost2010PropOp33
 70
     1
102
RTVSPost2010Prop34
280
     0
102
RTVSPost2010PropOp34
 70
     1
102
RTVSPost2010Prop35
280
     0
102
RTVSPost2010PropOp35
 70
     1
102
RTVSPost2010Prop36
280
     0
102
RTVSPost2010PropOp36
 70
     1
102
RTVSPost2010Prop37
 90
       50
102
RTVSPost2010PropOp37
 70
     1
102
RTVSPost2010Prop38
140
0.0
102
RTVSPost2010PropOp38
 70
     1
102
RTVSPost2010Prop39
140
1.0
102
RTVSPost2010PropOp39
 70
     1
102
RTVSPost2010Prop40
 90
        0
102
RTVSPost2010PropOp40
 70
     1
102
RTVSPost2010Prop41ColorIndex
 90
       18
102
RTVSPost2010Prop41ColorRGB
 90
        0
102
RTVSPost2010PropOp41
 70
     1
102
RTVSPost2010Prop42
 90
       50
102
RTVSPost2010PropOp42
 70
     1
102
RTVSPost2010Prop43
 90
        3
102
RTVSPost2010PropOp43
 70
     1
102
RTVSPost2010Prop44ColorIndex
 90
        5
102
RTVSPost2010Prop44ColorRGB
 90
      255
102
RTVSPost2010PropOp44
 70
     1
102
RTVSPost2010Prop45
280
     0
102
RTVSPost2010PropOp45
 70
     1
102
RTVSPost2010Prop46
 90
       50
102
RTVSPost2010PropOp46
 70
     1
102
RTVSPost2010Prop47
 90
       50
102
RTVSPost2010PropOp47
 70
     1
102
RTVSPost2010Prop48
 90
       50
102
RTVSPost2010PropOp48
 70
     1
102
RTVSPost2010Prop49
280
     0
102
RTVSPost2010PropOp49
 70
     1
102
RTVSPost2010Prop50
 90
       50
102
RTVSPost2010PropOp50
 70
     1
102
RTVSPost2010Prop51ColorIndex
 90
      256
102
RTVSPost2010Prop51ColorRGB
 90
-16777216
102
RTVSPost2010PropOp51
 70
     0
102
RTVSPost2010Prop52
140
1.0
102
RTVSPost2010PropOp52
 70
     0
102
RTVSPost2010Prop53
 90
        2
102
RTVSPost2010PropOp53
 70
     1
102
RTVSPost2010Prop54
  1
strokes_ogs.tif
102
RTVSPost2010PropOp54
 70
     1
102
RTVSPost2010Prop55
280
     0
102
RTVSPost2010PropOp55
 70
     1
102
RTVSPost2010Prop56
140
1.0
102
RTVSPost2010PropOp56
 70
     1
102
RTVSPost2010Prop57
140
1.0
102
RTVSPost2010PropOp57
 70
     1
  0
XRECORD
  5
4E1
102
{ACAD_REACTORS
330
4E0
102
}
330
4E0
100
AcDbXrecord
280
     1
102
RTVSPropertyOp0
 70
     1
102
RTVSPropertyOp1
 70
     1
102
RTVSPropertyOp2
 70
     1
102
RTVSPropertyOp3
 70
     1
102
RTVSPropertyOp4
 70
     1
102
RTVSPropertyOp5
 70
     1
102
RTVSPropertyOp6
 70
     1
102
RTVSPropertyOp7
 70
     1
102
RTVSPropertyOp8
 70
     1
102
RTVSPropertyOp9
 70
     1
102
RTVSPropertyOp10
 70
     1
102
RTVSPropertyOp11
 70
     1
102
RTVSPropertyOp12
 70
     1
102
RTVSPropertyOp13
 70
     1
102
RTVSPropertyOp14
 70
     1
102
RTVSPropertyOp15
 70
     1
102
RTVSPropertyOp16
 70
     1
102
RTVSPropertyOp17
 70
     1
102
RTVSPropertyOp18
 70
     1
102
RTVSPropertyOp19
 70
     1
102
RTVSPropertyOp20
 70
     1
102
RTVSPropertyOp21
 70
     1
102
RTVSPropertyOp22
 70
     1
102
RTVSPropertyOp23
 70
     1
102
RTVSPropertyOp24
 70
     1
102
RTVSPropertyOp25
 70
     1
102
RTVSPropertyOp26
 70
     1
102
RTVSPropertyOp27
 70
     1
102
RTVSPropertyOp28
 70
     1
102
RTVSPropertyOp29
 70
     1
102
RTVSPropertyOp30
 70
     1
102
RTVSPropertyOp31
 70
     1
102
RTVSPropertyOp32
 70
     1
102
RTVSPropertyOp33
 70
     1
102
RTVSPropertyOp34
 70
     1
102
RTVSPropertyOp35
 70
     1
102
RTVSPropertyOp36
 70
     1
102
RTVSPropertyOp37
 70
     1
102
RTVSPropertyOp38
 70
     1
102
RTVSPropertyOp39
 70
     1
102
RTVSPropertyOp40
 70
     1
102
RTVSPropertyOp41
 70
     1
102
RTVSPropertyOp42
 70
     1
102
RTVSPropertyOp43
 70
     1
102
RTVSPropertyOp44
 70
     1
102
RTVSPropertyOp45
 70
     1
102
RTVSPropertyOp46
 70
     1
102
RTVSPropertyOp47
 70
     1
102
RTVSPropertyOp48
 70
     1
102
RTVSPropertyOp49
 70
     1
102
RTVSPropertyOp50
 70
     1
102
RTVSPropertyOp51
 70
     0
102
RTVSPropertyOp52
 70
     0
102
RTVSPropertyOp53
 70
     1
102
RTVSPropertyOp54
 70
     1
102
RTVSPropertyOp55
 70
     1
102
RTVSPropertyOp56
 70
     1
102
RTVSPropertyOp57
 70
     1
102
RTVSPost2010Prop28
280
     0
102
RTVSPost2010PropOp28
 70
     1
102
RTVSPost2010Prop29
280
     1
102
RTVSPost2010PropOp29
 70
     1
102
RTVSPost2010Prop30
280
     1
102
RTVSPost2010PropOp30
 70
     1
102
RTVSPost2010Prop31
280
     0
102
RTVSPost2010PropOp31
 70
     1
102
RTVSPost2010Prop32
280
     0
102
RTVSPost2010PropOp32
 70
     1
102
RTVSPost2010Prop33
280
     0
102
RTVSPost2010PropOp33
 70
     1
102
RTVSPost2010Prop34
280
     0
102
RTVSPost2010PropOp34
 70
     1
102
RTVSPost2010Prop35
280
     0
102
RTVSPost2010PropOp35
 70
     1
102
RTVSPost2010Prop36
280
     0
102
RTVSPost2010PropOp36
 70
     1
102
RTVSPost2010Prop37
 90
       50
102
RTVSPost2010PropOp37
 70
     1
102
RTVSPost2010Prop38
140
0.0
102
RTVSPost2010PropOp38
 70
     1
102
RTVSPost2010Prop39
140
1.0
102
RTVSPost2010PropOp39
 70
     1
102
RTVSPost2010Prop40
 90
        0
102
RTVSPost2010PropOp40
 70
     1
102
RTVSPost2010Prop41ColorIndex
 90
       18
102
RTVSPost2010Prop41ColorRGB
 90
        0
102
RTVSPost2010PropOp41
 70
     1
102
RTVSPost2010Prop42
 90
       50
102
RTVSPost2010PropOp42
 70
     1
102
RTVSPost2010Prop43
 90
        3
102
RTVSPost2010PropOp43
 70
     1
102
RTVSPost2010Prop44ColorIndex
 90
        5
102
RTVSPost2010Prop44ColorRGB
 90
      255
102
RTVSPost2010PropOp44
 70
     1
102
RTVSPost2010Prop45
280
     0
102
RTVSPost2010PropOp45
 70
     1
102
RTVSPost2010Prop46
 90
       50
102
RTVSPost2010PropOp46
 70
     1
102
RTVSPost2010Prop47
 90
       50
102
RTVSPost2010PropOp47
 70
     1
102
RTVSPost2010Prop48
 90
       50
102
RTVSPost2010PropOp48
 70
     1
102
RTVSPost2010Prop49
280
     0
102
RTVSPost2010PropOp49
 70
     1
102
RTVSPost2010Prop50
 90
       50
102
RTVSPost2010PropOp50
 70
     1
102
RTVSPost2010Prop51ColorIndex
 90
      256
102
RTVSPost2010Prop51ColorRGB
 90
-16777216
102
RTVSPost2010PropOp51
 70
     0
102
RTVSPost2010Prop52
140
1.0
102
RTVSPost2010PropOp52
 70
     0
102
RTVSPost2010Prop53
 90
        2
102
RTVSPost2010PropOp53
 70
     1
102
RTVSPost2010Prop54
  1
strokes_ogs.tif
102
RTVSPost2010PropOp54
 70
     1
102
RTVSPost2010Prop55
280
     0
102
RTVSPost2010PropOp55
 70
     1
102
RTVSPost2010Prop56
140
1.0
102
RTVSPost2010PropOp56
 70
     1
102
RTVSPost2010Prop57
140
1.0
102
RTVSPost2010PropOp57
 70
     1
  0
XRECORD
  5
4E7
102
{ACAD_REACTORS
330
4E6
102
}
330
4E6
100
AcDbXrecord
280
     1
102
RTVSPropertyOp0
 70
     1
102
RTVSPropertyOp1
 70
     1
102
RTVSPropertyOp2
 70
     1
102
RTVSPropertyOp3
 70
     1
102
RTVSPropertyOp4
 70
     1
102
RTVSPropertyOp5
 70
     1
102
RTVSPropertyOp6
 70
     1
102
RTVSPropertyOp7
 70
     1
102
RTVSPropertyOp8
 70
     1
102
RTVSPropertyOp9
 70
     1
102
RTVSPropertyOp10
 70
     1
102
RTVSPropertyOp11
 70
     1
102
RTVSPropertyOp12
 70
     1
102
RTVSPropertyOp13
 70
     1
102
RTVSPropertyOp14
 70
     1
102
RTVSPropertyOp15
 70
     1
102
RTVSPropertyOp16
 70
     1
102
RTVSPropertyOp17
 70
     1
102
RTVSPropertyOp18
 70
     1
102
RTVSPropertyOp19
 70
     1
102
RTVSPropertyOp20
 70
     1
102
RTVSPropertyOp21
 70
     1
102
RTVSPropertyOp22
 70
     1
102
RTVSPropertyOp23
 70
     1
102
RTVSPropertyOp24
 70
     1
102
RTVSPropertyOp25
 70
     1
102
RTVSPropertyOp26
 70
     1
102
RTVSPropertyOp27
 70
     1
102
RTVSPropertyOp28
 70
     1
102
RTVSPropertyOp29
 70
     1
102
RTVSPropertyOp30
 70
     1
102
RTVSPropertyOp31
 70
     1
102
RTVSPropertyOp32
 70
     1
102
RTVSPropertyOp33
 70
     1
102
RTVSPropertyOp34
 70
     1
102
RTVSPropertyOp35
 70
     1
102
RTVSPropertyOp36
 70
     1
102
RTVSPropertyOp37
 70
     1
102
RTVSPropertyOp38
 70
     1
102
RTVSPropertyOp39
 70
     1
102
RTVSPropertyOp40
 70
     1
102
RTVSPropertyOp41
 70
     1
102
RTVSPropertyOp42
 70
     1
102
RTVSPropertyOp43
 70
     1
102
RTVSPropertyOp44
 70
     1
102
RTVSPropertyOp45
 70
     1
102
RTVSPropertyOp46
 70
     1
102
RTVSPropertyOp47
 70
     1
102
RTVSPropertyOp48
 70
     1
102
RTVSPropertyOp49
 70
     1
102
RTVSPropertyOp50
 70
     1
102
RTVSPropertyOp51
 70
     0
102
RTVSPropertyOp52
 70
     0
102
RTVSPropertyOp53
 70
     1
102
RTVSPropertyOp54
 70
     1
102
RTVSPropertyOp55
 70
     1
102
RTVSPropertyOp56
 70
     1
102
RTVSPropertyOp57
 70
     1
102
RTVSPost2010Prop28
280
     0
102
RTVSPost2010PropOp28
 70
     1
102
RTVSPost2010Prop29
280
     1
102
RTVSPost2010PropOp29
 70
     1
102
RTVSPost2010Prop30
280
     1
102
RTVSPost2010PropOp30
 70
     1
102
RTVSPost2010Prop31
280
     0
102
RTVSPost2010PropOp31
 70
     1
102
RTVSPost2010Prop32
280
     0
102
RTVSPost2010PropOp32
 70
     1
102
RTVSPost2010Prop33
280
     0
102
RTVSPost2010PropOp33
 70
     1
102
RTVSPost2010Prop34
280
     0
102
RTVSPost2010PropOp34
 70
     1
102
RTVSPost2010Prop35
280
     0
102
RTVSPost2010PropOp35
 70
     1
102
RTVSPost2010Prop36
280
     0
102
RTVSPost2010PropOp36
 70
     1
102
RTVSPost2010Prop37
 90
       50
102
RTVSPost2010PropOp37
 70
     1
102
RTVSPost2010Prop38
140
0.0
102
RTVSPost2010PropOp38
 70
     1
102
RTVSPost2010Prop39
140
1.0
102
RTVSPost2010PropOp39
 70
     1
102
RTVSPost2010Prop40
 90
        0
102
RTVSPost2010PropOp40
 70
     1
102
RTVSPost2010Prop41ColorIndex
 90
       18
102
RTVSPost2010Prop41ColorRGB
 90
        0
102
RTVSPost2010PropOp41
 70
     1
102
RTVSPost2010Prop42
 90
       50
102
RTVSPost2010PropOp42
 70
     1
102
RTVSPost2010Prop43
 90
        3
102
RTVSPost2010PropOp43
 70
     1
102
RTVSPost2010Prop44ColorIndex
 90
        5
102
RTVSPost2010Prop44ColorRGB
 90
      255
102
RTVSPost2010PropOp44
 70
     1
102
RTVSPost2010Prop45
280
     0
102
RTVSPost2010PropOp45
 70
     1
102
RTVSPost2010Prop46
 90
       50
102
RTVSPost2010PropOp46
 70
     1
102
RTVSPost2010Prop47
 90
       50
102
RTVSPost2010PropOp47
 70
     1
102
RTVSPost2010Prop48
 90
       50
102
RTVSPost2010PropOp48
 70
     1
102
RTVSPost2010Prop49
280
     0
102
RTVSPost2010PropOp49
 70
     1
102
RTVSPost2010Prop50
 90
       50
102
RTVSPost2010PropOp50
 70
     1
102
RTVSPost2010Prop51ColorIndex
 90
      256
102
RTVSPost2010Prop51ColorRGB
 90
-16777216
102
RTVSPost2010PropOp51
 70
     0
102
RTVSPost2010Prop52
140
1.0
102
RTVSPost2010PropOp52
 70
     0
102
RTVSPost2010Prop53
 90
        2
102
RTVSPost2010PropOp53
 70
     1
102
RTVSPost2010Prop54
  1
strokes_ogs.tif
102
RTVSPost2010PropOp54
 70
     1
102
RTVSPost2010Prop55
280
     0
102
RTVSPost2010PropOp55
 70
     1
102
RTVSPost2010Prop56
140
1.0
102
RTVSPost2010PropOp56
 70
     1
102
RTVSPost2010Prop57
140
1.0
102
RTVSPost2010PropOp57
 70
     1
  0
XRECORD
  5
4FB
102
{ACAD_REACTORS
330
4FA
102
}
330
4FA
100
AcDbXrecord
280
     1
102
RTVSPropertyOp0
 70
     0
102
RTVSPropertyOp1
 70
     0
102
RTVSPropertyOp2
 70
     0
102
RTVSPropertyOp3
 70
     0
102
RTVSPropertyOp4
 70
     0
102
RTVSPropertyOp5
 70
     0
102
RTVSPropertyOp6
 70
     0
102
RTVSPropertyOp7
 70
     0
102
RTVSPropertyOp8
 70
     0
102
RTVSPropertyOp9
 70
     0
102
RTVSPropertyOp10
 70
     0
102
RTVSPropertyOp11
 70
     0
102
RTVSPropertyOp12
 70
     0
102
RTVSPropertyOp13
 70
     0
102
RTVSPropertyOp14
 70
     0
102
RTVSPropertyOp15
 70
     0
102
RTVSPropertyOp16
 70
     0
102
RTVSPropertyOp17
 70
     0
102
RTVSPropertyOp18
 70
     0
102
RTVSPropertyOp19
 70
     0
102
RTVSPropertyOp20
 70
     0
102
RTVSPropertyOp21
 70
     0
102
RTVSPropertyOp22
 70
     0
102
RTVSPropertyOp23
 70
     0
102
RTVSPropertyOp24
 70
     0
102
RTVSPropertyOp25
 70
     0
102
RTVSPropertyOp26
 70
     0
102
RTVSPropertyOp27
 70
     0
102
RTVSPropertyOp28
 70
     1
102
RTVSPropertyOp29
 70
     1
102
RTVSPropertyOp30
 70
     1
102
RTVSPropertyOp31
 70
     1
102
RTVSPropertyOp32
 70
     1
102
RTVSPropertyOp33
 70
     1
102
RTVSPropertyOp34
 70
     1
102
RTVSPropertyOp35
 70
     1
102
RTVSPropertyOp36
 70
     1
102
RTVSPropertyOp37
 70
     1
102
RTVSPropertyOp38
 70
     1
102
RTVSPropertyOp39
 70
     1
102
RTVSPropertyOp40
 70
     1
102
RTVSPropertyOp41
 70
     1
102
RTVSPropertyOp42
 70
     1
102
RTVSPropertyOp43
 70
     1
102
RTVSPropertyOp44
 70
     1
102
RTVSPropertyOp45
 70
     1
102
RTVSPropertyOp46
 70
     1
102
RTVSPropertyOp47
 70
     1
102
RTVSPropertyOp48
 70
     1
102
RTVSPropertyOp49
 70
     1
102
RTVSPropertyOp50
 70
     1
102
RTVSPropertyOp51
 70
     0
102
RTVSPropertyOp52
 70
     0
102
RTVSPropertyOp53
 70
     1
102
RTVSPropertyOp54
 70
     1
102
RTVSPropertyOp55
 70
     1
102
RTVSPropertyOp56
 70
     1
102
RTVSPropertyOp57
 70
     1
102
RTVSPost2010Prop28
280
     0
102
RTVSPost2010PropOp28
 70
     1
102
RTVSPost2010Prop29
280
     1
102
RTVSPost2010PropOp29
 70
     1
102
RTVSPost2010Prop30
280
     1
102
RTVSPost2010PropOp30
 70
     1
102
RTVSPost2010Prop31
280
     0
102
RTVSPost2010PropOp31
 70
     1
102
RTVSPost2010Prop32
280
     0
102
RTVSPost2010PropOp32
 70
     1
102
RTVSPost2010Prop33
280
     0
102
RTVSPost2010PropOp33
 70
     1
102
RTVSPost2010Prop34
280
     0
102
RTVSPost2010PropOp34
 70
     1
102
RTVSPost2010Prop35
280
     0
102
RTVSPost2010PropOp35
 70
     1
102
RTVSPost2010Prop36
280
     0
102
RTVSPost2010PropOp36
 70
     1
102
RTVSPost2010Prop37
 90
       50
102
RTVSPost2010PropOp37
 70
     1
102
RTVSPost2010Prop38
140
0.0
102
RTVSPost2010PropOp38
 70
     1
102
RTVSPost2010Prop39
140
1.0
102
RTVSPost2010PropOp39
 70
     1
102
RTVSPost2010Prop40
 90
        0
102
RTVSPost2010PropOp40
 70
     1
102
RTVSPost2010Prop41ColorIndex
 90
       18
102
RTVSPost2010Prop41ColorRGB
 90
        0
102
RTVSPost2010PropOp41
 70
     1
102
RTVSPost2010Prop42
 90
       50
102
RTVSPost2010PropOp42
 70
     1
102
RTVSPost2010Prop43
 90
        3
102
RTVSPost2010PropOp43
 70
     1
102
RTVSPost2010Prop44ColorIndex
 90
        5
102
RTVSPost2010Prop44ColorRGB
 90
      255
102
RTVSPost2010PropOp44
 70
     1
102
RTVSPost2010Prop45
280
     0
102
RTVSPost2010PropOp45
 70
     1
102
RTVSPost2010Prop46
 90
       50
102
RTVSPost2010PropOp46
 70
     1
102
RTVSPost2010Prop47
 90
       50
102
RTVSPost2010PropOp47
 70
     1
102
RTVSPost2010Prop48
 90
       50
102
RTVSPost2010PropOp48
 70
     1
102
RTVSPost2010Prop49
280
     0
102
RTVSPost2010PropOp49
 70
     1
102
RTVSPost2010Prop50
 90
       50
102
RTVSPost2010PropOp50
 70
     1
102
RTVSPost2010Prop51ColorIndex
 90
      256
102
RTVSPost2010Prop51ColorRGB
 90
-16777216
102
RTVSPost2010PropOp51
 70
     0
102
RTVSPost2010Prop52
140
1.0
102
RTVSPost2010PropOp52
 70
     0
102
RTVSPost2010Prop53
 90
        2
102
RTVSPost2010PropOp53
 70
     1
102
RTVSPost2010Prop54
  1
strokes_ogs.tif
102
RTVSPost2010PropOp54
 70
     1
102
RTVSPost2010Prop55
280
     0
102
RTVSPost2010PropOp55
 70
     1
102
RTVSPost2010Prop56
140
1.0
102
RTVSPost2010PropOp56
 70
     1
102
RTVSPost2010Prop57
140
1.0
102
RTVSPost2010PropOp57
 70
     1
  0
XRECORD
  5
4F5
102
{ACAD_REACTORS
330
4F4
102
}
330
4F4
100
AcDbXrecord
280
     1
102
RTVSPropertyOp0
 70
     1
102
RTVSPropertyOp1
 70
     1
102
RTVSPropertyOp2
 70
     1
102
RTVSPropertyOp3
 70
     1
102
RTVSPropertyOp4
 70
     1
102
RTVSPropertyOp5
 70
     1
102
RTVSPropertyOp6
 70
     1
102
RTVSPropertyOp7
 70
     1
102
RTVSPropertyOp8
 70
     1
102
RTVSPropertyOp9
 70
     1
102
RTVSPropertyOp10
 70
     1
102
RTVSPropertyOp11
 70
     1
102
RTVSPropertyOp12
 70
     1
102
RTVSPropertyOp13
 70
     1
102
RTVSPropertyOp14
 70
     1
102
RTVSPropertyOp15
 70
     1
102
RTVSPropertyOp16
 70
     1
102
RTVSPropertyOp17
 70
     1
102
RTVSPropertyOp18
 70
     1
102
RTVSPropertyOp19
 70
     1
102
RTVSPropertyOp20
 70
     1
102
RTVSPropertyOp21
 70
     1
102
RTVSPropertyOp22
 70
     1
102
RTVSPropertyOp23
 70
     1
102
RTVSPropertyOp24
 70
     1
102
RTVSPropertyOp25
 70
     1
102
RTVSPropertyOp26
 70
     1
102
RTVSPropertyOp27
 70
     1
102
RTVSPropertyOp28
 70
     1
102
RTVSPropertyOp29
 70
     1
102
RTVSPropertyOp30
 70
     1
102
RTVSPropertyOp31
 70
     1
102
RTVSPropertyOp32
 70
     1
102
RTVSPropertyOp33
 70
     1
102
RTVSPropertyOp34
 70
     1
102
RTVSPropertyOp35
 70
     1
102
RTVSPropertyOp36
 70
     1
102
RTVSPropertyOp37
 70
     1
102
RTVSPropertyOp38
 70
     1
102
RTVSPropertyOp39
 70
     1
102
RTVSPropertyOp40
 70
     1
102
RTVSPropertyOp41
 70
     1
102
RTVSPropertyOp42
 70
     1
102
RTVSPropertyOp43
 70
     1
102
RTVSPropertyOp44
 70
     1
102
RTVSPropertyOp45
 70
     1
102
RTVSPropertyOp46
 70
     1
102
RTVSPropertyOp47
 70
     1
102
RTVSPropertyOp48
 70
     1
102
RTVSPropertyOp49
 70
     1
102
RTVSPropertyOp50
 70
     1
102
RTVSPropertyOp51
 70
     0
102
RTVSPropertyOp52
 70
     0
102
RTVSPropertyOp53
 70
     1
102
RTVSPropertyOp54
 70
     1
102
RTVSPropertyOp55
 70
     1
102
RTVSPropertyOp56
 70
     1
102
RTVSPropertyOp57
 70
     1
102
RTVSPost2010Prop28
280
     0
102
RTVSPost2010PropOp28
 70
     1
102
RTVSPost2010Prop29
280
     1
102
RTVSPost2010PropOp29
 70
     1
102
RTVSPost2010Prop30
280
     1
102
RTVSPost2010PropOp30
 70
     1
102
RTVSPost2010Prop31
280
     0
102
RTVSPost2010PropOp31
 70
     1
102
RTVSPost2010Prop32
280
     0
102
RTVSPost2010PropOp32
 70
     1
102
RTVSPost2010Prop33
280
     0
102
RTVSPost2010PropOp33
 70
     1
102
RTVSPost2010Prop34
280
     0
102
RTVSPost2010PropOp34
 70
     1
102
RTVSPost2010Prop35
280
     0
102
RTVSPost2010PropOp35
 70
     1
102
RTVSPost2010Prop36
280
     0
102
RTVSPost2010PropOp36
 70
     1
102
RTVSPost2010Prop37
 90
       50
102
RTVSPost2010PropOp37
 70
     1
102
RTVSPost2010Prop38
140
0.0
102
RTVSPost2010PropOp38
 70
     1
102
RTVSPost2010Prop39
140
1.0
102
RTVSPost2010PropOp39
 70
     1
102
RTVSPost2010Prop40
 90
        0
102
RTVSPost2010PropOp40
 70
     1
102
RTVSPost2010Prop41ColorIndex
 90
       18
102
RTVSPost2010Prop41ColorRGB
 90
        0
102
RTVSPost2010PropOp41
 70
     1
102
RTVSPost2010Prop42
 90
       50
102
RTVSPost2010PropOp42
 70
     1
102
RTVSPost2010Prop43
 90
        3
102
RTVSPost2010PropOp43
 70
     1
102
RTVSPost2010Prop44ColorIndex
 90
        5
102
RTVSPost2010Prop44ColorRGB
 90
      255
102
RTVSPost2010PropOp44
 70
     1
102
RTVSPost2010Prop45
280
     0
102
RTVSPost2010PropOp45
 70
     1
102
RTVSPost2010Prop46
 90
       50
102
RTVSPost2010PropOp46
 70
     1
102
RTVSPost2010Prop47
 90
       50
102
RTVSPost2010PropOp47
 70
     1
102
RTVSPost2010Prop48
 90
       50
102
RTVSPost2010PropOp48
 70
     1
102
RTVSPost2010Prop49
280
     0
102
RTVSPost2010PropOp49
 70
     1
102
RTVSPost2010Prop50
 90
       50
102
RTVSPost2010PropOp50
 70
     1
102
RTVSPost2010Prop51ColorIndex
 90
      256
102
RTVSPost2010Prop51ColorRGB
 90
-16777216
102
RTVSPost2010PropOp51
 70
     0
102
RTVSPost2010Prop52
140
1.0
102
RTVSPost2010PropOp52
 70
     0
102
RTVSPost2010Prop53
 90
        2
102
RTVSPost2010PropOp53
 70
     1
102
RTVSPost2010Prop54
  1
strokes_ogs.tif
102
RTVSPost2010PropOp54
 70
     1
102
RTVSPost2010Prop55
280
     0
102
RTVSPost2010PropOp55
 70
     1
102
RTVSPost2010Prop56
140
1.0
102
RTVSPost2010PropOp56
 70
     1
102
RTVSPost2010Prop57
140
1.0
102
RTVSPost2010PropOp57
 70
     1
  0
XRECORD
  5
4FD
102
{ACAD_REACTORS
330
4FC
102
}
330
4FC
100
AcDbXrecord
280
     1
102
RTVSPropertyOp0
 70
     0
102
RTVSPropertyOp1
 70
     0
102
RTVSPropertyOp2
 70
     0
102
RTVSPropertyOp3
 70
     0
102
RTVSPropertyOp4
 70
     0
102
RTVSPropertyOp5
 70
     0
102
RTVSPropertyOp6
 70
     0
102
RTVSPropertyOp7
 70
     0
102
RTVSPropertyOp8
 70
     0
102
RTVSPropertyOp9
 70
     0
102
RTVSPropertyOp10
 70
     0
102
RTVSPropertyOp11
 70
     0
102
RTVSPropertyOp12
 70
     0
102
RTVSPropertyOp13
 70
     0
102
RTVSPropertyOp14
 70
     0
102
RTVSPropertyOp15
 70
     0
102
RTVSPropertyOp16
 70
     0
102
RTVSPropertyOp17
 70
     0
102
RTVSPropertyOp18
 70
     0
102
RTVSPropertyOp19
 70
     0
102
RTVSPropertyOp20
 70
     0
102
RTVSPropertyOp21
 70
     0
102
RTVSPropertyOp22
 70
     0
102
RTVSPropertyOp23
 70
     0
102
RTVSPropertyOp24
 70
     0
102
RTVSPropertyOp25
 70
     0
102
RTVSPropertyOp26
 70
     0
102
RTVSPropertyOp27
 70
     0
102
RTVSPropertyOp28
 70
     1
102
RTVSPropertyOp29
 70
     1
102
RTVSPropertyOp30
 70
     1
102
RTVSPropertyOp31
 70
     1
102
RTVSPropertyOp32
 70
     1
102
RTVSPropertyOp33
 70
     1
102
RTVSPropertyOp34
 70
     1
102
RTVSPropertyOp35
 70
     1
102
RTVSPropertyOp36
 70
     1
102
RTVSPropertyOp37
 70
     1
102
RTVSPropertyOp38
 70
     1
102
RTVSPropertyOp39
 70
     1
102
RTVSPropertyOp40
 70
     1
102
RTVSPropertyOp41
 70
     1
102
RTVSPropertyOp42
 70
     1
102
RTVSPropertyOp43
 70
     1
102
RTVSPropertyOp44
 70
     1
102
RTVSPropertyOp45
 70
     1
102
RTVSPropertyOp46
 70
     1
102
RTVSPropertyOp47
 70
     1
102
RTVSPropertyOp48
 70
     1
102
RTVSPropertyOp49
 70
     1
102
RTVSPropertyOp50
 70
     1
102
RTVSPropertyOp51
 70
     0
102
RTVSPropertyOp52
 70
     0
102
RTVSPropertyOp53
 70
     1
102
RTVSPropertyOp54
 70
     1
102
RTVSPropertyOp55
 70
     1
102
RTVSPropertyOp56
 70
     1
102
RTVSPropertyOp57
 70
     1
102
RTVSPost2010Prop28
280
     0
102
RTVSPost2010PropOp28
 70
     1
102
RTVSPost2010Prop29
280
     1
102
RTVSPost2010PropOp29
 70
     1
102
RTVSPost2010Prop30
280
     1
102
RTVSPost2010PropOp30
 70
     1
102
RTVSPost2010Prop31
280
     0
102
RTVSPost2010PropOp31
 70
     1
102
RTVSPost2010Prop32
280
     0
102
RTVSPost2010PropOp32
 70
     1
102
RTVSPost2010Prop33
280
     0
102
RTVSPost2010PropOp33
 70
     1
102
RTVSPost2010Prop34
280
     0
102
RTVSPost2010PropOp34
 70
     1
102
RTVSPost2010Prop35
280
     0
102
RTVSPost2010PropOp35
 70
     1
102
RTVSPost2010Prop36
280
     0
102
RTVSPost2010PropOp36
 70
     1
102
RTVSPost2010Prop37
 90
       50
102
RTVSPost2010PropOp37
 70
     1
102
RTVSPost2010Prop38
140
0.0
102
RTVSPost2010PropOp38
 70
     1
102
RTVSPost2010Prop39
140
1.0
102
RTVSPost2010PropOp39
 70
     1
102
RTVSPost2010Prop40
 90
        0
102
RTVSPost2010PropOp40
 70
     1
102
RTVSPost2010Prop41ColorIndex
 90
       18
102
RTVSPost2010Prop41ColorRGB
 90
        0
102
RTVSPost2010PropOp41
 70
     1
102
RTVSPost2010Prop42
 90
       50
102
RTVSPost2010PropOp42
 70
     1
102
RTVSPost2010Prop43
 90
        3
102
RTVSPost2010PropOp43
 70
     1
102
RTVSPost2010Prop44ColorIndex
 90
        5
102
RTVSPost2010Prop44ColorRGB
 90
      255
102
RTVSPost2010PropOp44
 70
     1
102
RTVSPost2010Prop45
280
     0
102
RTVSPost2010PropOp45
 70
     1
102
RTVSPost2010Prop46
 90
       50
102
RTVSPost2010PropOp46
 70
     1
102
RTVSPost2010Prop47
 90
       50
102
RTVSPost2010PropOp47
 70
     1
102
RTVSPost2010Prop48
 90
       50
102
RTVSPost2010PropOp48
 70
     1
102
RTVSPost2010Prop49
280
     0
102
RTVSPost2010PropOp49
 70
     1
102
RTVSPost2010Prop50
 90
       50
102
RTVSPost2010PropOp50
 70
     1
102
RTVSPost2010Prop51ColorIndex
 90
      256
102
RTVSPost2010Prop51ColorRGB
 90
-16777216
102
RTVSPost2010PropOp51
 70
     0
102
RTVSPost2010Prop52
140
1.0
102
RTVSPost2010PropOp52
 70
     0
102
RTVSPost2010Prop53
 90
        2
102
RTVSPost2010PropOp53
 70
     1
102
RTVSPost2010Prop54
  1
strokes_ogs.tif
102
RTVSPost2010PropOp54
 70
     1
102
RTVSPost2010Prop55
280
     0
102
RTVSPost2010PropOp55
 70
     1
102
RTVSPost2010Prop56
140
1.0
102
RTVSPost2010PropOp56
 70
     1
102
RTVSPost2010Prop57
140
1.0
102
RTVSPost2010PropOp57
 70
     1
  0
XRECORD
  5
4EB
102
{ACAD_REACTORS
330
4EA
102
}
330
4EA
100
AcDbXrecord
280
     1
102
RTVSPropertyOp0
 70
     1
102
RTVSPropertyOp1
 70
     1
102
RTVSPropertyOp2
 70
     1
102
RTVSPropertyOp3
 70
     1
102
RTVSPropertyOp4
 70
     1
102
RTVSPropertyOp5
 70
     1
102
RTVSPropertyOp6
 70
     1
102
RTVSPropertyOp7
 70
     1
102
RTVSPropertyOp8
 70
     1
102
RTVSPropertyOp9
 70
     1
102
RTVSPropertyOp10
 70
     1
102
RTVSPropertyOp11
 70
     1
102
RTVSPropertyOp12
 70
     1
102
RTVSPropertyOp13
 70
     1
102
RTVSPropertyOp14
 70
     1
102
RTVSPropertyOp15
 70
     1
102
RTVSPropertyOp16
 70
     1
102
RTVSPropertyOp17
 70
     1
102
RTVSPropertyOp18
 70
     1
102
RTVSPropertyOp19
 70
     1
102
RTVSPropertyOp20
 70
     1
102
RTVSPropertyOp21
 70
     1
102
RTVSPropertyOp22
 70
     1
102
RTVSPropertyOp23
 70
     1
102
RTVSPropertyOp24
 70
     1
102
RTVSPropertyOp25
 70
     1
102
RTVSPropertyOp26
 70
     1
102
RTVSPropertyOp27
 70
     1
102
RTVSPropertyOp28
 70
     1
102
RTVSPropertyOp29
 70
     1
102
RTVSPropertyOp30
 70
     1
102
RTVSPropertyOp31
 70
     1
102
RTVSPropertyOp32
 70
     1
102
RTVSPropertyOp33
 70
     1
102
RTVSPropertyOp34
 70
     1
102
RTVSPropertyOp35
 70
     1
102
RTVSPropertyOp36
 70
     1
102
RTVSPropertyOp37
 70
     1
102
RTVSPropertyOp38
 70
     1
102
RTVSPropertyOp39
 70
     1
102
RTVSPropertyOp40
 70
     1
102
RTVSPropertyOp41
 70
     1
102
RTVSPropertyOp42
 70
     1
102
RTVSPropertyOp43
 70
     1
102
RTVSPropertyOp44
 70
     1
102
RTVSPropertyOp45
 70
     1
102
RTVSPropertyOp46
 70
     1
102
RTVSPropertyOp47
 70
     1
102
RTVSPropertyOp48
 70
     1
102
RTVSPropertyOp49
 70
     1
102
RTVSPropertyOp50
 70
     1
102
RTVSPropertyOp51
 70
     0
102
RTVSPropertyOp52
 70
     0
102
RTVSPropertyOp53
 70
     1
102
RTVSPropertyOp54
 70
     1
102
RTVSPropertyOp55
 70
     1
102
RTVSPropertyOp56
 70
     1
102
RTVSPropertyOp57
 70
     1
102
RTVSPost2010Prop28
280
     0
102
RTVSPost2010PropOp28
 70
     1
102
RTVSPost2010Prop29
280
     1
102
RTVSPost2010PropOp29
 70
     1
102
RTVSPost2010Prop30
280
     1
102
RTVSPost2010PropOp30
 70
     1
102
RTVSPost2010Prop31
280
     0
102
RTVSPost2010PropOp31
 70
     1
102
RTVSPost2010Prop32
280
     0
102
RTVSPost2010PropOp32
 70
     1
102
RTVSPost2010Prop33
280
     0
102
RTVSPost2010PropOp33
 70
     1
102
RTVSPost2010Prop34
280
     0
102
RTVSPost2010PropOp34
 70
     1
102
RTVSPost2010Prop35
280
     0
102
RTVSPost2010PropOp35
 70
     1
102
RTVSPost2010Prop36
280
     0
102
RTVSPost2010PropOp36
 70
     1
102
RTVSPost2010Prop37
 90
       50
102
RTVSPost2010PropOp37
 70
     1
102
RTVSPost2010Prop38
140
0.0
102
RTVSPost2010PropOp38
 70
     1
102
RTVSPost2010Prop39
140
1.0
102
RTVSPost2010PropOp39
 70
     1
102
RTVSPost2010Prop40
 90
        0
102
RTVSPost2010PropOp40
 70
     1
102
RTVSPost2010Prop41ColorIndex
 90
       18
102
RTVSPost2010Prop41ColorRGB
 90
        0
102
RTVSPost2010PropOp41
 70
     1
102
RTVSPost2010Prop42
 90
       50
102
RTVSPost2010PropOp42
 70
     1
102
RTVSPost2010Prop43
 90
        3
102
RTVSPost2010PropOp43
 70
     1
102
RTVSPost2010Prop44ColorIndex
 90
        5
102
RTVSPost2010Prop44ColorRGB
 90
      255
102
RTVSPost2010PropOp44
 70
     1
102
RTVSPost2010Prop45
280
     0
102
RTVSPost2010PropOp45
 70
     1
102
RTVSPost2010Prop46
 90
       50
102
RTVSPost2010PropOp46
 70
     1
102
RTVSPost2010Prop47
 90
       50
102
RTVSPost2010PropOp47
 70
     1
102
RTVSPost2010Prop48
 90
       50
102
RTVSPost2010PropOp48
 70
     1
102
RTVSPost2010Prop49
280
     0
102
RTVSPost2010PropOp49
 70
     1
102
RTVSPost2010Prop50
 90
       50
102
RTVSPost2010PropOp50
 70
     1
102
RTVSPost2010Prop51ColorIndex
 90
      256
102
RTVSPost2010Prop51ColorRGB
 90
-16777216
102
RTVSPost2010PropOp51
 70
     0
102
RTVSPost2010Prop52
140
1.0
102
RTVSPost2010PropOp52
 70
     0
102
RTVSPost2010Prop53
 90
        2
102
RTVSPost2010PropOp53
 70
     1
102
RTVSPost2010Prop54
  1
strokes_ogs.tif
102
RTVSPost2010PropOp54
 70
     1
102
RTVSPost2010Prop55
280
     0
102
RTVSPost2010PropOp55
 70
     1
102
RTVSPost2010Prop56
140
1.0
102
RTVSPost2010PropOp56
 70
     1
102
RTVSPost2010Prop57
140
1.0
102
RTVSPost2010PropOp57
 70
     1
  0
XRECORD
  5
509
102
{ACAD_REACTORS
330
508
102
}
330
508
100
AcDbXrecord
280
     1
102
RTVSPropertyOp0
 70
     1
102
RTVSPropertyOp1
 70
     1
102
RTVSPropertyOp2
 70
     1
102
RTVSPropertyOp3
 70
     1
102
RTVSPropertyOp4
 70
     1
102
RTVSPropertyOp5
 70
     1
102
RTVSPropertyOp6
 70
     1
102
RTVSPropertyOp7
 70
     1
102
RTVSPropertyOp8
 70
     1
102
RTVSPropertyOp9
 70
     1
102
RTVSPropertyOp10
 70
     1
102
RTVSPropertyOp11
 70
     1
102
RTVSPropertyOp12
 70
     1
102
RTVSPropertyOp13
 70
     1
102
RTVSPropertyOp14
 70
     1
102
RTVSPropertyOp15
 70
     1
102
RTVSPropertyOp16
 70
     1
102
RTVSPropertyOp17
 70
     1
102
RTVSPropertyOp18
 70
     1
102
RTVSPropertyOp19
 70
     1
102
RTVSPropertyOp20
 70
     1
102
RTVSPropertyOp21
 70
     1
102
RTVSPropertyOp22
 70
     1
102
RTVSPropertyOp23
 70
     1
102
RTVSPropertyOp24
 70
     1
102
RTVSPropertyOp25
 70
     1
102
RTVSPropertyOp26
 70
     1
102
RTVSPropertyOp27
 70
     1
102
RTVSPropertyOp28
 70
     1
102
RTVSPropertyOp29
 70
     1
102
RTVSPropertyOp30
 70
     1
102
RTVSPropertyOp31
 70
     1
102
RTVSPropertyOp32
 70
     1
102
RTVSPropertyOp33
 70
     1
102
RTVSPropertyOp34
 70
     1
102
RTVSPropertyOp35
 70
     1
102
RTVSPropertyOp36
 70
     1
102
RTVSPropertyOp37
 70
     1
102
RTVSPropertyOp38
 70
     1
102
RTVSPropertyOp39
 70
     1
102
RTVSPropertyOp40
 70
     1
102
RTVSPropertyOp41
 70
     1
102
RTVSPropertyOp42
 70
     1
102
RTVSPropertyOp43
 70
     1
102
RTVSPropertyOp44
 70
     1
102
RTVSPropertyOp45
 70
     1
102
RTVSPropertyOp46
 70
     1
102
RTVSPropertyOp47
 70
     1
102
RTVSPropertyOp48
 70
     1
102
RTVSPropertyOp49
 70
     1
102
RTVSPropertyOp50
 70
     1
102
RTVSPropertyOp51
 70
     0
102
RTVSPropertyOp52
 70
     0
102
RTVSPropertyOp53
 70
     1
102
RTVSPropertyOp54
 70
     1
102
RTVSPropertyOp55
 70
     1
102
RTVSPropertyOp56
 70
     1
102
RTVSPropertyOp57
 70
     1
102
RTVSPost2010Prop28
280
     0
102
RTVSPost2010PropOp28
 70
     1
102
RTVSPost2010Prop29
280
     1
102
RTVSPost2010PropOp29
 70
     1
102
RTVSPost2010Prop30
280
     1
102
RTVSPost2010PropOp30
 70
     1
102
RTVSPost2010Prop31
280
     0
102
RTVSPost2010PropOp31
 70
     1
102
RTVSPost2010Prop32
280
     0
102
RTVSPost2010PropOp32
 70
     1
102
RTVSPost2010Prop33
280
     0
102
RTVSPost2010PropOp33
 70
     1
102
RTVSPost2010Prop34
280
     0
102
RTVSPost2010PropOp34
 70
     1
102
RTVSPost2010Prop35
280
     0
102
RTVSPost2010PropOp35
 70
     1
102
RTVSPost2010Prop36
280
     0
102
RTVSPost2010PropOp36
 70
     1
102
RTVSPost2010Prop37
 90
       50
102
RTVSPost2010PropOp37
 70
     1
102
RTVSPost2010Prop38
140
0.0
102
RTVSPost2010PropOp38
 70
     1
102
RTVSPost2010Prop39
140
1.0
102
RTVSPost2010PropOp39
 70
     1
102
RTVSPost2010Prop40
 90
        0
102
RTVSPost2010PropOp40
 70
     1
102
RTVSPost2010Prop41ColorIndex
 90
       18
102
RTVSPost2010Prop41ColorRGB
 90
        0
102
RTVSPost2010PropOp41
 70
     1
102
RTVSPost2010Prop42
 90
       50
102
RTVSPost2010PropOp42
 70
     1
102
RTVSPost2010Prop43
 90
        3
102
RTVSPost2010PropOp43
 70
     1
102
RTVSPost2010Prop44ColorIndex
 90
        5
102
RTVSPost2010Prop44ColorRGB
 90
      255
102
RTVSPost2010PropOp44
 70
     1
102
RTVSPost2010Prop45
280
     0
102
RTVSPost2010PropOp45
 70
     1
102
RTVSPost2010Prop46
 90
       50
102
RTVSPost2010PropOp46
 70
     1
102
RTVSPost2010Prop47
 90
       50
102
RTVSPost2010PropOp47
 70
     1
102
RTVSPost2010Prop48
 90
       50
102
RTVSPost2010PropOp48
 70
     1
102
RTVSPost2010Prop49
280
     0
102
RTVSPost2010PropOp49
 70
     1
102
RTVSPost2010Prop50
 90
       50
102
RTVSPost2010PropOp50
 70
     1
102
RTVSPost2010Prop51ColorIndex
 90
      256
102
RTVSPost2010Prop51ColorRGB
 90
-16777216
102
RTVSPost2010PropOp51
 70
     0
102
RTVSPost2010Prop52
140
1.0
102
RTVSPost2010PropOp52
 70
     0
102
RTVSPost2010Prop53
 90
        2
102
RTVSPost2010PropOp53
 70
     1
102
RTVSPost2010Prop54
  1
strokes_ogs.tif
102
RTVSPost2010PropOp54
 70
     1
102
RTVSPost2010Prop55
280
     0
102
RTVSPost2010PropOp55
 70
     1
102
RTVSPost2010Prop56
140
1.0
102
RTVSPost2010PropOp56
 70
     1
102
RTVSPost2010Prop57
140
1.0
102
RTVSPost2010PropOp57
 70
     1
  0
XRECORD
  5
507
102
{ACAD_REACTORS
330
506
102
}
330
506
100
AcDbXrecord
280
     1
102
RTVSPropertyOp0
 70
     1
102
RTVSPropertyOp1
 70
     1
102
RTVSPropertyOp2
 70
     1
102
RTVSPropertyOp3
 70
     1
102
RTVSPropertyOp4
 70
     1
102
RTVSPropertyOp5
 70
     1
102
RTVSPropertyOp6
 70
     1
102
RTVSPropertyOp7
 70
     1
102
RTVSPropertyOp8
 70
     1
102
RTVSPropertyOp9
 70
     1
102
RTVSPropertyOp10
 70
     1
102
RTVSPropertyOp11
 70
     1
102
RTVSPropertyOp12
 70
     1
102
RTVSPropertyOp13
 70
     1
102
RTVSPropertyOp14
 70
     1
102
RTVSPropertyOp15
 70
     1
102
RTVSPropertyOp16
 70
     1
102
RTVSPropertyOp17
 70
     1
102
RTVSPropertyOp18
 70
     1
102
RTVSPropertyOp19
 70
     1
102
RTVSPropertyOp20
 70
     1
102
RTVSPropertyOp21
 70
     1
102
RTVSPropertyOp22
 70
     1
102
RTVSPropertyOp23
 70
     1
102
RTVSPropertyOp24
 70
     1
102
RTVSPropertyOp25
 70
     1
102
RTVSPropertyOp26
 70
     1
102
RTVSPropertyOp27
 70
     1
102
RTVSPropertyOp28
 70
     1
102
RTVSPropertyOp29
 70
     1
102
RTVSPropertyOp30
 70
     1
102
RTVSPropertyOp31
 70
     1
102
RTVSPropertyOp32
 70
     1
102
RTVSPropertyOp33
 70
     1
102
RTVSPropertyOp34
 70
     1
102
RTVSPropertyOp35
 70
     1
102
RTVSPropertyOp36
 70
     1
102
RTVSPropertyOp37
 70
     1
102
RTVSPropertyOp38
 70
     1
102
RTVSPropertyOp39
 70
     1
102
RTVSPropertyOp40
 70
     1
102
RTVSPropertyOp41
 70
     1
102
RTVSPropertyOp42
 70
     1
102
RTVSPropertyOp43
 70
     1
102
RTVSPropertyOp44
 70
     1
102
RTVSPropertyOp45
 70
     1
102
RTVSPropertyOp46
 70
     1
102
RTVSPropertyOp47
 70
     1
102
RTVSPropertyOp48
 70
     1
102
RTVSPropertyOp49
 70
     1
102
RTVSPropertyOp50
 70
     1
102
RTVSPropertyOp51
 70
     0
102
RTVSPropertyOp52
 70
     0
102
RTVSPropertyOp53
 70
     1
102
RTVSPropertyOp54
 70
     1
102
RTVSPropertyOp55
 70
     1
102
RTVSPropertyOp56
 70
     1
102
RTVSPropertyOp57
 70
     1
102
RTVSPost2010Prop28
280
     0
102
RTVSPost2010PropOp28
 70
     1
102
RTVSPost2010Prop29
280
     1
102
RTVSPost2010PropOp29
 70
     1
102
RTVSPost2010Prop30
280
     1
102
RTVSPost2010PropOp30
 70
     1
102
RTVSPost2010Prop31
280
     0
102
RTVSPost2010PropOp31
 70
     1
102
RTVSPost2010Prop32
280
     0
102
RTVSPost2010PropOp32
 70
     1
102
RTVSPost2010Prop33
280
     0
102
RTVSPost2010PropOp33
 70
     1
102
RTVSPost2010Prop34
280
     0
102
RTVSPost2010PropOp34
 70
     1
102
RTVSPost2010Prop35
280
     0
102
RTVSPost2010PropOp35
 70
     1
102
RTVSPost2010Prop36
280
     0
102
RTVSPost2010PropOp36
 70
     1
102
RTVSPost2010Prop37
 90
       50
102
RTVSPost2010PropOp37
 70
     1
102
RTVSPost2010Prop38
140
0.0
102
RTVSPost2010PropOp38
 70
     1
102
RTVSPost2010Prop39
140
1.0
102
RTVSPost2010PropOp39
 70
     1
102
RTVSPost2010Prop40
 90
        0
102
RTVSPost2010PropOp40
 70
     1
102
RTVSPost2010Prop41ColorIndex
 90
       18
102
RTVSPost2010Prop41ColorRGB
 90
        0
102
RTVSPost2010PropOp41
 70
     1
102
RTVSPost2010Prop42
 90
       50
102
RTVSPost2010PropOp42
 70
     1
102
RTVSPost2010Prop43
 90
        3
102
RTVSPost2010PropOp43
 70
     1
102
RTVSPost2010Prop44ColorIndex
 90
        5
102
RTVSPost2010Prop44ColorRGB
 90
      255
102
RTVSPost2010PropOp44
 70
     1
102
RTVSPost2010Prop45
280
     0
102
RTVSPost2010PropOp45
 70
     1
102
RTVSPost2010Prop46
 90
       50
102
RTVSPost2010PropOp46
 70
     1
102
RTVSPost2010Prop47
 90
       50
102
RTVSPost2010PropOp47
 70
     1
102
RTVSPost2010Prop48
 90
       50
102
RTVSPost2010PropOp48
 70
     1
102
RTVSPost2010Prop49
280
     0
102
RTVSPost2010PropOp49
 70
     1
102
RTVSPost2010Prop50
 90
       50
102
RTVSPost2010PropOp50
 70
     1
102
RTVSPost2010Prop51ColorIndex
 90
      256
102
RTVSPost2010Prop51ColorRGB
 90
-16777216
102
RTVSPost2010PropOp51
 70
     0
102
RTVSPost2010Prop52
140
1.0
102
RTVSPost2010PropOp52
 70
     0
102
RTVSPost2010Prop53
 90
        2
102
RTVSPost2010PropOp53
 70
     1
102
RTVSPost2010Prop54
  1
strokes_ogs.tif
102
RTVSPost2010PropOp54
 70
     1
102
RTVSPost2010Prop55
280
     0
102
RTVSPost2010PropOp55
 70
     1
102
RTVSPost2010Prop56
140
1.0
102
RTVSPost2010PropOp56
 70
     1
102
RTVSPost2010Prop57
140
1.0
102
RTVSPost2010PropOp57
 70
     1
  0
XRECORD
  5
501
102
{ACAD_REACTORS
330
500
102
}
330
500
100
AcDbXrecord
280
     1
102
RTVSPropertyOp0
 70
     1
102
RTVSPropertyOp1
 70
     1
102
RTVSPropertyOp2
 70
     1
102
RTVSPropertyOp3
 70
     1
102
RTVSPropertyOp4
 70
     1
102
RTVSPropertyOp5
 70
     1
102
RTVSPropertyOp6
 70
     1
102
RTVSPropertyOp7
 70
     1
102
RTVSPropertyOp8
 70
     1
102
RTVSPropertyOp9
 70
     1
102
RTVSPropertyOp10
 70
     1
102
RTVSPropertyOp11
 70
     1
102
RTVSPropertyOp12
 70
     1
102
RTVSPropertyOp13
 70
     1
102
RTVSPropertyOp14
 70
     1
102
RTVSPropertyOp15
 70
     1
102
RTVSPropertyOp16
 70
     1
102
RTVSPropertyOp17
 70
     1
102
RTVSPropertyOp18
 70
     1
102
RTVSPropertyOp19
 70
     1
102
RTVSPropertyOp20
 70
     1
102
RTVSPropertyOp21
 70
     1
102
RTVSPropertyOp22
 70
     1
102
RTVSPropertyOp23
 70
     1
102
RTVSPropertyOp24
 70
     1
102
RTVSPropertyOp25
 70
     1
102
RTVSPropertyOp26
 70
     1
102
RTVSPropertyOp27
 70
     1
102
RTVSPropertyOp28
 70
     1
102
RTVSPropertyOp29
 70
     1
102
RTVSPropertyOp30
 70
     1
102
RTVSPropertyOp31
 70
     1
102
RTVSPropertyOp32
 70
     1
102
RTVSPropertyOp33
 70
     1
102
RTVSPropertyOp34
 70
     1
102
RTVSPropertyOp35
 70
     1
102
RTVSPropertyOp36
 70
     1
102
RTVSPropertyOp37
 70
     1
102
RTVSPropertyOp38
 70
     1
102
RTVSPropertyOp39
 70
     1
102
RTVSPropertyOp40
 70
     1
102
RTVSPropertyOp41
 70
     1
102
RTVSPropertyOp42
 70
     1
102
RTVSPropertyOp43
 70
     1
102
RTVSPropertyOp44
 70
     1
102
RTVSPropertyOp45
 70
     1
102
RTVSPropertyOp46
 70
     1
102
RTVSPropertyOp47
 70
     1
102
RTVSPropertyOp48
 70
     1
102
RTVSPropertyOp49
 70
     1
102
RTVSPropertyOp50
 70
     1
102
RTVSPropertyOp51
 70
     0
102
RTVSPropertyOp52
 70
     0
102
RTVSPropertyOp53
 70
     1
102
RTVSPropertyOp54
 70
     1
102
RTVSPropertyOp55
 70
     1
102
RTVSPropertyOp56
 70
     1
102
RTVSPropertyOp57
 70
     1
102
RTVSPost2010Prop28
280
     0
102
RTVSPost2010PropOp28
 70
     1
102
RTVSPost2010Prop29
280
     1
102
RTVSPost2010PropOp29
 70
     1
102
RTVSPost2010Prop30
280
     1
102
RTVSPost2010PropOp30
 70
     1
102
RTVSPost2010Prop31
280
     0
102
RTVSPost2010PropOp31
 70
     1
102
RTVSPost2010Prop32
280
     0
102
RTVSPost2010PropOp32
 70
     1
102
RTVSPost2010Prop33
280
     0
102
RTVSPost2010PropOp33
 70
     1
102
RTVSPost2010Prop34
280
     0
102
RTVSPost2010PropOp34
 70
     1
102
RTVSPost2010Prop35
280
     0
102
RTVSPost2010PropOp35
 70
     1
102
RTVSPost2010Prop36
280
     0
102
RTVSPost2010PropOp36
 70
     1
102
RTVSPost2010Prop37
 90
       50
102
RTVSPost2010PropOp37
 70
     1
102
RTVSPost2010Prop38
140
0.0
102
RTVSPost2010PropOp38
 70
     1
102
RTVSPost2010Prop39
140
1.0
102
RTVSPost2010PropOp39
 70
     1
102
RTVSPost2010Prop40
 90
        0
102
RTVSPost2010PropOp40
 70
     1
102
RTVSPost2010Prop41ColorIndex
 90
       18
102
RTVSPost2010Prop41ColorRGB
 90
        0
102
RTVSPost2010PropOp41
 70
     1
102
RTVSPost2010Prop42
 90
       50
102
RTVSPost2010PropOp42
 70
     1
102
RTVSPost2010Prop43
 90
        3
102
RTVSPost2010PropOp43
 70
     1
102
RTVSPost2010Prop44ColorIndex
 90
        5
102
RTVSPost2010Prop44ColorRGB
 90
      255
102
RTVSPost2010PropOp44
 70
     1
102
RTVSPost2010Prop45
280
     0
102
RTVSPost2010PropOp45
 70
     1
102
RTVSPost2010Prop46
 90
       50
102
RTVSPost2010PropOp46
 70
     1
102
RTVSPost2010Prop47
 90
       50
102
RTVSPost2010PropOp47
 70
     1
102
RTVSPost2010Prop48
 90
       50
102
RTVSPost2010PropOp48
 70
     1
102
RTVSPost2010Prop49
280
     0
102
RTVSPost2010PropOp49
 70
     1
102
RTVSPost2010Prop50
 90
       50
102
RTVSPost2010PropOp50
 70
     1
102
RTVSPost2010Prop51ColorIndex
 90
      256
102
RTVSPost2010Prop51ColorRGB
 90
-16777216
102
RTVSPost2010PropOp51
 70
     0
102
RTVSPost2010Prop52
140
1.0
102
RTVSPost2010PropOp52
 70
     0
102
RTVSPost2010Prop53
 90
        2
102
RTVSPost2010PropOp53
 70
     1
102
RTVSPost2010Prop54
  1
strokes_ogs.tif
102
RTVSPost2010PropOp54
 70
     1
102
RTVSPost2010Prop55
280
     0
102
RTVSPost2010PropOp55
 70
     1
102
RTVSPost2010Prop56
140
1.0
102
RTVSPost2010PropOp56
 70
     1
102
RTVSPost2010Prop57
140
1.0
102
RTVSPost2010PropOp57
 70
     1
  0
XRECORD
  5
503
102
{ACAD_REACTORS
330
502
102
}
330
502
100
AcDbXrecord
280
     1
102
RTVSPropertyOp0
 70
     1
102
RTVSPropertyOp1
 70
     1
102
RTVSPropertyOp2
 70
     1
102
RTVSPropertyOp3
 70
     1
102
RTVSPropertyOp4
 70
     1
102
RTVSPropertyOp5
 70
     1
102
RTVSPropertyOp6
 70
     1
102
RTVSPropertyOp7
 70
     1
102
RTVSPropertyOp8
 70
     1
102
RTVSPropertyOp9
 70
     1
102
RTVSPropertyOp10
 70
     1
102
RTVSPropertyOp11
 70
     1
102
RTVSPropertyOp12
 70
     1
102
RTVSPropertyOp13
 70
     1
102
RTVSPropertyOp14
 70
     1
102
RTVSPropertyOp15
 70
     1
102
RTVSPropertyOp16
 70
     1
102
RTVSPropertyOp17
 70
     1
102
RTVSPropertyOp18
 70
     1
102
RTVSPropertyOp19
 70
     1
102
RTVSPropertyOp20
 70
     1
102
RTVSPropertyOp21
 70
     1
102
RTVSPropertyOp22
 70
     1
102
RTVSPropertyOp23
 70
     1
102
RTVSPropertyOp24
 70
     1
102
RTVSPropertyOp25
 70
     1
102
RTVSPropertyOp26
 70
     1
102
RTVSPropertyOp27
 70
     1
102
RTVSPropertyOp28
 70
     1
102
RTVSPropertyOp29
 70
     1
102
RTVSPropertyOp30
 70
     1
102
RTVSPropertyOp31
 70
     1
102
RTVSPropertyOp32
 70
     1
102
RTVSPropertyOp33
 70
     1
102
RTVSPropertyOp34
 70
     1
102
RTVSPropertyOp35
 70
     1
102
RTVSPropertyOp36
 70
     1
102
RTVSPropertyOp37
 70
     1
102
RTVSPropertyOp38
 70
     1
102
RTVSPropertyOp39
 70
     1
102
RTVSPropertyOp40
 70
     1
102
RTVSPropertyOp41
 70
     1
102
RTVSPropertyOp42
 70
     1
102
RTVSPropertyOp43
 70
     1
102
RTVSPropertyOp44
 70
     1
102
RTVSPropertyOp45
 70
     1
102
RTVSPropertyOp46
 70
     1
102
RTVSPropertyOp47
 70
     1
102
RTVSPropertyOp48
 70
     1
102
RTVSPropertyOp49
 70
     1
102
RTVSPropertyOp50
 70
     1
102
RTVSPropertyOp51
 70
     0
102
RTVSPropertyOp52
 70
     0
102
RTVSPropertyOp53
 70
     1
102
RTVSPropertyOp54
 70
     1
102
RTVSPropertyOp55
 70
     1
102
RTVSPropertyOp56
 70
     1
102
RTVSPropertyOp57
 70
     1
102
RTVSPost2010Prop28
280
     0
102
RTVSPost2010PropOp28
 70
     1
102
RTVSPost2010Prop29
280
     1
102
RTVSPost2010PropOp29
 70
     1
102
RTVSPost2010Prop30
280
     1
102
RTVSPost2010PropOp30
 70
     1
102
RTVSPost2010Prop31
280
     0
102
RTVSPost2010PropOp31
 70
     1
102
RTVSPost2010Prop32
280
     0
102
RTVSPost2010PropOp32
 70
     1
102
RTVSPost2010Prop33
280
     0
102
RTVSPost2010PropOp33
 70
     1
102
RTVSPost2010Prop34
280
     0
102
RTVSPost2010PropOp34
 70
     1
102
RTVSPost2010Prop35
280
     0
102
RTVSPost2010PropOp35
 70
     1
102
RTVSPost2010Prop36
280
     0
102
RTVSPost2010PropOp36
 70
     1
102
RTVSPost2010Prop37
 90
       50
102
RTVSPost2010PropOp37
 70
     1
102
RTVSPost2010Prop38
140
0.0
102
RTVSPost2010PropOp38
 70
     1
102
RTVSPost2010Prop39
140
1.0
102
RTVSPost2010PropOp39
 70
     1
102
RTVSPost2010Prop40
 90
        0
102
RTVSPost2010PropOp40
 70
     1
102
RTVSPost2010Prop41ColorIndex
 90
       18
102
RTVSPost2010Prop41ColorRGB
 90
        0
102
RTVSPost2010PropOp41
 70
     1
102
RTVSPost2010Prop42
 90
       50
102
RTVSPost2010PropOp42
 70
     1
102
RTVSPost2010Prop43
 90
        3
102
RTVSPost2010PropOp43
 70
     1
102
RTVSPost2010Prop44ColorIndex
 90
        5
102
RTVSPost2010Prop44ColorRGB
 90
      255
102
RTVSPost2010PropOp44
 70
     1
102
RTVSPost2010Prop45
280
     0
102
RTVSPost2010PropOp45
 70
     1
102
RTVSPost2010Prop46
 90
       50
102
RTVSPost2010PropOp46
 70
     1
102
RTVSPost2010Prop47
 90
       50
102
RTVSPost2010PropOp47
 70
     1
102
RTVSPost2010Prop48
 90
       50
102
RTVSPost2010PropOp48
 70
     1
102
RTVSPost2010Prop49
280
     0
102
RTVSPost2010PropOp49
 70
     1
102
RTVSPost2010Prop50
 90
       50
102
RTVSPost2010PropOp50
 70
     1
102
RTVSPost2010Prop51ColorIndex
 90
      256
102
RTVSPost2010Prop51ColorRGB
 90
-16777216
102
RTVSPost2010PropOp51
 70
     0
102
RTVSPost2010Prop52
140
1.0
102
RTVSPost2010PropOp52
 70
     0
102
RTVSPost2010Prop53
 90
        2
102
RTVSPost2010PropOp53
 70
     1
102
RTVSPost2010Prop54
  1
strokes_ogs.tif
102
RTVSPost2010PropOp54
 70
     1
102
RTVSPost2010Prop55
280
     0
102
RTVSPost2010PropOp55
 70
     1
102
RTVSPost2010Prop56
140
1.0
102
RTVSPost2010PropOp56
 70
     1
102
RTVSPost2010Prop57
140
1.0
102
RTVSPost2010PropOp57
 70
     1
  0
XRECORD
  5
4F3
102
{ACAD_REACTORS
330
4F2
102
}
330
4F2
100
AcDbXrecord
280
     1
102
RTVSPropertyOp0
 70
     1
102
RTVSPropertyOp1
 70
     1
102
RTVSPropertyOp2
 70
     1
102
RTVSPropertyOp3
 70
     1
102
RTVSPropertyOp4
 70
     1
102
RTVSPropertyOp5
 70
     1
102
RTVSPropertyOp6
 70
     1
102
RTVSPropertyOp7
 70
     1
102
RTVSPropertyOp8
 70
     1
102
RTVSPropertyOp9
 70
     1
102
RTVSPropertyOp10
 70
     1
102
RTVSPropertyOp11
 70
     1
102
RTVSPropertyOp12
 70
     1
102
RTVSPropertyOp13
 70
     1
102
RTVSPropertyOp14
 70
     1
102
RTVSPropertyOp15
 70
     1
102
RTVSPropertyOp16
 70
     1
102
RTVSPropertyOp17
 70
     1
102
RTVSPropertyOp18
 70
     1
102
RTVSPropertyOp19
 70
     1
102
RTVSPropertyOp20
 70
     1
102
RTVSPropertyOp21
 70
     1
102
RTVSPropertyOp22
 70
     1
102
RTVSPropertyOp23
 70
     1
102
RTVSPropertyOp24
 70
     1
102
RTVSPropertyOp25
 70
     1
102
RTVSPropertyOp26
 70
     1
102
RTVSPropertyOp27
 70
     1
102
RTVSPropertyOp28
 70
     1
102
RTVSPropertyOp29
 70
     1
102
RTVSPropertyOp30
 70
     1
102
RTVSPropertyOp31
 70
     1
102
RTVSPropertyOp32
 70
     1
102
RTVSPropertyOp33
 70
     1
102
RTVSPropertyOp34
 70
     1
102
RTVSPropertyOp35
 70
     1
102
RTVSPropertyOp36
 70
     1
102
RTVSPropertyOp37
 70
     1
102
RTVSPropertyOp38
 70
     1
102
RTVSPropertyOp39
 70
     1
102
RTVSPropertyOp40
 70
     1
102
RTVSPropertyOp41
 70
     1
102
RTVSPropertyOp42
 70
     1
102
RTVSPropertyOp43
 70
     1
102
RTVSPropertyOp44
 70
     1
102
RTVSPropertyOp45
 70
     1
102
RTVSPropertyOp46
 70
     1
102
RTVSPropertyOp47
 70
     1
102
RTVSPropertyOp48
 70
     1
102
RTVSPropertyOp49
 70
     1
102
RTVSPropertyOp50
 70
     1
102
RTVSPropertyOp51
 70
     0
102
RTVSPropertyOp52
 70
     0
102
RTVSPropertyOp53
 70
     1
102
RTVSPropertyOp54
 70
     1
102
RTVSPropertyOp55
 70
     1
102
RTVSPropertyOp56
 70
     1
102
RTVSPropertyOp57
 70
     1
102
RTVSPost2010Prop28
280
     0
102
RTVSPost2010PropOp28
 70
     1
102
RTVSPost2010Prop29
280
     1
102
RTVSPost2010PropOp29
 70
     1
102
RTVSPost2010Prop30
280
     1
102
RTVSPost2010PropOp30
 70
     1
102
RTVSPost2010Prop31
280
     0
102
RTVSPost2010PropOp31
 70
     1
102
RTVSPost2010Prop32
280
     0
102
RTVSPost2010PropOp32
 70
     1
102
RTVSPost2010Prop33
280
     0
102
RTVSPost2010PropOp33
 70
     1
102
RTVSPost2010Prop34
280
     0
102
RTVSPost2010PropOp34
 70
     1
102
RTVSPost2010Prop35
280
     0
102
RTVSPost2010PropOp35
 70
     1
102
RTVSPost2010Prop36
280
     0
102
RTVSPost2010PropOp36
 70
     1
102
RTVSPost2010Prop37
 90
       50
102
RTVSPost2010PropOp37
 70
     1
102
RTVSPost2010Prop38
140
0.0
102
RTVSPost2010PropOp38
 70
     1
102
RTVSPost2010Prop39
140
1.0
102
RTVSPost2010PropOp39
 70
     1
102
RTVSPost2010Prop40
 90
        0
102
RTVSPost2010PropOp40
 70
     1
102
RTVSPost2010Prop41ColorIndex
 90
       18
102
RTVSPost2010Prop41ColorRGB
 90
        0
102
RTVSPost2010PropOp41
 70
     1
102
RTVSPost2010Prop42
 90
       50
102
RTVSPost2010PropOp42
 70
     1
102
RTVSPost2010Prop43
 90
        3
102
RTVSPost2010PropOp43
 70
     1
102
RTVSPost2010Prop44ColorIndex
 90
        5
102
RTVSPost2010Prop44ColorRGB
 90
      255
102
RTVSPost2010PropOp44
 70
     1
102
RTVSPost2010Prop45
280
     0
102
RTVSPost2010PropOp45
 70
     1
102
RTVSPost2010Prop46
 90
       50
102
RTVSPost2010PropOp46
 70
     1
102
RTVSPost2010Prop47
 90
       50
102
RTVSPost2010PropOp47
 70
     1
102
RTVSPost2010Prop48
 90
       50
102
RTVSPost2010PropOp48
 70
     1
102
RTVSPost2010Prop49
280
     0
102
RTVSPost2010PropOp49
 70
     1
102
RTVSPost2010Prop50
 90
       50
102
RTVSPost2010PropOp50
 70
     1
102
RTVSPost2010Prop51ColorIndex
 90
      256
102
RTVSPost2010Prop51ColorRGB
 90
-16777216
102
RTVSPost2010PropOp51
 70
     0
102
RTVSPost2010Prop52
140
1.0
102
RTVSPost2010PropOp52
 70
     0
102
RTVSPost2010Prop53
 90
        2
102
RTVSPost2010PropOp53
 70
     1
102
RTVSPost2010Prop54
  1
strokes_ogs.tif
102
RTVSPost2010PropOp54
 70
     1
102
RTVSPost2010Prop55
280
     0
102
RTVSPost2010PropOp55
 70
     1
102
RTVSPost2010Prop56
140
1.0
102
RTVSPost2010PropOp56
 70
     1
102
RTVSPost2010Prop57
140
1.0
102
RTVSPost2010PropOp57
 70
     1
  0
XRECORD
  5
4E5
102
{ACAD_REACTORS
330
4E4
102
}
330
4E4
100
AcDbXrecord
280
     1
102
RTVSPropertyOp0
 70
     1
102
RTVSPropertyOp1
 70
     1
102
RTVSPropertyOp2
 70
     1
102
RTVSPropertyOp3
 70
     1
102
RTVSPropertyOp4
 70
     1
102
RTVSPropertyOp5
 70
     1
102
RTVSPropertyOp6
 70
     1
102
RTVSPropertyOp7
 70
     1
102
RTVSPropertyOp8
 70
     1
102
RTVSPropertyOp9
 70
     1
102
RTVSPropertyOp10
 70
     1
102
RTVSPropertyOp11
 70
     1
102
RTVSPropertyOp12
 70
     1
102
RTVSPropertyOp13
 70
     1
102
RTVSPropertyOp14
 70
     1
102
RTVSPropertyOp15
 70
     1
102
RTVSPropertyOp16
 70
     1
102
RTVSPropertyOp17
 70
     1
102
RTVSPropertyOp18
 70
     1
102
RTVSPropertyOp19
 70
     1
102
RTVSPropertyOp20
 70
     1
102
RTVSPropertyOp21
 70
     1
102
RTVSPropertyOp22
 70
     1
102
RTVSPropertyOp23
 70
     1
102
RTVSPropertyOp24
 70
     1
102
RTVSPropertyOp25
 70
     1
102
RTVSPropertyOp26
 70
     1
102
RTVSPropertyOp27
 70
     1
102
RTVSPropertyOp28
 70
     1
102
RTVSPropertyOp29
 70
     1
102
RTVSPropertyOp30
 70
     1
102
RTVSPropertyOp31
 70
     1
102
RTVSPropertyOp32
 70
     1
102
RTVSPropertyOp33
 70
     1
102
RTVSPropertyOp34
 70
     1
102
RTVSPropertyOp35
 70
     1
102
RTVSPropertyOp36
 70
     1
102
RTVSPropertyOp37
 70
     1
102
RTVSPropertyOp38
 70
     1
102
RTVSPropertyOp39
 70
     1
102
RTVSPropertyOp40
 70
     1
102
RTVSPropertyOp41
 70
     1
102
RTVSPropertyOp42
 70
     1
102
RTVSPropertyOp43
 70
     1
102
RTVSPropertyOp44
 70
     1
102
RTVSPropertyOp45
 70
     1
102
RTVSPropertyOp46
 70
     1
102
RTVSPropertyOp47
 70
     1
102
RTVSPropertyOp48
 70
     1
102
RTVSPropertyOp49
 70
     1
102
RTVSPropertyOp50
 70
     1
102
RTVSPropertyOp51
 70
     0
102
RTVSPropertyOp52
 70
     0
102
RTVSPropertyOp53
 70
     1
102
RTVSPropertyOp54
 70
     1
102
RTVSPropertyOp55
 70
     1
102
RTVSPropertyOp56
 70
     1
102
RTVSPropertyOp57
 70
     1
102
RTVSPost2010Prop28
280
     0
102
RTVSPost2010PropOp28
 70
     1
102
RTVSPost2010Prop29
280
     1
102
RTVSPost2010PropOp29
 70
     1
102
RTVSPost2010Prop30
280
     1
102
RTVSPost2010PropOp30
 70
     1
102
RTVSPost2010Prop31
280
     0
102
RTVSPost2010PropOp31
 70
     1
102
RTVSPost2010Prop32
280
     0
102
RTVSPost2010PropOp32
 70
     1
102
RTVSPost2010Prop33
280
     0
102
RTVSPost2010PropOp33
 70
     1
102
RTVSPost2010Prop34
280
     0
102
RTVSPost2010PropOp34
 70
     1
102
RTVSPost2010Prop35
280
     0
102
RTVSPost2010PropOp35
 70
     1
102
RTVSPost2010Prop36
280
     0
102
RTVSPost2010PropOp36
 70
     1
102
RTVSPost2010Prop37
 90
       50
102
RTVSPost2010PropOp37
 70
     1
102
RTVSPost2010Prop38
140
0.0
102
RTVSPost2010PropOp38
 70
     1
102
RTVSPost2010Prop39
140
1.0
102
RTVSPost2010PropOp39
 70
     1
102
RTVSPost2010Prop40
 90
        0
102
RTVSPost2010PropOp40
 70
     1
102
RTVSPost2010Prop41ColorIndex
 90
       18
102
RTVSPost2010Prop41ColorRGB
 90
        0
102
RTVSPost2010PropOp41
 70
     1
102
RTVSPost2010Prop42
 90
       50
102
RTVSPost2010PropOp42
 70
     1
102
RTVSPost2010Prop43
 90
        3
102
RTVSPost2010PropOp43
 70
     1
102
RTVSPost2010Prop44ColorIndex
 90
        5
102
RTVSPost2010Prop44ColorRGB
 90
      255
102
RTVSPost2010PropOp44
 70
     1
102
RTVSPost2010Prop45
280
     0
102
RTVSPost2010PropOp45
 70
     1
102
RTVSPost2010Prop46
 90
       50
102
RTVSPost2010PropOp46
 70
     1
102
RTVSPost2010Prop47
 90
       50
102
RTVSPost2010PropOp47
 70
     1
102
RTVSPost2010Prop48
 90
       50
102
RTVSPost2010PropOp48
 70
     1
102
RTVSPost2010Prop49
280
     0
102
RTVSPost2010PropOp49
 70
     1
102
RTVSPost2010Prop50
 90
       50
102
RTVSPost2010PropOp50
 70
     1
102
RTVSPost2010Prop51ColorIndex
 90
      256
102
RTVSPost2010Prop51ColorRGB
 90
-16777216
102
RTVSPost2010PropOp51
 70
     0
102
RTVSPost2010Prop52
140
1.0
102
RTVSPost2010PropOp52
 70
     0
102
RTVSPost2010Prop53
 90
        2
102
RTVSPost2010PropOp53
 70
     1
102
RTVSPost2010Prop54
  1
strokes_ogs.tif
102
RTVSPost2010PropOp54
 70
     1
102
RTVSPost2010Prop55
280
     0
102
RTVSPost2010PropOp55
 70
     1
102
RTVSPost2010Prop56
140
1.0
102
RTVSPost2010PropOp56
 70
     1
102
RTVSPost2010Prop57
140
1.0
102
RTVSPost2010PropOp57
 70
     1
  0
XRECORD
  5
505
102
{ACAD_REACTORS
330
504
102
}
330
504
100
AcDbXrecord
280
     1
102
RTVSPropertyOp0
 70
     1
102
RTVSPropertyOp1
 70
     1
102
RTVSPropertyOp2
 70
     1
102
RTVSPropertyOp3
 70
     1
102
RTVSPropertyOp4
 70
     1
102
RTVSPropertyOp5
 70
     1
102
RTVSPropertyOp6
 70
     1
102
RTVSPropertyOp7
 70
     1
102
RTVSPropertyOp8
 70
     1
102
RTVSPropertyOp9
 70
     1
102
RTVSPropertyOp10
 70
     1
102
RTVSPropertyOp11
 70
     1
102
RTVSPropertyOp12
 70
     1
102
RTVSPropertyOp13
 70
     1
102
RTVSPropertyOp14
 70
     1
102
RTVSPropertyOp15
 70
     1
102
RTVSPropertyOp16
 70
     1
102
RTVSPropertyOp17
 70
     1
102
RTVSPropertyOp18
 70
     1
102
RTVSPropertyOp19
 70
     1
102
RTVSPropertyOp20
 70
     1
102
RTVSPropertyOp21
 70
     1
102
RTVSPropertyOp22
 70
     1
102
RTVSPropertyOp23
 70
     1
102
RTVSPropertyOp24
 70
     1
102
RTVSPropertyOp25
 70
     1
102
RTVSPropertyOp26
 70
     1
102
RTVSPropertyOp27
 70
     1
102
RTVSPropertyOp28
 70
     1
102
RTVSPropertyOp29
 70
     1
102
RTVSPropertyOp30
 70
     1
102
RTVSPropertyOp31
 70
     1
102
RTVSPropertyOp32
 70
     1
102
RTVSPropertyOp33
 70
     1
102
RTVSPropertyOp34
 70
     1
102
RTVSPropertyOp35
 70
     1
102
RTVSPropertyOp36
 70
     1
102
RTVSPropertyOp37
 70
     1
102
RTVSPropertyOp38
 70
     1
102
RTVSPropertyOp39
 70
     1
102
RTVSPropertyOp40
 70
     1
102
RTVSPropertyOp41
 70
     1
102
RTVSPropertyOp42
 70
     1
102
RTVSPropertyOp43
 70
     1
102
RTVSPropertyOp44
 70
     1
102
RTVSPropertyOp45
 70
     1
102
RTVSPropertyOp46
 70
     1
102
RTVSPropertyOp47
 70
     1
102
RTVSPropertyOp48
 70
     1
102
RTVSPropertyOp49
 70
     1
102
RTVSPropertyOp50
 70
     1
102
RTVSPropertyOp51
 70
     0
102
RTVSPropertyOp52
 70
     0
102
RTVSPropertyOp53
 70
     1
102
RTVSPropertyOp54
 70
     1
102
RTVSPropertyOp55
 70
     1
102
RTVSPropertyOp56
 70
     1
102
RTVSPropertyOp57
 70
     1
102
RTVSPost2010Prop28
280
     0
102
RTVSPost2010PropOp28
 70
     1
102
RTVSPost2010Prop29
280
     1
102
RTVSPost2010PropOp29
 70
     1
102
RTVSPost2010Prop30
280
     1
102
RTVSPost2010PropOp30
 70
     1
102
RTVSPost2010Prop31
280
     0
102
RTVSPost2010PropOp31
 70
     1
102
RTVSPost2010Prop32
280
     0
102
RTVSPost2010PropOp32
 70
     1
102
RTVSPost2010Prop33
280
     0
102
RTVSPost2010PropOp33
 70
     1
102
RTVSPost2010Prop34
280
     0
102
RTVSPost2010PropOp34
 70
     1
102
RTVSPost2010Prop35
280
     0
102
RTVSPost2010PropOp35
 70
     1
102
RTVSPost2010Prop36
280
     0
102
RTVSPost2010PropOp36
 70
     1
102
RTVSPost2010Prop37
 90
       50
102
RTVSPost2010PropOp37
 70
     1
102
RTVSPost2010Prop38
140
0.0
102
RTVSPost2010PropOp38
 70
     1
102
RTVSPost2010Prop39
140
1.0
102
RTVSPost2010PropOp39
 70
     1
102
RTVSPost2010Prop40
 90
        0
102
RTVSPost2010PropOp40
 70
     1
102
RTVSPost2010Prop41ColorIndex
 90
       18
102
RTVSPost2010Prop41ColorRGB
 90
        0
102
RTVSPost2010PropOp41
 70
     1
102
RTVSPost2010Prop42
 90
       50
102
RTVSPost2010PropOp42
 70
     1
102
RTVSPost2010Prop43
 90
        3
102
RTVSPost2010PropOp43
 70
     1
102
RTVSPost2010Prop44ColorIndex
 90
        5
102
RTVSPost2010Prop44ColorRGB
 90
      255
102
RTVSPost2010PropOp44
 70
     1
102
RTVSPost2010Prop45
280
     0
102
RTVSPost2010PropOp45
 70
     1
102
RTVSPost2010Prop46
 90
       50
102
RTVSPost2010PropOp46
 70
     1
102
RTVSPost2010Prop47
 90
       50
102
RTVSPost2010PropOp47
 70
     1
102
RTVSPost2010Prop48
 90
       50
102
RTVSPost2010PropOp48
 70
     1
102
RTVSPost2010Prop49
280
     0
102
RTVSPost2010PropOp49
 70
     1
102
RTVSPost2010Prop50
 90
       50
102
RTVSPost2010PropOp50
 70
     1
102
RTVSPost2010Prop51ColorIndex
 90
      256
102
RTVSPost2010Prop51ColorRGB
 90
-16777216
102
RTVSPost2010PropOp51
 70
     0
102
RTVSPost2010Prop52
140
1.0
102
RTVSPost2010PropOp52
 70
     0
102
RTVSPost2010Prop53
 90
        2
102
RTVSPost2010PropOp53
 70
     1
102
RTVSPost2010Prop54
  1
strokes_ogs.tif
102
RTVSPost2010PropOp54
 70
     1
102
RTVSPost2010Prop55
280
     0
102
RTVSPost2010PropOp55
 70
     1
102
RTVSPost2010Prop56
140
1.0
102
RTVSPost2010PropOp56
 70
     1
102
RTVSPost2010Prop57
140
1.0
102
RTVSPost2010PropOp57
 70
     1
  0
ENDSEC
  0
EOF
