  0
SECTION
  2
HEADER
  9
$ACADVER
  1
AC1015
  9
$ACADMAINTVER
 70
     6
  9
$DWGCODEPAGE
  3
ANSI_932
  9
$INSBASE
 10
1068.233954266984
 20
405.3066694028232
 30
0.0
  9
$EXTMIN
 10
100.5977369675563
 20
39.81810322818393
 30
0.0
  9
$EXTMAX
 10
705.2927820084919
 20
597.2944203500165
 30
0.0
  9
$LIMMIN
 10
0.0
 20
0.0
  9
$LIMMAX
 10
816.5000000000001
 20
565.0
  9
$ORTHOMODE
 70
     1
  9
$REGENMODE
 70
     1
  9
$FILLMODE
 70
     1
  9
$QTEXTMODE
 70
     0
  9
$MIRRTEXT
 70
     1
  9
$LTSCALE
 40
5.0
  9
$ATTMODE
 70
     1
  9
$TEXTSIZE
 40
6.0
  9
$TRACEWID
 40
0.05
  9
$TEXTSTYLE
  7
KANJI
  9
$CLAYER
  8
2
  9
$CELTYPE
  6
BYLAYER
  9
$CECOLOR
 62
   256
  9
$CELTSCALE
 40
1.0
  9
$DISPSILH
 70
     0
  9
$DIMSCALE
 40
2.0
  9
$DIMASZ
 40
2.0
  9
$DIMEXO
 40
0.5
  9
$DIMDLI
 40
0.0
  9
$DIMRND
 40
0.0
  9
$DIMDLE
 40
0.0
  9
$DIMEXE
 40
1.0
  9
$DIMTP
 40
0.0
  9
$DIMTM
 40
0.0
  9
$DIMTXT
 40
3.0
  9
$DIMCEN
 40
0.09
  9
$DIMTSZ
 40
0.0
  9
$DIMTOL
 70
     0
  9
$DIMLIM
 70
     0
  9
$DIMTIH
 70
     0
  9
$DIMTOH
 70
     0
  9
$DIMSE1
 70
     0
  9
$DIMSE2
 70
     0
  9
$DIMTAD
 70
     0
  9
$DIMZIN
 70
     8
  9
$DIMBLK
  1

  9
$DIMASO
 70
     0
  9
$DIMSHO
 70
     0
  9
$DIMPOST
  1

  9
$DIMAPOST
  1

  9
$DIMALT
 70
     0
  9
$DIMALTD
 70
     2
  9
$DIMALTF
 40
25.4
  9
$DIMLFAC
 40
1.0
  9
$DIMTOFL
 70
     1
  9
$DIMTVP
 40
1.0
  9
$DIMTIX
 70
     1
  9
$DIMSOXD
 70
     1
  9
$DIMSAH
 70
     0
  9
$DIMBLK1
  1

  9
$DIMBLK2
  1

  9
$DIMSTYLE
  2
STANDARD
  9
$DIMCLRD
 70
   256
  9
$DIMCLRE
 70
   256
  9
$DIMCLRT
 70
   256
  9
$DIMTFAC
 40
1.0
  9
$DIMGAP
 40
0.09
  9
$DIMJUST
 70
     0
  9
$DIMSD1
 70
     0
  9
$DIMSD2
 70
     0
  9
$DIMTOLJ
 70
     1
  9
$DIMTZIN
 70
     0
  9
$DIMALTZ
 70
     0
  9
$DIMALTTZ
 70
     0
  9
$DIMUPT
 70
     0
  9
$DIMDEC
 70
     1
  9
$DIMTDEC
 70
     4
  9
$DIMALTU
 70
     2
  9
$DIMALTTD
 70
     2
  9
$DIMTXSTY
  7
STANDARD
  9
$DIMAUNIT
 70
     0
  9
$DIMADEC
 70
     0
  9
$DIMALTRND
 40
0.0
  9
$DIMAZIN
 70
     0
  9
$DIMDSEP
 70
    46
  9
$DIMATFIT
 70
     3
  9
$DIMFRAC
 70
     0
  9
$DIMLDRBLK
  1

  9
$DIMLUNIT
 70
     2
  9
$DIMLWD
 70
    -2
  9
$DIMLWE
 70
    -2
  9
$DIMTMOVE
 70
     0
  9
$LUNITS
 70
     2
  9
$LUPREC
 70
     3
  9
$SKETCHINC
 40
0.1
  9
$FILLETRAD
 40
2.0
  9
$AUNITS
 70
     0
  9
$AUPREC
 70
     3
  9
$MENU
  1
C:\R13\WIN\SUPPORT\ACADFULL
  9
$ELEVATION
 40
0.0
  9
$PELEVATION
 40
0.0
  9
$THICKNESS
 40
0.0
  9
$LIMCHECK
 70
     0
  9
$CHAMFERA
 40
0.0
  9
$CHAMFERB
 40
0.0
  9
$CHAMFERC
 40
0.0
  9
$CHAMFERD
 40
0.0
  9
$SKPOLY
 70
     0
  9
$TDCREATE
 40
2457528.419466146
  9
$TDUCREATE
 40
2457528.044466146
  9
$TDUPDATE
 40
2457870.614013391
  9
$TDUUPDATE
 40
2457870.239013391
  9
$TDINDWG
 40
0.0058500463
  9
$TDUSRTIMER
 40
0.0058493403
  9
$USRTIMER
 70
     1
  9
$ANGBASE
 50
0.0
  9
$ANGDIR
 70
     0
  9
$PDMODE
 70
     0
  9
$PDSIZE
 40
0.0
  9
$PLINEWID
 40
0.0
  9
$SPLFRAME
 70
     0
  9
$SPLINETYPE
 70
     6
  9
$SPLINESEGS
 70
     8
  9
$HANDSEED
  5
552
  9
$SURFTAB1
 70
     6
  9
$SURFTAB2
 70
     6
  9
$SURFTYPE
 70
     6
  9
$SURFU
 70
     6
  9
$SURFV
 70
     6
  9
$UCSBASE
  2

  9
$UCSNAME
  2

  9
$UCSORG
 10
0.0
 20
0.0
 30
0.0
  9
$UCSXDIR
 10
1.0
 20
0.0
 30
0.0
  9
$UCSYDIR
 10
0.0
 20
1.0
 30
0.0
  9
$UCSORTHOREF
  2

  9
$UCSORTHOVIEW
 70
     0
  9
$UCSORGTOP
 10
0.0
 20
0.0
 30
0.0
  9
$UCSORGBOTTOM
 10
0.0
 20
0.0
 30
0.0
  9
$UCSORGLEFT
 10
0.0
 20
0.0
 30
0.0
  9
$UCSORGRIGHT
 10
0.0
 20
0.0
 30
0.0
  9
$UCSORGFRONT
 10
0.0
 20
0.0
 30
0.0
  9
$UCSORGBACK
 10
0.0
 20
0.0
 30
0.0
  9
$PUCSBASE
  2

  9
$PUCSNAME
  2

  9
$PUCSORG
 10
0.0
 20
0.0
 30
0.0
  9
$PUCSXDIR
 10
1.0
 20
0.0
 30
0.0
  9
$PUCSYDIR
 10
0.0
 20
1.0
 30
0.0
  9
$PUCSORTHOREF
  2

  9
$PUCSORTHOVIEW
 70
     0
  9
$PUCSORGTOP
 10
0.0
 20
0.0
 30
0.0
  9
$PUCSORGBOTTOM
 10
0.0
 20
0.0
 30
0.0
  9
$PUCSORGLEFT
 10
0.0
 20
0.0
 30
0.0
  9
$PUCSORGRIGHT
 10
0.0
 20
0.0
 30
0.0
  9
$PUCSORGFRONT
 10
0.0
 20
0.0
 30
0.0
  9
$PUCSORGBACK
 10
0.0
 20
0.0
 30
0.0
  9
$USERI1
 70
     0
  9
$USERI2
 70
     0
  9
$USERI3
 70
     0
  9
$USERI4
 70
     0
  9
$USERI5
 70
     0
  9
$USERR1
 40
0.0
  9
$USERR2
 40
0.0
  9
$USERR3
 40
0.0
  9
$USERR4
 40
2448925.372986111
  9
$USERR5
 40
0.04166667
  9
$WORLDVIEW
 70
     1
  9
$SHADEDGE
 70
     3
  9
$SHADEDIF
 70
    70
  9
$TILEMODE
 70
     1
  9
$MAXACTVP
 70
    16
  9
$PINSBASE
 10
0.0
 20
0.0
 30
0.0
  9
$PLIMCHECK
 70
     0
  9
$PEXTMIN
 10
1.000000000000000E+20
 20
1.000000000000000E+20
 30
1.000000000000000E+20
  9
$PEXTMAX
 10
-1.000000000000000E+20
 20
-1.000000000000000E+20
 30
-1.000000000000000E+20
  9
$PLIMMIN
 10
0.0
 20
0.0
  9
$PLIMMAX
 10
12.0
 20
9.0
  9
$UNITMODE
 70
     0
  9
$VISRETAIN
 70
     0
  9
$PLINEGEN
 70
     0
  9
$PSLTSCALE
 70
     0
  9
$TREEDEPTH
 70
  3020
  9
$CMLSTYLE
  2
STANDARD
  9
$CMLJUST
 70
     0
  9
$CMLSCALE
 40
1.0
  9
$PROXYGRAPHICS
 70
     1
  9
$MEASUREMENT
 70
     0
  9
$CELWEIGHT
370
    -1
  9
$ENDCAPS
280
     0
  9
$JOINSTYLE
280
     0
  9
$LWDISPLAY
290
     0
  9
$INSUNITS
 70
     0
  9
$HYPERLINKBASE
  1

  9
$STYLESHEET
  1

  9
$XEDIT
290
     1
  9
$CEPSNTYPE
380
     0
  9
$PSTYLEMODE
290
     1
  9
$FINGERPRINTGUID
  2
{4CD1E96B-E608-455E-A213-D17A19F2BC18}
  9
$VERSIONGUID
  2
{8D3381B0-2869-449F-8E41-864422808CBE}
  9
$EXTNAMES
290
     1
  9
$PSVPSCALE
 40
0.0
  9
$OLESTARTUP
290
     0
  0
ENDSEC
  0
SECTION
  2
CLASSES
  0
CLASS
  1
ACDBDICTIONARYWDFLT
  2
AcDbDictionaryWithDefault
  3
ObjectDBX Classes
 90
        0
280
     0
281
     0
  0
CLASS
  1
MATERIAL
  2
AcDbMaterial
  3
ObjectDBX Classes
 90
     1153
280
     0
281
     0
  0
CLASS
  1
SORTENTSTABLE
  2
AcDbSortentsTable
  3
ObjectDBX Classes
 90
        0
280
     0
281
     0
  0
CLASS
  1
SCALE
  2
AcDbScale
  3
ObjectDBX Classes
 90
     1153
280
     0
281
     0
  0
CLASS
  1
DICTIONARYVAR
  2
AcDbDictionaryVar
  3
ObjectDBX Classes
 90
        0
280
     0
281
     0
  0
CLASS
  1
VISUALSTYLE
  2
AcDbVisualStyle
  3
ObjectDBX Classes
 90
     4095
280
     0
281
     0
  0
CLASS
  1
MLEADERSTYLE
  2
AcDbMLeaderStyle
  3
ACDB_MLEADERSTYLE_CLASS
 90
     4095
280
     0
281
     0
  0
CLASS
  1
TABLESTYLE
  2
AcDbTableStyle
  3
ObjectDBX Classes
 90
     4095
280
     0
281
     0
  0
CLASS
  1
ACDBPLACEHOLDER
  2
AcDbPlaceHolder
  3
ObjectDBX Classes
 90
        0
280
     0
281
     0
  0
CLASS
  1
LAYOUT
  2
AcDbLayout
  3
ObjectDBX Classes
 90
        0
280
     0
281
     0
  0
ENDSEC
  0
SECTION
  2
TABLES
  0
TABLE
  2
VPORT
  5
2C
102
{ACAD_XDICTIONARY
360
517
102
}
330
0
100
AcDbSymbolTable
 70
     1
  0
VPORT
  5
31
330
2C
100
AcDbSymbolTableRecord
100
AcDbViewportTableRecord
  2
*ACTIVE
 70
     0
 10
0.0
 20
0.0
 11
1.0
 21
1.0
 12
675.5844915403491
 22
332.5744283669644
 13
0.0
 23
0.0
 14
1.0
 24
1.0
 15
50.0
 25
50.0
 16
0.0
 26
0.0
 36
1.0
 17
0.0
 27
0.0
 37
0.0
 40
710.1905381293866
 41
2.177611940298507
 42
50.0
 43
0.0
 44
0.0
 50
0.0
 51
0.0
 71
     0
 72
  5000
 73
     1
 74
     0
 75
     0
 76
     0
 77
     0
 78
     0
281
     0
 65
     1
110
0.0
120
0.0
130
0.0
111
1.0
121
0.0
131
0.0
112
0.0
122
1.0
132
0.0
 79
     0
146
0.0
1001
ACAD_NAV_VCDISPLAY
1070
     3
  0
ENDTAB
  0
TABLE
  2
LTYPE
  5
F
330
0
100
AcDbSymbolTable
 70
     2
  0
LTYPE
  5
10
330
F
100
AcDbSymbolTableRecord
100
AcDbLinetypeTableRecord
  2
BYBLOCK
 70
     0
  3

 72
    65
 73
     0
 40
0.0
  0
LTYPE
  5
11
330
F
100
AcDbSymbolTableRecord
100
AcDbLinetypeTableRecord
  2
BYLAYER
 70
     0
  3

 72
    65
 73
     0
 40
0.0
  0
LTYPE
  5
E
330
F
100
AcDbSymbolTableRecord
100
AcDbLinetypeTableRecord
  2
CONTINUOUS
 70
     0
  3
Solid line
 72
    65
 73
     0
 40
0.0
  0
LTYPE
  5
5C
330
F
100
AcDbSymbolTableRecord
100
AcDbLinetypeTableRecord
  2
CENTER
 70
     0
  3
____ _ ____ _ ____ _ ____ _ ____ _ ____ _ ____
 72
    65
 73
     4
 40
2.0
 49
1.25
 74
     0
 49
-0.25
 74
     0
 49
0.25
 74
     0
 49
-0.25
 74
     0
  0
ENDTAB
  0
TABLE
  2
LAYER
  5
2
102
{ACAD_XDICTIONARY
360
3
102
}
330
0
100
AcDbSymbolTable
 70
     9
  0
LAYER
  5
1F
102
{ACAD_XDICTIONARY
360
20
102
}
330
2
100
AcDbSymbolTableRecord
100
AcDbLayerTableRecord
  2
0
 70
     0
 62
     7
  6
CONTINUOUS
370
    -3
390
7
  0
LAYER
  5
D4
102
{ACAD_XDICTIONARY
360
D5
102
}
330
2
100
AcDbSymbolTableRecord
100
AcDbLayerTableRecord
  2
1
 70
     0
 62
     9
  6
CONTINUOUS
370
    -3
390
7
  0
LAYER
  5
1
102
{ACAD_XDICTIONARY
360
5
102
}
330
2
100
AcDbSymbolTableRecord
100
AcDbLayerTableRecord
  2
2
 70
     0
 62
     4
  6
CONTINUOUS
370
    -3
390
7
  0
LAYER
  5
CE
102
{ACAD_XDICTIONARY
360
CF
102
}
330
2
100
AcDbSymbolTableRecord
100
AcDbLayerTableRecord
  2
4
 70
     0
 62
     3
  6
CONTINUOUS
370
    -3
390
7
  0
LAYER
  5
59
102
{ACAD_XDICTIONARY
360
5A
102
}
330
2
100
AcDbSymbolTableRecord
100
AcDbLayerTableRecord
  2
L-CENTER
 70
     0
 62
     1
  6
CENTER
370
    -3
390
7
  0
LAYER
  5
61
102
{ACAD_XDICTIONARY
360
62
102
}
330
2
100
AcDbSymbolTableRecord
100
AcDbLayerTableRecord
  2
3
 70
     0
 62
     2
  6
CONTINUOUS
370
    -3
390
7
  0
LAYER
  5
C7
102
{ACAD_XDICTIONARY
360
C8
102
}
330
2
100
AcDbSymbolTableRecord
100
AcDbLayerTableRecord
  2
5
 70
     0
 62
     6
  6
CONTINUOUS
370
    -3
390
7
  0
LAYER
  5
49B
330
2
100
AcDbSymbolTableRecord
100
AcDbLayerTableRecord
  2
Defpoints
 70
     0
 62
     7
  6
CONTINUOUS
290
     0
370
    -3
390
7
  0
ENDTAB
  0
TABLE
  2
STYLE
  5
13
330
0
100
AcDbSymbolTable
 70
     2
  0
STYLE
  5
17
330
13
100
AcDbSymbolTableRecord
100
AcDbTextStyleTableRecord
  2
STANDARD
 70
     0
 40
0.0
 41
1.0
 50
0.0
 71
     0
 42
3.6
  3
TXT
  4

  0
STYLE
  5
12
330
13
100
AcDbSymbolTableRecord
100
AcDbTextStyleTableRecord
  2
KANJI
 70
     0
 40
0.0
 41
1.0
 50
0.0
 71
     0
 42
6.0
  3
TXT
  4
BIGFONT
  0
ENDTAB
  0
TABLE
  2
VIEW
  5
2A
330
0
100
AcDbSymbolTable
 70
     0
  0
ENDTAB
  0
TABLE
  2
UCS
  5
2B
330
0
100
AcDbSymbolTable
 70
     0
  0
ENDTAB
  0
TABLE
  2
APPID
  5
D
330
0
100
AcDbSymbolTable
 70
     5
  0
APPID
  5
C
330
D
100
AcDbSymbolTableRecord
100
AcDbRegAppTableRecord
  2
ACAD
 70
     0
  0
APPID
  5
32
330
D
100
AcDbSymbolTableRecord
100
AcDbRegAppTableRecord
  2
ACAD_NAV_VCDISPLAY
 70
     0
  0
APPID
  5
25
330
D
100
AcDbSymbolTableRecord
100
AcDbRegAppTableRecord
  2
ACAD_PSEXT
 70
     0
  0
APPID
  5
50A
330
D
100
AcDbSymbolTableRecord
100
AcDbRegAppTableRecord
  2
ACAD_MLEADERVER
 70
     0
  0
ENDTAB
  0
TABLE
  2
DIMSTYLE
  5
16
330
0
100
AcDbSymbolTable
 70
     1
100
AcDbDimStyleTable
  0
DIMSTYLE
105
15
330
16
100
AcDbSymbolTableRecord
100
AcDbDimStyleTableRecord
  2
STANDARD
 70
     0
178
     0
340
17
  0
ENDTAB
  0
TABLE
  2
BLOCK_RECORD
  5
1A
330
0
100
AcDbSymbolTable
 70
     0
  0
BLOCK_RECORD
  5
1B
102
{ACAD_XDICTIONARY
360
1C
102
}
330
1A
100
AcDbSymbolTableRecord
100
AcDbBlockTableRecord
  2
*MODEL_SPACE
340
23
  0
BLOCK_RECORD
  5
26
330
1A
100
AcDbSymbolTableRecord
100
AcDbBlockTableRecord
  2
*PAPER_SPACE
340
29
  0
ENDTAB
  0
ENDSEC
  0
SECTION
  2
BLOCKS
  0
BLOCK
  5
1E
330
1B
100
AcDbEntity
  8
0
100
AcDbBlockBegin
  2
*MODEL_SPACE
 70
     0
 10
0.0
 20
0.0
 30
0.0
  3
*MODEL_SPACE
  1

  0
ENDBLK
  5
22
330
1B
100
AcDbEntity
  8
0
100
AcDbBlockEnd
  0
BLOCK
  5
27
330
26
100
AcDbEntity
 67
     1
  8
0
100
AcDbBlockBegin
  2
*PAPER_SPACE
 70
     0
 10
0.0
 20
0.0
 30
0.0
  3
*PAPER_SPACE
  1

  0
ENDBLK
  5
28
330
26
100
AcDbEntity
 67
     1
  8
0
100
AcDbBlockEnd
  0
ENDSEC
  0
SECTION
  2
ENTITIES
  0
LINE
  5
1A2
330
1B
100
AcDbEntity
  8
4
 62
     3
100
AcDbLine
 10
305.8134712652951
 20
450.6149983122609
 30
0.0
 11
305.8134712652951
 21
448.6149983122609
 31
0.0
  0
LINE
  5
1A3
330
1B
100
AcDbEntity
  8
4
 62
     3
100
AcDbLine
 10
256.8134712652951
 20
450.6149983122609
 30
0.0
 11
256.8134712652951
 21
448.6149983122609
 31
0.0
  0
LINE
  5
1A4
330
1B
100
AcDbEntity
  8
4
 62
     3
100
AcDbLine
 10
218.3134712652951
 20
205.2578781505167
 30
0.0
 11
218.3134712652951
 21
208.8188235623604
 31
0.0
  0
ARC
  5
1A5
330
1B
100
AcDbEntity
  8
4
 62
     3
100
AcDbCircle
 10
216.3134712652951
 20
208.8188235623604
 30
0.0
 40
2.0
100
AcDbArc
 50
0.0
 51
105.8689209862303
  0
LINE
  5
1A6
330
1B
100
AcDbEntity
  8
4
 62
     3
100
AcDbLine
 10
558.9813090655248
 20
251.295824225794
 30
0.0
 11
560.3151309120558
 21
251.2259215848581
 31
0.0
  0
ARC
  5
1A7
330
1B
100
AcDbEntity
  8
4
 62
     3
100
AcDbCircle
 10
558.9289731092817
 20
250.2971946910394
 30
0.0
 40
1.0
100
AcDbArc
 50
87.00000000000742
 51
176.999999999998
  0
LINE
  5
1A8
330
1B
100
AcDbEntity
  8
4
 62
     3
100
AcDbLine
 10
557.8822541414308
 20
230.3246069918366
 30
0.0
 11
558.953715000426
 21
230.2684541076279
 31
0.0
  0
ARC
  5
1A9
330
1B
100
AcDbEntity
  8
4
 62
     3
100
AcDbCircle
 10
557.9345900976737
 20
231.3232365265912
 30
0.0
 40
1.0
100
AcDbArc
 50
177.0000000000012
 51
267.0000000000074
  0
LINE
  5
1AA
330
1B
100
AcDbEntity
  8
4
 62
     3
100
AcDbLine
 10
556.935960562919
 20
231.3755724828341
 30
0.0
 11
557.9303435745271
 21
250.3495306472824
 31
0.0
  0
ARC
  5
1AB
330
1B
100
AcDbEntity
  8
4
 62
     3
100
AcDbCircle
 10
302.8134712652951
 20
248.2578781505167
 30
0.0
 40
3.0
100
AcDbArc
 50
0.0
 51
90.0
  0
LINE
  5
1AC
330
1B
100
AcDbEntity
  8
4
 62
     3
100
AcDbLine
 10
296.8134772652951
 20
247.7578771505167
 30
0.0
 11
297.3134772652951
 21
247.7578771505167
 31
0.0
  0
ARC
  5
1AD
330
1B
100
AcDbEntity
  8
4
 62
     3
100
AcDbCircle
 10
297.3134772652951
 20
242.7578771505167
 30
0.0
 40
5.0
100
AcDbArc
 50
30.52252099999851
 51
90.0
  0
ARC
  5
1AE
330
1B
100
AcDbEntity
  8
4
 62
     3
100
AcDbCircle
 10
273.3134692652951
 20
247.2578791505167
 30
0.0
 40
0.5
100
AcDbArc
 50
90.0
 51
180.0
  0
LINE
  5
1AF
330
1B
100
AcDbEntity
  8
4
 62
     3
100
AcDbLine
 10
283.3134712652951
 20
244.4659781505167
 30
0.0
 11
283.3134712652951
 21
245.2578791505167
 31
0.0
  0
ARC
  5
1B0
330
1B
100
AcDbEntity
  8
4
 62
     3
100
AcDbCircle
 10
280.8134712652951
 20
245.2578791505167
 30
0.0
 40
2.5
100
AcDbArc
 50
0.0
 51
90.0
  0
LINE
  5
1B1
330
1B
100
AcDbEntity
  8
4
 62
     3
100
AcDbLine
 10
273.3134692652951
 20
247.7578791505167
 30
0.0
 11
280.8134712652951
 21
247.7578791505167
 31
0.0
  0
LINE
  5
1B2
330
1B
100
AcDbEntity
  8
4
 62
     3
100
AcDbLine
 10
260.8134932652951
 20
247.7578791505167
 30
0.0
 11
263.3134922652952
 21
247.7578791505167
 31
0.0
  0
ARC
  5
1B3
330
1B
100
AcDbEntity
  8
4
 62
     3
100
AcDbCircle
 10
263.3134922652952
 20
247.2578791505167
 30
0.0
 40
0.5
100
AcDbArc
 50
0.0
 51
90.0
  0
ARC
  5
1B4
330
1B
100
AcDbEntity
  8
4
 62
     3
100
AcDbCircle
 10
302.8134712652951
 20
233.2578811505167
 30
0.0
 40
3.0
100
AcDbArc
 50
270.0
 51
0.0
  0
LINE
  5
1B5
330
1B
100
AcDbEntity
  8
4
 62
     3
100
AcDbLine
 10
299.323883265295
 20
239.8185371505166
 30
0.0
 11
301.1576572652951
 21
241.6523111505167
 31
0.0
  0
LINE
  5
1B6
330
1B
100
AcDbEntity
  8
4
 62
     3
100
AcDbLine
 10
302.3134772652951
 20
234.2578771505167
 30
0.0
 11
302.3134772652951
 21
236.7578771505167
 31
0.0
  0
LINE
  5
1B7
330
1B
100
AcDbEntity
  8
4
 62
     3
100
AcDbLine
 10
300.3845432652951
 20
237.2578771505167
 30
0.0
 11
301.8134772652951
 21
237.2578771505167
 31
0.0
  0
ARC
  5
1B8
330
1B
100
AcDbEntity
  8
4
 62
     3
100
AcDbCircle
 10
301.8134772652951
 20
236.7578771505167
 30
0.0
 40
0.5
100
AcDbArc
 50
0.0
 51
90.0
  0
ARC
  5
1B9
330
1B
100
AcDbEntity
  8
4
 62
     3
100
AcDbCircle
 10
301.8134772652951
 20
234.2578771505167
 30
0.0
 40
0.5
100
AcDbArc
 50
270.0
 51
0.0
  0
ARC
  5
1BA
330
1B
100
AcDbEntity
  8
4
 62
     3
100
AcDbCircle
 10
300.3845432652951
 20
238.7578771505167
 30
0.0
 40
1.5
100
AcDbArc
 50
135.000006999999
 51
270.0
  0
LINE
  5
1BB
330
1B
100
AcDbEntity
  8
4
 62
     3
100
AcDbLine
 10
289.3134772652951
 20
239.5078791505167
 30
0.0
 11
289.3134772652951
 21
242.0078791505167
 31
0.0
  0
ARC
  5
1BC
330
1B
100
AcDbEntity
  8
4
 62
     3
100
AcDbCircle
 10
293.4421582652952
 20
241.0078791505167
 30
0.0
 40
1.5
100
AcDbArc
 50
315.000006999999
 51
90.0
  0
LINE
  5
1BD
330
1B
100
AcDbEntity
  8
4
 62
     3
100
AcDbLine
 10
291.9599232652951
 20
237.4043231505166
 30
0.0
 11
294.5028182652951
 21
239.9472191505167
 31
0.0
  0
LINE
  5
1BE
330
1B
100
AcDbEntity
  8
4
 62
     3
100
AcDbLine
 10
291.8134772652951
 20
237.0507701505167
 30
0.0
 11
291.8134772652951
 21
234.2578771505167
 31
0.0
  0
ARC
  5
1BF
330
1B
100
AcDbEntity
  8
4
 62
     3
100
AcDbCircle
 10
288.8134772652951
 20
239.5078791505167
 30
0.0
 40
0.5
100
AcDbArc
 50
270.0
 51
0.0
  0
ARC
  5
1C0
330
1B
100
AcDbEntity
  8
4
 62
     3
100
AcDbCircle
 10
292.3134772652951
 20
237.0507701505167
 30
0.0
 40
0.5
100
AcDbArc
 50
135.000006999999
 51
180.0
  0
ARC
  5
1C1
330
1B
100
AcDbEntity
  8
4
 62
     3
100
AcDbCircle
 10
292.3134772652951
 20
234.2578771505167
 30
0.0
 40
0.5
100
AcDbArc
 50
180.0
 51
270.0
  0
LINE
  5
1C2
330
1B
100
AcDbEntity
  8
4
 62
     3
100
AcDbLine
 10
292.3204272652951
 20
242.5078791505167
 30
0.0
 11
293.4421582652952
 21
242.5078791505167
 31
0.0
  0
ARC
  5
1C3
330
1B
100
AcDbEntity
  8
4
 62
     3
100
AcDbCircle
 10
288.8134772652951
 20
242.0078791505167
 30
0.0
 40
0.5
100
AcDbArc
 50
0.0
 51
90.0
  0
ARC
  5
1C4
330
1B
100
AcDbEntity
  8
4
 62
     3
100
AcDbCircle
 10
292.3204272652951
 20
243.0078791505167
 30
0.0
 40
0.5
100
AcDbArc
 50
176.8152309999994
 51
270.0
  0
LINE
  5
1C5
330
1B
100
AcDbEntity
  8
4
 62
     3
100
AcDbLine
 10
285.8134772652951
 20
239.5078791505167
 30
0.0
 11
285.8134772652951
 21
242.0078791505167
 31
0.0
  0
ARC
  5
1C6
330
1B
100
AcDbEntity
  8
4
 62
     3
100
AcDbCircle
 10
286.3134772652951
 20
239.5078791505167
 30
0.0
 40
0.5
100
AcDbArc
 50
180.0
 51
270.0
  0
ARC
  5
1C7
330
1B
100
AcDbEntity
  8
4
 62
     3
100
AcDbCircle
 10
286.3134772652951
 20
242.0078791505167
 30
0.0
 40
0.5
100
AcDbArc
 50
90.0
 51
180.0
  0
LINE
  5
1C8
330
1B
100
AcDbEntity
  8
4
 62
     3
100
AcDbLine
 10
288.8134772652951
 20
239.0078791505167
 30
0.0
 11
286.3134772652951
 21
239.0078791505167
 31
0.0
  0
LINE
  5
1C9
330
1B
100
AcDbEntity
  8
4
 62
     3
100
AcDbLine
 10
288.8134772652951
 20
242.5078791505167
 30
0.0
 11
286.3134772652951
 21
242.5078791505167
 31
0.0
  0
LINE
  5
1CA
330
1B
100
AcDbEntity
  8
4
 62
     3
100
AcDbLine
 10
292.3134772652951
 20
233.7578771505167
 30
0.0
 11
301.8134772652951
 21
233.7578771505167
 31
0.0
  0
ARC
  5
1CB
330
1B
100
AcDbEntity
  8
4
 62
     3
100
AcDbCircle
 10
273.3134692652951
 20
234.2578791505167
 30
0.0
 40
0.5
100
AcDbArc
 50
180.0
 51
270.0
  0
ARC
  5
1CC
330
1B
100
AcDbEntity
  8
4
 62
     3
100
AcDbCircle
 10
282.3134712652951
 20
240.7578791505167
 30
0.0
 40
1.5
100
AcDbArc
 50
112.0243130000021
 51
247.9756869999979
  0
LINE
  5
1CD
330
1B
100
AcDbEntity
  8
4
 62
     3
100
AcDbLine
 10
283.3134712652951
 20
237.0497801505167
 30
0.0
 11
283.3134712652951
 21
236.2578791505167
 31
0.0
  0
ARC
  5
1CE
330
1B
100
AcDbEntity
  8
4
 62
     3
100
AcDbCircle
 10
280.8134712652951
 20
236.2578791505167
 30
0.0
 40
2.5
100
AcDbArc
 50
270.0
 51
0.0
  0
ARC
  5
1CF
330
1B
100
AcDbEntity
  8
4
 62
     3
100
AcDbCircle
 10
280.8134712652951
 20
237.0497801505167
 30
0.0
 40
2.5
100
AcDbArc
 50
0.0
 51
67.97568699999826
  0
LINE
  5
1D0
330
1B
100
AcDbEntity
  8
4
 62
     3
100
AcDbLine
 10
273.3134692652951
 20
233.7578791505167
 30
0.0
 11
280.8134712652951
 21
233.7578791505167
 31
0.0
  0
LINE
  5
1D1
330
1B
100
AcDbEntity
  8
4
 62
     3
100
AcDbLine
 10
260.8134652652951
 20
233.7578781505167
 30
0.0
 11
269.8134652652951
 21
233.7578791505167
 31
0.0
  0
LINE
  5
1D2
330
1B
100
AcDbEntity
  8
4
 62
     3
100
AcDbLine
 10
264.3134672652951
 20
237.2578791505167
 30
0.0
 11
269.8134652652951
 21
237.2578791505167
 31
0.0
  0
LINE
  5
1D3
330
1B
100
AcDbEntity
  8
4
 62
     3
100
AcDbLine
 10
270.3134652652951
 20
234.2578791505167
 30
0.0
 11
270.3134652652951
 21
236.7578791505167
 31
0.0
  0
ARC
  5
1D4
330
1B
100
AcDbEntity
  8
4
 62
     3
100
AcDbCircle
 10
264.3134672652951
 20
237.7578791505167
 30
0.0
 40
0.5
100
AcDbArc
 50
180.0
 51
270.0
  0
ARC
  5
1D5
330
1B
100
AcDbEntity
  8
4
 62
     3
100
AcDbCircle
 10
269.8134652652951
 20
236.7578791505167
 30
0.0
 40
0.5
100
AcDbArc
 50
0.0
 51
90.0
  0
ARC
  5
1D6
330
1B
100
AcDbEntity
  8
4
 62
     3
100
AcDbCircle
 10
269.8134652652951
 20
234.2578791505167
 30
0.0
 40
0.5
100
AcDbArc
 50
270.0
 51
0.0
  0
ARC
  5
1D7
330
1B
100
AcDbEntity
  8
4
 62
     3
100
AcDbCircle
 10
296.8134772652951
 20
242.7578771505167
 30
0.0
 40
5.0
100
AcDbArc
 50
90.0
 51
176.8152310000004
  0
LINE
  5
1D8
330
1B
100
AcDbEntity
  8
4
 62
     3
100
AcDbLine
 10
263.8134652652951
 20
237.7578791505167
 30
0.0
 11
263.8134942652952
 21
247.2578791505167
 31
0.0
  0
LINE
  5
1D9
330
1B
100
AcDbEntity
  8
4
 62
     3
100
AcDbLine
 10
272.8134692652951
 20
234.2578791505167
 30
0.0
 11
272.8134692652951
 21
247.2578791505167
 31
0.0
  0
ARC
  5
1DA
330
1B
100
AcDbEntity
  8
4
 62
     3
100
AcDbCircle
 10
280.8134712652951
 20
244.4659781505167
 30
0.0
 40
2.5
100
AcDbArc
 50
292.0243130000017
 51
0.0
  0
LINE
  5
1DB
330
1B
100
AcDbEntity
  8
4
 62
     3
100
AcDbLine
 10
305.8134712652951
 20
248.2578781505167
 30
0.0
 11
305.8134712652951
 21
233.2578811505167
 31
0.0
  0
ARC
  5
1DC
330
1B
100
AcDbEntity
  8
4
 62
     3
100
AcDbCircle
 10
299.0363362652951
 20
243.7736311505167
 30
0.0
 40
3.0
100
AcDbArc
 50
315.0000070000004
 51
30.52252099999653
  0
ARC
  5
1DD
330
1B
100
AcDbEntity
  8
4
 62
     3
100
AcDbCircle
 10
259.8134712652951
 20
248.2578781505167
 30
0.0
 40
3.0
100
AcDbArc
 50
90.0
 51
180.0
  0
ARC
  5
1DE
330
1B
100
AcDbEntity
  8
4
 62
     3
100
AcDbCircle
 10
259.8134712652951
 20
233.2578811505167
 30
0.0
 40
3.0
100
AcDbArc
 50
180.0
 51
270.0
  0
LINE
  5
1DF
330
1B
100
AcDbEntity
  8
4
 62
     3
100
AcDbLine
 10
256.8134712652951
 20
248.2578781505167
 30
0.0
 11
256.8134712652951
 21
233.2578811505167
 31
0.0
  0
LINE
  5
1E0
330
1B
100
AcDbEntity
  8
4
 62
     3
100
AcDbLine
 10
260.313466265295
 20
234.2578801505167
 30
0.0
 11
260.3134942652952
 21
247.2578791505167
 31
0.0
  0
LINE
  5
1E1
330
1B
100
AcDbEntity
  8
4
 62
     3
100
AcDbLine
 10
259.8134712652951
 20
230.2578811505167
 30
0.0
 11
302.8134712652951
 21
230.2578811505167
 31
0.0
  0
LINE
  5
1E2
330
1B
100
AcDbEntity
  8
4
 62
     3
100
AcDbLine
 10
259.8134712652951
 20
251.2578781505167
 30
0.0
 11
302.8134712652951
 21
251.2578781505167
 31
0.0
  0
ARC
  5
1E3
330
1B
100
AcDbEntity
  8
4
 62
     3
100
AcDbCircle
 10
260.8134932652951
 20
247.2578791505167
 30
0.0
 40
0.5
100
AcDbArc
 50
90.0
 51
180.0
  0
ARC
  5
1E4
330
1B
100
AcDbEntity
  8
4
 62
     3
100
AcDbCircle
 10
260.813466265295
 20
234.2578791505167
 30
0.0
 40
0.5
100
AcDbArc
 50
179.9998800030328
 51
269.9998800000139
  0
ARC
  5
1E5
330
1B
100
AcDbEntity
  8
4
 62
     3
100
AcDbCircle
 10
233.8134712652951
 20
205.2578781505167
 30
0.0
 40
15.5
100
AcDbArc
 50
180.0
 51
0.0
  0
LINE
  5
1E6
330
1B
100
AcDbEntity
  8
4
 62
     3
100
AcDbLine
 10
249.3134712652951
 20
205.2578781505167
 30
0.0
 11
249.3134712652951
 21
208.8188235623604
 31
0.0
  0
ARC
  5
1E7
330
1B
100
AcDbEntity
  8
4
 62
     3
100
AcDbCircle
 10
251.3134712652951
 20
208.8188235623604
 30
0.0
 40
2.0
100
AcDbArc
 50
74.1310790137697
 51
180.0
  0
LINE
  5
1F1
330
1B
100
AcDbEntity
  8
4
100
AcDbLine
 10
603.8626845156118
 20
259.7578781505167
 30
0.0
 11
603.8626845156118
 21
261.7578781505167
 31
0.0
  0
LINE
  5
1F2
330
1B
100
AcDbEntity
  8
4
100
AcDbLine
 10
602.1878805156118
 20
261.7578781505167
 30
0.0
 11
602.1878805156118
 21
265.7578781505167
 31
0.0
  0
LINE
  5
1F3
330
1B
100
AcDbEntity
  8
4
100
AcDbLine
 10
578.8626845156118
 20
259.7578781505167
 30
0.0
 11
578.8626845156118
 21
261.7578781505167
 31
0.0
  0
LINE
  5
1F4
330
1B
100
AcDbEntity
  8
4
100
AcDbLine
 10
580.5372445156117
 20
261.7578781505167
 30
0.0
 11
580.5372445156117
 21
265.7578781505167
 31
0.0
  0
LINE
  5
1F5
330
1B
100
AcDbEntity
  8
4
100
AcDbLine
 10
603.8626845156118
 20
259.7578781505167
 30
0.0
 11
578.8626845156118
 21
259.7578781505167
 31
0.0
  0
LINE
  5
1F6
330
1B
100
AcDbEntity
  8
4
100
AcDbLine
 10
603.8626845156118
 20
261.7578781505167
 30
0.0
 11
578.8626845156118
 21
261.7578781505167
 31
0.0
  0
LINE
  5
1F7
330
1B
100
AcDbEntity
  8
4
100
AcDbLine
 10
602.1878805156118
 20
265.7578781505167
 30
0.0
 11
580.5372445156117
 21
265.7578781505167
 31
0.0
  0
LINE
  5
200
330
1B
100
AcDbEntity
  8
4
 62
     3
100
AcDbLine
 10
605.3626845156118
 20
258.2578781505167
 30
0.0
 11
605.3626845156118
 21
257.8424301505167
 31
0.0
  0
ARC
  5
201
330
1B
100
AcDbEntity
  8
4
 62
     3
100
AcDbCircle
 10
606.3626845156118
 20
257.8424301505167
 30
0.0
 40
1.0
100
AcDbArc
 50
180.0
 51
266.8270250000029
  0
ARC
  5
202
330
1B
100
AcDbEntity
  8
4
 62
     3
100
AcDbCircle
 10
620.1269925156118
 20
253.7097771505167
 30
0.0
 40
2.0
100
AcDbArc
 50
6.524408999999578
 51
83.83860399999942
  0
LINE
  5
203
330
1B
100
AcDbEntity
  8
4
 62
     3
100
AcDbLine
 10
577.3626845156118
 20
258.2578781505167
 30
0.0
 11
577.3626845156118
 21
257.8424301505167
 31
0.0
  0
ARC
  5
204
330
1B
100
AcDbEntity
  8
4
 62
     3
100
AcDbCircle
 10
576.3626845156118
 20
257.8424301505167
 30
0.0
 40
1.0
100
AcDbArc
 50
273.1729749999971
 51
0.0
  0
LINE
  5
205
330
1B
100
AcDbEntity
  8
4
100
AcDbLine
 10
602.8626845156118
 20
258.2578781505167
 30
0.0
 11
579.8626845156118
 21
258.2578781505167
 31
0.0
  0
LINE
  5
206
330
1B
100
AcDbEntity
  8
4
 62
     3
100
AcDbLine
 10
605.3626845156118
 20
258.2578781505167
 30
0.0
 11
577.3626845156118
 21
258.2578781505167
 31
0.0
  0
ARC
  5
207
330
1B
100
AcDbEntity
  8
4
 62
     3
100
AcDbCircle
 10
624.8165555156118
 20
228.2578781505167
 30
0.0
 40
1.0
100
AcDbArc
 50
181.0571779999997
 51
270.0
  0
LINE
  5
208
330
1B
100
AcDbEntity
  8
4
 62
     3
100
AcDbLine
 10
625.3626845156118
 20
226.2578781505167
 30
0.0
 11
625.3626845156118
 21
226.2578781505167
 31
0.0
  0
LINE
  5
209
330
1B
100
AcDbEntity
  8
4
 62
     3
100
AcDbLine
 10
625.3626845156118
 20
226.7578781505167
 30
0.0
 11
625.3626845156118
 21
226.2578781505167
 31
0.0
  0
LINE
  5
20A
330
1B
100
AcDbEntity
  8
4
 62
     3
100
AcDbLine
 10
624.8165555156118
 20
227.2578781505167
 30
0.0
 11
624.8626845156118
 21
227.2578781505167
 31
0.0
  0
ARC
  5
20B
330
1B
100
AcDbEntity
  8
4
 62
     3
100
AcDbCircle
 10
624.8626845156118
 20
226.7578781505167
 30
0.0
 40
0.5
100
AcDbArc
 50
0.0
 51
90.0
  0
LINE
  5
20C
330
1B
100
AcDbEntity
  8
4
100
AcDbLine
 10
588.8626845156118
 20
234.2578781505167
 30
0.0
 11
593.8626845156118
 21
234.2578781505167
 31
0.0
  0
LINE
  5
20D
330
1B
100
AcDbEntity
  8
4
100
AcDbLine
 10
593.8626845156118
 20
229.2578781505167
 30
0.0
 11
588.8626845156118
 21
229.2578781505167
 31
0.0
  0
LINE
  5
20E
330
1B
100
AcDbEntity
  8
4
100
AcDbLine
 10
593.8626845156118
 20
234.2578781505167
 30
0.0
 11
593.8626845156118
 21
229.2578781505167
 31
0.0
  0
LINE
  5
20F
330
1B
100
AcDbEntity
  8
4
100
AcDbLine
 10
588.8626845156118
 20
234.2578781505167
 30
0.0
 11
588.8626845156118
 21
229.2578781505167
 31
0.0
  0
ARC
  5
210
330
1B
100
AcDbEntity
  8
4
 62
     3
100
AcDbCircle
 10
353.8626845156118
 20
223.2578781505167
 30
0.0
 40
270.0
100
AcDbArc
 50
0.9972242662842217
 51
6.524408999999913
  0
LINE
  5
211
330
1B
100
AcDbEntity
  8
4
 62
     3
100
AcDbLine
 10
626.3626845156118
 20
225.2578781505167
 30
0.0
 11
630.3626845156118
 21
225.2578781505167
 31
0.0
  0
LINE
  5
212
330
1B
100
AcDbEntity
  8
4
100
AcDbLine
 10
639.1626845156118
 20
225.2578781505167
 30
0.0
 11
630.3626845156118
 21
225.2578781505167
 31
0.0
  0
ARC
  5
213
330
1B
100
AcDbEntity
  8
4
100
AcDbCircle
 10
639.1626845156118
 20
224.2578781505167
 30
0.0
 40
1.0
100
AcDbArc
 50
0.0
 51
90.0
  0
LINE
  5
214
330
1B
100
AcDbEntity
  8
4
100
AcDbLine
 10
646.4626845156117
 20
214.7277324147212
 30
0.0
 11
640.1626845156118
 21
214.7277324147212
 31
0.0
  0
LINE
  5
215
330
1B
100
AcDbEntity
  8
2
100
AcDbLine
 10
640.1626845156118
 20
210.4777324147212
 30
0.0
 11
641.4626845156117
 21
211.7777324147212
 31
0.0
  0
LINE
  5
216
330
1B
100
AcDbEntity
  8
4
100
AcDbLine
 10
646.4626845156117
 20
206.2277324147212
 30
0.0
 11
640.1626845156118
 21
206.2277324147212
 31
0.0
  0
LINE
  5
217
330
1B
100
AcDbEntity
  8
2
100
AcDbLine
 10
640.1626845156118
 20
208.6392547836363
 30
0.0
 11
641.4626845156117
 21
209.9392547836363
 31
0.0
  0
LINE
  5
218
330
1B
100
AcDbEntity
  8
4
100
AcDbLine
 10
641.4626845156117
 20
206.2277324147212
 30
0.0
 11
641.4626845156117
 21
214.7277324147212
 31
0.0
  0
LINE
  5
219
330
1B
100
AcDbEntity
  8
4
100
AcDbLine
 10
646.4626845156117
 20
206.2277324147212
 30
0.0
 11
646.4626845156117
 21
214.7277324147212
 31
0.0
  0
LINE
  5
21A
330
1B
100
AcDbEntity
  8
L-CENTER
 48
2.0
100
AcDbLine
 10
648.6364559591461
 20
210.4777324147212
 30
0.0
 11
622.6041278558191
 21
210.4777324147212
 31
0.0
  0
ARC
  5
21B
330
1B
100
AcDbEntity
  8
4
100
AcDbCircle
 10
591.3626845156118
 20
223.2578781505167
 30
0.0
 40
8.999946000000001
100
AcDbArc
 50
106.1277199999998
 51
73.87228000000022
  0
ARC
  5
21C
330
1B
100
AcDbEntity
  8
4
 62
     3
100
AcDbCircle
 10
626.3626845156118
 20
226.2578781505167
 30
0.0
 40
1.0
100
AcDbArc
 50
180.0
 51
270.0
  0
ARC
  5
21D
330
1B
100
AcDbEntity
  8
4
 62
     3
100
AcDbCircle
 10
562.5983755156117
 20
253.7097771505167
 30
0.0
 40
2.0
100
AcDbArc
 50
96.16139600000058
 51
173.4755910000004
  0
ARC
  5
21E
330
1B
100
AcDbEntity
  8
4
 62
     3
100
AcDbCircle
 10
557.9088135156119
 20
228.2578781505167
 30
0.0
 40
1.0
100
AcDbArc
 50
270.0
 51
358.9428220000003
  0
LINE
  5
21F
330
1B
100
AcDbEntity
  8
4
 62
     3
100
AcDbLine
 10
557.9088135156119
 20
227.2578781505167
 30
0.0
 11
557.8626815156117
 21
227.2578781505167
 31
0.0
  0
LINE
  5
220
330
1B
100
AcDbEntity
  8
4
 62
     3
100
AcDbLine
 10
557.3626785156118
 20
226.2578781505167
 30
0.0
 11
557.3626845156118
 21
226.7578781505167
 31
0.0
  0
ARC
  5
221
330
1B
100
AcDbEntity
  8
4
 62
     3
100
AcDbCircle
 10
557.8626815156117
 20
226.7578781505167
 30
0.0
 40
0.5
100
AcDbArc
 50
90.0
 51
180.0
  0
ARC
  5
222
330
1B
100
AcDbEntity
  8
4
 62
     3
100
AcDbCircle
 10
828.8626845156118
 20
223.2578781505167
 30
0.0
 40
270.0
100
AcDbArc
 50
173.4755910000001
 51
178.9428219999999
  0
LINE
  5
224
330
1B
100
AcDbEntity
  8
4
 62
     3
100
AcDbLine
 10
556.3626815156117
 20
225.2578781505167
 30
0.0
 11
551.3626845156118
 21
225.2578781505167
 31
0.0
  0
ARC
  5
225
330
1B
100
AcDbEntity
  8
4
 62
     3
100
AcDbCircle
 10
551.3626845156118
 20
224.2578781505167
 30
0.0
 40
1.0
100
AcDbArc
 50
90.00000299999769
 51
180.0000029575587
  0
ARC
  5
22D
330
1B
100
AcDbEntity
  8
4
 62
     3
100
AcDbCircle
 10
556.3626815156117
 20
226.2578781505167
 30
0.0
 40
1.0
100
AcDbArc
 50
270.0
 51
0.0
  0
ARC
  5
22E
330
1B
100
AcDbEntity
  8
4
 62
     3
100
AcDbCircle
 10
591.3626845156118
 20
-12.74212184948334
 30
0.0
 40
270.0
100
AcDbArc
 50
83.83860399999999
 51
96.16139600000001
  0
LINE
  5
22F
330
1B
100
AcDbEntity
  8
L-CENTER
 48
2.0
100
AcDbLine
 10
554.1539652611259
 20
223.2578781505167
 30
0.0
 11
628.5714037700977
 21
223.2578781505167
 31
0.0
  0
CIRCLE
  5
230
330
1B
100
AcDbEntity
  8
4
 62
     3
100
AcDbCircle
 10
591.3626845156118
 20
223.2578781505167
 30
0.0
 40
23.5
  0
LINE
  5
232
330
1B
100
AcDbEntity
  8
4
100
AcDbLine
 10
579.8626845156118
 20
258.2578781505167
 30
0.0
 11
579.8626845156118
 21
259.7578781505167
 31
0.0
  0
LINE
  5
233
330
1B
100
AcDbEntity
  8
4
100
AcDbLine
 10
602.8626845156118
 20
258.2578781505167
 30
0.0
 11
602.8626845156118
 21
259.7578781505167
 31
0.0
  0
LINE
  5
236
330
1B
100
AcDbEntity
  8
4
100
AcDbLine
 10
237.3134712652951
 20
592.1149983122609
 30
0.0
 11
245.813471265295
 21
592.1149983122609
 31
0.0
  0
LINE
  5
237
330
1B
100
AcDbEntity
  8
4
100
AcDbLine
 10
245.813471265295
 20
592.1149983122609
 30
0.0
 11
244.813471265295
 21
593.1149983122609
 31
0.0
  0
LINE
  5
238
330
1B
100
AcDbEntity
  8
4
100
AcDbLine
 10
221.813471265295
 20
592.1149983122609
 30
0.0
 11
222.813471265295
 21
593.1149983122609
 31
0.0
  0
LINE
  5
239
330
1B
100
AcDbEntity
  8
4
100
AcDbLine
 10
222.813471265295
 20
593.1149983122609
 30
0.0
 11
244.813471265295
 21
593.1149983122609
 31
0.0
  0
LINE
  5
23A
330
1B
100
AcDbEntity
  8
4
100
AcDbLine
 10
221.813471265295
 20
592.1149983122609
 30
0.0
 11
230.313471265295
 21
592.1149983122609
 31
0.0
  0
ARC
  5
23B
330
1B
100
AcDbEntity
  8
4
 62
     3
100
AcDbCircle
 10
338.3134712652951
 20
540.1149983122609
 30
0.0
 40
3.0
100
AcDbArc
 50
0.0
 51
90.0
  0
ARC
  5
23C
330
1B
100
AcDbEntity
  8
4
 62
     3
100
AcDbCircle
 10
306.2151372652951
 20
540.1149983122609
 30
0.0
 40
3.0
100
AcDbArc
 50
90.0
 51
178.0908479999999
  0
LINE
  5
23D
330
1B
100
AcDbEntity
  8
4
 62
     3
100
AcDbLine
 10
306.2151372652951
 20
543.1149983122609
 30
0.0
 11
338.3134712652951
 21
543.1149983122609
 31
0.0
  0
ARC
  5
23E
330
1B
100
AcDbEntity
  8
4
100
AcDbCircle
 10
310.8134712652949
 20
530.9149983122609
 30
0.0
 40
1.0
100
AcDbArc
 50
0.0
 51
90.0
  0
LINE
  5
23F
330
1B
100
AcDbEntity
  8
4
100
AcDbLine
 10
311.0634712652951
 20
538.2149983122608
 30
0.0
 11
311.0634712652951
 21
531.9149983122609
 31
0.0
  0
LINE
  5
240
330
1B
100
AcDbEntity
  8
4
100
AcDbLine
 10
302.5634712652951
 20
538.2149983122608
 30
0.0
 11
302.5634712652951
 21
531.914998312261
 31
0.0
  0
LINE
  5
241
330
1B
100
AcDbEntity
  8
4
100
AcDbLine
 10
302.5634712652951
 20
533.214998312261
 30
0.0
 11
311.0634712652951
 21
533.214998312261
 31
0.0
  0
LINE
  5
242
330
1B
100
AcDbEntity
  8
4
100
AcDbLine
 10
302.5634712652951
 20
538.2149983122608
 30
0.0
 11
311.0634712652951
 21
538.214998312261
 31
0.0
  0
LINE
  5
243
330
1B
100
AcDbEntity
  8
4
100
AcDbLine
 10
311.8134712652952
 20
522.1149983122608
 30
0.0
 11
311.8134712652952
 21
517.1149983122608
 31
0.0
  0
LINE
  5
244
330
1B
100
AcDbEntity
  8
4
100
AcDbLine
 10
311.813471265295
 20
530.9149983122609
 30
0.0
 11
311.813471265295
 21
522.4149983122609
 31
0.0
  0
CIRCLE
  5
245
330
1B
100
AcDbEntity
  8
4
 62
     3
100
AcDbCircle
 10
328.8134712652951
 20
528.1149983122609
 30
0.0
 40
5.5
  0
LINE
  5
246
330
1B
100
AcDbEntity
  8
L-CENTER
 48
2.0
100
AcDbLine
 10
317.8554482652951
 20
528.1149983122609
 30
0.0
 11
339.7714942652951
 21
528.1149983122609
 31
0.0
  0
LINE
  5
247
330
1B
100
AcDbEntity
  8
4
 62
     3
100
AcDbLine
 10
303.2187142660583
 20
540.2723023492191
 30
0.0
 11
303.1501374816404
 21
538.2149983122608
 31
0.0
  0
LINE
  5
248
330
1B
100
AcDbEntity
  8
L-CENTER
 48
2.0
100
AcDbLine
 10
328.8134712652951
 20
517.1569753122609
 30
0.0
 11
328.8134712652951
 21
539.073021312261
 31
0.0
  0
LINE
  5
249
330
1B
100
AcDbEntity
  8
L-CENTER
 48
2.0
100
AcDbLine
 10
306.8134712652951
 20
539.32504438452
 30
0.0
 11
306.8134712652951
 21
515.6935789883444
 31
0.0
  0
LINE
  5
24A
330
1B
100
AcDbEntity
  8
4
100
AcDbLine
 10
363.8134712652951
 20
491.1149983122609
 30
0.0
 11
362.8134712652951
 21
492.1149983122609
 31
0.0
  0
ARC
  5
24B
330
1B
100
AcDbEntity
  8
4
100
AcDbCircle
 10
334.3134712652951
 20
483.1149983122609
 30
0.0
 40
2.5
100
AcDbArc
 50
90.0
 51
270.0
  0
LINE
  5
24C
330
1B
100
AcDbEntity
  8
4
100
AcDbLine
 10
363.8134712652951
 20
480.6149983122609
 30
0.0
 11
334.313471265295
 21
480.6149983122609
 31
0.0
  0
LINE
  5
24D
330
1B
100
AcDbEntity
  8
4
100
AcDbLine
 10
363.8134712652951
 20
485.6149983122608
 30
0.0
 11
334.313471265295
 21
485.6149983122609
 31
0.0
  0
LINE
  5
24E
330
1B
100
AcDbEntity
  8
4
100
AcDbLine
 10
363.8134712652951
 20
491.1149983122609
 30
0.0
 11
363.8134712652951
 21
475.1149983122609
 31
0.0
  0
LINE
  5
24F
330
1B
100
AcDbEntity
  8
4
100
AcDbLine
 10
362.8134712652951
 20
485.6149983122609
 30
0.0
 11
362.8134712652951
 21
492.1149983122609
 31
0.0
  0
LINE
  5
250
330
1B
100
AcDbEntity
  8
4
100
AcDbLine
 10
314.8134712652951
 20
493.1149983122609
 30
0.0
 11
328.8134712652951
 21
493.1149983122609
 31
0.0
  0
LINE
  5
251
330
1B
100
AcDbEntity
  8
4
100
AcDbLine
 10
314.8134712652951
 20
506.6149983122609
 30
0.0
 11
313.8134712652951
 21
506.6149983122609
 31
0.0
  0
LINE
  5
252
330
1B
100
AcDbEntity
  8
4
100
AcDbLine
 10
328.8134712652951
 20
492.1149983122609
 30
0.0
 11
362.8134712652951
 21
492.1149983122609
 31
0.0
  0
LINE
  5
253
330
1B
100
AcDbEntity
  8
4
100
AcDbLine
 10
328.8134712652951
 20
473.1149983122609
 30
0.0
 11
314.8134712652951
 21
473.1149983122609
 31
0.0
  0
LINE
  5
254
330
1B
100
AcDbEntity
  8
4
100
AcDbLine
 10
314.8134712652951
 20
459.6149983122609
 30
0.0
 11
313.8134712652951
 21
459.6149983122609
 31
0.0
  0
LINE
  5
255
330
1B
100
AcDbEntity
  8
4
100
AcDbLine
 10
311.813471265295
 20
449.1149983122609
 30
0.0
 11
311.813471265295
 21
442.1149983122609
 31
0.0
  0
LINE
  5
256
330
1B
100
AcDbEntity
  8
4
100
AcDbLine
 10
328.8134712652951
 20
474.1149983122609
 30
0.0
 11
362.8134712652951
 21
474.1149983122609
 31
0.0
  0
LINE
  5
257
330
1B
100
AcDbEntity
  8
4
100
AcDbLine
 10
314.8134712652951
 20
459.6149983122609
 30
0.0
 11
314.8134712652951
 21
506.6149983122609
 31
0.0
  0
LINE
  5
258
330
1B
100
AcDbEntity
  8
4
100
AcDbLine
 10
328.8134712652951
 20
493.1149983122609
 30
0.0
 11
328.8134712652951
 21
473.1149983122609
 31
0.0
  0
LINE
  5
259
330
1B
100
AcDbEntity
  8
4
100
AcDbLine
 10
362.8134712652951
 20
474.1149983122609
 30
0.0
 11
362.8134712652951
 21
480.6149983122609
 31
0.0
  0
LINE
  5
25A
330
1B
100
AcDbEntity
  8
4
100
AcDbLine
 10
362.8134712652951
 20
474.1149983122609
 30
0.0
 11
363.8134712652951
 21
475.1149983122609
 31
0.0
  0
LINE
  5
25B
330
1B
100
AcDbEntity
  8
4
100
AcDbLine
 10
311.8134712652952
 20
515.6149983122609
 30
0.0
 11
311.813471265295
 21
450.6149983122609
 31
0.0
  0
LINE
  5
25C
330
1B
100
AcDbEntity
  8
4
100
AcDbLine
 10
313.8134712652951
 20
517.1149983122609
 30
0.0
 11
313.8134712652951
 21
449.1149983122609
 31
0.0
  0
LINE
  5
25D
330
1B
100
AcDbEntity
  8
4
 62
     3
100
AcDbLine
 10
341.3134712652951
 20
540.1149983122609
 30
0.0
 11
341.3134712652951
 21
492.1149983122609
 31
0.0
  0
ARC
  5
25E
330
1B
100
AcDbEntity
  8
4
100
AcDbCircle
 10
233.8134712652952
 20
559.614998312261
 30
0.0
 40
3.5
100
AcDbArc
 50
180.0
 51
0.0
  0
LINE
  5
25F
330
1B
100
AcDbEntity
  8
4
100
AcDbLine
 10
257.313471265295
 20
541.0149983122609
 30
0.0
 11
257.3134712652951
 21
540.0149983122608
 31
0.0
  0
ARC
  5
260
330
1B
100
AcDbEntity
  8
4
100
AcDbCircle
 10
262.9816542121285
 20
539.0149983122608
 30
0.0
 40
1.0
100
AcDbArc
 50
10.49147701233408
 51
90.0
  0
LINE
  5
261
330
1B
100
AcDbEntity
  8
4
100
AcDbLine
 10
246.313471265295
 20
541.0149983122609
 30
0.0
 11
246.313471265295
 21
553.1149983122609
 31
0.0
  0
ARC
  5
262
330
1B
100
AcDbEntity
  8
4
100
AcDbCircle
 10
246.313471265295
 20
553.614998312261
 30
0.0
 40
0.5
100
AcDbArc
 50
180.0
 51
270.0
  0
LINE
  5
263
330
1B
100
AcDbEntity
  8
4
100
AcDbLine
 10
246.313471265295
 20
553.1149983122609
 30
0.0
 11
246.313471265295
 21
553.1149983122609
 31
0.0
  0
ARC
  5
264
330
1B
100
AcDbEntity
  8
4
100
AcDbCircle
 10
204.6452883184613
 20
539.0149983122608
 30
0.0
 40
1.0
100
AcDbArc
 50
90.0
 51
169.5085229876659
  0
LINE
  5
265
330
1B
100
AcDbEntity
  8
4
100
AcDbLine
 10
210.3134712652951
 20
541.0149983122608
 30
0.0
 11
210.3134712652951
 21
540.0149983122608
 31
0.0
  0
LINE
  5
266
330
1B
100
AcDbEntity
  8
4
100
AcDbLine
 10
221.313471265295
 20
541.0149983122608
 30
0.0
 11
221.313471265295
 21
553.1149983122609
 31
0.0
  0
ARC
  5
267
330
1B
100
AcDbEntity
  8
4
100
AcDbCircle
 10
221.3134712652952
 20
553.614998312261
 30
0.0
 40
0.5
100
AcDbArc
 50
270.0
 51
0.0
  0
LINE
  5
268
330
1B
100
AcDbEntity
  8
4
100
AcDbLine
 10
221.313471265295
 20
553.1149983122609
 30
0.0
 11
221.3134712652951
 21
553.1149983122609
 31
0.0
  0
LINE
  5
269
330
1B
100
AcDbEntity
  8
4
100
AcDbLine
 10
204.6452883184614
 20
540.0149983122608
 30
0.0
 11
262.9816542121287
 21
540.0149983122608
 31
0.0
  0
LINE
  5
26A
330
1B
100
AcDbEntity
  8
4
100
AcDbLine
 10
210.3134712652951
 20
541.0149983122607
 30
0.0
 11
257.313471265295
 21
541.0149983122609
 31
0.0
  0
LINE
  5
26B
330
1B
100
AcDbEntity
  8
4
100
AcDbLine
 10
221.313471265295
 20
553.1149983122609
 30
0.0
 11
246.313471265295
 21
553.1149983122609
 31
0.0
  0
LINE
  5
26C
330
1B
100
AcDbEntity
  8
4
100
AcDbLine
 10
266.0634716325926
 20
532.8535544873323
 30
0.0
 11
265.190743990602
 21
532.9294438475051
 31
0.0
  0
ARC
  5
26D
330
1B
100
AcDbEntity
  8
4
100
AcDbCircle
 10
267.0029129222841
 20
533.7756375387164
 30
0.0
 40
2.0
100
AcDbArc
 50
190.4914770123308
 51
202.4563817741526
  0
LINE
  5
26E
330
1B
100
AcDbEntity
  8
4
100
AcDbLine
 10
276.8568676459253
 20
531.9149983122609
 30
0.0
 11
274.5634716325926
 21
532.1144240525507
 31
0.0
  0
LINE
  5
26F
330
1B
100
AcDbEntity
  8
4
100
AcDbLine
 10
266.0634716325926
 20
538.2149983122608
 30
0.0
 11
274.5634716325926
 21
538.214998312261
 31
0.0
  0
LINE
  5
270
330
1B
100
AcDbEntity
  8
4
100
AcDbLine
 10
266.0634716325926
 20
533.214998312261
 30
0.0
 11
274.5634716325926
 21
533.214998312261
 31
0.0
  0
LINE
  5
271
330
1B
100
AcDbEntity
  8
4
100
AcDbLine
 10
274.5634716325926
 20
538.2149983122608
 30
0.0
 11
274.5634716325926
 21
531.914998312261
 31
0.0
  0
ARC
  5
272
330
1B
100
AcDbEntity
  8
4
100
AcDbCircle
 10
267.0029129222843
 20
533.7756375387166
 30
0.0
 40
2.0
100
AcDbArc
 50
190.4914770123308
 51
241.9838354828969
  0
LINE
  5
273
330
1B
100
AcDbEntity
  8
4
100
AcDbLine
 10
266.0634716325926
 20
538.2149983122608
 30
0.0
 11
266.0634716325926
 21
531.914998312261
 31
0.0
  0
ARC
  5
274
330
1B
100
AcDbEntity
  8
4
100
AcDbCircle
 10
200.6240296083059
 20
533.7756375387166
 30
0.0
 40
2.0
100
AcDbArc
 50
298.0161645171038
 51
349.5085229876692
  0
LINE
  5
275
330
1B
100
AcDbEntity
  8
4
100
AcDbLine
 10
201.5634708979976
 20
538.2149983122608
 30
0.0
 11
201.5634708979976
 21
531.914998312261
 31
0.0
  0
LINE
  5
276
330
1B
100
AcDbEntity
  8
4
  6
Continuous
 62
     3
100
AcDbLine
 10
190.7700748846848
 20
531.9149983122609
 30
0.0
 11
193.0634708979976
 21
532.1144240525488
 31
0.0
  0
LINE
  5
277
330
1B
100
AcDbEntity
  8
4
100
AcDbLine
 10
193.0634708979976
 20
538.2149983122608
 30
0.0
 11
193.0634708979976
 21
531.914998312261
 31
0.0
  0
LINE
  5
278
330
1B
100
AcDbEntity
  8
4
100
AcDbLine
 10
201.5634708979976
 20
533.214998312261
 30
0.0
 11
193.0634708979976
 21
533.214998312261
 31
0.0
  0
LINE
  5
279
330
1B
100
AcDbEntity
  8
4
100
AcDbLine
 10
201.5634708979976
 20
538.2149983122608
 30
0.0
 11
193.0634708979976
 21
538.214998312261
 31
0.0
  0
LINE
  5
27A
330
1B
100
AcDbEntity
  8
L-CENTER
 48
2.0
100
AcDbLine
 10
197.3134708979976
 20
539.32504438452
 30
0.0
 11
197.3134708979976
 21
515.6935789883444
 31
0.0
  0
LINE
  5
27B
330
1B
100
AcDbEntity
  8
4
100
AcDbLine
 10
202.590593618275
 20
533.4114590183519
 30
0.0
 11
203.6620063134769
 21
539.197087572443
 31
0.0
  0
LINE
  5
27C
330
1B
100
AcDbEntity
  8
4
100
AcDbLine
 10
265.0363489123151
 20
533.4114590183519
 30
0.0
 11
263.9649362171132
 21
539.197087572443
 31
0.0
  0
LINE
  5
27D
330
1B
100
AcDbEntity
  8
L-CENTER
 48
2.0
100
AcDbLine
 10
270.3134716325926
 20
539.32504438452
 30
0.0
 11
270.3134716325926
 21
515.6935789883444
 31
0.0
  0
ARC
  5
27E
330
1B
100
AcDbEntity
  8
4
 62
     3
100
AcDbCircle
 10
161.4118052652951
 20
540.1149983122609
 30
0.0
 40
3.0
100
AcDbArc
 50
1.909152000000113
 51
90.0
  0
ARC
  5
27F
330
1B
100
AcDbEntity
  8
4
 62
     3
100
AcDbCircle
 10
129.3134712652951
 20
540.1149983122609
 30
0.0
 40
3.0
100
AcDbArc
 50
90.0
 51
180.0
  0
LINE
  5
280
330
1B
100
AcDbEntity
  8
4
 62
     3
100
AcDbLine
 10
129.3134712652951
 20
543.1149983122609
 30
0.0
 11
161.4118052652951
 21
543.1149983122609
 31
0.0
  0
ARC
  5
281
330
1B
100
AcDbEntity
  8
4
100
AcDbCircle
 10
156.8134712652949
 20
530.9149983122609
 30
0.0
 40
1.0
100
AcDbArc
 50
90.0
 51
180.0
  0
LINE
  5
282
330
1B
100
AcDbEntity
  8
4
100
AcDbLine
 10
169.8134712652951
 20
532.9149983122609
 30
0.0
 11
169.8134712652951
 21
531.9149983122609
 31
0.0
  0
LINE
  5
283
330
1B
100
AcDbEntity
  8
4
100
AcDbLine
 10
165.0634712652951
 20
538.2149983122608
 30
0.0
 11
156.5634712652951
 21
538.214998312261
 31
0.0
  0
LINE
  5
284
330
1B
100
AcDbEntity
  8
4
100
AcDbLine
 10
165.0634712652951
 20
533.214998312261
 30
0.0
 11
156.5634712652951
 21
533.214998312261
 31
0.0
  0
LINE
  5
285
330
1B
100
AcDbEntity
  8
4
100
AcDbLine
 10
165.0634712652951
 20
538.2149983122608
 30
0.0
 11
165.0634712652951
 21
531.914998312261
 31
0.0
  0
LINE
  5
286
330
1B
100
AcDbEntity
  8
4
100
AcDbLine
 10
156.5634712652951
 20
538.2149983122608
 30
0.0
 11
156.5634712652951
 21
531.9149983122608
 31
0.0
  0
LINE
  5
287
330
1B
100
AcDbEntity
  8
L-CENTER
 48
2.0
100
AcDbLine
 10
127.8554482652951
 20
528.1149983122609
 30
0.0
 11
149.7714942652951
 21
528.1149983122609
 31
0.0
  0
LINE
  5
288
330
1B
100
AcDbEntity
  8
4
100
AcDbLine
 10
155.8134712652951
 20
522.1149983122609
 30
0.0
 11
155.813471265295
 21
517.114998312261
 31
0.0
  0
CIRCLE
  5
289
330
1B
100
AcDbEntity
  8
4
 62
     3
100
AcDbCircle
 10
138.8134712652951
 20
528.1149983122609
 30
0.0
 40
5.5
  0
LINE
  5
28A
330
1B
100
AcDbEntity
  8
4
100
AcDbLine
 10
155.813471265295
 20
530.9149983122609
 30
0.0
 11
155.813471265295
 21
522.4149983122609
 31
0.0
  0
LINE
  5
28B
330
1B
100
AcDbEntity
  8
L-CENTER
 48
2.0
100
AcDbLine
 10
138.8134712652951
 20
517.1569753122609
 30
0.0
 11
138.8134712652951
 21
539.073021312261
 31
0.0
  0
LINE
  5
28C
330
1B
100
AcDbEntity
  8
L-CENTER
 48
2.0
100
AcDbLine
 10
160.8134712652951
 20
539.32504438452
 30
0.0
 11
160.8134712652951
 21
515.6935789883444
 31
0.0
  0
LINE
  5
28D
330
1B
100
AcDbEntity
  8
4
 62
     3
100
AcDbLine
 10
164.4101402494023
 20
540.214942789047
 30
0.0
 11
164.47680504895
 21
538.214998312261
 31
0.0
  0
LINE
  5
28E
330
1B
100
AcDbEntity
  8
4
100
AcDbLine
 10
169.8134712652951
 20
532.9149983122609
 30
0.0
 11
193.0634708979976
 21
532.9149983122609
 31
0.0
  0
LWPOLYLINE
  5
28F
330
1B
100
AcDbEntity
  8
4
100
AcDbPolyline
 90
        6
 70
     1
 43
0.0
 10
211.3134712652951
 20
483.1149983122609
 10
205.0634712652951
 20
493.9403158595665
 10
192.5634712652951
 20
493.9403158595665
 10
186.3134712652951
 20
483.1149983122609
 10
192.5634712652951
 20
472.2896807649554
 10
205.0634712652951
 20
472.2896807649554
  0
CIRCLE
  5
290
330
1B
100
AcDbEntity
  8
4
100
AcDbCircle
 10
198.8134712652951
 20
483.1149983122609
 30
0.0
 40
12.5
  0
CIRCLE
  5
291
330
1B
100
AcDbEntity
  8
4
100
AcDbCircle
 10
198.8134712652951
 20
483.1149983122609
 30
0.0
 40
14.0
  0
LINE
  5
292
330
1B
100
AcDbEntity
  8
L-CENTER
 48
2.0
100
AcDbLine
 10
198.8134712652951
 20
500.9804918615505
 30
0.0
 11
198.8134712652951
 21
465.2495047629714
 31
0.0
  0
LINE
  5
293
330
1B
100
AcDbEntity
  8
4
100
AcDbLine
 10
152.8137752652951
 20
498.1149983122609
 30
0.0
 11
151.8134712652951
 21
498.1149983122609
 31
0.0
  0
LINE
  5
294
330
1B
100
AcDbEntity
  8
4
100
AcDbLine
 10
150.3134712652951
 20
494.6149983122609
 30
0.0
 11
151.8134712652951
 21
494.6149983122609
 31
0.0
  0
LINE
  5
295
330
1B
100
AcDbEntity
  8
4
100
AcDbLine
 10
148.3134712652951
 20
495.6149983122609
 30
0.0
 11
150.3134712652951
 21
495.6149983122609
 31
0.0
  0
LINE
  5
296
330
1B
100
AcDbEntity
  8
4
100
AcDbLine
 10
153.8137752652951
 20
506.6149983122609
 30
0.0
 11
152.8137752652951
 21
506.6149983122609
 31
0.0
  0
LWPOLYLINE
  5
297
330
1B
100
AcDbEntity
  8
4
100
AcDbPolyline
 90
        2
 70
     0
 43
0.0
 10
148.3134712652951
 20
493.9403158595665
 10
143.3134712652951
 20
493.9403158595665
  0
LINE
  5
298
330
1B
100
AcDbEntity
  8
4
100
AcDbLine
 10
152.8137752652951
 20
459.6149983122609
 30
0.0
 11
153.8137752652951
 21
459.6149983122609
 31
0.0
  0
LINE
  5
299
330
1B
100
AcDbEntity
  8
4
100
AcDbLine
 10
152.8137752652951
 20
468.1149983122609
 30
0.0
 11
151.8134712652951
 21
468.1149983122609
 31
0.0
  0
LINE
  5
29A
330
1B
100
AcDbEntity
  8
4
100
AcDbLine
 10
150.3134712652951
 20
471.6149983122609
 30
0.0
 11
151.8134712652951
 21
471.6149983122609
 31
0.0
  0
LINE
  5
29B
330
1B
100
AcDbEntity
  8
4
100
AcDbLine
 10
148.3134712652951
 20
470.6149983122609
 30
0.0
 11
150.3134712652951
 21
470.6149983122609
 31
0.0
  0
LWPOLYLINE
  5
29C
330
1B
100
AcDbEntity
  8
4
100
AcDbPolyline
 90
        2
 70
     0
 43
0.0
 10
143.3134712652951
 20
472.2896807649554
 10
148.3134712652951
 20
472.2896807649554
  0
LINE
  5
29D
330
1B
100
AcDbEntity
  8
4
100
AcDbLine
 10
155.8134712652951
 20
449.1149983122609
 30
0.0
 11
155.8134712652951
 21
442.1149983122609
 31
0.0
  0
LINE
  5
29E
330
1B
100
AcDbEntity
  8
4
100
AcDbLine
 10
150.3134712652951
 20
470.6149983122609
 30
0.0
 11
150.3134712652951
 21
473.1149983122609
 31
0.0
  0
LINE
  5
29F
330
1B
100
AcDbEntity
  8
4
100
AcDbLine
 10
148.3134712652951
 20
470.6149983122609
 30
0.0
 11
148.3134712652951
 21
473.1149983122609
 31
0.0
  0
LINE
  5
2A0
330
1B
100
AcDbEntity
  8
4
100
AcDbLine
 10
151.8134712652951
 20
468.1149983122609
 30
0.0
 11
151.8134712652951
 21
473.1149983122609
 31
0.0
  0
LINE
  5
2A1
330
1B
100
AcDbEntity
  8
4
100
AcDbLine
 10
143.3134712652951
 20
472.2896807649554
 30
0.0
 11
143.3134712652951
 21
473.1149983122609
 31
0.0
  0
LINE
  5
2A2
330
1B
100
AcDbEntity
  8
4
100
AcDbLine
 10
152.8137752652951
 20
506.6149983122609
 30
0.0
 11
152.8137752652951
 21
459.6149983122609
 31
0.0
  0
LINE
  5
2A3
330
1B
100
AcDbEntity
  8
4
100
AcDbLine
 10
155.813471265295
 20
515.6149983122609
 30
0.0
 11
155.8134712652951
 21
450.6149983122609
 31
0.0
  0
LINE
  5
2A4
330
1B
100
AcDbEntity
  8
4
100
AcDbLine
 10
153.8134712652951
 20
517.114998312261
 30
0.0
 11
153.8134712652951
 21
449.1149983122609
 31
0.0
  0
LINE
  5
2A5
330
1B
100
AcDbEntity
  8
4
100
AcDbLine
 10
155.813471265295
 20
522.4149983122609
 30
0.0
 11
311.813471265295
 21
522.4149983122609
 31
0.0
  0
LINE
  5
2A6
330
1B
100
AcDbEntity
  8
4
 62
     3
100
AcDbLine
 10
256.8134712652951
 20
449.1149983122609
 30
0.0
 11
153.8134712652951
 21
449.1149983122609
 31
0.0
  0
LINE
  5
2A7
330
1B
100
AcDbEntity
  8
4
 62
     3
100
AcDbLine
 10
313.8134712652951
 20
449.1149983122609
 30
0.0
 11
305.8134712652951
 21
449.1149983122609
 31
0.0
  0
LINE
  5
2A8
330
1B
100
AcDbEntity
  8
4
 62
     3
100
AcDbLine
 10
311.8134712652952
 20
522.1149983122608
 30
0.0
 11
155.8134712652951
 21
522.1149983122609
 31
0.0
  0
LINE
  5
2A9
330
1B
100
AcDbEntity
  8
4
 62
     3
100
AcDbLine
 10
313.8134712652951
 20
517.1149983122609
 30
0.0
 11
153.8134712652951
 21
517.114998312261
 31
0.0
  0
LINE
  5
2AA
330
1B
100
AcDbEntity
  8
4
 62
     3
100
AcDbLine
 10
305.8134712652951
 20
448.6149983122609
 30
0.0
 11
256.8134712652951
 21
448.6149983122609
 31
0.0
  0
LINE
  5
2AB
330
1B
100
AcDbEntity
  8
4
 62
     3
100
AcDbLine
 10
313.8134712652951
 20
450.6149983122609
 30
0.0
 11
153.8134712652951
 21
450.6149983122609
 31
0.0
  0
LINE
  5
2AC
330
1B
100
AcDbEntity
  8
4
 62
     3
100
AcDbLine
 10
311.813471265295
 20
442.1149983122609
 30
0.0
 11
155.8134712652951
 21
442.1149983122609
 31
0.0
  0
LINE
  5
2AD
330
1B
100
AcDbEntity
  8
4
 62
     3
100
AcDbLine
 10
313.8134712652951
 20
515.6149983122609
 30
0.0
 11
153.8134712652951
 21
515.6149983122609
 31
0.0
  0
LINE
  5
2AE
330
1B
100
AcDbEntity
  8
L-CENTER
 48
2.0
100
AcDbLine
 10
366.0401095235844
 20
483.1149983122609
 30
0.0
 11
101.1208086306611
 21
483.1149983122609
 31
0.0
  0
LINE
  5
2AF
330
1B
100
AcDbEntity
  8
4
100
AcDbLine
 10
156.5634712652951
 20
531.9149983122608
 30
0.0
 11
311.0634712652951
 21
531.9149983122609
 31
0.0
  0
LINE
  5
2B0
330
1B
100
AcDbEntity
  8
4
100
AcDbLine
 10
230.313471265295
 20
593.1149983122609
 30
0.0
 11
230.313471265295
 21
559.6149983122609
 31
0.0
  0
LINE
  5
2B1
330
1B
100
AcDbEntity
  8
4
100
AcDbLine
 10
237.313471265295
 20
593.1149983122609
 30
0.0
 11
237.313471265295
 21
559.6149983122609
 31
0.0
  0
LINE
  5
2B2
330
1B
100
AcDbEntity
  8
4
100
AcDbLine
 10
245.813471265295
 20
553.6149983122609
 30
0.0
 11
245.813471265295
 21
592.1149983122609
 31
0.0
  0
LINE
  5
2B3
330
1B
100
AcDbEntity
  8
4
100
AcDbLine
 10
221.8134712652951
 20
553.6149983122609
 30
0.0
 11
221.813471265295
 21
592.1149983122609
 31
0.0
  0
ARC
  5
2B4
330
1B
100
AcDbEntity
  8
4
 62
     3
100
AcDbCircle
 10
338.3134712652951
 20
426.1149983122609
 30
0.0
 40
3.0
100
AcDbArc
 50
270.0
 51
0.0
  0
ARC
  5
2B5
330
1B
100
AcDbEntity
  8
4
 62
     3
100
AcDbCircle
 10
306.2151372652951
 20
426.1149983122609
 30
0.0
 40
3.0
100
AcDbArc
 50
181.9091520000001
 51
270.0
  0
LINE
  5
2B6
330
1B
100
AcDbEntity
  8
4
 62
     3
100
AcDbLine
 10
306.2151372652951
 20
423.1149983122609
 30
0.0
 11
338.3134712652951
 21
423.1149983122609
 31
0.0
  0
LINE
  5
2B7
330
1B
100
AcDbEntity
  8
L-CENTER
 48
2.0
100
AcDbLine
 10
317.869562265295
 20
438.1149983122609
 30
0.0
 11
339.7714942652951
 21
438.1149983122609
 31
0.0
  0
ARC
  5
2B8
330
1B
100
AcDbEntity
  8
4
 62
     3
100
AcDbCircle
 10
262.9663442652951
 20
429.1149983122609
 30
0.0
 40
1.0
100
AcDbArc
 50
270.0
 51
350.5376779999999
  0
LINE
  5
2B9
330
1B
100
AcDbEntity
  8
4
100
AcDbLine
 10
258.3134712652951
 20
437.1149983122609
 30
0.0
 11
258.3134712652951
 21
440.7669983122609
 31
0.0
  0
ARC
  5
2BA
330
1B
100
AcDbEntity
  8
4
 62
     3
100
AcDbCircle
 10
267.0519702652952
 20
435.380464312261
 30
0.0
 40
2.0
100
AcDbArc
 50
99.59313400000079
 51
170.5376779999999
  0
LINE
  5
2BB
330
1B
100
AcDbEntity
  8
4
 62
     3
100
AcDbLine
 10
263.9527382652951
 20
428.9505993122609
 30
0.0
 11
265.0791822652951
 21
435.709262312261
 31
0.0
  0
ARC
  5
2BC
330
1B
100
AcDbEntity
  8
4
 62
     3
100
AcDbCircle
 10
204.6605982652951
 20
429.1149983122609
 30
0.0
 40
1.0
100
AcDbArc
 50
189.4623220000001
 51
270.0
  0
ARC
  5
2BD
330
1B
100
AcDbEntity
  8
4
 62
     3
100
AcDbCircle
 10
200.5749722652951
 20
435.380464312261
 30
0.0
 40
2.0
100
AcDbArc
 50
9.462321999999995
 51
80.40686600000002
  0
LINE
  5
2BE
330
1B
100
AcDbEntity
  8
4
 62
     3
100
AcDbLine
 10
203.6742042652951
 20
428.9505993122609
 30
0.0
 11
202.5477602652951
 21
435.709262312261
 31
0.0
  0
LINE
  5
2BF
330
1B
100
AcDbEntity
  8
4
100
AcDbLine
 10
209.3134712652951
 20
437.1149983122609
 30
0.0
 11
209.3134712652951
 21
440.7669983122609
 31
0.0
  0
LINE
  5
2C0
330
1B
100
AcDbEntity
  8
4
 62
     3
100
AcDbLine
 10
209.3134712652951
 20
440.7669983122609
 30
0.0
 11
258.3134712652951
 21
440.7669983122611
 31
0.0
  0
LINE
  5
2C1
330
1B
100
AcDbEntity
  8
4
 62
     3
100
AcDbLine
 10
202.3134712652951
 20
437.1149983122609
 30
0.0
 11
265.3134712652951
 21
437.1149983122609
 31
0.0
  0
LINE
  5
2C2
330
1B
100
AcDbEntity
  8
4
 62
     3
100
AcDbLine
 10
262.9663442652951
 20
428.1149983122609
 30
0.0
 11
204.6605982652951
 21
428.1149983122609
 31
0.0
  0
LINE
  5
2C3
330
1B
100
AcDbEntity
  8
L-CENTER
 48
2.0
100
AcDbLine
 10
127.8554482652951
 20
438.1149983122609
 30
0.0
 11
149.7714942652951
 21
438.1149983122609
 31
0.0
  0
LINE
  5
2C4
330
1B
100
AcDbEntity
  8
4
 62
     3
100
AcDbLine
 10
129.3134712652951
 20
423.1149983122609
 30
0.0
 11
161.4118052652951
 21
423.1149983122609
 31
0.0
  0
ARC
  5
2C5
330
1B
100
AcDbEntity
  8
4
 62
     3
100
AcDbCircle
 10
129.3134712652951
 20
426.1149983122609
 30
0.0
 40
3.0
100
AcDbArc
 50
180.0
 51
270.0
  0
ARC
  5
2C6
330
1B
100
AcDbEntity
  8
4
 62
     3
100
AcDbCircle
 10
161.4118052652951
 20
426.1149983122609
 30
0.0
 40
3.0
100
AcDbArc
 50
270.0
 51
358.0908479999999
  0
LINE
  5
2D1
330
1B
100
AcDbEntity
  8
4
100
AcDbLine
 10
363.8134712652951
 20
231.2578781505167
 30
0.0
 11
362.8134712652951
 21
232.2578781505167
 31
0.0
  0
LINE
  5
2D2
330
1B
100
AcDbEntity
  8
4
100
AcDbLine
 10
331.8134712652951
 20
234.2578781505167
 30
0.0
 11
331.8134712652951
 21
232.2578781505167
 31
0.0
  0
LINE
  5
2D3
330
1B
100
AcDbEntity
  8
4
100
AcDbLine
 10
363.8134712652951
 20
234.2578781505167
 30
0.0
 11
331.8134712652951
 21
234.2578781505167
 31
0.0
  0
LINE
  5
2D4
330
1B
100
AcDbEntity
  8
4
 62
     3
100
AcDbLine
 10
312.7499632652952
 20
255.7578781505167
 30
0.0
 11
313.8134712652951
 21
255.7578781505167
 31
0.0
  0
ARC
  5
2D5
330
1B
100
AcDbEntity
  8
4
 62
     3
100
AcDbCircle
 10
312.7499632652952
 20
256.7578781505167
 30
0.0
 40
1.0
100
AcDbArc
 50
194.4775120000017
 51
270.0
  0
LINE
  5
2D6
330
1B
100
AcDbEntity
  8
4
100
AcDbLine
 10
314.8134712652951
 20
246.7578781505167
 30
0.0
 11
313.8134712652951
 21
246.7578781505167
 31
0.0
  0
ARC
  5
2D7
330
1B
100
AcDbEntity
  8
4
 62
     3
100
AcDbCircle
 10
310.8134712652951
 20
256.2578781505167
 30
0.0
 40
1.0
100
AcDbArc
 50
0.0
 51
90.0
  0
LINE
  5
2D8
330
1B
100
AcDbEntity
  8
4
100
AcDbLine
 10
314.8134712652951
 20
233.2578781505167
 30
0.0
 11
328.8134712652951
 21
233.2578781505167
 31
0.0
  0
ARC
  5
2D9
330
1B
100
AcDbEntity
  8
4
 62
     3
100
AcDbCircle
 10
312.8134712652951
 20
234.2578781505167
 30
0.0
 40
1.0
100
AcDbArc
 50
180.0
 51
270.0
  0
LINE
  5
2DA
330
1B
100
AcDbEntity
  8
4
 62
     3
100
AcDbLine
 10
311.8134712652951
 20
234.2578781505167
 30
0.0
 11
311.8134712652951
 21
256.2578781505167
 31
0.0
  0
LINE
  5
2DB
330
1B
100
AcDbEntity
  8
4
100
AcDbLine
 10
328.8134712652951
 20
232.2578781505167
 30
0.0
 11
362.8134712652951
 21
232.2578781505167
 31
0.0
  0
LINE
  5
2DD
330
1B
100
AcDbEntity
  8
4
100
AcDbLine
 10
362.8134712652951
 20
214.2578781505167
 30
0.0
 11
363.8134712652951
 21
215.2578781505167
 31
0.0
  0
LINE
  5
2DE
330
1B
100
AcDbEntity
  8
4
100
AcDbLine
 10
328.8134712652951
 20
213.2578781505167
 30
0.0
 11
314.8134712652951
 21
213.2578781505167
 31
0.0
  0
ARC
  5
2DF
330
1B
100
AcDbEntity
  8
4
 62
     3
100
AcDbCircle
 10
312.8134712652951
 20
212.2578781505167
 30
0.0
 40
1.0
100
AcDbArc
 50
90.0
 51
180.0
  0
ARC
  5
2E0
330
1B
100
AcDbEntity
  8
4
 62
     3
100
AcDbCircle
 10
301.968305265295
 20
215.4127121505166
 30
0.0
 40
3.0
100
AcDbArc
 50
14.78908400000021
 51
75.21091599999983
  0
LINE
  5
2E1
330
1B
100
AcDbEntity
  8
4
100
AcDbLine
 10
314.8134712652951
 20
199.7578781505167
 30
0.0
 11
313.8134712652951
 21
199.7578781505167
 31
0.0
  0
LINE
  5
2E2
330
1B
100
AcDbEntity
  8
4
100
AcDbLine
 10
328.8134712652951
 20
214.2578781505167
 30
0.0
 11
362.8134712652951
 21
214.2578781505167
 31
0.0
  0
LINE
  5
2E3
330
1B
100
AcDbEntity
  8
4
100
AcDbLine
 10
314.8134712652951
 20
199.7578781505167
 30
0.0
 11
314.8134712652951
 21
246.7578781505167
 31
0.0
  0
LINE
  5
2E4
330
1B
100
AcDbEntity
  8
4
100
AcDbLine
 10
328.8134712652951
 20
233.2578781505167
 30
0.0
 11
328.8134712652951
 21
213.2578781505167
 31
0.0
  0
LINE
  5
2E5
330
1B
100
AcDbEntity
  8
4
100
AcDbLine
 10
362.8134712652951
 20
214.2578781505167
 30
0.0
 11
362.8134712652951
 21
232.2578781505167
 31
0.0
  0
LINE
  5
2E6
330
1B
100
AcDbEntity
  8
4
100
AcDbLine
 10
363.8134712652951
 20
234.2578781505167
 30
0.0
 11
363.8134712652951
 21
215.2578781505167
 31
0.0
  0
LINE
  5
2F1
330
1B
100
AcDbEntity
  8
4
100
AcDbLine
 10
211.3134712652951
 20
259.7578781505167
 30
0.0
 11
211.3134712652951
 21
265.7578781505167
 31
0.0
  0
LINE
  5
2F2
330
1B
100
AcDbEntity
  8
4
100
AcDbLine
 10
205.0634712652951
 20
261.7578781505167
 30
0.0
 11
205.0634712652951
 21
265.7578781505167
 31
0.0
  0
LINE
  5
2F3
330
1B
100
AcDbEntity
  8
4
100
AcDbLine
 10
186.3134712652951
 20
259.7578781505167
 30
0.0
 11
186.3134712652951
 21
265.7578781505167
 31
0.0
  0
LINE
  5
2F4
330
1B
100
AcDbEntity
  8
4
100
AcDbLine
 10
192.5634712652951
 20
261.7578781505167
 30
0.0
 11
192.5634712652951
 21
265.7578781505167
 31
0.0
  0
LINE
  5
2F5
330
1B
100
AcDbEntity
  8
4
100
AcDbLine
 10
186.3134712652951
 20
259.7578781505167
 30
0.0
 11
211.3134712652951
 21
259.7578781505167
 31
0.0
  0
LINE
  5
2F6
330
1B
100
AcDbEntity
  8
4
100
AcDbLine
 10
186.3134712652951
 20
261.7578781505167
 30
0.0
 11
211.3134712652951
 21
261.7578781505167
 31
0.0
  0
LINE
  5
2F7
330
1B
100
AcDbEntity
  8
4
100
AcDbLine
 10
186.3134712652951
 20
265.7578781505167
 30
0.0
 11
211.3134712652951
 21
265.7578781505167
 31
0.0
  0
LINE
  5
2FD
330
1B
100
AcDbEntity
  8
4
 62
     3
100
AcDbLine
 10
212.8134712652951
 20
258.2578781505167
 30
0.0
 11
212.8134712652951
 21
258.1578781505166
 31
0.0
  0
ARC
  5
2FE
330
1B
100
AcDbEntity
  8
4
 62
     3
100
AcDbCircle
 10
213.7134712652952
 20
258.1578781505166
 30
0.0
 40
0.9
100
AcDbArc
 50
180.0
 51
270.0
  0
LINE
  5
2FF
330
1B
100
AcDbEntity
  8
4
 62
     3
100
AcDbLine
 10
184.8134712652951
 20
258.2578781505167
 30
0.0
 11
184.8134712652951
 21
258.1578781505166
 31
0.0
  0
LINE
  5
300
330
1B
100
AcDbEntity
  8
4
100
AcDbLine
 10
184.8134712652951
 20
258.2578781505167
 30
0.0
 11
184.8134712652951
 21
258.2478781505167
 31
0.0
  0
ARC
  5
301
330
1B
100
AcDbEntity
  8
4
 62
     3
100
AcDbCircle
 10
183.913471265295
 20
258.1578781505166
 30
0.0
 40
0.9
100
AcDbArc
 50
270.0
 51
0.0
  0
LINE
  5
302
330
1B
100
AcDbEntity
  8
4
 62
     3
100
AcDbLine
 10
212.8134712652951
 20
258.2578781505167
 30
0.0
 11
184.8134712652951
 21
258.2578781505167
 31
0.0
  0
LINE
  5
303
330
1B
100
AcDbEntity
  8
4
100
AcDbLine
 10
187.3134712652951
 20
258.2578781505167
 30
0.0
 11
210.3134712652951
 21
258.2578781505167
 31
0.0
  0
ARC
  5
304
330
1B
100
AcDbEntity
  8
4
 62
     3
100
AcDbCircle
 10
156.8134712652951
 20
256.2578781505167
 30
0.0
 40
1.0
100
AcDbArc
 50
90.0
 51
180.0
  0
ARC
  5
305
330
1B
100
AcDbEntity
  8
4
 62
     3
100
AcDbCircle
 10
156.8134712652951
 20
256.2578781505167
 30
0.0
 40
1.0
100
AcDbArc
 50
90.0
 51
165.5224879999987
  0
ARC
  5
306
330
1B
100
AcDbEntity
  8
4
 62
     3
100
AcDbCircle
 10
154.8769792652951
 20
256.7578781505167
 30
0.0
 40
1.0
100
AcDbArc
 50
270.0
 51
345.5224879999987
  0
LINE
  5
307
330
1B
100
AcDbEntity
  8
4
 62
     3
100
AcDbLine
 10
154.8769792652951
 20
255.7578781505167
 30
0.0
 11
153.8134712652951
 21
255.7578781505167
 31
0.0
  0
LINE
  5
308
330
1B
100
AcDbEntity
  8
4
 62
     3
100
AcDbLine
 10
154.8769792652951
 20
255.7578781505167
 30
0.0
 11
153.8134712652951
 21
255.7578781505167
 31
0.0
  0
ARC
  5
309
330
1B
100
AcDbEntity
  8
4
 62
     3
100
AcDbCircle
 10
154.8769792652951
 20
256.7578781505167
 30
0.0
 40
1.0
100
AcDbArc
 50
270.0
 51
345.5224879999987
  0
LINE
  5
30A
330
1B
100
AcDbEntity
  8
4
100
AcDbLine
 10
153.8137752652951
 20
246.7578781505167
 30
0.0
 11
152.8137752652951
 21
246.7578781505167
 31
0.0
  0
ARC
  5
30B
330
1B
100
AcDbEntity
  8
4
 62
     3
100
AcDbCircle
 10
154.8134712652951
 20
234.2578781505167
 30
0.0
 40
1.0
100
AcDbArc
 50
270.0
 51
0.0
  0
LINE
  5
30C
330
1B
100
AcDbEntity
  8
4
 62
     3
100
AcDbLine
 10
155.8134712652951
 20
234.2578781505167
 30
0.0
 11
155.8134712652951
 21
256.2578781505167
 31
0.0
  0
ARC
  5
30D
330
1B
100
AcDbEntity
  8
4
 62
     3
100
AcDbCircle
 10
154.8134712652951
 20
212.2578781505167
 30
0.0
 40
1.0
100
AcDbArc
 50
0.0
 51
90.0
  0
ARC
  5
30E
330
1B
100
AcDbEntity
  8
4
 62
     3
100
AcDbCircle
 10
165.6586372652952
 20
215.4127121505166
 30
0.0
 40
3.0
100
AcDbArc
 50
104.7890840000002
 51
165.2109159999998
  0
LINE
  5
30F
330
1B
100
AcDbEntity
  8
4
100
AcDbLine
 10
152.8137752652951
 20
199.7578781505167
 30
0.0
 11
153.8137752652951
 21
199.7578781505167
 31
0.0
  0
LINE
  5
310
330
1B
100
AcDbEntity
  8
4
100
AcDbLine
 10
152.8137752652951
 20
246.7578781505167
 30
0.0
 11
152.8137752652951
 21
199.7578781505167
 31
0.0
  0
ARC
  5
311
330
1B
100
AcDbEntity
  8
4
 62
     3
100
AcDbCircle
 10
233.8134712652951
 20
-42.74212184948334
 30
0.0
 40
270.0
100
AcDbArc
 50
90.0
 51
104.789084
  0
LINE
  5
313
330
1B
100
AcDbEntity
  8
L-CENTER
 48
2.0
100
AcDbLine
 10
198.8134712652951
 20
250.6313861505167
 30
0.0
 11
198.8134712652951
 21
270.6200281594747
 31
0.0
  0
LINE
  5
314
330
1B
100
AcDbEntity
  8
4
100
AcDbLine
 10
187.3134712652951
 20
258.2578781505167
 30
0.0
 11
187.3134712652951
 21
259.7578781505167
 31
0.0
  0
LINE
  5
315
330
1B
100
AcDbEntity
  8
4
100
AcDbLine
 10
210.3134712652951
 20
258.2578781505167
 30
0.0
 11
210.3134712652951
 21
259.7578781505167
 31
0.0
  0
LINE
  5
316
330
1B
100
AcDbEntity
  8
L-CENTER
 48
2.0
100
AcDbLine
 10
367.029205563034
 20
223.2578781505165
 30
0.0
 11
100.5977369675562
 21
223.2578781505168
 31
0.0
  0
ARC
  5
319
330
1B
100
AcDbEntity
  8
4
 62
     3
100
AcDbCircle
 10
233.8134712652951
 20
-42.74212184948334
 30
0.0
 40
270.0
100
AcDbArc
 50
75.210916
 51
90.0
  0
LINE
  5
31A
330
1B
100
AcDbEntity
  8
4
 62
     3
100
AcDbLine
 10
156.8134712652951
 20
257.2578781505168
 30
0.0
 11
310.8134712652951
 21
257.2578781505167
 31
0.0
  0
LINE
  5
31B
330
1B
100
AcDbEntity
  8
L-CENTER
 48
2.0
100
AcDbLine
 10
138.8134712652951
 20
449.0730213122609
 30
0.0
 11
138.8134712652951
 21
427.1569753122609
 31
0.0
  0
LINE
  5
31C
330
1B
100
AcDbEntity
  8
4
 62
     3
100
AcDbLine
 10
126.3134712652951
 20
540.1149983122609
 30
0.0
 11
126.3134712652951
 21
492.1149983122609
 31
0.0
  0
CIRCLE
  5
31D
330
1B
100
AcDbEntity
  8
4
 62
     3
100
AcDbCircle
 10
138.8134712652951
 20
438.1149983122609
 30
0.0
 40
5.5
  0
LINE
  5
31E
330
1B
100
AcDbEntity
  8
4
 62
     3
100
AcDbLine
 10
341.3134712652951
 20
474.1149983122609
 30
0.0
 11
341.3134712652951
 21
426.1149983122609
 31
0.0
  0
LINE
  5
31F
330
1B
100
AcDbEntity
  8
L-CENTER
 48
2.0
100
AcDbLine
 10
328.8134712652951
 20
427.1569753122609
 30
0.0
 11
328.8134712652951
 21
449.0730213122609
 31
0.0
  0
LINE
  5
320
330
1B
100
AcDbEntity
  8
L-CENTER
 48
2.0
100
AcDbLine
 10
233.8134712652951
 20
597.2944203500165
 30
0.0
 11
233.8134712652951
 21
368.9355762745054
 31
0.0
  0
LINE
  5
321
330
1B
100
AcDbEntity
  8
4
 62
     3
100
AcDbLine
 10
294.8968042652951
 20
442.1149983122609
 30
0.0
 11
266.7186682652952
 21
437.3524963122609
 31
0.0
  0
LINE
  5
322
330
1B
100
AcDbEntity
  8
4
 62
     3
100
AcDbLine
 10
172.7301382652951
 20
442.1149983122609
 30
0.0
 11
200.9082742652951
 21
437.3524963122609
 31
0.0
  0
LINE
  5
323
330
1B
100
AcDbEntity
  8
4
 62
     3
100
AcDbLine
 10
164.4101402652951
 20
426.0150543122609
 30
0.0
 11
164.9468049337135
 21
442.1149983122609
 31
0.0
  0
LINE
  5
324
330
1B
100
AcDbEntity
  8
4
 62
     3
100
AcDbLine
 10
303.2168022652951
 20
426.0150543122609
 30
0.0
 11
302.6801375968767
 21
442.1149983122609
 31
0.0
  0
CIRCLE
  5
325
330
1B
100
AcDbEntity
  8
4
 62
     3
100
AcDbCircle
 10
328.8134712652951
 20
438.1149983122609
 30
0.0
 40
5.5
  0
LINE
  5
32B
330
1B
100
AcDbEntity
  8
4
100
AcDbLine
 10
701.3626845156118
 20
158.2578781505167
 30
0.0
 11
700.3626845156118
 21
159.2578781505167
 31
0.0
  0
LINE
  5
32C
330
1B
100
AcDbEntity
  8
4
100
AcDbLine
 10
700.3626845156118
 20
135.2578781505167
 30
0.0
 11
701.3626845156118
 21
136.2578781505167
 31
0.0
  0
LINE
  5
32D
330
1B
100
AcDbEntity
  8
4
100
AcDbLine
 10
700.3626845156118
 20
159.2578781505167
 30
0.0
 11
700.3626845156118
 21
135.2578781505167
 31
0.0
  0
LINE
  5
32F
330
1B
100
AcDbEntity
  8
4
100
AcDbLine
 10
701.3626845156118
 20
162.2578781505167
 30
0.0
 11
701.3626845156118
 21
136.2578781505167
 31
0.0
  0
ARC
  5
331
330
1B
100
AcDbEntity
  8
4
100
AcDbCircle
 10
642.0233237420675
 20
180.4473198075057
 30
0.0
 40
2.0
100
AcDbArc
 50
201.5153082470839
 51
259.5085229876691
  0
LINE
  5
332
330
1B
100
AcDbEntity
  8
4
  6
Continuous
 62
     3
100
AcDbLine
 10
640.1626845156118
 20
190.3012745311293
 30
0.0
 11
641.177130050856
 21
178.6351508758236
 31
0.0
  0
LINE
  5
333
330
1B
100
AcDbEntity
  8
4
100
AcDbLine
 10
648.262488515612
 20
170.7578781505167
 30
0.0
 11
649.262488515612
 21
170.7578781505167
 31
0.0
  0
LINE
  5
334
330
1B
100
AcDbEntity
  8
4
100
AcDbLine
 10
641.6591452217028
 20
178.4807557975368
 30
0.0
 11
647.4447737757939
 21
177.4093431023347
 31
0.0
  0
ARC
  5
335
330
1B
100
AcDbEntity
  8
4
100
AcDbCircle
 10
647.2626845156117
 20
176.4260610973503
 30
0.0
 40
1.0
100
AcDbArc
 50
0.0
 51
79.50852298766591
  0
LINE
  5
336
330
1B
100
AcDbEntity
  8
4
100
AcDbLine
 10
646.4626845156117
 20
151.5078781505167
 30
0.0
 11
640.1626845156118
 21
151.5078781505167
 31
0.0
  0
LINE
  5
337
330
1B
100
AcDbEntity
  8
2
100
AcDbLine
 10
640.1626845156118
 20
147.2578781505167
 30
0.0
 11
641.4626845156117
 21
148.5578781505167
 31
0.0
  0
LINE
  5
338
330
1B
100
AcDbEntity
  8
2
100
AcDbLine
 10
640.1626845156118
 20
145.4194005194317
 30
0.0
 11
641.4626845156117
 21
146.7194005194317
 31
0.0
  0
LINE
  5
339
330
1B
100
AcDbEntity
  8
4
100
AcDbLine
 10
661.3626845156118
 20
159.7578781505167
 30
0.0
 11
649.262488515612
 21
159.7578781505167
 31
0.0
  0
LINE
  5
33A
330
1B
100
AcDbEntity
  8
4
100
AcDbLine
 10
646.4626845156117
 20
143.0078781505167
 30
0.0
 11
640.1626845156118
 21
143.0078781505167
 31
0.0
  0
LINE
  5
33B
330
1B
100
AcDbEntity
  8
4
100
AcDbLine
 10
661.3626845156118
 20
134.7578781505167
 30
0.0
 11
649.262488515612
 21
134.7578781505167
 31
0.0
  0
LINE
  5
33C
330
1B
100
AcDbEntity
  8
4
100
AcDbLine
 10
661.3626845156118
 20
159.7578781505167
 30
0.0
 11
661.3626845156118
 21
134.7578781505167
 31
0.0
  0
LINE
  5
33D
330
1B
100
AcDbEntity
  8
4
100
AcDbLine
 10
641.4626845156117
 20
143.0078781505167
 30
0.0
 11
641.4626845156117
 21
151.5078781505167
 31
0.0
  0
LINE
  5
33E
330
1B
100
AcDbEntity
  8
4
100
AcDbLine
 10
646.4626845156117
 20
143.0078781505167
 30
0.0
 11
646.4626845156117
 21
151.5078781505167
 31
0.0
  0
LINE
  5
340
330
1B
100
AcDbEntity
  8
4
100
AcDbLine
 10
664.3626845156118
 20
162.2578781505167
 30
0.0
 11
664.3626845156118
 21
159.2578781505167
 31
0.0
  0
ARC
  5
341
330
1B
100
AcDbEntity
  8
4
100
AcDbCircle
 10
543.6352165156118
 20
180.4975541505167
 30
0.0
 40
2.0
100
AcDbArc
 50
279.4623220000002
 51
350.1341929999993
  0
LINE
  5
342
330
1B
100
AcDbEntity
  8
4
100
AcDbLine
 10
543.6914825156118
 20
178.4793441505166
 30
0.0
 11
543.9640145156118
 21
178.5247661505167
 31
0.0
  0
LINE
  5
343
330
1B
100
AcDbEntity
  8
4
100
AcDbLine
 10
544.3173749300272
 20
164.7578776801674
 30
0.0
 11
545.3626839542515
 21
164.7578776801674
 31
0.0
  0
LINE
  5
344
330
1B
100
AcDbEntity
  8
4
100
AcDbLine
 10
545.3626839542515
 20
164.7578776801674
 30
0.0
 11
550.3626845156118
 21
163.0527353114202
 31
0.0
  0
LINE
  5
345
330
1B
100
AcDbEntity
  8
4
100
AcDbLine
 10
544.3173749300272
 20
164.7578776801674
 30
0.0
 11
550.3626845156118
 21
162.6962552103153
 31
0.0
  0
LINE
  5
346
330
1B
100
AcDbEntity
  8
4
 62
     3
100
AcDbLine
 10
537.1982855156118
 20
177.3971451505167
 30
0.0
 11
543.6914825156118
 21
178.4793441505166
 31
0.0
  0
ARC
  5
347
330
1B
100
AcDbEntity
  8
4
 62
     3
100
AcDbCircle
 10
537.3626845156118
 20
176.4107511505167
 30
0.0
 40
1.0
100
AcDbArc
 50
99.46232200000019
 51
180.0
  0
LINE
  5
348
330
1B
100
AcDbEntity
  8
4
100
AcDbLine
 10
545.3626839542515
 20
164.7578776801674
 30
0.0
 11
545.3626839542515
 21
178.6708020664482
 31
0.0
  0
LINE
  5
34A
330
1B
100
AcDbEntity
  8
4
100
AcDbLine
 10
544.3173749300272
 20
129.7578786208659
 30
0.0
 11
545.3626839542515
 21
129.7578786208659
 31
0.0
  0
LINE
  5
34B
330
1B
100
AcDbEntity
  8
4
100
AcDbLine
 10
544.3173749300272
 20
129.7578786208659
 30
0.0
 11
550.3626845156118
 21
131.819501090718
 31
0.0
  0
LINE
  5
34C
330
1B
100
AcDbEntity
  8
4
100
AcDbLine
 10
545.3626839542515
 20
129.7578786208659
 30
0.0
 11
550.3626845156118
 21
131.4630209896131
 31
0.0
  0
LINE
  5
352
330
1B
100
AcDbEntity
  8
4
100
AcDbLine
 10
544.3173749300272
 20
129.7578786208662
 30
0.0
 11
544.3173749300272
 21
164.7578776801674
 31
0.0
  0
LINE
  5
353
330
1B
100
AcDbEntity
  8
4
100
AcDbLine
 10
641.6591452217028
 20
116.0350005034965
 30
0.0
 11
647.4447737757939
 21
117.1064131986986
 31
0.0
  0
ARC
  5
354
330
1B
100
AcDbEntity
  8
4
100
AcDbCircle
 10
642.0233237420673
 20
114.0684364935276
 30
0.0
 40
2.0
100
AcDbArc
 50
100.4914770123309
 51
112.4563817741526
  0
ARC
  5
355
330
1B
100
AcDbEntity
  8
4
100
AcDbCircle
 10
642.0233237420673
 20
114.0684364935276
 30
0.0
 40
2.0
100
AcDbArc
 50
115.0302592718877
 51
175.0302592718904
  0
ARC
  5
356
330
1B
100
AcDbEntity
  8
4
100
AcDbCircle
 10
647.2626845156117
 20
118.089695203683
 30
0.0
 40
1.0
100
AcDbArc
 50
280.491477012334
 51
0.0
  0
LINE
  5
357
330
1B
100
AcDbEntity
  8
4
100
AcDbLine
 10
649.262488515612
 20
123.7578781505167
 30
0.0
 11
648.262488515612
 21
123.7578781505167
 31
0.0
  0
LINE
  5
358
330
1B
100
AcDbEntity
  8
4
100
AcDbLine
 10
640.1626845156115
 20
104.2144817699014
 30
0.0
 11
641.177130050856
 21
115.8806054252097
 31
0.0
  0
LINE
  5
359
330
1B
100
AcDbEntity
  8
4
100
AcDbLine
 10
646.4626845156117
 20
88.28802388631209
 30
0.0
 11
640.1626845156118
 21
88.28802388631209
 31
0.0
  0
LINE
  5
35A
330
1B
100
AcDbEntity
  8
2
100
AcDbLine
 10
640.1626845156118
 20
82.19954625522712
 30
0.0
 11
641.4626845156117
 21
83.49954625522713
 31
0.0
  0
LINE
  5
35B
330
1B
100
AcDbEntity
  8
2
100
AcDbLine
 10
640.1626845156118
 20
84.03802388631209
 30
0.0
 11
641.4626845156117
 21
85.3380238863121
 31
0.0
  0
ARC
  5
35C
330
1B
100
AcDbEntity
  8
4
 62
     3
100
AcDbCircle
 10
650.3626845156118
 20
74.25787815051666
 30
0.0
 40
1.0
100
AcDbArc
 50
0.0
 51
90.0
  0
LINE
  5
35D
330
1B
100
AcDbEntity
  8
4
100
AcDbLine
 10
646.4626845156117
 20
79.78802388631209
 30
0.0
 11
640.1626845156118
 21
79.78802388631209
 31
0.0
  0
LINE
  5
35E
330
1B
100
AcDbEntity
  8
4
100
AcDbLine
 10
641.4626845156117
 20
79.78802388631209
 30
0.0
 11
641.4626845156117
 21
88.28802388631209
 31
0.0
  0
LINE
  5
35F
330
1B
100
AcDbEntity
  8
4
100
AcDbLine
 10
646.4626845156117
 20
79.78802388631209
 30
0.0
 11
646.4626845156117
 21
88.28802388631209
 31
0.0
  0
LINE
  5
360
330
1B
100
AcDbEntity
  8
L-CENTER
 48
2.0
100
AcDbLine
 10
648.9960264926926
 20
84.03802388631209
 30
0.0
 11
622.6041278558191
 21
84.03802388631209
 31
0.0
  0
LINE
  5
361
330
1B
100
AcDbEntity
  8
4
 62
     3
100
AcDbLine
 10
537.1982855156118
 20
117.1186111505166
 30
0.0
 11
543.8957754277887
 21
116.0023632220884
 31
0.0
  0
ARC
  5
362
330
1B
100
AcDbEntity
  8
4
 62
     3
100
AcDbCircle
 10
537.3626845156118
 20
118.1050051505167
 30
0.0
 40
1.0
100
AcDbArc
 50
180.0
 51
260.5376779999998
  0
ARC
  5
363
330
1B
100
AcDbEntity
  8
4
100
AcDbCircle
 10
543.6352165156118
 20
114.0182021505166
 30
0.0
 40
2.0
100
AcDbArc
 50
9.86580700000068
 51
80.53767799999983
  0
ARC
  5
364
330
1B
100
AcDbEntity
  8
4
 62
     3
100
AcDbCircle
 10
542.5899075156117
 20
114.1924201505166
 30
0.0
 40
2.0
100
AcDbArc
 50
9.86580700000068
 51
80.53767799999983
  0
LINE
  5
365
330
1B
100
AcDbEntity
  8
4
100
AcDbLine
 10
542.9187055156117
 20
116.1652081505167
 30
0.0
 11
543.9640145156118
 21
115.9909901505167
 31
0.0
  0
ARC
  5
366
330
1B
100
AcDbEntity
  8
4
 62
     3
100
AcDbCircle
 10
532.3626845156118
 20
74.25787815051666
 30
0.0
 40
1.0
100
AcDbArc
 50
90.0
 51
180.0
  0
LINE
  5
368
330
1B
100
AcDbEntity
  8
4
 62
     3
100
AcDbLine
 10
544.5600735727583
 20
114.5365795718133
 30
0.0
 11
550.3626845156118
 21
81.17156915051663
 31
0.0
  0
LINE
  5
369
330
1B
100
AcDbEntity
  8
4
100
AcDbLine
 10
545.6053825739561
 20
114.3623615649569
 30
0.0
 11
550.3626845156118
 21
87.00787687258406
 31
0.0
  0
LINE
  5
36A
330
1B
100
AcDbEntity
  8
4
 62
     3
100
AcDbLine
 10
532.3626845156118
 20
75.25787815051666
 30
0.0
 11
650.3626845156118
 21
75.25787815051666
 31
0.0
  0
LINE
  5
36B
330
1B
100
AcDbEntity
  8
4
 62
     3
100
AcDbLine
 10
536.3626845156118
 20
118.1050051505167
 30
0.0
 11
536.3626845156118
 21
176.4107511505167
 31
0.0
  0
LINE
  5
36C
330
1B
100
AcDbEntity
  8
4
100
AcDbLine
 10
558.8626845156118
 20
134.7886386067352
 30
0.0
 11
558.8626845156118
 21
75.2578781505166
 31
0.0
  0
LINE
  5
36D
330
1B
100
AcDbEntity
  8
4
100
AcDbLine
 10
545.3626839542515
 20
115.7578785531559
 30
0.0
 11
545.3626839542515
 21
129.7578786208659
 31
0.0
  0
LINE
  5
36E
330
1B
100
AcDbEntity
  8
4
100
AcDbLine
 10
623.8626845156118
 20
134.7886386067352
 30
0.0
 11
623.8626845156118
 21
75.2578781505166
 31
0.0
  0
LINE
  5
36F
330
1B
100
AcDbEntity
  8
4
100
AcDbLine
 10
648.2626845156117
 20
176.4260610973503
 30
0.0
 11
648.2626845156117
 21
118.089695203683
 31
0.0
  0
LINE
  5
370
330
1B
100
AcDbEntity
  8
4
100
AcDbLine
 10
649.262488515612
 20
170.7578781505167
 30
0.0
 11
649.262488515612
 21
123.7578781505167
 31
0.0
  0
LINE
  5
371
330
1B
100
AcDbEntity
  8
L-CENTER
 48
2.0
100
AcDbLine
 10
705.2927820084919
 20
147.2578781505167
 30
0.0
 11
477.4325870227317
 21
147.2578781505167
 31
0.0
  0
LINE
  5
373
330
1B
100
AcDbEntity
  8
4
100
AcDbLine
 10
701.3626845156118
 20
162.2578781505167
 30
0.0
 11
664.3626845156118
 21
162.2578781505167
 31
0.0
  0
LINE
  5
374
330
1B
100
AcDbEntity
  8
4
100
AcDbLine
 10
661.3626845156118
 20
159.2578781505167
 30
0.0
 11
700.3626845156118
 21
159.2578781505167
 31
0.0
  0
LINE
  5
375
330
1B
100
AcDbEntity
  8
4
100
AcDbLine
 10
661.3626845156118
 20
135.2578781505167
 30
0.0
 11
700.3626845156118
 21
135.2578781505167
 31
0.0
  0
LINE
  5
384
330
1B
100
AcDbEntity
  8
4
 62
     3
100
AcDbLine
 10
651.3626845156118
 20
55.25787815051666
 30
0.0
 11
531.3626845156118
 21
55.25787815051666
 31
0.0
  0
LINE
  5
388
330
1B
100
AcDbEntity
  8
L-CENTER
 48
2.0
100
AcDbLine
 10
636.3626845156118
 20
82.25787815051666
 30
0.0
 11
636.3626845156118
 21
48.25787815051666
 31
0.0
  0
LINE
  5
389
330
1B
100
AcDbEntity
  8
4
 62
     3
100
AcDbLine
 10
531.3626845156118
 20
74.25787815051666
 30
0.0
 11
531.3626845156118
 21
55.25787815051666
 31
0.0
  0
LINE
  5
38A
330
1B
100
AcDbEntity
  8
L-CENTER
 48
2.0
100
AcDbLine
 10
546.3626845156118
 20
82.25787815051666
 30
0.0
 11
546.3626845156118
 21
48.25787815051666
 31
0.0
  0
LINE
  5
38B
330
1B
100
AcDbEntity
  8
4
 62
     3
100
AcDbLine
 10
651.3626845156118
 20
74.25787815051666
 30
0.0
 11
651.3626845156118
 21
55.25787815051666
 31
0.0
  0
LINE
  5
38D
330
1B
100
AcDbEntity
  8
4
 62
     3
100
AcDbLine
 10
313.7445382652951
 20
190.7578781505167
 30
0.0
 11
313.8134712652951
 21
190.7578781505167
 31
0.0
  0
LINE
  5
38E
330
1B
100
AcDbEntity
  8
4
 62
     3
100
AcDbLine
 10
313.7134712652952
 20
190.7578781505167
 30
0.0
 11
313.8134712652951
 21
190.7578781505167
 31
0.0
  0
ARC
  5
38F
330
1B
100
AcDbEntity
  8
4
 62
     3
100
AcDbCircle
 10
313.7134712652952
 20
188.8578781505167
 30
0.0
 40
1.9
100
AcDbArc
 50
90.0
 51
180.0
  0
ARC
  5
390
330
1B
100
AcDbEntity
  8
4
 62
     3
100
AcDbCircle
 10
293.977579265295
 20
165.9469151505166
 30
0.0
 40
3.0
100
AcDbArc
 50
266.4985550000002
 51
17.25658699999994
  0
ARC
  5
392
330
1B
100
AcDbEntity
  8
4
 62
     3
100
AcDbCircle
 10
340.3134712652951
 20
74.25787815051666
 30
0.0
 40
1.0
100
AcDbArc
 50
0.0
 51
90.0
  0
ARC
  5
394
330
1B
100
AcDbEntity
  8
4
 62
     3
100
AcDbCircle
 10
318.8134712652951
 20
80.25787815051666
 30
0.0
 40
5.0
100
AcDbArc
 50
180.0
 51
270.0
  0
ARC
  5
395
330
1B
100
AcDbEntity
  8
4
 62
     3
100
AcDbCircle
 10
296.3134712652951
 20
69.45431215051667
 30
0.0
 40
5.0
100
AcDbArc
 50
0.0
 51
103.1365590000003
  0
ARC
  5
396
330
1B
100
AcDbEntity
  8
4
 62
     3
100
AcDbCircle
 10
304.3134712652951
 20
74.25787815051666
 30
0.0
 40
1.0
100
AcDbArc
 50
90.0
 51
180.0
  0
ARC
  5
397
330
1B
100
AcDbEntity
  8
4
 62
     3
100
AcDbCircle
 10
302.3134712652951
 20
74.25787815051666
 30
0.0
 40
1.0
100
AcDbArc
 50
90.0
 51
180.0
  0
ARC
  5
398
330
1B
100
AcDbEntity
  8
4
 62
     3
100
AcDbCircle
 10
310.526800265295
 20
80.25787815051666
 30
0.0
 40
5.0
100
AcDbArc
 50
165.8987389999998
 51
270.0
  0
LINE
  5
399
330
1B
100
AcDbEntity
  8
4
 62
     3
100
AcDbLine
 10
302.3134712652951
 20
75.25787815051666
 30
0.0
 11
340.3134712652951
 21
75.25787815051666
 31
0.0
  0
ARC
  5
39A
330
1B
100
AcDbEntity
  8
4
 62
     3
100
AcDbCircle
 10
293.977579265295
 20
128.5688411505167
 30
0.0
 40
3.0
100
AcDbArc
 50
342.743413
 51
93.50144499999976
  0
LINE
  5
39B
330
1B
100
AcDbEntity
  8
4
 62
     3
100
AcDbLine
 10
313.8134712652951
 20
147.2578781505167
 30
0.0
 11
313.8134712652951
 21
80.25787815051666
 31
0.0
  0
ARC
  5
39C
330
1B
100
AcDbEntity
  8
4
 62
     3
100
AcDbCircle
 10
258.6927972652951
 20
172.1372041505167
 30
0.0
 40
3.0
100
AcDbArc
 50
9.744047999999724
 51
80.25595200000033
  0
ARC
  5
39D
330
1B
100
AcDbEntity
  8
4
 62
     3
100
AcDbCircle
 10
259.9680232652951
 20
173.4124301505166
 30
0.0
 40
3.0
100
AcDbArc
 50
10.24875299999949
 51
79.75124700000049
  0
ARC
  5
39E
330
1B
100
AcDbEntity
  8
4
 62
     3
100
AcDbCircle
 10
266.955099265295
 20
167.6003641505167
 30
0.0
 40
3.0
100
AcDbArc
 50
187.6405240000003
 51
266.4985550000002
  0
ARC
  5
39F
330
1B
100
AcDbEntity
  8
4
 62
     3
100
AcDbCircle
 10
200.6718432652953
 20
167.6003641505167
 30
0.0
 40
3.0
100
AcDbArc
 50
273.5014449999998
 51
352.3594759999996
  0
ARC
  5
3A0
330
1B
100
AcDbEntity
  8
4
 62
     3
100
AcDbCircle
 10
207.6589192652951
 20
173.4124301505166
 30
0.0
 40
3.0
100
AcDbArc
 50
100.2487530000001
 51
169.7512470000005
  0
ARC
  5
3A1
330
1B
100
AcDbEntity
  8
4
 62
     3
100
AcDbCircle
 10
208.9341452652951
 20
172.1372041505167
 30
0.0
 40
3.0
100
AcDbArc
 50
99.7440480000002
 51
170.2559520000003
  0
LINE
  5
3A2
330
1B
100
AcDbEntity
  8
4
 62
     3
100
AcDbLine
 10
200.855064265295
 20
164.6059641505166
 30
0.0
 11
173.8325842652952
 21
162.9525151505167
 31
0.0
  0
ARC
  5
3A3
330
1B
100
AcDbEntity
  8
4
 62
     3
100
AcDbCircle
 10
233.8134712652951
 20
27.25787815051666
 30
0.0
 40
150.0
100
AcDbArc
 50
80.25595200000002
 51
99.744048
  0
ARC
  5
3A4
330
1B
100
AcDbEntity
  8
4
 62
     3
100
AcDbCircle
 10
233.8134712652951
 20
28.75787815051666
 30
0.0
 40
150.0
100
AcDbArc
 50
79.75124699999999
 51
100.2488713985449
  0
LINE
  5
3A5
330
1B
100
AcDbEntity
  8
4
 62
     3
100
AcDbLine
 10
200.855064265295
 20
129.9097921505167
 30
0.0
 11
173.8325842652952
 21
131.5632411505166
 31
0.0
  0
ARC
  5
3A6
330
1B
100
AcDbEntity
  8
4
 62
     3
100
AcDbCircle
 10
153.913471265295
 20
188.8578781505167
 30
0.0
 40
1.9
100
AcDbArc
 50
0.0
 51
90.0
  0
ARC
  5
3A7
330
1B
100
AcDbEntity
  8
4
 62
     3
100
AcDbCircle
 10
153.9134712652951
 20
188.8578781505167
 30
0.0
 40
1.9
100
AcDbArc
 50
0.0
 51
90.0
  0
LINE
  5
3A8
330
1B
100
AcDbEntity
  8
4
 62
     3
100
AcDbLine
 10
153.913471265295
 20
190.7578781505167
 30
0.0
 11
153.8134712652951
 21
190.7578781505167
 31
0.0
  0
LINE
  5
3A9
330
1B
100
AcDbEntity
  8
4
 62
     3
100
AcDbLine
 10
153.8824042652951
 20
190.7578781505167
 30
0.0
 11
153.8134712652951
 21
190.7578781505167
 31
0.0
  0
LINE
  5
3AA
330
1B
100
AcDbEntity
  8
4
 62
     3
100
AcDbLine
 10
153.9134712652951
 20
190.7578781505167
 30
0.0
 11
153.8134712652951
 21
190.7578781505167
 31
0.0
  0
LINE
  5
3AB
330
1B
100
AcDbEntity
  8
4
 62
     3
100
AcDbLine
 10
155.8134712652951
 20
180.0603171505167
 30
0.0
 11
155.8134712652951
 21
188.8578781505167
 31
0.0
  0
LINE
  5
3AC
330
1B
100
AcDbEntity
  8
4
100
AcDbLine
 10
151.8134712652951
 20
129.7578781505167
 30
0.0
 11
150.3134712652951
 21
129.7578781505167
 31
0.0
  0
ARC
  5
3AD
330
1B
100
AcDbEntity
  8
4
 62
     3
100
AcDbCircle
 10
151.8134712652951
 20
135.2578781505167
 30
0.0
 40
2.0
100
AcDbArc
 50
270.0
 51
0.0
  0
LINE
  5
3AE
330
1B
100
AcDbEntity
  8
4
100
AcDbLine
 10
150.3134712652951
 20
130.7578781505167
 30
0.0
 11
143.3134712652951
 21
130.7578781505167
 31
0.0
  0
LINE
  5
3AF
330
1B
100
AcDbEntity
  8
4
 62
     3
100
AcDbLine
 10
153.8134712652951
 20
147.2578781505167
 30
0.0
 11
153.8134712652951
 21
135.2578781505167
 31
0.0
  0
ARC
  5
3B0
330
1B
100
AcDbEntity
  8
4
 62
     3
100
AcDbCircle
 10
173.6493632652952
 20
165.9469151505166
 30
0.0
 40
3.0
100
AcDbArc
 50
162.7434129999999
 51
273.5014449999998
  0
ARC
  5
3B1
330
1B
100
AcDbEntity
  8
4
 62
     3
100
AcDbCircle
 10
258.6927972652951
 20
122.3785521505167
 30
0.0
 40
3.0
100
AcDbArc
 50
279.7440479999997
 51
350.2559520000003
  0
ARC
  5
3B2
330
1B
100
AcDbEntity
  8
4
 62
     3
100
AcDbCircle
 10
259.9680232652951
 20
121.1033261505167
 30
0.0
 40
3.0
100
AcDbArc
 50
280.2487529999995
 51
349.7512470000005
  0
ARC
  5
3B3
330
1B
100
AcDbEntity
  8
4
 62
     3
100
AcDbCircle
 10
254.1559572652951
 20
114.1162501505167
 30
0.0
 40
3.0
100
AcDbArc
 50
97.64052400000037
 51
176.4985550000003
  0
ARC
  5
3B4
330
1B
100
AcDbEntity
  8
4
 62
     3
100
AcDbCircle
 10
208.9341452652951
 20
122.3785521505167
 30
0.0
 40
3.0
100
AcDbArc
 50
189.7440479999997
 51
260.2559519999998
  0
ARC
  5
3B5
330
1B
100
AcDbEntity
  8
4
 62
     3
100
AcDbCircle
 10
207.6589192652951
 20
121.1033261505167
 30
0.0
 40
3.0
100
AcDbArc
 50
190.2487529999995
 51
259.7512469999999
  0
ARC
  5
3B6
330
1B
100
AcDbEntity
  8
4
 62
     3
100
AcDbCircle
 10
213.4709852652951
 20
114.1162501505167
 30
0.0
 40
3.0
100
AcDbArc
 50
3.501444999999718
 51
82.35947600000019
  0
ARC
  5
3B7
330
1B
100
AcDbEntity
  8
4
 62
     3
100
AcDbCircle
 10
233.8134712652951
 20
265.7578781505167
 30
0.0
 40
150.0
100
AcDbArc
 50
259.751128601455
 51
280.248753
  0
ARC
  5
3B8
330
1B
100
AcDbEntity
  8
4
 62
     3
100
AcDbCircle
 10
233.8134712652951
 20
267.2578781505167
 30
0.0
 40
150.0
100
AcDbArc
 50
260.255952
 51
279.744048
  0
ARC
  5
3B9
330
1B
100
AcDbEntity
  8
4
 62
     3
100
AcDbCircle
 10
252.5025082652952
 20
87.09377015051666
 30
0.0
 40
3.0
100
AcDbArc
 50
176.4985550000003
 51
287.256587
  0
ARC
  5
3BA
330
1B
100
AcDbEntity
  8
4
 62
     3
100
AcDbCircle
 10
215.124434265295
 20
87.09377015051666
 30
0.0
 40
3.0
100
AcDbArc
 50
252.7434130000001
 51
3.501444999999718
  0
LINE
  5
3BB
330
1B
100
AcDbEntity
  8
4
 62
     3
100
AcDbLine
 10
216.4653852652951
 20
114.2994711505167
 30
0.0
 11
218.118834265295
 21
87.27699115051661
 31
0.0
  0
LINE
  5
3BC
330
1B
100
AcDbEntity
  8
4
 62
     3
100
AcDbLine
 10
251.1615572652951
 20
114.2994711505167
 30
0.0
 11
249.5081082652952
 21
87.27699115051661
 31
0.0
  0
LINE
  5
3BD
330
1B
100
AcDbEntity
  8
L-CENTER
 48
2.0
100
AcDbLine
 10
161.395899265295
 20
118.2578781505167
 30
0.0
 11
139.5498022901826
 21
118.2578781505167
 31
0.0
  0
LINE
  5
3BE
330
1B
100
AcDbEntity
  8
4
100
AcDbLine
 10
148.3134712652951
 20
124.5078781505167
 30
0.0
 11
143.3134712652951
 21
124.5078781505167
 31
0.0
  0
ARC
  5
3BF
330
1B
100
AcDbEntity
  8
4
 62
     3
100
AcDbCircle
 10
152.3134712652951
 20
102.7578781505167
 30
0.0
 40
0.5
100
AcDbArc
 50
0.0
 51
90.0
  0
LINE
  5
3C0
330
1B
100
AcDbEntity
  8
4
 62
     3
100
AcDbLine
 10
152.3134712652951
 20
103.2578781505167
 30
0.0
 11
151.8134712652951
 21
103.2578781505167
 31
0.0
  0
LINE
  5
3C1
330
1B
100
AcDbEntity
  8
4
100
AcDbLine
 10
151.8134712652951
 20
106.7578781505167
 30
0.0
 11
150.3134712652951
 21
106.7578781505167
 31
0.0
  0
LINE
  5
3C2
330
1B
100
AcDbEntity
  8
4
100
AcDbLine
 10
148.3134712652951
 20
112.0078781505167
 30
0.0
 11
143.3134712652951
 21
112.0078781505167
 31
0.0
  0
LINE
  5
3C3
330
1B
100
AcDbEntity
  8
4
100
AcDbLine
 10
143.3134712652951
 20
105.7578781505167
 30
0.0
 11
150.3134712652951
 21
105.7578781505167
 31
0.0
  0
LINE
  5
3C4
330
1B
100
AcDbEntity
  8
L-CENTER
 48
2.0
100
AcDbLine
 10
164.3380682652952
 20
87.25787815051666
 30
0.0
 11
148.8973032652951
 21
87.25787815051666
 31
0.0
  0
LINE
  5
3C5
330
1B
100
AcDbEntity
  8
4
 62
     3
100
AcDbLine
 10
152.3134712652951
 20
94.75787815051666
 30
0.0
 11
151.8134712652951
 21
94.75787815051666
 31
0.0
  0
ARC
  5
3C6
330
1B
100
AcDbEntity
  8
4
 62
     3
100
AcDbCircle
 10
152.3134712652951
 20
95.25787815051666
 30
0.0
 40
0.5
100
AcDbArc
 50
270.0
 51
0.0
  0
LINE
  5
3C7
330
1B
100
AcDbEntity
  8
4
100
AcDbLine
 10
150.8134712652951
 20
91.75787815051666
 30
0.0
 11
151.8134712652951
 21
91.75787815051666
 31
0.0
  0
LINE
  5
3C8
330
1B
100
AcDbEntity
  8
4
100
AcDbLine
 10
150.8134712652951
 20
82.75787815051666
 30
0.0
 11
151.8134712652951
 21
82.75787815051666
 31
0.0
  0
LINE
  5
3C9
330
1B
100
AcDbEntity
  8
4
100
AcDbLine
 10
150.8134712652951
 20
82.75787815051666
 30
0.0
 11
150.8134712652951
 21
91.75787815051666
 31
0.0
  0
ARC
  5
3CA
330
1B
100
AcDbEntity
  8
4
 62
     3
100
AcDbCircle
 10
147.8134712652951
 20
80.25787815051666
 30
0.0
 40
5.0
100
AcDbArc
 50
270.0
 51
347.1604119999997
  0
LINE
  5
3CB
330
1B
100
AcDbEntity
  8
4
 62
     3
100
AcDbLine
 10
152.2009532652951
 20
79.75787815051666
 30
0.0
 11
151.8134712652951
 21
79.75787815051666
 31
0.0
  0
ARC
  5
3CC
330
1B
100
AcDbEntity
  8
4
 62
     3
100
AcDbCircle
 10
152.2009532652951
 20
79.25787815051666
 30
0.0
 40
0.5
100
AcDbArc
 50
347.1604120000013
 51
90.0
  0
ARC
  5
3CD
330
1B
100
AcDbEntity
  8
4
 62
     3
100
AcDbCircle
 10
148.8134712652951
 20
80.25787815051666
 30
0.0
 40
5.0
100
AcDbArc
 50
270.0
 51
0.0
  0
ARC
  5
3CE
330
1B
100
AcDbEntity
  8
4
 62
     3
100
AcDbCircle
 10
171.3134712652951
 20
69.45431215051667
 30
0.0
 40
5.0
100
AcDbArc
 50
76.86344100000008
 51
180.0
  0
ARC
  5
3CF
330
1B
100
AcDbEntity
  8
4
 62
     3
100
AcDbCircle
 10
163.3134712652951
 20
74.25787815051666
 30
0.0
 40
1.0
100
AcDbArc
 50
0.0
 51
90.0
  0
ARC
  5
3D0
330
1B
100
AcDbEntity
  8
4
 62
     3
100
AcDbCircle
 10
165.3134712652951
 20
74.25787815051666
 30
0.0
 40
1.0
100
AcDbArc
 50
0.0
 51
90.0
  0
ARC
  5
3D1
330
1B
100
AcDbEntity
  8
4
 62
     3
100
AcDbCircle
 10
127.3134712652951
 20
74.25787815051666
 30
0.0
 40
1.0
100
AcDbArc
 50
90.0
 51
180.0
  0
LINE
  5
3D2
330
1B
100
AcDbEntity
  8
4
 62
     3
100
AcDbLine
 10
127.3134712652951
 20
75.25787815051666
 30
0.0
 11
165.3134712652951
 21
75.25787815051666
 31
0.0
  0
LINE
  5
3D3
330
1B
100
AcDbEntity
  8
4
 62
     3
100
AcDbLine
 10
151.8134712652951
 20
79.75787815051666
 30
0.0
 11
151.8134712652951
 21
94.75787815051666
 31
0.0
  0
ARC
  5
3D4
330
1B
100
AcDbEntity
  8
4
 62
     3
100
AcDbCircle
 10
157.1001422652952
 20
80.25787815051666
 30
0.0
 40
5.0
100
AcDbArc
 50
270.0
 51
14.10126100000022
  0
LINE
  5
3D5
330
1B
100
AcDbEntity
  8
4
 62
     3
100
AcDbLine
 10
152.8134712652951
 20
102.7578781505167
 30
0.0
 11
152.8134712652951
 21
95.25787815051666
 31
0.0
  0
ARC
  5
3D6
330
1B
100
AcDbEntity
  8
4
 62
     3
100
AcDbCircle
 10
233.8134712652951
 20
337.2578781505166
 30
0.0
 40
270.0
100
AcDbArc
 50
256.863441
 51
270.0
  0
LINE
  5
3D7
330
1B
100
AcDbEntity
  8
4
 62
     3
100
AcDbLine
 10
151.8134712652951
 20
103.2578781505167
 30
0.0
 11
151.8134712652951
 21
133.2578781505167
 31
0.0
  0
LINE
  5
3D8
330
1B
100
AcDbEntity
  8
4
100
AcDbLine
 10
150.3134712652951
 20
105.7578781505167
 30
0.0
 11
150.3134712652951
 21
130.7578781505167
 31
0.0
  0
LINE
  5
3D9
330
1B
100
AcDbEntity
  8
4
100
AcDbLine
 10
148.3134712652951
 20
130.7578781505167
 30
0.0
 11
148.3134712652951
 21
105.7578781505167
 31
0.0
  0
LINE
  5
3DA
330
1B
100
AcDbEntity
  8
4
100
AcDbLine
 10
143.3134712652951
 20
105.7578781505167
 30
0.0
 11
143.3134712652951
 21
130.7578781505167
 31
0.0
  0
LINE
  5
3DB
330
1B
100
AcDbEntity
  8
4
 62
     3
100
AcDbLine
 10
153.8134712652951
 20
147.2578781505167
 30
0.0
 11
153.8134712652951
 21
80.25787815051666
 31
0.0
  0
LINE
  5
3DC
330
1B
100
AcDbEntity
  8
4
100
AcDbLine
 10
151.8134712652951
 20
106.7578781505167
 30
0.0
 11
151.8134712652951
 21
129.7578781505167
 31
0.0
  0
ARC
  5
3DD
330
1B
100
AcDbEntity
  8
4
 62
     3
100
AcDbCircle
 10
200.6718432652953
 20
126.9153921505167
 30
0.0
 40
3.0
100
AcDbArc
 50
7.640524000000441
 51
86.49855500000022
  0
ARC
  5
3DE
330
1B
100
AcDbEntity
  8
4
 62
     3
100
AcDbCircle
 10
173.6493632652952
 20
128.5688411505167
 30
0.0
 40
3.0
100
AcDbArc
 50
86.49855500000022
 51
197.2565870000001
  0
ARC
  5
3DF
330
1B
100
AcDbEntity
  8
4
 62
     3
100
AcDbCircle
 10
352.3134712652951
 20
147.2578781505167
 30
0.0
 40
150.0
100
AcDbArc
 50
169.751247
 51
190.2487529999999
  0
ARC
  5
3E0
330
1B
100
AcDbEntity
  8
4
 62
     3
100
AcDbCircle
 10
353.8134712652951
 20
147.2578781505167
 30
0.0
 40
150.0
100
AcDbArc
 50
170.255952
 51
189.744048
  0
ARC
  5
3E1
330
1B
100
AcDbEntity
  8
4
 62
     3
100
AcDbCircle
 10
266.955099265295
 20
126.9153921505167
 30
0.0
 40
3.0
100
AcDbArc
 50
93.50144499999976
 51
172.3594759999997
  0
ARC
  5
3E2
330
1B
100
AcDbEntity
  8
4
 62
     3
100
AcDbCircle
 10
115.3134712652951
 20
147.2578781505167
 30
0.0
 40
150.0
100
AcDbArc
 50
349.751247
 51
10.24875300000003
  0
ARC
  5
3E3
330
1B
100
AcDbEntity
  8
4
 62
     3
100
AcDbCircle
 10
113.8134712652951
 20
147.2578781505167
 30
0.0
 40
150.0
100
AcDbArc
 50
350.2559519999999
 51
9.744047999999987
  0
LINE
  5
3E4
330
1B
100
AcDbEntity
  8
L-CENTER
 48
2.0
100
AcDbLine
 10
147.4448192652951
 20
147.2578781505167
 30
0.0
 11
320.1821232652951
 21
147.2578781505167
 31
0.0
  0
LINE
  5
3E5
330
1B
100
AcDbEntity
  8
4
 62
     3
100
AcDbLine
 10
293.7525392006208
 20
162.9550739715674
 30
0.0
 11
266.7783927765887
 21
164.6055655412037
 31
0.0
  0
LINE
  5
3E6
330
1B
100
AcDbEntity
  8
4
 62
     3
100
AcDbLine
 10
266.7718782652952
 20
129.9097921505167
 30
0.0
 11
293.794358265295
 21
131.5632411505166
 31
0.0
  0
LINE
  5
3E7
330
1B
100
AcDbEntity
  8
4
 62
     3
100
AcDbLine
 10
171.3134712652951
 20
66.25787815051666
 30
0.0
 11
296.3134712652951
 21
66.25787815051666
 31
0.0
  0
ARC
  5
3E8
330
1B
100
AcDbEntity
  8
4
 62
     3
100
AcDbCircle
 10
233.8134712652951
 20
337.2578781505166
 30
0.0
 40
270.0
100
AcDbArc
 50
270.0
 51
283.1365589999999
  0
LINE
  5
3EC
330
1B
100
AcDbEntity
  8
4
 62
     3
100
AcDbLine
 10
301.3134712652951
 20
55.25787815051666
 30
0.0
 11
341.3134712652951
 21
55.25787815051666
 31
0.0
  0
TEXT
  5
3F3
330
1B
100
AcDbEntity
  8
3
100
AcDbText
 10
403.0634431280128
 20
39.81810322818393
 30
0.0
 40
6.0
  1
LB2-06
  7
KANJI
 72
     1
 11
419.5634431280128
 21
39.81810322818393
 31
0.0
100
AcDbText
  0
LINE
  5
3F7
330
1B
100
AcDbEntity
  8
4
 62
     3
100
AcDbLine
 10
126.3134712652951
 20
55.25787815051666
 30
0.0
 11
166.3134712652951
 21
55.25787815051666
 31
0.0
  0
LINE
  5
402
330
1B
100
AcDbEntity
  8
4
 62
     3
100
AcDbLine
 10
126.3134712652951
 20
74.25787815051666
 30
0.0
 11
126.3134712652951
 21
55.25787815051666
 31
0.0
  0
LINE
  5
403
330
1B
100
AcDbEntity
  8
L-CENTER
 48
2.0
100
AcDbLine
 10
138.8134712652951
 20
82.25787815051666
 30
0.0
 11
138.8134712652951
 21
48.25787815051666
 31
0.0
  0
ARC
  5
404
330
1B
100
AcDbEntity
  8
4
 62
     3
100
AcDbCircle
 10
171.3134712652951
 20
61.25787815051666
 30
0.0
 40
5.0
100
AcDbArc
 50
90.0
 51
180.0
  0
LINE
  5
405
330
1B
100
AcDbEntity
  8
4
 62
     3
100
AcDbLine
 10
164.3134712652951
 20
74.25787815051666
 30
0.0
 11
164.3134712652951
 21
55.25787815051666
 31
0.0
  0
LINE
  5
406
330
1B
100
AcDbEntity
  8
4
 62
     3
100
AcDbLine
 10
166.3134712652951
 20
74.25787815051666
 30
0.0
 11
166.3134712652951
 21
55.25787815051666
 31
0.0
  0
LWPOLYLINE
  5
409
330
1B
100
AcDbEntity
  8
4
100
AcDbPolyline
 90
       30
 70
     0
 43
0.0
 10
317.9684232652952
 20
75.22550215051666
 10
318.3302872652952
 20
74.86360815051665
 10
318.676435265295
 20
74.50059415051663
 10
318.9911472652951
 20
74.13534215051669
 10
319.2587072652951
 20
73.76673215051659
 10
319.4633972652952
 20
73.39364415051665
 10
319.5895032652951
 20
73.01496215051674
 10
319.6261192652952
 20
72.65212815051672
 10
319.5886832652951
 20
72.28377215051665
 10
319.4869212652951
 20
71.91033415051669
 10
318.8929592652952
 20
70.76396215051665
 10
318.0702832652952
 20
69.58779415051669
 10
317.2815592652952
 20
68.39378215051664
 10
317.0715952652951
 20
67.99387615051666
 10
316.9043172652952
 20
67.59375815051663
 10
316.789453265295
 20
67.1938721505166
 10
316.7288292652951
 20
66.67464015051672
 10
316.7607672652952
 20
66.15629215051666
 10
316.8727052652952
 20
65.6385781505166
 10
317.5629272652951
 20
64.0867001505166
 10
318.520999265295
 20
62.5314121505167
 10
319.4078112652952
 20
60.96588815051672
 10
319.6289652652951
 20
60.44059415051669
 10
319.7919612652951
 20
59.91315015051663
 10
319.8842412652951
 20
59.38330615051672
 10
319.8754432652951
 20
58.58000815051668
 10
319.7153172652951
 20
57.77188815051665
 10
319.4416932652952
 20
56.96015015051665
 10
319.092405265295
 20
56.14600215051672
 10
318.7052852652952
 20
55.33064815051665
  0
LINE
  5
40A
330
1B
100
AcDbEntity
  8
4
100
AcDbLine
 10
323.3134712652951
 20
75.25787815051666
 30
0.0
 11
323.3134712652951
 21
55.25787815051666
 31
0.0
  0
LINE
  5
40B
330
1B
100
AcDbEntity
  8
L-CENTER
 48
2.0
100
AcDbLine
 10
328.8134712652951
 20
82.25787815051666
 30
0.0
 11
328.8134712652951
 21
48.25787815051666
 31
0.0
  0
LINE
  5
40C
330
1B
100
AcDbEntity
  8
4
100
AcDbLine
 10
334.3134712652951
 20
75.25787815051666
 30
0.0
 11
334.3134712652951
 21
55.25787815051666
 31
0.0
  0
LINE
  5
40D
330
1B
100
AcDbEntity
  8
4
 62
     3
100
AcDbLine
 10
341.3134712652951
 20
74.25787815051666
 30
0.0
 11
341.3134712652951
 21
55.25787815051666
 31
0.0
  0
ARC
  5
40E
330
1B
100
AcDbEntity
  8
4
 62
     3
100
AcDbCircle
 10
296.3134712652951
 20
61.25787815051666
 30
0.0
 40
5.0
100
AcDbArc
 50
0.0
 51
90.0
  0
LINE
  5
40F
330
1B
100
AcDbEntity
  8
4
 62
     3
100
AcDbLine
 10
301.3134712652951
 20
74.25787815051666
 30
0.0
 11
301.3134712652951
 21
55.25787815051666
 31
0.0
  0
LINE
  5
410
330
1B
100
AcDbEntity
  8
4
 62
     3
100
AcDbLine
 10
303.3134712652951
 20
74.25787815051666
 30
0.0
 11
303.3134712652951
 21
55.25787815051666
 31
0.0
  0
LINE
  5
450
330
1B
100
AcDbEntity
  8
4
 62
     3
100
AcDbLine
 10
313.8134712652951
 20
190.7578781505167
 30
0.0
 11
313.8134712652951
 21
255.7578781505167
 31
0.0
  0
LINE
  5
451
330
1B
100
AcDbEntity
  8
4
 62
     3
100
AcDbLine
 10
313.8134712652951
 20
190.7578781505167
 30
0.0
 11
313.8134712652951
 21
255.7578781505167
 31
0.0
  0
LINE
  5
452
330
1B
100
AcDbEntity
  8
4
 62
     3
100
AcDbLine
 10
311.8134712652951
 20
180.0603171505167
 30
0.0
 11
311.8134712652951
 21
212.2578781505167
 31
0.0
  0
LINE
  5
453
330
1B
100
AcDbEntity
  8
4
 62
     3
100
AcDbLine
 10
153.8134712652951
 20
190.7578781505167
 30
0.0
 11
153.8134712652951
 21
255.7578781505167
 31
0.0
  0
LINE
  5
454
330
1B
100
AcDbEntity
  8
4
 62
     3
100
AcDbLine
 10
153.8134712652951
 20
190.7578781505167
 30
0.0
 11
153.8134712652951
 21
255.7578781505167
 31
0.0
  0
LINE
  5
455
330
1B
100
AcDbEntity
  8
4
 62
     3
100
AcDbLine
 10
153.8134712652951
 20
190.7578781505167
 30
0.0
 11
153.8134712652951
 21
255.7578781505167
 31
0.0
  0
LINE
  5
456
330
1B
100
AcDbEntity
  8
4
 62
     3
100
AcDbLine
 10
155.8134712652951
 20
180.0603171505167
 30
0.0
 11
155.8134712652951
 21
212.2578781505167
 31
0.0
  0
ARC
  5
457
330
1B
100
AcDbEntity
  8
4
 62
     3
100
AcDbCircle
 10
233.8134712652951
 20
147.2578781505167
 30
0.0
 40
78.0
100
AcDbArc
 50
90.0
 51
270.0
  0
ARC
  5
458
330
1B
100
AcDbEntity
  8
4
 62
     3
100
AcDbCircle
 10
423.8134712652951
 20
147.2578781505167
 30
0.0
 40
270.0
100
AcDbArc
 50
165.210916
 51
194.101261
  0
ARC
  5
459
330
1B
100
AcDbEntity
  8
4
 62
     3
100
AcDbCircle
 10
233.8134712652951
 20
147.2578781505167
 30
0.0
 40
78.0
100
AcDbArc
 50
270.0
 51
90.0
  0
ARC
  5
45A
330
1B
100
AcDbEntity
  8
4
 62
     3
100
AcDbCircle
 10
233.8134712652951
 20
147.2578781505167
 30
0.0
 40
66.0
100
AcDbArc
 50
270.0
 51
74.13107901376965
  0
LINE
  5
45B
330
1B
100
AcDbEntity
  8
L-CENTER
 48
2.0
100
AcDbLine
 10
233.8134712652951
 20
60.88922615051666
 30
0.0
 11
233.8134712652951
 21
261.0111230594261
 31
0.0
  0
ARC
  5
45C
330
1B
100
AcDbEntity
  8
4
 62
     3
100
AcDbCircle
 10
233.8134712652951
 20
147.2578781505167
 30
0.0
 40
66.0
100
AcDbArc
 50
105.8689209862304
 51
270.0
  0
ARC
  5
45D
330
1B
100
AcDbEntity
  8
4
 62
     3
100
AcDbCircle
 10
43.81347126529511
 20
147.2578781505167
 30
0.0
 40
270.0
100
AcDbArc
 50
345.898739
 51
14.78908400000003
  0
CIRCLE
  5
45F
330
1B
100
AcDbEntity
  8
4
100
AcDbCircle
 10
591.3626845156118
 20
223.2578781505167
 30
0.0
 40
32.5
  0
LINE
  5
460
330
1B
100
AcDbEntity
  8
4
100
AcDbLine
 10
558.8626845156118
 20
223.2578781505167
 30
0.0
 11
558.8626845156118
 21
180.0603171505166
 31
0.0
  0
LINE
  5
461
330
1B
100
AcDbEntity
  8
4
100
AcDbLine
 10
545.6056395156118
 20
180.1548721505166
 30
0.0
 11
550.3626845156118
 21
207.5078794284482
 31
0.0
  0
LINE
  5
462
330
1B
100
AcDbEntity
  8
4
100
AcDbLine
 10
623.8626845156118
 20
223.2578781505167
 30
0.0
 11
623.8626845156118
 21
180.0603171505166
 31
0.0
  0
LINE
  5
467
330
1B
100
AcDbEntity
  8
4
100
AcDbLine
 10
640.1626845156118
 20
75.2578781505166
 30
0.0
 11
640.1626845156118
 21
224.2578781505167
 31
0.0
  0
LINE
  5
468
330
1B
100
AcDbEntity
  8
4
100
AcDbLine
 10
625.3626845156118
 20
226.2578781505167
 30
0.0
 11
625.3626845156118
 21
75.2578781505166
 31
0.0
  0
LINE
  5
469
330
1B
100
AcDbEntity
  8
4
100
AcDbLine
 10
557.3626785156118
 20
226.2578781505167
 30
0.0
 11
557.3626785156118
 21
75.25787815051666
 31
0.0
  0
LINE
  5
46A
330
1B
100
AcDbEntity
  8
4
 62
     3
100
AcDbLine
 10
550.3626845156118
 20
75.25787815051666
 30
0.0
 11
550.3626845156118
 21
224.2578781505167
 31
0.0
  0
LINE
  5
46B
330
1B
100
AcDbEntity
  8
4
 62
     3
100
AcDbLine
 10
630.3626845156118
 20
75.25787815051666
 30
0.0
 11
630.3626845156118
 21
225.2578781505167
 31
0.0
  0
LINE
  5
46C
330
1B
100
AcDbEntity
  8
L-CENTER
 48
2.0
100
AcDbLine
 10
591.3626845156118
 20
50.49271046892221
 30
0.0
 11
591.3626845156118
 21
269.0891448523589
 31
0.0
  0
LINE
  5
48D
330
1B
100
AcDbEntity
  8
4
100
AcDbLine
 10
103.8134712652951
 20
231.2578781505167
 30
0.0
 11
104.8134712652951
 21
232.2578781505167
 31
0.0
  0
LINE
  5
48E
330
1B
100
AcDbEntity
  8
4
100
AcDbLine
 10
135.8134712652951
 20
234.2578781505167
 30
0.0
 11
135.8134712652951
 21
232.2578781505167
 31
0.0
  0
LINE
  5
48F
330
1B
100
AcDbEntity
  8
4
100
AcDbLine
 10
103.8134712652951
 20
234.2578781505167
 30
0.0
 11
135.8134712652951
 21
234.2578781505167
 31
0.0
  0
LINE
  5
490
330
1B
100
AcDbEntity
  8
4
100
AcDbLine
 10
152.8134712652951
 20
233.2578781505167
 30
0.0
 11
138.8134712652951
 21
233.2578781505167
 31
0.0
  0
LINE
  5
491
330
1B
100
AcDbEntity
  8
4
100
AcDbLine
 10
138.8134712652951
 20
232.2578781505167
 30
0.0
 11
104.8134712652951
 21
232.2578781505167
 31
0.0
  0
LINE
  5
493
330
1B
100
AcDbEntity
  8
4
100
AcDbLine
 10
104.8134712652951
 20
214.2578781505167
 30
0.0
 11
103.8134712652951
 21
215.2578781505167
 31
0.0
  0
LINE
  5
494
330
1B
100
AcDbEntity
  8
4
100
AcDbLine
 10
138.8134712652951
 20
213.2578781505167
 30
0.0
 11
152.8134712652951
 21
213.2578781505167
 31
0.0
  0
LINE
  5
495
330
1B
100
AcDbEntity
  8
4
100
AcDbLine
 10
138.8134712652951
 20
214.2578781505167
 30
0.0
 11
104.8134712652951
 21
214.2578781505167
 31
0.0
  0
LINE
  5
496
330
1B
100
AcDbEntity
  8
4
100
AcDbLine
 10
138.8134712652951
 20
233.2578781505167
 30
0.0
 11
138.8134712652951
 21
213.2578781505167
 31
0.0
  0
LINE
  5
497
330
1B
100
AcDbEntity
  8
4
100
AcDbLine
 10
104.8134712652951
 20
214.2578781505167
 30
0.0
 11
104.8134712652951
 21
232.2578781505167
 31
0.0
  0
LINE
  5
498
330
1B
100
AcDbEntity
  8
4
100
AcDbLine
 10
103.8134712652951
 20
234.2578781505167
 30
0.0
 11
103.8134712652951
 21
215.2578781505167
 31
0.0
  0
LINE
  5
4B0
330
1B
100
AcDbEntity
  8
4
100
AcDbLine
 10
104.8134712652951
 20
474.1149983122609
 30
0.0
 11
103.8134712652951
 21
475.1149983122609
 31
0.0
  0
LINE
  5
4B1
330
1B
100
AcDbEntity
  8
4
100
AcDbLine
 10
104.8134712652951
 20
474.1149983122609
 30
0.0
 11
104.8134712652951
 21
480.6149983122609
 31
0.0
  0
LINE
  5
4B2
330
1B
100
AcDbEntity
  8
4
100
AcDbLine
 10
138.8134712652951
 20
493.1149983122609
 30
0.0
 11
138.8134712652951
 21
473.1149983122609
 31
0.0
  0
LINE
  5
4B3
330
1B
100
AcDbEntity
  8
4
100
AcDbLine
 10
138.8134712652951
 20
474.1149983122609
 30
0.0
 11
104.8134712652951
 21
474.1149983122609
 31
0.0
  0
LINE
  5
4B4
330
1B
100
AcDbEntity
  8
4
100
AcDbLine
 10
138.8134712652951
 20
473.1149983122609
 30
0.0
 11
152.8134712652951
 21
473.1149983122609
 31
0.0
  0
LINE
  5
4B5
330
1B
100
AcDbEntity
  8
4
100
AcDbLine
 10
138.8134712652951
 20
492.1149983122609
 30
0.0
 11
104.8134712652951
 21
492.1149983122609
 31
0.0
  0
LINE
  5
4B6
330
1B
100
AcDbEntity
  8
4
100
AcDbLine
 10
152.8134712652951
 20
493.1149983122609
 30
0.0
 11
138.8134712652951
 21
493.1149983122609
 31
0.0
  0
LINE
  5
4B7
330
1B
100
AcDbEntity
  8
4
100
AcDbLine
 10
104.8134712652951
 20
485.6149983122609
 30
0.0
 11
104.8134712652951
 21
492.1149983122609
 31
0.0
  0
LINE
  5
4B8
330
1B
100
AcDbEntity
  8
4
100
AcDbLine
 10
103.8134712652951
 20
491.1149983122609
 30
0.0
 11
103.8134712652951
 21
475.1149983122609
 31
0.0
  0
LINE
  5
4B9
330
1B
100
AcDbEntity
  8
4
100
AcDbLine
 10
103.8134712652951
 20
485.6149983122608
 30
0.0
 11
133.3134712652952
 21
485.6149983122609
 31
0.0
  0
LINE
  5
4BA
330
1B
100
AcDbEntity
  8
4
100
AcDbLine
 10
103.8134712652951
 20
480.6149983122609
 30
0.0
 11
133.3134712652952
 21
480.6149983122609
 31
0.0
  0
ARC
  5
4BB
330
1B
100
AcDbEntity
  8
4
100
AcDbCircle
 10
133.3134712652951
 20
483.1149983122609
 30
0.0
 40
2.5
100
AcDbArc
 50
270.0
 51
90.0
  0
LINE
  5
4BC
330
1B
100
AcDbEntity
  8
4
100
AcDbLine
 10
103.8134712652951
 20
491.1149983122609
 30
0.0
 11
104.8134712652951
 21
492.1149983122609
 31
0.0
  0
LINE
  5
4BD
330
1B
100
AcDbEntity
  8
4
 62
     3
100
AcDbLine
 10
126.3134712652951
 20
474.1149983122609
 30
0.0
 11
126.3134712652951
 21
426.1149983122609
 31
0.0
  0
LINE
  5
4BE
330
1B
100
AcDbEntity
  8
4
100
AcDbLine
 10
151.8134712652951
 20
493.1149983122609
 30
0.0
 11
151.8134712652951
 21
498.1149983122608
 31
0.0
  0
LINE
  5
4BF
330
1B
100
AcDbEntity
  8
4
100
AcDbLine
 10
150.3134712652951
 20
493.1149983122609
 30
0.0
 11
150.3134712652951
 21
495.6149983122609
 31
0.0
  0
LINE
  5
4C0
330
1B
100
AcDbEntity
  8
4
100
AcDbLine
 10
148.3134712652951
 20
493.1149983122609
 30
0.0
 11
148.3134712652951
 21
495.6149983122609
 31
0.0
  0
LINE
  5
4C1
330
1B
100
AcDbEntity
  8
4
100
AcDbLine
 10
143.3134712652951
 20
493.1149983122609
 30
0.0
 11
143.3134712652951
 21
493.9403158595665
 31
0.0
  0
LINE
  5
4C4
330
1B
100
AcDbEntity
  8
4
100
AcDbLine
 10
481.3626845156118
 20
158.2578781505167
 30
0.0
 11
482.3626845156118
 21
159.2578781505167
 31
0.0
  0
LINE
  5
4C5
330
1B
100
AcDbEntity
  8
4
100
AcDbLine
 10
482.3626845156118
 20
135.2578781505167
 30
0.0
 11
481.3626845156118
 21
136.2578781505167
 31
0.0
  0
LINE
  5
4C6
330
1B
100
AcDbEntity
  8
4
100
AcDbLine
 10
482.3626845156118
 20
159.2578781505167
 30
0.0
 11
482.3626845156118
 21
135.2578781505167
 31
0.0
  0
LINE
  5
4C7
330
1B
100
AcDbEntity
  8
4
100
AcDbLine
 10
481.3626845156118
 20
162.2578781505167
 30
0.0
 11
481.3626845156118
 21
136.2578781505167
 31
0.0
  0
LINE
  5
4C8
330
1B
100
AcDbEntity
  8
4
100
AcDbLine
 10
536.3626845156117
 20
170.7578781505167
 30
0.0
 11
535.3626845156117
 21
170.7578781505167
 31
0.0
  0
LINE
  5
4C9
330
1B
100
AcDbEntity
  8
4
100
AcDbLine
 10
521.3626845156118
 20
159.7578781505167
 30
0.0
 11
535.3626845156117
 21
159.7578781505167
 31
0.0
  0
LINE
  5
4CA
330
1B
100
AcDbEntity
  8
4
100
AcDbLine
 10
521.3626845156118
 20
134.7578781505167
 30
0.0
 11
535.3626845156117
 21
134.7578781505167
 31
0.0
  0
LINE
  5
4CB
330
1B
100
AcDbEntity
  8
4
100
AcDbLine
 10
521.3626845156118
 20
159.7578781505167
 30
0.0
 11
521.3626845156118
 21
134.7578781505167
 31
0.0
  0
LINE
  5
4CC
330
1B
100
AcDbEntity
  8
4
100
AcDbLine
 10
518.3626845156118
 20
162.2578781505167
 30
0.0
 11
518.3626845156118
 21
159.2578781505167
 31
0.0
  0
LINE
  5
4CD
330
1B
100
AcDbEntity
  8
4
100
AcDbLine
 10
535.3626845156117
 20
123.7578781505167
 30
0.0
 11
536.3626845156117
 21
123.7578781505167
 31
0.0
  0
LINE
  5
4CE
330
1B
100
AcDbEntity
  8
4
100
AcDbLine
 10
535.3626845156117
 20
170.7578781505167
 30
0.0
 11
535.3626845156117
 21
123.7578781505167
 31
0.0
  0
LINE
  5
4CF
330
1B
100
AcDbEntity
  8
4
100
AcDbLine
 10
481.3626845156118
 20
162.2578781505167
 30
0.0
 11
518.3626845156118
 21
162.2578781505167
 31
0.0
  0
LINE
  5
4D0
330
1B
100
AcDbEntity
  8
4
100
AcDbLine
 10
521.3626845156118
 20
159.2578781505167
 30
0.0
 11
482.3626845156118
 21
159.2578781505167
 31
0.0
  0
LINE
  5
4D1
330
1B
100
AcDbEntity
  8
4
100
AcDbLine
 10
521.3626845156118
 20
135.2578781505167
 30
0.0
 11
482.3626845156118
 21
135.2578781505167
 31
0.0
  0
LINE
  5
4EC
330
1B
100
AcDbEntity
  8
4
100
AcDbLine
 10
237.3134712652951
 20
162.2578781505167
 30
0.0
 11
230.3134712652951
 21
162.2578781505167
 31
0.0
  0
LINE
  5
4ED
330
1B
100
AcDbEntity
  8
4
100
AcDbLine
 10
237.3134712652951
 20
155.2578781505167
 30
0.0
 11
230.3134712652951
 21
155.2578781505167
 31
0.0
  0
LINE
  5
4EE
330
1B
100
AcDbEntity
  8
4
100
AcDbLine
 10
230.3134712652951
 20
155.2578781505167
 30
0.0
 11
230.3134712652951
 21
162.2578781505167
 31
0.0
  0
LINE
  5
4EF
330
1B
100
AcDbEntity
  8
4
100
AcDbLine
 10
237.3134712652951
 20
162.2578781505167
 30
0.0
 11
237.3134712652951
 21
155.2578781505167
 31
0.0
  0
ARC
  5
4F0
330
1B
100
AcDbEntity
  8
4
100
AcDbCircle
 10
233.8134712652951
 20
147.2578781505167
 30
0.0
 40
12.0
100
AcDbArc
 50
106.9577633000041
 51
73.04223800000044
  0
CIRCLE
  5
4F1
330
1B
100
AcDbEntity
  8
4
100
AcDbCircle
 10
233.8134712652951
 20
147.2578781505167
 30
0.0
 40
23.5
  0
LINE
  5
4F2
330
1B
100
AcDbEntity
  8
4
100
AcDbLine
 10
221.313471265295
 20
413.1149983122609
 30
0.0
 11
246.313471265295
 21
413.1149983122609
 31
0.0
  0
LINE
  5
4F3
330
1B
100
AcDbEntity
  8
4
100
AcDbLine
 10
210.3134712652951
 20
427.114998312261
 30
0.0
 11
257.313471265295
 21
427.1149983122608
 31
0.0
  0
LINE
  5
4F4
330
1B
100
AcDbEntity
  8
4
100
AcDbLine
 10
221.313471265295
 20
413.1149983122609
 30
0.0
 11
221.3134712652951
 21
413.1149983122609
 31
0.0
  0
ARC
  5
4F5
330
1B
100
AcDbEntity
  8
4
100
AcDbCircle
 10
221.3134712652952
 20
412.6149983122608
 30
0.0
 40
0.5
100
AcDbArc
 50
0.0
 51
90.0
  0
LINE
  5
4F6
330
1B
100
AcDbEntity
  8
4
100
AcDbLine
 10
221.313471265295
 20
427.114998312261
 30
0.0
 11
221.313471265295
 21
413.1149983122609
 31
0.0
  0
LINE
  5
4F7
330
1B
100
AcDbEntity
  8
4
100
AcDbLine
 10
210.3134712652951
 20
427.1149983122609
 30
0.0
 11
210.3134712652951
 21
428.1149983122609
 31
0.0
  0
LINE
  5
4F8
330
1B
100
AcDbEntity
  8
4
100
AcDbLine
 10
246.313471265295
 20
413.1149983122609
 30
0.0
 11
246.313471265295
 21
413.1149983122609
 31
0.0
  0
ARC
  5
4F9
330
1B
100
AcDbEntity
  8
4
100
AcDbCircle
 10
246.313471265295
 20
412.6149983122608
 30
0.0
 40
0.5
100
AcDbArc
 50
90.0
 51
180.0
  0
LINE
  5
4FA
330
1B
100
AcDbEntity
  8
4
100
AcDbLine
 10
246.313471265295
 20
427.1149983122608
 30
0.0
 11
246.313471265295
 21
413.1149983122609
 31
0.0
  0
LINE
  5
4FB
330
1B
100
AcDbEntity
  8
4
100
AcDbLine
 10
257.313471265295
 20
427.1149983122608
 30
0.0
 11
257.3134712652951
 21
428.1149983122609
 31
0.0
  0
ARC
  5
4FC
330
1B
100
AcDbEntity
  8
4
100
AcDbCircle
 10
233.8134712652952
 20
406.6149983122608
 30
0.0
 40
3.5
100
AcDbArc
 50
0.0
 51
180.0
  0
LINE
  5
4FD
330
1B
100
AcDbEntity
  8
4
100
AcDbLine
 10
221.813471265295
 20
374.1149983122609
 30
0.0
 11
230.313471265295
 21
374.1149983122609
 31
0.0
  0
LINE
  5
4FE
330
1B
100
AcDbEntity
  8
4
100
AcDbLine
 10
222.813471265295
 20
373.1149983122609
 30
0.0
 11
244.813471265295
 21
373.1149983122609
 31
0.0
  0
LINE
  5
4FF
330
1B
100
AcDbEntity
  8
4
100
AcDbLine
 10
221.813471265295
 20
374.1149983122609
 30
0.0
 11
222.813471265295
 21
373.1149983122609
 31
0.0
  0
LINE
  5
500
330
1B
100
AcDbEntity
  8
4
100
AcDbLine
 10
245.813471265295
 20
374.1149983122609
 30
0.0
 11
244.813471265295
 21
373.1149983122609
 31
0.0
  0
LINE
  5
501
330
1B
100
AcDbEntity
  8
4
100
AcDbLine
 10
237.3134712652951
 20
374.1149983122609
 30
0.0
 11
245.813471265295
 21
374.1149983122609
 31
0.0
  0
LINE
  5
502
330
1B
100
AcDbEntity
  8
4
100
AcDbLine
 10
230.313471265295
 20
373.1149983122609
 30
0.0
 11
230.313471265295
 21
406.6149983122609
 31
0.0
  0
LINE
  5
503
330
1B
100
AcDbEntity
  8
4
100
AcDbLine
 10
237.313471265295
 20
373.1149983122609
 30
0.0
 11
237.313471265295
 21
406.6149983122609
 31
0.0
  0
LINE
  5
504
330
1B
100
AcDbEntity
  8
4
100
AcDbLine
 10
245.813471265295
 20
412.6149983122609
 30
0.0
 11
245.813471265295
 21
374.1149983122609
 31
0.0
  0
LINE
  5
505
330
1B
100
AcDbEntity
  8
4
100
AcDbLine
 10
221.8134712652951
 20
412.6149983122609
 30
0.0
 11
221.813471265295
 21
374.1149983122609
 31
0.0
  0
ENDSEC
  0
SECTION
  2
OBJECTS
  0
DICTIONARY
  5
9
330
0
100
AcDbDictionary
281
     1
  3
ACAD_COLOR
350
2F
  3
ACAD_GROUP
350
2D
  3
ACAD_LAYOUT
350
24
  3
ACAD_MATERIAL
350
B
  3
ACAD_MLEADERSTYLE
350
471
  3
ACAD_MLINESTYLE
350
19
  3
ACAD_PLOTSETTINGS
350
2E
  3
ACAD_PLOTSTYLENAME
350
8
  3
ACAD_SCALELIST
350
34
  3
ACAD_TABLESTYLE
350
470
  3
ACAD_VISUALSTYLE
350
30
  3
ACDBHEADERROUNDTRIPXREC
350
513
  3
AcDbVariableDictionary
350
46E
  3
DWGPROPS
350
516
  0
DICTIONARY
  5
517
330
2C
100
AcDbDictionary
280
     1
281
     1
  3
ACAD_XREC_ROUNDTRIP
360
518
  0
DICTIONARY
  5
3
330
2
100
AcDbDictionary
280
     1
281
     1
  3
ACAD_LAYERSTATES
360
4
  0
DICTIONARY
  5
20
330
1F
100
AcDbDictionary
280
     1
281
     1
  3
ADSK_XREC_LAYER_RECONCILED
360
21
  0
DICTIONARY
  5
D5
330
D4
100
AcDbDictionary
280
     1
281
     1
  3
ADSK_XREC_LAYER_RECONCILED
360
D6
  0
DICTIONARY
  5
5
330
1
100
AcDbDictionary
280
     1
281
     1
  3
ADSK_XREC_LAYER_RECONCILED
360
6
  0
DICTIONARY
  5
CF
330
CE
100
AcDbDictionary
280
     1
281
     1
  3
ADSK_XREC_LAYER_RECONCILED
360
D0
  0
DICTIONARY
  5
5A
330
59
100
AcDbDictionary
280
     1
281
     1
  3
ADSK_XREC_LAYER_RECONCILED
360
5B
  0
DICTIONARY
  5
62
330
61
100
AcDbDictionary
280
     1
281
     1
  3
ADSK_XREC_LAYER_RECONCILED
360
63
  0
DICTIONARY
  5
C8
330
C7
100
AcDbDictionary
280
     1
281
     1
  3
ADSK_XREC_LAYER_RECONCILED
360
C9
  0
DICTIONARY
  5
1C
330
1B
100
AcDbDictionary
280
     1
281
     1
  3
ACAD_SORTENTS
360
1D
  0
DICTIONARY
  5
2F
102
{ACAD_REACTORS
330
9
102
}
330
9
100
AcDbDictionary
281
     1
  0
DICTIONARY
  5
2D
102
{ACAD_REACTORS
330
9
102
}
330
9
100
AcDbDictionary
281
     1
  0
DICTIONARY
  5
24
102
{ACAD_REACTORS
330
9
102
}
330
9
100
AcDbDictionary
281
     1
  3
Model
350
23
  3
ﾚｲｱｳﾄ1
350
29
  0
DICTIONARY
  5
B
102
{ACAD_REACTORS
330
9
102
}
330
9
100
AcDbDictionary
281
     1
  3
ByBlock
350
57
  3
ByLayer
350
14
  3
Global
350
A
  0
DICTIONARY
  5
471
102
{ACAD_REACTORS
330
9
102
}
330
9
100
AcDbDictionary
281
     1
  3
Standard
350
509
  0
DICTIONARY
  5
19
102
{ACAD_REACTORS
330
9
102
}
330
9
100
AcDbDictionary
281
     1
  3
STANDARD
350
18
  0
DICTIONARY
  5
2E
102
{ACAD_REACTORS
330
9
102
}
330
9
100
AcDbDictionary
281
     1
  0
ACDBDICTIONARYWDFLT
  5
8
102
{ACAD_REACTORS
330
9
102
}
330
9
100
AcDbDictionary
281
     1
  3
Normal
350
7
100
AcDbDictionaryWithDefault
340
7
  0
DICTIONARY
  5
34
102
{ACAD_REACTORS
330
9
102
}
330
9
100
AcDbDictionary
281
     1
  3
*A1
350
56
  0
DICTIONARY
  5
470
102
{ACAD_REACTORS
330
9
102
}
330
9
100
AcDbDictionary
281
     1
  3
Standard
350
50F
  0
DICTIONARY
  5
30
102
{ACAD_REACTORS
330
9
102
}
330
9
100
AcDbDictionary
281
     1
  3
2dWireframe
350
479
  3
Basic
350
47C
  3
Brighten
350
480
  3
ColorChange
350
484
  3
Conceptual
350
47E
  3
Dim
350
47F
  3
EdgeColorOff
350
487
  3
Facepattern
350
483
  3
Flat
350
475
  3
FlatWithEdges
350
476
  3
Gouraud
350
477
  3
GouraudWithEdges
350
478
  3
Hidden
350
47B
  3
JitterOff
350
485
  3
Linepattern
350
482
  3
OverhangOff
350
486
  3
Realistic
350
47D
  3
Shaded
350
48C
  3
Shaded with edges
350
48B
  3
Shades of Gray
350
488
  3
Sketchy
350
489
  3
Thicken
350
481
  3
Wireframe
350
47A
  3
X-Ray
350
48A
  0
DICTIONARY
  5
513
102
{ACAD_REACTORS
330
9
102
}
330
9
100
AcDbDictionary
281
     1
  3
COLORDICT
350
514
  3
MATERIALDICT
350
515
  0
DICTIONARY
  5
46E
102
{ACAD_REACTORS
330
9
102
}
330
9
100
AcDbDictionary
281
     1
  3
CANNOSCALE
350
46F
  3
CMLEADERSTYLE
350
50E
  3
CTABLESTYLE
350
510
  3
DIMASSOC
350
511
  3
HIDETEXT
350
512
  3
MSLTSCALE
350
519
  3
XCLIPFRAME
350
472
  0
XRECORD
  5
516
102
{ACAD_REACTORS
330
9
102
}
330
9
100
AcDbXrecord
280
     1
  1
DWGPROPS COOKIE
  2

  3

  4

  6

  7

  8
sg-d04
  9

300
=
301
=
302
=
303
=
304
=
305
=
306
=
307
=
308
=
309
=
 40
0.0
 41
2457528.044466146
 42
2457870.239013391
  1

 90
        0
  0
XRECORD
  5
518
102
{ACAD_REACTORS
330
517
102
}
330
517
100
AcDbXrecord
280
     1
102
VTR_0.000_0.000_1.000_1.000_VISUALSTYLE
340
479
102
VTR_0.000_0.000_1.000_1.000_GRIDDISPLAY
 70
     3
102
VTR_0.000_0.000_1.000_1.000_GRIDMAJOR
 70
     5
102
VTR_0.000_0.000_1.000_1.000_DEFAULTLIGHTING
280
     1
102
VTR_0.000_0.000_1.000_1.000_DEFAULTLIGHTINGTYPE
 70
     1
102
VTR_0.000_0.000_1.000_1.000_BRIGHTNESS
141
0.0
102
VTR_0.000_0.000_1.000_1.000_CONTRAST
142
0.0
  0
DICTIONARY
  5
4
102
{ACAD_REACTORS
330
3
102
}
330
3
100
AcDbDictionary
281
     1
  0
XRECORD
  5
21
102
{ACAD_REACTORS
330
20
102
}
330
20
100
AcDbXrecord
280
     1
290
     1
  0
XRECORD
  5
D6
102
{ACAD_REACTORS
330
D5
102
}
330
D5
100
AcDbXrecord
280
     1
290
     1
  0
XRECORD
  5
6
102
{ACAD_REACTORS
330
5
102
}
330
5
100
AcDbXrecord
280
     1
290
     1
  0
XRECORD
  5
D0
102
{ACAD_REACTORS
330
CF
102
}
330
CF
100
AcDbXrecord
280
     1
290
     1
  0
XRECORD
  5
5B
102
{ACAD_REACTORS
330
5A
102
}
330
5A
100
AcDbXrecord
280
     1
290
     1
  0
XRECORD
  5
63
102
{ACAD_REACTORS
330
62
102
}
330
62
100
AcDbXrecord
280
     1
290
     1
  0
XRECORD
  5
C9
102
{ACAD_REACTORS
330
C8
102
}
330
C8
100
AcDbXrecord
280
     1
290
     1
  0
SORTENTSTABLE
  5
1D
102
{ACAD_REACTORS
330
1C
102
}
330
1C
100
AcDbSortentsTable
330
1B
331
0
  5
50D
331
1A2
  5
174
331
1A3
  5
173
331
1A4
  5
172
331
1A5
  5
171
331
1A6
  5
170
331
1A7
  5
16F
331
1A8
  5
16E
331
1A9
  5
16D
331
1AA
  5
16C
331
1AB
  5
16B
331
1AC
  5
16A
331
1AD
  5
169
331
1AE
  5
168
331
1AF
  5
167
331
1B0
  5
166
331
1B1
  5
165
331
1B2
  5
164
331
1B3
  5
163
331
1B4
  5
162
331
1B5
  5
161
331
1B6
  5
160
331
1B7
  5
15F
331
1B8
  5
15E
331
1B9
  5
15D
331
1BA
  5
15C
331
1BB
  5
15B
331
1BC
  5
15A
331
1BD
  5
159
331
1BE
  5
158
331
1BF
  5
157
331
1C0
  5
156
331
1C1
  5
155
331
1C2
  5
154
331
1C3
  5
153
331
1C4
  5
152
331
1C5
  5
151
331
1C6
  5
150
331
1C7
  5
14F
331
1C8
  5
14E
331
1C9
  5
14D
331
1CA
  5
14C
331
1CB
  5
14B
331
1CC
  5
14A
331
1CD
  5
149
331
1CE
  5
148
331
1CF
  5
147
331
1D0
  5
146
331
1D1
  5
145
331
1D2
  5
144
331
1D3
  5
143
331
1D4
  5
142
331
1D5
  5
141
331
1D6
  5
140
331
1D7
  5
13F
331
1D8
  5
13E
331
1D9
  5
13D
331
1DA
  5
13C
331
1DB
  5
13B
331
1DC
  5
13A
331
1DD
  5
139
331
1DE
  5
138
331
1DF
  5
137
331
1E0
  5
136
331
1E1
  5
135
331
1E2
  5
134
331
1E3
  5
133
331
1E4
  5
132
331
1E5
  5
131
331
1E6
  5
130
331
1E7
  5
12F
331
1F1
  5
125
331
1F2
  5
124
331
1F3
  5
123
331
1F4
  5
122
331
1F5
  5
121
331
1F6
  5
120
331
1F7
  5
11F
331
200
  5
116
331
201
  5
115
331
202
  5
114
331
203
  5
113
331
204
  5
112
331
205
  5
111
331
206
  5
110
331
207
  5
10F
331
208
  5
10E
331
209
  5
10D
331
20A
  5
10C
331
20B
  5
10B
331
20C
  5
10A
331
20D
  5
109
331
20E
  5
108
331
20F
  5
107
331
210
  5
106
331
211
  5
105
331
212
  5
104
331
213
  5
103
331
214
  5
102
331
215
  5
101
331
216
  5
100
331
217
  5
FF
331
218
  5
FE
331
219
  5
FD
331
21A
  5
FC
331
21B
  5
FB
331
21C
  5
FA
331
21D
  5
F9
331
21E
  5
F8
331
21F
  5
F7
331
220
  5
F6
331
221
  5
F5
331
222
  5
F4
331
224
  5
F2
331
225
  5
F1
331
22D
  5
E9
331
22E
  5
E8
331
22F
  5
E7
331
230
  5
E6
331
232
  5
E4
331
233
  5
E3
331
236
  5
E0
331
237
  5
DF
331
238
  5
DE
331
239
  5
DD
331
23A
  5
DC
331
23B
  5
DB
331
23C
  5
DA
331
23D
  5
D9
331
23E
  5
D8
331
23F
  5
D7
331
240
  5
D3
331
241
  5
D2
331
242
  5
D1
331
243
  5
CD
331
244
  5
CC
331
245
  5
CB
331
246
  5
CA
331
247
  5
C6
331
248
  5
C5
331
249
  5
C4
331
24A
  5
C3
331
24B
  5
C2
331
24C
  5
C1
331
24D
  5
C0
331
24E
  5
BF
331
24F
  5
BE
331
250
  5
BD
331
251
  5
BC
331
252
  5
BB
331
253
  5
BA
331
254
  5
B9
331
255
  5
B8
331
256
  5
B7
331
257
  5
B6
331
258
  5
B5
331
259
  5
B4
331
25A
  5
B3
331
25B
  5
B2
331
25C
  5
B1
331
25D
  5
B0
331
25E
  5
AF
331
25F
  5
AE
331
260
  5
AD
331
261
  5
AC
331
262
  5
AB
331
263
  5
AA
331
264
  5
A9
331
265
  5
A8
331
266
  5
A7
331
267
  5
A6
331
268
  5
A5
331
269
  5
A4
331
26A
  5
A3
331
26B
  5
A2
331
26C
  5
A1
331
26D
  5
A0
331
26E
  5
9F
331
26F
  5
9E
331
270
  5
9D
331
271
  5
9C
331
272
  5
9B
331
273
  5
9A
331
274
  5
99
331
275
  5
98
331
276
  5
97
331
277
  5
96
331
278
  5
95
331
279
  5
94
331
27A
  5
93
331
27B
  5
92
331
27C
  5
91
331
27D
  5
90
331
27E
  5
8F
331
27F
  5
8E
331
280
  5
8D
331
281
  5
8C
331
282
  5
8B
331
283
  5
8A
331
284
  5
89
331
285
  5
88
331
286
  5
87
331
287
  5
86
331
288
  5
85
331
289
  5
84
331
28A
  5
83
331
28B
  5
82
331
28C
  5
81
331
28D
  5
80
331
28E
  5
7F
331
28F
  5
7E
331
290
  5
7D
331
291
  5
7C
331
292
  5
7B
331
293
  5
7A
331
294
  5
79
331
295
  5
78
331
296
  5
77
331
297
  5
76
331
298
  5
75
331
299
  5
74
331
29A
  5
73
331
29B
  5
72
331
29C
  5
71
331
29D
  5
70
331
29E
  5
6E
331
29F
  5
6C
331
2A0
  5
6A
331
2A1
  5
68
331
2A2
  5
67
331
2A3
  5
66
331
2A4
  5
65
331
2A5
  5
64
331
2A6
  5
60
331
2A7
  5
5F
331
2A8
  5
5E
331
2A9
  5
5D
331
2AA
  5
58
331
2AB
  5
2AF
331
2AC
  5
2B0
331
2AD
  5
2B1
331
2AE
  5
2B2
331
2AF
  5
2B3
331
2B0
  5
2B4
331
2B1
  5
2B5
331
2B2
  5
2B6
331
2B3
  5
2B7
331
2B4
  5
2B8
331
2B5
  5
2B9
331
2B6
  5
2BA
331
2B7
  5
2BB
331
2B8
  5
2BC
331
2B9
  5
2BD
331
2BA
  5
2BE
331
2BB
  5
2BF
331
2BC
  5
2C0
331
2BD
  5
2C1
331
2BE
  5
2C2
331
2BF
  5
2C3
331
2C0
  5
2C4
331
2C1
  5
2C5
331
2C2
  5
2C6
331
2C3
  5
2C7
331
2C4
  5
2C8
331
2C5
  5
2C9
331
2C6
  5
2CA
331
2D1
  5
2D5
331
2D2
  5
2D6
331
2D3
  5
2D7
331
2D4
  5
2D8
331
2D5
  5
2D9
331
2D6
  5
2DA
331
2D7
  5
2DB
331
2D8
  5
2DC
331
2D9
  5
2DD
331
2DA
  5
2DE
331
2DB
  5
2DF
331
2DD
  5
2E1
331
2DE
  5
2E2
331
2DF
  5
2E3
331
2E0
  5
2E4
331
2E1
  5
2E5
331
2E2
  5
2E6
331
2E3
  5
2E7
331
2E4
  5
2E8
331
2E5
  5
2E9
331
2E6
  5
2EA
331
2F1
  5
2F5
331
2F2
  5
2F6
331
2F3
  5
2F7
331
2F4
  5
2F8
331
2F5
  5
2F9
331
2F6
  5
2FA
331
2F7
  5
2FB
331
2FD
  5
301
331
2FE
  5
302
331
2FF
  5
303
331
300
  5
304
331
301
  5
305
331
302
  5
306
331
303
  5
307
331
304
  5
308
331
305
  5
309
331
306
  5
30A
331
307
  5
30B
331
308
  5
30C
331
309
  5
30D
331
30A
  5
30E
331
30B
  5
30F
331
30C
  5
310
331
30D
  5
311
331
30E
  5
312
331
30F
  5
313
331
310
  5
314
331
311
  5
315
331
313
  5
317
331
314
  5
318
331
315
  5
319
331
316
  5
31A
331
319
  5
31D
331
31A
  5
31E
331
31B
  5
31F
331
31C
  5
320
331
31D
  5
322
331
31E
  5
323
331
31F
  5
324
331
320
  5
325
331
321
  5
326
331
322
  5
327
331
323
  5
328
331
324
  5
329
331
325
  5
32A
331
32B
  5
330
331
32C
  5
331
331
32D
  5
332
331
32F
  5
334
331
331
  5
336
331
332
  5
337
331
333
  5
338
331
334
  5
339
331
335
  5
33A
331
336
  5
33B
331
337
  5
33C
331
338
  5
33D
331
339
  5
33E
331
33A
  5
33F
331
33B
  5
340
331
33C
  5
341
331
33D
  5
342
331
33E
  5
343
331
340
  5
345
331
341
  5
346
331
342
  5
347
331
343
  5
348
331
344
  5
349
331
345
  5
34A
331
346
  5
34B
331
347
  5
34C
331
348
  5
34D
331
34A
  5
34F
331
34B
  5
350
331
34C
  5
351
331
352
  5
357
331
353
  5
358
331
354
  5
359
331
355
  5
35A
331
356
  5
35B
331
357
  5
35C
331
358
  5
35D
331
359
  5
35E
331
35A
  5
35F
331
35B
  5
360
331
35C
  5
361
331
35D
  5
362
331
35E
  5
363
331
35F
  5
364
331
360
  5
365
331
361
  5
366
331
362
  5
367
331
363
  5
368
331
364
  5
369
331
365
  5
36A
331
366
  5
36B
331
368
  5
36D
331
369
  5
36E
331
36A
  5
36F
331
36B
  5
370
331
36C
  5
371
331
36D
  5
372
331
36E
  5
373
331
36F
  5
374
331
370
  5
375
331
371
  5
376
331
373
  5
378
331
374
  5
379
331
375
  5
37A
331
384
  5
389
331
388
  5
38D
331
389
  5
38E
331
38A
  5
38F
331
38B
  5
390
331
38D
  5
392
331
38E
  5
393
331
38F
  5
394
331
390
  5
395
331
392
  5
397
331
394
  5
399
331
395
  5
39A
331
396
  5
39B
331
397
  5
39C
331
398
  5
39D
331
399
  5
39E
331
39A
  5
39F
331
39B
  5
3A0
331
39C
  5
3A1
331
39D
  5
3A2
331
39E
  5
3A3
331
39F
  5
3A4
331
3A0
  5
3A5
331
3A1
  5
3A6
331
3A2
  5
3A7
331
3A3
  5
3A8
331
3A4
  5
3A9
331
3A5
  5
3AA
331
3A6
  5
3AB
331
3A7
  5
3AC
331
3A8
  5
3AD
331
3A9
  5
3AE
331
3AA
  5
3AF
331
3AB
  5
3B0
331
3AC
  5
3B1
331
3AD
  5
3B2
331
3AE
  5
3B3
331
3AF
  5
3B4
331
3B0
  5
3B5
331
3B1
  5
3B6
331
3B2
  5
3B7
331
3B3
  5
3B8
331
3B4
  5
3B9
331
3B5
  5
3BA
331
3B6
  5
3BB
331
3B7
  5
3BC
331
3B8
  5
3BD
331
3B9
  5
3BE
331
3BA
  5
3BF
331
3BB
  5
3C0
331
3BC
  5
3C1
331
3BD
  5
3C2
331
3BE
  5
3C3
331
3BF
  5
3C4
331
3C0
  5
3C5
331
3C1
  5
3C6
331
3C2
  5
3C7
331
3C3
  5
3C8
331
3C4
  5
3C9
331
3C5
  5
3CA
331
3C6
  5
3CB
331
3C7
  5
3CC
331
3C8
  5
3CD
331
3C9
  5
3CE
331
3CA
  5
3CF
331
3CB
  5
3D0
331
3CC
  5
3D1
331
3CD
  5
3D2
331
3CE
  5
3D3
331
3CF
  5
3D4
331
3D0
  5
3D5
331
3D1
  5
3D6
331
3D2
  5
3D7
331
3D3
  5
3D9
331
3D4
  5
3DA
331
3D5
  5
3DB
331
3D6
  5
3DC
331
3D7
  5
3DD
331
3D8
  5
3DE
331
3D9
  5
3DF
331
3DA
  5
3E0
331
3DB
  5
3E1
331
3DC
  5
3E2
331
3DD
  5
3E3
331
3DE
  5
3E4
331
3DF
  5
3E5
331
3E0
  5
3E6
331
3E1
  5
3E7
331
3E2
  5
3E8
331
3E3
  5
3E9
331
3E4
  5
3EA
331
3E5
  5
3EB
331
3E6
  5
3EC
331
3E7
  5
3ED
331
3E8
  5
3EE
331
3EC
  5
3F2
331
3F3
  5
3F9
331
3F7
  5
3FD
331
402
  5
409
331
403
  5
40A
331
404
  5
40B
331
405
  5
40C
331
406
  5
40D
331
409
  5
410
331
40A
  5
411
331
40B
  5
412
331
40C
  5
413
331
40D
  5
414
331
40E
  5
415
331
40F
  5
416
331
410
  5
417
331
450
  5
457
331
451
  5
458
331
452
  5
459
331
453
  5
45A
331
454
  5
45B
331
455
  5
45C
331
456
  5
45D
331
457
  5
45E
331
458
  5
45F
331
459
  5
460
331
45A
  5
461
331
45B
  5
462
331
45C
  5
463
331
45D
  5
464
331
45F
  5
466
331
460
  5
467
331
461
  5
468
331
462
  5
46A
331
467
  5
48D
331
468
  5
48E
331
469
  5
48F
331
46A
  5
490
331
46B
  5
491
331
46C
  5
492
331
48D
  5
494
331
48E
  5
495
331
48F
  5
496
331
490
  5
497
331
491
  5
498
331
493
  5
49A
331
494
  5
49C
331
495
  5
49D
331
496
  5
49E
331
497
  5
49F
331
498
  5
4A0
331
4B0
  5
4B7
331
4B1
  5
4B8
331
4B2
  5
4B9
331
4B3
  5
4BA
331
4B4
  5
4BB
331
4B5
  5
4BC
331
4B6
  5
4BD
331
4B7
  5
4BE
331
4B8
  5
4BF
331
4B9
  5
4C0
331
4BA
  5
4C1
331
4BB
  5
4C2
331
4BC
  5
4C3
331
4BD
  5
321
331
4BE
  5
6B
331
4BF
  5
6F
331
4C0
  5
6D
331
4C1
  5
69
331
4C4
  5
4C6
331
4C5
  5
4C7
331
4C6
  5
4C8
331
4C7
  5
4C9
331
4C8
  5
4CA
331
4C9
  5
4CB
331
4CA
  5
4CC
331
4CB
  5
4CD
331
4CC
  5
4CE
331
4CD
  5
4CF
331
4CE
  5
4D0
331
4CF
  5
4D1
331
4D0
  5
4D4
331
4D1
  5
4D5
331
4EC
  5
4EE
331
4ED
  5
4EF
331
4EE
  5
4F0
331
4EF
  5
4F1
331
4F0
  5
4F2
331
4F1
  5
4F3
331
4F2
  5
4F4
331
4F3
  5
4F5
331
4F4
  5
4F6
331
4F5
  5
4F7
331
4F6
  5
4F8
331
4F7
  5
4F9
331
4F8
  5
4FA
331
4F9
  5
4FB
331
4FA
  5
4FC
331
4FB
  5
4FD
331
4FC
  5
4FE
331
4FD
  5
4FF
331
4FE
  5
500
331
4FF
  5
501
331
500
  5
502
331
501
  5
503
331
502
  5
504
331
503
  5
505
331
504
  5
50B
331
505
  5
50C
  0
LAYOUT
  5
23
102
{ACAD_REACTORS
330
24
102
}
330
24
100
AcDbPlotSettings
  1

  2
Bullzip PDF Printer.pc3
  4
A3
  6

 40
0.2
 41
0.0
 42
0.0
 43
0.0
 44
420.2
 45
297.1
 46
25.0
 47
12.0
 48
45.99999990666663
 49
10.0
140
809.9999981566668
141
554.9999987283333
142
1.0
143
2.0
 70
 11936
 72
     1
 73
     0
 74
     4
  7
monochrome.ctb
 75
    17
147
0.5
148
-45.99999990666663
149
-10.0
100
AcDbLayout
  1
Model
 70
     0
 71
     0
 10
0.0
 20
0.0
 11
12.0
 21
9.0
 12
0.0
 22
0.0
 32
0.0
 14
100.5977369675563
 24
39.81810322818393
 34
0.0
 15
705.2927820084919
 25
597.2944203500165
 35
0.0
146
0.0
 13
0.0
 23
0.0
 33
0.0
 16
1.0
 26
0.0
 36
0.0
 17
0.0
 27
1.0
 37
0.0
 76
     0
330
1B
331
31
1001
ACAD_PSEXT
1000
Bullzip PDF Printer.pc3
1000
Bullzip PDF Printer
1000
BULLZIP
1000
Bullzip PDF Printer 10.1.0.1871
1070
     0
  0
LAYOUT
  5
29
102
{ACAD_REACTORS
330
24
102
}
330
24
100
AcDbPlotSettings
  1

  2
SR-LP8300F
  4

  6

 40
0.0
 41
0.0
 42
0.0
 43
0.0
 44
0.0
 45
0.0
 46
0.0
 47
0.0
 48
0.0
 49
0.0
140
0.0
141
0.0
142
1.0
143
1.0
 70
   688
 72
     0
 73
     0
 74
     5
  7
monochrome.ctb
 75
    16
147
1.0
148
0.0
149
0.0
100
AcDbLayout
  1
ﾚｲｱｳﾄ1
 70
     0
 71
     1
 10
0.0
 20
0.0
 11
12.0
 21
9.0
 12
0.0
 22
0.0
 32
0.0
 14
1.000000000000000E+20
 24
1.000000000000000E+20
 34
1.000000000000000E+20
 15
-1.000000000000000E+20
 25
-1.000000000000000E+20
 35
-1.000000000000000E+20
146
0.0
 13
0.0
 23
0.0
 33
0.0
 16
1.0
 26
0.0
 36
0.0
 17
0.0
 27
1.0
 37
0.0
 76
     0
330
26
  0
MATERIAL
  5
57
102
{ACAD_REACTORS
330
B
102
}
102
{ACAD_XDICTIONARY
360
51E
102
}
330
B
100
AcDbMaterial
  1
ByBlock
 72
     0
 73
     2
 43
0.0208333333333333
 43
0.0
 43
0.0
 43
0.0
 43
0.0
 43
0.0208333333333333
 43
0.0
 43
0.0
 43
0.0
 43
0.0
 43
1.0
 43
0.0
 43
0.0
 43
0.0
 43
0.0
 43
1.0
 77
     0
 78
     2
 47
0.0208333333333333
 47
0.0
 47
0.0
 47
0.0
 47
0.0
 47
0.0208333333333333
 47
0.0
 47
0.0
 47
0.0
 47
0.0
 47
1.0
 47
0.0
 47
0.0
 47
0.0
 47
0.0
 47
1.0
171
     0
172
     2
 49
0.0208333333333333
 49
0.0
 49
0.0
 49
0.0
 49
0.0
 49
0.0208333333333333
 49
0.0
 49
0.0
 49
0.0
 49
0.0
 49
1.0
 49
0.0
 49
0.0
 49
0.0
 49
0.0
 49
1.0
175
     0
176
     2
142
0.0208333333333333
142
0.0
142
0.0
142
0.0
142
0.0
142
0.0208333333333333
142
0.0
142
0.0
142
0.0
142
0.0
142
1.0
142
0.0
142
0.0
142
0.0
142
0.0
142
1.0
179
     0
270
     2
144
0.0208333333333333
144
0.0
144
0.0
144
0.0
144
0.0
144
0.0208333333333333
144
0.0
144
0.0
144
0.0
144
0.0
144
1.0
144
0.0
144
0.0
144
0.0
144
0.0
144
1.0
274
     2
147
0.0208333333333333
147
0.0
147
0.0
147
0.0
147
0.0
147
0.0208333333333333
147
0.0
147
0.0
147
0.0
147
0.0
147
1.0
147
0.0
147
0.0
147
0.0
147
0.0
147
1.0
  0
MATERIAL
  5
14
102
{ACAD_REACTORS
330
B
102
}
102
{ACAD_XDICTIONARY
360
51A
102
}
330
B
100
AcDbMaterial
  1
ByLayer
 72
     0
 73
     2
 43
0.0208333333333333
 43
0.0
 43
0.0
 43
0.0
 43
0.0
 43
0.0208333333333333
 43
0.0
 43
0.0
 43
0.0
 43
0.0
 43
1.0
 43
0.0
 43
0.0
 43
0.0
 43
0.0
 43
1.0
 77
     0
 78
     2
 47
0.0208333333333333
 47
0.0
 47
0.0
 47
0.0
 47
0.0
 47
0.0208333333333333
 47
0.0
 47
0.0
 47
0.0
 47
0.0
 47
1.0
 47
0.0
 47
0.0
 47
0.0
 47
0.0
 47
1.0
171
     0
172
     2
 49
0.0208333333333333
 49
0.0
 49
0.0
 49
0.0
 49
0.0
 49
0.0208333333333333
 49
0.0
 49
0.0
 49
0.0
 49
0.0
 49
1.0
 49
0.0
 49
0.0
 49
0.0
 49
0.0
 49
1.0
175
     0
176
     2
142
0.0208333333333333
142
0.0
142
0.0
142
0.0
142
0.0
142
0.0208333333333333
142
0.0
142
0.0
142
0.0
142
0.0
142
1.0
142
0.0
142
0.0
142
0.0
142
0.0
142
1.0
179
     0
270
     2
144
0.0208333333333333
144
0.0
144
0.0
144
0.0
144
0.0
144
0.0208333333333333
144
0.0
144
0.0
144
0.0
144
0.0
144
1.0
144
0.0
144
0.0
144
0.0
144
0.0
144
1.0
274
     2
147
0.0208333333333333
147
0.0
147
0.0
147
0.0
147
0.0
147
0.0208333333333333
147
0.0
147
0.0
147
0.0
147
0.0
147
1.0
147
0.0
147
0.0
147
0.0
147
0.0
147
1.0
  0
MATERIAL
  5
A
102
{ACAD_REACTORS
330
B
102
}
102
{ACAD_XDICTIONARY
360
51C
102
}
330
B
100
AcDbMaterial
  1
Global
 72
     0
 73
     2
 43
0.0208333333333333
 43
0.0
 43
0.0
 43
0.0
 43
0.0
 43
0.0208333333333333
 43
0.0
 43
0.0
 43
0.0
 43
0.0
 43
1.0
 43
0.0
 43
0.0
 43
0.0
 43
0.0
 43
1.0
 77
     0
 78
     2
 47
0.0208333333333333
 47
0.0
 47
0.0
 47
0.0
 47
0.0
 47
0.0208333333333333
 47
0.0
 47
0.0
 47
0.0
 47
0.0
 47
1.0
 47
0.0
 47
0.0
 47
0.0
 47
0.0
 47
1.0
171
     0
172
     2
 49
0.0208333333333333
 49
0.0
 49
0.0
 49
0.0
 49
0.0
 49
0.0208333333333333
 49
0.0
 49
0.0
 49
0.0
 49
0.0
 49
1.0
 49
0.0
 49
0.0
 49
0.0
 49
0.0
 49
1.0
175
     0
176
     2
142
0.0208333333333333
142
0.0
142
0.0
142
0.0
142
0.0
142
0.0208333333333333
142
0.0
142
0.0
142
0.0
142
0.0
142
1.0
142
0.0
142
0.0
142
0.0
142
0.0
142
1.0
179
     0
270
     2
144
0.0208333333333333
144
0.0
144
0.0
144
0.0
144
0.0
144
0.0208333333333333
144
0.0
144
0.0
144
0.0
144
0.0
144
1.0
144
0.0
144
0.0
144
0.0
144
0.0
144
1.0
274
     2
147
0.0208333333333333
147
0.0
147
0.0
147
0.0
147
0.0
147
0.0208333333333333
147
0.0
147
0.0
147
0.0
147
0.0
147
1.0
147
0.0
147
0.0
147
0.0
147
0.0
147
1.0
1001
ACAD
1070
    -1
1070
     3
1070
     0
1000

1071
        0
  0
MLEADERSTYLE
  5
509
102
{ACAD_REACTORS
330
471
102
}
102
{ACAD_XDICTIONARY
360
550
102
}
330
471
100
AcDbMLeaderStyle
170
     2
171
     1
172
     0
 90
        2
 40
0.0
 41
0.0
173
     1
 91
-1056964608
340
11
 92
       -2
290
     1
 42
0.09
291
     1
 43
0.36
  3
Standard
341
0
 44
0.18
300

342
12
174
     1
178
     6
175
     1
176
     0
 93
-1056964608
 45
0.18
292
     0
297
     0
 46
0.18
343
0
 94
-1056964608
 47
1.0
 49
1.0
140
1.0
293
     1
141
0.0
294
     1
177
     0
142
1.0
295
     0
296
     0
143
0.125
1001
ACAD_MLEADERVER
1070
     2
  0
MLINESTYLE
  5
18
102
{ACAD_REACTORS
330
19
102
}
330
19
100
AcDbMlineStyle
  2
STANDARD
 70
     0
  3

 62
     0
 51
90.0
 52
90.0
 71
     2
 49
0.5
 62
   256
  6
BYLAYER
 49
-0.5
 62
   256
  6
BYLAYER
  0
ACDBPLACEHOLDER
  5
7
102
{ACAD_REACTORS
330
8
102
}
330
8
  0
SCALE
  5
56
102
{ACAD_REACTORS
330
34
102
}
330
34
100
AcDbScale
 70
     0
300
1:1
140
1.0
141
1.0
290
     1
  0
TABLESTYLE
  5
50F
102
{ACAD_REACTORS
330
470
102
}
330
470
100
AcDbTableStyle
  3
Standard
 70
     0
 71
     0
 40
0.06
 41
0.06
280
     0
281
     0
  7
STANDARD
140
0.18
170
     2
 62
     0
 63
   257
283
     0
274
    -2
284
     1
 64
     0
275
    -2
285
     1
 65
     0
276
    -2
286
     1
 66
     0
277
    -2
287
     1
 67
     0
278
    -2
288
     1
 68
     0
279
    -2
289
     1
 69
     0
  7
STANDARD
140
0.25
170
     5
 62
     0
 63
   257
283
     0
274
    -2
284
     1
 64
     0
275
    -2
285
     1
 65
     0
276
    -2
286
     1
 66
     0
277
    -2
287
     1
 67
     0
278
    -2
288
     1
 68
     0
279
    -2
289
     1
 69
     0
  7
STANDARD
140
0.18
170
     5
 62
     0
 63
   257
283
     0
274
    -2
284
     1
 64
     0
275
    -2
285
     1
 65
     0
276
    -2
286
     1
 66
     0
277
    -2
287
     1
 67
     0
278
    -2
288
     1
 68
     0
279
    -2
289
     1
 69
     0
  0
VISUALSTYLE
  5
479
102
{ACAD_REACTORS
330
30
102
}
102
{ACAD_XDICTIONARY
360
528
102
}
330
30
100
AcDbVisualStyle
  2
2dWireframe
 70
     4
 71
     0
 72
     2
 73
     0
 90
        0
 40
0.6
 41
30.0
 62
     5
 63
     7
 74
     1
 91
        4
 64
     7
 65
   257
 75
     1
175
     1
 42
1.0
 92
        0
 66
   257
 43
1.0
 76
     1
 77
     6
 78
     2
 67
     7
 79
     5
170
     0
171
     0
290
     0
174
     0
 93
        1
 44
0.0
173
     0
291
     0
 45
0.0
1001
ACAD
1000
AcDbSavedByObjectVersion
1070
     0
  0
VISUALSTYLE
  5
47C
102
{ACAD_REACTORS
330
30
102
}
102
{ACAD_XDICTIONARY
360
52E
102
}
330
30
100
AcDbVisualStyle
  2
Basic
 70
     7
 71
     1
 72
     0
 73
     1
 90
        0
 40
0.6
 41
30.0
 62
     5
 63
     7
 74
     0
 91
        4
 64
     7
 65
   257
 75
     1
175
     1
 42
1.0
 92
        8
 66
     7
 43
1.0
 76
     1
 77
     6
 78
     2
 67
     7
 79
     5
170
     0
171
     0
290
     0
174
     0
 93
        1
 44
0.0
173
     0
291
     1
 45
0.0
1001
ACAD
1000
AcDbSavedByObjectVersion
1070
     0
  0
VISUALSTYLE
  5
480
102
{ACAD_REACTORS
330
30
102
}
102
{ACAD_XDICTIONARY
360
536
102
}
330
30
100
AcDbVisualStyle
  2
Brighten
 70
    12
 71
     2
 72
     2
 73
     0
 90
        0
 40
0.6
 41
30.0
 62
     5
 63
     7
 74
     1
 91
        4
 64
     7
 65
   257
 75
     1
175
     1
 42
1.0
 92
        8
 66
     7
 43
1.0
 76
     1
 77
     6
 78
     2
 67
     7
 79
     5
170
     0
171
     0
290
     0
174
     0
 93
        1
 44
50.0
173
     0
291
     1
 45
0.0
1001
ACAD
1000
AcDbSavedByObjectVersion
1070
     0
  0
VISUALSTYLE
  5
484
102
{ACAD_REACTORS
330
30
102
}
102
{ACAD_XDICTIONARY
360
53E
102
}
330
30
100
AcDbVisualStyle
  2
ColorChange
 70
    16
 71
     2
 72
     2
 73
     3
 90
        0
 40
0.6
 41
30.0
 62
     5
 63
     8
 74
     1
 91
        4
 64
     7
 65
   257
 75
     1
175
     1
 42
1.0
 92
        8
 66
     8
 43
1.0
 76
     1
 77
     6
 78
     2
 67
     7
 79
     5
170
     0
171
     0
290
     0
174
     0
 93
        1
 44
0.0
173
     0
291
     1
 45
0.0
1001
ACAD
1000
AcDbSavedByObjectVersion
1070
     0
  0
VISUALSTYLE
  5
47E
102
{ACAD_REACTORS
330
30
102
}
102
{ACAD_XDICTIONARY
360
532
102
}
330
30
100
AcDbVisualStyle
  2
Conceptual
 70
     9
 71
     3
 72
     2
 73
     0
 90
        0
 40
0.6
 41
30.0
 62
     5
 63
     7
 74
     2
 91
        2
 64
     7
 65
   257
 75
     1
175
     1
 42
40.0
 92
        8
 66
     7
 43
1.0
 76
     1
 77
     6
 78
     2
 67
     7
 79
     3
170
     0
171
     0
290
     0
174
     0
 93
        1
 44
0.0
173
     0
291
     0
 45
0.0
1001
ACAD
1000
AcDbSavedByObjectVersion
1070
     0
  0
VISUALSTYLE
  5
47F
102
{ACAD_REACTORS
330
30
102
}
102
{ACAD_XDICTIONARY
360
534
102
}
330
30
100
AcDbVisualStyle
  2
Dim
 70
    11
 71
     2
 72
     2
 73
     0
 90
        0
 40
0.6
 41
30.0
 62
     5
 63
     7
 74
     1
 91
        4
 64
     7
 65
   257
 75
     1
175
     1
 42
1.0
 92
        8
 66
     7
 43
1.0
 76
     1
 77
     6
 78
     2
 67
     7
 79
     5
170
     0
171
     0
290
     0
174
     0
 93
        1
 44
-50.0
173
     0
291
     1
 45
0.0
1001
ACAD
1000
AcDbSavedByObjectVersion
1070
     0
  0
VISUALSTYLE
  5
487
102
{ACAD_REACTORS
330
30
102
}
102
{ACAD_XDICTIONARY
360
544
102
}
330
30
100
AcDbVisualStyle
  2
EdgeColorOff
 70
    22
 71
     2
 72
     2
 73
     0
 90
        0
 40
0.6
 41
30.0
 62
     5
 63
     7
 74
     1
 91
        4
 64
     7
 65
   257
 75
     1
175
     1
 42
1.0
 92
        8
 66
     7
 43
1.0
 76
     1
 77
     6
 78
     2
 67
     7
 79
     5
170
     0
171
     0
290
     0
174
     0
 93
        1
 44
0.0
173
     0
291
     1
 45
0.0
1001
ACAD
1000
AcDbSavedByObjectVersion
1070
     0
  0
VISUALSTYLE
  5
483
102
{ACAD_REACTORS
330
30
102
}
102
{ACAD_XDICTIONARY
360
53C
102
}
330
30
100
AcDbVisualStyle
  2
Facepattern
 70
    15
 71
     2
 72
     2
 73
     0
 90
        0
 40
0.6
 41
30.0
 62
     5
 63
     7
 74
     1
 91
        4
 64
     7
 65
   257
 75
     1
175
     1
 42
1.0
 92
        8
 66
     7
 43
1.0
 76
     1
 77
     6
 78
     2
 67
     7
 79
     5
170
     0
171
     0
290
     0
174
     0
 93
        1
 44
0.0
173
     0
291
     1
 45
0.0
1001
ACAD
1000
AcDbSavedByObjectVersion
1070
     0
  0
VISUALSTYLE
  5
475
102
{ACAD_REACTORS
330
30
102
}
102
{ACAD_XDICTIONARY
360
520
102
}
330
30
100
AcDbVisualStyle
  2
Flat
 70
     0
 71
     2
 72
     1
 73
     1
 90
        2
 40
0.6
 41
30.0
 62
     5
 63
     7
 74
     0
 91
        4
 64
     7
 65
   257
 75
     1
175
     1
 42
1.0
 92
        8
 66
     7
 43
1.0
 76
     1
 77
     6
 78
     2
 67
     7
 79
     5
170
     0
171
     0
290
     0
174
     0
 93
       13
 44
0.0
173
     0
291
     1
 45
0.0
1001
ACAD
1000
AcDbSavedByObjectVersion
1070
     0
  0
VISUALSTYLE
  5
476
102
{ACAD_REACTORS
330
30
102
}
102
{ACAD_XDICTIONARY
360
522
102
}
330
30
100
AcDbVisualStyle
  2
FlatWithEdges
 70
     1
 71
     2
 72
     1
 73
     1
 90
        2
 40
0.6
 41
30.0
 62
     5
 63
     7
 74
     1
 91
        4
 64
     7
 65
   257
 75
     1
175
     1
 42
1.0
 92
        0
 66
   257
 43
1.0
 76
     1
 77
     6
 78
     2
 67
     7
 79
     5
170
     0
171
     0
290
     0
174
     0
 93
       13
 44
0.0
173
     0
291
     1
 45
0.0
1001
ACAD
1000
AcDbSavedByObjectVersion
1070
     0
  0
VISUALSTYLE
  5
477
102
{ACAD_REACTORS
330
30
102
}
102
{ACAD_XDICTIONARY
360
524
102
}
330
30
100
AcDbVisualStyle
  2
Gouraud
 70
     2
 71
     2
 72
     2
 73
     1
 90
        2
 40
0.6
 41
30.0
 62
     5
 63
     7
 74
     0
 91
        4
 64
     7
 65
   257
 75
     1
175
     1
 42
1.0
 92
        0
 66
     7
 43
1.0
 76
     1
 77
     6
 78
     2
 67
     7
 79
     5
170
     0
171
     0
290
     0
174
     0
 93
       13
 44
0.0
173
     0
291
     1
 45
0.0
1001
ACAD
1000
AcDbSavedByObjectVersion
1070
     0
  0
VISUALSTYLE
  5
478
102
{ACAD_REACTORS
330
30
102
}
102
{ACAD_XDICTIONARY
360
526
102
}
330
30
100
AcDbVisualStyle
  2
GouraudWithEdges
 70
     3
 71
     2
 72
     2
 73
     1
 90
        2
 40
0.6
 41
30.0
 62
     5
 63
     7
 74
     1
 91
        4
 64
     7
 65
   257
 75
     1
175
     1
 42
1.0
 92
        0
 66
   257
 43
1.0
 76
     1
 77
     6
 78
     2
 67
     7
 79
     5
170
     0
171
     0
290
     0
174
     0
 93
       13
 44
0.0
173
     0
291
     1
 45
0.0
1001
ACAD
1000
AcDbSavedByObjectVersion
1070
     0
  0
VISUALSTYLE
  5
47B
102
{ACAD_REACTORS
330
30
102
}
102
{ACAD_XDICTIONARY
360
52C
102
}
330
30
100
AcDbVisualStyle
  2
Hidden
 70
     6
 71
     1
 72
     2
 73
     2
 90
        0
 40
0.6
 41
30.0
 62
     5
 63
     7
 74
     2
 91
        2
 64
     7
 65
   257
 75
     2
175
     1
 42
40.0
 92
        0
 66
   257
 43
1.0
 76
     1
 77
     6
 78
     2
 67
     7
 79
     3
170
     0
171
     0
290
     0
174
     0
 93
        1
 44
0.0
173
     0
291
     0
 45
0.0
1001
ACAD
1000
AcDbSavedByObjectVersion
1070
     0
  0
VISUALSTYLE
  5
485
102
{ACAD_REACTORS
330
30
102
}
102
{ACAD_XDICTIONARY
360
540
102
}
330
30
100
AcDbVisualStyle
  2
JitterOff
 70
    20
 71
     2
 72
     2
 73
     0
 90
        0
 40
0.6
 41
30.0
 62
     5
 63
     7
 74
     1
 91
        4
 64
     7
 65
   257
 75
     1
175
     1
 42
1.0
 92
       10
 66
     7
 43
1.0
 76
     1
 77
     6
 78
     2
 67
     7
 79
     5
170
     0
171
     0
290
     0
174
     0
 93
        1
 44
0.0
173
     0
291
     1
 45
0.0
1001
ACAD
1000
AcDbSavedByObjectVersion
1070
     0
  0
VISUALSTYLE
  5
482
102
{ACAD_REACTORS
330
30
102
}
102
{ACAD_XDICTIONARY
360
53A
102
}
330
30
100
AcDbVisualStyle
  2
Linepattern
 70
    14
 71
     2
 72
     2
 73
     0
 90
        0
 40
0.6
 41
30.0
 62
     5
 63
     7
 74
     1
 91
        4
 64
     7
 65
   257
 75
     7
175
     7
 42
1.0
 92
        8
 66
     7
 43
1.0
 76
     1
 77
     6
 78
     2
 67
     7
 79
     5
170
     0
171
     0
290
     0
174
     0
 93
        1
 44
0.0
173
     0
291
     1
 45
0.0
1001
ACAD
1000
AcDbSavedByObjectVersion
1070
     0
  0
VISUALSTYLE
  5
486
102
{ACAD_REACTORS
330
30
102
}
102
{ACAD_XDICTIONARY
360
542
102
}
330
30
100
AcDbVisualStyle
  2
OverhangOff
 70
    21
 71
     2
 72
     2
 73
     0
 90
        0
 40
0.6
 41
30.0
 62
     5
 63
     7
 74
     1
 91
        4
 64
     7
 65
   257
 75
     1
175
     1
 42
1.0
 92
        9
 66
     7
 43
1.0
 76
     1
 77
     6
 78
     2
 67
     7
 79
     5
170
     0
171
     0
290
     0
174
     0
 93
        1
 44
0.0
173
     0
291
     1
 45
0.0
1001
ACAD
1000
AcDbSavedByObjectVersion
1070
     0
  0
VISUALSTYLE
  5
47D
102
{ACAD_REACTORS
330
30
102
}
102
{ACAD_XDICTIONARY
360
530
102
}
330
30
100
AcDbVisualStyle
  2
Realistic
 70
     8
 71
     2
 72
     3
 73
     0
 90
        2
 40
0.6
 41
30.0
 62
     5
 63
     7
 74
     0
 91
        0
 64
     7
 65
   257
 75
     1
175
     1
 42
1.0
 92
        8
 66
   257
 43
1.0
 76
     1
 77
     6
 78
     2
 67
     7
 79
     3
170
     0
171
     0
290
     0
174
     0
 93
       13
 44
0.0
173
     0
291
     0
 45
0.0
1001
ACAD
1000
AcDbSavedByObjectVersion
1070
     0
  0
VISUALSTYLE
  5
48C
102
{ACAD_REACTORS
330
30
102
}
102
{ACAD_XDICTIONARY
360
54E
102
}
330
30
100
AcDbVisualStyle
  2
Shaded
 70
    27
 71
     2
 72
     2
 73
     1
 90
        2
 40
0.6
 41
30.0
 62
     5
 63
     7
 74
     0
 91
        4
 64
     7
 65
   257
 75
     1
175
     1
 42
1.0
 92
        8
 66
   257
 43
1.0
 76
     1
 77
     6
 78
     2
 67
   251
 79
     3
170
     0
171
     0
290
     0
174
     0
 93
        5
 44
0.0
173
     0
291
     0
 45
0.0
1001
ACAD
1000
AcDbSavedByObjectVersion
1070
     0
  0
VISUALSTYLE
  5
48B
102
{ACAD_REACTORS
330
30
102
}
102
{ACAD_XDICTIONARY
360
54C
102
}
330
30
100
AcDbVisualStyle
  2
Shaded with edges
 70
    26
 71
     2
 72
     2
 73
     1
 90
        2
 40
0.6
 41
30.0
 62
     5
 63
     7
 74
     1
 91
       10
 64
     7
 65
   257
 75
     2
175
     1
 42
1.0
 92
        8
 66
   257
 43
1.0
 76
     1
 77
     6
 78
     2
 67
     7
 79
     3
170
     0
171
     0
290
     0
174
     0
 93
        5
 44
0.0
173
     0
291
     0
 45
0.0
1001
ACAD
1000
AcDbSavedByObjectVersion
1070
     0
  0
VISUALSTYLE
  5
488
102
{ACAD_REACTORS
330
30
102
}
102
{ACAD_XDICTIONARY
360
546
102
}
330
30
100
AcDbVisualStyle
  2
Shades of Gray
 70
    23
 71
     2
 72
     2
 73
     3
 90
        0
 40
0.6
 41
30.0
 62
     5
 63
     7
 74
     2
 91
        2
 64
     7
 65
     7
 75
     1
175
     1
 42
40.0
 92
        8
 66
     7
 43
1.0
 76
     1
 77
     6
 78
     2
 67
     7
 79
     3
170
     0
171
     0
290
     0
174
     0
 93
        1
 44
0.0
173
     0
291
     0
 45
0.0
1001
ACAD
1000
AcDbSavedByObjectVersion
1070
     0
  0
VISUALSTYLE
  5
489
102
{ACAD_REACTORS
330
30
102
}
102
{ACAD_XDICTIONARY
360
548
102
}
330
30
100
AcDbVisualStyle
  2
Sketchy
 70
    24
 71
     1
 72
     2
 73
     2
 90
        0
 40
0.6
 41
30.0
 62
     5
 63
     7
 74
     2
 91
        2
 64
     7
 65
     7
 75
     1
175
     1
 42
40.0
 92
       11
 66
     7
 43
1.0
 76
     1
 77
     6
 78
     2
 67
     7
 79
     6
170
     0
171
     0
290
     0
174
     0
 93
        1
 44
0.0
173
     0
291
     0
 45
0.0
1001
ACAD
1000
AcDbSavedByObjectVersion
1070
     0
  0
VISUALSTYLE
  5
481
102
{ACAD_REACTORS
330
30
102
}
102
{ACAD_XDICTIONARY
360
538
102
}
330
30
100
AcDbVisualStyle
  2
Thicken
 70
    13
 71
     2
 72
     2
 73
     0
 90
        0
 40
0.6
 41
30.0
 62
     5
 63
     7
 74
     1
 91
        4
 64
     7
 65
   257
 75
     1
175
     1
 42
1.0
 92
       12
 66
     7
 43
1.0
 76
     1
 77
     6
 78
     2
 67
     7
 79
     5
170
     0
171
     0
290
     0
174
     0
 93
        1
 44
0.0
173
     0
291
     1
 45
0.0
1001
ACAD
1000
AcDbSavedByObjectVersion
1070
     0
  0
VISUALSTYLE
  5
47A
102
{ACAD_REACTORS
330
30
102
}
102
{ACAD_XDICTIONARY
360
52A
102
}
330
30
100
AcDbVisualStyle
  2
Wireframe
 70
     5
 71
     0
 72
     2
 73
     0
 90
        0
 40
0.6
 41
30.0
 62
     5
 63
     7
 74
     1
 91
        4
 64
     7
 65
   257
 75
     1
175
     1
 42
1.0
 92
        0
 66
   257
 43
1.0
 76
     1
 77
     6
 78
     2
 67
     7
 79
     5
170
     0
171
     0
290
     0
174
     0
 93
        1
 44
0.0
173
     0
291
     0
 45
0.0
1001
ACAD
1000
AcDbSavedByObjectVersion
1070
     0
  0
VISUALSTYLE
  5
48A
102
{ACAD_REACTORS
330
30
102
}
102
{ACAD_XDICTIONARY
360
54A
102
}
330
30
100
AcDbVisualStyle
  2
X-Ray
 70
    25
 71
     2
 72
     2
 73
     1
 90
        1
 40
0.5
 41
30.0
 62
     5
 63
     7
 74
     1
 91
        0
 64
     7
 65
   257
 75
     1
175
     1
 42
1.0
 92
        8
 66
     7
 43
1.0
 76
     1
 77
     6
 78
     2
 67
     7
 79
     3
170
     0
171
     0
290
     0
174
     0
 93
       13
 44
0.0
173
     0
291
     0
 45
0.0
1001
ACAD
1000
AcDbSavedByObjectVersion
1070
     0
  0
XRECORD
  5
514
102
{ACAD_REACTORS
330
513
102
}
330
513
100
AcDbXrecord
280
     1
340
2F
  0
XRECORD
  5
515
102
{ACAD_REACTORS
330
513
102
}
330
513
100
AcDbXrecord
280
     1
340
B
  0
DICTIONARYVAR
  5
46F
102
{ACAD_REACTORS
330
46E
102
}
330
46E
100
DictionaryVariables
280
     0
  1
1:1
  0
DICTIONARYVAR
  5
50E
102
{ACAD_REACTORS
330
46E
102
}
330
46E
100
DictionaryVariables
280
     0
  1
Standard
  0
DICTIONARYVAR
  5
510
102
{ACAD_REACTORS
330
46E
102
}
330
46E
100
DictionaryVariables
280
     0
  1
Standard
  0
DICTIONARYVAR
  5
511
102
{ACAD_REACTORS
330
46E
102
}
330
46E
100
DictionaryVariables
280
     0
  1
0
  0
DICTIONARYVAR
  5
512
102
{ACAD_REACTORS
330
46E
102
}
330
46E
100
DictionaryVariables
280
     0
  1
1
  0
DICTIONARYVAR
  5
519
102
{ACAD_REACTORS
330
46E
102
}
330
46E
100
DictionaryVariables
280
     0
  1
1
  0
DICTIONARYVAR
  5
472
102
{ACAD_REACTORS
330
46E
102
}
330
46E
100
DictionaryVariables
280
     0
  1
0
  0
DICTIONARY
  5
51E
330
57
100
AcDbDictionary
280
     1
281
     1
  3
ACAD_XREC_ROUNDTRIP
360
51F
  0
DICTIONARY
  5
51A
330
14
100
AcDbDictionary
280
     1
281
     1
  3
ACAD_XREC_ROUNDTRIP
360
51B
  0
DICTIONARY
  5
51C
330
A
100
AcDbDictionary
280
     1
281
     1
  3
ACAD_XREC_ROUNDTRIP
360
51D
  0
DICTIONARY
  5
550
330
509
100
AcDbDictionary
280
     1
281
     1
  3
ACAD_XREC_ROUNDTRIP
360
551
  0
DICTIONARY
  5
528
330
479
100
AcDbDictionary
280
     1
281
     1
  3
ACAD_XREC_ROUNDTRIP
360
529
  0
DICTIONARY
  5
52E
330
47C
100
AcDbDictionary
280
     1
281
     1
  3
ACAD_XREC_ROUNDTRIP
360
52F
  0
DICTIONARY
  5
536
330
480
100
AcDbDictionary
280
     1
281
     1
  3
ACAD_XREC_ROUNDTRIP
360
537
  0
DICTIONARY
  5
53E
330
484
100
AcDbDictionary
280
     1
281
     1
  3
ACAD_XREC_ROUNDTRIP
360
53F
  0
DICTIONARY
  5
532
330
47E
100
AcDbDictionary
280
     1
281
     1
  3
ACAD_XREC_ROUNDTRIP
360
533
  0
DICTIONARY
  5
534
330
47F
100
AcDbDictionary
280
     1
281
     1
  3
ACAD_XREC_ROUNDTRIP
360
535
  0
DICTIONARY
  5
544
330
487
100
AcDbDictionary
280
     1
281
     1
  3
ACAD_XREC_ROUNDTRIP
360
545
  0
DICTIONARY
  5
53C
330
483
100
AcDbDictionary
280
     1
281
     1
  3
ACAD_XREC_ROUNDTRIP
360
53D
  0
DICTIONARY
  5
520
330
475
100
AcDbDictionary
280
     1
281
     1
  3
ACAD_XREC_ROUNDTRIP
360
521
  0
DICTIONARY
  5
522
330
476
100
AcDbDictionary
280
     1
281
     1
  3
ACAD_XREC_ROUNDTRIP
360
523
  0
DICTIONARY
  5
524
330
477
100
AcDbDictionary
280
     1
281
     1
  3
ACAD_XREC_ROUNDTRIP
360
525
  0
DICTIONARY
  5
526
330
478
100
AcDbDictionary
280
     1
281
     1
  3
ACAD_XREC_ROUNDTRIP
360
527
  0
DICTIONARY
  5
52C
330
47B
100
AcDbDictionary
280
     1
281
     1
  3
ACAD_XREC_ROUNDTRIP
360
52D
  0
DICTIONARY
  5
540
330
485
100
AcDbDictionary
280
     1
281
     1
  3
ACAD_XREC_ROUNDTRIP
360
541
  0
DICTIONARY
  5
53A
330
482
100
AcDbDictionary
280
     1
281
     1
  3
ACAD_XREC_ROUNDTRIP
360
53B
  0
DICTIONARY
  5
542
330
486
100
AcDbDictionary
280
     1
281
     1
  3
ACAD_XREC_ROUNDTRIP
360
543
  0
DICTIONARY
  5
530
330
47D
100
AcDbDictionary
280
     1
281
     1
  3
ACAD_XREC_ROUNDTRIP
360
531
  0
DICTIONARY
  5
54E
330
48C
100
AcDbDictionary
280
     1
281
     1
  3
ACAD_XREC_ROUNDTRIP
360
54F
  0
DICTIONARY
  5
54C
330
48B
100
AcDbDictionary
280
     1
281
     1
  3
ACAD_XREC_ROUNDTRIP
360
54D
  0
DICTIONARY
  5
546
330
488
100
AcDbDictionary
280
     1
281
     1
  3
ACAD_XREC_ROUNDTRIP
360
547
  0
DICTIONARY
  5
548
330
489
100
AcDbDictionary
280
     1
281
     1
  3
ACAD_XREC_ROUNDTRIP
360
549
  0
DICTIONARY
  5
538
330
481
100
AcDbDictionary
280
     1
281
     1
  3
ACAD_XREC_ROUNDTRIP
360
539
  0
DICTIONARY
  5
52A
330
47A
100
AcDbDictionary
280
     1
281
     1
  3
ACAD_XREC_ROUNDTRIP
360
52B
  0
DICTIONARY
  5
54A
330
48A
100
AcDbDictionary
280
     1
281
     1
  3
ACAD_XREC_ROUNDTRIP
360
54B
  0
XRECORD
  5
51F
102
{ACAD_REACTORS
330
51E
102
}
330
51E
100
AcDbXrecord
280
     1
102
MATERIAL
148
0.0
149
0.0
149
0.0
 93
        0
 94
      127
282
     0
 72
     0
 77
     0
171
     0
175
     0
179
     0
273
     0
  0
XRECORD
  5
51B
102
{ACAD_REACTORS
330
51A
102
}
330
51A
100
AcDbXrecord
280
     1
102
MATERIAL
148
0.0
149
0.0
149
0.0
 93
        0
 94
      127
282
     0
 72
     0
 77
     0
171
     0
175
     0
179
     0
273
     0
  0
XRECORD
  5
51D
102
{ACAD_REACTORS
330
51C
102
}
330
51C
100
AcDbXrecord
280
     1
102
MATERIAL
148
0.0
149
0.0
149
0.0
 93
        0
 94
      127
282
     0
 72
     0
 77
     0
171
     0
175
     0
179
     0
273
     0
  0
XRECORD
  5
551
102
{ACAD_REACTORS
330
550
102
}
330
550
100
AcDbXrecord
280
     1
102
ACAD_ROUNDTRIP_2010_MLEADER_STYLE
  0
XRECORD
  5
529
102
{ACAD_REACTORS
330
528
102
}
330
528
100
AcDbXrecord
280
     1
102
RTVSPropertyOp0
 70
     1
102
RTVSPropertyOp1
 70
     1
102
RTVSPropertyOp2
 70
     1
102
RTVSPropertyOp3
 70
     1
102
RTVSPropertyOp4
 70
     1
102
RTVSPropertyOp5
 70
     1
102
RTVSPropertyOp6
 70
     1
102
RTVSPropertyOp7
 70
     1
102
RTVSPropertyOp8
 70
     1
102
RTVSPropertyOp9
 70
     1
102
RTVSPropertyOp10
 70
     1
102
RTVSPropertyOp11
 70
     1
102
RTVSPropertyOp12
 70
     1
102
RTVSPropertyOp13
 70
     1
102
RTVSPropertyOp14
 70
     1
102
RTVSPropertyOp15
 70
     1
102
RTVSPropertyOp16
 70
     1
102
RTVSPropertyOp17
 70
     1
102
RTVSPropertyOp18
 70
     1
102
RTVSPropertyOp19
 70
     1
102
RTVSPropertyOp20
 70
     1
102
RTVSPropertyOp21
 70
     1
102
RTVSPropertyOp22
 70
     1
102
RTVSPropertyOp23
 70
     1
102
RTVSPropertyOp24
 70
     1
102
RTVSPropertyOp25
 70
     1
102
RTVSPropertyOp26
 70
     1
102
RTVSPropertyOp27
 70
     1
102
RTVSPropertyOp28
 70
     1
102
RTVSPropertyOp29
 70
     1
102
RTVSPropertyOp30
 70
     1
102
RTVSPropertyOp31
 70
     1
102
RTVSPropertyOp32
 70
     1
102
RTVSPropertyOp33
 70
     1
102
RTVSPropertyOp34
 70
     1
102
RTVSPropertyOp35
 70
     1
102
RTVSPropertyOp36
 70
     1
102
RTVSPropertyOp37
 70
     1
102
RTVSPropertyOp38
 70
     1
102
RTVSPropertyOp39
 70
     1
102
RTVSPropertyOp40
 70
     1
102
RTVSPropertyOp41
 70
     1
102
RTVSPropertyOp42
 70
     1
102
RTVSPropertyOp43
 70
     1
102
RTVSPropertyOp44
 70
     1
102
RTVSPropertyOp45
 70
     1
102
RTVSPropertyOp46
 70
     1
102
RTVSPropertyOp47
 70
     1
102
RTVSPropertyOp48
 70
     1
102
RTVSPropertyOp49
 70
     1
102
RTVSPropertyOp50
 70
     1
102
RTVSPropertyOp51
 70
     0
102
RTVSPropertyOp52
 70
     0
102
RTVSPropertyOp53
 70
     1
102
RTVSPropertyOp54
 70
     1
102
RTVSPropertyOp55
 70
     1
102
RTVSPropertyOp56
 70
     1
102
RTVSPropertyOp57
 70
     1
102
RTVSPost2010Prop28
280
     1
102
RTVSPost2010PropOp28
 70
     1
102
RTVSPost2010Prop29
280
     1
102
RTVSPost2010PropOp29
 70
     1
102
RTVSPost2010Prop30
280
     0
102
RTVSPost2010PropOp30
 70
     1
102
RTVSPost2010Prop31
280
     0
102
RTVSPost2010PropOp31
 70
     1
102
RTVSPost2010Prop32
280
     0
102
RTVSPost2010PropOp32
 70
     1
102
RTVSPost2010Prop33
280
     0
102
RTVSPost2010PropOp33
 70
     1
102
RTVSPost2010Prop34
280
     0
102
RTVSPost2010PropOp34
 70
     1
102
RTVSPost2010Prop35
280
     0
102
RTVSPost2010PropOp35
 70
     1
102
RTVSPost2010Prop36
280
     0
102
RTVSPost2010PropOp36
 70
     1
102
RTVSPost2010Prop37
 90
       50
102
RTVSPost2010PropOp37
 70
     1
102
RTVSPost2010Prop38
140
0.0
102
RTVSPost2010PropOp38
 70
     1
102
RTVSPost2010Prop39
140
1.0
102
RTVSPost2010PropOp39
 70
     1
102
RTVSPost2010Prop40
 90
        0
102
RTVSPost2010PropOp40
 70
     1
102
RTVSPost2010Prop41ColorIndex
 90
       18
102
RTVSPost2010Prop41ColorRGB
 90
        0
102
RTVSPost2010PropOp41
 70
     1
102
RTVSPost2010Prop42
 90
       50
102
RTVSPost2010PropOp42
 70
     1
102
RTVSPost2010Prop43
 90
        3
102
RTVSPost2010PropOp43
 70
     1
102
RTVSPost2010Prop44ColorIndex
 90
        5
102
RTVSPost2010Prop44ColorRGB
 90
      255
102
RTVSPost2010PropOp44
 70
     1
102
RTVSPost2010Prop45
280
     0
102
RTVSPost2010PropOp45
 70
     1
102
RTVSPost2010Prop46
 90
       50
102
RTVSPost2010PropOp46
 70
     1
102
RTVSPost2010Prop47
 90
       50
102
RTVSPost2010PropOp47
 70
     1
102
RTVSPost2010Prop48
 90
       50
102
RTVSPost2010PropOp48
 70
     1
102
RTVSPost2010Prop49
280
     0
102
RTVSPost2010PropOp49
 70
     1
102
RTVSPost2010Prop50
 90
       50
102
RTVSPost2010PropOp50
 70
     1
102
RTVSPost2010Prop51ColorIndex
 90
      256
102
RTVSPost2010Prop51ColorRGB
 90
-16777216
102
RTVSPost2010PropOp51
 70
     0
102
RTVSPost2010Prop52
140
1.0
102
RTVSPost2010PropOp52
 70
     0
102
RTVSPost2010Prop53
 90
        2
102
RTVSPost2010PropOp53
 70
     1
102
RTVSPost2010Prop54
  1
strokes_ogs.tif
102
RTVSPost2010PropOp54
 70
     1
102
RTVSPost2010Prop55
280
     0
102
RTVSPost2010PropOp55
 70
     1
102
RTVSPost2010Prop56
140
1.0
102
RTVSPost2010PropOp56
 70
     1
102
RTVSPost2010Prop57
140
1.0
102
RTVSPost2010PropOp57
 70
     1
  0
XRECORD
  5
52F
102
{ACAD_REACTORS
330
52E
102
}
330
52E
100
AcDbXrecord
280
     1
102
RTVSPropertyOp0
 70
     1
102
RTVSPropertyOp1
 70
     1
102
RTVSPropertyOp2
 70
     1
102
RTVSPropertyOp3
 70
     1
102
RTVSPropertyOp4
 70
     1
102
RTVSPropertyOp5
 70
     1
102
RTVSPropertyOp6
 70
     1
102
RTVSPropertyOp7
 70
     1
102
RTVSPropertyOp8
 70
     1
102
RTVSPropertyOp9
 70
     1
102
RTVSPropertyOp10
 70
     1
102
RTVSPropertyOp11
 70
     1
102
RTVSPropertyOp12
 70
     1
102
RTVSPropertyOp13
 70
     1
102
RTVSPropertyOp14
 70
     1
102
RTVSPropertyOp15
 70
     1
102
RTVSPropertyOp16
 70
     1
102
RTVSPropertyOp17
 70
     1
102
RTVSPropertyOp18
 70
     1
102
RTVSPropertyOp19
 70
     1
102
RTVSPropertyOp20
 70
     1
102
RTVSPropertyOp21
 70
     1
102
RTVSPropertyOp22
 70
     1
102
RTVSPropertyOp23
 70
     1
102
RTVSPropertyOp24
 70
     1
102
RTVSPropertyOp25
 70
     1
102
RTVSPropertyOp26
 70
     1
102
RTVSPropertyOp27
 70
     1
102
RTVSPropertyOp28
 70
     1
102
RTVSPropertyOp29
 70
     1
102
RTVSPropertyOp30
 70
     1
102
RTVSPropertyOp31
 70
     1
102
RTVSPropertyOp32
 70
     1
102
RTVSPropertyOp33
 70
     1
102
RTVSPropertyOp34
 70
     1
102
RTVSPropertyOp35
 70
     1
102
RTVSPropertyOp36
 70
     1
102
RTVSPropertyOp37
 70
     1
102
RTVSPropertyOp38
 70
     1
102
RTVSPropertyOp39
 70
     1
102
RTVSPropertyOp40
 70
     1
102
RTVSPropertyOp41
 70
     1
102
RTVSPropertyOp42
 70
     1
102
RTVSPropertyOp43
 70
     1
102
RTVSPropertyOp44
 70
     1
102
RTVSPropertyOp45
 70
     1
102
RTVSPropertyOp46
 70
     1
102
RTVSPropertyOp47
 70
     1
102
RTVSPropertyOp48
 70
     1
102
RTVSPropertyOp49
 70
     1
102
RTVSPropertyOp50
 70
     1
102
RTVSPropertyOp51
 70
     0
102
RTVSPropertyOp52
 70
     0
102
RTVSPropertyOp53
 70
     1
102
RTVSPropertyOp54
 70
     1
102
RTVSPropertyOp55
 70
     1
102
RTVSPropertyOp56
 70
     1
102
RTVSPropertyOp57
 70
     1
102
RTVSPost2010Prop28
280
     0
102
RTVSPost2010PropOp28
 70
     1
102
RTVSPost2010Prop29
280
     1
102
RTVSPost2010PropOp29
 70
     1
102
RTVSPost2010Prop30
280
     1
102
RTVSPost2010PropOp30
 70
     1
102
RTVSPost2010Prop31
280
     0
102
RTVSPost2010PropOp31
 70
     1
102
RTVSPost2010Prop32
280
     0
102
RTVSPost2010PropOp32
 70
     1
102
RTVSPost2010Prop33
280
     0
102
RTVSPost2010PropOp33
 70
     1
102
RTVSPost2010Prop34
280
     0
102
RTVSPost2010PropOp34
 70
     1
102
RTVSPost2010Prop35
280
     0
102
RTVSPost2010PropOp35
 70
     1
102
RTVSPost2010Prop36
280
     0
102
RTVSPost2010PropOp36
 70
     1
102
RTVSPost2010Prop37
 90
       50
102
RTVSPost2010PropOp37
 70
     1
102
RTVSPost2010Prop38
140
0.0
102
RTVSPost2010PropOp38
 70
     1
102
RTVSPost2010Prop39
140
1.0
102
RTVSPost2010PropOp39
 70
     1
102
RTVSPost2010Prop40
 90
        0
102
RTVSPost2010PropOp40
 70
     1
102
RTVSPost2010Prop41ColorIndex
 90
       18
102
RTVSPost2010Prop41ColorRGB
 90
        0
102
RTVSPost2010PropOp41
 70
     1
102
RTVSPost2010Prop42
 90
       50
102
RTVSPost2010PropOp42
 70
     1
102
RTVSPost2010Prop43
 90
        3
102
RTVSPost2010PropOp43
 70
     1
102
RTVSPost2010Prop44ColorIndex
 90
        5
102
RTVSPost2010Prop44ColorRGB
 90
      255
102
RTVSPost2010PropOp44
 70
     1
102
RTVSPost2010Prop45
280
     0
102
RTVSPost2010PropOp45
 70
     1
102
RTVSPost2010Prop46
 90
       50
102
RTVSPost2010PropOp46
 70
     1
102
RTVSPost2010Prop47
 90
       50
102
RTVSPost2010PropOp47
 70
     1
102
RTVSPost2010Prop48
 90
       50
102
RTVSPost2010PropOp48
 70
     1
102
RTVSPost2010Prop49
280
     0
102
RTVSPost2010PropOp49
 70
     1
102
RTVSPost2010Prop50
 90
       50
102
RTVSPost2010PropOp50
 70
     1
102
RTVSPost2010Prop51ColorIndex
 90
      256
102
RTVSPost2010Prop51ColorRGB
 90
-16777216
102
RTVSPost2010PropOp51
 70
     0
102
RTVSPost2010Prop52
140
1.0
102
RTVSPost2010PropOp52
 70
     0
102
RTVSPost2010Prop53
 90
        2
102
RTVSPost2010PropOp53
 70
     1
102
RTVSPost2010Prop54
  1
strokes_ogs.tif
102
RTVSPost2010PropOp54
 70
     1
102
RTVSPost2010Prop55
280
     0
102
RTVSPost2010PropOp55
 70
     1
102
RTVSPost2010Prop56
140
1.0
102
RTVSPost2010PropOp56
 70
     1
102
RTVSPost2010Prop57
140
1.0
102
RTVSPost2010PropOp57
 70
     1
  0
XRECORD
  5
537
102
{ACAD_REACTORS
330
536
102
}
330
536
100
AcDbXrecord
280
     1
102
RTVSPropertyOp0
 70
     1
102
RTVSPropertyOp1
 70
     1
102
RTVSPropertyOp2
 70
     1
102
RTVSPropertyOp3
 70
     1
102
RTVSPropertyOp4
 70
     1
102
RTVSPropertyOp5
 70
     1
102
RTVSPropertyOp6
 70
     1
102
RTVSPropertyOp7
 70
     1
102
RTVSPropertyOp8
 70
     1
102
RTVSPropertyOp9
 70
     1
102
RTVSPropertyOp10
 70
     1
102
RTVSPropertyOp11
 70
     1
102
RTVSPropertyOp12
 70
     1
102
RTVSPropertyOp13
 70
     1
102
RTVSPropertyOp14
 70
     1
102
RTVSPropertyOp15
 70
     1
102
RTVSPropertyOp16
 70
     1
102
RTVSPropertyOp17
 70
     1
102
RTVSPropertyOp18
 70
     1
102
RTVSPropertyOp19
 70
     1
102
RTVSPropertyOp20
 70
     1
102
RTVSPropertyOp21
 70
     1
102
RTVSPropertyOp22
 70
     1
102
RTVSPropertyOp23
 70
     1
102
RTVSPropertyOp24
 70
     1
102
RTVSPropertyOp25
 70
     1
102
RTVSPropertyOp26
 70
     1
102
RTVSPropertyOp27
 70
     1
102
RTVSPropertyOp28
 70
     1
102
RTVSPropertyOp29
 70
     1
102
RTVSPropertyOp30
 70
     1
102
RTVSPropertyOp31
 70
     1
102
RTVSPropertyOp32
 70
     1
102
RTVSPropertyOp33
 70
     1
102
RTVSPropertyOp34
 70
     1
102
RTVSPropertyOp35
 70
     1
102
RTVSPropertyOp36
 70
     1
102
RTVSPropertyOp37
 70
     1
102
RTVSPropertyOp38
 70
     1
102
RTVSPropertyOp39
 70
     1
102
RTVSPropertyOp40
 70
     1
102
RTVSPropertyOp41
 70
     1
102
RTVSPropertyOp42
 70
     1
102
RTVSPropertyOp43
 70
     1
102
RTVSPropertyOp44
 70
     1
102
RTVSPropertyOp45
 70
     1
102
RTVSPropertyOp46
 70
     1
102
RTVSPropertyOp47
 70
     1
102
RTVSPropertyOp48
 70
     1
102
RTVSPropertyOp49
 70
     1
102
RTVSPropertyOp50
 70
     1
102
RTVSPropertyOp51
 70
     0
102
RTVSPropertyOp52
 70
     0
102
RTVSPropertyOp53
 70
     1
102
RTVSPropertyOp54
 70
     1
102
RTVSPropertyOp55
 70
     1
102
RTVSPropertyOp56
 70
     1
102
RTVSPropertyOp57
 70
     1
102
RTVSPost2010Prop28
280
     0
102
RTVSPost2010PropOp28
 70
     1
102
RTVSPost2010Prop29
280
     1
102
RTVSPost2010PropOp29
 70
     1
102
RTVSPost2010Prop30
280
     1
102
RTVSPost2010PropOp30
 70
     1
102
RTVSPost2010Prop31
280
     0
102
RTVSPost2010PropOp31
 70
     1
102
RTVSPost2010Prop32
280
     0
102
RTVSPost2010PropOp32
 70
     1
102
RTVSPost2010Prop33
280
     0
102
RTVSPost2010PropOp33
 70
     1
102
RTVSPost2010Prop34
280
     0
102
RTVSPost2010PropOp34
 70
     1
102
RTVSPost2010Prop35
280
     0
102
RTVSPost2010PropOp35
 70
     1
102
RTVSPost2010Prop36
280
     0
102
RTVSPost2010PropOp36
 70
     1
102
RTVSPost2010Prop37
 90
       50
102
RTVSPost2010PropOp37
 70
     1
102
RTVSPost2010Prop38
140
0.0
102
RTVSPost2010PropOp38
 70
     1
102
RTVSPost2010Prop39
140
1.0
102
RTVSPost2010PropOp39
 70
     1
102
RTVSPost2010Prop40
 90
        0
102
RTVSPost2010PropOp40
 70
     1
102
RTVSPost2010Prop41ColorIndex
 90
       18
102
RTVSPost2010Prop41ColorRGB
 90
        0
102
RTVSPost2010PropOp41
 70
     1
102
RTVSPost2010Prop42
 90
       50
102
RTVSPost2010PropOp42
 70
     1
102
RTVSPost2010Prop43
 90
        3
102
RTVSPost2010PropOp43
 70
     1
102
RTVSPost2010Prop44ColorIndex
 90
        5
102
RTVSPost2010Prop44ColorRGB
 90
      255
102
RTVSPost2010PropOp44
 70
     1
102
RTVSPost2010Prop45
280
     0
102
RTVSPost2010PropOp45
 70
     1
102
RTVSPost2010Prop46
 90
       50
102
RTVSPost2010PropOp46
 70
     1
102
RTVSPost2010Prop47
 90
       50
102
RTVSPost2010PropOp47
 70
     1
102
RTVSPost2010Prop48
 90
       50
102
RTVSPost2010PropOp48
 70
     1
102
RTVSPost2010Prop49
280
     0
102
RTVSPost2010PropOp49
 70
     1
102
RTVSPost2010Prop50
 90
       50
102
RTVSPost2010PropOp50
 70
     1
102
RTVSPost2010Prop51ColorIndex
 90
      256
102
RTVSPost2010Prop51ColorRGB
 90
-16777216
102
RTVSPost2010PropOp51
 70
     0
102
RTVSPost2010Prop52
140
1.0
102
RTVSPost2010PropOp52
 70
     0
102
RTVSPost2010Prop53
 90
        2
102
RTVSPost2010PropOp53
 70
     1
102
RTVSPost2010Prop54
  1
strokes_ogs.tif
102
RTVSPost2010PropOp54
 70
     1
102
RTVSPost2010Prop55
280
     0
102
RTVSPost2010PropOp55
 70
     1
102
RTVSPost2010Prop56
140
1.0
102
RTVSPost2010PropOp56
 70
     1
102
RTVSPost2010Prop57
140
1.0
102
RTVSPost2010PropOp57
 70
     1
  0
XRECORD
  5
53F
102
{ACAD_REACTORS
330
53E
102
}
330
53E
100
AcDbXrecord
280
     1
102
RTVSPropertyOp0
 70
     1
102
RTVSPropertyOp1
 70
     1
102
RTVSPropertyOp2
 70
     1
102
RTVSPropertyOp3
 70
     1
102
RTVSPropertyOp4
 70
     1
102
RTVSPropertyOp5
 70
     1
102
RTVSPropertyOp6
 70
     1
102
RTVSPropertyOp7
 70
     1
102
RTVSPropertyOp8
 70
     1
102
RTVSPropertyOp9
 70
     1
102
RTVSPropertyOp10
 70
     1
102
RTVSPropertyOp11
 70
     1
102
RTVSPropertyOp12
 70
     1
102
RTVSPropertyOp13
 70
     1
102
RTVSPropertyOp14
 70
     1
102
RTVSPropertyOp15
 70
     1
102
RTVSPropertyOp16
 70
     1
102
RTVSPropertyOp17
 70
     1
102
RTVSPropertyOp18
 70
     1
102
RTVSPropertyOp19
 70
     1
102
RTVSPropertyOp20
 70
     1
102
RTVSPropertyOp21
 70
     1
102
RTVSPropertyOp22
 70
     1
102
RTVSPropertyOp23
 70
     1
102
RTVSPropertyOp24
 70
     1
102
RTVSPropertyOp25
 70
     1
102
RTVSPropertyOp26
 70
     1
102
RTVSPropertyOp27
 70
     1
102
RTVSPropertyOp28
 70
     1
102
RTVSPropertyOp29
 70
     1
102
RTVSPropertyOp30
 70
     1
102
RTVSPropertyOp31
 70
     1
102
RTVSPropertyOp32
 70
     1
102
RTVSPropertyOp33
 70
     1
102
RTVSPropertyOp34
 70
     1
102
RTVSPropertyOp35
 70
     1
102
RTVSPropertyOp36
 70
     1
102
RTVSPropertyOp37
 70
     1
102
RTVSPropertyOp38
 70
     1
102
RTVSPropertyOp39
 70
     1
102
RTVSPropertyOp40
 70
     1
102
RTVSPropertyOp41
 70
     1
102
RTVSPropertyOp42
 70
     1
102
RTVSPropertyOp43
 70
     1
102
RTVSPropertyOp44
 70
     1
102
RTVSPropertyOp45
 70
     1
102
RTVSPropertyOp46
 70
     1
102
RTVSPropertyOp47
 70
     1
102
RTVSPropertyOp48
 70
     1
102
RTVSPropertyOp49
 70
     1
102
RTVSPropertyOp50
 70
     1
102
RTVSPropertyOp51
 70
     0
102
RTVSPropertyOp52
 70
     0
102
RTVSPropertyOp53
 70
     1
102
RTVSPropertyOp54
 70
     1
102
RTVSPropertyOp55
 70
     1
102
RTVSPropertyOp56
 70
     1
102
RTVSPropertyOp57
 70
     1
102
RTVSPost2010Prop28
280
     0
102
RTVSPost2010PropOp28
 70
     1
102
RTVSPost2010Prop29
280
     1
102
RTVSPost2010PropOp29
 70
     1
102
RTVSPost2010Prop30
280
     1
102
RTVSPost2010PropOp30
 70
     1
102
RTVSPost2010Prop31
280
     0
102
RTVSPost2010PropOp31
 70
     1
102
RTVSPost2010Prop32
280
     0
102
RTVSPost2010PropOp32
 70
     1
102
RTVSPost2010Prop33
280
     0
102
RTVSPost2010PropOp33
 70
     1
102
RTVSPost2010Prop34
280
     0
102
RTVSPost2010PropOp34
 70
     1
102
RTVSPost2010Prop35
280
     0
102
RTVSPost2010PropOp35
 70
     1
102
RTVSPost2010Prop36
280
     0
102
RTVSPost2010PropOp36
 70
     1
102
RTVSPost2010Prop37
 90
       50
102
RTVSPost2010PropOp37
 70
     1
102
RTVSPost2010Prop38
140
0.0
102
RTVSPost2010PropOp38
 70
     1
102
RTVSPost2010Prop39
140
1.0
102
RTVSPost2010PropOp39
 70
     1
102
RTVSPost2010Prop40
 90
        0
102
RTVSPost2010PropOp40
 70
     1
102
RTVSPost2010Prop41ColorIndex
 90
       18
102
RTVSPost2010Prop41ColorRGB
 90
        0
102
RTVSPost2010PropOp41
 70
     1
102
RTVSPost2010Prop42
 90
       50
102
RTVSPost2010PropOp42
 70
     1
102
RTVSPost2010Prop43
 90
        3
102
RTVSPost2010PropOp43
 70
     1
102
RTVSPost2010Prop44ColorIndex
 90
        5
102
RTVSPost2010Prop44ColorRGB
 90
      255
102
RTVSPost2010PropOp44
 70
     1
102
RTVSPost2010Prop45
280
     0
102
RTVSPost2010PropOp45
 70
     1
102
RTVSPost2010Prop46
 90
       50
102
RTVSPost2010PropOp46
 70
     1
102
RTVSPost2010Prop47
 90
       50
102
RTVSPost2010PropOp47
 70
     1
102
RTVSPost2010Prop48
 90
       50
102
RTVSPost2010PropOp48
 70
     1
102
RTVSPost2010Prop49
280
     0
102
RTVSPost2010PropOp49
 70
     1
102
RTVSPost2010Prop50
 90
       50
102
RTVSPost2010PropOp50
 70
     1
102
RTVSPost2010Prop51ColorIndex
 90
      256
102
RTVSPost2010Prop51ColorRGB
 90
-16777216
102
RTVSPost2010PropOp51
 70
     0
102
RTVSPost2010Prop52
140
1.0
102
RTVSPost2010PropOp52
 70
     0
102
RTVSPost2010Prop53
 90
        2
102
RTVSPost2010PropOp53
 70
     1
102
RTVSPost2010Prop54
  1
strokes_ogs.tif
102
RTVSPost2010PropOp54
 70
     1
102
RTVSPost2010Prop55
280
     0
102
RTVSPost2010PropOp55
 70
     1
102
RTVSPost2010Prop56
140
1.0
102
RTVSPost2010PropOp56
 70
     1
102
RTVSPost2010Prop57
140
1.0
102
RTVSPost2010PropOp57
 70
     1
  0
XRECORD
  5
533
102
{ACAD_REACTORS
330
532
102
}
330
532
100
AcDbXrecord
280
     1
102
RTVSPropertyOp0
 70
     1
102
RTVSPropertyOp1
 70
     1
102
RTVSPropertyOp2
 70
     1
102
RTVSPropertyOp3
 70
     1
102
RTVSPropertyOp4
 70
     1
102
RTVSPropertyOp5
 70
     1
102
RTVSPropertyOp6
 70
     1
102
RTVSPropertyOp7
 70
     1
102
RTVSPropertyOp8
 70
     1
102
RTVSPropertyOp9
 70
     1
102
RTVSPropertyOp10
 70
     1
102
RTVSPropertyOp11
 70
     1
102
RTVSPropertyOp12
 70
     1
102
RTVSPropertyOp13
 70
     1
102
RTVSPropertyOp14
 70
     1
102
RTVSPropertyOp15
 70
     1
102
RTVSPropertyOp16
 70
     1
102
RTVSPropertyOp17
 70
     1
102
RTVSPropertyOp18
 70
     1
102
RTVSPropertyOp19
 70
     1
102
RTVSPropertyOp20
 70
     1
102
RTVSPropertyOp21
 70
     1
102
RTVSPropertyOp22
 70
     1
102
RTVSPropertyOp23
 70
     1
102
RTVSPropertyOp24
 70
     1
102
RTVSPropertyOp25
 70
     1
102
RTVSPropertyOp26
 70
     1
102
RTVSPropertyOp27
 70
     1
102
RTVSPropertyOp28
 70
     1
102
RTVSPropertyOp29
 70
     1
102
RTVSPropertyOp30
 70
     1
102
RTVSPropertyOp31
 70
     1
102
RTVSPropertyOp32
 70
     1
102
RTVSPropertyOp33
 70
     1
102
RTVSPropertyOp34
 70
     1
102
RTVSPropertyOp35
 70
     1
102
RTVSPropertyOp36
 70
     1
102
RTVSPropertyOp37
 70
     1
102
RTVSPropertyOp38
 70
     1
102
RTVSPropertyOp39
 70
     1
102
RTVSPropertyOp40
 70
     1
102
RTVSPropertyOp41
 70
     1
102
RTVSPropertyOp42
 70
     1
102
RTVSPropertyOp43
 70
     1
102
RTVSPropertyOp44
 70
     1
102
RTVSPropertyOp45
 70
     1
102
RTVSPropertyOp46
 70
     1
102
RTVSPropertyOp47
 70
     1
102
RTVSPropertyOp48
 70
     1
102
RTVSPropertyOp49
 70
     1
102
RTVSPropertyOp50
 70
     1
102
RTVSPropertyOp51
 70
     0
102
RTVSPropertyOp52
 70
     0
102
RTVSPropertyOp53
 70
     1
102
RTVSPropertyOp54
 70
     1
102
RTVSPropertyOp55
 70
     1
102
RTVSPropertyOp56
 70
     1
102
RTVSPropertyOp57
 70
     1
102
RTVSPost2010Prop28
280
     0
102
RTVSPost2010PropOp28
 70
     1
102
RTVSPost2010Prop29
280
     1
102
RTVSPost2010PropOp29
 70
     1
102
RTVSPost2010Prop30
280
     1
102
RTVSPost2010PropOp30
 70
     1
102
RTVSPost2010Prop31
280
     0
102
RTVSPost2010PropOp31
 70
     1
102
RTVSPost2010Prop32
280
     0
102
RTVSPost2010PropOp32
 70
     1
102
RTVSPost2010Prop33
280
     0
102
RTVSPost2010PropOp33
 70
     1
102
RTVSPost2010Prop34
280
     0
102
RTVSPost2010PropOp34
 70
     1
102
RTVSPost2010Prop35
280
     0
102
RTVSPost2010PropOp35
 70
     1
102
RTVSPost2010Prop36
280
     0
102
RTVSPost2010PropOp36
 70
     1
102
RTVSPost2010Prop37
 90
       50
102
RTVSPost2010PropOp37
 70
     1
102
RTVSPost2010Prop38
140
0.0
102
RTVSPost2010PropOp38
 70
     1
102
RTVSPost2010Prop39
140
1.0
102
RTVSPost2010PropOp39
 70
     1
102
RTVSPost2010Prop40
 90
        0
102
RTVSPost2010PropOp40
 70
     1
102
RTVSPost2010Prop41ColorIndex
 90
       18
102
RTVSPost2010Prop41ColorRGB
 90
        0
102
RTVSPost2010PropOp41
 70
     1
102
RTVSPost2010Prop42
 90
       50
102
RTVSPost2010PropOp42
 70
     1
102
RTVSPost2010Prop43
 90
        3
102
RTVSPost2010PropOp43
 70
     1
102
RTVSPost2010Prop44ColorIndex
 90
        5
102
RTVSPost2010Prop44ColorRGB
 90
      255
102
RTVSPost2010PropOp44
 70
     1
102
RTVSPost2010Prop45
280
     0
102
RTVSPost2010PropOp45
 70
     1
102
RTVSPost2010Prop46
 90
       50
102
RTVSPost2010PropOp46
 70
     1
102
RTVSPost2010Prop47
 90
       50
102
RTVSPost2010PropOp47
 70
     1
102
RTVSPost2010Prop48
 90
       50
102
RTVSPost2010PropOp48
 70
     1
102
RTVSPost2010Prop49
280
     0
102
RTVSPost2010PropOp49
 70
     1
102
RTVSPost2010Prop50
 90
       50
102
RTVSPost2010PropOp50
 70
     1
102
RTVSPost2010Prop51ColorIndex
 90
      256
102
RTVSPost2010Prop51ColorRGB
 90
-16777216
102
RTVSPost2010PropOp51
 70
     0
102
RTVSPost2010Prop52
140
1.0
102
RTVSPost2010PropOp52
 70
     0
102
RTVSPost2010Prop53
 90
        2
102
RTVSPost2010PropOp53
 70
     1
102
RTVSPost2010Prop54
  1
strokes_ogs.tif
102
RTVSPost2010PropOp54
 70
     1
102
RTVSPost2010Prop55
280
     0
102
RTVSPost2010PropOp55
 70
     1
102
RTVSPost2010Prop56
140
1.0
102
RTVSPost2010PropOp56
 70
     1
102
RTVSPost2010Prop57
140
1.0
102
RTVSPost2010PropOp57
 70
     1
  0
XRECORD
  5
535
102
{ACAD_REACTORS
330
534
102
}
330
534
100
AcDbXrecord
280
     1
102
RTVSPropertyOp0
 70
     1
102
RTVSPropertyOp1
 70
     1
102
RTVSPropertyOp2
 70
     1
102
RTVSPropertyOp3
 70
     1
102
RTVSPropertyOp4
 70
     1
102
RTVSPropertyOp5
 70
     1
102
RTVSPropertyOp6
 70
     1
102
RTVSPropertyOp7
 70
     1
102
RTVSPropertyOp8
 70
     1
102
RTVSPropertyOp9
 70
     1
102
RTVSPropertyOp10
 70
     1
102
RTVSPropertyOp11
 70
     1
102
RTVSPropertyOp12
 70
     1
102
RTVSPropertyOp13
 70
     1
102
RTVSPropertyOp14
 70
     1
102
RTVSPropertyOp15
 70
     1
102
RTVSPropertyOp16
 70
     1
102
RTVSPropertyOp17
 70
     1
102
RTVSPropertyOp18
 70
     1
102
RTVSPropertyOp19
 70
     1
102
RTVSPropertyOp20
 70
     1
102
RTVSPropertyOp21
 70
     1
102
RTVSPropertyOp22
 70
     1
102
RTVSPropertyOp23
 70
     1
102
RTVSPropertyOp24
 70
     1
102
RTVSPropertyOp25
 70
     1
102
RTVSPropertyOp26
 70
     1
102
RTVSPropertyOp27
 70
     1
102
RTVSPropertyOp28
 70
     1
102
RTVSPropertyOp29
 70
     1
102
RTVSPropertyOp30
 70
     1
102
RTVSPropertyOp31
 70
     1
102
RTVSPropertyOp32
 70
     1
102
RTVSPropertyOp33
 70
     1
102
RTVSPropertyOp34
 70
     1
102
RTVSPropertyOp35
 70
     1
102
RTVSPropertyOp36
 70
     1
102
RTVSPropertyOp37
 70
     1
102
RTVSPropertyOp38
 70
     1
102
RTVSPropertyOp39
 70
     1
102
RTVSPropertyOp40
 70
     1
102
RTVSPropertyOp41
 70
     1
102
RTVSPropertyOp42
 70
     1
102
RTVSPropertyOp43
 70
     1
102
RTVSPropertyOp44
 70
     1
102
RTVSPropertyOp45
 70
     1
102
RTVSPropertyOp46
 70
     1
102
RTVSPropertyOp47
 70
     1
102
RTVSPropertyOp48
 70
     1
102
RTVSPropertyOp49
 70
     1
102
RTVSPropertyOp50
 70
     1
102
RTVSPropertyOp51
 70
     0
102
RTVSPropertyOp52
 70
     0
102
RTVSPropertyOp53
 70
     1
102
RTVSPropertyOp54
 70
     1
102
RTVSPropertyOp55
 70
     1
102
RTVSPropertyOp56
 70
     1
102
RTVSPropertyOp57
 70
     1
102
RTVSPost2010Prop28
280
     0
102
RTVSPost2010PropOp28
 70
     1
102
RTVSPost2010Prop29
280
     1
102
RTVSPost2010PropOp29
 70
     1
102
RTVSPost2010Prop30
280
     1
102
RTVSPost2010PropOp30
 70
     1
102
RTVSPost2010Prop31
280
     0
102
RTVSPost2010PropOp31
 70
     1
102
RTVSPost2010Prop32
280
     0
102
RTVSPost2010PropOp32
 70
     1
102
RTVSPost2010Prop33
280
     0
102
RTVSPost2010PropOp33
 70
     1
102
RTVSPost2010Prop34
280
     0
102
RTVSPost2010PropOp34
 70
     1
102
RTVSPost2010Prop35
280
     0
102
RTVSPost2010PropOp35
 70
     1
102
RTVSPost2010Prop36
280
     0
102
RTVSPost2010PropOp36
 70
     1
102
RTVSPost2010Prop37
 90
       50
102
RTVSPost2010PropOp37
 70
     1
102
RTVSPost2010Prop38
140
0.0
102
RTVSPost2010PropOp38
 70
     1
102
RTVSPost2010Prop39
140
1.0
102
RTVSPost2010PropOp39
 70
     1
102
RTVSPost2010Prop40
 90
        0
102
RTVSPost2010PropOp40
 70
     1
102
RTVSPost2010Prop41ColorIndex
 90
       18
102
RTVSPost2010Prop41ColorRGB
 90
        0
102
RTVSPost2010PropOp41
 70
     1
102
RTVSPost2010Prop42
 90
       50
102
RTVSPost2010PropOp42
 70
     1
102
RTVSPost2010Prop43
 90
        3
102
RTVSPost2010PropOp43
 70
     1
102
RTVSPost2010Prop44ColorIndex
 90
        5
102
RTVSPost2010Prop44ColorRGB
 90
      255
102
RTVSPost2010PropOp44
 70
     1
102
RTVSPost2010Prop45
280
     0
102
RTVSPost2010PropOp45
 70
     1
102
RTVSPost2010Prop46
 90
       50
102
RTVSPost2010PropOp46
 70
     1
102
RTVSPost2010Prop47
 90
       50
102
RTVSPost2010PropOp47
 70
     1
102
RTVSPost2010Prop48
 90
       50
102
RTVSPost2010PropOp48
 70
     1
102
RTVSPost2010Prop49
280
     0
102
RTVSPost2010PropOp49
 70
     1
102
RTVSPost2010Prop50
 90
       50
102
RTVSPost2010PropOp50
 70
     1
102
RTVSPost2010Prop51ColorIndex
 90
      256
102
RTVSPost2010Prop51ColorRGB
 90
-16777216
102
RTVSPost2010PropOp51
 70
     0
102
RTVSPost2010Prop52
140
1.0
102
RTVSPost2010PropOp52
 70
     0
102
RTVSPost2010Prop53
 90
        2
102
RTVSPost2010PropOp53
 70
     1
102
RTVSPost2010Prop54
  1
strokes_ogs.tif
102
RTVSPost2010PropOp54
 70
     1
102
RTVSPost2010Prop55
280
     0
102
RTVSPost2010PropOp55
 70
     1
102
RTVSPost2010Prop56
140
1.0
102
RTVSPost2010PropOp56
 70
     1
102
RTVSPost2010Prop57
140
1.0
102
RTVSPost2010PropOp57
 70
     1
  0
XRECORD
  5
545
102
{ACAD_REACTORS
330
544
102
}
330
544
100
AcDbXrecord
280
     1
102
RTVSPropertyOp0
 70
     0
102
RTVSPropertyOp1
 70
     0
102
RTVSPropertyOp2
 70
     0
102
RTVSPropertyOp3
 70
     0
102
RTVSPropertyOp4
 70
     0
102
RTVSPropertyOp5
 70
     0
102
RTVSPropertyOp6
 70
     0
102
RTVSPropertyOp7
 70
     0
102
RTVSPropertyOp8
 70
     0
102
RTVSPropertyOp9
 70
     0
102
RTVSPropertyOp10
 70
     0
102
RTVSPropertyOp11
 70
     0
102
RTVSPropertyOp12
 70
     0
102
RTVSPropertyOp13
 70
     0
102
RTVSPropertyOp14
 70
     0
102
RTVSPropertyOp15
 70
     0
102
RTVSPropertyOp16
 70
     0
102
RTVSPropertyOp17
 70
     0
102
RTVSPropertyOp18
 70
     0
102
RTVSPropertyOp19
 70
     0
102
RTVSPropertyOp20
 70
     0
102
RTVSPropertyOp21
 70
     0
102
RTVSPropertyOp22
 70
     0
102
RTVSPropertyOp23
 70
     0
102
RTVSPropertyOp24
 70
     0
102
RTVSPropertyOp25
 70
     0
102
RTVSPropertyOp26
 70
     0
102
RTVSPropertyOp27
 70
     0
102
RTVSPropertyOp28
 70
     1
102
RTVSPropertyOp29
 70
     1
102
RTVSPropertyOp30
 70
     1
102
RTVSPropertyOp31
 70
     1
102
RTVSPropertyOp32
 70
     1
102
RTVSPropertyOp33
 70
     1
102
RTVSPropertyOp34
 70
     1
102
RTVSPropertyOp35
 70
     1
102
RTVSPropertyOp36
 70
     1
102
RTVSPropertyOp37
 70
     1
102
RTVSPropertyOp38
 70
     1
102
RTVSPropertyOp39
 70
     1
102
RTVSPropertyOp40
 70
     1
102
RTVSPropertyOp41
 70
     1
102
RTVSPropertyOp42
 70
     1
102
RTVSPropertyOp43
 70
     1
102
RTVSPropertyOp44
 70
     1
102
RTVSPropertyOp45
 70
     1
102
RTVSPropertyOp46
 70
     1
102
RTVSPropertyOp47
 70
     1
102
RTVSPropertyOp48
 70
     1
102
RTVSPropertyOp49
 70
     1
102
RTVSPropertyOp50
 70
     1
102
RTVSPropertyOp51
 70
     0
102
RTVSPropertyOp52
 70
     0
102
RTVSPropertyOp53
 70
     1
102
RTVSPropertyOp54
 70
     1
102
RTVSPropertyOp55
 70
     1
102
RTVSPropertyOp56
 70
     1
102
RTVSPropertyOp57
 70
     1
102
RTVSPost2010Prop28
280
     0
102
RTVSPost2010PropOp28
 70
     1
102
RTVSPost2010Prop29
280
     1
102
RTVSPost2010PropOp29
 70
     1
102
RTVSPost2010Prop30
280
     1
102
RTVSPost2010PropOp30
 70
     1
102
RTVSPost2010Prop31
280
     0
102
RTVSPost2010PropOp31
 70
     1
102
RTVSPost2010Prop32
280
     0
102
RTVSPost2010PropOp32
 70
     1
102
RTVSPost2010Prop33
280
     0
102
RTVSPost2010PropOp33
 70
     1
102
RTVSPost2010Prop34
280
     0
102
RTVSPost2010PropOp34
 70
     1
102
RTVSPost2010Prop35
280
     0
102
RTVSPost2010PropOp35
 70
     1
102
RTVSPost2010Prop36
280
     0
102
RTVSPost2010PropOp36
 70
     1
102
RTVSPost2010Prop37
 90
       50
102
RTVSPost2010PropOp37
 70
     1
102
RTVSPost2010Prop38
140
0.0
102
RTVSPost2010PropOp38
 70
     1
102
RTVSPost2010Prop39
140
1.0
102
RTVSPost2010PropOp39
 70
     1
102
RTVSPost2010Prop40
 90
        0
102
RTVSPost2010PropOp40
 70
     1
102
RTVSPost2010Prop41ColorIndex
 90
       18
102
RTVSPost2010Prop41ColorRGB
 90
        0
102
RTVSPost2010PropOp41
 70
     1
102
RTVSPost2010Prop42
 90
       50
102
RTVSPost2010PropOp42
 70
     1
102
RTVSPost2010Prop43
 90
        3
102
RTVSPost2010PropOp43
 70
     1
102
RTVSPost2010Prop44ColorIndex
 90
        5
102
RTVSPost2010Prop44ColorRGB
 90
      255
102
RTVSPost2010PropOp44
 70
     1
102
RTVSPost2010Prop45
280
     0
102
RTVSPost2010PropOp45
 70
     1
102
RTVSPost2010Prop46
 90
       50
102
RTVSPost2010PropOp46
 70
     1
102
RTVSPost2010Prop47
 90
       50
102
RTVSPost2010PropOp47
 70
     1
102
RTVSPost2010Prop48
 90
       50
102
RTVSPost2010PropOp48
 70
     1
102
RTVSPost2010Prop49
280
     0
102
RTVSPost2010PropOp49
 70
     1
102
RTVSPost2010Prop50
 90
       50
102
RTVSPost2010PropOp50
 70
     1
102
RTVSPost2010Prop51ColorIndex
 90
      256
102
RTVSPost2010Prop51ColorRGB
 90
-16777216
102
RTVSPost2010PropOp51
 70
     0
102
RTVSPost2010Prop52
140
1.0
102
RTVSPost2010PropOp52
 70
     0
102
RTVSPost2010Prop53
 90
        2
102
RTVSPost2010PropOp53
 70
     1
102
RTVSPost2010Prop54
  1
strokes_ogs.tif
102
RTVSPost2010PropOp54
 70
     1
102
RTVSPost2010Prop55
280
     0
102
RTVSPost2010PropOp55
 70
     1
102
RTVSPost2010Prop56
140
1.0
102
RTVSPost2010PropOp56
 70
     1
102
RTVSPost2010Prop57
140
1.0
102
RTVSPost2010PropOp57
 70
     1
  0
XRECORD
  5
53D
102
{ACAD_REACTORS
330
53C
102
}
330
53C
100
AcDbXrecord
280
     1
102
RTVSPropertyOp0
 70
     1
102
RTVSPropertyOp1
 70
     1
102
RTVSPropertyOp2
 70
     1
102
RTVSPropertyOp3
 70
     1
102
RTVSPropertyOp4
 70
     1
102
RTVSPropertyOp5
 70
     1
102
RTVSPropertyOp6
 70
     1
102
RTVSPropertyOp7
 70
     1
102
RTVSPropertyOp8
 70
     1
102
RTVSPropertyOp9
 70
     1
102
RTVSPropertyOp10
 70
     1
102
RTVSPropertyOp11
 70
     1
102
RTVSPropertyOp12
 70
     1
102
RTVSPropertyOp13
 70
     1
102
RTVSPropertyOp14
 70
     1
102
RTVSPropertyOp15
 70
     1
102
RTVSPropertyOp16
 70
     1
102
RTVSPropertyOp17
 70
     1
102
RTVSPropertyOp18
 70
     1
102
RTVSPropertyOp19
 70
     1
102
RTVSPropertyOp20
 70
     1
102
RTVSPropertyOp21
 70
     1
102
RTVSPropertyOp22
 70
     1
102
RTVSPropertyOp23
 70
     1
102
RTVSPropertyOp24
 70
     1
102
RTVSPropertyOp25
 70
     1
102
RTVSPropertyOp26
 70
     1
102
RTVSPropertyOp27
 70
     1
102
RTVSPropertyOp28
 70
     1
102
RTVSPropertyOp29
 70
     1
102
RTVSPropertyOp30
 70
     1
102
RTVSPropertyOp31
 70
     1
102
RTVSPropertyOp32
 70
     1
102
RTVSPropertyOp33
 70
     1
102
RTVSPropertyOp34
 70
     1
102
RTVSPropertyOp35
 70
     1
102
RTVSPropertyOp36
 70
     1
102
RTVSPropertyOp37
 70
     1
102
RTVSPropertyOp38
 70
     1
102
RTVSPropertyOp39
 70
     1
102
RTVSPropertyOp40
 70
     1
102
RTVSPropertyOp41
 70
     1
102
RTVSPropertyOp42
 70
     1
102
RTVSPropertyOp43
 70
     1
102
RTVSPropertyOp44
 70
     1
102
RTVSPropertyOp45
 70
     1
102
RTVSPropertyOp46
 70
     1
102
RTVSPropertyOp47
 70
     1
102
RTVSPropertyOp48
 70
     1
102
RTVSPropertyOp49
 70
     1
102
RTVSPropertyOp50
 70
     1
102
RTVSPropertyOp51
 70
     0
102
RTVSPropertyOp52
 70
     0
102
RTVSPropertyOp53
 70
     1
102
RTVSPropertyOp54
 70
     1
102
RTVSPropertyOp55
 70
     1
102
RTVSPropertyOp56
 70
     1
102
RTVSPropertyOp57
 70
     1
102
RTVSPost2010Prop28
280
     0
102
RTVSPost2010PropOp28
 70
     1
102
RTVSPost2010Prop29
280
     1
102
RTVSPost2010PropOp29
 70
     1
102
RTVSPost2010Prop30
280
     1
102
RTVSPost2010PropOp30
 70
     1
102
RTVSPost2010Prop31
280
     0
102
RTVSPost2010PropOp31
 70
     1
102
RTVSPost2010Prop32
280
     0
102
RTVSPost2010PropOp32
 70
     1
102
RTVSPost2010Prop33
280
     0
102
RTVSPost2010PropOp33
 70
     1
102
RTVSPost2010Prop34
280
     0
102
RTVSPost2010PropOp34
 70
     1
102
RTVSPost2010Prop35
280
     0
102
RTVSPost2010PropOp35
 70
     1
102
RTVSPost2010Prop36
280
     0
102
RTVSPost2010PropOp36
 70
     1
102
RTVSPost2010Prop37
 90
       50
102
RTVSPost2010PropOp37
 70
     1
102
RTVSPost2010Prop38
140
0.0
102
RTVSPost2010PropOp38
 70
     1
102
RTVSPost2010Prop39
140
1.0
102
RTVSPost2010PropOp39
 70
     1
102
RTVSPost2010Prop40
 90
        0
102
RTVSPost2010PropOp40
 70
     1
102
RTVSPost2010Prop41ColorIndex
 90
       18
102
RTVSPost2010Prop41ColorRGB
 90
        0
102
RTVSPost2010PropOp41
 70
     1
102
RTVSPost2010Prop42
 90
       50
102
RTVSPost2010PropOp42
 70
     1
102
RTVSPost2010Prop43
 90
        3
102
RTVSPost2010PropOp43
 70
     1
102
RTVSPost2010Prop44ColorIndex
 90
        5
102
RTVSPost2010Prop44ColorRGB
 90
      255
102
RTVSPost2010PropOp44
 70
     1
102
RTVSPost2010Prop45
280
     0
102
RTVSPost2010PropOp45
 70
     1
102
RTVSPost2010Prop46
 90
       50
102
RTVSPost2010PropOp46
 70
     1
102
RTVSPost2010Prop47
 90
       50
102
RTVSPost2010PropOp47
 70
     1
102
RTVSPost2010Prop48
 90
       50
102
RTVSPost2010PropOp48
 70
     1
102
RTVSPost2010Prop49
280
     0
102
RTVSPost2010PropOp49
 70
     1
102
RTVSPost2010Prop50
 90
       50
102
RTVSPost2010PropOp50
 70
     1
102
RTVSPost2010Prop51ColorIndex
 90
      256
102
RTVSPost2010Prop51ColorRGB
 90
-16777216
102
RTVSPost2010PropOp51
 70
     0
102
RTVSPost2010Prop52
140
1.0
102
RTVSPost2010PropOp52
 70
     0
102
RTVSPost2010Prop53
 90
        2
102
RTVSPost2010PropOp53
 70
     1
102
RTVSPost2010Prop54
  1
strokes_ogs.tif
102
RTVSPost2010PropOp54
 70
     1
102
RTVSPost2010Prop55
280
     0
102
RTVSPost2010PropOp55
 70
     1
102
RTVSPost2010Prop56
140
1.0
102
RTVSPost2010PropOp56
 70
     1
102
RTVSPost2010Prop57
140
1.0
102
RTVSPost2010PropOp57
 70
     1
  0
XRECORD
  5
521
102
{ACAD_REACTORS
330
520
102
}
330
520
100
AcDbXrecord
280
     1
102
RTVSPropertyOp0
 70
     1
102
RTVSPropertyOp1
 70
     1
102
RTVSPropertyOp2
 70
     1
102
RTVSPropertyOp3
 70
     1
102
RTVSPropertyOp4
 70
     1
102
RTVSPropertyOp5
 70
     1
102
RTVSPropertyOp6
 70
     1
102
RTVSPropertyOp7
 70
     1
102
RTVSPropertyOp8
 70
     1
102
RTVSPropertyOp9
 70
     1
102
RTVSPropertyOp10
 70
     1
102
RTVSPropertyOp11
 70
     1
102
RTVSPropertyOp12
 70
     1
102
RTVSPropertyOp13
 70
     1
102
RTVSPropertyOp14
 70
     1
102
RTVSPropertyOp15
 70
     1
102
RTVSPropertyOp16
 70
     1
102
RTVSPropertyOp17
 70
     1
102
RTVSPropertyOp18
 70
     1
102
RTVSPropertyOp19
 70
     1
102
RTVSPropertyOp20
 70
     1
102
RTVSPropertyOp21
 70
     1
102
RTVSPropertyOp22
 70
     1
102
RTVSPropertyOp23
 70
     1
102
RTVSPropertyOp24
 70
     1
102
RTVSPropertyOp25
 70
     1
102
RTVSPropertyOp26
 70
     1
102
RTVSPropertyOp27
 70
     1
102
RTVSPropertyOp28
 70
     1
102
RTVSPropertyOp29
 70
     1
102
RTVSPropertyOp30
 70
     1
102
RTVSPropertyOp31
 70
     1
102
RTVSPropertyOp32
 70
     1
102
RTVSPropertyOp33
 70
     1
102
RTVSPropertyOp34
 70
     1
102
RTVSPropertyOp35
 70
     1
102
RTVSPropertyOp36
 70
     1
102
RTVSPropertyOp37
 70
     1
102
RTVSPropertyOp38
 70
     1
102
RTVSPropertyOp39
 70
     1
102
RTVSPropertyOp40
 70
     1
102
RTVSPropertyOp41
 70
     1
102
RTVSPropertyOp42
 70
     1
102
RTVSPropertyOp43
 70
     1
102
RTVSPropertyOp44
 70
     1
102
RTVSPropertyOp45
 70
     1
102
RTVSPropertyOp46
 70
     1
102
RTVSPropertyOp47
 70
     1
102
RTVSPropertyOp48
 70
     1
102
RTVSPropertyOp49
 70
     1
102
RTVSPropertyOp50
 70
     1
102
RTVSPropertyOp51
 70
     0
102
RTVSPropertyOp52
 70
     0
102
RTVSPropertyOp53
 70
     1
102
RTVSPropertyOp54
 70
     1
102
RTVSPropertyOp55
 70
     1
102
RTVSPropertyOp56
 70
     1
102
RTVSPropertyOp57
 70
     1
102
RTVSPost2010Prop28
280
     0
102
RTVSPost2010PropOp28
 70
     1
102
RTVSPost2010Prop29
280
     1
102
RTVSPost2010PropOp29
 70
     1
102
RTVSPost2010Prop30
280
     1
102
RTVSPost2010PropOp30
 70
     1
102
RTVSPost2010Prop31
280
     0
102
RTVSPost2010PropOp31
 70
     1
102
RTVSPost2010Prop32
280
     0
102
RTVSPost2010PropOp32
 70
     1
102
RTVSPost2010Prop33
280
     0
102
RTVSPost2010PropOp33
 70
     1
102
RTVSPost2010Prop34
280
     0
102
RTVSPost2010PropOp34
 70
     1
102
RTVSPost2010Prop35
280
     0
102
RTVSPost2010PropOp35
 70
     1
102
RTVSPost2010Prop36
280
     0
102
RTVSPost2010PropOp36
 70
     1
102
RTVSPost2010Prop37
 90
       50
102
RTVSPost2010PropOp37
 70
     1
102
RTVSPost2010Prop38
140
0.0
102
RTVSPost2010PropOp38
 70
     1
102
RTVSPost2010Prop39
140
1.0
102
RTVSPost2010PropOp39
 70
     1
102
RTVSPost2010Prop40
 90
        0
102
RTVSPost2010PropOp40
 70
     1
102
RTVSPost2010Prop41ColorIndex
 90
       18
102
RTVSPost2010Prop41ColorRGB
 90
        0
102
RTVSPost2010PropOp41
 70
     1
102
RTVSPost2010Prop42
 90
       50
102
RTVSPost2010PropOp42
 70
     1
102
RTVSPost2010Prop43
 90
        3
102
RTVSPost2010PropOp43
 70
     1
102
RTVSPost2010Prop44ColorIndex
 90
        5
102
RTVSPost2010Prop44ColorRGB
 90
      255
102
RTVSPost2010PropOp44
 70
     1
102
RTVSPost2010Prop45
280
     0
102
RTVSPost2010PropOp45
 70
     1
102
RTVSPost2010Prop46
 90
       50
102
RTVSPost2010PropOp46
 70
     1
102
RTVSPost2010Prop47
 90
       50
102
RTVSPost2010PropOp47
 70
     1
102
RTVSPost2010Prop48
 90
       50
102
RTVSPost2010PropOp48
 70
     1
102
RTVSPost2010Prop49
280
     0
102
RTVSPost2010PropOp49
 70
     1
102
RTVSPost2010Prop50
 90
       50
102
RTVSPost2010PropOp50
 70
     1
102
RTVSPost2010Prop51ColorIndex
 90
      256
102
RTVSPost2010Prop51ColorRGB
 90
-16777216
102
RTVSPost2010PropOp51
 70
     0
102
RTVSPost2010Prop52
140
1.0
102
RTVSPost2010PropOp52
 70
     0
102
RTVSPost2010Prop53
 90
        2
102
RTVSPost2010PropOp53
 70
     1
102
RTVSPost2010Prop54
  1
strokes_ogs.tif
102
RTVSPost2010PropOp54
 70
     1
102
RTVSPost2010Prop55
280
     0
102
RTVSPost2010PropOp55
 70
     1
102
RTVSPost2010Prop56
140
1.0
102
RTVSPost2010PropOp56
 70
     1
102
RTVSPost2010Prop57
140
1.0
102
RTVSPost2010PropOp57
 70
     1
  0
XRECORD
  5
523
102
{ACAD_REACTORS
330
522
102
}
330
522
100
AcDbXrecord
280
     1
102
RTVSPropertyOp0
 70
     1
102
RTVSPropertyOp1
 70
     1
102
RTVSPropertyOp2
 70
     1
102
RTVSPropertyOp3
 70
     1
102
RTVSPropertyOp4
 70
     1
102
RTVSPropertyOp5
 70
     1
102
RTVSPropertyOp6
 70
     1
102
RTVSPropertyOp7
 70
     1
102
RTVSPropertyOp8
 70
     1
102
RTVSPropertyOp9
 70
     1
102
RTVSPropertyOp10
 70
     1
102
RTVSPropertyOp11
 70
     1
102
RTVSPropertyOp12
 70
     1
102
RTVSPropertyOp13
 70
     1
102
RTVSPropertyOp14
 70
     1
102
RTVSPropertyOp15
 70
     1
102
RTVSPropertyOp16
 70
     1
102
RTVSPropertyOp17
 70
     1
102
RTVSPropertyOp18
 70
     1
102
RTVSPropertyOp19
 70
     1
102
RTVSPropertyOp20
 70
     1
102
RTVSPropertyOp21
 70
     1
102
RTVSPropertyOp22
 70
     1
102
RTVSPropertyOp23
 70
     1
102
RTVSPropertyOp24
 70
     1
102
RTVSPropertyOp25
 70
     1
102
RTVSPropertyOp26
 70
     1
102
RTVSPropertyOp27
 70
     1
102
RTVSPropertyOp28
 70
     1
102
RTVSPropertyOp29
 70
     1
102
RTVSPropertyOp30
 70
     1
102
RTVSPropertyOp31
 70
     1
102
RTVSPropertyOp32
 70
     1
102
RTVSPropertyOp33
 70
     1
102
RTVSPropertyOp34
 70
     1
102
RTVSPropertyOp35
 70
     1
102
RTVSPropertyOp36
 70
     1
102
RTVSPropertyOp37
 70
     1
102
RTVSPropertyOp38
 70
     1
102
RTVSPropertyOp39
 70
     1
102
RTVSPropertyOp40
 70
     1
102
RTVSPropertyOp41
 70
     1
102
RTVSPropertyOp42
 70
     1
102
RTVSPropertyOp43
 70
     1
102
RTVSPropertyOp44
 70
     1
102
RTVSPropertyOp45
 70
     1
102
RTVSPropertyOp46
 70
     1
102
RTVSPropertyOp47
 70
     1
102
RTVSPropertyOp48
 70
     1
102
RTVSPropertyOp49
 70
     1
102
RTVSPropertyOp50
 70
     1
102
RTVSPropertyOp51
 70
     0
102
RTVSPropertyOp52
 70
     0
102
RTVSPropertyOp53
 70
     1
102
RTVSPropertyOp54
 70
     1
102
RTVSPropertyOp55
 70
     1
102
RTVSPropertyOp56
 70
     1
102
RTVSPropertyOp57
 70
     1
102
RTVSPost2010Prop28
280
     0
102
RTVSPost2010PropOp28
 70
     1
102
RTVSPost2010Prop29
280
     1
102
RTVSPost2010PropOp29
 70
     1
102
RTVSPost2010Prop30
280
     1
102
RTVSPost2010PropOp30
 70
     1
102
RTVSPost2010Prop31
280
     0
102
RTVSPost2010PropOp31
 70
     1
102
RTVSPost2010Prop32
280
     0
102
RTVSPost2010PropOp32
 70
     1
102
RTVSPost2010Prop33
280
     0
102
RTVSPost2010PropOp33
 70
     1
102
RTVSPost2010Prop34
280
     0
102
RTVSPost2010PropOp34
 70
     1
102
RTVSPost2010Prop35
280
     0
102
RTVSPost2010PropOp35
 70
     1
102
RTVSPost2010Prop36
280
     0
102
RTVSPost2010PropOp36
 70
     1
102
RTVSPost2010Prop37
 90
       50
102
RTVSPost2010PropOp37
 70
     1
102
RTVSPost2010Prop38
140
0.0
102
RTVSPost2010PropOp38
 70
     1
102
RTVSPost2010Prop39
140
1.0
102
RTVSPost2010PropOp39
 70
     1
102
RTVSPost2010Prop40
 90
        0
102
RTVSPost2010PropOp40
 70
     1
102
RTVSPost2010Prop41ColorIndex
 90
       18
102
RTVSPost2010Prop41ColorRGB
 90
        0
102
RTVSPost2010PropOp41
 70
     1
102
RTVSPost2010Prop42
 90
       50
102
RTVSPost2010PropOp42
 70
     1
102
RTVSPost2010Prop43
 90
        3
102
RTVSPost2010PropOp43
 70
     1
102
RTVSPost2010Prop44ColorIndex
 90
        5
102
RTVSPost2010Prop44ColorRGB
 90
      255
102
RTVSPost2010PropOp44
 70
     1
102
RTVSPost2010Prop45
280
     0
102
RTVSPost2010PropOp45
 70
     1
102
RTVSPost2010Prop46
 90
       50
102
RTVSPost2010PropOp46
 70
     1
102
RTVSPost2010Prop47
 90
       50
102
RTVSPost2010PropOp47
 70
     1
102
RTVSPost2010Prop48
 90
       50
102
RTVSPost2010PropOp48
 70
     1
102
RTVSPost2010Prop49
280
     0
102
RTVSPost2010PropOp49
 70
     1
102
RTVSPost2010Prop50
 90
       50
102
RTVSPost2010PropOp50
 70
     1
102
RTVSPost2010Prop51ColorIndex
 90
      256
102
RTVSPost2010Prop51ColorRGB
 90
-16777216
102
RTVSPost2010PropOp51
 70
     0
102
RTVSPost2010Prop52
140
1.0
102
RTVSPost2010PropOp52
 70
     0
102
RTVSPost2010Prop53
 90
        2
102
RTVSPost2010PropOp53
 70
     1
102
RTVSPost2010Prop54
  1
strokes_ogs.tif
102
RTVSPost2010PropOp54
 70
     1
102
RTVSPost2010Prop55
280
     0
102
RTVSPost2010PropOp55
 70
     1
102
RTVSPost2010Prop56
140
1.0
102
RTVSPost2010PropOp56
 70
     1
102
RTVSPost2010Prop57
140
1.0
102
RTVSPost2010PropOp57
 70
     1
  0
XRECORD
  5
525
102
{ACAD_REACTORS
330
524
102
}
330
524
100
AcDbXrecord
280
     1
102
RTVSPropertyOp0
 70
     1
102
RTVSPropertyOp1
 70
     1
102
RTVSPropertyOp2
 70
     1
102
RTVSPropertyOp3
 70
     1
102
RTVSPropertyOp4
 70
     1
102
RTVSPropertyOp5
 70
     1
102
RTVSPropertyOp6
 70
     1
102
RTVSPropertyOp7
 70
     1
102
RTVSPropertyOp8
 70
     1
102
RTVSPropertyOp9
 70
     1
102
RTVSPropertyOp10
 70
     1
102
RTVSPropertyOp11
 70
     1
102
RTVSPropertyOp12
 70
     1
102
RTVSPropertyOp13
 70
     1
102
RTVSPropertyOp14
 70
     1
102
RTVSPropertyOp15
 70
     1
102
RTVSPropertyOp16
 70
     1
102
RTVSPropertyOp17
 70
     1
102
RTVSPropertyOp18
 70
     1
102
RTVSPropertyOp19
 70
     1
102
RTVSPropertyOp20
 70
     1
102
RTVSPropertyOp21
 70
     1
102
RTVSPropertyOp22
 70
     1
102
RTVSPropertyOp23
 70
     1
102
RTVSPropertyOp24
 70
     1
102
RTVSPropertyOp25
 70
     1
102
RTVSPropertyOp26
 70
     1
102
RTVSPropertyOp27
 70
     1
102
RTVSPropertyOp28
 70
     1
102
RTVSPropertyOp29
 70
     1
102
RTVSPropertyOp30
 70
     1
102
RTVSPropertyOp31
 70
     1
102
RTVSPropertyOp32
 70
     1
102
RTVSPropertyOp33
 70
     1
102
RTVSPropertyOp34
 70
     1
102
RTVSPropertyOp35
 70
     1
102
RTVSPropertyOp36
 70
     1
102
RTVSPropertyOp37
 70
     1
102
RTVSPropertyOp38
 70
     1
102
RTVSPropertyOp39
 70
     1
102
RTVSPropertyOp40
 70
     1
102
RTVSPropertyOp41
 70
     1
102
RTVSPropertyOp42
 70
     1
102
RTVSPropertyOp43
 70
     1
102
RTVSPropertyOp44
 70
     1
102
RTVSPropertyOp45
 70
     1
102
RTVSPropertyOp46
 70
     1
102
RTVSPropertyOp47
 70
     1
102
RTVSPropertyOp48
 70
     1
102
RTVSPropertyOp49
 70
     1
102
RTVSPropertyOp50
 70
     1
102
RTVSPropertyOp51
 70
     0
102
RTVSPropertyOp52
 70
     0
102
RTVSPropertyOp53
 70
     1
102
RTVSPropertyOp54
 70
     1
102
RTVSPropertyOp55
 70
     1
102
RTVSPropertyOp56
 70
     1
102
RTVSPropertyOp57
 70
     1
102
RTVSPost2010Prop28
280
     0
102
RTVSPost2010PropOp28
 70
     1
102
RTVSPost2010Prop29
280
     1
102
RTVSPost2010PropOp29
 70
     1
102
RTVSPost2010Prop30
280
     1
102
RTVSPost2010PropOp30
 70
     1
102
RTVSPost2010Prop31
280
     0
102
RTVSPost2010PropOp31
 70
     1
102
RTVSPost2010Prop32
280
     0
102
RTVSPost2010PropOp32
 70
     1
102
RTVSPost2010Prop33
280
     0
102
RTVSPost2010PropOp33
 70
     1
102
RTVSPost2010Prop34
280
     0
102
RTVSPost2010PropOp34
 70
     1
102
RTVSPost2010Prop35
280
     0
102
RTVSPost2010PropOp35
 70
     1
102
RTVSPost2010Prop36
280
     0
102
RTVSPost2010PropOp36
 70
     1
102
RTVSPost2010Prop37
 90
       50
102
RTVSPost2010PropOp37
 70
     1
102
RTVSPost2010Prop38
140
0.0
102
RTVSPost2010PropOp38
 70
     1
102
RTVSPost2010Prop39
140
1.0
102
RTVSPost2010PropOp39
 70
     1
102
RTVSPost2010Prop40
 90
        0
102
RTVSPost2010PropOp40
 70
     1
102
RTVSPost2010Prop41ColorIndex
 90
       18
102
RTVSPost2010Prop41ColorRGB
 90
        0
102
RTVSPost2010PropOp41
 70
     1
102
RTVSPost2010Prop42
 90
       50
102
RTVSPost2010PropOp42
 70
     1
102
RTVSPost2010Prop43
 90
        3
102
RTVSPost2010PropOp43
 70
     1
102
RTVSPost2010Prop44ColorIndex
 90
        5
102
RTVSPost2010Prop44ColorRGB
 90
      255
102
RTVSPost2010PropOp44
 70
     1
102
RTVSPost2010Prop45
280
     0
102
RTVSPost2010PropOp45
 70
     1
102
RTVSPost2010Prop46
 90
       50
102
RTVSPost2010PropOp46
 70
     1
102
RTVSPost2010Prop47
 90
       50
102
RTVSPost2010PropOp47
 70
     1
102
RTVSPost2010Prop48
 90
       50
102
RTVSPost2010PropOp48
 70
     1
102
RTVSPost2010Prop49
280
     0
102
RTVSPost2010PropOp49
 70
     1
102
RTVSPost2010Prop50
 90
       50
102
RTVSPost2010PropOp50
 70
     1
102
RTVSPost2010Prop51ColorIndex
 90
      256
102
RTVSPost2010Prop51ColorRGB
 90
-16777216
102
RTVSPost2010PropOp51
 70
     0
102
RTVSPost2010Prop52
140
1.0
102
RTVSPost2010PropOp52
 70
     0
102
RTVSPost2010Prop53
 90
        2
102
RTVSPost2010PropOp53
 70
     1
102
RTVSPost2010Prop54
  1
strokes_ogs.tif
102
RTVSPost2010PropOp54
 70
     1
102
RTVSPost2010Prop55
280
     0
102
RTVSPost2010PropOp55
 70
     1
102
RTVSPost2010Prop56
140
1.0
102
RTVSPost2010PropOp56
 70
     1
102
RTVSPost2010Prop57
140
1.0
102
RTVSPost2010PropOp57
 70
     1
  0
XRECORD
  5
527
102
{ACAD_REACTORS
330
526
102
}
330
526
100
AcDbXrecord
280
     1
102
RTVSPropertyOp0
 70
     1
102
RTVSPropertyOp1
 70
     1
102
RTVSPropertyOp2
 70
     1
102
RTVSPropertyOp3
 70
     1
102
RTVSPropertyOp4
 70
     1
102
RTVSPropertyOp5
 70
     1
102
RTVSPropertyOp6
 70
     1
102
RTVSPropertyOp7
 70
     1
102
RTVSPropertyOp8
 70
     1
102
RTVSPropertyOp9
 70
     1
102
RTVSPropertyOp10
 70
     1
102
RTVSPropertyOp11
 70
     1
102
RTVSPropertyOp12
 70
     1
102
RTVSPropertyOp13
 70
     1
102
RTVSPropertyOp14
 70
     1
102
RTVSPropertyOp15
 70
     1
102
RTVSPropertyOp16
 70
     1
102
RTVSPropertyOp17
 70
     1
102
RTVSPropertyOp18
 70
     1
102
RTVSPropertyOp19
 70
     1
102
RTVSPropertyOp20
 70
     1
102
RTVSPropertyOp21
 70
     1
102
RTVSPropertyOp22
 70
     1
102
RTVSPropertyOp23
 70
     1
102
RTVSPropertyOp24
 70
     1
102
RTVSPropertyOp25
 70
     1
102
RTVSPropertyOp26
 70
     1
102
RTVSPropertyOp27
 70
     1
102
RTVSPropertyOp28
 70
     1
102
RTVSPropertyOp29
 70
     1
102
RTVSPropertyOp30
 70
     1
102
RTVSPropertyOp31
 70
     1
102
RTVSPropertyOp32
 70
     1
102
RTVSPropertyOp33
 70
     1
102
RTVSPropertyOp34
 70
     1
102
RTVSPropertyOp35
 70
     1
102
RTVSPropertyOp36
 70
     1
102
RTVSPropertyOp37
 70
     1
102
RTVSPropertyOp38
 70
     1
102
RTVSPropertyOp39
 70
     1
102
RTVSPropertyOp40
 70
     1
102
RTVSPropertyOp41
 70
     1
102
RTVSPropertyOp42
 70
     1
102
RTVSPropertyOp43
 70
     1
102
RTVSPropertyOp44
 70
     1
102
RTVSPropertyOp45
 70
     1
102
RTVSPropertyOp46
 70
     1
102
RTVSPropertyOp47
 70
     1
102
RTVSPropertyOp48
 70
     1
102
RTVSPropertyOp49
 70
     1
102
RTVSPropertyOp50
 70
     1
102
RTVSPropertyOp51
 70
     0
102
RTVSPropertyOp52
 70
     0
102
RTVSPropertyOp53
 70
     1
102
RTVSPropertyOp54
 70
     1
102
RTVSPropertyOp55
 70
     1
102
RTVSPropertyOp56
 70
     1
102
RTVSPropertyOp57
 70
     1
102
RTVSPost2010Prop28
280
     0
102
RTVSPost2010PropOp28
 70
     1
102
RTVSPost2010Prop29
280
     1
102
RTVSPost2010PropOp29
 70
     1
102
RTVSPost2010Prop30
280
     1
102
RTVSPost2010PropOp30
 70
     1
102
RTVSPost2010Prop31
280
     0
102
RTVSPost2010PropOp31
 70
     1
102
RTVSPost2010Prop32
280
     0
102
RTVSPost2010PropOp32
 70
     1
102
RTVSPost2010Prop33
280
     0
102
RTVSPost2010PropOp33
 70
     1
102
RTVSPost2010Prop34
280
     0
102
RTVSPost2010PropOp34
 70
     1
102
RTVSPost2010Prop35
280
     0
102
RTVSPost2010PropOp35
 70
     1
102
RTVSPost2010Prop36
280
     0
102
RTVSPost2010PropOp36
 70
     1
102
RTVSPost2010Prop37
 90
       50
102
RTVSPost2010PropOp37
 70
     1
102
RTVSPost2010Prop38
140
0.0
102
RTVSPost2010PropOp38
 70
     1
102
RTVSPost2010Prop39
140
1.0
102
RTVSPost2010PropOp39
 70
     1
102
RTVSPost2010Prop40
 90
        0
102
RTVSPost2010PropOp40
 70
     1
102
RTVSPost2010Prop41ColorIndex
 90
       18
102
RTVSPost2010Prop41ColorRGB
 90
        0
102
RTVSPost2010PropOp41
 70
     1
102
RTVSPost2010Prop42
 90
       50
102
RTVSPost2010PropOp42
 70
     1
102
RTVSPost2010Prop43
 90
        3
102
RTVSPost2010PropOp43
 70
     1
102
RTVSPost2010Prop44ColorIndex
 90
        5
102
RTVSPost2010Prop44ColorRGB
 90
      255
102
RTVSPost2010PropOp44
 70
     1
102
RTVSPost2010Prop45
280
     0
102
RTVSPost2010PropOp45
 70
     1
102
RTVSPost2010Prop46
 90
       50
102
RTVSPost2010PropOp46
 70
     1
102
RTVSPost2010Prop47
 90
       50
102
RTVSPost2010PropOp47
 70
     1
102
RTVSPost2010Prop48
 90
       50
102
RTVSPost2010PropOp48
 70
     1
102
RTVSPost2010Prop49
280
     0
102
RTVSPost2010PropOp49
 70
     1
102
RTVSPost2010Prop50
 90
       50
102
RTVSPost2010PropOp50
 70
     1
102
RTVSPost2010Prop51ColorIndex
 90
      256
102
RTVSPost2010Prop51ColorRGB
 90
-16777216
102
RTVSPost2010PropOp51
 70
     0
102
RTVSPost2010Prop52
140
1.0
102
RTVSPost2010PropOp52
 70
     0
102
RTVSPost2010Prop53
 90
        2
102
RTVSPost2010PropOp53
 70
     1
102
RTVSPost2010Prop54
  1
strokes_ogs.tif
102
RTVSPost2010PropOp54
 70
     1
102
RTVSPost2010Prop55
280
     0
102
RTVSPost2010PropOp55
 70
     1
102
RTVSPost2010Prop56
140
1.0
102
RTVSPost2010PropOp56
 70
     1
102
RTVSPost2010Prop57
140
1.0
102
RTVSPost2010PropOp57
 70
     1
  0
XRECORD
  5
52D
102
{ACAD_REACTORS
330
52C
102
}
330
52C
100
AcDbXrecord
280
     1
102
RTVSPropertyOp0
 70
     1
102
RTVSPropertyOp1
 70
     1
102
RTVSPropertyOp2
 70
     1
102
RTVSPropertyOp3
 70
     1
102
RTVSPropertyOp4
 70
     1
102
RTVSPropertyOp5
 70
     1
102
RTVSPropertyOp6
 70
     1
102
RTVSPropertyOp7
 70
     1
102
RTVSPropertyOp8
 70
     1
102
RTVSPropertyOp9
 70
     1
102
RTVSPropertyOp10
 70
     1
102
RTVSPropertyOp11
 70
     1
102
RTVSPropertyOp12
 70
     1
102
RTVSPropertyOp13
 70
     1
102
RTVSPropertyOp14
 70
     1
102
RTVSPropertyOp15
 70
     1
102
RTVSPropertyOp16
 70
     1
102
RTVSPropertyOp17
 70
     1
102
RTVSPropertyOp18
 70
     1
102
RTVSPropertyOp19
 70
     1
102
RTVSPropertyOp20
 70
     1
102
RTVSPropertyOp21
 70
     1
102
RTVSPropertyOp22
 70
     1
102
RTVSPropertyOp23
 70
     1
102
RTVSPropertyOp24
 70
     1
102
RTVSPropertyOp25
 70
     1
102
RTVSPropertyOp26
 70
     1
102
RTVSPropertyOp27
 70
     1
102
RTVSPropertyOp28
 70
     1
102
RTVSPropertyOp29
 70
     1
102
RTVSPropertyOp30
 70
     1
102
RTVSPropertyOp31
 70
     1
102
RTVSPropertyOp32
 70
     1
102
RTVSPropertyOp33
 70
     1
102
RTVSPropertyOp34
 70
     1
102
RTVSPropertyOp35
 70
     1
102
RTVSPropertyOp36
 70
     1
102
RTVSPropertyOp37
 70
     1
102
RTVSPropertyOp38
 70
     1
102
RTVSPropertyOp39
 70
     1
102
RTVSPropertyOp40
 70
     1
102
RTVSPropertyOp41
 70
     1
102
RTVSPropertyOp42
 70
     1
102
RTVSPropertyOp43
 70
     1
102
RTVSPropertyOp44
 70
     1
102
RTVSPropertyOp45
 70
     1
102
RTVSPropertyOp46
 70
     1
102
RTVSPropertyOp47
 70
     1
102
RTVSPropertyOp48
 70
     1
102
RTVSPropertyOp49
 70
     1
102
RTVSPropertyOp50
 70
     1
102
RTVSPropertyOp51
 70
     0
102
RTVSPropertyOp52
 70
     0
102
RTVSPropertyOp53
 70
     1
102
RTVSPropertyOp54
 70
     1
102
RTVSPropertyOp55
 70
     1
102
RTVSPropertyOp56
 70
     1
102
RTVSPropertyOp57
 70
     1
102
RTVSPost2010Prop28
280
     0
102
RTVSPost2010PropOp28
 70
     1
102
RTVSPost2010Prop29
280
     1
102
RTVSPost2010PropOp29
 70
     1
102
RTVSPost2010Prop30
280
     1
102
RTVSPost2010PropOp30
 70
     1
102
RTVSPost2010Prop31
280
     0
102
RTVSPost2010PropOp31
 70
     1
102
RTVSPost2010Prop32
280
     0
102
RTVSPost2010PropOp32
 70
     1
102
RTVSPost2010Prop33
280
     0
102
RTVSPost2010PropOp33
 70
     1
102
RTVSPost2010Prop34
280
     0
102
RTVSPost2010PropOp34
 70
     1
102
RTVSPost2010Prop35
280
     0
102
RTVSPost2010PropOp35
 70
     1
102
RTVSPost2010Prop36
280
     0
102
RTVSPost2010PropOp36
 70
     1
102
RTVSPost2010Prop37
 90
       50
102
RTVSPost2010PropOp37
 70
     1
102
RTVSPost2010Prop38
140
0.0
102
RTVSPost2010PropOp38
 70
     1
102
RTVSPost2010Prop39
140
1.0
102
RTVSPost2010PropOp39
 70
     1
102
RTVSPost2010Prop40
 90
        0
102
RTVSPost2010PropOp40
 70
     1
102
RTVSPost2010Prop41ColorIndex
 90
       18
102
RTVSPost2010Prop41ColorRGB
 90
        0
102
RTVSPost2010PropOp41
 70
     1
102
RTVSPost2010Prop42
 90
       50
102
RTVSPost2010PropOp42
 70
     1
102
RTVSPost2010Prop43
 90
        3
102
RTVSPost2010PropOp43
 70
     1
102
RTVSPost2010Prop44ColorIndex
 90
        5
102
RTVSPost2010Prop44ColorRGB
 90
      255
102
RTVSPost2010PropOp44
 70
     1
102
RTVSPost2010Prop45
280
     0
102
RTVSPost2010PropOp45
 70
     1
102
RTVSPost2010Prop46
 90
       50
102
RTVSPost2010PropOp46
 70
     1
102
RTVSPost2010Prop47
 90
       50
102
RTVSPost2010PropOp47
 70
     1
102
RTVSPost2010Prop48
 90
       50
102
RTVSPost2010PropOp48
 70
     1
102
RTVSPost2010Prop49
280
     0
102
RTVSPost2010PropOp49
 70
     1
102
RTVSPost2010Prop50
 90
       50
102
RTVSPost2010PropOp50
 70
     1
102
RTVSPost2010Prop51ColorIndex
 90
      256
102
RTVSPost2010Prop51ColorRGB
 90
-16777216
102
RTVSPost2010PropOp51
 70
     0
102
RTVSPost2010Prop52
140
1.0
102
RTVSPost2010PropOp52
 70
     0
102
RTVSPost2010Prop53
 90
        2
102
RTVSPost2010PropOp53
 70
     1
102
RTVSPost2010Prop54
  1
strokes_ogs.tif
102
RTVSPost2010PropOp54
 70
     1
102
RTVSPost2010Prop55
280
     0
102
RTVSPost2010PropOp55
 70
     1
102
RTVSPost2010Prop56
140
1.0
102
RTVSPost2010PropOp56
 70
     1
102
RTVSPost2010Prop57
140
1.0
102
RTVSPost2010PropOp57
 70
     1
  0
XRECORD
  5
541
102
{ACAD_REACTORS
330
540
102
}
330
540
100
AcDbXrecord
280
     1
102
RTVSPropertyOp0
 70
     0
102
RTVSPropertyOp1
 70
     0
102
RTVSPropertyOp2
 70
     0
102
RTVSPropertyOp3
 70
     0
102
RTVSPropertyOp4
 70
     0
102
RTVSPropertyOp5
 70
     0
102
RTVSPropertyOp6
 70
     0
102
RTVSPropertyOp7
 70
     0
102
RTVSPropertyOp8
 70
     0
102
RTVSPropertyOp9
 70
     0
102
RTVSPropertyOp10
 70
     0
102
RTVSPropertyOp11
 70
     0
102
RTVSPropertyOp12
 70
     0
102
RTVSPropertyOp13
 70
     0
102
RTVSPropertyOp14
 70
     0
102
RTVSPropertyOp15
 70
     0
102
RTVSPropertyOp16
 70
     0
102
RTVSPropertyOp17
 70
     0
102
RTVSPropertyOp18
 70
     0
102
RTVSPropertyOp19
 70
     0
102
RTVSPropertyOp20
 70
     0
102
RTVSPropertyOp21
 70
     0
102
RTVSPropertyOp22
 70
     0
102
RTVSPropertyOp23
 70
     0
102
RTVSPropertyOp24
 70
     0
102
RTVSPropertyOp25
 70
     0
102
RTVSPropertyOp26
 70
     0
102
RTVSPropertyOp27
 70
     0
102
RTVSPropertyOp28
 70
     1
102
RTVSPropertyOp29
 70
     1
102
RTVSPropertyOp30
 70
     1
102
RTVSPropertyOp31
 70
     1
102
RTVSPropertyOp32
 70
     1
102
RTVSPropertyOp33
 70
     1
102
RTVSPropertyOp34
 70
     1
102
RTVSPropertyOp35
 70
     1
102
RTVSPropertyOp36
 70
     1
102
RTVSPropertyOp37
 70
     1
102
RTVSPropertyOp38
 70
     1
102
RTVSPropertyOp39
 70
     1
102
RTVSPropertyOp40
 70
     1
102
RTVSPropertyOp41
 70
     1
102
RTVSPropertyOp42
 70
     1
102
RTVSPropertyOp43
 70
     1
102
RTVSPropertyOp44
 70
     1
102
RTVSPropertyOp45
 70
     1
102
RTVSPropertyOp46
 70
     1
102
RTVSPropertyOp47
 70
     1
102
RTVSPropertyOp48
 70
     1
102
RTVSPropertyOp49
 70
     1
102
RTVSPropertyOp50
 70
     1
102
RTVSPropertyOp51
 70
     0
102
RTVSPropertyOp52
 70
     0
102
RTVSPropertyOp53
 70
     1
102
RTVSPropertyOp54
 70
     1
102
RTVSPropertyOp55
 70
     1
102
RTVSPropertyOp56
 70
     1
102
RTVSPropertyOp57
 70
     1
102
RTVSPost2010Prop28
280
     0
102
RTVSPost2010PropOp28
 70
     1
102
RTVSPost2010Prop29
280
     1
102
RTVSPost2010PropOp29
 70
     1
102
RTVSPost2010Prop30
280
     1
102
RTVSPost2010PropOp30
 70
     1
102
RTVSPost2010Prop31
280
     0
102
RTVSPost2010PropOp31
 70
     1
102
RTVSPost2010Prop32
280
     0
102
RTVSPost2010PropOp32
 70
     1
102
RTVSPost2010Prop33
280
     0
102
RTVSPost2010PropOp33
 70
     1
102
RTVSPost2010Prop34
280
     0
102
RTVSPost2010PropOp34
 70
     1
102
RTVSPost2010Prop35
280
     0
102
RTVSPost2010PropOp35
 70
     1
102
RTVSPost2010Prop36
280
     0
102
RTVSPost2010PropOp36
 70
     1
102
RTVSPost2010Prop37
 90
       50
102
RTVSPost2010PropOp37
 70
     1
102
RTVSPost2010Prop38
140
0.0
102
RTVSPost2010PropOp38
 70
     1
102
RTVSPost2010Prop39
140
1.0
102
RTVSPost2010PropOp39
 70
     1
102
RTVSPost2010Prop40
 90
        0
102
RTVSPost2010PropOp40
 70
     1
102
RTVSPost2010Prop41ColorIndex
 90
       18
102
RTVSPost2010Prop41ColorRGB
 90
        0
102
RTVSPost2010PropOp41
 70
     1
102
RTVSPost2010Prop42
 90
       50
102
RTVSPost2010PropOp42
 70
     1
102
RTVSPost2010Prop43
 90
        3
102
RTVSPost2010PropOp43
 70
     1
102
RTVSPost2010Prop44ColorIndex
 90
        5
102
RTVSPost2010Prop44ColorRGB
 90
      255
102
RTVSPost2010PropOp44
 70
     1
102
RTVSPost2010Prop45
280
     0
102
RTVSPost2010PropOp45
 70
     1
102
RTVSPost2010Prop46
 90
       50
102
RTVSPost2010PropOp46
 70
     1
102
RTVSPost2010Prop47
 90
       50
102
RTVSPost2010PropOp47
 70
     1
102
RTVSPost2010Prop48
 90
       50
102
RTVSPost2010PropOp48
 70
     1
102
RTVSPost2010Prop49
280
     0
102
RTVSPost2010PropOp49
 70
     1
102
RTVSPost2010Prop50
 90
       50
102
RTVSPost2010PropOp50
 70
     1
102
RTVSPost2010Prop51ColorIndex
 90
      256
102
RTVSPost2010Prop51ColorRGB
 90
-16777216
102
RTVSPost2010PropOp51
 70
     0
102
RTVSPost2010Prop52
140
1.0
102
RTVSPost2010PropOp52
 70
     0
102
RTVSPost2010Prop53
 90
        2
102
RTVSPost2010PropOp53
 70
     1
102
RTVSPost2010Prop54
  1
strokes_ogs.tif
102
RTVSPost2010PropOp54
 70
     1
102
RTVSPost2010Prop55
280
     0
102
RTVSPost2010PropOp55
 70
     1
102
RTVSPost2010Prop56
140
1.0
102
RTVSPost2010PropOp56
 70
     1
102
RTVSPost2010Prop57
140
1.0
102
RTVSPost2010PropOp57
 70
     1
  0
XRECORD
  5
53B
102
{ACAD_REACTORS
330
53A
102
}
330
53A
100
AcDbXrecord
280
     1
102
RTVSPropertyOp0
 70
     1
102
RTVSPropertyOp1
 70
     1
102
RTVSPropertyOp2
 70
     1
102
RTVSPropertyOp3
 70
     1
102
RTVSPropertyOp4
 70
     1
102
RTVSPropertyOp5
 70
     1
102
RTVSPropertyOp6
 70
     1
102
RTVSPropertyOp7
 70
     1
102
RTVSPropertyOp8
 70
     1
102
RTVSPropertyOp9
 70
     1
102
RTVSPropertyOp10
 70
     1
102
RTVSPropertyOp11
 70
     1
102
RTVSPropertyOp12
 70
     1
102
RTVSPropertyOp13
 70
     1
102
RTVSPropertyOp14
 70
     1
102
RTVSPropertyOp15
 70
     1
102
RTVSPropertyOp16
 70
     1
102
RTVSPropertyOp17
 70
     1
102
RTVSPropertyOp18
 70
     1
102
RTVSPropertyOp19
 70
     1
102
RTVSPropertyOp20
 70
     1
102
RTVSPropertyOp21
 70
     1
102
RTVSPropertyOp22
 70
     1
102
RTVSPropertyOp23
 70
     1
102
RTVSPropertyOp24
 70
     1
102
RTVSPropertyOp25
 70
     1
102
RTVSPropertyOp26
 70
     1
102
RTVSPropertyOp27
 70
     1
102
RTVSPropertyOp28
 70
     1
102
RTVSPropertyOp29
 70
     1
102
RTVSPropertyOp30
 70
     1
102
RTVSPropertyOp31
 70
     1
102
RTVSPropertyOp32
 70
     1
102
RTVSPropertyOp33
 70
     1
102
RTVSPropertyOp34
 70
     1
102
RTVSPropertyOp35
 70
     1
102
RTVSPropertyOp36
 70
     1
102
RTVSPropertyOp37
 70
     1
102
RTVSPropertyOp38
 70
     1
102
RTVSPropertyOp39
 70
     1
102
RTVSPropertyOp40
 70
     1
102
RTVSPropertyOp41
 70
     1
102
RTVSPropertyOp42
 70
     1
102
RTVSPropertyOp43
 70
     1
102
RTVSPropertyOp44
 70
     1
102
RTVSPropertyOp45
 70
     1
102
RTVSPropertyOp46
 70
     1
102
RTVSPropertyOp47
 70
     1
102
RTVSPropertyOp48
 70
     1
102
RTVSPropertyOp49
 70
     1
102
RTVSPropertyOp50
 70
     1
102
RTVSPropertyOp51
 70
     0
102
RTVSPropertyOp52
 70
     0
102
RTVSPropertyOp53
 70
     1
102
RTVSPropertyOp54
 70
     1
102
RTVSPropertyOp55
 70
     1
102
RTVSPropertyOp56
 70
     1
102
RTVSPropertyOp57
 70
     1
102
RTVSPost2010Prop28
280
     0
102
RTVSPost2010PropOp28
 70
     1
102
RTVSPost2010Prop29
280
     1
102
RTVSPost2010PropOp29
 70
     1
102
RTVSPost2010Prop30
280
     1
102
RTVSPost2010PropOp30
 70
     1
102
RTVSPost2010Prop31
280
     0
102
RTVSPost2010PropOp31
 70
     1
102
RTVSPost2010Prop32
280
     0
102
RTVSPost2010PropOp32
 70
     1
102
RTVSPost2010Prop33
280
     0
102
RTVSPost2010PropOp33
 70
     1
102
RTVSPost2010Prop34
280
     0
102
RTVSPost2010PropOp34
 70
     1
102
RTVSPost2010Prop35
280
     0
102
RTVSPost2010PropOp35
 70
     1
102
RTVSPost2010Prop36
280
     0
102
RTVSPost2010PropOp36
 70
     1
102
RTVSPost2010Prop37
 90
       50
102
RTVSPost2010PropOp37
 70
     1
102
RTVSPost2010Prop38
140
0.0
102
RTVSPost2010PropOp38
 70
     1
102
RTVSPost2010Prop39
140
1.0
102
RTVSPost2010PropOp39
 70
     1
102
RTVSPost2010Prop40
 90
        0
102
RTVSPost2010PropOp40
 70
     1
102
RTVSPost2010Prop41ColorIndex
 90
       18
102
RTVSPost2010Prop41ColorRGB
 90
        0
102
RTVSPost2010PropOp41
 70
     1
102
RTVSPost2010Prop42
 90
       50
102
RTVSPost2010PropOp42
 70
     1
102
RTVSPost2010Prop43
 90
        3
102
RTVSPost2010PropOp43
 70
     1
102
RTVSPost2010Prop44ColorIndex
 90
        5
102
RTVSPost2010Prop44ColorRGB
 90
      255
102
RTVSPost2010PropOp44
 70
     1
102
RTVSPost2010Prop45
280
     0
102
RTVSPost2010PropOp45
 70
     1
102
RTVSPost2010Prop46
 90
       50
102
RTVSPost2010PropOp46
 70
     1
102
RTVSPost2010Prop47
 90
       50
102
RTVSPost2010PropOp47
 70
     1
102
RTVSPost2010Prop48
 90
       50
102
RTVSPost2010PropOp48
 70
     1
102
RTVSPost2010Prop49
280
     0
102
RTVSPost2010PropOp49
 70
     1
102
RTVSPost2010Prop50
 90
       50
102
RTVSPost2010PropOp50
 70
     1
102
RTVSPost2010Prop51ColorIndex
 90
      256
102
RTVSPost2010Prop51ColorRGB
 90
-16777216
102
RTVSPost2010PropOp51
 70
     0
102
RTVSPost2010Prop52
140
1.0
102
RTVSPost2010PropOp52
 70
     0
102
RTVSPost2010Prop53
 90
        2
102
RTVSPost2010PropOp53
 70
     1
102
RTVSPost2010Prop54
  1
strokes_ogs.tif
102
RTVSPost2010PropOp54
 70
     1
102
RTVSPost2010Prop55
280
     0
102
RTVSPost2010PropOp55
 70
     1
102
RTVSPost2010Prop56
140
1.0
102
RTVSPost2010PropOp56
 70
     1
102
RTVSPost2010Prop57
140
1.0
102
RTVSPost2010PropOp57
 70
     1
  0
XRECORD
  5
543
102
{ACAD_REACTORS
330
542
102
}
330
542
100
AcDbXrecord
280
     1
102
RTVSPropertyOp0
 70
     0
102
RTVSPropertyOp1
 70
     0
102
RTVSPropertyOp2
 70
     0
102
RTVSPropertyOp3
 70
     0
102
RTVSPropertyOp4
 70
     0
102
RTVSPropertyOp5
 70
     0
102
RTVSPropertyOp6
 70
     0
102
RTVSPropertyOp7
 70
     0
102
RTVSPropertyOp8
 70
     0
102
RTVSPropertyOp9
 70
     0
102
RTVSPropertyOp10
 70
     0
102
RTVSPropertyOp11
 70
     0
102
RTVSPropertyOp12
 70
     0
102
RTVSPropertyOp13
 70
     0
102
RTVSPropertyOp14
 70
     0
102
RTVSPropertyOp15
 70
     0
102
RTVSPropertyOp16
 70
     0
102
RTVSPropertyOp17
 70
     0
102
RTVSPropertyOp18
 70
     0
102
RTVSPropertyOp19
 70
     0
102
RTVSPropertyOp20
 70
     0
102
RTVSPropertyOp21
 70
     0
102
RTVSPropertyOp22
 70
     0
102
RTVSPropertyOp23
 70
     0
102
RTVSPropertyOp24
 70
     0
102
RTVSPropertyOp25
 70
     0
102
RTVSPropertyOp26
 70
     0
102
RTVSPropertyOp27
 70
     0
102
RTVSPropertyOp28
 70
     1
102
RTVSPropertyOp29
 70
     1
102
RTVSPropertyOp30
 70
     1
102
RTVSPropertyOp31
 70
     1
102
RTVSPropertyOp32
 70
     1
102
RTVSPropertyOp33
 70
     1
102
RTVSPropertyOp34
 70
     1
102
RTVSPropertyOp35
 70
     1
102
RTVSPropertyOp36
 70
     1
102
RTVSPropertyOp37
 70
     1
102
RTVSPropertyOp38
 70
     1
102
RTVSPropertyOp39
 70
     1
102
RTVSPropertyOp40
 70
     1
102
RTVSPropertyOp41
 70
     1
102
RTVSPropertyOp42
 70
     1
102
RTVSPropertyOp43
 70
     1
102
RTVSPropertyOp44
 70
     1
102
RTVSPropertyOp45
 70
     1
102
RTVSPropertyOp46
 70
     1
102
RTVSPropertyOp47
 70
     1
102
RTVSPropertyOp48
 70
     1
102
RTVSPropertyOp49
 70
     1
102
RTVSPropertyOp50
 70
     1
102
RTVSPropertyOp51
 70
     0
102
RTVSPropertyOp52
 70
     0
102
RTVSPropertyOp53
 70
     1
102
RTVSPropertyOp54
 70
     1
102
RTVSPropertyOp55
 70
     1
102
RTVSPropertyOp56
 70
     1
102
RTVSPropertyOp57
 70
     1
102
RTVSPost2010Prop28
280
     0
102
RTVSPost2010PropOp28
 70
     1
102
RTVSPost2010Prop29
280
     1
102
RTVSPost2010PropOp29
 70
     1
102
RTVSPost2010Prop30
280
     1
102
RTVSPost2010PropOp30
 70
     1
102
RTVSPost2010Prop31
280
     0
102
RTVSPost2010PropOp31
 70
     1
102
RTVSPost2010Prop32
280
     0
102
RTVSPost2010PropOp32
 70
     1
102
RTVSPost2010Prop33
280
     0
102
RTVSPost2010PropOp33
 70
     1
102
RTVSPost2010Prop34
280
     0
102
RTVSPost2010PropOp34
 70
     1
102
RTVSPost2010Prop35
280
     0
102
RTVSPost2010PropOp35
 70
     1
102
RTVSPost2010Prop36
280
     0
102
RTVSPost2010PropOp36
 70
     1
102
RTVSPost2010Prop37
 90
       50
102
RTVSPost2010PropOp37
 70
     1
102
RTVSPost2010Prop38
140
0.0
102
RTVSPost2010PropOp38
 70
     1
102
RTVSPost2010Prop39
140
1.0
102
RTVSPost2010PropOp39
 70
     1
102
RTVSPost2010Prop40
 90
        0
102
RTVSPost2010PropOp40
 70
     1
102
RTVSPost2010Prop41ColorIndex
 90
       18
102
RTVSPost2010Prop41ColorRGB
 90
        0
102
RTVSPost2010PropOp41
 70
     1
102
RTVSPost2010Prop42
 90
       50
102
RTVSPost2010PropOp42
 70
     1
102
RTVSPost2010Prop43
 90
        3
102
RTVSPost2010PropOp43
 70
     1
102
RTVSPost2010Prop44ColorIndex
 90
        5
102
RTVSPost2010Prop44ColorRGB
 90
      255
102
RTVSPost2010PropOp44
 70
     1
102
RTVSPost2010Prop45
280
     0
102
RTVSPost2010PropOp45
 70
     1
102
RTVSPost2010Prop46
 90
       50
102
RTVSPost2010PropOp46
 70
     1
102
RTVSPost2010Prop47
 90
       50
102
RTVSPost2010PropOp47
 70
     1
102
RTVSPost2010Prop48
 90
       50
102
RTVSPost2010PropOp48
 70
     1
102
RTVSPost2010Prop49
280
     0
102
RTVSPost2010PropOp49
 70
     1
102
RTVSPost2010Prop50
 90
       50
102
RTVSPost2010PropOp50
 70
     1
102
RTVSPost2010Prop51ColorIndex
 90
      256
102
RTVSPost2010Prop51ColorRGB
 90
-16777216
102
RTVSPost2010PropOp51
 70
     0
102
RTVSPost2010Prop52
140
1.0
102
RTVSPost2010PropOp52
 70
     0
102
RTVSPost2010Prop53
 90
        2
102
RTVSPost2010PropOp53
 70
     1
102
RTVSPost2010Prop54
  1
strokes_ogs.tif
102
RTVSPost2010PropOp54
 70
     1
102
RTVSPost2010Prop55
280
     0
102
RTVSPost2010PropOp55
 70
     1
102
RTVSPost2010Prop56
140
1.0
102
RTVSPost2010PropOp56
 70
     1
102
RTVSPost2010Prop57
140
1.0
102
RTVSPost2010PropOp57
 70
     1
  0
XRECORD
  5
531
102
{ACAD_REACTORS
330
530
102
}
330
530
100
AcDbXrecord
280
     1
102
RTVSPropertyOp0
 70
     1
102
RTVSPropertyOp1
 70
     1
102
RTVSPropertyOp2
 70
     1
102
RTVSPropertyOp3
 70
     1
102
RTVSPropertyOp4
 70
     1
102
RTVSPropertyOp5
 70
     1
102
RTVSPropertyOp6
 70
     1
102
RTVSPropertyOp7
 70
     1
102
RTVSPropertyOp8
 70
     1
102
RTVSPropertyOp9
 70
     1
102
RTVSPropertyOp10
 70
     1
102
RTVSPropertyOp11
 70
     1
102
RTVSPropertyOp12
 70
     1
102
RTVSPropertyOp13
 70
     1
102
RTVSPropertyOp14
 70
     1
102
RTVSPropertyOp15
 70
     1
102
RTVSPropertyOp16
 70
     1
102
RTVSPropertyOp17
 70
     1
102
RTVSPropertyOp18
 70
     1
102
RTVSPropertyOp19
 70
     1
102
RTVSPropertyOp20
 70
     1
102
RTVSPropertyOp21
 70
     1
102
RTVSPropertyOp22
 70
     1
102
RTVSPropertyOp23
 70
     1
102
RTVSPropertyOp24
 70
     1
102
RTVSPropertyOp25
 70
     1
102
RTVSPropertyOp26
 70
     1
102
RTVSPropertyOp27
 70
     1
102
RTVSPropertyOp28
 70
     1
102
RTVSPropertyOp29
 70
     1
102
RTVSPropertyOp30
 70
     1
102
RTVSPropertyOp31
 70
     1
102
RTVSPropertyOp32
 70
     1
102
RTVSPropertyOp33
 70
     1
102
RTVSPropertyOp34
 70
     1
102
RTVSPropertyOp35
 70
     1
102
RTVSPropertyOp36
 70
     1
102
RTVSPropertyOp37
 70
     1
102
RTVSPropertyOp38
 70
     1
102
RTVSPropertyOp39
 70
     1
102
RTVSPropertyOp40
 70
     1
102
RTVSPropertyOp41
 70
     1
102
RTVSPropertyOp42
 70
     1
102
RTVSPropertyOp43
 70
     1
102
RTVSPropertyOp44
 70
     1
102
RTVSPropertyOp45
 70
     1
102
RTVSPropertyOp46
 70
     1
102
RTVSPropertyOp47
 70
     1
102
RTVSPropertyOp48
 70
     1
102
RTVSPropertyOp49
 70
     1
102
RTVSPropertyOp50
 70
     1
102
RTVSPropertyOp51
 70
     0
102
RTVSPropertyOp52
 70
     0
102
RTVSPropertyOp53
 70
     1
102
RTVSPropertyOp54
 70
     1
102
RTVSPropertyOp55
 70
     1
102
RTVSPropertyOp56
 70
     1
102
RTVSPropertyOp57
 70
     1
102
RTVSPost2010Prop28
280
     0
102
RTVSPost2010PropOp28
 70
     1
102
RTVSPost2010Prop29
280
     1
102
RTVSPost2010PropOp29
 70
     1
102
RTVSPost2010Prop30
280
     1
102
RTVSPost2010PropOp30
 70
     1
102
RTVSPost2010Prop31
280
     0
102
RTVSPost2010PropOp31
 70
     1
102
RTVSPost2010Prop32
280
     0
102
RTVSPost2010PropOp32
 70
     1
102
RTVSPost2010Prop33
280
     0
102
RTVSPost2010PropOp33
 70
     1
102
RTVSPost2010Prop34
280
     0
102
RTVSPost2010PropOp34
 70
     1
102
RTVSPost2010Prop35
280
     0
102
RTVSPost2010PropOp35
 70
     1
102
RTVSPost2010Prop36
280
     0
102
RTVSPost2010PropOp36
 70
     1
102
RTVSPost2010Prop37
 90
       50
102
RTVSPost2010PropOp37
 70
     1
102
RTVSPost2010Prop38
140
0.0
102
RTVSPost2010PropOp38
 70
     1
102
RTVSPost2010Prop39
140
1.0
102
RTVSPost2010PropOp39
 70
     1
102
RTVSPost2010Prop40
 90
        0
102
RTVSPost2010PropOp40
 70
     1
102
RTVSPost2010Prop41ColorIndex
 90
       18
102
RTVSPost2010Prop41ColorRGB
 90
        0
102
RTVSPost2010PropOp41
 70
     1
102
RTVSPost2010Prop42
 90
       50
102
RTVSPost2010PropOp42
 70
     1
102
RTVSPost2010Prop43
 90
        3
102
RTVSPost2010PropOp43
 70
     1
102
RTVSPost2010Prop44ColorIndex
 90
        5
102
RTVSPost2010Prop44ColorRGB
 90
      255
102
RTVSPost2010PropOp44
 70
     1
102
RTVSPost2010Prop45
280
     0
102
RTVSPost2010PropOp45
 70
     1
102
RTVSPost2010Prop46
 90
       50
102
RTVSPost2010PropOp46
 70
     1
102
RTVSPost2010Prop47
 90
       50
102
RTVSPost2010PropOp47
 70
     1
102
RTVSPost2010Prop48
 90
       50
102
RTVSPost2010PropOp48
 70
     1
102
RTVSPost2010Prop49
280
     0
102
RTVSPost2010PropOp49
 70
     1
102
RTVSPost2010Prop50
 90
       50
102
RTVSPost2010PropOp50
 70
     1
102
RTVSPost2010Prop51ColorIndex
 90
      256
102
RTVSPost2010Prop51ColorRGB
 90
-16777216
102
RTVSPost2010PropOp51
 70
     0
102
RTVSPost2010Prop52
140
1.0
102
RTVSPost2010PropOp52
 70
     0
102
RTVSPost2010Prop53
 90
        2
102
RTVSPost2010PropOp53
 70
     1
102
RTVSPost2010Prop54
  1
strokes_ogs.tif
102
RTVSPost2010PropOp54
 70
     1
102
RTVSPost2010Prop55
280
     0
102
RTVSPost2010PropOp55
 70
     1
102
RTVSPost2010Prop56
140
1.0
102
RTVSPost2010PropOp56
 70
     1
102
RTVSPost2010Prop57
140
1.0
102
RTVSPost2010PropOp57
 70
     1
  0
XRECORD
  5
54F
102
{ACAD_REACTORS
330
54E
102
}
330
54E
100
AcDbXrecord
280
     1
102
RTVSPropertyOp0
 70
     1
102
RTVSPropertyOp1
 70
     1
102
RTVSPropertyOp2
 70
     1
102
RTVSPropertyOp3
 70
     1
102
RTVSPropertyOp4
 70
     1
102
RTVSPropertyOp5
 70
     1
102
RTVSPropertyOp6
 70
     1
102
RTVSPropertyOp7
 70
     1
102
RTVSPropertyOp8
 70
     1
102
RTVSPropertyOp9
 70
     1
102
RTVSPropertyOp10
 70
     1
102
RTVSPropertyOp11
 70
     1
102
RTVSPropertyOp12
 70
     1
102
RTVSPropertyOp13
 70
     1
102
RTVSPropertyOp14
 70
     1
102
RTVSPropertyOp15
 70
     1
102
RTVSPropertyOp16
 70
     1
102
RTVSPropertyOp17
 70
     1
102
RTVSPropertyOp18
 70
     1
102
RTVSPropertyOp19
 70
     1
102
RTVSPropertyOp20
 70
     1
102
RTVSPropertyOp21
 70
     1
102
RTVSPropertyOp22
 70
     1
102
RTVSPropertyOp23
 70
     1
102
RTVSPropertyOp24
 70
     1
102
RTVSPropertyOp25
 70
     1
102
RTVSPropertyOp26
 70
     1
102
RTVSPropertyOp27
 70
     1
102
RTVSPropertyOp28
 70
     1
102
RTVSPropertyOp29
 70
     1
102
RTVSPropertyOp30
 70
     1
102
RTVSPropertyOp31
 70
     1
102
RTVSPropertyOp32
 70
     1
102
RTVSPropertyOp33
 70
     1
102
RTVSPropertyOp34
 70
     1
102
RTVSPropertyOp35
 70
     1
102
RTVSPropertyOp36
 70
     1
102
RTVSPropertyOp37
 70
     1
102
RTVSPropertyOp38
 70
     1
102
RTVSPropertyOp39
 70
     1
102
RTVSPropertyOp40
 70
     1
102
RTVSPropertyOp41
 70
     1
102
RTVSPropertyOp42
 70
     1
102
RTVSPropertyOp43
 70
     1
102
RTVSPropertyOp44
 70
     1
102
RTVSPropertyOp45
 70
     1
102
RTVSPropertyOp46
 70
     1
102
RTVSPropertyOp47
 70
     1
102
RTVSPropertyOp48
 70
     1
102
RTVSPropertyOp49
 70
     1
102
RTVSPropertyOp50
 70
     1
102
RTVSPropertyOp51
 70
     0
102
RTVSPropertyOp52
 70
     0
102
RTVSPropertyOp53
 70
     1
102
RTVSPropertyOp54
 70
     1
102
RTVSPropertyOp55
 70
     1
102
RTVSPropertyOp56
 70
     1
102
RTVSPropertyOp57
 70
     1
102
RTVSPost2010Prop28
280
     0
102
RTVSPost2010PropOp28
 70
     1
102
RTVSPost2010Prop29
280
     1
102
RTVSPost2010PropOp29
 70
     1
102
RTVSPost2010Prop30
280
     1
102
RTVSPost2010PropOp30
 70
     1
102
RTVSPost2010Prop31
280
     0
102
RTVSPost2010PropOp31
 70
     1
102
RTVSPost2010Prop32
280
     0
102
RTVSPost2010PropOp32
 70
     1
102
RTVSPost2010Prop33
280
     0
102
RTVSPost2010PropOp33
 70
     1
102
RTVSPost2010Prop34
280
     0
102
RTVSPost2010PropOp34
 70
     1
102
RTVSPost2010Prop35
280
     0
102
RTVSPost2010PropOp35
 70
     1
102
RTVSPost2010Prop36
280
     0
102
RTVSPost2010PropOp36
 70
     1
102
RTVSPost2010Prop37
 90
       50
102
RTVSPost2010PropOp37
 70
     1
102
RTVSPost2010Prop38
140
0.0
102
RTVSPost2010PropOp38
 70
     1
102
RTVSPost2010Prop39
140
1.0
102
RTVSPost2010PropOp39
 70
     1
102
RTVSPost2010Prop40
 90
        0
102
RTVSPost2010PropOp40
 70
     1
102
RTVSPost2010Prop41ColorIndex
 90
       18
102
RTVSPost2010Prop41ColorRGB
 90
        0
102
RTVSPost2010PropOp41
 70
     1
102
RTVSPost2010Prop42
 90
       50
102
RTVSPost2010PropOp42
 70
     1
102
RTVSPost2010Prop43
 90
        3
102
RTVSPost2010PropOp43
 70
     1
102
RTVSPost2010Prop44ColorIndex
 90
        5
102
RTVSPost2010Prop44ColorRGB
 90
      255
102
RTVSPost2010PropOp44
 70
     1
102
RTVSPost2010Prop45
280
     0
102
RTVSPost2010PropOp45
 70
     1
102
RTVSPost2010Prop46
 90
       50
102
RTVSPost2010PropOp46
 70
     1
102
RTVSPost2010Prop47
 90
       50
102
RTVSPost2010PropOp47
 70
     1
102
RTVSPost2010Prop48
 90
       50
102
RTVSPost2010PropOp48
 70
     1
102
RTVSPost2010Prop49
280
     0
102
RTVSPost2010PropOp49
 70
     1
102
RTVSPost2010Prop50
 90
       50
102
RTVSPost2010PropOp50
 70
     1
102
RTVSPost2010Prop51ColorIndex
 90
      256
102
RTVSPost2010Prop51ColorRGB
 90
-16777216
102
RTVSPost2010PropOp51
 70
     0
102
RTVSPost2010Prop52
140
1.0
102
RTVSPost2010PropOp52
 70
     0
102
RTVSPost2010Prop53
 90
        2
102
RTVSPost2010PropOp53
 70
     1
102
RTVSPost2010Prop54
  1
strokes_ogs.tif
102
RTVSPost2010PropOp54
 70
     1
102
RTVSPost2010Prop55
280
     0
102
RTVSPost2010PropOp55
 70
     1
102
RTVSPost2010Prop56
140
1.0
102
RTVSPost2010PropOp56
 70
     1
102
RTVSPost2010Prop57
140
1.0
102
RTVSPost2010PropOp57
 70
     1
  0
XRECORD
  5
54D
102
{ACAD_REACTORS
330
54C
102
}
330
54C
100
AcDbXrecord
280
     1
102
RTVSPropertyOp0
 70
     1
102
RTVSPropertyOp1
 70
     1
102
RTVSPropertyOp2
 70
     1
102
RTVSPropertyOp3
 70
     1
102
RTVSPropertyOp4
 70
     1
102
RTVSPropertyOp5
 70
     1
102
RTVSPropertyOp6
 70
     1
102
RTVSPropertyOp7
 70
     1
102
RTVSPropertyOp8
 70
     1
102
RTVSPropertyOp9
 70
     1
102
RTVSPropertyOp10
 70
     1
102
RTVSPropertyOp11
 70
     1
102
RTVSPropertyOp12
 70
     1
102
RTVSPropertyOp13
 70
     1
102
RTVSPropertyOp14
 70
     1
102
RTVSPropertyOp15
 70
     1
102
RTVSPropertyOp16
 70
     1
102
RTVSPropertyOp17
 70
     1
102
RTVSPropertyOp18
 70
     1
102
RTVSPropertyOp19
 70
     1
102
RTVSPropertyOp20
 70
     1
102
RTVSPropertyOp21
 70
     1
102
RTVSPropertyOp22
 70
     1
102
RTVSPropertyOp23
 70
     1
102
RTVSPropertyOp24
 70
     1
102
RTVSPropertyOp25
 70
     1
102
RTVSPropertyOp26
 70
     1
102
RTVSPropertyOp27
 70
     1
102
RTVSPropertyOp28
 70
     1
102
RTVSPropertyOp29
 70
     1
102
RTVSPropertyOp30
 70
     1
102
RTVSPropertyOp31
 70
     1
102
RTVSPropertyOp32
 70
     1
102
RTVSPropertyOp33
 70
     1
102
RTVSPropertyOp34
 70
     1
102
RTVSPropertyOp35
 70
     1
102
RTVSPropertyOp36
 70
     1
102
RTVSPropertyOp37
 70
     1
102
RTVSPropertyOp38
 70
     1
102
RTVSPropertyOp39
 70
     1
102
RTVSPropertyOp40
 70
     1
102
RTVSPropertyOp41
 70
     1
102
RTVSPropertyOp42
 70
     1
102
RTVSPropertyOp43
 70
     1
102
RTVSPropertyOp44
 70
     1
102
RTVSPropertyOp45
 70
     1
102
RTVSPropertyOp46
 70
     1
102
RTVSPropertyOp47
 70
     1
102
RTVSPropertyOp48
 70
     1
102
RTVSPropertyOp49
 70
     1
102
RTVSPropertyOp50
 70
     1
102
RTVSPropertyOp51
 70
     0
102
RTVSPropertyOp52
 70
     0
102
RTVSPropertyOp53
 70
     1
102
RTVSPropertyOp54
 70
     1
102
RTVSPropertyOp55
 70
     1
102
RTVSPropertyOp56
 70
     1
102
RTVSPropertyOp57
 70
     1
102
RTVSPost2010Prop28
280
     0
102
RTVSPost2010PropOp28
 70
     1
102
RTVSPost2010Prop29
280
     1
102
RTVSPost2010PropOp29
 70
     1
102
RTVSPost2010Prop30
280
     1
102
RTVSPost2010PropOp30
 70
     1
102
RTVSPost2010Prop31
280
     0
102
RTVSPost2010PropOp31
 70
     1
102
RTVSPost2010Prop32
280
     0
102
RTVSPost2010PropOp32
 70
     1
102
RTVSPost2010Prop33
280
     0
102
RTVSPost2010PropOp33
 70
     1
102
RTVSPost2010Prop34
280
     0
102
RTVSPost2010PropOp34
 70
     1
102
RTVSPost2010Prop35
280
     0
102
RTVSPost2010PropOp35
 70
     1
102
RTVSPost2010Prop36
280
     0
102
RTVSPost2010PropOp36
 70
     1
102
RTVSPost2010Prop37
 90
       50
102
RTVSPost2010PropOp37
 70
     1
102
RTVSPost2010Prop38
140
0.0
102
RTVSPost2010PropOp38
 70
     1
102
RTVSPost2010Prop39
140
1.0
102
RTVSPost2010PropOp39
 70
     1
102
RTVSPost2010Prop40
 90
        0
102
RTVSPost2010PropOp40
 70
     1
102
RTVSPost2010Prop41ColorIndex
 90
       18
102
RTVSPost2010Prop41ColorRGB
 90
        0
102
RTVSPost2010PropOp41
 70
     1
102
RTVSPost2010Prop42
 90
       50
102
RTVSPost2010PropOp42
 70
     1
102
RTVSPost2010Prop43
 90
        3
102
RTVSPost2010PropOp43
 70
     1
102
RTVSPost2010Prop44ColorIndex
 90
        5
102
RTVSPost2010Prop44ColorRGB
 90
      255
102
RTVSPost2010PropOp44
 70
     1
102
RTVSPost2010Prop45
280
     0
102
RTVSPost2010PropOp45
 70
     1
102
RTVSPost2010Prop46
 90
       50
102
RTVSPost2010PropOp46
 70
     1
102
RTVSPost2010Prop47
 90
       50
102
RTVSPost2010PropOp47
 70
     1
102
RTVSPost2010Prop48
 90
       50
102
RTVSPost2010PropOp48
 70
     1
102
RTVSPost2010Prop49
280
     0
102
RTVSPost2010PropOp49
 70
     1
102
RTVSPost2010Prop50
 90
       50
102
RTVSPost2010PropOp50
 70
     1
102
RTVSPost2010Prop51ColorIndex
 90
      256
102
RTVSPost2010Prop51ColorRGB
 90
-16777216
102
RTVSPost2010PropOp51
 70
     0
102
RTVSPost2010Prop52
140
1.0
102
RTVSPost2010PropOp52
 70
     0
102
RTVSPost2010Prop53
 90
        2
102
RTVSPost2010PropOp53
 70
     1
102
RTVSPost2010Prop54
  1
strokes_ogs.tif
102
RTVSPost2010PropOp54
 70
     1
102
RTVSPost2010Prop55
280
     0
102
RTVSPost2010PropOp55
 70
     1
102
RTVSPost2010Prop56
140
1.0
102
RTVSPost2010PropOp56
 70
     1
102
RTVSPost2010Prop57
140
1.0
102
RTVSPost2010PropOp57
 70
     1
  0
XRECORD
  5
547
102
{ACAD_REACTORS
330
546
102
}
330
546
100
AcDbXrecord
280
     1
102
RTVSPropertyOp0
 70
     1
102
RTVSPropertyOp1
 70
     1
102
RTVSPropertyOp2
 70
     1
102
RTVSPropertyOp3
 70
     1
102
RTVSPropertyOp4
 70
     1
102
RTVSPropertyOp5
 70
     1
102
RTVSPropertyOp6
 70
     1
102
RTVSPropertyOp7
 70
     1
102
RTVSPropertyOp8
 70
     1
102
RTVSPropertyOp9
 70
     1
102
RTVSPropertyOp10
 70
     1
102
RTVSPropertyOp11
 70
     1
102
RTVSPropertyOp12
 70
     1
102
RTVSPropertyOp13
 70
     1
102
RTVSPropertyOp14
 70
     1
102
RTVSPropertyOp15
 70
     1
102
RTVSPropertyOp16
 70
     1
102
RTVSPropertyOp17
 70
     1
102
RTVSPropertyOp18
 70
     1
102
RTVSPropertyOp19
 70
     1
102
RTVSPropertyOp20
 70
     1
102
RTVSPropertyOp21
 70
     1
102
RTVSPropertyOp22
 70
     1
102
RTVSPropertyOp23
 70
     1
102
RTVSPropertyOp24
 70
     1
102
RTVSPropertyOp25
 70
     1
102
RTVSPropertyOp26
 70
     1
102
RTVSPropertyOp27
 70
     1
102
RTVSPropertyOp28
 70
     1
102
RTVSPropertyOp29
 70
     1
102
RTVSPropertyOp30
 70
     1
102
RTVSPropertyOp31
 70
     1
102
RTVSPropertyOp32
 70
     1
102
RTVSPropertyOp33
 70
     1
102
RTVSPropertyOp34
 70
     1
102
RTVSPropertyOp35
 70
     1
102
RTVSPropertyOp36
 70
     1
102
RTVSPropertyOp37
 70
     1
102
RTVSPropertyOp38
 70
     1
102
RTVSPropertyOp39
 70
     1
102
RTVSPropertyOp40
 70
     1
102
RTVSPropertyOp41
 70
     1
102
RTVSPropertyOp42
 70
     1
102
RTVSPropertyOp43
 70
     1
102
RTVSPropertyOp44
 70
     1
102
RTVSPropertyOp45
 70
     1
102
RTVSPropertyOp46
 70
     1
102
RTVSPropertyOp47
 70
     1
102
RTVSPropertyOp48
 70
     1
102
RTVSPropertyOp49
 70
     1
102
RTVSPropertyOp50
 70
     1
102
RTVSPropertyOp51
 70
     0
102
RTVSPropertyOp52
 70
     0
102
RTVSPropertyOp53
 70
     1
102
RTVSPropertyOp54
 70
     1
102
RTVSPropertyOp55
 70
     1
102
RTVSPropertyOp56
 70
     1
102
RTVSPropertyOp57
 70
     1
102
RTVSPost2010Prop28
280
     0
102
RTVSPost2010PropOp28
 70
     1
102
RTVSPost2010Prop29
280
     1
102
RTVSPost2010PropOp29
 70
     1
102
RTVSPost2010Prop30
280
     1
102
RTVSPost2010PropOp30
 70
     1
102
RTVSPost2010Prop31
280
     0
102
RTVSPost2010PropOp31
 70
     1
102
RTVSPost2010Prop32
280
     0
102
RTVSPost2010PropOp32
 70
     1
102
RTVSPost2010Prop33
280
     0
102
RTVSPost2010PropOp33
 70
     1
102
RTVSPost2010Prop34
280
     0
102
RTVSPost2010PropOp34
 70
     1
102
RTVSPost2010Prop35
280
     0
102
RTVSPost2010PropOp35
 70
     1
102
RTVSPost2010Prop36
280
     0
102
RTVSPost2010PropOp36
 70
     1
102
RTVSPost2010Prop37
 90
       50
102
RTVSPost2010PropOp37
 70
     1
102
RTVSPost2010Prop38
140
0.0
102
RTVSPost2010PropOp38
 70
     1
102
RTVSPost2010Prop39
140
1.0
102
RTVSPost2010PropOp39
 70
     1
102
RTVSPost2010Prop40
 90
        0
102
RTVSPost2010PropOp40
 70
     1
102
RTVSPost2010Prop41ColorIndex
 90
       18
102
RTVSPost2010Prop41ColorRGB
 90
        0
102
RTVSPost2010PropOp41
 70
     1
102
RTVSPost2010Prop42
 90
       50
102
RTVSPost2010PropOp42
 70
     1
102
RTVSPost2010Prop43
 90
        3
102
RTVSPost2010PropOp43
 70
     1
102
RTVSPost2010Prop44ColorIndex
 90
        5
102
RTVSPost2010Prop44ColorRGB
 90
      255
102
RTVSPost2010PropOp44
 70
     1
102
RTVSPost2010Prop45
280
     0
102
RTVSPost2010PropOp45
 70
     1
102
RTVSPost2010Prop46
 90
       50
102
RTVSPost2010PropOp46
 70
     1
102
RTVSPost2010Prop47
 90
       50
102
RTVSPost2010PropOp47
 70
     1
102
RTVSPost2010Prop48
 90
       50
102
RTVSPost2010PropOp48
 70
     1
102
RTVSPost2010Prop49
280
     0
102
RTVSPost2010PropOp49
 70
     1
102
RTVSPost2010Prop50
 90
       50
102
RTVSPost2010PropOp50
 70
     1
102
RTVSPost2010Prop51ColorIndex
 90
      256
102
RTVSPost2010Prop51ColorRGB
 90
-16777216
102
RTVSPost2010PropOp51
 70
     0
102
RTVSPost2010Prop52
140
1.0
102
RTVSPost2010PropOp52
 70
     0
102
RTVSPost2010Prop53
 90
        2
102
RTVSPost2010PropOp53
 70
     1
102
RTVSPost2010Prop54
  1
strokes_ogs.tif
102
RTVSPost2010PropOp54
 70
     1
102
RTVSPost2010Prop55
280
     0
102
RTVSPost2010PropOp55
 70
     1
102
RTVSPost2010Prop56
140
1.0
102
RTVSPost2010PropOp56
 70
     1
102
RTVSPost2010Prop57
140
1.0
102
RTVSPost2010PropOp57
 70
     1
  0
XRECORD
  5
549
102
{ACAD_REACTORS
330
548
102
}
330
548
100
AcDbXrecord
280
     1
102
RTVSPropertyOp0
 70
     1
102
RTVSPropertyOp1
 70
     1
102
RTVSPropertyOp2
 70
     1
102
RTVSPropertyOp3
 70
     1
102
RTVSPropertyOp4
 70
     1
102
RTVSPropertyOp5
 70
     1
102
RTVSPropertyOp6
 70
     1
102
RTVSPropertyOp7
 70
     1
102
RTVSPropertyOp8
 70
     1
102
RTVSPropertyOp9
 70
     1
102
RTVSPropertyOp10
 70
     1
102
RTVSPropertyOp11
 70
     1
102
RTVSPropertyOp12
 70
     1
102
RTVSPropertyOp13
 70
     1
102
RTVSPropertyOp14
 70
     1
102
RTVSPropertyOp15
 70
     1
102
RTVSPropertyOp16
 70
     1
102
RTVSPropertyOp17
 70
     1
102
RTVSPropertyOp18
 70
     1
102
RTVSPropertyOp19
 70
     1
102
RTVSPropertyOp20
 70
     1
102
RTVSPropertyOp21
 70
     1
102
RTVSPropertyOp22
 70
     1
102
RTVSPropertyOp23
 70
     1
102
RTVSPropertyOp24
 70
     1
102
RTVSPropertyOp25
 70
     1
102
RTVSPropertyOp26
 70
     1
102
RTVSPropertyOp27
 70
     1
102
RTVSPropertyOp28
 70
     1
102
RTVSPropertyOp29
 70
     1
102
RTVSPropertyOp30
 70
     1
102
RTVSPropertyOp31
 70
     1
102
RTVSPropertyOp32
 70
     1
102
RTVSPropertyOp33
 70
     1
102
RTVSPropertyOp34
 70
     1
102
RTVSPropertyOp35
 70
     1
102
RTVSPropertyOp36
 70
     1
102
RTVSPropertyOp37
 70
     1
102
RTVSPropertyOp38
 70
     1
102
RTVSPropertyOp39
 70
     1
102
RTVSPropertyOp40
 70
     1
102
RTVSPropertyOp41
 70
     1
102
RTVSPropertyOp42
 70
     1
102
RTVSPropertyOp43
 70
     1
102
RTVSPropertyOp44
 70
     1
102
RTVSPropertyOp45
 70
     1
102
RTVSPropertyOp46
 70
     1
102
RTVSPropertyOp47
 70
     1
102
RTVSPropertyOp48
 70
     1
102
RTVSPropertyOp49
 70
     1
102
RTVSPropertyOp50
 70
     1
102
RTVSPropertyOp51
 70
     0
102
RTVSPropertyOp52
 70
     0
102
RTVSPropertyOp53
 70
     1
102
RTVSPropertyOp54
 70
     1
102
RTVSPropertyOp55
 70
     1
102
RTVSPropertyOp56
 70
     1
102
RTVSPropertyOp57
 70
     1
102
RTVSPost2010Prop28
280
     0
102
RTVSPost2010PropOp28
 70
     1
102
RTVSPost2010Prop29
280
     1
102
RTVSPost2010PropOp29
 70
     1
102
RTVSPost2010Prop30
280
     1
102
RTVSPost2010PropOp30
 70
     1
102
RTVSPost2010Prop31
280
     0
102
RTVSPost2010PropOp31
 70
     1
102
RTVSPost2010Prop32
280
     0
102
RTVSPost2010PropOp32
 70
     1
102
RTVSPost2010Prop33
280
     0
102
RTVSPost2010PropOp33
 70
     1
102
RTVSPost2010Prop34
280
     0
102
RTVSPost2010PropOp34
 70
     1
102
RTVSPost2010Prop35
280
     0
102
RTVSPost2010PropOp35
 70
     1
102
RTVSPost2010Prop36
280
     0
102
RTVSPost2010PropOp36
 70
     1
102
RTVSPost2010Prop37
 90
       50
102
RTVSPost2010PropOp37
 70
     1
102
RTVSPost2010Prop38
140
0.0
102
RTVSPost2010PropOp38
 70
     1
102
RTVSPost2010Prop39
140
1.0
102
RTVSPost2010PropOp39
 70
     1
102
RTVSPost2010Prop40
 90
        0
102
RTVSPost2010PropOp40
 70
     1
102
RTVSPost2010Prop41ColorIndex
 90
       18
102
RTVSPost2010Prop41ColorRGB
 90
        0
102
RTVSPost2010PropOp41
 70
     1
102
RTVSPost2010Prop42
 90
       50
102
RTVSPost2010PropOp42
 70
     1
102
RTVSPost2010Prop43
 90
        3
102
RTVSPost2010PropOp43
 70
     1
102
RTVSPost2010Prop44ColorIndex
 90
        5
102
RTVSPost2010Prop44ColorRGB
 90
      255
102
RTVSPost2010PropOp44
 70
     1
102
RTVSPost2010Prop45
280
     0
102
RTVSPost2010PropOp45
 70
     1
102
RTVSPost2010Prop46
 90
       50
102
RTVSPost2010PropOp46
 70
     1
102
RTVSPost2010Prop47
 90
       50
102
RTVSPost2010PropOp47
 70
     1
102
RTVSPost2010Prop48
 90
       50
102
RTVSPost2010PropOp48
 70
     1
102
RTVSPost2010Prop49
280
     0
102
RTVSPost2010PropOp49
 70
     1
102
RTVSPost2010Prop50
 90
       50
102
RTVSPost2010PropOp50
 70
     1
102
RTVSPost2010Prop51ColorIndex
 90
      256
102
RTVSPost2010Prop51ColorRGB
 90
-16777216
102
RTVSPost2010PropOp51
 70
     0
102
RTVSPost2010Prop52
140
1.0
102
RTVSPost2010PropOp52
 70
     0
102
RTVSPost2010Prop53
 90
        2
102
RTVSPost2010PropOp53
 70
     1
102
RTVSPost2010Prop54
  1
strokes_ogs.tif
102
RTVSPost2010PropOp54
 70
     1
102
RTVSPost2010Prop55
280
     0
102
RTVSPost2010PropOp55
 70
     1
102
RTVSPost2010Prop56
140
1.0
102
RTVSPost2010PropOp56
 70
     1
102
RTVSPost2010Prop57
140
1.0
102
RTVSPost2010PropOp57
 70
     1
  0
XRECORD
  5
539
102
{ACAD_REACTORS
330
538
102
}
330
538
100
AcDbXrecord
280
     1
102
RTVSPropertyOp0
 70
     1
102
RTVSPropertyOp1
 70
     1
102
RTVSPropertyOp2
 70
     1
102
RTVSPropertyOp3
 70
     1
102
RTVSPropertyOp4
 70
     1
102
RTVSPropertyOp5
 70
     1
102
RTVSPropertyOp6
 70
     1
102
RTVSPropertyOp7
 70
     1
102
RTVSPropertyOp8
 70
     1
102
RTVSPropertyOp9
 70
     1
102
RTVSPropertyOp10
 70
     1
102
RTVSPropertyOp11
 70
     1
102
RTVSPropertyOp12
 70
     1
102
RTVSPropertyOp13
 70
     1
102
RTVSPropertyOp14
 70
     1
102
RTVSPropertyOp15
 70
     1
102
RTVSPropertyOp16
 70
     1
102
RTVSPropertyOp17
 70
     1
102
RTVSPropertyOp18
 70
     1
102
RTVSPropertyOp19
 70
     1
102
RTVSPropertyOp20
 70
     1
102
RTVSPropertyOp21
 70
     1
102
RTVSPropertyOp22
 70
     1
102
RTVSPropertyOp23
 70
     1
102
RTVSPropertyOp24
 70
     1
102
RTVSPropertyOp25
 70
     1
102
RTVSPropertyOp26
 70
     1
102
RTVSPropertyOp27
 70
     1
102
RTVSPropertyOp28
 70
     1
102
RTVSPropertyOp29
 70
     1
102
RTVSPropertyOp30
 70
     1
102
RTVSPropertyOp31
 70
     1
102
RTVSPropertyOp32
 70
     1
102
RTVSPropertyOp33
 70
     1
102
RTVSPropertyOp34
 70
     1
102
RTVSPropertyOp35
 70
     1
102
RTVSPropertyOp36
 70
     1
102
RTVSPropertyOp37
 70
     1
102
RTVSPropertyOp38
 70
     1
102
RTVSPropertyOp39
 70
     1
102
RTVSPropertyOp40
 70
     1
102
RTVSPropertyOp41
 70
     1
102
RTVSPropertyOp42
 70
     1
102
RTVSPropertyOp43
 70
     1
102
RTVSPropertyOp44
 70
     1
102
RTVSPropertyOp45
 70
     1
102
RTVSPropertyOp46
 70
     1
102
RTVSPropertyOp47
 70
     1
102
RTVSPropertyOp48
 70
     1
102
RTVSPropertyOp49
 70
     1
102
RTVSPropertyOp50
 70
     1
102
RTVSPropertyOp51
 70
     0
102
RTVSPropertyOp52
 70
     0
102
RTVSPropertyOp53
 70
     1
102
RTVSPropertyOp54
 70
     1
102
RTVSPropertyOp55
 70
     1
102
RTVSPropertyOp56
 70
     1
102
RTVSPropertyOp57
 70
     1
102
RTVSPost2010Prop28
280
     0
102
RTVSPost2010PropOp28
 70
     1
102
RTVSPost2010Prop29
280
     1
102
RTVSPost2010PropOp29
 70
     1
102
RTVSPost2010Prop30
280
     1
102
RTVSPost2010PropOp30
 70
     1
102
RTVSPost2010Prop31
280
     0
102
RTVSPost2010PropOp31
 70
     1
102
RTVSPost2010Prop32
280
     0
102
RTVSPost2010PropOp32
 70
     1
102
RTVSPost2010Prop33
280
     0
102
RTVSPost2010PropOp33
 70
     1
102
RTVSPost2010Prop34
280
     0
102
RTVSPost2010PropOp34
 70
     1
102
RTVSPost2010Prop35
280
     0
102
RTVSPost2010PropOp35
 70
     1
102
RTVSPost2010Prop36
280
     0
102
RTVSPost2010PropOp36
 70
     1
102
RTVSPost2010Prop37
 90
       50
102
RTVSPost2010PropOp37
 70
     1
102
RTVSPost2010Prop38
140
0.0
102
RTVSPost2010PropOp38
 70
     1
102
RTVSPost2010Prop39
140
1.0
102
RTVSPost2010PropOp39
 70
     1
102
RTVSPost2010Prop40
 90
        0
102
RTVSPost2010PropOp40
 70
     1
102
RTVSPost2010Prop41ColorIndex
 90
       18
102
RTVSPost2010Prop41ColorRGB
 90
        0
102
RTVSPost2010PropOp41
 70
     1
102
RTVSPost2010Prop42
 90
       50
102
RTVSPost2010PropOp42
 70
     1
102
RTVSPost2010Prop43
 90
        3
102
RTVSPost2010PropOp43
 70
     1
102
RTVSPost2010Prop44ColorIndex
 90
        5
102
RTVSPost2010Prop44ColorRGB
 90
      255
102
RTVSPost2010PropOp44
 70
     1
102
RTVSPost2010Prop45
280
     0
102
RTVSPost2010PropOp45
 70
     1
102
RTVSPost2010Prop46
 90
       50
102
RTVSPost2010PropOp46
 70
     1
102
RTVSPost2010Prop47
 90
       50
102
RTVSPost2010PropOp47
 70
     1
102
RTVSPost2010Prop48
 90
       50
102
RTVSPost2010PropOp48
 70
     1
102
RTVSPost2010Prop49
280
     0
102
RTVSPost2010PropOp49
 70
     1
102
RTVSPost2010Prop50
 90
       50
102
RTVSPost2010PropOp50
 70
     1
102
RTVSPost2010Prop51ColorIndex
 90
      256
102
RTVSPost2010Prop51ColorRGB
 90
-16777216
102
RTVSPost2010PropOp51
 70
     0
102
RTVSPost2010Prop52
140
1.0
102
RTVSPost2010PropOp52
 70
     0
102
RTVSPost2010Prop53
 90
        2
102
RTVSPost2010PropOp53
 70
     1
102
RTVSPost2010Prop54
  1
strokes_ogs.tif
102
RTVSPost2010PropOp54
 70
     1
102
RTVSPost2010Prop55
280
     0
102
RTVSPost2010PropOp55
 70
     1
102
RTVSPost2010Prop56
140
1.0
102
RTVSPost2010PropOp56
 70
     1
102
RTVSPost2010Prop57
140
1.0
102
RTVSPost2010PropOp57
 70
     1
  0
XRECORD
  5
52B
102
{ACAD_REACTORS
330
52A
102
}
330
52A
100
AcDbXrecord
280
     1
102
RTVSPropertyOp0
 70
     1
102
RTVSPropertyOp1
 70
     1
102
RTVSPropertyOp2
 70
     1
102
RTVSPropertyOp3
 70
     1
102
RTVSPropertyOp4
 70
     1
102
RTVSPropertyOp5
 70
     1
102
RTVSPropertyOp6
 70
     1
102
RTVSPropertyOp7
 70
     1
102
RTVSPropertyOp8
 70
     1
102
RTVSPropertyOp9
 70
     1
102
RTVSPropertyOp10
 70
     1
102
RTVSPropertyOp11
 70
     1
102
RTVSPropertyOp12
 70
     1
102
RTVSPropertyOp13
 70
     1
102
RTVSPropertyOp14
 70
     1
102
RTVSPropertyOp15
 70
     1
102
RTVSPropertyOp16
 70
     1
102
RTVSPropertyOp17
 70
     1
102
RTVSPropertyOp18
 70
     1
102
RTVSPropertyOp19
 70
     1
102
RTVSPropertyOp20
 70
     1
102
RTVSPropertyOp21
 70
     1
102
RTVSPropertyOp22
 70
     1
102
RTVSPropertyOp23
 70
     1
102
RTVSPropertyOp24
 70
     1
102
RTVSPropertyOp25
 70
     1
102
RTVSPropertyOp26
 70
     1
102
RTVSPropertyOp27
 70
     1
102
RTVSPropertyOp28
 70
     1
102
RTVSPropertyOp29
 70
     1
102
RTVSPropertyOp30
 70
     1
102
RTVSPropertyOp31
 70
     1
102
RTVSPropertyOp32
 70
     1
102
RTVSPropertyOp33
 70
     1
102
RTVSPropertyOp34
 70
     1
102
RTVSPropertyOp35
 70
     1
102
RTVSPropertyOp36
 70
     1
102
RTVSPropertyOp37
 70
     1
102
RTVSPropertyOp38
 70
     1
102
RTVSPropertyOp39
 70
     1
102
RTVSPropertyOp40
 70
     1
102
RTVSPropertyOp41
 70
     1
102
RTVSPropertyOp42
 70
     1
102
RTVSPropertyOp43
 70
     1
102
RTVSPropertyOp44
 70
     1
102
RTVSPropertyOp45
 70
     1
102
RTVSPropertyOp46
 70
     1
102
RTVSPropertyOp47
 70
     1
102
RTVSPropertyOp48
 70
     1
102
RTVSPropertyOp49
 70
     1
102
RTVSPropertyOp50
 70
     1
102
RTVSPropertyOp51
 70
     0
102
RTVSPropertyOp52
 70
     0
102
RTVSPropertyOp53
 70
     1
102
RTVSPropertyOp54
 70
     1
102
RTVSPropertyOp55
 70
     1
102
RTVSPropertyOp56
 70
     1
102
RTVSPropertyOp57
 70
     1
102
RTVSPost2010Prop28
280
     0
102
RTVSPost2010PropOp28
 70
     1
102
RTVSPost2010Prop29
280
     1
102
RTVSPost2010PropOp29
 70
     1
102
RTVSPost2010Prop30
280
     1
102
RTVSPost2010PropOp30
 70
     1
102
RTVSPost2010Prop31
280
     0
102
RTVSPost2010PropOp31
 70
     1
102
RTVSPost2010Prop32
280
     0
102
RTVSPost2010PropOp32
 70
     1
102
RTVSPost2010Prop33
280
     0
102
RTVSPost2010PropOp33
 70
     1
102
RTVSPost2010Prop34
280
     0
102
RTVSPost2010PropOp34
 70
     1
102
RTVSPost2010Prop35
280
     0
102
RTVSPost2010PropOp35
 70
     1
102
RTVSPost2010Prop36
280
     0
102
RTVSPost2010PropOp36
 70
     1
102
RTVSPost2010Prop37
 90
       50
102
RTVSPost2010PropOp37
 70
     1
102
RTVSPost2010Prop38
140
0.0
102
RTVSPost2010PropOp38
 70
     1
102
RTVSPost2010Prop39
140
1.0
102
RTVSPost2010PropOp39
 70
     1
102
RTVSPost2010Prop40
 90
        0
102
RTVSPost2010PropOp40
 70
     1
102
RTVSPost2010Prop41ColorIndex
 90
       18
102
RTVSPost2010Prop41ColorRGB
 90
        0
102
RTVSPost2010PropOp41
 70
     1
102
RTVSPost2010Prop42
 90
       50
102
RTVSPost2010PropOp42
 70
     1
102
RTVSPost2010Prop43
 90
        3
102
RTVSPost2010PropOp43
 70
     1
102
RTVSPost2010Prop44ColorIndex
 90
        5
102
RTVSPost2010Prop44ColorRGB
 90
      255
102
RTVSPost2010PropOp44
 70
     1
102
RTVSPost2010Prop45
280
     0
102
RTVSPost2010PropOp45
 70
     1
102
RTVSPost2010Prop46
 90
       50
102
RTVSPost2010PropOp46
 70
     1
102
RTVSPost2010Prop47
 90
       50
102
RTVSPost2010PropOp47
 70
     1
102
RTVSPost2010Prop48
 90
       50
102
RTVSPost2010PropOp48
 70
     1
102
RTVSPost2010Prop49
280
     0
102
RTVSPost2010PropOp49
 70
     1
102
RTVSPost2010Prop50
 90
       50
102
RTVSPost2010PropOp50
 70
     1
102
RTVSPost2010Prop51ColorIndex
 90
      256
102
RTVSPost2010Prop51ColorRGB
 90
-16777216
102
RTVSPost2010PropOp51
 70
     0
102
RTVSPost2010Prop52
140
1.0
102
RTVSPost2010PropOp52
 70
     0
102
RTVSPost2010Prop53
 90
        2
102
RTVSPost2010PropOp53
 70
     1
102
RTVSPost2010Prop54
  1
strokes_ogs.tif
102
RTVSPost2010PropOp54
 70
     1
102
RTVSPost2010Prop55
280
     0
102
RTVSPost2010PropOp55
 70
     1
102
RTVSPost2010Prop56
140
1.0
102
RTVSPost2010PropOp56
 70
     1
102
RTVSPost2010Prop57
140
1.0
102
RTVSPost2010PropOp57
 70
     1
  0
XRECORD
  5
54B
102
{ACAD_REACTORS
330
54A
102
}
330
54A
100
AcDbXrecord
280
     1
102
RTVSPropertyOp0
 70
     1
102
RTVSPropertyOp1
 70
     1
102
RTVSPropertyOp2
 70
     1
102
RTVSPropertyOp3
 70
     1
102
RTVSPropertyOp4
 70
     1
102
RTVSPropertyOp5
 70
     1
102
RTVSPropertyOp6
 70
     1
102
RTVSPropertyOp7
 70
     1
102
RTVSPropertyOp8
 70
     1
102
RTVSPropertyOp9
 70
     1
102
RTVSPropertyOp10
 70
     1
102
RTVSPropertyOp11
 70
     1
102
RTVSPropertyOp12
 70
     1
102
RTVSPropertyOp13
 70
     1
102
RTVSPropertyOp14
 70
     1
102
RTVSPropertyOp15
 70
     1
102
RTVSPropertyOp16
 70
     1
102
RTVSPropertyOp17
 70
     1
102
RTVSPropertyOp18
 70
     1
102
RTVSPropertyOp19
 70
     1
102
RTVSPropertyOp20
 70
     1
102
RTVSPropertyOp21
 70
     1
102
RTVSPropertyOp22
 70
     1
102
RTVSPropertyOp23
 70
     1
102
RTVSPropertyOp24
 70
     1
102
RTVSPropertyOp25
 70
     1
102
RTVSPropertyOp26
 70
     1
102
RTVSPropertyOp27
 70
     1
102
RTVSPropertyOp28
 70
     1
102
RTVSPropertyOp29
 70
     1
102
RTVSPropertyOp30
 70
     1
102
RTVSPropertyOp31
 70
     1
102
RTVSPropertyOp32
 70
     1
102
RTVSPropertyOp33
 70
     1
102
RTVSPropertyOp34
 70
     1
102
RTVSPropertyOp35
 70
     1
102
RTVSPropertyOp36
 70
     1
102
RTVSPropertyOp37
 70
     1
102
RTVSPropertyOp38
 70
     1
102
RTVSPropertyOp39
 70
     1
102
RTVSPropertyOp40
 70
     1
102
RTVSPropertyOp41
 70
     1
102
RTVSPropertyOp42
 70
     1
102
RTVSPropertyOp43
 70
     1
102
RTVSPropertyOp44
 70
     1
102
RTVSPropertyOp45
 70
     1
102
RTVSPropertyOp46
 70
     1
102
RTVSPropertyOp47
 70
     1
102
RTVSPropertyOp48
 70
     1
102
RTVSPropertyOp49
 70
     1
102
RTVSPropertyOp50
 70
     1
102
RTVSPropertyOp51
 70
     0
102
RTVSPropertyOp52
 70
     0
102
RTVSPropertyOp53
 70
     1
102
RTVSPropertyOp54
 70
     1
102
RTVSPropertyOp55
 70
     1
102
RTVSPropertyOp56
 70
     1
102
RTVSPropertyOp57
 70
     1
102
RTVSPost2010Prop28
280
     0
102
RTVSPost2010PropOp28
 70
     1
102
RTVSPost2010Prop29
280
     1
102
RTVSPost2010PropOp29
 70
     1
102
RTVSPost2010Prop30
280
     1
102
RTVSPost2010PropOp30
 70
     1
102
RTVSPost2010Prop31
280
     0
102
RTVSPost2010PropOp31
 70
     1
102
RTVSPost2010Prop32
280
     0
102
RTVSPost2010PropOp32
 70
     1
102
RTVSPost2010Prop33
280
     0
102
RTVSPost2010PropOp33
 70
     1
102
RTVSPost2010Prop34
280
     0
102
RTVSPost2010PropOp34
 70
     1
102
RTVSPost2010Prop35
280
     0
102
RTVSPost2010PropOp35
 70
     1
102
RTVSPost2010Prop36
280
     0
102
RTVSPost2010PropOp36
 70
     1
102
RTVSPost2010Prop37
 90
       50
102
RTVSPost2010PropOp37
 70
     1
102
RTVSPost2010Prop38
140
0.0
102
RTVSPost2010PropOp38
 70
     1
102
RTVSPost2010Prop39
140
1.0
102
RTVSPost2010PropOp39
 70
     1
102
RTVSPost2010Prop40
 90
        0
102
RTVSPost2010PropOp40
 70
     1
102
RTVSPost2010Prop41ColorIndex
 90
       18
102
RTVSPost2010Prop41ColorRGB
 90
        0
102
RTVSPost2010PropOp41
 70
     1
102
RTVSPost2010Prop42
 90
       50
102
RTVSPost2010PropOp42
 70
     1
102
RTVSPost2010Prop43
 90
        3
102
RTVSPost2010PropOp43
 70
     1
102
RTVSPost2010Prop44ColorIndex
 90
        5
102
RTVSPost2010Prop44ColorRGB
 90
      255
102
RTVSPost2010PropOp44
 70
     1
102
RTVSPost2010Prop45
280
     0
102
RTVSPost2010PropOp45
 70
     1
102
RTVSPost2010Prop46
 90
       50
102
RTVSPost2010PropOp46
 70
     1
102
RTVSPost2010Prop47
 90
       50
102
RTVSPost2010PropOp47
 70
     1
102
RTVSPost2010Prop48
 90
       50
102
RTVSPost2010PropOp48
 70
     1
102
RTVSPost2010Prop49
280
     0
102
RTVSPost2010PropOp49
 70
     1
102
RTVSPost2010Prop50
 90
       50
102
RTVSPost2010PropOp50
 70
     1
102
RTVSPost2010Prop51ColorIndex
 90
      256
102
RTVSPost2010Prop51ColorRGB
 90
-16777216
102
RTVSPost2010PropOp51
 70
     0
102
RTVSPost2010Prop52
140
1.0
102
RTVSPost2010PropOp52
 70
     0
102
RTVSPost2010Prop53
 90
        2
102
RTVSPost2010PropOp53
 70
     1
102
RTVSPost2010Prop54
  1
strokes_ogs.tif
102
RTVSPost2010PropOp54
 70
     1
102
RTVSPost2010Prop55
280
     0
102
RTVSPost2010PropOp55
 70
     1
102
RTVSPost2010Prop56
140
1.0
102
RTVSPost2010PropOp56
 70
     1
102
RTVSPost2010Prop57
140
1.0
102
RTVSPost2010PropOp57
 70
     1
  0
ENDSEC
  0
EOF
