  0
SECTION
  2
HEADER
  9
$ACADVER
  1
AC1015
  9
$ACADMAINTVER
 70
     6
  9
$DWGCODEPAGE
  3
ANSI_932
  9
$INSBASE
 10
1068.233954266984
 20
405.3066694028232
 30
0.0
  9
$EXTMIN
 10
152.7432199091207
 20
19.60023349082854
 30
0.0
  9
$EXTMAX
 10
668.62288917583
 20
531.1429327091153
 30
0.0
  9
$LIMMIN
 10
0.0
 20
0.0
  9
$LIMMAX
 10
816.5000000000001
 20
565.0
  9
$ORTHOMODE
 70
     0
  9
$REGENMODE
 70
     1
  9
$FILLMODE
 70
     1
  9
$QTEXTMODE
 70
     0
  9
$MIRRTEXT
 70
     1
  9
$LTSCALE
 40
5.0
  9
$ATTMODE
 70
     1
  9
$TEXTSIZE
 40
6.0
  9
$TRACEWID
 40
0.05
  9
$TEXTSTYLE
  7
KANJI
  9
$CLAYER
  8
2
  9
$CELTYPE
  6
BYLAYER
  9
$CECOLOR
 62
   256
  9
$CELTSCALE
 40
1.0
  9
$DISPSILH
 70
     0
  9
$DIMSCALE
 40
2.0
  9
$DIMASZ
 40
2.0
  9
$DIMEXO
 40
0.5
  9
$DIMDLI
 40
0.0
  9
$DIMRND
 40
0.0
  9
$DIMDLE
 40
0.0
  9
$DIMEXE
 40
1.0
  9
$DIMTP
 40
0.0
  9
$DIMTM
 40
0.0
  9
$DIMTXT
 40
3.0
  9
$DIMCEN
 40
0.09
  9
$DIMTSZ
 40
0.0
  9
$DIMTOL
 70
     0
  9
$DIMLIM
 70
     0
  9
$DIMTIH
 70
     0
  9
$DIMTOH
 70
     0
  9
$DIMSE1
 70
     0
  9
$DIMSE2
 70
     0
  9
$DIMTAD
 70
     0
  9
$DIMZIN
 70
     8
  9
$DIMBLK
  1

  9
$DIMASO
 70
     0
  9
$DIMSHO
 70
     0
  9
$DIMPOST
  1

  9
$DIMAPOST
  1

  9
$DIMALT
 70
     0
  9
$DIMALTD
 70
     2
  9
$DIMALTF
 40
25.4
  9
$DIMLFAC
 40
1.0
  9
$DIMTOFL
 70
     1
  9
$DIMTVP
 40
1.0
  9
$DIMTIX
 70
     1
  9
$DIMSOXD
 70
     1
  9
$DIMSAH
 70
     0
  9
$DIMBLK1
  1

  9
$DIMBLK2
  1

  9
$DIMSTYLE
  2
STANDARD
  9
$DIMCLRD
 70
   256
  9
$DIMCLRE
 70
   256
  9
$DIMCLRT
 70
   256
  9
$DIMTFAC
 40
1.0
  9
$DIMGAP
 40
0.09
  9
$DIMJUST
 70
     0
  9
$DIMSD1
 70
     0
  9
$DIMSD2
 70
     0
  9
$DIMTOLJ
 70
     1
  9
$DIMTZIN
 70
     0
  9
$DIMALTZ
 70
     0
  9
$DIMALTTZ
 70
     0
  9
$DIMUPT
 70
     0
  9
$DIMDEC
 70
     1
  9
$DIMTDEC
 70
     4
  9
$DIMALTU
 70
     2
  9
$DIMALTTD
 70
     2
  9
$DIMTXSTY
  7
STANDARD
  9
$DIMAUNIT
 70
     0
  9
$DIMADEC
 70
     0
  9
$DIMALTRND
 40
0.0
  9
$DIMAZIN
 70
     0
  9
$DIMDSEP
 70
    46
  9
$DIMATFIT
 70
     3
  9
$DIMFRAC
 70
     0
  9
$DIMLDRBLK
  1

  9
$DIMLUNIT
 70
     2
  9
$DIMLWD
 70
    -2
  9
$DIMLWE
 70
    -2
  9
$DIMTMOVE
 70
     0
  9
$LUNITS
 70
     2
  9
$LUPREC
 70
     3
  9
$SKETCHINC
 40
0.1
  9
$FILLETRAD
 40
2.0
  9
$AUNITS
 70
     0
  9
$AUPREC
 70
     3
  9
$MENU
  1
C:\R13\WIN\SUPPORT\ACADFULL
  9
$ELEVATION
 40
0.0
  9
$PELEVATION
 40
0.0
  9
$THICKNESS
 40
0.0
  9
$LIMCHECK
 70
     0
  9
$CHAMFERA
 40
0.0
  9
$CHAMFERB
 40
0.0
  9
$CHAMFERC
 40
0.0
  9
$CHAMFERD
 40
0.0
  9
$SKPOLY
 70
     0
  9
$TDCREATE
 40
2457528.41895978
  9
$TDUCREATE
 40
2457528.04395978
  9
$TDUPDATE
 40
2457870.61483294
  9
$TDUUPDATE
 40
2457870.23983294
  9
$TDINDWG
 40
0.0084379282
  9
$TDUSRTIMER
 40
0.0084371991
  9
$USRTIMER
 70
     1
  9
$ANGBASE
 50
0.0
  9
$ANGDIR
 70
     0
  9
$PDMODE
 70
     0
  9
$PDSIZE
 40
0.0
  9
$PLINEWID
 40
0.0
  9
$SPLFRAME
 70
     0
  9
$SPLINETYPE
 70
     6
  9
$SPLINESEGS
 70
     8
  9
$HANDSEED
  5
586
  9
$SURFTAB1
 70
     6
  9
$SURFTAB2
 70
     6
  9
$SURFTYPE
 70
     6
  9
$SURFU
 70
     6
  9
$SURFV
 70
     6
  9
$UCSBASE
  2

  9
$UCSNAME
  2

  9
$UCSORG
 10
0.0
 20
0.0
 30
0.0
  9
$UCSXDIR
 10
1.0
 20
0.0
 30
0.0
  9
$UCSYDIR
 10
0.0
 20
1.0
 30
0.0
  9
$UCSORTHOREF
  2

  9
$UCSORTHOVIEW
 70
     0
  9
$UCSORGTOP
 10
0.0
 20
0.0
 30
0.0
  9
$UCSORGBOTTOM
 10
0.0
 20
0.0
 30
0.0
  9
$UCSORGLEFT
 10
0.0
 20
0.0
 30
0.0
  9
$UCSORGRIGHT
 10
0.0
 20
0.0
 30
0.0
  9
$UCSORGFRONT
 10
0.0
 20
0.0
 30
0.0
  9
$UCSORGBACK
 10
0.0
 20
0.0
 30
0.0
  9
$PUCSBASE
  2

  9
$PUCSNAME
  2

  9
$PUCSORG
 10
0.0
 20
0.0
 30
0.0
  9
$PUCSXDIR
 10
1.0
 20
0.0
 30
0.0
  9
$PUCSYDIR
 10
0.0
 20
1.0
 30
0.0
  9
$PUCSORTHOREF
  2

  9
$PUCSORTHOVIEW
 70
     0
  9
$PUCSORGTOP
 10
0.0
 20
0.0
 30
0.0
  9
$PUCSORGBOTTOM
 10
0.0
 20
0.0
 30
0.0
  9
$PUCSORGLEFT
 10
0.0
 20
0.0
 30
0.0
  9
$PUCSORGRIGHT
 10
0.0
 20
0.0
 30
0.0
  9
$PUCSORGFRONT
 10
0.0
 20
0.0
 30
0.0
  9
$PUCSORGBACK
 10
0.0
 20
0.0
 30
0.0
  9
$USERI1
 70
     0
  9
$USERI2
 70
     0
  9
$USERI3
 70
     0
  9
$USERI4
 70
     0
  9
$USERI5
 70
     0
  9
$USERR1
 40
0.0
  9
$USERR2
 40
0.0
  9
$USERR3
 40
0.0
  9
$USERR4
 40
2448925.372986111
  9
$USERR5
 40
0.04166667
  9
$WORLDVIEW
 70
     1
  9
$SHADEDGE
 70
     3
  9
$SHADEDIF
 70
    70
  9
$TILEMODE
 70
     1
  9
$MAXACTVP
 70
    16
  9
$PINSBASE
 10
0.0
 20
0.0
 30
0.0
  9
$PLIMCHECK
 70
     0
  9
$PEXTMIN
 10
1.000000000000000E+20
 20
1.000000000000000E+20
 30
1.000000000000000E+20
  9
$PEXTMAX
 10
-1.000000000000000E+20
 20
-1.000000000000000E+20
 30
-1.000000000000000E+20
  9
$PLIMMIN
 10
0.0
 20
0.0
  9
$PLIMMAX
 10
12.0
 20
9.0
  9
$UNITMODE
 70
     0
  9
$VISRETAIN
 70
     0
  9
$PLINEGEN
 70
     0
  9
$PSLTSCALE
 70
     0
  9
$TREEDEPTH
 70
  3020
  9
$CMLSTYLE
  2
STANDARD
  9
$CMLJUST
 70
     0
  9
$CMLSCALE
 40
1.0
  9
$PROXYGRAPHICS
 70
     1
  9
$MEASUREMENT
 70
     0
  9
$CELWEIGHT
370
    -1
  9
$ENDCAPS
280
     0
  9
$JOINSTYLE
280
     0
  9
$LWDISPLAY
290
     0
  9
$INSUNITS
 70
     0
  9
$HYPERLINKBASE
  1

  9
$STYLESHEET
  1

  9
$XEDIT
290
     1
  9
$CEPSNTYPE
380
     0
  9
$PSTYLEMODE
290
     1
  9
$FINGERPRINTGUID
  2
{4CD1E96B-E608-455E-A213-D17A19F2BC18}
  9
$VERSIONGUID
  2
{8D3381B0-2869-449F-8E41-864422808CBE}
  9
$EXTNAMES
290
     1
  9
$PSVPSCALE
 40
0.0
  9
$OLESTARTUP
290
     0
  0
ENDSEC
  0
SECTION
  2
CLASSES
  0
CLASS
  1
ACDBDICTIONARYWDFLT
  2
AcDbDictionaryWithDefault
  3
ObjectDBX Classes
 90
        0
280
     0
281
     0
  0
CLASS
  1
MATERIAL
  2
AcDbMaterial
  3
ObjectDBX Classes
 90
     1153
280
     0
281
     0
  0
CLASS
  1
SORTENTSTABLE
  2
AcDbSortentsTable
  3
ObjectDBX Classes
 90
        0
280
     0
281
     0
  0
CLASS
  1
SCALE
  2
AcDbScale
  3
ObjectDBX Classes
 90
     1153
280
     0
281
     0
  0
CLASS
  1
DICTIONARYVAR
  2
AcDbDictionaryVar
  3
ObjectDBX Classes
 90
        0
280
     0
281
     0
  0
CLASS
  1
VISUALSTYLE
  2
AcDbVisualStyle
  3
ObjectDBX Classes
 90
     4095
280
     0
281
     0
  0
CLASS
  1
MLEADERSTYLE
  2
AcDbMLeaderStyle
  3
ACDB_MLEADERSTYLE_CLASS
 90
     4095
280
     0
281
     0
  0
CLASS
  1
TABLESTYLE
  2
AcDbTableStyle
  3
ObjectDBX Classes
 90
     4095
280
     0
281
     0
  0
CLASS
  1
ACDBPLACEHOLDER
  2
AcDbPlaceHolder
  3
ObjectDBX Classes
 90
        0
280
     0
281
     0
  0
CLASS
  1
LAYOUT
  2
AcDbLayout
  3
ObjectDBX Classes
 90
        0
280
     0
281
     0
  0
ENDSEC
  0
SECTION
  2
TABLES
  0
TABLE
  2
VPORT
  5
2C
102
{ACAD_XDICTIONARY
360
54B
102
}
330
0
100
AcDbSymbolTable
 70
     1
  0
VPORT
  5
31
330
2C
100
AcDbSymbolTableRecord
100
AcDbViewportTableRecord
  2
*ACTIVE
 70
     0
 10
0.0
 20
0.0
 11
1.0
 21
1.0
 12
474.0902271294141
 22
264.3112538068348
 13
0.0
 23
0.0
 14
1.0
 24
1.0
 15
50.0
 25
50.0
 16
0.0
 26
0.0
 36
1.0
 17
0.0
 27
0.0
 37
0.0
 40
700.113510223495
 41
2.177611940298507
 42
50.0
 43
0.0
 44
0.0
 50
0.0
 51
0.0
 71
     0
 72
  5000
 73
     1
 74
     0
 75
     0
 76
     0
 77
     0
 78
     0
281
     0
 65
     1
110
0.0
120
0.0
130
0.0
111
1.0
121
0.0
131
0.0
112
0.0
122
1.0
132
0.0
 79
     0
146
0.0
1001
ACAD_NAV_VCDISPLAY
1070
     3
  0
ENDTAB
  0
TABLE
  2
LTYPE
  5
F
330
0
100
AcDbSymbolTable
 70
     2
  0
LTYPE
  5
10
330
F
100
AcDbSymbolTableRecord
100
AcDbLinetypeTableRecord
  2
BYBLOCK
 70
     0
  3

 72
    65
 73
     0
 40
0.0
  0
LTYPE
  5
11
330
F
100
AcDbSymbolTableRecord
100
AcDbLinetypeTableRecord
  2
BYLAYER
 70
     0
  3

 72
    65
 73
     0
 40
0.0
  0
LTYPE
  5
E
330
F
100
AcDbSymbolTableRecord
100
AcDbLinetypeTableRecord
  2
CONTINUOUS
 70
     0
  3
Solid line
 72
    65
 73
     0
 40
0.0
  0
LTYPE
  5
5C
330
F
100
AcDbSymbolTableRecord
100
AcDbLinetypeTableRecord
  2
CENTER
 70
     0
  3
____ _ ____ _ ____ _ ____ _ ____ _ ____ _ ____
 72
    65
 73
     4
 40
2.0
 49
1.25
 74
     0
 49
-0.25
 74
     0
 49
0.25
 74
     0
 49
-0.25
 74
     0
  0
ENDTAB
  0
TABLE
  2
LAYER
  5
2
102
{ACAD_XDICTIONARY
360
3
102
}
330
0
100
AcDbSymbolTable
 70
     9
  0
LAYER
  5
1F
102
{ACAD_XDICTIONARY
360
20
102
}
330
2
100
AcDbSymbolTableRecord
100
AcDbLayerTableRecord
  2
0
 70
     0
 62
     7
  6
CONTINUOUS
370
    -3
390
7
  0
LAYER
  5
D4
102
{ACAD_XDICTIONARY
360
D5
102
}
330
2
100
AcDbSymbolTableRecord
100
AcDbLayerTableRecord
  2
1
 70
     0
 62
     9
  6
CONTINUOUS
370
    -3
390
7
  0
LAYER
  5
1
102
{ACAD_XDICTIONARY
360
5
102
}
330
2
100
AcDbSymbolTableRecord
100
AcDbLayerTableRecord
  2
2
 70
     0
 62
     4
  6
CONTINUOUS
370
    -3
390
7
  0
LAYER
  5
CE
102
{ACAD_XDICTIONARY
360
CF
102
}
330
2
100
AcDbSymbolTableRecord
100
AcDbLayerTableRecord
  2
4
 70
     0
 62
     3
  6
CONTINUOUS
370
    -3
390
7
  0
LAYER
  5
59
102
{ACAD_XDICTIONARY
360
5A
102
}
330
2
100
AcDbSymbolTableRecord
100
AcDbLayerTableRecord
  2
L-CENTER
 70
     0
 62
     1
  6
CENTER
370
    -3
390
7
  0
LAYER
  5
61
102
{ACAD_XDICTIONARY
360
62
102
}
330
2
100
AcDbSymbolTableRecord
100
AcDbLayerTableRecord
  2
3
 70
     0
 62
     2
  6
CONTINUOUS
370
    -3
390
7
  0
LAYER
  5
C7
102
{ACAD_XDICTIONARY
360
C8
102
}
330
2
100
AcDbSymbolTableRecord
100
AcDbLayerTableRecord
  2
5
 70
     0
 62
     6
  6
CONTINUOUS
370
    -3
390
7
  0
LAYER
  5
49B
330
2
100
AcDbSymbolTableRecord
100
AcDbLayerTableRecord
  2
Defpoints
 70
     0
 62
     7
  6
CONTINUOUS
290
     0
370
    -3
390
7
  0
ENDTAB
  0
TABLE
  2
STYLE
  5
13
330
0
100
AcDbSymbolTable
 70
     2
  0
STYLE
  5
17
330
13
100
AcDbSymbolTableRecord
100
AcDbTextStyleTableRecord
  2
STANDARD
 70
     0
 40
0.0
 41
1.0
 50
0.0
 71
     0
 42
3.6
  3
TXT
  4

  0
STYLE
  5
12
330
13
100
AcDbSymbolTableRecord
100
AcDbTextStyleTableRecord
  2
KANJI
 70
     0
 40
0.0
 41
1.0
 50
0.0
 71
     0
 42
6.0
  3
TXT
  4
BIGFONT
  0
ENDTAB
  0
TABLE
  2
VIEW
  5
2A
330
0
100
AcDbSymbolTable
 70
     0
  0
ENDTAB
  0
TABLE
  2
UCS
  5
2B
330
0
100
AcDbSymbolTable
 70
     0
  0
ENDTAB
  0
TABLE
  2
APPID
  5
D
330
0
100
AcDbSymbolTable
 70
     5
  0
APPID
  5
C
330
D
100
AcDbSymbolTableRecord
100
AcDbRegAppTableRecord
  2
ACAD
 70
     0
  0
APPID
  5
32
330
D
100
AcDbSymbolTableRecord
100
AcDbRegAppTableRecord
  2
ACAD_NAV_VCDISPLAY
 70
     0
  0
APPID
  5
25
330
D
100
AcDbSymbolTableRecord
100
AcDbRegAppTableRecord
  2
ACAD_PSEXT
 70
     0
  0
APPID
  5
53E
330
D
100
AcDbSymbolTableRecord
100
AcDbRegAppTableRecord
  2
ACAD_MLEADERVER
 70
     0
  0
ENDTAB
  0
TABLE
  2
DIMSTYLE
  5
16
330
0
100
AcDbSymbolTable
 70
     1
100
AcDbDimStyleTable
  0
DIMSTYLE
105
15
330
16
100
AcDbSymbolTableRecord
100
AcDbDimStyleTableRecord
  2
STANDARD
 70
     0
178
     0
340
17
  0
ENDTAB
  0
TABLE
  2
BLOCK_RECORD
  5
1A
330
0
100
AcDbSymbolTable
 70
     0
  0
BLOCK_RECORD
  5
1B
102
{ACAD_XDICTIONARY
360
1C
102
}
330
1A
100
AcDbSymbolTableRecord
100
AcDbBlockTableRecord
  2
*MODEL_SPACE
340
23
  0
BLOCK_RECORD
  5
26
330
1A
100
AcDbSymbolTableRecord
100
AcDbBlockTableRecord
  2
*PAPER_SPACE
340
29
  0
ENDTAB
  0
ENDSEC
  0
SECTION
  2
BLOCKS
  0
BLOCK
  5
1E
330
1B
100
AcDbEntity
  8
0
100
AcDbBlockBegin
  2
*MODEL_SPACE
 70
     0
 10
0.0
 20
0.0
 30
0.0
  3
*MODEL_SPACE
  1

  0
ENDBLK
  5
22
330
1B
100
AcDbEntity
  8
0
100
AcDbBlockEnd
  0
BLOCK
  5
27
330
26
100
AcDbEntity
 67
     1
  8
0
100
AcDbBlockBegin
  2
*PAPER_SPACE
 70
     0
 10
0.0
 20
0.0
 30
0.0
  3
*PAPER_SPACE
  1

  0
ENDBLK
  5
28
330
26
100
AcDbEntity
 67
     1
  8
0
100
AcDbBlockEnd
  0
ENDSEC
  0
SECTION
  2
ENTITIES
  0
LINE
  5
1A2
330
1B
100
AcDbEntity
  8
4
 62
     3
100
AcDbLine
 10
409.7127140424072
 20
437.5826586985484
 30
0.0
 11
409.7127140424072
 21
435.5826586985484
 31
0.0
  0
LINE
  5
1A3
330
1B
100
AcDbEntity
  8
4
 62
     3
100
AcDbLine
 10
360.7127140424072
 20
437.5826586985484
 30
0.0
 11
360.7127140424072
 21
435.5826586985484
 31
0.0
  0
LINE
  5
1A4
330
1B
100
AcDbEntity
  8
4
 62
     3
100
AcDbLine
 10
322.2127140424072
 20
199.2110311451098
 30
0.0
 11
322.2127140424072
 21
202.7719765569535
 31
0.0
  0
ARC
  5
1A5
330
1B
100
AcDbEntity
  8
4
 62
     3
100
AcDbCircle
 10
320.2127140424072
 20
202.7719765569535
 30
0.0
 40
2.0
100
AcDbArc
 50
0.0
 51
105.8689209862303
  0
LINE
  5
1A6
330
1B
100
AcDbEntity
  8
4
 62
     3
100
AcDbLine
 10
575.9410831104059
 20
245.2489772203871
 30
0.0
 11
577.2749049569369
 21
245.1790745794512
 31
0.0
  0
ARC
  5
1A7
330
1B
100
AcDbEntity
  8
4
 62
     3
100
AcDbCircle
 10
575.8887471541628
 20
244.2503476856325
 30
0.0
 40
1.0
100
AcDbArc
 50
87.00000000000742
 51
176.999999999998
  0
LINE
  5
1A8
330
1B
100
AcDbEntity
  8
4
 62
     3
100
AcDbLine
 10
574.842028186312
 20
224.2777599864297
 30
0.0
 11
575.9134890453071
 21
224.221607102221
 31
0.0
  0
ARC
  5
1A9
330
1B
100
AcDbEntity
  8
4
 62
     3
100
AcDbCircle
 10
574.8943641425548
 20
225.2763895211843
 30
0.0
 40
1.0
100
AcDbArc
 50
177.0000000000012
 51
267.0000000000074
  0
LINE
  5
1AA
330
1B
100
AcDbEntity
  8
4
 62
     3
100
AcDbLine
 10
573.8957346078001
 20
225.3287254774272
 30
0.0
 11
574.8901176194082
 21
244.3026836418755
 31
0.0
  0
ARC
  5
1AB
330
1B
100
AcDbEntity
  8
4
 62
     3
100
AcDbCircle
 10
406.7127140424072
 20
242.2110311451098
 30
0.0
 40
3.0
100
AcDbArc
 50
0.0
 51
90.0
  0
LINE
  5
1AC
330
1B
100
AcDbEntity
  8
4
 62
     3
100
AcDbLine
 10
400.7127200424072
 20
241.7110301451098
 30
0.0
 11
401.2127200424072
 21
241.7110301451098
 31
0.0
  0
ARC
  5
1AD
330
1B
100
AcDbEntity
  8
4
 62
     3
100
AcDbCircle
 10
401.2127200424072
 20
236.7110301451098
 30
0.0
 40
5.0
100
AcDbArc
 50
30.52252099999851
 51
90.0
  0
ARC
  5
1AE
330
1B
100
AcDbEntity
  8
4
 62
     3
100
AcDbCircle
 10
377.2127120424072
 20
241.2110321451098
 30
0.0
 40
0.5
100
AcDbArc
 50
90.0
 51
180.0
  0
LINE
  5
1AF
330
1B
100
AcDbEntity
  8
4
 62
     3
100
AcDbLine
 10
387.2127140424072
 20
238.4191311451098
 30
0.0
 11
387.2127140424072
 21
239.2110321451098
 31
0.0
  0
ARC
  5
1B0
330
1B
100
AcDbEntity
  8
4
 62
     3
100
AcDbCircle
 10
384.7127140424072
 20
239.2110321451098
 30
0.0
 40
2.5
100
AcDbArc
 50
0.0
 51
90.0
  0
LINE
  5
1B1
330
1B
100
AcDbEntity
  8
4
 62
     3
100
AcDbLine
 10
377.2127120424072
 20
241.7110321451098
 30
0.0
 11
384.7127140424072
 21
241.7110321451098
 31
0.0
  0
LINE
  5
1B2
330
1B
100
AcDbEntity
  8
4
 62
     3
100
AcDbLine
 10
364.7127360424072
 20
241.7110321451098
 30
0.0
 11
367.2127350424073
 21
241.7110321451098
 31
0.0
  0
ARC
  5
1B3
330
1B
100
AcDbEntity
  8
4
 62
     3
100
AcDbCircle
 10
367.2127350424073
 20
241.2110321451098
 30
0.0
 40
0.5
100
AcDbArc
 50
0.0
 51
90.0
  0
ARC
  5
1B4
330
1B
100
AcDbEntity
  8
4
 62
     3
100
AcDbCircle
 10
406.7127140424072
 20
227.2110341451097
 30
0.0
 40
3.0
100
AcDbArc
 50
270.0
 51
0.0
  0
LINE
  5
1B5
330
1B
100
AcDbEntity
  8
4
 62
     3
100
AcDbLine
 10
403.2231260424071
 20
233.7716901451097
 30
0.0
 11
405.0569000424073
 21
235.6054641451097
 31
0.0
  0
LINE
  5
1B6
330
1B
100
AcDbEntity
  8
4
 62
     3
100
AcDbLine
 10
406.2127200424072
 20
228.2110301451098
 30
0.0
 11
406.2127200424072
 21
230.7110301451098
 31
0.0
  0
LINE
  5
1B7
330
1B
100
AcDbEntity
  8
4
 62
     3
100
AcDbLine
 10
404.2837860424072
 20
231.2110301451098
 30
0.0
 11
405.7127200424072
 21
231.2110301451098
 31
0.0
  0
ARC
  5
1B8
330
1B
100
AcDbEntity
  8
4
 62
     3
100
AcDbCircle
 10
405.7127200424072
 20
230.7110301451098
 30
0.0
 40
0.5
100
AcDbArc
 50
0.0
 51
90.0
  0
ARC
  5
1B9
330
1B
100
AcDbEntity
  8
4
 62
     3
100
AcDbCircle
 10
405.7127200424072
 20
228.2110301451098
 30
0.0
 40
0.5
100
AcDbArc
 50
270.0
 51
0.0
  0
ARC
  5
1BA
330
1B
100
AcDbEntity
  8
4
 62
     3
100
AcDbCircle
 10
404.2837860424072
 20
232.7110301451098
 30
0.0
 40
1.5
100
AcDbArc
 50
135.000006999999
 51
270.0
  0
LINE
  5
1BB
330
1B
100
AcDbEntity
  8
4
 62
     3
100
AcDbLine
 10
393.2127200424072
 20
233.4610321451098
 30
0.0
 11
393.2127200424072
 21
235.9610321451098
 31
0.0
  0
ARC
  5
1BC
330
1B
100
AcDbEntity
  8
4
 62
     3
100
AcDbCircle
 10
397.3414010424074
 20
234.9610321451098
 30
0.0
 40
1.5
100
AcDbArc
 50
315.000006999999
 51
90.0
  0
LINE
  5
1BD
330
1B
100
AcDbEntity
  8
4
 62
     3
100
AcDbLine
 10
395.8591660424072
 20
231.3574761451097
 30
0.0
 11
398.4020610424072
 21
233.9003721451098
 31
0.0
  0
LINE
  5
1BE
330
1B
100
AcDbEntity
  8
4
 62
     3
100
AcDbLine
 10
395.7127200424072
 20
231.0039231451098
 30
0.0
 11
395.7127200424072
 21
228.2110301451098
 31
0.0
  0
ARC
  5
1BF
330
1B
100
AcDbEntity
  8
4
 62
     3
100
AcDbCircle
 10
392.7127200424072
 20
233.4610321451098
 30
0.0
 40
0.5
100
AcDbArc
 50
270.0
 51
0.0
  0
ARC
  5
1C0
330
1B
100
AcDbEntity
  8
4
 62
     3
100
AcDbCircle
 10
396.2127200424072
 20
231.0039231451098
 30
0.0
 40
0.5
100
AcDbArc
 50
135.000006999999
 51
180.0
  0
ARC
  5
1C1
330
1B
100
AcDbEntity
  8
4
 62
     3
100
AcDbCircle
 10
396.2127200424072
 20
228.2110301451098
 30
0.0
 40
0.5
100
AcDbArc
 50
180.0
 51
270.0
  0
LINE
  5
1C2
330
1B
100
AcDbEntity
  8
4
 62
     3
100
AcDbLine
 10
396.2196700424072
 20
236.4610321451098
 30
0.0
 11
397.3414010424074
 21
236.4610321451098
 31
0.0
  0
ARC
  5
1C3
330
1B
100
AcDbEntity
  8
4
 62
     3
100
AcDbCircle
 10
392.7127200424072
 20
235.9610321451098
 30
0.0
 40
0.5
100
AcDbArc
 50
0.0
 51
90.0
  0
ARC
  5
1C4
330
1B
100
AcDbEntity
  8
4
 62
     3
100
AcDbCircle
 10
396.2196700424072
 20
236.9610321451098
 30
0.0
 40
0.5
100
AcDbArc
 50
176.8152309999994
 51
270.0
  0
LINE
  5
1C5
330
1B
100
AcDbEntity
  8
4
 62
     3
100
AcDbLine
 10
389.7127200424072
 20
233.4610321451098
 30
0.0
 11
389.7127200424072
 21
235.9610321451098
 31
0.0
  0
ARC
  5
1C6
330
1B
100
AcDbEntity
  8
4
 62
     3
100
AcDbCircle
 10
390.2127200424072
 20
233.4610321451098
 30
0.0
 40
0.5
100
AcDbArc
 50
180.0
 51
270.0
  0
ARC
  5
1C7
330
1B
100
AcDbEntity
  8
4
 62
     3
100
AcDbCircle
 10
390.2127200424072
 20
235.9610321451098
 30
0.0
 40
0.5
100
AcDbArc
 50
90.0
 51
180.0
  0
LINE
  5
1C8
330
1B
100
AcDbEntity
  8
4
 62
     3
100
AcDbLine
 10
392.7127200424072
 20
232.9610321451098
 30
0.0
 11
390.2127200424072
 21
232.9610321451098
 31
0.0
  0
LINE
  5
1C9
330
1B
100
AcDbEntity
  8
4
 62
     3
100
AcDbLine
 10
392.7127200424072
 20
236.4610321451098
 30
0.0
 11
390.2127200424072
 21
236.4610321451098
 31
0.0
  0
LINE
  5
1CA
330
1B
100
AcDbEntity
  8
4
 62
     3
100
AcDbLine
 10
396.2127200424072
 20
227.7110301451098
 30
0.0
 11
405.7127200424072
 21
227.7110301451098
 31
0.0
  0
ARC
  5
1CB
330
1B
100
AcDbEntity
  8
4
 62
     3
100
AcDbCircle
 10
377.2127120424072
 20
228.2110321451098
 30
0.0
 40
0.5
100
AcDbArc
 50
180.0
 51
270.0
  0
ARC
  5
1CC
330
1B
100
AcDbEntity
  8
4
 62
     3
100
AcDbCircle
 10
386.2127140424072
 20
234.7110321451098
 30
0.0
 40
1.5
100
AcDbArc
 50
112.0243130000021
 51
247.9756869999979
  0
LINE
  5
1CD
330
1B
100
AcDbEntity
  8
4
 62
     3
100
AcDbLine
 10
387.2127140424072
 20
231.0029331451098
 30
0.0
 11
387.2127140424072
 21
230.2110321451098
 31
0.0
  0
ARC
  5
1CE
330
1B
100
AcDbEntity
  8
4
 62
     3
100
AcDbCircle
 10
384.7127140424072
 20
230.2110321451098
 30
0.0
 40
2.5
100
AcDbArc
 50
270.0
 51
0.0
  0
ARC
  5
1CF
330
1B
100
AcDbEntity
  8
4
 62
     3
100
AcDbCircle
 10
384.7127140424072
 20
231.0029331451098
 30
0.0
 40
2.5
100
AcDbArc
 50
0.0
 51
67.97568699999826
  0
LINE
  5
1D0
330
1B
100
AcDbEntity
  8
4
 62
     3
100
AcDbLine
 10
377.2127120424072
 20
227.7110321451098
 30
0.0
 11
384.7127140424072
 21
227.7110321451098
 31
0.0
  0
LINE
  5
1D1
330
1B
100
AcDbEntity
  8
4
 62
     3
100
AcDbLine
 10
364.7127080424073
 20
227.7110311451098
 30
0.0
 11
373.7127080424073
 21
227.7110321451098
 31
0.0
  0
LINE
  5
1D2
330
1B
100
AcDbEntity
  8
4
 62
     3
100
AcDbLine
 10
368.2127100424073
 20
231.2110321451098
 30
0.0
 11
373.7127080424073
 21
231.2110321451098
 31
0.0
  0
LINE
  5
1D3
330
1B
100
AcDbEntity
  8
4
 62
     3
100
AcDbLine
 10
374.2127080424073
 20
228.2110321451098
 30
0.0
 11
374.2127080424073
 21
230.7110321451098
 31
0.0
  0
ARC
  5
1D4
330
1B
100
AcDbEntity
  8
4
 62
     3
100
AcDbCircle
 10
368.2127100424073
 20
231.7110321451098
 30
0.0
 40
0.5
100
AcDbArc
 50
180.0
 51
270.0
  0
ARC
  5
1D5
330
1B
100
AcDbEntity
  8
4
 62
     3
100
AcDbCircle
 10
373.7127080424073
 20
230.7110321451098
 30
0.0
 40
0.5
100
AcDbArc
 50
0.0
 51
90.0
  0
ARC
  5
1D6
330
1B
100
AcDbEntity
  8
4
 62
     3
100
AcDbCircle
 10
373.7127080424073
 20
228.2110321451098
 30
0.0
 40
0.5
100
AcDbArc
 50
270.0
 51
0.0
  0
ARC
  5
1D7
330
1B
100
AcDbEntity
  8
4
 62
     3
100
AcDbCircle
 10
400.7127200424072
 20
236.7110301451098
 30
0.0
 40
5.0
100
AcDbArc
 50
90.0
 51
176.8152310000004
  0
LINE
  5
1D8
330
1B
100
AcDbEntity
  8
4
 62
     3
100
AcDbLine
 10
367.7127080424073
 20
231.7110321451098
 30
0.0
 11
367.7127370424073
 21
241.2110321451098
 31
0.0
  0
LINE
  5
1D9
330
1B
100
AcDbEntity
  8
4
 62
     3
100
AcDbLine
 10
376.7127120424072
 20
228.2110321451098
 30
0.0
 11
376.7127120424072
 21
241.2110321451098
 31
0.0
  0
ARC
  5
1DA
330
1B
100
AcDbEntity
  8
4
 62
     3
100
AcDbCircle
 10
384.7127140424072
 20
238.4191311451098
 30
0.0
 40
2.5
100
AcDbArc
 50
292.0243130000017
 51
0.0
  0
LINE
  5
1DB
330
1B
100
AcDbEntity
  8
4
 62
     3
100
AcDbLine
 10
409.7127140424072
 20
242.2110311451098
 30
0.0
 11
409.7127140424072
 21
227.2110341451097
 31
0.0
  0
ARC
  5
1DC
330
1B
100
AcDbEntity
  8
4
 62
     3
100
AcDbCircle
 10
402.9355790424072
 20
237.7267841451098
 30
0.0
 40
3.0
100
AcDbArc
 50
315.0000070000004
 51
30.52252099999653
  0
ARC
  5
1DD
330
1B
100
AcDbEntity
  8
4
 62
     3
100
AcDbCircle
 10
363.7127140424072
 20
242.2110311451098
 30
0.0
 40
3.0
100
AcDbArc
 50
90.0
 51
180.0
  0
ARC
  5
1DE
330
1B
100
AcDbEntity
  8
4
 62
     3
100
AcDbCircle
 10
363.7127140424072
 20
227.2110341451097
 30
0.0
 40
3.0
100
AcDbArc
 50
180.0
 51
270.0
  0
LINE
  5
1DF
330
1B
100
AcDbEntity
  8
4
 62
     3
100
AcDbLine
 10
360.7127140424072
 20
242.2110311451098
 30
0.0
 11
360.7127140424072
 21
227.2110341451097
 31
0.0
  0
LINE
  5
1E0
330
1B
100
AcDbEntity
  8
4
 62
     3
100
AcDbLine
 10
364.2127090424071
 20
228.2110331451098
 30
0.0
 11
364.2127370424073
 21
241.2110321451098
 31
0.0
  0
LINE
  5
1E1
330
1B
100
AcDbEntity
  8
4
 62
     3
100
AcDbLine
 10
363.7127140424072
 20
224.2110341451097
 30
0.0
 11
406.7127140424072
 21
224.2110341451097
 31
0.0
  0
LINE
  5
1E2
330
1B
100
AcDbEntity
  8
4
 62
     3
100
AcDbLine
 10
363.7127140424072
 20
245.2110311451098
 30
0.0
 11
406.7127140424072
 21
245.2110311451098
 31
0.0
  0
ARC
  5
1E3
330
1B
100
AcDbEntity
  8
4
 62
     3
100
AcDbCircle
 10
364.7127360424072
 20
241.2110321451098
 30
0.0
 40
0.5
100
AcDbArc
 50
90.0
 51
180.0
  0
ARC
  5
1E4
330
1B
100
AcDbEntity
  8
4
 62
     3
100
AcDbCircle
 10
364.7127090424071
 20
228.2110321451098
 30
0.0
 40
0.5
100
AcDbArc
 50
179.9998800030328
 51
269.9998800000139
  0
ARC
  5
1E5
330
1B
100
AcDbEntity
  8
4
 62
     3
100
AcDbCircle
 10
337.7127140424072
 20
199.2110311451098
 30
0.0
 40
15.5
100
AcDbArc
 50
180.0
 51
0.0
  0
LINE
  5
1E6
330
1B
100
AcDbEntity
  8
4
 62
     3
100
AcDbLine
 10
353.2127140424072
 20
199.2110311451098
 30
0.0
 11
353.2127140424072
 21
202.7719765569535
 31
0.0
  0
ARC
  5
1E7
330
1B
100
AcDbEntity
  8
4
 62
     3
100
AcDbCircle
 10
355.2127140424072
 20
202.7719765569535
 30
0.0
 40
2.0
100
AcDbArc
 50
74.1310790137697
 51
180.0
  0
LINE
  5
1F1
330
1B
100
AcDbEntity
  8
4
100
AcDbLine
 10
620.8224585604929
 20
253.7110311451098
 30
0.0
 11
620.8224585604929
 21
255.7110311451098
 31
0.0
  0
LINE
  5
1F2
330
1B
100
AcDbEntity
  8
4
100
AcDbLine
 10
619.1476545604929
 20
255.7110311451098
 30
0.0
 11
619.1476545604929
 21
259.7110311451098
 31
0.0
  0
LINE
  5
1F3
330
1B
100
AcDbEntity
  8
4
100
AcDbLine
 10
595.8224585604929
 20
253.7110311451098
 30
0.0
 11
595.8224585604929
 21
255.7110311451098
 31
0.0
  0
LINE
  5
1F4
330
1B
100
AcDbEntity
  8
4
100
AcDbLine
 10
597.4970185604928
 20
255.7110311451098
 30
0.0
 11
597.4970185604928
 21
259.7110311451098
 31
0.0
  0
LINE
  5
1F5
330
1B
100
AcDbEntity
  8
4
100
AcDbLine
 10
620.8224585604929
 20
253.7110311451098
 30
0.0
 11
595.8224585604929
 21
253.7110311451098
 31
0.0
  0
LINE
  5
1F6
330
1B
100
AcDbEntity
  8
4
100
AcDbLine
 10
620.8224585604929
 20
255.7110311451098
 30
0.0
 11
595.8224585604929
 21
255.7110311451098
 31
0.0
  0
LINE
  5
1F7
330
1B
100
AcDbEntity
  8
4
100
AcDbLine
 10
619.1476545604929
 20
259.7110311451098
 30
0.0
 11
597.4970185604928
 21
259.7110311451098
 31
0.0
  0
LINE
  5
200
330
1B
100
AcDbEntity
  8
4
 62
     3
100
AcDbLine
 10
622.3224585604929
 20
252.2110311451098
 30
0.0
 11
622.3224585604929
 21
251.7955831451098
 31
0.0
  0
ARC
  5
201
330
1B
100
AcDbEntity
  8
4
 62
     3
100
AcDbCircle
 10
623.3224585604929
 20
251.7955831451098
 30
0.0
 40
1.0
100
AcDbArc
 50
180.0
 51
266.8270250000029
  0
ARC
  5
202
330
1B
100
AcDbEntity
  8
4
 62
     3
100
AcDbCircle
 10
637.086766560493
 20
247.6629301451098
 30
0.0
 40
2.0
100
AcDbArc
 50
6.524408999999578
 51
83.83860399999942
  0
LINE
  5
203
330
1B
100
AcDbEntity
  8
4
 62
     3
100
AcDbLine
 10
594.3224585604929
 20
252.2110311451098
 30
0.0
 11
594.3224585604929
 21
251.7955831451098
 31
0.0
  0
ARC
  5
204
330
1B
100
AcDbEntity
  8
4
 62
     3
100
AcDbCircle
 10
593.3224585604929
 20
251.7955831451098
 30
0.0
 40
1.0
100
AcDbArc
 50
273.1729749999971
 51
0.0
  0
LINE
  5
205
330
1B
100
AcDbEntity
  8
4
100
AcDbLine
 10
619.8224585604929
 20
252.2110311451098
 30
0.0
 11
596.8224585604929
 21
252.2110311451098
 31
0.0
  0
LINE
  5
206
330
1B
100
AcDbEntity
  8
4
 62
     3
100
AcDbLine
 10
622.3224585604929
 20
252.2110311451098
 30
0.0
 11
594.3224585604929
 21
252.2110311451098
 31
0.0
  0
ARC
  5
207
330
1B
100
AcDbEntity
  8
4
 62
     3
100
AcDbCircle
 10
641.7763295604929
 20
222.2110311451098
 30
0.0
 40
1.0
100
AcDbArc
 50
181.0571779999997
 51
270.0
  0
LINE
  5
208
330
1B
100
AcDbEntity
  8
4
 62
     3
100
AcDbLine
 10
642.3224585604929
 20
220.2110311451098
 30
0.0
 11
642.3224585604929
 21
220.2110311451098
 31
0.0
  0
LINE
  5
209
330
1B
100
AcDbEntity
  8
4
 62
     3
100
AcDbLine
 10
642.3224585604929
 20
220.7110311451098
 30
0.0
 11
642.3224585604929
 21
220.2110311451098
 31
0.0
  0
LINE
  5
20A
330
1B
100
AcDbEntity
  8
4
 62
     3
100
AcDbLine
 10
641.7763295604929
 20
221.2110311451098
 30
0.0
 11
641.8224585604929
 21
221.2110311451098
 31
0.0
  0
ARC
  5
20B
330
1B
100
AcDbEntity
  8
4
 62
     3
100
AcDbCircle
 10
641.8224585604929
 20
220.7110311451098
 30
0.0
 40
0.5
100
AcDbArc
 50
0.0
 51
90.0
  0
ARC
  5
210
330
1B
100
AcDbEntity
  8
4
 62
     3
100
AcDbCircle
 10
370.8224585604929
 20
217.2110311451098
 30
0.0
 40
270.0
100
AcDbArc
 50
0.9972242662842217
 51
6.524408999999913
  0
LINE
  5
211
330
1B
100
AcDbEntity
  8
4
 62
     3
100
AcDbLine
 10
643.3224585604929
 20
219.2110311451098
 30
0.0
 11
647.3224585604929
 21
219.2110311451098
 31
0.0
  0
LINE
  5
212
330
1B
100
AcDbEntity
  8
4
100
AcDbLine
 10
656.1224585604929
 20
219.2110311451098
 30
0.0
 11
647.3224585604929
 21
219.2110311451098
 31
0.0
  0
ARC
  5
213
330
1B
100
AcDbEntity
  8
4
100
AcDbCircle
 10
656.1224585604929
 20
218.2110311451098
 30
0.0
 40
1.0
100
AcDbArc
 50
0.0
 51
90.0
  0
LINE
  5
214
330
1B
100
AcDbEntity
  8
4
100
AcDbLine
 10
663.4224585604928
 20
208.6808854093143
 30
0.0
 11
657.1224585604929
 21
208.6808854093143
 31
0.0
  0
LINE
  5
215
330
1B
100
AcDbEntity
  8
2
100
AcDbLine
 10
657.1224585604929
 20
204.4308854093143
 30
0.0
 11
658.4224585604928
 21
205.7308854093143
 31
0.0
  0
LINE
  5
216
330
1B
100
AcDbEntity
  8
4
100
AcDbLine
 10
663.4224585604928
 20
200.1808854093143
 30
0.0
 11
657.1224585604929
 21
200.1808854093143
 31
0.0
  0
LINE
  5
217
330
1B
100
AcDbEntity
  8
2
100
AcDbLine
 10
657.1224585604929
 20
202.5924077782294
 30
0.0
 11
658.4224585604928
 21
203.8924077782294
 31
0.0
  0
LINE
  5
218
330
1B
100
AcDbEntity
  8
4
100
AcDbLine
 10
658.4224585604928
 20
200.1808854093143
 30
0.0
 11
658.4224585604928
 21
208.6808854093143
 31
0.0
  0
LINE
  5
219
330
1B
100
AcDbEntity
  8
4
100
AcDbLine
 10
663.4224585604928
 20
200.1808854093143
 30
0.0
 11
663.4224585604928
 21
208.6808854093143
 31
0.0
  0
LINE
  5
21A
330
1B
100
AcDbEntity
  8
L-CENTER
 48
2.0
100
AcDbLine
 10
665.5962300040272
 20
204.4308854093143
 30
0.0
 11
639.5639019007002
 21
204.4308854093143
 31
0.0
  0
ARC
  5
21C
330
1B
100
AcDbEntity
  8
4
 62
     3
100
AcDbCircle
 10
643.3224585604929
 20
220.2110311451098
 30
0.0
 40
1.0
100
AcDbArc
 50
180.0
 51
270.0
  0
ARC
  5
21D
330
1B
100
AcDbEntity
  8
4
 62
     3
100
AcDbCircle
 10
579.5581495604928
 20
247.6629301451098
 30
0.0
 40
2.0
100
AcDbArc
 50
96.16139600000058
 51
173.4755910000004
  0
ARC
  5
21E
330
1B
100
AcDbEntity
  8
4
 62
     3
100
AcDbCircle
 10
574.868587560493
 20
222.2110311451098
 30
0.0
 40
1.0
100
AcDbArc
 50
270.0
 51
358.9428220000003
  0
LINE
  5
21F
330
1B
100
AcDbEntity
  8
4
 62
     3
100
AcDbLine
 10
574.868587560493
 20
221.2110311451098
 30
0.0
 11
574.8224555604928
 21
221.2110311451098
 31
0.0
  0
LINE
  5
220
330
1B
100
AcDbEntity
  8
4
 62
     3
100
AcDbLine
 10
574.3224525604929
 20
220.2110311451098
 30
0.0
 11
574.3224585604929
 21
220.7110311451098
 31
0.0
  0
ARC
  5
221
330
1B
100
AcDbEntity
  8
4
 62
     3
100
AcDbCircle
 10
574.8224555604928
 20
220.7110311451098
 30
0.0
 40
0.5
100
AcDbArc
 50
90.0
 51
180.0
  0
ARC
  5
222
330
1B
100
AcDbEntity
  8
4
 62
     3
100
AcDbCircle
 10
845.8224585604929
 20
217.2110311451098
 30
0.0
 40
270.0
100
AcDbArc
 50
173.4755910000001
 51
178.9428219999999
  0
LINE
  5
224
330
1B
100
AcDbEntity
  8
4
 62
     3
100
AcDbLine
 10
573.3224555604928
 20
219.2110311451098
 30
0.0
 11
568.3224585604929
 21
219.2110311451098
 31
0.0
  0
ARC
  5
225
330
1B
100
AcDbEntity
  8
4
 62
     3
100
AcDbCircle
 10
568.3224585604929
 20
218.2110311451098
 30
0.0
 40
1.0
100
AcDbArc
 50
90.00000299999769
 51
180.0000029575587
  0
ARC
  5
22D
330
1B
100
AcDbEntity
  8
4
 62
     3
100
AcDbCircle
 10
573.3224555604928
 20
220.2110311451098
 30
0.0
 40
1.0
100
AcDbArc
 50
270.0
 51
0.0
  0
ARC
  5
22E
330
1B
100
AcDbEntity
  8
4
 62
     3
100
AcDbCircle
 10
608.3224585604929
 20
-18.78896885489024
 30
0.0
 40
270.0
100
AcDbArc
 50
83.83860399999999
 51
96.16139600000001
  0
LINE
  5
22F
330
1B
100
AcDbEntity
  8
L-CENTER
 48
2.0
100
AcDbLine
 10
571.113739306007
 20
217.2110311451098
 30
0.0
 11
645.5311778149788
 21
217.2110311451098
 31
0.0
  0
CIRCLE
  5
230
330
1B
100
AcDbEntity
  8
4
 62
     3
100
AcDbCircle
 10
608.3224585604929
 20
217.2110311451098
 30
0.0
 40
23.5
  0
LINE
  5
232
330
1B
100
AcDbEntity
  8
4
100
AcDbLine
 10
596.8224585604929
 20
252.2110311451098
 30
0.0
 11
596.8224585604929
 21
253.7110311451098
 31
0.0
  0
LINE
  5
233
330
1B
100
AcDbEntity
  8
4
100
AcDbLine
 10
619.8224585604929
 20
252.2110311451098
 30
0.0
 11
619.8224585604929
 21
253.7110311451098
 31
0.0
  0
ARC
  5
23B
330
1B
100
AcDbEntity
  8
4
 62
     3
100
AcDbCircle
 10
442.2127140424072
 20
527.0826586985484
 30
0.0
 40
3.0
100
AcDbArc
 50
0.0
 51
90.0
  0
ARC
  5
23C
330
1B
100
AcDbEntity
  8
4
 62
     3
100
AcDbCircle
 10
410.1143800424072
 20
527.0826586985484
 30
0.0
 40
3.0
100
AcDbArc
 50
90.0
 51
178.0908479999976
  0
LINE
  5
23D
330
1B
100
AcDbEntity
  8
4
 62
     3
100
AcDbLine
 10
410.1143800424072
 20
530.0826586985484
 30
0.0
 11
442.2127140424072
 21
530.0826586985484
 31
0.0
  0
ARC
  5
23E
330
1B
100
AcDbEntity
  8
4
100
AcDbCircle
 10
414.712714042407
 20
517.8826586985483
 30
0.0
 40
1.0
100
AcDbArc
 50
0.0
 51
90.0
  0
LINE
  5
23F
330
1B
100
AcDbEntity
  8
4
100
AcDbLine
 10
414.9627140424072
 20
525.1826586985483
 30
0.0
 11
414.9627140424072
 21
518.8826586985483
 31
0.0
  0
LINE
  5
240
330
1B
100
AcDbEntity
  8
4
100
AcDbLine
 10
406.4627140424072
 20
525.1826586985483
 30
0.0
 11
406.4627140424072
 21
518.8826586985485
 31
0.0
  0
LINE
  5
241
330
1B
100
AcDbEntity
  8
4
100
AcDbLine
 10
406.4627140424072
 20
520.1826586985485
 30
0.0
 11
414.9627140424072
 21
520.1826586985485
 31
0.0
  0
LINE
  5
242
330
1B
100
AcDbEntity
  8
4
100
AcDbLine
 10
406.4627140424072
 20
525.1826586985483
 30
0.0
 11
414.9627140424072
 21
525.1826586985485
 31
0.0
  0
LINE
  5
243
330
1B
100
AcDbEntity
  8
4
100
AcDbLine
 10
415.7127140424073
 20
509.0826586985483
 30
0.0
 11
415.7127140424073
 21
504.0826586985483
 31
0.0
  0
LINE
  5
244
330
1B
100
AcDbEntity
  8
4
100
AcDbLine
 10
415.7127140424071
 20
517.8826586985483
 30
0.0
 11
415.7127140424071
 21
509.3826586985484
 31
0.0
  0
CIRCLE
  5
245
330
1B
100
AcDbEntity
  8
4
 62
     3
100
AcDbCircle
 10
432.7127140424072
 20
515.0826586985484
 30
0.0
 40
5.5
  0
LINE
  5
246
330
1B
100
AcDbEntity
  8
L-CENTER
 48
2.0
100
AcDbLine
 10
421.7546910424072
 20
515.0826586985484
 30
0.0
 11
443.6707370424073
 21
515.0826586985484
 31
0.0
  0
LINE
  5
247
330
1B
100
AcDbEntity
  8
4
 62
     3
100
AcDbLine
 10
407.1179570431705
 20
527.2399627355067
 30
0.0
 11
407.0493802587525
 21
525.1826586985483
 31
0.0
  0
LINE
  5
248
330
1B
100
AcDbEntity
  8
L-CENTER
 48
2.0
100
AcDbLine
 10
432.7127140424072
 20
504.1246356985484
 30
0.0
 11
432.7127140424072
 21
526.0406816985485
 31
0.0
  0
LINE
  5
249
330
1B
100
AcDbEntity
  8
L-CENTER
 48
2.0
100
AcDbLine
 10
410.7127140424072
 20
526.2927047708074
 30
0.0
 11
410.7127140424072
 21
502.6612393746319
 31
0.0
  0
LINE
  5
251
330
1B
100
AcDbEntity
  8
4
100
AcDbLine
 10
418.7127140424072
 20
493.5826586985484
 30
0.0
 11
417.7127140424072
 21
493.5826586985484
 31
0.0
  0
LINE
  5
254
330
1B
100
AcDbEntity
  8
4
100
AcDbLine
 10
418.7127140424072
 20
446.5826586985484
 30
0.0
 11
417.7127140424072
 21
446.5826586985484
 31
0.0
  0
LINE
  5
255
330
1B
100
AcDbEntity
  8
4
100
AcDbLine
 10
415.7127140424072
 20
436.0826586985484
 30
0.0
 11
415.7127140424072
 21
429.0826586985484
 31
0.0
  0
LINE
  5
257
330
1B
100
AcDbEntity
  8
4
100
AcDbLine
 10
418.7127140424072
 20
446.5826586985484
 30
0.0
 11
418.7127140424072
 21
493.5826586985484
 31
0.0
  0
LINE
  5
25B
330
1B
100
AcDbEntity
  8
4
100
AcDbLine
 10
415.7127140424073
 20
502.5826586985484
 30
0.0
 11
415.7127140424072
 21
437.5826586985484
 31
0.0
  0
LINE
  5
25C
330
1B
100
AcDbEntity
  8
4
100
AcDbLine
 10
417.7127140424072
 20
504.0826586985484
 30
0.0
 11
417.7127140424072
 21
436.0826586985484
 31
0.0
  0
LINE
  5
25D
330
1B
100
AcDbEntity
  8
4
 62
     3
100
AcDbLine
 10
445.2127140424072
 20
527.0826586985484
 30
0.0
 11
445.2127140424072
 21
413.0826586985484
 31
0.0
  0
LINE
  5
25F
330
1B
100
AcDbEntity
  8
4
100
AcDbLine
 10
361.2127140424071
 20
527.9826586985484
 30
0.0
 11
361.2127140424072
 21
526.9826586985482
 31
0.0
  0
ARC
  5
260
330
1B
100
AcDbEntity
  8
4
100
AcDbCircle
 10
366.8808969892407
 20
525.9826586985482
 30
0.0
 40
1.0
100
AcDbArc
 50
10.49147701234047
 51
90.0
  0
ARC
  5
264
330
1B
100
AcDbEntity
  8
4
100
AcDbCircle
 10
308.5445310955735
 20
525.9826586985482
 30
0.0
 40
1.0
100
AcDbArc
 50
90.0
 51
169.5085229876595
  0
LINE
  5
265
330
1B
100
AcDbEntity
  8
4
100
AcDbLine
 10
314.2127140424072
 20
527.9826586985482
 30
0.0
 11
314.2127140424072
 21
526.9826586985482
 31
0.0
  0
LINE
  5
269
330
1B
100
AcDbEntity
  8
4
100
AcDbLine
 10
308.5445310955736
 20
526.9826586985482
 30
0.0
 11
366.8808969892408
 21
526.9826586985482
 31
0.0
  0
LINE
  5
26A
330
1B
100
AcDbEntity
  8
4
100
AcDbLine
 10
314.2127140424072
 20
527.9826586985482
 30
0.0
 11
361.2127140424071
 21
527.9826586985484
 31
0.0
  0
LINE
  5
26C
330
1B
100
AcDbEntity
  8
4
100
AcDbLine
 10
369.9627144097047
 20
519.8212148736197
 30
0.0
 11
369.0899867677141
 21
519.8971042337926
 31
0.0
  0
ARC
  5
26D
330
1B
100
AcDbEntity
  8
4
100
AcDbCircle
 10
370.9021556993962
 20
520.7432979250038
 30
0.0
 40
2.0
100
AcDbArc
 50
190.4914770123277
 51
202.4563817741496
  0
LINE
  5
26E
330
1B
100
AcDbEntity
  8
4
100
AcDbLine
 10
380.7561104230375
 20
518.8826586985483
 30
0.0
 11
378.4627144097047
 21
519.0820844388381
 31
0.0
  0
LINE
  5
26F
330
1B
100
AcDbEntity
  8
4
100
AcDbLine
 10
369.9627144097047
 20
525.1826586985483
 30
0.0
 11
378.4627144097047
 21
525.1826586985485
 31
0.0
  0
LINE
  5
270
330
1B
100
AcDbEntity
  8
4
100
AcDbLine
 10
369.9627144097047
 20
520.1826586985485
 30
0.0
 11
378.4627144097047
 21
520.1826586985485
 31
0.0
  0
LINE
  5
271
330
1B
100
AcDbEntity
  8
4
100
AcDbLine
 10
378.4627144097047
 20
525.1826586985483
 30
0.0
 11
378.4627144097047
 21
518.8826586985485
 31
0.0
  0
ARC
  5
272
330
1B
100
AcDbEntity
  8
4
100
AcDbCircle
 10
370.9021556993964
 20
520.7432979250041
 30
0.0
 40
2.0
100
AcDbArc
 50
190.4914770123277
 51
241.9838354828969
  0
LINE
  5
273
330
1B
100
AcDbEntity
  8
4
100
AcDbLine
 10
369.9627144097047
 20
525.1826586985483
 30
0.0
 11
369.9627144097047
 21
518.8826586985485
 31
0.0
  0
ARC
  5
274
330
1B
100
AcDbEntity
  8
4
100
AcDbCircle
 10
304.5232723854181
 20
520.7432979250041
 30
0.0
 40
2.0
100
AcDbArc
 50
298.0161645171032
 51
349.5085229876723
  0
LINE
  5
275
330
1B
100
AcDbEntity
  8
4
100
AcDbLine
 10
305.4627136751097
 20
525.1826586985483
 30
0.0
 11
305.4627136751097
 21
518.8826586985485
 31
0.0
  0
LINE
  5
276
330
1B
100
AcDbEntity
  8
4
  6
Continuous
 62
     3
100
AcDbLine
 10
294.669317661797
 20
518.8826586985483
 30
0.0
 11
296.9627136751097
 21
519.0820844388363
 31
0.0
  0
LINE
  5
277
330
1B
100
AcDbEntity
  8
4
100
AcDbLine
 10
296.9627136751097
 20
525.1826586985483
 30
0.0
 11
296.9627136751097
 21
518.8826586985485
 31
0.0
  0
LINE
  5
278
330
1B
100
AcDbEntity
  8
4
100
AcDbLine
 10
305.4627136751097
 20
520.1826586985485
 30
0.0
 11
296.9627136751097
 21
520.1826586985485
 31
0.0
  0
LINE
  5
279
330
1B
100
AcDbEntity
  8
4
100
AcDbLine
 10
305.4627136751097
 20
525.1826586985483
 30
0.0
 11
296.9627136751097
 21
525.1826586985485
 31
0.0
  0
LINE
  5
27A
330
1B
100
AcDbEntity
  8
L-CENTER
 48
2.0
100
AcDbLine
 10
301.2127136751097
 20
526.2927047708074
 30
0.0
 11
301.2127136751097
 21
502.6612393746319
 31
0.0
  0
LINE
  5
27B
330
1B
100
AcDbEntity
  8
4
100
AcDbLine
 10
306.4898363953871
 20
520.3791194046394
 30
0.0
 11
307.5612490905891
 21
526.1647479587305
 31
0.0
  0
LINE
  5
27C
330
1B
100
AcDbEntity
  8
4
100
AcDbLine
 10
368.9355916894273
 20
520.3791194046394
 30
0.0
 11
367.8641789942253
 21
526.1647479587305
 31
0.0
  0
LINE
  5
27D
330
1B
100
AcDbEntity
  8
L-CENTER
 48
2.0
100
AcDbLine
 10
374.2127144097047
 20
526.2927047708074
 30
0.0
 11
374.2127144097047
 21
502.6612393746319
 31
0.0
  0
ARC
  5
27E
330
1B
100
AcDbEntity
  8
4
 62
     3
100
AcDbCircle
 10
265.3110480424073
 20
527.0826586985484
 30
0.0
 40
3.0
100
AcDbArc
 50
1.909152000002403
 51
90.0
  0
ARC
  5
27F
330
1B
100
AcDbEntity
  8
4
 62
     3
100
AcDbCircle
 10
233.2127140424072
 20
527.0826586985484
 30
0.0
 40
3.0
100
AcDbArc
 50
90.0
 51
180.0
  0
LINE
  5
280
330
1B
100
AcDbEntity
  8
4
 62
     3
100
AcDbLine
 10
233.2127140424072
 20
530.0826586985484
 30
0.0
 11
265.3110480424073
 21
530.0826586985484
 31
0.0
  0
ARC
  5
281
330
1B
100
AcDbEntity
  8
4
100
AcDbCircle
 10
260.712714042407
 20
517.8826586985483
 30
0.0
 40
1.0
100
AcDbArc
 50
90.0
 51
180.0
  0
LINE
  5
282
330
1B
100
AcDbEntity
  8
4
100
AcDbLine
 10
273.7127140424072
 20
519.8826586985483
 30
0.0
 11
273.7127140424072
 21
518.8826586985483
 31
0.0
  0
LINE
  5
283
330
1B
100
AcDbEntity
  8
4
100
AcDbLine
 10
268.9627140424072
 20
525.1826586985483
 30
0.0
 11
260.4627140424072
 21
525.1826586985485
 31
0.0
  0
LINE
  5
284
330
1B
100
AcDbEntity
  8
4
100
AcDbLine
 10
268.9627140424072
 20
520.1826586985485
 30
0.0
 11
260.4627140424072
 21
520.1826586985485
 31
0.0
  0
LINE
  5
285
330
1B
100
AcDbEntity
  8
4
100
AcDbLine
 10
268.9627140424072
 20
525.1826586985483
 30
0.0
 11
268.9627140424072
 21
518.8826586985485
 31
0.0
  0
LINE
  5
286
330
1B
100
AcDbEntity
  8
4
100
AcDbLine
 10
260.4627140424072
 20
525.1826586985483
 30
0.0
 11
260.4627140424072
 21
518.8826586985483
 31
0.0
  0
LINE
  5
287
330
1B
100
AcDbEntity
  8
L-CENTER
 48
2.0
100
AcDbLine
 10
231.7546910424072
 20
515.0826586985484
 30
0.0
 11
253.6707370424073
 21
515.0826586985484
 31
0.0
  0
LINE
  5
288
330
1B
100
AcDbEntity
  8
4
100
AcDbLine
 10
259.7127140424072
 20
509.0826586985484
 30
0.0
 11
259.7127140424072
 21
504.0826586985485
 31
0.0
  0
CIRCLE
  5
289
330
1B
100
AcDbEntity
  8
4
 62
     3
100
AcDbCircle
 10
242.7127140424072
 20
515.0826586985484
 30
0.0
 40
5.5
  0
LINE
  5
28A
330
1B
100
AcDbEntity
  8
4
100
AcDbLine
 10
259.7127140424071
 20
517.8826586985483
 30
0.0
 11
259.7127140424071
 21
509.3826586985484
 31
0.0
  0
LINE
  5
28B
330
1B
100
AcDbEntity
  8
L-CENTER
 48
2.0
100
AcDbLine
 10
242.7127140424072
 20
504.1246356985484
 30
0.0
 11
242.7127140424072
 21
526.0406816985485
 31
0.0
  0
LINE
  5
28C
330
1B
100
AcDbEntity
  8
L-CENTER
 48
2.0
100
AcDbLine
 10
264.7127140424072
 20
526.2927047708074
 30
0.0
 11
264.7127140424072
 21
502.6612393746319
 31
0.0
  0
LINE
  5
28D
330
1B
100
AcDbEntity
  8
4
 62
     3
100
AcDbLine
 10
268.3093830265145
 20
527.1826031753344
 30
0.0
 11
268.3760478260621
 21
525.1826586985485
 31
0.0
  0
LINE
  5
28E
330
1B
100
AcDbEntity
  8
4
100
AcDbLine
 10
273.7127140424072
 20
519.8826586985483
 30
0.0
 11
296.9627136751097
 21
519.8826586985483
 31
0.0
  0
LWPOLYLINE
  5
28F
330
1B
100
AcDbEntity
  8
4
100
AcDbPolyline
 90
        6
 70
     1
 43
0.0
 10
315.2127140424072
 20
470.0826586985484
 10
308.9627140424072
 20
480.9079762458539
 10
296.4627140424072
 20
480.9079762458539
 10
290.2127140424072
 20
470.0826586985484
 10
296.4627140424072
 20
459.2573411512429
 10
308.9627140424072
 20
459.2573411512429
  0
CIRCLE
  5
290
330
1B
100
AcDbEntity
  8
4
100
AcDbCircle
 10
302.7127140424072
 20
470.0826586985484
 30
0.0
 40
12.5
  0
CIRCLE
  5
291
330
1B
100
AcDbEntity
  8
4
100
AcDbCircle
 10
302.7127140424072
 20
470.0826586985484
 30
0.0
 40
14.0
  0
LINE
  5
292
330
1B
100
AcDbEntity
  8
L-CENTER
 48
2.0
100
AcDbLine
 10
302.7127140424072
 20
487.948152247838
 30
0.0
 11
302.7127140424072
 21
452.2171651492588
 31
0.0
  0
LINE
  5
293
330
1B
100
AcDbEntity
  8
4
100
AcDbLine
 10
256.7130180424073
 20
485.0826586985484
 30
0.0
 11
255.7127140424072
 21
485.0826586985484
 31
0.0
  0
LINE
  5
294
330
1B
100
AcDbEntity
  8
4
100
AcDbLine
 10
254.2127140424072
 20
481.5826586985484
 30
0.0
 11
255.7127140424072
 21
481.5826586985484
 31
0.0
  0
LINE
  5
295
330
1B
100
AcDbEntity
  8
4
100
AcDbLine
 10
252.2127140424072
 20
482.5826586985484
 30
0.0
 11
254.2127140424072
 21
482.5826586985484
 31
0.0
  0
LINE
  5
296
330
1B
100
AcDbEntity
  8
4
100
AcDbLine
 10
257.7130180424073
 20
493.5826586985484
 30
0.0
 11
256.7130180424073
 21
493.5826586985484
 31
0.0
  0
LWPOLYLINE
  5
297
330
1B
100
AcDbEntity
  8
4
100
AcDbPolyline
 90
        2
 70
     0
 43
0.0
 10
252.2127140424072
 20
480.9079762458539
 10
247.2127140424072
 20
480.9079762458539
  0
LINE
  5
298
330
1B
100
AcDbEntity
  8
4
100
AcDbLine
 10
256.7130180424073
 20
446.5826586985484
 30
0.0
 11
257.7130180424073
 21
446.5826586985484
 31
0.0
  0
LINE
  5
299
330
1B
100
AcDbEntity
  8
4
100
AcDbLine
 10
256.7130180424073
 20
455.0826586985484
 30
0.0
 11
255.7127140424072
 21
455.0826586985484
 31
0.0
  0
LINE
  5
29A
330
1B
100
AcDbEntity
  8
4
100
AcDbLine
 10
254.2127140424072
 20
458.5826586985484
 30
0.0
 11
255.7127140424072
 21
458.5826586985484
 31
0.0
  0
LINE
  5
29B
330
1B
100
AcDbEntity
  8
4
100
AcDbLine
 10
252.2127140424072
 20
457.5826586985484
 30
0.0
 11
254.2127140424072
 21
457.5826586985484
 31
0.0
  0
LWPOLYLINE
  5
29C
330
1B
100
AcDbEntity
  8
4
100
AcDbPolyline
 90
        2
 70
     0
 43
0.0
 10
247.2127140424072
 20
459.2573411512429
 10
252.2127140424072
 20
459.2573411512429
  0
LINE
  5
29D
330
1B
100
AcDbEntity
  8
4
100
AcDbLine
 10
259.7127140424072
 20
436.0826586985484
 30
0.0
 11
259.7127140424072
 21
429.0826586985484
 31
0.0
  0
LINE
  5
29E
330
1B
100
AcDbEntity
  8
4
100
AcDbLine
 10
254.2127140424072
 20
457.5826586985484
 30
0.0
 11
254.2127140424072
 21
460.0826586985484
 31
0.0
  0
LINE
  5
29F
330
1B
100
AcDbEntity
  8
4
100
AcDbLine
 10
252.2127140424072
 20
457.5826586985484
 30
0.0
 11
252.2127140424072
 21
460.0826586985484
 31
0.0
  0
LINE
  5
2A0
330
1B
100
AcDbEntity
  8
4
100
AcDbLine
 10
255.7127140424072
 20
455.0826586985484
 30
0.0
 11
255.7127140424072
 21
460.0826586985484
 31
0.0
  0
LINE
  5
2A1
330
1B
100
AcDbEntity
  8
4
100
AcDbLine
 10
247.2127140424072
 20
459.2573411512429
 30
0.0
 11
247.2127140424072
 21
460.0826586985484
 31
0.0
  0
LINE
  5
2A2
330
1B
100
AcDbEntity
  8
4
100
AcDbLine
 10
256.7130180424073
 20
493.5826586985484
 30
0.0
 11
256.7130180424073
 21
446.5826586985484
 31
0.0
  0
LINE
  5
2A3
330
1B
100
AcDbEntity
  8
4
100
AcDbLine
 10
259.7127140424072
 20
502.5826586985484
 30
0.0
 11
259.7127140424072
 21
437.5826586985484
 31
0.0
  0
LINE
  5
2A4
330
1B
100
AcDbEntity
  8
4
100
AcDbLine
 10
257.7127140424072
 20
504.0826586985485
 30
0.0
 11
257.7127140424072
 21
436.0826586985484
 31
0.0
  0
LINE
  5
2A5
330
1B
100
AcDbEntity
  8
4
100
AcDbLine
 10
259.7127140424071
 20
509.3826586985484
 30
0.0
 11
415.7127140424071
 21
509.3826586985484
 31
0.0
  0
LINE
  5
2A6
330
1B
100
AcDbEntity
  8
4
 62
     3
100
AcDbLine
 10
360.7127140424072
 20
436.0826586985484
 30
0.0
 11
257.7127140424072
 21
436.0826586985484
 31
0.0
  0
LINE
  5
2A7
330
1B
100
AcDbEntity
  8
4
 62
     3
100
AcDbLine
 10
417.7127140424072
 20
436.0826586985484
 30
0.0
 11
409.7127140424072
 21
436.0826586985484
 31
0.0
  0
LINE
  5
2A8
330
1B
100
AcDbEntity
  8
4
 62
     3
100
AcDbLine
 10
415.7127140424073
 20
509.0826586985483
 30
0.0
 11
259.7127140424072
 21
509.0826586985484
 31
0.0
  0
LINE
  5
2A9
330
1B
100
AcDbEntity
  8
4
 62
     3
100
AcDbLine
 10
417.7127140424072
 20
504.0826586985484
 30
0.0
 11
257.7127140424072
 21
504.0826586985485
 31
0.0
  0
LINE
  5
2AA
330
1B
100
AcDbEntity
  8
4
 62
     3
100
AcDbLine
 10
409.7127140424072
 20
435.5826586985484
 30
0.0
 11
360.7127140424072
 21
435.5826586985484
 31
0.0
  0
LINE
  5
2AB
330
1B
100
AcDbEntity
  8
4
 62
     3
100
AcDbLine
 10
417.7127140424072
 20
437.5826586985484
 30
0.0
 11
257.7127140424072
 21
437.5826586985484
 31
0.0
  0
LINE
  5
2AC
330
1B
100
AcDbEntity
  8
4
 62
     3
100
AcDbLine
 10
415.7127140424072
 20
429.0826586985484
 30
0.0
 11
259.7127140424072
 21
429.0826586985484
 31
0.0
  0
LINE
  5
2AD
330
1B
100
AcDbEntity
  8
4
 62
     3
100
AcDbLine
 10
417.7127140424072
 20
502.5826586985484
 30
0.0
 11
257.7127140424072
 21
502.5826586985484
 31
0.0
  0
LINE
  5
2AE
330
1B
100
AcDbEntity
  8
L-CENTER
 48
2.0
100
AcDbLine
 10
449.529143003199
 20
470.0826586985484
 30
0.0
 11
205.0200514077732
 21
470.0826586985484
 31
0.0
  0
LINE
  5
2AF
330
1B
100
AcDbEntity
  8
4
100
AcDbLine
 10
260.4627140424072
 20
518.8826586985483
 30
0.0
 11
414.9627140424072
 21
518.8826586985483
 31
0.0
  0
ARC
  5
2B4
330
1B
100
AcDbEntity
  8
4
 62
     3
100
AcDbCircle
 10
442.2127140424072
 20
413.0826586985484
 30
0.0
 40
3.0
100
AcDbArc
 50
270.0
 51
0.0
  0
ARC
  5
2B5
330
1B
100
AcDbEntity
  8
4
 62
     3
100
AcDbCircle
 10
410.1143800424072
 20
413.0826586985484
 30
0.0
 40
3.0
100
AcDbArc
 50
181.9091520000001
 51
270.0
  0
LINE
  5
2B6
330
1B
100
AcDbEntity
  8
4
 62
     3
100
AcDbLine
 10
410.1143800424072
 20
410.0826586985484
 30
0.0
 11
442.2127140424072
 21
410.0826586985484
 31
0.0
  0
LINE
  5
2B7
330
1B
100
AcDbEntity
  8
L-CENTER
 48
2.0
100
AcDbLine
 10
421.7688050424072
 20
425.0826586985484
 30
0.0
 11
443.6707370424073
 21
425.0826586985484
 31
0.0
  0
ARC
  5
2B8
330
1B
100
AcDbEntity
  8
4
 62
     3
100
AcDbCircle
 10
366.8655870424072
 20
416.0826586985484
 30
0.0
 40
1.0
100
AcDbArc
 50
270.0
 51
350.5376779999999
  0
LINE
  5
2B9
330
1B
100
AcDbEntity
  8
4
100
AcDbLine
 10
362.2127140424072
 20
424.0826586985484
 30
0.0
 11
362.2127140424072
 21
427.7346586985483
 31
0.0
  0
ARC
  5
2BA
330
1B
100
AcDbEntity
  8
4
 62
     3
100
AcDbCircle
 10
370.9512130424073
 20
422.3481246985485
 30
0.0
 40
2.0
100
AcDbArc
 50
99.59313400000079
 51
170.5376779999999
  0
LINE
  5
2BB
330
1B
100
AcDbEntity
  8
4
 62
     3
100
AcDbLine
 10
367.8519810424073
 20
415.9182596985484
 30
0.0
 11
368.9784250424073
 21
422.6769226985485
 31
0.0
  0
ARC
  5
2BC
330
1B
100
AcDbEntity
  8
4
 62
     3
100
AcDbCircle
 10
308.5598410424072
 20
416.0826586985484
 30
0.0
 40
1.0
100
AcDbArc
 50
189.4623220000001
 51
270.0
  0
ARC
  5
2BD
330
1B
100
AcDbEntity
  8
4
 62
     3
100
AcDbCircle
 10
304.4742150424072
 20
422.3481246985485
 30
0.0
 40
2.0
100
AcDbArc
 50
9.46232200000015
 51
80.40686600000083
  0
LINE
  5
2BE
330
1B
100
AcDbEntity
  8
4
 62
     3
100
AcDbLine
 10
307.5734470424072
 20
415.9182596985484
 30
0.0
 11
306.4470030424072
 21
422.6769226985485
 31
0.0
  0
LINE
  5
2BF
330
1B
100
AcDbEntity
  8
4
100
AcDbLine
 10
313.2127140424072
 20
424.0826586985484
 30
0.0
 11
313.2127140424072
 21
427.7346586985483
 31
0.0
  0
LINE
  5
2C0
330
1B
100
AcDbEntity
  8
4
 62
     3
100
AcDbLine
 10
313.2127140424072
 20
427.7346586985483
 30
0.0
 11
362.2127140424072
 21
427.7346586985486
 31
0.0
  0
LINE
  5
2C1
330
1B
100
AcDbEntity
  8
4
 62
     3
100
AcDbLine
 10
306.2127140424072
 20
424.0826586985484
 30
0.0
 11
369.2127140424072
 21
424.0826586985484
 31
0.0
  0
LINE
  5
2C2
330
1B
100
AcDbEntity
  8
4
 62
     3
100
AcDbLine
 10
366.8655870424072
 20
415.0826586985484
 30
0.0
 11
308.5598410424072
 21
415.0826586985484
 31
0.0
  0
LINE
  5
2C3
330
1B
100
AcDbEntity
  8
L-CENTER
 48
2.0
100
AcDbLine
 10
231.7546910424072
 20
425.0826586985484
 30
0.0
 11
253.6707370424073
 21
425.0826586985484
 31
0.0
  0
LINE
  5
2C4
330
1B
100
AcDbEntity
  8
4
 62
     3
100
AcDbLine
 10
233.2127140424072
 20
410.0826586985484
 30
0.0
 11
265.3110480424073
 21
410.0826586985484
 31
0.0
  0
ARC
  5
2C5
330
1B
100
AcDbEntity
  8
4
 62
     3
100
AcDbCircle
 10
233.2127140424072
 20
413.0826586985484
 30
0.0
 40
3.0
100
AcDbArc
 50
180.0
 51
270.0
  0
ARC
  5
2C6
330
1B
100
AcDbEntity
  8
4
 62
     3
100
AcDbCircle
 10
265.3110480424073
 20
413.0826586985484
 30
0.0
 40
3.0
100
AcDbArc
 50
270.0
 51
358.0908479999999
  0
LINE
  5
2D4
330
1B
100
AcDbEntity
  8
4
 62
     3
100
AcDbLine
 10
416.6492060424073
 20
249.7110311451098
 30
0.0
 11
417.7127140424072
 21
249.7110311451098
 31
0.0
  0
ARC
  5
2D5
330
1B
100
AcDbEntity
  8
4
 62
     3
100
AcDbCircle
 10
416.6492060424073
 20
250.7110311451098
 30
0.0
 40
1.0
100
AcDbArc
 50
194.4775120000017
 51
270.0
  0
LINE
  5
2D6
330
1B
100
AcDbEntity
  8
4
100
AcDbLine
 10
418.7127140424072
 20
240.7110311451098
 30
0.0
 11
417.7127140424072
 21
240.7110311451098
 31
0.0
  0
ARC
  5
2D7
330
1B
100
AcDbEntity
  8
4
 62
     3
100
AcDbCircle
 10
414.7127140424072
 20
250.2110311451098
 30
0.0
 40
1.0
100
AcDbArc
 50
0.0
 51
90.0
  0
ARC
  5
2D9
330
1B
100
AcDbEntity
  8
4
 62
     3
100
AcDbCircle
 10
416.7127140424072
 20
228.2110311451098
 30
0.0
 40
1.0
100
AcDbArc
 50
180.0
 51
270.0
  0
LINE
  5
2DA
330
1B
100
AcDbEntity
  8
4
 62
     3
100
AcDbLine
 10
415.7127140424072
 20
228.2110311451098
 30
0.0
 11
415.7127140424072
 21
250.2110311451098
 31
0.0
  0
ARC
  5
2DF
330
1B
100
AcDbEntity
  8
4
 62
     3
100
AcDbCircle
 10
416.7127140424072
 20
206.2110311451098
 30
0.0
 40
1.0
100
AcDbArc
 50
90.0
 51
180.0
  0
ARC
  5
2E0
330
1B
100
AcDbEntity
  8
4
 62
     3
100
AcDbCircle
 10
405.8675480424072
 20
209.3658651451097
 30
0.0
 40
3.0
100
AcDbArc
 50
14.78908400000021
 51
75.21091599999983
  0
LINE
  5
2E1
330
1B
100
AcDbEntity
  8
4
100
AcDbLine
 10
418.7127140424072
 20
193.7110311451098
 30
0.0
 11
417.7127140424072
 21
193.7110311451098
 31
0.0
  0
LINE
  5
2E3
330
1B
100
AcDbEntity
  8
4
100
AcDbLine
 10
418.7127140424072
 20
193.7110311451098
 30
0.0
 11
418.7127140424072
 21
240.7110311451098
 31
0.0
  0
LINE
  5
2F1
330
1B
100
AcDbEntity
  8
4
100
AcDbLine
 10
315.2127140424072
 20
253.7110311451098
 30
0.0
 11
315.2127140424072
 21
259.7110311451098
 31
0.0
  0
LINE
  5
2F2
330
1B
100
AcDbEntity
  8
4
100
AcDbLine
 10
308.9627140424072
 20
255.7110311451098
 30
0.0
 11
308.9627140424072
 21
259.7110311451098
 31
0.0
  0
LINE
  5
2F3
330
1B
100
AcDbEntity
  8
4
100
AcDbLine
 10
290.2127140424072
 20
253.7110311451098
 30
0.0
 11
290.2127140424072
 21
259.7110311451098
 31
0.0
  0
LINE
  5
2F4
330
1B
100
AcDbEntity
  8
4
100
AcDbLine
 10
296.4627140424072
 20
255.7110311451098
 30
0.0
 11
296.4627140424072
 21
259.7110311451098
 31
0.0
  0
LINE
  5
2F5
330
1B
100
AcDbEntity
  8
4
100
AcDbLine
 10
290.2127140424072
 20
253.7110311451098
 30
0.0
 11
315.2127140424072
 21
253.7110311451098
 31
0.0
  0
LINE
  5
2F6
330
1B
100
AcDbEntity
  8
4
100
AcDbLine
 10
290.2127140424072
 20
255.7110311451098
 30
0.0
 11
315.2127140424072
 21
255.7110311451098
 31
0.0
  0
LINE
  5
2F7
330
1B
100
AcDbEntity
  8
4
100
AcDbLine
 10
290.2127140424072
 20
259.7110311451098
 30
0.0
 11
315.2127140424072
 21
259.7110311451098
 31
0.0
  0
LINE
  5
2FD
330
1B
100
AcDbEntity
  8
4
 62
     3
100
AcDbLine
 10
316.7127140424072
 20
252.2110311451098
 30
0.0
 11
316.7127140424072
 21
252.1110311451097
 31
0.0
  0
ARC
  5
2FE
330
1B
100
AcDbEntity
  8
4
 62
     3
100
AcDbCircle
 10
317.6127140424073
 20
252.1110311451097
 30
0.0
 40
0.9
100
AcDbArc
 50
180.0
 51
270.0
  0
LINE
  5
2FF
330
1B
100
AcDbEntity
  8
4
 62
     3
100
AcDbLine
 10
288.7127140424072
 20
252.2110311451098
 30
0.0
 11
288.7127140424072
 21
252.1110311451097
 31
0.0
  0
LINE
  5
300
330
1B
100
AcDbEntity
  8
4
100
AcDbLine
 10
288.7127140424072
 20
252.2110311451098
 30
0.0
 11
288.7127140424072
 21
252.2010311451098
 31
0.0
  0
ARC
  5
301
330
1B
100
AcDbEntity
  8
4
 62
     3
100
AcDbCircle
 10
287.8127140424072
 20
252.1110311451097
 30
0.0
 40
0.9
100
AcDbArc
 50
270.0
 51
0.0
  0
LINE
  5
302
330
1B
100
AcDbEntity
  8
4
 62
     3
100
AcDbLine
 10
316.7127140424072
 20
252.2110311451098
 30
0.0
 11
288.7127140424072
 21
252.2110311451098
 31
0.0
  0
LINE
  5
303
330
1B
100
AcDbEntity
  8
4
100
AcDbLine
 10
291.2127140424072
 20
252.2110311451098
 30
0.0
 11
314.2127140424072
 21
252.2110311451098
 31
0.0
  0
ARC
  5
304
330
1B
100
AcDbEntity
  8
4
 62
     3
100
AcDbCircle
 10
260.7127140424072
 20
250.2110311451098
 30
0.0
 40
1.0
100
AcDbArc
 50
90.0
 51
180.0
  0
ARC
  5
305
330
1B
100
AcDbEntity
  8
4
 62
     3
100
AcDbCircle
 10
260.7127140424072
 20
250.2110311451098
 30
0.0
 40
1.0
100
AcDbArc
 50
90.0
 51
165.5224879999983
  0
ARC
  5
306
330
1B
100
AcDbEntity
  8
4
 62
     3
100
AcDbCircle
 10
258.7762220424072
 20
250.7110311451098
 30
0.0
 40
1.0
100
AcDbArc
 50
270.0
 51
345.5224879999983
  0
LINE
  5
307
330
1B
100
AcDbEntity
  8
4
 62
     3
100
AcDbLine
 10
258.7762220424072
 20
249.7110311451098
 30
0.0
 11
257.7127140424072
 21
249.7110311451098
 31
0.0
  0
LINE
  5
308
330
1B
100
AcDbEntity
  8
4
 62
     3
100
AcDbLine
 10
258.7762220424072
 20
249.7110311451098
 30
0.0
 11
257.7127140424072
 21
249.7110311451098
 31
0.0
  0
ARC
  5
309
330
1B
100
AcDbEntity
  8
4
 62
     3
100
AcDbCircle
 10
258.7762220424072
 20
250.7110311451098
 30
0.0
 40
1.0
100
AcDbArc
 50
270.0
 51
345.5224879999983
  0
LINE
  5
30A
330
1B
100
AcDbEntity
  8
4
100
AcDbLine
 10
257.7130180424073
 20
240.7110311451098
 30
0.0
 11
256.7130180424073
 21
240.7110311451098
 31
0.0
  0
ARC
  5
30B
330
1B
100
AcDbEntity
  8
4
 62
     3
100
AcDbCircle
 10
258.7127140424072
 20
228.2110311451098
 30
0.0
 40
1.0
100
AcDbArc
 50
270.0
 51
0.0
  0
LINE
  5
30C
330
1B
100
AcDbEntity
  8
4
 62
     3
100
AcDbLine
 10
259.7127140424072
 20
228.2110311451098
 30
0.0
 11
259.7127140424072
 21
250.2110311451098
 31
0.0
  0
ARC
  5
30D
330
1B
100
AcDbEntity
  8
4
 62
     3
100
AcDbCircle
 10
258.7127140424072
 20
206.2110311451098
 30
0.0
 40
1.0
100
AcDbArc
 50
0.0
 51
90.0
  0
ARC
  5
30E
330
1B
100
AcDbEntity
  8
4
 62
     3
100
AcDbCircle
 10
269.5578800424073
 20
209.3658651451097
 30
0.0
 40
3.0
100
AcDbArc
 50
104.7890840000002
 51
165.2109159999998
  0
LINE
  5
30F
330
1B
100
AcDbEntity
  8
4
100
AcDbLine
 10
256.7130180424073
 20
193.7110311451098
 30
0.0
 11
257.7130180424073
 21
193.7110311451098
 31
0.0
  0
LINE
  5
310
330
1B
100
AcDbEntity
  8
4
100
AcDbLine
 10
256.7130180424073
 20
240.7110311451098
 30
0.0
 11
256.7130180424073
 21
193.7110311451098
 31
0.0
  0
ARC
  5
311
330
1B
100
AcDbEntity
  8
4
 62
     3
100
AcDbCircle
 10
337.7127140424072
 20
-48.78896885489024
 30
0.0
 40
270.0
100
AcDbArc
 50
90.0
 51
104.789084
  0
LINE
  5
313
330
1B
100
AcDbEntity
  8
L-CENTER
 48
2.0
100
AcDbLine
 10
302.7127140424072
 20
244.5845391451098
 30
0.0
 11
302.7127140424072
 21
264.5731811540678
 31
0.0
  0
LINE
  5
314
330
1B
100
AcDbEntity
  8
4
100
AcDbLine
 10
291.2127140424072
 20
252.2110311451098
 30
0.0
 11
291.2127140424072
 21
253.7110311451098
 31
0.0
  0
LINE
  5
315
330
1B
100
AcDbEntity
  8
4
100
AcDbLine
 10
314.2127140424072
 20
252.2110311451098
 30
0.0
 11
314.2127140424072
 21
253.7110311451098
 31
0.0
  0
LINE
  5
316
330
1B
100
AcDbEntity
  8
L-CENTER
 48
2.0
100
AcDbLine
 10
422.2295877916515
 20
217.2110311451096
 30
0.0
 11
204.127949809257
 21
217.2110311451099
 31
0.0
  0
ARC
  5
319
330
1B
100
AcDbEntity
  8
4
 62
     3
100
AcDbCircle
 10
337.7127140424072
 20
-48.78896885489024
 30
0.0
 40
270.0
100
AcDbArc
 50
75.210916
 51
90.0
  0
LINE
  5
31A
330
1B
100
AcDbEntity
  8
4
 62
     3
100
AcDbLine
 10
260.7127140424072
 20
251.2110311451099
 30
0.0
 11
414.7127140424072
 21
251.2110311451098
 31
0.0
  0
LINE
  5
31B
330
1B
100
AcDbEntity
  8
L-CENTER
 48
2.0
100
AcDbLine
 10
242.7127140424072
 20
436.0406816985484
 30
0.0
 11
242.7127140424072
 21
414.1246356985484
 31
0.0
  0
LINE
  5
31C
330
1B
100
AcDbEntity
  8
4
 62
     3
100
AcDbLine
 10
230.2127140424072
 20
527.0826586985484
 30
0.0
 11
230.2127140424072
 21
479.0826586985484
 31
0.0
  0
CIRCLE
  5
31D
330
1B
100
AcDbEntity
  8
4
 62
     3
100
AcDbCircle
 10
242.7127140424072
 20
425.0826586985484
 30
0.0
 40
5.5
  0
LINE
  5
31F
330
1B
100
AcDbEntity
  8
L-CENTER
 48
2.0
100
AcDbLine
 10
432.7127140424072
 20
414.1246356985484
 30
0.0
 11
432.7127140424072
 21
436.0406816985484
 31
0.0
  0
LINE
  5
320
330
1B
100
AcDbEntity
  8
L-CENTER
 48
2.0
100
AcDbLine
 10
337.7127140424072
 20
531.1429327091153
 30
0.0
 11
337.7127140424072
 21
357.061267006694
 31
0.0
  0
LINE
  5
321
330
1B
100
AcDbEntity
  8
4
 62
     3
100
AcDbLine
 10
398.7960470424073
 20
429.0826586985484
 30
0.0
 11
370.6179110424073
 21
424.3201566985484
 31
0.0
  0
LINE
  5
322
330
1B
100
AcDbEntity
  8
4
 62
     3
100
AcDbLine
 10
276.6293810424072
 20
429.0826586985484
 30
0.0
 11
304.8075170424072
 21
424.3201566985484
 31
0.0
  0
LINE
  5
323
330
1B
100
AcDbEntity
  8
4
 62
     3
100
AcDbLine
 10
268.3093830424073
 20
412.9827146985484
 30
0.0
 11
268.8460477108256
 21
429.0826586985484
 31
0.0
  0
LINE
  5
324
330
1B
100
AcDbEntity
  8
4
 62
     3
100
AcDbLine
 10
407.1160450424072
 20
412.9827146985484
 30
0.0
 11
406.5793803739888
 21
429.0826586985484
 31
0.0
  0
CIRCLE
  5
325
330
1B
100
AcDbEntity
  8
4
 62
     3
100
AcDbCircle
 10
432.7127140424072
 20
425.0826586985484
 30
0.0
 40
5.5
  0
ARC
  5
331
330
1B
100
AcDbEntity
  8
4
100
AcDbCircle
 10
658.9830977869486
 20
174.4004728020988
 30
0.0
 40
2.0
100
AcDbArc
 50
201.5153082470839
 51
259.5085229876691
  0
LINE
  5
332
330
1B
100
AcDbEntity
  8
4
  6
Continuous
 62
     3
100
AcDbLine
 10
657.1224585604929
 20
184.2544275257224
 30
0.0
 11
658.1369040957371
 21
172.5883038704167
 31
0.0
  0
LINE
  5
333
330
1B
100
AcDbEntity
  8
4
100
AcDbLine
 10
665.222262560493
 20
164.7110311451098
 30
0.0
 11
666.222262560493
 21
164.7110311451098
 31
0.0
  0
LINE
  5
334
330
1B
100
AcDbEntity
  8
4
100
AcDbLine
 10
658.6189192665839
 20
172.4339087921299
 30
0.0
 11
664.404547820675
 21
171.3624960969278
 31
0.0
  0
ARC
  5
335
330
1B
100
AcDbEntity
  8
4
100
AcDbCircle
 10
664.2224585604928
 20
170.3792140919434
 30
0.0
 40
1.0
100
AcDbArc
 50
0.0
 51
79.50852298766591
  0
LINE
  5
336
330
1B
100
AcDbEntity
  8
4
100
AcDbLine
 10
663.4224585604928
 20
145.4610311451098
 30
0.0
 11
657.1224585604929
 21
145.4610311451098
 31
0.0
  0
LINE
  5
337
330
1B
100
AcDbEntity
  8
2
100
AcDbLine
 10
657.1224585604929
 20
141.2110311451098
 30
0.0
 11
658.4224585604928
 21
142.5110311451098
 31
0.0
  0
LINE
  5
338
330
1B
100
AcDbEntity
  8
2
100
AcDbLine
 10
657.1224585604929
 20
139.3725535140248
 30
0.0
 11
658.4224585604928
 21
140.6725535140248
 31
0.0
  0
LINE
  5
33A
330
1B
100
AcDbEntity
  8
4
100
AcDbLine
 10
663.4224585604928
 20
136.9610311451098
 30
0.0
 11
657.1224585604929
 21
136.9610311451098
 31
0.0
  0
LINE
  5
33D
330
1B
100
AcDbEntity
  8
4
100
AcDbLine
 10
658.4224585604928
 20
136.9610311451098
 30
0.0
 11
658.4224585604928
 21
145.4610311451098
 31
0.0
  0
LINE
  5
33E
330
1B
100
AcDbEntity
  8
4
100
AcDbLine
 10
663.4224585604928
 20
136.9610311451098
 30
0.0
 11
663.4224585604928
 21
145.4610311451098
 31
0.0
  0
ARC
  5
341
330
1B
100
AcDbEntity
  8
4
100
AcDbCircle
 10
560.5949905604929
 20
174.4507071451098
 30
0.0
 40
2.0
100
AcDbArc
 50
279.4623220000002
 51
350.1341929999993
  0
LINE
  5
342
330
1B
100
AcDbEntity
  8
4
100
AcDbLine
 10
560.6512565604929
 20
172.4324971451097
 30
0.0
 11
560.9237885604929
 21
172.4779191451098
 31
0.0
  0
LINE
  5
343
330
1B
100
AcDbEntity
  8
4
100
AcDbLine
 10
561.2771489749083
 20
158.7110306747605
 30
0.0
 11
562.3224579991326
 21
158.7110306747605
 31
0.0
  0
LINE
  5
344
330
1B
100
AcDbEntity
  8
4
100
AcDbLine
 10
562.3224579991326
 20
158.7110306747605
 30
0.0
 11
567.3224585604929
 21
157.0058883060133
 31
0.0
  0
LINE
  5
345
330
1B
100
AcDbEntity
  8
4
100
AcDbLine
 10
561.2771489749083
 20
158.7110306747605
 30
0.0
 11
567.3224585604929
 21
156.6494082049084
 31
0.0
  0
LINE
  5
346
330
1B
100
AcDbEntity
  8
4
 62
     3
100
AcDbLine
 10
554.1580595604929
 20
171.3502981451098
 30
0.0
 11
560.6512565604929
 21
172.4324971451097
 31
0.0
  0
ARC
  5
347
330
1B
100
AcDbEntity
  8
4
 62
     3
100
AcDbCircle
 10
554.3224585604929
 20
170.3639041451098
 30
0.0
 40
1.0
100
AcDbArc
 50
99.46232200000019
 51
180.0
  0
LINE
  5
348
330
1B
100
AcDbEntity
  8
4
100
AcDbLine
 10
562.3224579991326
 20
158.7110306747605
 30
0.0
 11
562.3224579991326
 21
172.6239550610413
 31
0.0
  0
LINE
  5
34A
330
1B
100
AcDbEntity
  8
4
100
AcDbLine
 10
561.2771489749083
 20
123.711031615459
 30
0.0
 11
562.3224579991326
 21
123.711031615459
 31
0.0
  0
LINE
  5
34B
330
1B
100
AcDbEntity
  8
4
100
AcDbLine
 10
561.2771489749083
 20
123.711031615459
 30
0.0
 11
567.3224585604929
 21
125.7726540853111
 31
0.0
  0
LINE
  5
34C
330
1B
100
AcDbEntity
  8
4
100
AcDbLine
 10
562.3224579991326
 20
123.711031615459
 30
0.0
 11
567.3224585604929
 21
125.4161739842062
 31
0.0
  0
LINE
  5
352
330
1B
100
AcDbEntity
  8
4
100
AcDbLine
 10
561.2771489749083
 20
123.7110316154593
 30
0.0
 11
561.2771489749083
 21
158.7110306747605
 31
0.0
  0
LINE
  5
353
330
1B
100
AcDbEntity
  8
4
100
AcDbLine
 10
658.6189192665839
 20
109.9881534980896
 30
0.0
 11
664.404547820675
 21
111.0595661932917
 31
0.0
  0
ARC
  5
354
330
1B
100
AcDbEntity
  8
4
100
AcDbCircle
 10
658.9830977869484
 20
108.0215894881207
 30
0.0
 40
2.0
100
AcDbArc
 50
100.4914770123309
 51
112.4563817741526
  0
ARC
  5
355
330
1B
100
AcDbEntity
  8
4
100
AcDbCircle
 10
658.9830977869484
 20
108.0215894881207
 30
0.0
 40
2.0
100
AcDbArc
 50
115.0302592718877
 51
175.0302592718904
  0
ARC
  5
356
330
1B
100
AcDbEntity
  8
4
100
AcDbCircle
 10
664.2224585604928
 20
112.0428481982761
 30
0.0
 40
1.0
100
AcDbArc
 50
280.491477012334
 51
0.0
  0
LINE
  5
357
330
1B
100
AcDbEntity
  8
4
100
AcDbLine
 10
666.222262560493
 20
117.7110311451098
 30
0.0
 11
665.222262560493
 21
117.7110311451098
 31
0.0
  0
LINE
  5
358
330
1B
100
AcDbEntity
  8
4
100
AcDbLine
 10
657.1224585604926
 20
98.1676347644945
 30
0.0
 11
658.1369040957371
 21
109.8337584198028
 31
0.0
  0
LINE
  5
359
330
1B
100
AcDbEntity
  8
4
100
AcDbLine
 10
663.4224585604928
 20
82.24117688090519
 30
0.0
 11
657.1224585604929
 21
82.24117688090519
 31
0.0
  0
LINE
  5
35A
330
1B
100
AcDbEntity
  8
2
100
AcDbLine
 10
657.1224585604929
 20
76.15269924982022
 30
0.0
 11
658.4224585604928
 21
77.45269924982023
 31
0.0
  0
LINE
  5
35B
330
1B
100
AcDbEntity
  8
2
100
AcDbLine
 10
657.1224585604929
 20
77.99117688090519
 30
0.0
 11
658.4224585604928
 21
79.2911768809052
 31
0.0
  0
ARC
  5
35C
330
1B
100
AcDbEntity
  8
4
 62
     3
100
AcDbCircle
 10
667.3224585604929
 20
68.21103114510976
 30
0.0
 40
1.0
100
AcDbArc
 50
0.0
 51
90.0
  0
LINE
  5
35D
330
1B
100
AcDbEntity
  8
4
100
AcDbLine
 10
663.4224585604928
 20
73.74117688090519
 30
0.0
 11
657.1224585604929
 21
73.74117688090519
 31
0.0
  0
LINE
  5
35E
330
1B
100
AcDbEntity
  8
4
100
AcDbLine
 10
658.4224585604928
 20
73.74117688090519
 30
0.0
 11
658.4224585604928
 21
82.24117688090519
 31
0.0
  0
LINE
  5
35F
330
1B
100
AcDbEntity
  8
4
100
AcDbLine
 10
663.4224585604928
 20
73.74117688090519
 30
0.0
 11
663.4224585604928
 21
82.24117688090519
 31
0.0
  0
LINE
  5
360
330
1B
100
AcDbEntity
  8
L-CENTER
 48
2.0
100
AcDbLine
 10
665.9558005375737
 20
77.99117688090519
 30
0.0
 11
639.5639019007002
 21
77.99117688090519
 31
0.0
  0
LINE
  5
361
330
1B
100
AcDbEntity
  8
4
 62
     3
100
AcDbLine
 10
554.1580595604929
 20
111.0717641451097
 30
0.0
 11
560.8555494726698
 21
109.9555162166815
 31
0.0
  0
ARC
  5
362
330
1B
100
AcDbEntity
  8
4
 62
     3
100
AcDbCircle
 10
554.3224585604929
 20
112.0581581451098
 30
0.0
 40
1.0
100
AcDbArc
 50
180.0
 51
260.5376779999998
  0
ARC
  5
363
330
1B
100
AcDbEntity
  8
4
100
AcDbCircle
 10
560.5949905604929
 20
107.9713551451097
 30
0.0
 40
2.0
100
AcDbArc
 50
9.86580700000068
 51
80.53767799999983
  0
ARC
  5
364
330
1B
100
AcDbEntity
  8
4
 62
     3
100
AcDbCircle
 10
559.5496815604928
 20
108.1455731451097
 30
0.0
 40
2.0
100
AcDbArc
 50
9.86580700000068
 51
80.53767799999983
  0
LINE
  5
365
330
1B
100
AcDbEntity
  8
4
100
AcDbLine
 10
559.8784795604928
 20
110.1183611451098
 30
0.0
 11
560.9237885604929
 21
109.9441431451098
 31
0.0
  0
ARC
  5
366
330
1B
100
AcDbEntity
  8
4
 62
     3
100
AcDbCircle
 10
549.3224585604929
 20
68.21103114510976
 30
0.0
 40
1.0
100
AcDbArc
 50
90.0
 51
180.0
  0
LINE
  5
368
330
1B
100
AcDbEntity
  8
4
 62
     3
100
AcDbLine
 10
561.5198476176394
 20
108.4897325664064
 30
0.0
 11
567.3224585604929
 21
75.12472214510973
 31
0.0
  0
LINE
  5
369
330
1B
100
AcDbEntity
  8
4
100
AcDbLine
 10
562.5651566188372
 20
108.31551455955
 30
0.0
 11
567.3224585604929
 21
80.96102986717716
 31
0.0
  0
LINE
  5
36A
330
1B
100
AcDbEntity
  8
4
 62
     3
100
AcDbLine
 10
549.3224585604929
 20
69.21103114510976
 30
0.0
 11
667.3224585604929
 21
69.21103114510976
 31
0.0
  0
LINE
  5
36B
330
1B
100
AcDbEntity
  8
4
 62
     3
100
AcDbLine
 10
553.3224585604929
 20
112.0581581451098
 30
0.0
 11
553.3224585604929
 21
170.3639041451098
 31
0.0
  0
LINE
  5
36C
330
1B
100
AcDbEntity
  8
4
100
AcDbLine
 10
575.8224585604929
 20
128.7417916013283
 30
0.0
 11
575.8224585604929
 21
69.2110311451097
 31
0.0
  0
LINE
  5
36D
330
1B
100
AcDbEntity
  8
4
100
AcDbLine
 10
562.3224579991326
 20
109.711031547749
 30
0.0
 11
562.3224579991326
 21
123.711031615459
 31
0.0
  0
LINE
  5
36E
330
1B
100
AcDbEntity
  8
4
100
AcDbLine
 10
640.8224585604929
 20
128.7417916013283
 30
0.0
 11
640.8224585604929
 21
69.2110311451097
 31
0.0
  0
LINE
  5
36F
330
1B
100
AcDbEntity
  8
4
100
AcDbLine
 10
665.2224585604928
 20
170.3792140919434
 30
0.0
 11
665.2224585604928
 21
112.0428481982761
 31
0.0
  0
LINE
  5
370
330
1B
100
AcDbEntity
  8
4
100
AcDbLine
 10
666.222262560493
 20
164.7110311451098
 30
0.0
 11
666.222262560493
 21
117.7110311451098
 31
0.0
  0
LINE
  5
371
330
1B
100
AcDbEntity
  8
L-CENTER
 48
2.0
100
AcDbLine
 10
668.62288917583
 20
141.2110311451098
 30
0.0
 11
494.6759605167482
 21
141.2110311451098
 31
0.0
  0
LINE
  5
384
330
1B
100
AcDbEntity
  8
4
 62
     3
100
AcDbLine
 10
668.3224585604929
 20
49.21103114510976
 30
0.0
 11
548.3224585604929
 21
49.21103114510976
 31
0.0
  0
LINE
  5
388
330
1B
100
AcDbEntity
  8
L-CENTER
 48
2.0
100
AcDbLine
 10
653.3224585604929
 20
76.21103114510976
 30
0.0
 11
653.3224585604929
 21
42.21103114510976
 31
0.0
  0
LINE
  5
389
330
1B
100
AcDbEntity
  8
4
 62
     3
100
AcDbLine
 10
548.3224585604929
 20
68.21103114510976
 30
0.0
 11
548.3224585604929
 21
49.21103114510976
 31
0.0
  0
LINE
  5
38A
330
1B
100
AcDbEntity
  8
L-CENTER
 48
2.0
100
AcDbLine
 10
563.3224585604929
 20
76.21103114510976
 30
0.0
 11
563.3224585604929
 21
42.21103114510976
 31
0.0
  0
LINE
  5
38B
330
1B
100
AcDbEntity
  8
4
 62
     3
100
AcDbLine
 10
668.3224585604929
 20
68.21103114510976
 30
0.0
 11
668.3224585604929
 21
49.21103114510976
 31
0.0
  0
LINE
  5
38D
330
1B
100
AcDbEntity
  8
4
 62
     3
100
AcDbLine
 10
417.6437810424072
 20
184.7110311451098
 30
0.0
 11
417.7127140424072
 21
184.7110311451098
 31
0.0
  0
LINE
  5
38E
330
1B
100
AcDbEntity
  8
4
 62
     3
100
AcDbLine
 10
417.6127140424073
 20
184.7110311451098
 30
0.0
 11
417.7127140424072
 21
184.7110311451098
 31
0.0
  0
ARC
  5
38F
330
1B
100
AcDbEntity
  8
4
 62
     3
100
AcDbCircle
 10
417.6127140424073
 20
182.8110311451098
 30
0.0
 40
1.9
100
AcDbArc
 50
90.0
 51
180.0
  0
ARC
  5
390
330
1B
100
AcDbEntity
  8
4
 62
     3
100
AcDbCircle
 10
397.8768220424072
 20
159.9000681451097
 30
0.0
 40
3.0
100
AcDbArc
 50
266.4985550000002
 51
17.25658699999994
  0
ARC
  5
392
330
1B
100
AcDbEntity
  8
4
 62
     3
100
AcDbCircle
 10
444.2127140424072
 20
68.21103114510976
 30
0.0
 40
1.0
100
AcDbArc
 50
0.0
 51
90.0
  0
ARC
  5
394
330
1B
100
AcDbEntity
  8
4
 62
     3
100
AcDbCircle
 10
422.7127140424072
 20
74.21103114510976
 30
0.0
 40
5.0
100
AcDbArc
 50
180.0
 51
270.0
  0
ARC
  5
395
330
1B
100
AcDbEntity
  8
4
 62
     3
100
AcDbCircle
 10
400.2127140424072
 20
63.40746514510977
 30
0.0
 40
5.0
100
AcDbArc
 50
0.0
 51
103.1365590000003
  0
ARC
  5
396
330
1B
100
AcDbEntity
  8
4
 62
     3
100
AcDbCircle
 10
408.2127140424072
 20
68.21103114510976
 30
0.0
 40
1.0
100
AcDbArc
 50
90.0
 51
180.0
  0
ARC
  5
397
330
1B
100
AcDbEntity
  8
4
 62
     3
100
AcDbCircle
 10
406.2127140424072
 20
68.21103114510976
 30
0.0
 40
1.0
100
AcDbArc
 50
90.0
 51
180.0
  0
ARC
  5
398
330
1B
100
AcDbEntity
  8
4
 62
     3
100
AcDbCircle
 10
414.4260430424072
 20
74.21103114510976
 30
0.0
 40
5.0
100
AcDbArc
 50
165.8987389999998
 51
270.0
  0
LINE
  5
399
330
1B
100
AcDbEntity
  8
4
 62
     3
100
AcDbLine
 10
406.2127140424072
 20
69.21103114510976
 30
0.0
 11
444.2127140424072
 21
69.21103114510976
 31
0.0
  0
ARC
  5
39A
330
1B
100
AcDbEntity
  8
4
 62
     3
100
AcDbCircle
 10
397.8768220424072
 20
122.5219941451098
 30
0.0
 40
3.0
100
AcDbArc
 50
342.743413
 51
93.50144499999976
  0
LINE
  5
39B
330
1B
100
AcDbEntity
  8
4
 62
     3
100
AcDbLine
 10
417.7127140424072
 20
141.2110311451098
 30
0.0
 11
417.7127140424072
 21
74.21103114510976
 31
0.0
  0
ARC
  5
39C
330
1B
100
AcDbEntity
  8
4
 62
     3
100
AcDbCircle
 10
362.5920400424072
 20
166.0903571451097
 30
0.0
 40
3.0
100
AcDbArc
 50
9.744047999999724
 51
80.25595200000033
  0
ARC
  5
39D
330
1B
100
AcDbEntity
  8
4
 62
     3
100
AcDbCircle
 10
363.8672660424072
 20
167.3655831451097
 30
0.0
 40
3.0
100
AcDbArc
 50
10.24875299999949
 51
79.75124700000049
  0
ARC
  5
39E
330
1B
100
AcDbEntity
  8
4
 62
     3
100
AcDbCircle
 10
370.8543420424071
 20
161.5535171451098
 30
0.0
 40
3.0
100
AcDbArc
 50
187.6405240000003
 51
266.4985550000002
  0
ARC
  5
39F
330
1B
100
AcDbEntity
  8
4
 62
     3
100
AcDbCircle
 10
304.5710860424074
 20
161.5535171451098
 30
0.0
 40
3.0
100
AcDbArc
 50
273.5014449999998
 51
352.3594759999997
  0
ARC
  5
3A0
330
1B
100
AcDbEntity
  8
4
 62
     3
100
AcDbCircle
 10
311.5581620424073
 20
167.3655831451097
 30
0.0
 40
3.0
100
AcDbArc
 50
100.2487530000006
 51
169.7512470000005
  0
ARC
  5
3A1
330
1B
100
AcDbEntity
  8
4
 62
     3
100
AcDbCircle
 10
312.8333880424073
 20
166.0903571451097
 30
0.0
 40
3.0
100
AcDbArc
 50
99.74404799999968
 51
170.2559520000003
  0
LINE
  5
3A2
330
1B
100
AcDbEntity
  8
4
 62
     3
100
AcDbLine
 10
304.7543070424072
 20
158.5591171451097
 30
0.0
 11
277.7318270424073
 21
156.9056681451098
 31
0.0
  0
ARC
  5
3A3
330
1B
100
AcDbEntity
  8
4
 62
     3
100
AcDbCircle
 10
337.7127140424072
 20
21.21103114510976
 30
0.0
 40
150.0
100
AcDbArc
 50
80.25595200000002
 51
99.74404800000002
  0
ARC
  5
3A4
330
1B
100
AcDbEntity
  8
4
 62
     3
100
AcDbCircle
 10
337.7127140424072
 20
22.71103114510976
 30
0.0
 40
150.0
100
AcDbArc
 50
79.75124699999999
 51
100.248871398545
  0
LINE
  5
3A5
330
1B
100
AcDbEntity
  8
4
 62
     3
100
AcDbLine
 10
304.7543070424072
 20
123.8629451451098
 30
0.0
 11
277.7318270424073
 21
125.5163941451097
 31
0.0
  0
ARC
  5
3A6
330
1B
100
AcDbEntity
  8
4
 62
     3
100
AcDbCircle
 10
257.8127140424072
 20
182.8110311451098
 30
0.0
 40
1.9
100
AcDbArc
 50
0.0
 51
90.0
  0
ARC
  5
3A7
330
1B
100
AcDbEntity
  8
4
 62
     3
100
AcDbCircle
 10
257.8127140424073
 20
182.8110311451098
 30
0.0
 40
1.9
100
AcDbArc
 50
0.0
 51
90.0
  0
LINE
  5
3A8
330
1B
100
AcDbEntity
  8
4
 62
     3
100
AcDbLine
 10
257.8127140424072
 20
184.7110311451098
 30
0.0
 11
257.7127140424072
 21
184.7110311451098
 31
0.0
  0
LINE
  5
3A9
330
1B
100
AcDbEntity
  8
4
 62
     3
100
AcDbLine
 10
257.7816470424073
 20
184.7110311451098
 30
0.0
 11
257.7127140424072
 21
184.7110311451098
 31
0.0
  0
LINE
  5
3AA
330
1B
100
AcDbEntity
  8
4
 62
     3
100
AcDbLine
 10
257.8127140424073
 20
184.7110311451098
 30
0.0
 11
257.7127140424072
 21
184.7110311451098
 31
0.0
  0
LINE
  5
3AB
330
1B
100
AcDbEntity
  8
4
 62
     3
100
AcDbLine
 10
259.7127140424072
 20
174.0134701451098
 30
0.0
 11
259.7127140424072
 21
182.8110311451098
 31
0.0
  0
LINE
  5
3AC
330
1B
100
AcDbEntity
  8
4
100
AcDbLine
 10
255.7127140424072
 20
123.7110311451098
 30
0.0
 11
254.2127140424072
 21
123.7110311451098
 31
0.0
  0
ARC
  5
3AD
330
1B
100
AcDbEntity
  8
4
 62
     3
100
AcDbCircle
 10
255.7127140424072
 20
129.2110311451098
 30
0.0
 40
2.0
100
AcDbArc
 50
270.0
 51
0.0
  0
LINE
  5
3AE
330
1B
100
AcDbEntity
  8
4
100
AcDbLine
 10
254.2127140424072
 20
124.7110311451098
 30
0.0
 11
247.2127140424072
 21
124.7110311451098
 31
0.0
  0
LINE
  5
3AF
330
1B
100
AcDbEntity
  8
4
 62
     3
100
AcDbLine
 10
257.7127140424072
 20
141.2110311451098
 30
0.0
 11
257.7127140424072
 21
129.2110311451098
 31
0.0
  0
ARC
  5
3B0
330
1B
100
AcDbEntity
  8
4
 62
     3
100
AcDbCircle
 10
277.5486060424073
 20
159.9000681451097
 30
0.0
 40
3.0
100
AcDbArc
 50
162.7434130000001
 51
273.5014449999998
  0
ARC
  5
3B1
330
1B
100
AcDbEntity
  8
4
 62
     3
100
AcDbCircle
 10
362.5920400424072
 20
116.3317051451098
 30
0.0
 40
3.0
100
AcDbArc
 50
279.7440479999997
 51
350.2559520000003
  0
ARC
  5
3B2
330
1B
100
AcDbEntity
  8
4
 62
     3
100
AcDbCircle
 10
363.8672660424072
 20
115.0564791451098
 30
0.0
 40
3.0
100
AcDbArc
 50
280.2487529999995
 51
349.7512470000005
  0
ARC
  5
3B3
330
1B
100
AcDbEntity
  8
4
 62
     3
100
AcDbCircle
 10
358.0552000424073
 20
108.0694031451098
 30
0.0
 40
3.0
100
AcDbArc
 50
97.64052400000037
 51
176.4985550000003
  0
ARC
  5
3B4
330
1B
100
AcDbEntity
  8
4
 62
     3
100
AcDbCircle
 10
312.8333880424073
 20
116.3317051451098
 30
0.0
 40
3.0
100
AcDbArc
 50
189.7440479999997
 51
260.2559520000003
  0
ARC
  5
3B5
330
1B
100
AcDbEntity
  8
4
 62
     3
100
AcDbCircle
 10
311.5581620424073
 20
115.0564791451098
 30
0.0
 40
3.0
100
AcDbArc
 50
190.2487529999995
 51
259.7512469999994
  0
ARC
  5
3B6
330
1B
100
AcDbEntity
  8
4
 62
     3
100
AcDbCircle
 10
317.3702280424072
 20
108.0694031451098
 30
0.0
 40
3.0
100
AcDbArc
 50
3.501444999999718
 51
82.35947599999965
  0
ARC
  5
3B7
330
1B
100
AcDbEntity
  8
4
 62
     3
100
AcDbCircle
 10
337.7127140424072
 20
259.7110311451098
 30
0.0
 40
150.0
100
AcDbArc
 50
259.751128601455
 51
280.248753
  0
ARC
  5
3B8
330
1B
100
AcDbEntity
  8
4
 62
     3
100
AcDbCircle
 10
337.7127140424072
 20
261.2110311451098
 30
0.0
 40
150.0
100
AcDbArc
 50
260.255952
 51
279.744048
  0
ARC
  5
3B9
330
1B
100
AcDbEntity
  8
4
 62
     3
100
AcDbCircle
 10
356.4017510424073
 20
81.04692314510976
 30
0.0
 40
3.0
100
AcDbArc
 50
176.4985550000003
 51
287.256587
  0
ARC
  5
3BA
330
1B
100
AcDbEntity
  8
4
 62
     3
100
AcDbCircle
 10
319.0236770424071
 20
81.04692314510976
 30
0.0
 40
3.0
100
AcDbArc
 50
252.7434130000001
 51
3.501444999999718
  0
LINE
  5
3BB
330
1B
100
AcDbEntity
  8
4
 62
     3
100
AcDbLine
 10
320.3646280424073
 20
108.2526241451098
 30
0.0
 11
322.0180770424072
 21
81.2301441451097
 31
0.0
  0
LINE
  5
3BC
330
1B
100
AcDbEntity
  8
4
 62
     3
100
AcDbLine
 10
355.0608000424072
 20
108.2526241451098
 30
0.0
 11
353.4073510424073
 21
81.2301441451097
 31
0.0
  0
LINE
  5
3BD
330
1B
100
AcDbEntity
  8
L-CENTER
 48
2.0
100
AcDbLine
 10
265.2951420424072
 20
112.2110311451098
 30
0.0
 11
243.4490450672947
 21
112.2110311451098
 31
0.0
  0
LINE
  5
3BE
330
1B
100
AcDbEntity
  8
4
100
AcDbLine
 10
252.2127140424072
 20
118.4610311451098
 30
0.0
 11
247.2127140424072
 21
118.4610311451098
 31
0.0
  0
ARC
  5
3BF
330
1B
100
AcDbEntity
  8
4
 62
     3
100
AcDbCircle
 10
256.2127140424072
 20
96.71103114510976
 30
0.0
 40
0.5
100
AcDbArc
 50
0.0
 51
90.0
  0
LINE
  5
3C0
330
1B
100
AcDbEntity
  8
4
 62
     3
100
AcDbLine
 10
256.2127140424072
 20
97.21103114510976
 30
0.0
 11
255.7127140424072
 21
97.21103114510976
 31
0.0
  0
LINE
  5
3C1
330
1B
100
AcDbEntity
  8
4
100
AcDbLine
 10
255.7127140424072
 20
100.7110311451098
 30
0.0
 11
254.2127140424072
 21
100.7110311451098
 31
0.0
  0
LINE
  5
3C2
330
1B
100
AcDbEntity
  8
4
100
AcDbLine
 10
252.2127140424072
 20
105.9610311451098
 30
0.0
 11
247.2127140424072
 21
105.9610311451098
 31
0.0
  0
LINE
  5
3C3
330
1B
100
AcDbEntity
  8
4
100
AcDbLine
 10
247.2127140424072
 20
99.71103114510976
 30
0.0
 11
254.2127140424072
 21
99.71103114510976
 31
0.0
  0
LINE
  5
3C4
330
1B
100
AcDbEntity
  8
L-CENTER
 48
2.0
100
AcDbLine
 10
268.2373110424073
 20
81.21103114510976
 30
0.0
 11
252.7965460424073
 21
81.21103114510976
 31
0.0
  0
LINE
  5
3C5
330
1B
100
AcDbEntity
  8
4
 62
     3
100
AcDbLine
 10
256.2127140424072
 20
88.71103114510976
 30
0.0
 11
255.7127140424072
 21
88.71103114510976
 31
0.0
  0
ARC
  5
3C6
330
1B
100
AcDbEntity
  8
4
 62
     3
100
AcDbCircle
 10
256.2127140424072
 20
89.21103114510976
 30
0.0
 40
0.5
100
AcDbArc
 50
270.0
 51
0.0
  0
LINE
  5
3C7
330
1B
100
AcDbEntity
  8
4
100
AcDbLine
 10
254.7127140424072
 20
85.71103114510976
 30
0.0
 11
255.7127140424072
 21
85.71103114510976
 31
0.0
  0
LINE
  5
3C8
330
1B
100
AcDbEntity
  8
4
100
AcDbLine
 10
254.7127140424072
 20
76.71103114510976
 30
0.0
 11
255.7127140424072
 21
76.71103114510976
 31
0.0
  0
LINE
  5
3C9
330
1B
100
AcDbEntity
  8
4
100
AcDbLine
 10
254.7127140424072
 20
76.71103114510976
 30
0.0
 11
254.7127140424072
 21
85.71103114510976
 31
0.0
  0
ARC
  5
3CA
330
1B
100
AcDbEntity
  8
4
 62
     3
100
AcDbCircle
 10
251.7127140424072
 20
74.21103114510976
 30
0.0
 40
5.0
100
AcDbArc
 50
270.0
 51
347.1604119999997
  0
LINE
  5
3CB
330
1B
100
AcDbEntity
  8
4
 62
     3
100
AcDbLine
 10
256.1001960424072
 20
73.71103114510976
 30
0.0
 11
255.7127140424072
 21
73.71103114510976
 31
0.0
  0
ARC
  5
3CC
330
1B
100
AcDbEntity
  8
4
 62
     3
100
AcDbCircle
 10
256.1001960424072
 20
73.21103114510976
 30
0.0
 40
0.5
100
AcDbArc
 50
347.1604120000013
 51
90.0
  0
ARC
  5
3CD
330
1B
100
AcDbEntity
  8
4
 62
     3
100
AcDbCircle
 10
252.7127140424072
 20
74.21103114510976
 30
0.0
 40
5.0
100
AcDbArc
 50
270.0
 51
0.0
  0
ARC
  5
3CE
330
1B
100
AcDbEntity
  8
4
 62
     3
100
AcDbCircle
 10
275.2127140424072
 20
63.40746514510977
 30
0.0
 40
5.0
100
AcDbArc
 50
76.86344100000055
 51
180.0
  0
ARC
  5
3CF
330
1B
100
AcDbEntity
  8
4
 62
     3
100
AcDbCircle
 10
267.2127140424072
 20
68.21103114510976
 30
0.0
 40
1.0
100
AcDbArc
 50
0.0
 51
90.0
  0
ARC
  5
3D0
330
1B
100
AcDbEntity
  8
4
 62
     3
100
AcDbCircle
 10
269.2127140424072
 20
68.21103114510976
 30
0.0
 40
1.0
100
AcDbArc
 50
0.0
 51
90.0
  0
ARC
  5
3D1
330
1B
100
AcDbEntity
  8
4
 62
     3
100
AcDbCircle
 10
231.2127140424072
 20
68.21103114510976
 30
0.0
 40
1.0
100
AcDbArc
 50
90.0
 51
180.0
  0
LINE
  5
3D2
330
1B
100
AcDbEntity
  8
4
 62
     3
100
AcDbLine
 10
231.2127140424072
 20
69.21103114510976
 30
0.0
 11
269.2127140424072
 21
69.21103114510976
 31
0.0
  0
LINE
  5
3D3
330
1B
100
AcDbEntity
  8
4
 62
     3
100
AcDbLine
 10
255.7127140424072
 20
73.71103114510976
 30
0.0
 11
255.7127140424072
 21
88.71103114510976
 31
0.0
  0
ARC
  5
3D4
330
1B
100
AcDbEntity
  8
4
 62
     3
100
AcDbCircle
 10
260.9993850424073
 20
74.21103114510976
 30
0.0
 40
5.0
100
AcDbArc
 50
270.0
 51
14.10126100000022
  0
LINE
  5
3D5
330
1B
100
AcDbEntity
  8
4
 62
     3
100
AcDbLine
 10
256.7127140424072
 20
96.71103114510976
 30
0.0
 11
256.7127140424072
 21
89.21103114510976
 31
0.0
  0
ARC
  5
3D6
330
1B
100
AcDbEntity
  8
4
 62
     3
100
AcDbCircle
 10
337.7127140424072
 20
331.2110311451097
 30
0.0
 40
270.0
100
AcDbArc
 50
256.863441
 51
270.0
  0
LINE
  5
3D7
330
1B
100
AcDbEntity
  8
4
 62
     3
100
AcDbLine
 10
255.7127140424072
 20
97.21103114510976
 30
0.0
 11
255.7127140424072
 21
127.2110311451098
 31
0.0
  0
LINE
  5
3D8
330
1B
100
AcDbEntity
  8
4
100
AcDbLine
 10
254.2127140424072
 20
99.71103114510976
 30
0.0
 11
254.2127140424072
 21
124.7110311451098
 31
0.0
  0
LINE
  5
3D9
330
1B
100
AcDbEntity
  8
4
100
AcDbLine
 10
252.2127140424072
 20
124.7110311451098
 30
0.0
 11
252.2127140424072
 21
99.71103114510976
 31
0.0
  0
LINE
  5
3DA
330
1B
100
AcDbEntity
  8
4
100
AcDbLine
 10
247.2127140424072
 20
99.71103114510976
 30
0.0
 11
247.2127140424072
 21
124.7110311451098
 31
0.0
  0
LINE
  5
3DB
330
1B
100
AcDbEntity
  8
4
 62
     3
100
AcDbLine
 10
257.7127140424072
 20
141.2110311451098
 30
0.0
 11
257.7127140424072
 21
74.21103114510976
 31
0.0
  0
LINE
  5
3DC
330
1B
100
AcDbEntity
  8
4
100
AcDbLine
 10
255.7127140424072
 20
100.7110311451098
 30
0.0
 11
255.7127140424072
 21
123.7110311451098
 31
0.0
  0
ARC
  5
3DD
330
1B
100
AcDbEntity
  8
4
 62
     3
100
AcDbCircle
 10
304.5710860424074
 20
120.8685451451097
 30
0.0
 40
3.0
100
AcDbArc
 50
7.640524000000346
 51
86.49855500000022
  0
ARC
  5
3DE
330
1B
100
AcDbEntity
  8
4
 62
     3
100
AcDbCircle
 10
277.5486060424073
 20
122.5219941451098
 30
0.0
 40
3.0
100
AcDbArc
 50
86.49855500000022
 51
197.2565869999999
  0
ARC
  5
3DF
330
1B
100
AcDbEntity
  8
4
 62
     3
100
AcDbCircle
 10
456.2127140424072
 20
141.2110311451098
 30
0.0
 40
150.0
100
AcDbArc
 50
169.7512469999999
 51
190.2487529999999
  0
ARC
  5
3E0
330
1B
100
AcDbEntity
  8
4
 62
     3
100
AcDbCircle
 10
457.7127140424072
 20
141.2110311451098
 30
0.0
 40
150.0
100
AcDbArc
 50
170.255952
 51
189.744048
  0
ARC
  5
3E1
330
1B
100
AcDbEntity
  8
4
 62
     3
100
AcDbCircle
 10
370.8543420424071
 20
120.8685451451097
 30
0.0
 40
3.0
100
AcDbArc
 50
93.50144499999976
 51
172.3594759999997
  0
ARC
  5
3E2
330
1B
100
AcDbEntity
  8
4
 62
     3
100
AcDbCircle
 10
219.2127140424072
 20
141.2110311451098
 30
0.0
 40
150.0
100
AcDbArc
 50
349.751247
 51
10.24875300000003
  0
ARC
  5
3E3
330
1B
100
AcDbEntity
  8
4
 62
     3
100
AcDbCircle
 10
217.7127140424072
 20
141.2110311451098
 30
0.0
 40
150.0
100
AcDbArc
 50
350.2559519999999
 51
9.744047999999987
  0
LINE
  5
3E4
330
1B
100
AcDbEntity
  8
L-CENTER
 48
2.0
100
AcDbLine
 10
251.3440620424072
 20
141.2110311451098
 30
0.0
 11
424.0813660424072
 21
141.2110311451098
 31
0.0
  0
LINE
  5
3E5
330
1B
100
AcDbEntity
  8
4
 62
     3
100
AcDbLine
 10
397.651781977733
 20
156.9082269661605
 30
0.0
 11
370.6776355537008
 21
158.5587185357968
 31
0.0
  0
LINE
  5
3E6
330
1B
100
AcDbEntity
  8
4
 62
     3
100
AcDbLine
 10
370.6711210424073
 20
123.8629451451098
 30
0.0
 11
397.6936010424072
 21
125.5163941451097
 31
0.0
  0
LINE
  5
3E7
330
1B
100
AcDbEntity
  8
4
 62
     3
100
AcDbLine
 10
275.2127140424072
 20
60.21103114510976
 30
0.0
 11
400.2127140424072
 21
60.21103114510976
 31
0.0
  0
ARC
  5
3E8
330
1B
100
AcDbEntity
  8
4
 62
     3
100
AcDbCircle
 10
337.7127140424072
 20
331.2110311451097
 30
0.0
 40
270.0
100
AcDbArc
 50
270.0
 51
283.1365589999999
  0
LINE
  5
3EC
330
1B
100
AcDbEntity
  8
4
 62
     3
100
AcDbLine
 10
405.2127140424072
 20
49.21103114510976
 30
0.0
 11
445.2127140424072
 21
49.21103114510976
 31
0.0
  0
TEXT
  5
3F3
330
1B
100
AcDbEntity
  8
3
100
AcDbText
 10
465.6595380396918
 20
19.60023349082854
 30
0.0
 40
6.0
  1
LB2-03
  7
KANJI
 72
     1
 11
482.1595380396918
 21
19.60023349082854
 31
0.0
100
AcDbText
  0
LINE
  5
3F7
330
1B
100
AcDbEntity
  8
4
 62
     3
100
AcDbLine
 10
230.2127140424072
 20
49.21103114510976
 30
0.0
 11
270.2127140424072
 21
49.21103114510976
 31
0.0
  0
LINE
  5
402
330
1B
100
AcDbEntity
  8
4
 62
     3
100
AcDbLine
 10
230.2127140424072
 20
68.21103114510976
 30
0.0
 11
230.2127140424072
 21
49.21103114510976
 31
0.0
  0
LINE
  5
403
330
1B
100
AcDbEntity
  8
L-CENTER
 48
2.0
100
AcDbLine
 10
242.7127140424072
 20
76.21103114510976
 30
0.0
 11
242.7127140424072
 21
42.21103114510976
 31
0.0
  0
ARC
  5
404
330
1B
100
AcDbEntity
  8
4
 62
     3
100
AcDbCircle
 10
275.2127140424072
 20
55.21103114510976
 30
0.0
 40
5.0
100
AcDbArc
 50
90.0
 51
180.0
  0
LINE
  5
405
330
1B
100
AcDbEntity
  8
4
 62
     3
100
AcDbLine
 10
268.2127140424072
 20
68.21103114510976
 30
0.0
 11
268.2127140424072
 21
49.21103114510976
 31
0.0
  0
LINE
  5
406
330
1B
100
AcDbEntity
  8
4
 62
     3
100
AcDbLine
 10
270.2127140424072
 20
68.21103114510976
 30
0.0
 11
270.2127140424072
 21
49.21103114510976
 31
0.0
  0
LWPOLYLINE
  5
409
330
1B
100
AcDbEntity
  8
4
100
AcDbPolyline
 90
       30
 70
     0
 43
0.0
 10
421.8676660424073
 20
69.17865514510976
 10
422.2295300424073
 20
68.81676114510975
 10
422.5756780424072
 20
68.45374714510973
 10
422.8903900424073
 20
68.08849514510979
 10
423.1579500424073
 20
67.71988514510969
 10
423.3626400424073
 20
67.34679714510975
 10
423.4887460424072
 20
66.96811514510983
 10
423.5253620424073
 20
66.60528114510981
 10
423.4879260424073
 20
66.23692514510975
 10
423.3861640424072
 20
65.86348714510979
 10
422.7922020424073
 20
64.71711514510974
 10
421.9695260424073
 20
63.54094714510978
 10
421.1808020424073
 20
62.34693514510974
 10
420.9708380424072
 20
61.94702914510975
 10
420.8035600424073
 20
61.54691114510973
 10
420.6886960424072
 20
61.14702514510969
 10
420.6280720424072
 20
60.62779314510982
 10
420.6600100424073
 20
60.10944514510976
 10
420.7719480424073
 20
59.59173114510969
 10
421.4621700424073
 20
58.0398531451097
 10
422.4202420424072
 20
56.4845651451098
 10
423.3070540424073
 20
54.91904114510982
 10
423.5282080424072
 20
54.39374714510978
 10
423.6912040424072
 20
53.86630314510973
 10
423.7834840424073
 20
53.33645914510981
 10
423.7746860424072
 20
52.53316114510977
 10
423.6145600424072
 20
51.72504114510974
 10
423.3409360424073
 20
50.91330314510975
 10
422.9916480424072
 20
50.09915514510982
 10
422.6045280424073
 20
49.28380114510975
  0
LINE
  5
40A
330
1B
100
AcDbEntity
  8
4
100
AcDbLine
 10
427.2127140424072
 20
69.21103114510976
 30
0.0
 11
427.2127140424072
 21
49.21103114510976
 31
0.0
  0
LINE
  5
40B
330
1B
100
AcDbEntity
  8
L-CENTER
 48
2.0
100
AcDbLine
 10
432.7127140424072
 20
76.21103114510976
 30
0.0
 11
432.7127140424072
 21
42.21103114510976
 31
0.0
  0
LINE
  5
40C
330
1B
100
AcDbEntity
  8
4
100
AcDbLine
 10
438.2127140424072
 20
69.21103114510976
 30
0.0
 11
438.2127140424072
 21
49.21103114510976
 31
0.0
  0
LINE
  5
40D
330
1B
100
AcDbEntity
  8
4
 62
     3
100
AcDbLine
 10
445.2127140424072
 20
68.21103114510976
 30
0.0
 11
445.2127140424072
 21
49.21103114510976
 31
0.0
  0
ARC
  5
40E
330
1B
100
AcDbEntity
  8
4
 62
     3
100
AcDbCircle
 10
400.2127140424072
 20
55.21103114510976
 30
0.0
 40
5.0
100
AcDbArc
 50
0.0
 51
90.0
  0
LINE
  5
40F
330
1B
100
AcDbEntity
  8
4
 62
     3
100
AcDbLine
 10
405.2127140424072
 20
68.21103114510976
 30
0.0
 11
405.2127140424072
 21
49.21103114510976
 31
0.0
  0
LINE
  5
410
330
1B
100
AcDbEntity
  8
4
 62
     3
100
AcDbLine
 10
407.2127140424072
 20
68.21103114510976
 30
0.0
 11
407.2127140424072
 21
49.21103114510976
 31
0.0
  0
LINE
  5
428
330
1B
100
AcDbEntity
  8
4
100
AcDbLine
 10
169.9583079091206
 20
228.2110311451099
 30
0.0
 11
164.9583079091206
 21
228.2110311451099
 31
0.0
  0
LINE
  5
42F
330
1B
100
AcDbEntity
  8
L-CENTER
 48
2.0
100
AcDbLine
 10
182.1733959091205
 20
217.2110311451099
 30
0.0
 11
152.7432199091207
 21
217.2110311451099
 31
0.0
  0
LINE
  5
430
330
1B
100
AcDbEntity
  8
4
100
AcDbLine
 10
169.9583079091206
 20
223.2110311451099
 30
0.0
 11
164.9583079091206
 21
223.2110311451099
 31
0.0
  0
LINE
  5
433
330
1B
100
AcDbEntity
  8
4
100
AcDbLine
 10
164.9583079091206
 20
223.2110311451099
 30
0.0
 11
164.9583079091206
 21
228.2110311451099
 31
0.0
  0
LINE
  5
434
330
1B
100
AcDbEntity
  8
4
100
AcDbLine
 10
169.9583079091206
 20
228.2110311451099
 30
0.0
 11
169.9583079091206
 21
223.2110311451099
 31
0.0
  0
ARC
  5
43A
330
1B
100
AcDbEntity
  8
4
100
AcDbCircle
 10
167.4583079091206
 20
217.2110311451099
 30
0.0
 40
9.000002
100
AcDbArc
 50
106.1276165314944
 51
73.87238800000017
  0
LINE
  5
43B
330
1B
100
AcDbEntity
  8
L-CENTER
 48
2.0
100
AcDbLine
 10
167.4583079091206
 20
231.9261191451099
 30
0.0
 11
167.4583079091206
 21
202.49594314511
 31
0.0
  0
LINE
  5
450
330
1B
100
AcDbEntity
  8
4
 62
     3
100
AcDbLine
 10
417.7127140424072
 20
184.7110311451098
 30
0.0
 11
417.7127140424072
 21
249.7110311451098
 31
0.0
  0
LINE
  5
451
330
1B
100
AcDbEntity
  8
4
 62
     3
100
AcDbLine
 10
417.7127140424072
 20
184.7110311451098
 30
0.0
 11
417.7127140424072
 21
249.7110311451098
 31
0.0
  0
LINE
  5
452
330
1B
100
AcDbEntity
  8
4
 62
     3
100
AcDbLine
 10
415.7127140424072
 20
174.0134701451098
 30
0.0
 11
415.7127140424072
 21
206.2110311451098
 31
0.0
  0
LINE
  5
453
330
1B
100
AcDbEntity
  8
4
 62
     3
100
AcDbLine
 10
257.7127140424072
 20
184.7110311451098
 30
0.0
 11
257.7127140424072
 21
249.7110311451098
 31
0.0
  0
LINE
  5
454
330
1B
100
AcDbEntity
  8
4
 62
     3
100
AcDbLine
 10
257.7127140424072
 20
184.7110311451098
 30
0.0
 11
257.7127140424072
 21
249.7110311451098
 31
0.0
  0
LINE
  5
455
330
1B
100
AcDbEntity
  8
4
 62
     3
100
AcDbLine
 10
257.7127140424072
 20
184.7110311451098
 30
0.0
 11
257.7127140424072
 21
249.7110311451098
 31
0.0
  0
LINE
  5
456
330
1B
100
AcDbEntity
  8
4
 62
     3
100
AcDbLine
 10
259.7127140424072
 20
174.0134701451098
 30
0.0
 11
259.7127140424072
 21
206.2110311451098
 31
0.0
  0
ARC
  5
457
330
1B
100
AcDbEntity
  8
4
 62
     3
100
AcDbCircle
 10
337.7127140424072
 20
141.2110311451098
 30
0.0
 40
78.0
100
AcDbArc
 50
90.0
 51
270.0
  0
ARC
  5
458
330
1B
100
AcDbEntity
  8
4
 62
     3
100
AcDbCircle
 10
527.7127140424072
 20
141.2110311451098
 30
0.0
 40
270.0
100
AcDbArc
 50
165.210916
 51
194.101261
  0
ARC
  5
459
330
1B
100
AcDbEntity
  8
4
 62
     3
100
AcDbCircle
 10
337.7127140424072
 20
141.2110311451098
 30
0.0
 40
78.0
100
AcDbArc
 50
270.0
 51
90.0
  0
ARC
  5
45A
330
1B
100
AcDbEntity
  8
4
 62
     3
100
AcDbCircle
 10
337.7127140424072
 20
141.2110311451098
 30
0.0
 40
66.0
100
AcDbArc
 50
270.0
 51
74.13107901376965
  0
LINE
  5
45B
330
1B
100
AcDbEntity
  8
L-CENTER
 48
2.0
100
AcDbLine
 10
337.7127140424072
 20
54.84237914510976
 30
0.0
 11
337.7127140424072
 21
254.9642760540192
 31
0.0
  0
ARC
  5
45C
330
1B
100
AcDbEntity
  8
4
 62
     3
100
AcDbCircle
 10
337.7127140424072
 20
141.2110311451098
 30
0.0
 40
66.0
100
AcDbArc
 50
105.8689209862304
 51
270.0
  0
ARC
  5
45D
330
1B
100
AcDbEntity
  8
4
 62
     3
100
AcDbCircle
 10
147.7127140424072
 20
141.2110311451098
 30
0.0
 40
270.0
100
AcDbArc
 50
345.898739
 51
14.78908400000003
  0
CIRCLE
  5
45F
330
1B
100
AcDbEntity
  8
4
100
AcDbCircle
 10
608.3224585604929
 20
217.2110311451098
 30
0.0
 40
32.5
  0
LINE
  5
460
330
1B
100
AcDbEntity
  8
4
100
AcDbLine
 10
575.8224585604929
 20
217.2110311451098
 30
0.0
 11
575.8224585604929
 21
174.0134701451097
 31
0.0
  0
LINE
  5
461
330
1B
100
AcDbEntity
  8
4
100
AcDbLine
 10
562.5654135604929
 20
174.1080251451097
 30
0.0
 11
567.3224585604929
 21
201.4610324230413
 31
0.0
  0
LINE
  5
462
330
1B
100
AcDbEntity
  8
4
100
AcDbLine
 10
640.8224585604929
 20
217.2110311451098
 30
0.0
 11
640.8224585604929
 21
174.0134701451097
 31
0.0
  0
LINE
  5
467
330
1B
100
AcDbEntity
  8
4
100
AcDbLine
 10
657.1224585604929
 20
69.2110311451097
 30
0.0
 11
657.1224585604929
 21
218.2110311451098
 31
0.0
  0
LINE
  5
468
330
1B
100
AcDbEntity
  8
4
100
AcDbLine
 10
642.3224585604929
 20
220.2110311451098
 30
0.0
 11
642.3224585604929
 21
69.2110311451097
 31
0.0
  0
LINE
  5
469
330
1B
100
AcDbEntity
  8
4
100
AcDbLine
 10
574.3224525604929
 20
220.2110311451098
 30
0.0
 11
574.3224525604929
 21
69.21103114510976
 31
0.0
  0
LINE
  5
46A
330
1B
100
AcDbEntity
  8
4
 62
     3
100
AcDbLine
 10
567.3224585604929
 20
69.21103114510976
 30
0.0
 11
567.3224585604929
 21
218.2110311451098
 31
0.0
  0
LINE
  5
46B
330
1B
100
AcDbEntity
  8
4
 62
     3
100
AcDbLine
 10
647.3224585604929
 20
69.21103114510976
 30
0.0
 11
647.3224585604929
 21
219.2110311451098
 31
0.0
  0
LINE
  5
46C
330
1B
100
AcDbEntity
  8
L-CENTER
 48
2.0
100
AcDbLine
 10
608.3224585604929
 20
44.44586346351531
 30
0.0
 11
608.3224585604929
 21
263.042297846952
 31
0.0
  0
LINE
  5
48D
330
1B
100
AcDbEntity
  8
4
100
AcDbLine
 10
207.7127140424072
 20
225.2110311451098
 30
0.0
 11
208.7127140424072
 21
226.2110311451098
 31
0.0
  0
LINE
  5
48E
330
1B
100
AcDbEntity
  8
4
100
AcDbLine
 10
239.7127140424072
 20
228.2110311451098
 30
0.0
 11
239.7127140424072
 21
226.2110311451098
 31
0.0
  0
LINE
  5
48F
330
1B
100
AcDbEntity
  8
4
100
AcDbLine
 10
207.7127140424072
 20
228.2110311451098
 30
0.0
 11
239.7127140424072
 21
228.2110311451098
 31
0.0
  0
LINE
  5
490
330
1B
100
AcDbEntity
  8
4
100
AcDbLine
 10
256.7127140424072
 20
227.2110311451098
 30
0.0
 11
242.7127140424072
 21
227.2110311451098
 31
0.0
  0
LINE
  5
491
330
1B
100
AcDbEntity
  8
4
100
AcDbLine
 10
242.7127140424072
 20
226.2110311451098
 30
0.0
 11
208.7127140424072
 21
226.2110311451098
 31
0.0
  0
LINE
  5
493
330
1B
100
AcDbEntity
  8
4
100
AcDbLine
 10
208.7127140424072
 20
208.2110311451098
 30
0.0
 11
207.7127140424072
 21
209.2110311451098
 31
0.0
  0
LINE
  5
494
330
1B
100
AcDbEntity
  8
4
100
AcDbLine
 10
242.7127140424072
 20
207.2110311451098
 30
0.0
 11
256.7127140424072
 21
207.2110311451098
 31
0.0
  0
LINE
  5
495
330
1B
100
AcDbEntity
  8
4
100
AcDbLine
 10
242.7127140424072
 20
208.2110311451098
 30
0.0
 11
208.7127140424072
 21
208.2110311451098
 31
0.0
  0
LINE
  5
496
330
1B
100
AcDbEntity
  8
4
100
AcDbLine
 10
242.7127140424072
 20
227.2110311451098
 30
0.0
 11
242.7127140424072
 21
207.2110311451098
 31
0.0
  0
LINE
  5
497
330
1B
100
AcDbEntity
  8
4
100
AcDbLine
 10
208.7127140424072
 20
208.2110311451098
 30
0.0
 11
208.7127140424072
 21
226.2110311451098
 31
0.0
  0
LINE
  5
498
330
1B
100
AcDbEntity
  8
4
100
AcDbLine
 10
207.7127140424072
 20
228.2110311451098
 30
0.0
 11
207.7127140424072
 21
209.2110311451098
 31
0.0
  0
LINE
  5
4B0
330
1B
100
AcDbEntity
  8
4
100
AcDbLine
 10
208.7127140424072
 20
461.0826586985484
 30
0.0
 11
207.7127140424072
 21
462.0826586985484
 31
0.0
  0
LINE
  5
4B1
330
1B
100
AcDbEntity
  8
4
100
AcDbLine
 10
208.7127140424072
 20
461.0826586985484
 30
0.0
 11
208.7127140424072
 21
467.5826586985484
 31
0.0
  0
LINE
  5
4B2
330
1B
100
AcDbEntity
  8
4
100
AcDbLine
 10
242.7127140424072
 20
480.0826586985484
 30
0.0
 11
242.7127140424072
 21
460.0826586985484
 31
0.0
  0
LINE
  5
4B3
330
1B
100
AcDbEntity
  8
4
100
AcDbLine
 10
242.7127140424072
 20
461.0826586985484
 30
0.0
 11
208.7127140424072
 21
461.0826586985484
 31
0.0
  0
LINE
  5
4B4
330
1B
100
AcDbEntity
  8
4
100
AcDbLine
 10
242.7127140424072
 20
460.0826586985484
 30
0.0
 11
256.7127140424072
 21
460.0826586985484
 31
0.0
  0
LINE
  5
4B5
330
1B
100
AcDbEntity
  8
4
100
AcDbLine
 10
242.7127140424072
 20
479.0826586985484
 30
0.0
 11
208.7127140424072
 21
479.0826586985484
 31
0.0
  0
LINE
  5
4B6
330
1B
100
AcDbEntity
  8
4
100
AcDbLine
 10
256.7127140424072
 20
480.0826586985484
 30
0.0
 11
242.7127140424072
 21
480.0826586985484
 31
0.0
  0
LINE
  5
4B7
330
1B
100
AcDbEntity
  8
4
100
AcDbLine
 10
208.7127140424072
 20
472.5826586985484
 30
0.0
 11
208.7127140424072
 21
479.0826586985484
 31
0.0
  0
LINE
  5
4B8
330
1B
100
AcDbEntity
  8
4
100
AcDbLine
 10
207.7127140424072
 20
478.0826586985484
 30
0.0
 11
207.7127140424072
 21
462.0826586985484
 31
0.0
  0
LINE
  5
4B9
330
1B
100
AcDbEntity
  8
4
100
AcDbLine
 10
207.7127140424072
 20
472.5826586985483
 30
0.0
 11
237.2127140424073
 21
472.5826586985484
 31
0.0
  0
LINE
  5
4BA
330
1B
100
AcDbEntity
  8
4
100
AcDbLine
 10
207.7127140424072
 20
467.5826586985484
 30
0.0
 11
237.2127140424073
 21
467.5826586985484
 31
0.0
  0
ARC
  5
4BB
330
1B
100
AcDbEntity
  8
4
100
AcDbCircle
 10
237.2127140424072
 20
470.0826586985484
 30
0.0
 40
2.5
100
AcDbArc
 50
270.0
 51
90.0
  0
LINE
  5
4BC
330
1B
100
AcDbEntity
  8
4
100
AcDbLine
 10
207.7127140424072
 20
478.0826586985484
 30
0.0
 11
208.7127140424072
 21
479.0826586985484
 31
0.0
  0
LINE
  5
4BD
330
1B
100
AcDbEntity
  8
4
 62
     3
100
AcDbLine
 10
230.2127140424072
 20
461.0826586985484
 30
0.0
 11
230.2127140424072
 21
413.0826586985484
 31
0.0
  0
LINE
  5
4BE
330
1B
100
AcDbEntity
  8
4
100
AcDbLine
 10
255.7127140424072
 20
480.0826586985484
 30
0.0
 11
255.7127140424072
 21
485.0826586985483
 31
0.0
  0
LINE
  5
4BF
330
1B
100
AcDbEntity
  8
4
100
AcDbLine
 10
254.2127140424072
 20
480.0826586985484
 30
0.0
 11
254.2127140424072
 21
482.5826586985484
 31
0.0
  0
LINE
  5
4C0
330
1B
100
AcDbEntity
  8
4
100
AcDbLine
 10
252.2127140424072
 20
480.0826586985484
 30
0.0
 11
252.2127140424072
 21
482.5826586985484
 31
0.0
  0
LINE
  5
4C1
330
1B
100
AcDbEntity
  8
4
100
AcDbLine
 10
247.2127140424072
 20
480.0826586985484
 30
0.0
 11
247.2127140424072
 21
480.9079762458539
 31
0.0
  0
LINE
  5
4C3
330
1B
100
AcDbEntity
  8
4
100
AcDbLine
 10
498.3224585604929
 20
152.2110311451098
 30
0.0
 11
499.3224585604929
 21
153.2110311451098
 31
0.0
  0
LINE
  5
4C4
330
1B
100
AcDbEntity
  8
4
100
AcDbLine
 10
499.3224585604929
 20
129.2110311451098
 30
0.0
 11
498.3224585604929
 21
130.2110311451098
 31
0.0
  0
LINE
  5
4C5
330
1B
100
AcDbEntity
  8
4
100
AcDbLine
 10
499.3224585604929
 20
153.2110311451098
 30
0.0
 11
499.3224585604929
 21
129.2110311451098
 31
0.0
  0
LINE
  5
4C7
330
1B
100
AcDbEntity
  8
4
100
AcDbLine
 10
498.3224585604929
 20
156.2110311451098
 30
0.0
 11
498.3224585604929
 21
130.2110311451098
 31
0.0
  0
LINE
  5
4C8
330
1B
100
AcDbEntity
  8
4
100
AcDbLine
 10
553.3224585604929
 20
164.7110311451098
 30
0.0
 11
552.3224585604929
 21
164.7110311451098
 31
0.0
  0
LINE
  5
4C9
330
1B
100
AcDbEntity
  8
4
100
AcDbLine
 10
538.3224585604929
 20
153.7110311451098
 30
0.0
 11
552.3224585604929
 21
153.7110311451098
 31
0.0
  0
LINE
  5
4CA
330
1B
100
AcDbEntity
  8
4
100
AcDbLine
 10
538.3224585604929
 20
128.7110311451098
 30
0.0
 11
552.3224585604929
 21
128.7110311451098
 31
0.0
  0
LINE
  5
4CB
330
1B
100
AcDbEntity
  8
4
100
AcDbLine
 10
538.3224585604929
 20
153.7110311451098
 30
0.0
 11
538.3224585604929
 21
128.7110311451098
 31
0.0
  0
LINE
  5
4CC
330
1B
100
AcDbEntity
  8
4
100
AcDbLine
 10
535.3224585604929
 20
156.2110311451098
 30
0.0
 11
535.3224585604929
 21
153.2110311451098
 31
0.0
  0
LINE
  5
4CD
330
1B
100
AcDbEntity
  8
4
100
AcDbLine
 10
552.3224585604929
 20
117.7110311451098
 30
0.0
 11
553.3224585604929
 21
117.7110311451098
 31
0.0
  0
LINE
  5
4CE
330
1B
100
AcDbEntity
  8
4
100
AcDbLine
 10
552.3224585604929
 20
164.7110311451098
 30
0.0
 11
552.3224585604929
 21
117.7110311451098
 31
0.0
  0
LINE
  5
4CF
330
1B
100
AcDbEntity
  8
4
100
AcDbLine
 10
498.3224585604929
 20
156.2110311451098
 30
0.0
 11
535.3224585604929
 21
156.2110311451098
 31
0.0
  0
LINE
  5
4D0
330
1B
100
AcDbEntity
  8
4
100
AcDbLine
 10
538.3224585604929
 20
153.2110311451098
 30
0.0
 11
499.3224585604929
 21
153.2110311451098
 31
0.0
  0
LINE
  5
4D1
330
1B
100
AcDbEntity
  8
4
100
AcDbLine
 10
538.3224585604929
 20
129.2110311451098
 30
0.0
 11
499.3224585604929
 21
129.2110311451098
 31
0.0
  0
LINE
  5
509
330
1B
100
AcDbEntity
  8
4
100
AcDbLine
 10
341.2127140424072
 20
156.2110311451098
 30
0.0
 11
334.2127140424072
 21
156.2110311451098
 31
0.0
  0
LINE
  5
50A
330
1B
100
AcDbEntity
  8
4
100
AcDbLine
 10
341.2127140424072
 20
149.2110311451098
 30
0.0
 11
334.2127140424072
 21
149.2110311451098
 31
0.0
  0
LINE
  5
50B
330
1B
100
AcDbEntity
  8
4
100
AcDbLine
 10
334.2127140424072
 20
149.2110311451098
 30
0.0
 11
334.2127140424072
 21
156.2110311451098
 31
0.0
  0
LINE
  5
50C
330
1B
100
AcDbEntity
  8
4
100
AcDbLine
 10
341.2127140424072
 20
156.2110311451098
 30
0.0
 11
341.2127140424072
 21
149.2110311451098
 31
0.0
  0
ARC
  5
50D
330
1B
100
AcDbEntity
  8
4
100
AcDbCircle
 10
337.7127140424072
 20
141.2110311451098
 30
0.0
 40
12.0
100
AcDbArc
 50
106.9577633000041
 51
73.04223800000044
  0
CIRCLE
  5
510
330
1B
100
AcDbEntity
  8
4
100
AcDbCircle
 10
337.7127140424072
 20
141.2110311451098
 30
0.0
 40
23.5
  0
LINE
  5
511
330
1B
100
AcDbEntity
  8
4
100
AcDbLine
 10
325.2127140424071
 20
400.0826586985484
 30
0.0
 11
350.2127140424071
 21
400.0826586985484
 31
0.0
  0
LINE
  5
512
330
1B
100
AcDbEntity
  8
4
100
AcDbLine
 10
314.2127140424072
 20
414.0826586985485
 30
0.0
 11
361.2127140424071
 21
414.0826586985483
 31
0.0
  0
LINE
  5
513
330
1B
100
AcDbEntity
  8
4
100
AcDbLine
 10
325.2127140424071
 20
400.0826586985484
 30
0.0
 11
325.2127140424072
 21
400.0826586985484
 31
0.0
  0
ARC
  5
514
330
1B
100
AcDbEntity
  8
4
100
AcDbCircle
 10
325.2127140424073
 20
399.5826586985483
 30
0.0
 40
0.5
100
AcDbArc
 50
0.0
 51
90.0
  0
LINE
  5
515
330
1B
100
AcDbEntity
  8
4
100
AcDbLine
 10
325.2127140424071
 20
414.0826586985484
 30
0.0
 11
325.2127140424071
 21
400.0826586985484
 31
0.0
  0
LINE
  5
516
330
1B
100
AcDbEntity
  8
4
100
AcDbLine
 10
314.2127140424072
 20
414.0826586985484
 30
0.0
 11
314.2127140424072
 21
415.0826586985484
 31
0.0
  0
LINE
  5
517
330
1B
100
AcDbEntity
  8
4
100
AcDbLine
 10
350.2127140424071
 20
400.0826586985484
 30
0.0
 11
350.2127140424071
 21
400.0826586985484
 31
0.0
  0
ARC
  5
518
330
1B
100
AcDbEntity
  8
4
100
AcDbCircle
 10
350.2127140424072
 20
399.5826586985483
 30
0.0
 40
0.5
100
AcDbArc
 50
90.0
 51
180.0
  0
LINE
  5
519
330
1B
100
AcDbEntity
  8
4
100
AcDbLine
 10
350.2127140424071
 20
414.0826586985484
 30
0.0
 11
350.2127140424071
 21
400.0826586985484
 31
0.0
  0
LINE
  5
51A
330
1B
100
AcDbEntity
  8
4
100
AcDbLine
 10
361.2127140424071
 20
414.0826586985483
 30
0.0
 11
361.2127140424072
 21
415.0826586985484
 31
0.0
  0
ARC
  5
51B
330
1B
100
AcDbEntity
  8
4
100
AcDbCircle
 10
337.7127140424073
 20
393.5826586985483
 30
0.0
 40
3.5
100
AcDbArc
 50
0.0
 51
180.0
  0
LINE
  5
51C
330
1B
100
AcDbEntity
  8
4
100
AcDbLine
 10
325.7127140424071
 20
361.0826586985484
 30
0.0
 11
334.2127140424071
 21
361.0826586985484
 31
0.0
  0
LINE
  5
51D
330
1B
100
AcDbEntity
  8
4
100
AcDbLine
 10
326.7127140424071
 20
360.0826586985484
 30
0.0
 11
348.7127140424071
 21
360.0826586985484
 31
0.0
  0
LINE
  5
51E
330
1B
100
AcDbEntity
  8
4
100
AcDbLine
 10
325.7127140424071
 20
361.0826586985484
 30
0.0
 11
326.7127140424071
 21
360.0826586985484
 31
0.0
  0
LINE
  5
51F
330
1B
100
AcDbEntity
  8
4
100
AcDbLine
 10
349.7127140424071
 20
361.0826586985484
 30
0.0
 11
348.7127140424071
 21
360.0826586985484
 31
0.0
  0
LINE
  5
520
330
1B
100
AcDbEntity
  8
4
100
AcDbLine
 10
341.2127140424072
 20
361.0826586985484
 30
0.0
 11
349.7127140424071
 21
361.0826586985484
 31
0.0
  0
LINE
  5
521
330
1B
100
AcDbEntity
  8
4
100
AcDbLine
 10
334.2127140424071
 20
360.0826586985484
 30
0.0
 11
334.2127140424071
 21
393.5826586985484
 31
0.0
  0
LINE
  5
522
330
1B
100
AcDbEntity
  8
4
100
AcDbLine
 10
341.2127140424071
 20
360.0826586985484
 30
0.0
 11
341.2127140424071
 21
393.5826586985484
 31
0.0
  0
LINE
  5
523
330
1B
100
AcDbEntity
  8
4
100
AcDbLine
 10
349.7127140424071
 20
399.5826586985484
 30
0.0
 11
349.7127140424071
 21
361.0826586985484
 31
0.0
  0
LINE
  5
524
330
1B
100
AcDbEntity
  8
4
100
AcDbLine
 10
325.7127140424072
 20
399.5826586985484
 30
0.0
 11
325.7127140424071
 21
361.0826586985484
 31
0.0
  0
ENDSEC
  0
SECTION
  2
OBJECTS
  0
DICTIONARY
  5
9
330
0
100
AcDbDictionary
281
     1
  3
ACAD_COLOR
350
2F
  3
ACAD_GROUP
350
2D
  3
ACAD_LAYOUT
350
24
  3
ACAD_MATERIAL
350
B
  3
ACAD_MLEADERSTYLE
350
471
  3
ACAD_MLINESTYLE
350
19
  3
ACAD_PLOTSETTINGS
350
2E
  3
ACAD_PLOTSTYLENAME
350
8
  3
ACAD_SCALELIST
350
34
  3
ACAD_TABLESTYLE
350
470
  3
ACAD_VISUALSTYLE
350
30
  3
ACDBHEADERROUNDTRIPXREC
350
547
  3
AcDbVariableDictionary
350
46E
  3
DWGPROPS
350
54A
  0
DICTIONARY
  5
54B
330
2C
100
AcDbDictionary
280
     1
281
     1
  3
ACAD_XREC_ROUNDTRIP
360
54C
  0
DICTIONARY
  5
3
330
2
100
AcDbDictionary
280
     1
281
     1
  3
ACAD_LAYERSTATES
360
4
  0
DICTIONARY
  5
20
330
1F
100
AcDbDictionary
280
     1
281
     1
  3
ADSK_XREC_LAYER_RECONCILED
360
21
  0
DICTIONARY
  5
D5
330
D4
100
AcDbDictionary
280
     1
281
     1
  3
ADSK_XREC_LAYER_RECONCILED
360
D6
  0
DICTIONARY
  5
5
330
1
100
AcDbDictionary
280
     1
281
     1
  3
ADSK_XREC_LAYER_RECONCILED
360
6
  0
DICTIONARY
  5
CF
330
CE
100
AcDbDictionary
280
     1
281
     1
  3
ADSK_XREC_LAYER_RECONCILED
360
D0
  0
DICTIONARY
  5
5A
330
59
100
AcDbDictionary
280
     1
281
     1
  3
ADSK_XREC_LAYER_RECONCILED
360
5B
  0
DICTIONARY
  5
62
330
61
100
AcDbDictionary
280
     1
281
     1
  3
ADSK_XREC_LAYER_RECONCILED
360
63
  0
DICTIONARY
  5
C8
330
C7
100
AcDbDictionary
280
     1
281
     1
  3
ADSK_XREC_LAYER_RECONCILED
360
C9
  0
DICTIONARY
  5
1C
330
1B
100
AcDbDictionary
280
     1
281
     1
  3
ACAD_SORTENTS
360
1D
  0
DICTIONARY
  5
2F
102
{ACAD_REACTORS
330
9
102
}
330
9
100
AcDbDictionary
281
     1
  0
DICTIONARY
  5
2D
102
{ACAD_REACTORS
330
9
102
}
330
9
100
AcDbDictionary
281
     1
  0
DICTIONARY
  5
24
102
{ACAD_REACTORS
330
9
102
}
330
9
100
AcDbDictionary
281
     1
  3
Model
350
23
  3
ﾚｲｱｳﾄ1
350
29
  0
DICTIONARY
  5
B
102
{ACAD_REACTORS
330
9
102
}
330
9
100
AcDbDictionary
281
     1
  3
ByBlock
350
57
  3
ByLayer
350
14
  3
Global
350
A
  0
DICTIONARY
  5
471
102
{ACAD_REACTORS
330
9
102
}
330
9
100
AcDbDictionary
281
     1
  3
Standard
350
53D
  0
DICTIONARY
  5
19
102
{ACAD_REACTORS
330
9
102
}
330
9
100
AcDbDictionary
281
     1
  3
STANDARD
350
18
  0
DICTIONARY
  5
2E
102
{ACAD_REACTORS
330
9
102
}
330
9
100
AcDbDictionary
281
     1
  0
ACDBDICTIONARYWDFLT
  5
8
102
{ACAD_REACTORS
330
9
102
}
330
9
100
AcDbDictionary
281
     1
  3
Normal
350
7
100
AcDbDictionaryWithDefault
340
7
  0
DICTIONARY
  5
34
102
{ACAD_REACTORS
330
9
102
}
330
9
100
AcDbDictionary
281
     1
  3
*A1
350
56
  0
DICTIONARY
  5
470
102
{ACAD_REACTORS
330
9
102
}
330
9
100
AcDbDictionary
281
     1
  3
Standard
350
543
  0
DICTIONARY
  5
30
102
{ACAD_REACTORS
330
9
102
}
330
9
100
AcDbDictionary
281
     1
  3
2dWireframe
350
479
  3
Basic
350
47C
  3
Brighten
350
480
  3
ColorChange
350
484
  3
Conceptual
350
47E
  3
Dim
350
47F
  3
EdgeColorOff
350
487
  3
Facepattern
350
483
  3
Flat
350
475
  3
FlatWithEdges
350
476
  3
Gouraud
350
477
  3
GouraudWithEdges
350
478
  3
Hidden
350
47B
  3
JitterOff
350
485
  3
Linepattern
350
482
  3
OverhangOff
350
486
  3
Realistic
350
47D
  3
Shaded
350
48C
  3
Shaded with edges
350
48B
  3
Shades of Gray
350
488
  3
Sketchy
350
489
  3
Thicken
350
481
  3
Wireframe
350
47A
  3
X-Ray
350
48A
  0
DICTIONARY
  5
547
102
{ACAD_REACTORS
330
9
102
}
330
9
100
AcDbDictionary
281
     1
  3
COLORDICT
350
548
  3
MATERIALDICT
350
549
  0
DICTIONARY
  5
46E
102
{ACAD_REACTORS
330
9
102
}
330
9
100
AcDbDictionary
281
     1
  3
CANNOSCALE
350
46F
  3
CMLEADERSTYLE
350
541
  3
CTABLESTYLE
350
544
  3
DIMASSOC
350
545
  3
HIDETEXT
350
546
  3
MSLTSCALE
350
54D
  3
XCLIPFRAME
350
472
  0
XRECORD
  5
54A
102
{ACAD_REACTORS
330
9
102
}
330
9
100
AcDbXrecord
280
     1
  1
DWGPROPS COOKIE
  2

  3

  4

  6

  7

  8
sg-d04
  9

300
=
301
=
302
=
303
=
304
=
305
=
306
=
307
=
308
=
309
=
 40
0.0
 41
2457528.04395978
 42
2457870.23983294
  1

 90
        0
  0
XRECORD
  5
54C
102
{ACAD_REACTORS
330
54B
102
}
330
54B
100
AcDbXrecord
280
     1
102
VTR_0.000_0.000_1.000_1.000_VISUALSTYLE
340
479
102
VTR_0.000_0.000_1.000_1.000_GRIDDISPLAY
 70
     3
102
VTR_0.000_0.000_1.000_1.000_GRIDMAJOR
 70
     5
102
VTR_0.000_0.000_1.000_1.000_DEFAULTLIGHTING
280
     1
102
VTR_0.000_0.000_1.000_1.000_DEFAULTLIGHTINGTYPE
 70
     1
102
VTR_0.000_0.000_1.000_1.000_BRIGHTNESS
141
0.0
102
VTR_0.000_0.000_1.000_1.000_CONTRAST
142
0.0
  0
DICTIONARY
  5
4
102
{ACAD_REACTORS
330
3
102
}
330
3
100
AcDbDictionary
281
     1
  0
XRECORD
  5
21
102
{ACAD_REACTORS
330
20
102
}
330
20
100
AcDbXrecord
280
     1
290
     1
  0
XRECORD
  5
D6
102
{ACAD_REACTORS
330
D5
102
}
330
D5
100
AcDbXrecord
280
     1
290
     1
  0
XRECORD
  5
6
102
{ACAD_REACTORS
330
5
102
}
330
5
100
AcDbXrecord
280
     1
290
     1
  0
XRECORD
  5
D0
102
{ACAD_REACTORS
330
CF
102
}
330
CF
100
AcDbXrecord
280
     1
290
     1
  0
XRECORD
  5
5B
102
{ACAD_REACTORS
330
5A
102
}
330
5A
100
AcDbXrecord
280
     1
290
     1
  0
XRECORD
  5
63
102
{ACAD_REACTORS
330
62
102
}
330
62
100
AcDbXrecord
280
     1
290
     1
  0
XRECORD
  5
C9
102
{ACAD_REACTORS
330
C8
102
}
330
C8
100
AcDbXrecord
280
     1
290
     1
  0
SORTENTSTABLE
  5
1D
102
{ACAD_REACTORS
330
1C
102
}
330
1C
100
AcDbSortentsTable
330
1B
331
0
  5
400
331
1A2
  5
174
331
1A3
  5
173
331
1A4
  5
172
331
1A5
  5
171
331
1A6
  5
170
331
1A7
  5
16F
331
1A8
  5
16E
331
1A9
  5
16D
331
1AA
  5
16C
331
1AB
  5
16B
331
1AC
  5
16A
331
1AD
  5
169
331
1AE
  5
168
331
1AF
  5
167
331
1B0
  5
166
331
1B1
  5
165
331
1B2
  5
164
331
1B3
  5
163
331
1B4
  5
162
331
1B5
  5
161
331
1B6
  5
160
331
1B7
  5
15F
331
1B8
  5
15E
331
1B9
  5
15D
331
1BA
  5
15C
331
1BB
  5
15B
331
1BC
  5
15A
331
1BD
  5
159
331
1BE
  5
158
331
1BF
  5
157
331
1C0
  5
156
331
1C1
  5
155
331
1C2
  5
154
331
1C3
  5
153
331
1C4
  5
152
331
1C5
  5
151
331
1C6
  5
150
331
1C7
  5
14F
331
1C8
  5
14E
331
1C9
  5
14D
331
1CA
  5
14C
331
1CB
  5
14B
331
1CC
  5
14A
331
1CD
  5
149
331
1CE
  5
148
331
1CF
  5
147
331
1D0
  5
146
331
1D1
  5
145
331
1D2
  5
144
331
1D3
  5
143
331
1D4
  5
142
331
1D5
  5
141
331
1D6
  5
140
331
1D7
  5
13F
331
1D8
  5
13E
331
1D9
  5
13D
331
1DA
  5
13C
331
1DB
  5
13B
331
1DC
  5
13A
331
1DD
  5
139
331
1DE
  5
138
331
1DF
  5
137
331
1E0
  5
136
331
1E1
  5
135
331
1E2
  5
134
331
1E3
  5
133
331
1E4
  5
132
331
1E5
  5
131
331
1E6
  5
130
331
1E7
  5
12F
331
1F1
  5
125
331
1F2
  5
124
331
1F3
  5
123
331
1F4
  5
122
331
1F5
  5
121
331
1F6
  5
120
331
1F7
  5
11F
331
200
  5
116
331
201
  5
115
331
202
  5
114
331
203
  5
113
331
204
  5
112
331
205
  5
111
331
206
  5
110
331
207
  5
10F
331
208
  5
10E
331
209
  5
10D
331
20A
  5
10C
331
20B
  5
10B
331
210
  5
106
331
211
  5
105
331
212
  5
104
331
213
  5
103
331
214
  5
102
331
215
  5
101
331
216
  5
100
331
217
  5
FF
331
218
  5
FE
331
219
  5
FD
331
21A
  5
FC
331
21C
  5
FA
331
21D
  5
F9
331
21E
  5
F8
331
21F
  5
F7
331
220
  5
F6
331
221
  5
F5
331
222
  5
F4
331
224
  5
F2
331
225
  5
F1
331
22D
  5
E9
331
22E
  5
E8
331
22F
  5
E7
331
230
  5
E6
331
232
  5
E4
331
233
  5
E3
331
23B
  5
DB
331
23C
  5
DA
331
23D
  5
D9
331
23E
  5
D8
331
23F
  5
D7
331
240
  5
D3
331
241
  5
D2
331
242
  5
D1
331
243
  5
CD
331
244
  5
CC
331
245
  5
CB
331
246
  5
CA
331
247
  5
C6
331
248
  5
C5
331
249
  5
C4
331
251
  5
BC
331
254
  5
B9
331
255
  5
B8
331
257
  5
B6
331
25B
  5
B2
331
25C
  5
B1
331
25D
  5
B0
331
25F
  5
AE
331
260
  5
AD
331
264
  5
A9
331
265
  5
A8
331
269
  5
A4
331
26A
  5
A3
331
26C
  5
A1
331
26D
  5
A0
331
26E
  5
9F
331
26F
  5
9E
331
270
  5
9D
331
271
  5
9C
331
272
  5
9B
331
273
  5
9A
331
274
  5
99
331
275
  5
98
331
276
  5
97
331
277
  5
96
331
278
  5
95
331
279
  5
94
331
27A
  5
93
331
27B
  5
92
331
27C
  5
91
331
27D
  5
90
331
27E
  5
8F
331
27F
  5
8E
331
280
  5
8D
331
281
  5
8C
331
282
  5
8B
331
283
  5
8A
331
284
  5
89
331
285
  5
88
331
286
  5
87
331
287
  5
86
331
288
  5
85
331
289
  5
84
331
28A
  5
83
331
28B
  5
82
331
28C
  5
81
331
28D
  5
80
331
28E
  5
7F
331
28F
  5
7E
331
290
  5
7D
331
291
  5
7C
331
292
  5
7B
331
293
  5
7A
331
294
  5
79
331
295
  5
78
331
296
  5
77
331
297
  5
76
331
298
  5
75
331
299
  5
74
331
29A
  5
73
331
29B
  5
72
331
29C
  5
71
331
29D
  5
70
331
29E
  5
6E
331
29F
  5
6C
331
2A0
  5
6A
331
2A1
  5
68
331
2A2
  5
67
331
2A3
  5
66
331
2A4
  5
65
331
2A5
  5
64
331
2A6
  5
60
331
2A7
  5
5F
331
2A8
  5
5E
331
2A9
  5
5D
331
2AA
  5
58
331
2AB
  5
2AF
331
2AC
  5
2B0
331
2AD
  5
2B1
331
2AE
  5
2B2
331
2AF
  5
2B3
331
2B4
  5
2B8
331
2B5
  5
2B9
331
2B6
  5
2BA
331
2B7
  5
2BB
331
2B8
  5
2BC
331
2B9
  5
2BD
331
2BA
  5
2BE
331
2BB
  5
2BF
331
2BC
  5
2C0
331
2BD
  5
2C1
331
2BE
  5
2C2
331
2BF
  5
2C3
331
2C0
  5
2C4
331
2C1
  5
2C5
331
2C2
  5
2C6
331
2C3
  5
2C7
331
2C4
  5
2C8
331
2C5
  5
2C9
331
2C6
  5
2CA
331
2D4
  5
2D8
331
2D5
  5
2D9
331
2D6
  5
2DA
331
2D7
  5
2DB
331
2D9
  5
2DD
331
2DA
  5
2DE
331
2DF
  5
2E3
331
2E0
  5
2E4
331
2E1
  5
2E5
331
2E3
  5
2E7
331
2F1
  5
2F5
331
2F2
  5
2F6
331
2F3
  5
2F7
331
2F4
  5
2F8
331
2F5
  5
2F9
331
2F6
  5
2FA
331
2F7
  5
2FB
331
2FD
  5
301
331
2FE
  5
302
331
2FF
  5
303
331
300
  5
304
331
301
  5
305
331
302
  5
306
331
303
  5
307
331
304
  5
308
331
305
  5
309
331
306
  5
30A
331
307
  5
30B
331
308
  5
30C
331
309
  5
30D
331
30A
  5
30E
331
30B
  5
30F
331
30C
  5
310
331
30D
  5
311
331
30E
  5
312
331
30F
  5
313
331
310
  5
314
331
311
  5
315
331
313
  5
317
331
314
  5
318
331
315
  5
319
331
316
  5
31A
331
319
  5
31F
331
31A
  5
320
331
31B
  5
321
331
31C
  5
322
331
31D
  5
324
331
31F
  5
326
331
320
  5
327
331
321
  5
328
331
322
  5
329
331
323
  5
32A
331
324
  5
32E
331
325
  5
336
331
331
  5
338
331
332
  5
339
331
333
  5
33A
331
334
  5
33B
331
335
  5
33C
331
336
  5
33D
331
337
  5
33F
331
338
  5
342
331
33A
  5
343
331
33D
  5
346
331
33E
  5
347
331
341
  5
348
331
342
  5
349
331
343
  5
34A
331
344
  5
34B
331
345
  5
34C
331
346
  5
34D
331
347
  5
34F
331
348
  5
350
331
34A
  5
351
331
34B
  5
357
331
34C
  5
358
331
352
  5
359
331
353
  5
35A
331
354
  5
35B
331
355
  5
35C
331
356
  5
35D
331
357
  5
35E
331
358
  5
35F
331
359
  5
360
331
35A
  5
361
331
35B
  5
362
331
35C
  5
363
331
35D
  5
364
331
35E
  5
365
331
35F
  5
366
331
360
  5
367
331
361
  5
368
331
362
  5
369
331
363
  5
36A
331
364
  5
36B
331
365
  5
36D
331
366
  5
36E
331
368
  5
36F
331
369
  5
370
331
36A
  5
371
331
36B
  5
372
331
36C
  5
373
331
36D
  5
374
331
36E
  5
375
331
36F
  5
376
331
370
  5
37B
331
371
  5
37C
331
384
  5
38B
331
388
  5
38F
331
389
  5
390
331
38A
  5
392
331
38B
  5
393
331
38D
  5
394
331
38E
  5
395
331
38F
  5
396
331
390
  5
397
331
392
  5
399
331
394
  5
39B
331
395
  5
39C
331
396
  5
39D
331
397
  5
39E
331
398
  5
39F
331
399
  5
3A0
331
39A
  5
3A1
331
39B
  5
3A2
331
39C
  5
3A3
331
39D
  5
3A4
331
39E
  5
3A5
331
39F
  5
3A6
331
3A0
  5
3A7
331
3A1
  5
3A8
331
3A2
  5
3A9
331
3A3
  5
3AA
331
3A4
  5
3AB
331
3A5
  5
3AC
331
3A6
  5
3AD
331
3A7
  5
3AE
331
3A8
  5
3AF
331
3A9
  5
3B0
331
3AA
  5
3B1
331
3AB
  5
3B2
331
3AC
  5
3B3
331
3AD
  5
3B4
331
3AE
  5
3B5
331
3AF
  5
3B6
331
3B0
  5
3B7
331
3B1
  5
3B8
331
3B2
  5
3B9
331
3B3
  5
3BA
331
3B4
  5
3BB
331
3B5
  5
3BC
331
3B6
  5
3BD
331
3B7
  5
3BE
331
3B8
  5
3BF
331
3B9
  5
3C0
331
3BA
  5
3C1
331
3BB
  5
3C2
331
3BC
  5
3C3
331
3BD
  5
3C4
331
3BE
  5
3C5
331
3BF
  5
3C6
331
3C0
  5
3C7
331
3C1
  5
3C8
331
3C2
  5
3C9
331
3C3
  5
3CA
331
3C4
  5
3CB
331
3C5
  5
3CC
331
3C6
  5
3CD
331
3C7
  5
3CE
331
3C8
  5
3CF
331
3C9
  5
3D0
331
3CA
  5
3D1
331
3CB
  5
3D2
331
3CC
  5
3D3
331
3CD
  5
3D4
331
3CE
  5
3D5
331
3CF
  5
3D6
331
3D0
  5
3D7
331
3D1
  5
3D8
331
3D2
  5
3D9
331
3D3
  5
3DB
331
3D4
  5
3DC
331
3D5
  5
3DD
331
3D6
  5
3DE
331
3D7
  5
3DF
331
3D8
  5
3E0
331
3D9
  5
3E1
331
3DA
  5
3E2
331
3DB
  5
3E3
331
3DC
  5
3E4
331
3DD
  5
3E5
331
3DE
  5
3E6
331
3DF
  5
3E7
331
3E0
  5
3E8
331
3E1
  5
3E9
331
3E2
  5
3EA
331
3E3
  5
3EB
331
3E4
  5
3EC
331
3E5
  5
3ED
331
3E6
  5
3EF
331
3E7
  5
3F0
331
3E8
  5
3F1
331
3EC
  5
3F4
331
3F3
  5
3FB
331
3F7
  5
3FF
331
402
  5
40B
331
403
  5
40C
331
404
  5
40D
331
405
  5
40E
331
406
  5
40F
331
409
  5
412
331
40A
  5
413
331
40B
  5
414
331
40C
  5
415
331
40D
  5
416
331
40E
  5
417
331
40F
  5
418
331
410
  5
419
331
428
  5
431
331
42F
  5
438
331
430
  5
439
331
433
  5
43C
331
434
  5
43D
331
43A
  5
443
331
43B
  5
444
331
450
  5
459
331
451
  5
45A
331
452
  5
45B
331
453
  5
45C
331
454
  5
45D
331
455
  5
45E
331
456
  5
45F
331
457
  5
460
331
458
  5
461
331
459
  5
462
331
45A
  5
464
331
45B
  5
465
331
45C
  5
466
331
45D
  5
467
331
45F
  5
46C
331
460
  5
46D
331
461
  5
48D
331
462
  5
48E
331
467
  5
48F
331
468
  5
490
331
469
  5
492
331
46A
  5
493
331
46B
  5
494
331
46C
  5
495
331
48D
  5
496
331
48E
  5
497
331
48F
  5
498
331
490
  5
499
331
491
  5
49A
331
493
  5
49D
331
494
  5
49E
331
495
  5
49F
331
496
  5
4A0
331
497
  5
4A4
331
498
  5
4A5
331
4B0
  5
4BC
331
4B1
  5
4BD
331
4B2
  5
4BE
331
4B3
  5
4BF
331
4B4
  5
4C0
331
4B5
  5
4C1
331
4B6
  5
4C2
331
4B7
  5
4C3
331
4B8
  5
4C4
331
4B9
  5
4C5
331
4BA
  5
4C6
331
4BB
  5
4C7
331
4BC
  5
4C8
331
4BD
  5
323
331
4BE
  5
6B
331
4BF
  5
6F
331
4C0
  5
6D
331
4C1
  5
69
331
4C3
  5
4CA
331
4C4
  5
4CB
331
4C5
  5
4CC
331
4C7
  5
4CE
331
4C8
  5
4CF
331
4C9
  5
4D0
331
4CA
  5
4D1
331
4CB
  5
4D3
331
4CC
  5
4D4
331
4CD
  5
4D5
331
4CE
  5
4D6
331
4CF
  5
4D7
331
4D0
  5
4D8
331
4D1
  5
4D9
331
509
  5
512
331
50A
  5
513
331
50B
  5
514
331
50C
  5
515
331
50D
  5
516
331
510
  5
517
331
511
  5
518
331
512
  5
519
331
513
  5
51A
331
514
  5
51B
331
515
  5
51C
331
516
  5
51D
331
517
  5
51E
331
518
  5
51F
331
519
  5
520
331
51A
  5
521
331
51B
  5
522
331
51C
  5
523
331
51D
  5
524
331
51E
  5
526
331
51F
  5
527
331
520
  5
528
331
521
  5
529
331
522
  5
52A
331
523
  5
52B
331
524
  5
52C
  0
LAYOUT
  5
23
102
{ACAD_REACTORS
330
24
102
}
330
24
100
AcDbPlotSettings
  1

  2
Bullzip PDF Printer.pc3
  4
A3
  6

 40
0.2
 41
0.0
 42
0.0
 43
0.0
 44
420.2
 45
297.1
 46
25.0
 47
12.0
 48
45.99999990666663
 49
10.0
140
809.9999981566668
141
554.9999987283333
142
1.0
143
2.0
 70
 11936
 72
     1
 73
     0
 74
     4
  7
monochrome.ctb
 75
    17
147
0.5
148
-45.99999990666663
149
-10.0
100
AcDbLayout
  1
Model
 70
     0
 71
     0
 10
0.0
 20
0.0
 11
12.0
 21
9.0
 12
0.0
 22
0.0
 32
0.0
 14
152.7432199091207
 24
19.60023349082854
 34
0.0
 15
668.62288917583
 25
531.1429327091153
 35
0.0
146
0.0
 13
0.0
 23
0.0
 33
0.0
 16
1.0
 26
0.0
 36
0.0
 17
0.0
 27
1.0
 37
0.0
 76
     0
330
1B
331
31
1001
ACAD_PSEXT
1000
Bullzip PDF Printer.pc3
1000
Bullzip PDF Printer
1000
BULLZIP
1000
Bullzip PDF Printer 10.1.0.1871
1070
     0
  0
LAYOUT
  5
29
102
{ACAD_REACTORS
330
24
102
}
330
24
100
AcDbPlotSettings
  1

  2
SR-LP8300F
  4

  6

 40
0.0
 41
0.0
 42
0.0
 43
0.0
 44
0.0
 45
0.0
 46
0.0
 47
0.0
 48
0.0
 49
0.0
140
0.0
141
0.0
142
1.0
143
1.0
 70
   688
 72
     0
 73
     0
 74
     5
  7
monochrome.ctb
 75
    16
147
1.0
148
0.0
149
0.0
100
AcDbLayout
  1
ﾚｲｱｳﾄ1
 70
     0
 71
     1
 10
0.0
 20
0.0
 11
12.0
 21
9.0
 12
0.0
 22
0.0
 32
0.0
 14
1.000000000000000E+20
 24
1.000000000000000E+20
 34
1.000000000000000E+20
 15
-1.000000000000000E+20
 25
-1.000000000000000E+20
 35
-1.000000000000000E+20
146
0.0
 13
0.0
 23
0.0
 33
0.0
 16
1.0
 26
0.0
 36
0.0
 17
0.0
 27
1.0
 37
0.0
 76
     0
330
26
  0
MATERIAL
  5
57
102
{ACAD_REACTORS
330
B
102
}
102
{ACAD_XDICTIONARY
360
552
102
}
330
B
100
AcDbMaterial
  1
ByBlock
 72
     0
 73
     2
 43
0.0208333333333333
 43
0.0
 43
0.0
 43
0.0
 43
0.0
 43
0.0208333333333333
 43
0.0
 43
0.0
 43
0.0
 43
0.0
 43
1.0
 43
0.0
 43
0.0
 43
0.0
 43
0.0
 43
1.0
 77
     0
 78
     2
 47
0.0208333333333333
 47
0.0
 47
0.0
 47
0.0
 47
0.0
 47
0.0208333333333333
 47
0.0
 47
0.0
 47
0.0
 47
0.0
 47
1.0
 47
0.0
 47
0.0
 47
0.0
 47
0.0
 47
1.0
171
     0
172
     2
 49
0.0208333333333333
 49
0.0
 49
0.0
 49
0.0
 49
0.0
 49
0.0208333333333333
 49
0.0
 49
0.0
 49
0.0
 49
0.0
 49
1.0
 49
0.0
 49
0.0
 49
0.0
 49
0.0
 49
1.0
175
     0
176
     2
142
0.0208333333333333
142
0.0
142
0.0
142
0.0
142
0.0
142
0.0208333333333333
142
0.0
142
0.0
142
0.0
142
0.0
142
1.0
142
0.0
142
0.0
142
0.0
142
0.0
142
1.0
179
     0
270
     2
144
0.0208333333333333
144
0.0
144
0.0
144
0.0
144
0.0
144
0.0208333333333333
144
0.0
144
0.0
144
0.0
144
0.0
144
1.0
144
0.0
144
0.0
144
0.0
144
0.0
144
1.0
274
     2
147
0.0208333333333333
147
0.0
147
0.0
147
0.0
147
0.0
147
0.0208333333333333
147
0.0
147
0.0
147
0.0
147
0.0
147
1.0
147
0.0
147
0.0
147
0.0
147
0.0
147
1.0
  0
MATERIAL
  5
14
102
{ACAD_REACTORS
330
B
102
}
102
{ACAD_XDICTIONARY
360
54E
102
}
330
B
100
AcDbMaterial
  1
ByLayer
 72
     0
 73
     2
 43
0.0208333333333333
 43
0.0
 43
0.0
 43
0.0
 43
0.0
 43
0.0208333333333333
 43
0.0
 43
0.0
 43
0.0
 43
0.0
 43
1.0
 43
0.0
 43
0.0
 43
0.0
 43
0.0
 43
1.0
 77
     0
 78
     2
 47
0.0208333333333333
 47
0.0
 47
0.0
 47
0.0
 47
0.0
 47
0.0208333333333333
 47
0.0
 47
0.0
 47
0.0
 47
0.0
 47
1.0
 47
0.0
 47
0.0
 47
0.0
 47
0.0
 47
1.0
171
     0
172
     2
 49
0.0208333333333333
 49
0.0
 49
0.0
 49
0.0
 49
0.0
 49
0.0208333333333333
 49
0.0
 49
0.0
 49
0.0
 49
0.0
 49
1.0
 49
0.0
 49
0.0
 49
0.0
 49
0.0
 49
1.0
175
     0
176
     2
142
0.0208333333333333
142
0.0
142
0.0
142
0.0
142
0.0
142
0.0208333333333333
142
0.0
142
0.0
142
0.0
142
0.0
142
1.0
142
0.0
142
0.0
142
0.0
142
0.0
142
1.0
179
     0
270
     2
144
0.0208333333333333
144
0.0
144
0.0
144
0.0
144
0.0
144
0.0208333333333333
144
0.0
144
0.0
144
0.0
144
0.0
144
1.0
144
0.0
144
0.0
144
0.0
144
0.0
144
1.0
274
     2
147
0.0208333333333333
147
0.0
147
0.0
147
0.0
147
0.0
147
0.0208333333333333
147
0.0
147
0.0
147
0.0
147
0.0
147
1.0
147
0.0
147
0.0
147
0.0
147
0.0
147
1.0
  0
MATERIAL
  5
A
102
{ACAD_REACTORS
330
B
102
}
102
{ACAD_XDICTIONARY
360
550
102
}
330
B
100
AcDbMaterial
  1
Global
 72
     0
 73
     2
 43
0.0208333333333333
 43
0.0
 43
0.0
 43
0.0
 43
0.0
 43
0.0208333333333333
 43
0.0
 43
0.0
 43
0.0
 43
0.0
 43
1.0
 43
0.0
 43
0.0
 43
0.0
 43
0.0
 43
1.0
 77
     0
 78
     2
 47
0.0208333333333333
 47
0.0
 47
0.0
 47
0.0
 47
0.0
 47
0.0208333333333333
 47
0.0
 47
0.0
 47
0.0
 47
0.0
 47
1.0
 47
0.0
 47
0.0
 47
0.0
 47
0.0
 47
1.0
171
     0
172
     2
 49
0.0208333333333333
 49
0.0
 49
0.0
 49
0.0
 49
0.0
 49
0.0208333333333333
 49
0.0
 49
0.0
 49
0.0
 49
0.0
 49
1.0
 49
0.0
 49
0.0
 49
0.0
 49
0.0
 49
1.0
175
     0
176
     2
142
0.0208333333333333
142
0.0
142
0.0
142
0.0
142
0.0
142
0.0208333333333333
142
0.0
142
0.0
142
0.0
142
0.0
142
1.0
142
0.0
142
0.0
142
0.0
142
0.0
142
1.0
179
     0
270
     2
144
0.0208333333333333
144
0.0
144
0.0
144
0.0
144
0.0
144
0.0208333333333333
144
0.0
144
0.0
144
0.0
144
0.0
144
1.0
144
0.0
144
0.0
144
0.0
144
0.0
144
1.0
274
     2
147
0.0208333333333333
147
0.0
147
0.0
147
0.0
147
0.0
147
0.0208333333333333
147
0.0
147
0.0
147
0.0
147
0.0
147
1.0
147
0.0
147
0.0
147
0.0
147
0.0
147
1.0
1001
ACAD
1070
    -1
1070
     3
1070
     0
1000

1071
        0
  0
MLEADERSTYLE
  5
53D
102
{ACAD_REACTORS
330
471
102
}
102
{ACAD_XDICTIONARY
360
584
102
}
330
471
100
AcDbMLeaderStyle
170
     2
171
     1
172
     0
 90
        2
 40
0.0
 41
0.0
173
     1
 91
-1056964608
340
11
 92
       -2
290
     1
 42
0.09
291
     1
 43
0.36
  3
Standard
341
0
 44
0.18
300

342
12
174
     1
178
     6
175
     1
176
     0
 93
-1056964608
 45
0.18
292
     0
297
     0
 46
0.18
343
0
 94
-1056964608
 47
1.0
 49
1.0
140
1.0
293
     1
141
0.0
294
     1
177
     0
142
1.0
295
     0
296
     0
143
0.125
1001
ACAD_MLEADERVER
1070
     2
  0
MLINESTYLE
  5
18
102
{ACAD_REACTORS
330
19
102
}
330
19
100
AcDbMlineStyle
  2
STANDARD
 70
     0
  3

 62
     0
 51
90.0
 52
90.0
 71
     2
 49
0.5
 62
   256
  6
BYLAYER
 49
-0.5
 62
   256
  6
BYLAYER
  0
ACDBPLACEHOLDER
  5
7
102
{ACAD_REACTORS
330
8
102
}
330
8
  0
SCALE
  5
56
102
{ACAD_REACTORS
330
34
102
}
330
34
100
AcDbScale
 70
     0
300
1:1
140
1.0
141
1.0
290
     1
  0
TABLESTYLE
  5
543
102
{ACAD_REACTORS
330
470
102
}
330
470
100
AcDbTableStyle
  3
Standard
 70
     0
 71
     0
 40
0.06
 41
0.06
280
     0
281
     0
  7
STANDARD
140
0.18
170
     2
 62
     0
 63
   257
283
     0
274
    -2
284
     1
 64
     0
275
    -2
285
     1
 65
     0
276
    -2
286
     1
 66
     0
277
    -2
287
     1
 67
     0
278
    -2
288
     1
 68
     0
279
    -2
289
     1
 69
     0
  7
STANDARD
140
0.25
170
     5
 62
     0
 63
   257
283
     0
274
    -2
284
     1
 64
     0
275
    -2
285
     1
 65
     0
276
    -2
286
     1
 66
     0
277
    -2
287
     1
 67
     0
278
    -2
288
     1
 68
     0
279
    -2
289
     1
 69
     0
  7
STANDARD
140
0.18
170
     5
 62
     0
 63
   257
283
     0
274
    -2
284
     1
 64
     0
275
    -2
285
     1
 65
     0
276
    -2
286
     1
 66
     0
277
    -2
287
     1
 67
     0
278
    -2
288
     1
 68
     0
279
    -2
289
     1
 69
     0
  0
VISUALSTYLE
  5
479
102
{ACAD_REACTORS
330
30
102
}
102
{ACAD_XDICTIONARY
360
55C
102
}
330
30
100
AcDbVisualStyle
  2
2dWireframe
 70
     4
 71
     0
 72
     2
 73
     0
 90
        0
 40
0.6
 41
30.0
 62
     5
 63
     7
 74
     1
 91
        4
 64
     7
 65
   257
 75
     1
175
     1
 42
1.0
 92
        0
 66
   257
 43
1.0
 76
     1
 77
     6
 78
     2
 67
     7
 79
     5
170
     0
171
     0
290
     0
174
     0
 93
        1
 44
0.0
173
     0
291
     0
 45
0.0
1001
ACAD
1000
AcDbSavedByObjectVersion
1070
     0
  0
VISUALSTYLE
  5
47C
102
{ACAD_REACTORS
330
30
102
}
102
{ACAD_XDICTIONARY
360
562
102
}
330
30
100
AcDbVisualStyle
  2
Basic
 70
     7
 71
     1
 72
     0
 73
     1
 90
        0
 40
0.6
 41
30.0
 62
     5
 63
     7
 74
     0
 91
        4
 64
     7
 65
   257
 75
     1
175
     1
 42
1.0
 92
        8
 66
     7
 43
1.0
 76
     1
 77
     6
 78
     2
 67
     7
 79
     5
170
     0
171
     0
290
     0
174
     0
 93
        1
 44
0.0
173
     0
291
     1
 45
0.0
1001
ACAD
1000
AcDbSavedByObjectVersion
1070
     0
  0
VISUALSTYLE
  5
480
102
{ACAD_REACTORS
330
30
102
}
102
{ACAD_XDICTIONARY
360
56A
102
}
330
30
100
AcDbVisualStyle
  2
Brighten
 70
    12
 71
     2
 72
     2
 73
     0
 90
        0
 40
0.6
 41
30.0
 62
     5
 63
     7
 74
     1
 91
        4
 64
     7
 65
   257
 75
     1
175
     1
 42
1.0
 92
        8
 66
     7
 43
1.0
 76
     1
 77
     6
 78
     2
 67
     7
 79
     5
170
     0
171
     0
290
     0
174
     0
 93
        1
 44
50.0
173
     0
291
     1
 45
0.0
1001
ACAD
1000
AcDbSavedByObjectVersion
1070
     0
  0
VISUALSTYLE
  5
484
102
{ACAD_REACTORS
330
30
102
}
102
{ACAD_XDICTIONARY
360
572
102
}
330
30
100
AcDbVisualStyle
  2
ColorChange
 70
    16
 71
     2
 72
     2
 73
     3
 90
        0
 40
0.6
 41
30.0
 62
     5
 63
     8
 74
     1
 91
        4
 64
     7
 65
   257
 75
     1
175
     1
 42
1.0
 92
        8
 66
     8
 43
1.0
 76
     1
 77
     6
 78
     2
 67
     7
 79
     5
170
     0
171
     0
290
     0
174
     0
 93
        1
 44
0.0
173
     0
291
     1
 45
0.0
1001
ACAD
1000
AcDbSavedByObjectVersion
1070
     0
  0
VISUALSTYLE
  5
47E
102
{ACAD_REACTORS
330
30
102
}
102
{ACAD_XDICTIONARY
360
566
102
}
330
30
100
AcDbVisualStyle
  2
Conceptual
 70
     9
 71
     3
 72
     2
 73
     0
 90
        0
 40
0.6
 41
30.0
 62
     5
 63
     7
 74
     2
 91
        2
 64
     7
 65
   257
 75
     1
175
     1
 42
40.0
 92
        8
 66
     7
 43
1.0
 76
     1
 77
     6
 78
     2
 67
     7
 79
     3
170
     0
171
     0
290
     0
174
     0
 93
        1
 44
0.0
173
     0
291
     0
 45
0.0
1001
ACAD
1000
AcDbSavedByObjectVersion
1070
     0
  0
VISUALSTYLE
  5
47F
102
{ACAD_REACTORS
330
30
102
}
102
{ACAD_XDICTIONARY
360
568
102
}
330
30
100
AcDbVisualStyle
  2
Dim
 70
    11
 71
     2
 72
     2
 73
     0
 90
        0
 40
0.6
 41
30.0
 62
     5
 63
     7
 74
     1
 91
        4
 64
     7
 65
   257
 75
     1
175
     1
 42
1.0
 92
        8
 66
     7
 43
1.0
 76
     1
 77
     6
 78
     2
 67
     7
 79
     5
170
     0
171
     0
290
     0
174
     0
 93
        1
 44
-50.0
173
     0
291
     1
 45
0.0
1001
ACAD
1000
AcDbSavedByObjectVersion
1070
     0
  0
VISUALSTYLE
  5
487
102
{ACAD_REACTORS
330
30
102
}
102
{ACAD_XDICTIONARY
360
578
102
}
330
30
100
AcDbVisualStyle
  2
EdgeColorOff
 70
    22
 71
     2
 72
     2
 73
     0
 90
        0
 40
0.6
 41
30.0
 62
     5
 63
     7
 74
     1
 91
        4
 64
     7
 65
   257
 75
     1
175
     1
 42
1.0
 92
        8
 66
     7
 43
1.0
 76
     1
 77
     6
 78
     2
 67
     7
 79
     5
170
     0
171
     0
290
     0
174
     0
 93
        1
 44
0.0
173
     0
291
     1
 45
0.0
1001
ACAD
1000
AcDbSavedByObjectVersion
1070
     0
  0
VISUALSTYLE
  5
483
102
{ACAD_REACTORS
330
30
102
}
102
{ACAD_XDICTIONARY
360
570
102
}
330
30
100
AcDbVisualStyle
  2
Facepattern
 70
    15
 71
     2
 72
     2
 73
     0
 90
        0
 40
0.6
 41
30.0
 62
     5
 63
     7
 74
     1
 91
        4
 64
     7
 65
   257
 75
     1
175
     1
 42
1.0
 92
        8
 66
     7
 43
1.0
 76
     1
 77
     6
 78
     2
 67
     7
 79
     5
170
     0
171
     0
290
     0
174
     0
 93
        1
 44
0.0
173
     0
291
     1
 45
0.0
1001
ACAD
1000
AcDbSavedByObjectVersion
1070
     0
  0
VISUALSTYLE
  5
475
102
{ACAD_REACTORS
330
30
102
}
102
{ACAD_XDICTIONARY
360
554
102
}
330
30
100
AcDbVisualStyle
  2
Flat
 70
     0
 71
     2
 72
     1
 73
     1
 90
        2
 40
0.6
 41
30.0
 62
     5
 63
     7
 74
     0
 91
        4
 64
     7
 65
   257
 75
     1
175
     1
 42
1.0
 92
        8
 66
     7
 43
1.0
 76
     1
 77
     6
 78
     2
 67
     7
 79
     5
170
     0
171
     0
290
     0
174
     0
 93
       13
 44
0.0
173
     0
291
     1
 45
0.0
1001
ACAD
1000
AcDbSavedByObjectVersion
1070
     0
  0
VISUALSTYLE
  5
476
102
{ACAD_REACTORS
330
30
102
}
102
{ACAD_XDICTIONARY
360
556
102
}
330
30
100
AcDbVisualStyle
  2
FlatWithEdges
 70
     1
 71
     2
 72
     1
 73
     1
 90
        2
 40
0.6
 41
30.0
 62
     5
 63
     7
 74
     1
 91
        4
 64
     7
 65
   257
 75
     1
175
     1
 42
1.0
 92
        0
 66
   257
 43
1.0
 76
     1
 77
     6
 78
     2
 67
     7
 79
     5
170
     0
171
     0
290
     0
174
     0
 93
       13
 44
0.0
173
     0
291
     1
 45
0.0
1001
ACAD
1000
AcDbSavedByObjectVersion
1070
     0
  0
VISUALSTYLE
  5
477
102
{ACAD_REACTORS
330
30
102
}
102
{ACAD_XDICTIONARY
360
558
102
}
330
30
100
AcDbVisualStyle
  2
Gouraud
 70
     2
 71
     2
 72
     2
 73
     1
 90
        2
 40
0.6
 41
30.0
 62
     5
 63
     7
 74
     0
 91
        4
 64
     7
 65
   257
 75
     1
175
     1
 42
1.0
 92
        0
 66
     7
 43
1.0
 76
     1
 77
     6
 78
     2
 67
     7
 79
     5
170
     0
171
     0
290
     0
174
     0
 93
       13
 44
0.0
173
     0
291
     1
 45
0.0
1001
ACAD
1000
AcDbSavedByObjectVersion
1070
     0
  0
VISUALSTYLE
  5
478
102
{ACAD_REACTORS
330
30
102
}
102
{ACAD_XDICTIONARY
360
55A
102
}
330
30
100
AcDbVisualStyle
  2
GouraudWithEdges
 70
     3
 71
     2
 72
     2
 73
     1
 90
        2
 40
0.6
 41
30.0
 62
     5
 63
     7
 74
     1
 91
        4
 64
     7
 65
   257
 75
     1
175
     1
 42
1.0
 92
        0
 66
   257
 43
1.0
 76
     1
 77
     6
 78
     2
 67
     7
 79
     5
170
     0
171
     0
290
     0
174
     0
 93
       13
 44
0.0
173
     0
291
     1
 45
0.0
1001
ACAD
1000
AcDbSavedByObjectVersion
1070
     0
  0
VISUALSTYLE
  5
47B
102
{ACAD_REACTORS
330
30
102
}
102
{ACAD_XDICTIONARY
360
560
102
}
330
30
100
AcDbVisualStyle
  2
Hidden
 70
     6
 71
     1
 72
     2
 73
     2
 90
        0
 40
0.6
 41
30.0
 62
     5
 63
     7
 74
     2
 91
        2
 64
     7
 65
   257
 75
     2
175
     1
 42
40.0
 92
        0
 66
   257
 43
1.0
 76
     1
 77
     6
 78
     2
 67
     7
 79
     3
170
     0
171
     0
290
     0
174
     0
 93
        1
 44
0.0
173
     0
291
     0
 45
0.0
1001
ACAD
1000
AcDbSavedByObjectVersion
1070
     0
  0
VISUALSTYLE
  5
485
102
{ACAD_REACTORS
330
30
102
}
102
{ACAD_XDICTIONARY
360
574
102
}
330
30
100
AcDbVisualStyle
  2
JitterOff
 70
    20
 71
     2
 72
     2
 73
     0
 90
        0
 40
0.6
 41
30.0
 62
     5
 63
     7
 74
     1
 91
        4
 64
     7
 65
   257
 75
     1
175
     1
 42
1.0
 92
       10
 66
     7
 43
1.0
 76
     1
 77
     6
 78
     2
 67
     7
 79
     5
170
     0
171
     0
290
     0
174
     0
 93
        1
 44
0.0
173
     0
291
     1
 45
0.0
1001
ACAD
1000
AcDbSavedByObjectVersion
1070
     0
  0
VISUALSTYLE
  5
482
102
{ACAD_REACTORS
330
30
102
}
102
{ACAD_XDICTIONARY
360
56E
102
}
330
30
100
AcDbVisualStyle
  2
Linepattern
 70
    14
 71
     2
 72
     2
 73
     0
 90
        0
 40
0.6
 41
30.0
 62
     5
 63
     7
 74
     1
 91
        4
 64
     7
 65
   257
 75
     7
175
     7
 42
1.0
 92
        8
 66
     7
 43
1.0
 76
     1
 77
     6
 78
     2
 67
     7
 79
     5
170
     0
171
     0
290
     0
174
     0
 93
        1
 44
0.0
173
     0
291
     1
 45
0.0
1001
ACAD
1000
AcDbSavedByObjectVersion
1070
     0
  0
VISUALSTYLE
  5
486
102
{ACAD_REACTORS
330
30
102
}
102
{ACAD_XDICTIONARY
360
576
102
}
330
30
100
AcDbVisualStyle
  2
OverhangOff
 70
    21
 71
     2
 72
     2
 73
     0
 90
        0
 40
0.6
 41
30.0
 62
     5
 63
     7
 74
     1
 91
        4
 64
     7
 65
   257
 75
     1
175
     1
 42
1.0
 92
        9
 66
     7
 43
1.0
 76
     1
 77
     6
 78
     2
 67
     7
 79
     5
170
     0
171
     0
290
     0
174
     0
 93
        1
 44
0.0
173
     0
291
     1
 45
0.0
1001
ACAD
1000
AcDbSavedByObjectVersion
1070
     0
  0
VISUALSTYLE
  5
47D
102
{ACAD_REACTORS
330
30
102
}
102
{ACAD_XDICTIONARY
360
564
102
}
330
30
100
AcDbVisualStyle
  2
Realistic
 70
     8
 71
     2
 72
     3
 73
     0
 90
        2
 40
0.6
 41
30.0
 62
     5
 63
     7
 74
     0
 91
        0
 64
     7
 65
   257
 75
     1
175
     1
 42
1.0
 92
        8
 66
   257
 43
1.0
 76
     1
 77
     6
 78
     2
 67
     7
 79
     3
170
     0
171
     0
290
     0
174
     0
 93
       13
 44
0.0
173
     0
291
     0
 45
0.0
1001
ACAD
1000
AcDbSavedByObjectVersion
1070
     0
  0
VISUALSTYLE
  5
48C
102
{ACAD_REACTORS
330
30
102
}
102
{ACAD_XDICTIONARY
360
582
102
}
330
30
100
AcDbVisualStyle
  2
Shaded
 70
    27
 71
     2
 72
     2
 73
     1
 90
        2
 40
0.6
 41
30.0
 62
     5
 63
     7
 74
     0
 91
        4
 64
     7
 65
   257
 75
     1
175
     1
 42
1.0
 92
        8
 66
   257
 43
1.0
 76
     1
 77
     6
 78
     2
 67
   251
 79
     3
170
     0
171
     0
290
     0
174
     0
 93
        5
 44
0.0
173
     0
291
     0
 45
0.0
1001
ACAD
1000
AcDbSavedByObjectVersion
1070
     0
  0
VISUALSTYLE
  5
48B
102
{ACAD_REACTORS
330
30
102
}
102
{ACAD_XDICTIONARY
360
580
102
}
330
30
100
AcDbVisualStyle
  2
Shaded with edges
 70
    26
 71
     2
 72
     2
 73
     1
 90
        2
 40
0.6
 41
30.0
 62
     5
 63
     7
 74
     1
 91
       10
 64
     7
 65
   257
 75
     2
175
     1
 42
1.0
 92
        8
 66
   257
 43
1.0
 76
     1
 77
     6
 78
     2
 67
     7
 79
     3
170
     0
171
     0
290
     0
174
     0
 93
        5
 44
0.0
173
     0
291
     0
 45
0.0
1001
ACAD
1000
AcDbSavedByObjectVersion
1070
     0
  0
VISUALSTYLE
  5
488
102
{ACAD_REACTORS
330
30
102
}
102
{ACAD_XDICTIONARY
360
57A
102
}
330
30
100
AcDbVisualStyle
  2
Shades of Gray
 70
    23
 71
     2
 72
     2
 73
     3
 90
        0
 40
0.6
 41
30.0
 62
     5
 63
     7
 74
     2
 91
        2
 64
     7
 65
     7
 75
     1
175
     1
 42
40.0
 92
        8
 66
     7
 43
1.0
 76
     1
 77
     6
 78
     2
 67
     7
 79
     3
170
     0
171
     0
290
     0
174
     0
 93
        1
 44
0.0
173
     0
291
     0
 45
0.0
1001
ACAD
1000
AcDbSavedByObjectVersion
1070
     0
  0
VISUALSTYLE
  5
489
102
{ACAD_REACTORS
330
30
102
}
102
{ACAD_XDICTIONARY
360
57C
102
}
330
30
100
AcDbVisualStyle
  2
Sketchy
 70
    24
 71
     1
 72
     2
 73
     2
 90
        0
 40
0.6
 41
30.0
 62
     5
 63
     7
 74
     2
 91
        2
 64
     7
 65
     7
 75
     1
175
     1
 42
40.0
 92
       11
 66
     7
 43
1.0
 76
     1
 77
     6
 78
     2
 67
     7
 79
     6
170
     0
171
     0
290
     0
174
     0
 93
        1
 44
0.0
173
     0
291
     0
 45
0.0
1001
ACAD
1000
AcDbSavedByObjectVersion
1070
     0
  0
VISUALSTYLE
  5
481
102
{ACAD_REACTORS
330
30
102
}
102
{ACAD_XDICTIONARY
360
56C
102
}
330
30
100
AcDbVisualStyle
  2
Thicken
 70
    13
 71
     2
 72
     2
 73
     0
 90
        0
 40
0.6
 41
30.0
 62
     5
 63
     7
 74
     1
 91
        4
 64
     7
 65
   257
 75
     1
175
     1
 42
1.0
 92
       12
 66
     7
 43
1.0
 76
     1
 77
     6
 78
     2
 67
     7
 79
     5
170
     0
171
     0
290
     0
174
     0
 93
        1
 44
0.0
173
     0
291
     1
 45
0.0
1001
ACAD
1000
AcDbSavedByObjectVersion
1070
     0
  0
VISUALSTYLE
  5
47A
102
{ACAD_REACTORS
330
30
102
}
102
{ACAD_XDICTIONARY
360
55E
102
}
330
30
100
AcDbVisualStyle
  2
Wireframe
 70
     5
 71
     0
 72
     2
 73
     0
 90
        0
 40
0.6
 41
30.0
 62
     5
 63
     7
 74
     1
 91
        4
 64
     7
 65
   257
 75
     1
175
     1
 42
1.0
 92
        0
 66
   257
 43
1.0
 76
     1
 77
     6
 78
     2
 67
     7
 79
     5
170
     0
171
     0
290
     0
174
     0
 93
        1
 44
0.0
173
     0
291
     0
 45
0.0
1001
ACAD
1000
AcDbSavedByObjectVersion
1070
     0
  0
VISUALSTYLE
  5
48A
102
{ACAD_REACTORS
330
30
102
}
102
{ACAD_XDICTIONARY
360
57E
102
}
330
30
100
AcDbVisualStyle
  2
X-Ray
 70
    25
 71
     2
 72
     2
 73
     1
 90
        1
 40
0.5
 41
30.0
 62
     5
 63
     7
 74
     1
 91
        0
 64
     7
 65
   257
 75
     1
175
     1
 42
1.0
 92
        8
 66
     7
 43
1.0
 76
     1
 77
     6
 78
     2
 67
     7
 79
     3
170
     0
171
     0
290
     0
174
     0
 93
       13
 44
0.0
173
     0
291
     0
 45
0.0
1001
ACAD
1000
AcDbSavedByObjectVersion
1070
     0
  0
XRECORD
  5
548
102
{ACAD_REACTORS
330
547
102
}
330
547
100
AcDbXrecord
280
     1
340
2F
  0
XRECORD
  5
549
102
{ACAD_REACTORS
330
547
102
}
330
547
100
AcDbXrecord
280
     1
340
B
  0
DICTIONARYVAR
  5
46F
102
{ACAD_REACTORS
330
46E
102
}
330
46E
100
DictionaryVariables
280
     0
  1
1:1
  0
DICTIONARYVAR
  5
541
102
{ACAD_REACTORS
330
46E
102
}
330
46E
100
DictionaryVariables
280
     0
  1
Standard
  0
DICTIONARYVAR
  5
544
102
{ACAD_REACTORS
330
46E
102
}
330
46E
100
DictionaryVariables
280
     0
  1
Standard
  0
DICTIONARYVAR
  5
545
102
{ACAD_REACTORS
330
46E
102
}
330
46E
100
DictionaryVariables
280
     0
  1
0
  0
DICTIONARYVAR
  5
546
102
{ACAD_REACTORS
330
46E
102
}
330
46E
100
DictionaryVariables
280
     0
  1
1
  0
DICTIONARYVAR
  5
54D
102
{ACAD_REACTORS
330
46E
102
}
330
46E
100
DictionaryVariables
280
     0
  1
1
  0
DICTIONARYVAR
  5
472
102
{ACAD_REACTORS
330
46E
102
}
330
46E
100
DictionaryVariables
280
     0
  1
0
  0
DICTIONARY
  5
552
330
57
100
AcDbDictionary
280
     1
281
     1
  3
ACAD_XREC_ROUNDTRIP
360
553
  0
DICTIONARY
  5
54E
330
14
100
AcDbDictionary
280
     1
281
     1
  3
ACAD_XREC_ROUNDTRIP
360
54F
  0
DICTIONARY
  5
550
330
A
100
AcDbDictionary
280
     1
281
     1
  3
ACAD_XREC_ROUNDTRIP
360
551
  0
DICTIONARY
  5
584
330
53D
100
AcDbDictionary
280
     1
281
     1
  3
ACAD_XREC_ROUNDTRIP
360
585
  0
DICTIONARY
  5
55C
330
479
100
AcDbDictionary
280
     1
281
     1
  3
ACAD_XREC_ROUNDTRIP
360
55D
  0
DICTIONARY
  5
562
330
47C
100
AcDbDictionary
280
     1
281
     1
  3
ACAD_XREC_ROUNDTRIP
360
563
  0
DICTIONARY
  5
56A
330
480
100
AcDbDictionary
280
     1
281
     1
  3
ACAD_XREC_ROUNDTRIP
360
56B
  0
DICTIONARY
  5
572
330
484
100
AcDbDictionary
280
     1
281
     1
  3
ACAD_XREC_ROUNDTRIP
360
573
  0
DICTIONARY
  5
566
330
47E
100
AcDbDictionary
280
     1
281
     1
  3
ACAD_XREC_ROUNDTRIP
360
567
  0
DICTIONARY
  5
568
330
47F
100
AcDbDictionary
280
     1
281
     1
  3
ACAD_XREC_ROUNDTRIP
360
569
  0
DICTIONARY
  5
578
330
487
100
AcDbDictionary
280
     1
281
     1
  3
ACAD_XREC_ROUNDTRIP
360
579
  0
DICTIONARY
  5
570
330
483
100
AcDbDictionary
280
     1
281
     1
  3
ACAD_XREC_ROUNDTRIP
360
571
  0
DICTIONARY
  5
554
330
475
100
AcDbDictionary
280
     1
281
     1
  3
ACAD_XREC_ROUNDTRIP
360
555
  0
DICTIONARY
  5
556
330
476
100
AcDbDictionary
280
     1
281
     1
  3
ACAD_XREC_ROUNDTRIP
360
557
  0
DICTIONARY
  5
558
330
477
100
AcDbDictionary
280
     1
281
     1
  3
ACAD_XREC_ROUNDTRIP
360
559
  0
DICTIONARY
  5
55A
330
478
100
AcDbDictionary
280
     1
281
     1
  3
ACAD_XREC_ROUNDTRIP
360
55B
  0
DICTIONARY
  5
560
330
47B
100
AcDbDictionary
280
     1
281
     1
  3
ACAD_XREC_ROUNDTRIP
360
561
  0
DICTIONARY
  5
574
330
485
100
AcDbDictionary
280
     1
281
     1
  3
ACAD_XREC_ROUNDTRIP
360
575
  0
DICTIONARY
  5
56E
330
482
100
AcDbDictionary
280
     1
281
     1
  3
ACAD_XREC_ROUNDTRIP
360
56F
  0
DICTIONARY
  5
576
330
486
100
AcDbDictionary
280
     1
281
     1
  3
ACAD_XREC_ROUNDTRIP
360
577
  0
DICTIONARY
  5
564
330
47D
100
AcDbDictionary
280
     1
281
     1
  3
ACAD_XREC_ROUNDTRIP
360
565
  0
DICTIONARY
  5
582
330
48C
100
AcDbDictionary
280
     1
281
     1
  3
ACAD_XREC_ROUNDTRIP
360
583
  0
DICTIONARY
  5
580
330
48B
100
AcDbDictionary
280
     1
281
     1
  3
ACAD_XREC_ROUNDTRIP
360
581
  0
DICTIONARY
  5
57A
330
488
100
AcDbDictionary
280
     1
281
     1
  3
ACAD_XREC_ROUNDTRIP
360
57B
  0
DICTIONARY
  5
57C
330
489
100
AcDbDictionary
280
     1
281
     1
  3
ACAD_XREC_ROUNDTRIP
360
57D
  0
DICTIONARY
  5
56C
330
481
100
AcDbDictionary
280
     1
281
     1
  3
ACAD_XREC_ROUNDTRIP
360
56D
  0
DICTIONARY
  5
55E
330
47A
100
AcDbDictionary
280
     1
281
     1
  3
ACAD_XREC_ROUNDTRIP
360
55F
  0
DICTIONARY
  5
57E
330
48A
100
AcDbDictionary
280
     1
281
     1
  3
ACAD_XREC_ROUNDTRIP
360
57F
  0
XRECORD
  5
553
102
{ACAD_REACTORS
330
552
102
}
330
552
100
AcDbXrecord
280
     1
102
MATERIAL
148
0.0
149
0.0
149
0.0
 93
        0
 94
      127
282
     0
 72
     0
 77
     0
171
     0
175
     0
179
     0
273
     0
  0
XRECORD
  5
54F
102
{ACAD_REACTORS
330
54E
102
}
330
54E
100
AcDbXrecord
280
     1
102
MATERIAL
148
0.0
149
0.0
149
0.0
 93
        0
 94
      127
282
     0
 72
     0
 77
     0
171
     0
175
     0
179
     0
273
     0
  0
XRECORD
  5
551
102
{ACAD_REACTORS
330
550
102
}
330
550
100
AcDbXrecord
280
     1
102
MATERIAL
148
0.0
149
0.0
149
0.0
 93
        0
 94
      127
282
     0
 72
     0
 77
     0
171
     0
175
     0
179
     0
273
     0
  0
XRECORD
  5
585
102
{ACAD_REACTORS
330
584
102
}
330
584
100
AcDbXrecord
280
     1
102
ACAD_ROUNDTRIP_2010_MLEADER_STYLE
  0
XRECORD
  5
55D
102
{ACAD_REACTORS
330
55C
102
}
330
55C
100
AcDbXrecord
280
     1
102
RTVSPropertyOp0
 70
     1
102
RTVSPropertyOp1
 70
     1
102
RTVSPropertyOp2
 70
     1
102
RTVSPropertyOp3
 70
     1
102
RTVSPropertyOp4
 70
     1
102
RTVSPropertyOp5
 70
     1
102
RTVSPropertyOp6
 70
     1
102
RTVSPropertyOp7
 70
     1
102
RTVSPropertyOp8
 70
     1
102
RTVSPropertyOp9
 70
     1
102
RTVSPropertyOp10
 70
     1
102
RTVSPropertyOp11
 70
     1
102
RTVSPropertyOp12
 70
     1
102
RTVSPropertyOp13
 70
     1
102
RTVSPropertyOp14
 70
     1
102
RTVSPropertyOp15
 70
     1
102
RTVSPropertyOp16
 70
     1
102
RTVSPropertyOp17
 70
     1
102
RTVSPropertyOp18
 70
     1
102
RTVSPropertyOp19
 70
     1
102
RTVSPropertyOp20
 70
     1
102
RTVSPropertyOp21
 70
     1
102
RTVSPropertyOp22
 70
     1
102
RTVSPropertyOp23
 70
     1
102
RTVSPropertyOp24
 70
     1
102
RTVSPropertyOp25
 70
     1
102
RTVSPropertyOp26
 70
     1
102
RTVSPropertyOp27
 70
     1
102
RTVSPropertyOp28
 70
     1
102
RTVSPropertyOp29
 70
     1
102
RTVSPropertyOp30
 70
     1
102
RTVSPropertyOp31
 70
     1
102
RTVSPropertyOp32
 70
     1
102
RTVSPropertyOp33
 70
     1
102
RTVSPropertyOp34
 70
     1
102
RTVSPropertyOp35
 70
     1
102
RTVSPropertyOp36
 70
     1
102
RTVSPropertyOp37
 70
     1
102
RTVSPropertyOp38
 70
     1
102
RTVSPropertyOp39
 70
     1
102
RTVSPropertyOp40
 70
     1
102
RTVSPropertyOp41
 70
     1
102
RTVSPropertyOp42
 70
     1
102
RTVSPropertyOp43
 70
     1
102
RTVSPropertyOp44
 70
     1
102
RTVSPropertyOp45
 70
     1
102
RTVSPropertyOp46
 70
     1
102
RTVSPropertyOp47
 70
     1
102
RTVSPropertyOp48
 70
     1
102
RTVSPropertyOp49
 70
     1
102
RTVSPropertyOp50
 70
     1
102
RTVSPropertyOp51
 70
     0
102
RTVSPropertyOp52
 70
     0
102
RTVSPropertyOp53
 70
     1
102
RTVSPropertyOp54
 70
     1
102
RTVSPropertyOp55
 70
     1
102
RTVSPropertyOp56
 70
     1
102
RTVSPropertyOp57
 70
     1
102
RTVSPost2010Prop28
280
     1
102
RTVSPost2010PropOp28
 70
     1
102
RTVSPost2010Prop29
280
     1
102
RTVSPost2010PropOp29
 70
     1
102
RTVSPost2010Prop30
280
     0
102
RTVSPost2010PropOp30
 70
     1
102
RTVSPost2010Prop31
280
     0
102
RTVSPost2010PropOp31
 70
     1
102
RTVSPost2010Prop32
280
     0
102
RTVSPost2010PropOp32
 70
     1
102
RTVSPost2010Prop33
280
     0
102
RTVSPost2010PropOp33
 70
     1
102
RTVSPost2010Prop34
280
     0
102
RTVSPost2010PropOp34
 70
     1
102
RTVSPost2010Prop35
280
     0
102
RTVSPost2010PropOp35
 70
     1
102
RTVSPost2010Prop36
280
     0
102
RTVSPost2010PropOp36
 70
     1
102
RTVSPost2010Prop37
 90
       50
102
RTVSPost2010PropOp37
 70
     1
102
RTVSPost2010Prop38
140
0.0
102
RTVSPost2010PropOp38
 70
     1
102
RTVSPost2010Prop39
140
1.0
102
RTVSPost2010PropOp39
 70
     1
102
RTVSPost2010Prop40
 90
        0
102
RTVSPost2010PropOp40
 70
     1
102
RTVSPost2010Prop41ColorIndex
 90
       18
102
RTVSPost2010Prop41ColorRGB
 90
        0
102
RTVSPost2010PropOp41
 70
     1
102
RTVSPost2010Prop42
 90
       50
102
RTVSPost2010PropOp42
 70
     1
102
RTVSPost2010Prop43
 90
        3
102
RTVSPost2010PropOp43
 70
     1
102
RTVSPost2010Prop44ColorIndex
 90
        5
102
RTVSPost2010Prop44ColorRGB
 90
      255
102
RTVSPost2010PropOp44
 70
     1
102
RTVSPost2010Prop45
280
     0
102
RTVSPost2010PropOp45
 70
     1
102
RTVSPost2010Prop46
 90
       50
102
RTVSPost2010PropOp46
 70
     1
102
RTVSPost2010Prop47
 90
       50
102
RTVSPost2010PropOp47
 70
     1
102
RTVSPost2010Prop48
 90
       50
102
RTVSPost2010PropOp48
 70
     1
102
RTVSPost2010Prop49
280
     0
102
RTVSPost2010PropOp49
 70
     1
102
RTVSPost2010Prop50
 90
       50
102
RTVSPost2010PropOp50
 70
     1
102
RTVSPost2010Prop51ColorIndex
 90
      256
102
RTVSPost2010Prop51ColorRGB
 90
-16777216
102
RTVSPost2010PropOp51
 70
     0
102
RTVSPost2010Prop52
140
1.0
102
RTVSPost2010PropOp52
 70
     0
102
RTVSPost2010Prop53
 90
        2
102
RTVSPost2010PropOp53
 70
     1
102
RTVSPost2010Prop54
  1
strokes_ogs.tif
102
RTVSPost2010PropOp54
 70
     1
102
RTVSPost2010Prop55
280
     0
102
RTVSPost2010PropOp55
 70
     1
102
RTVSPost2010Prop56
140
1.0
102
RTVSPost2010PropOp56
 70
     1
102
RTVSPost2010Prop57
140
1.0
102
RTVSPost2010PropOp57
 70
     1
  0
XRECORD
  5
563
102
{ACAD_REACTORS
330
562
102
}
330
562
100
AcDbXrecord
280
     1
102
RTVSPropertyOp0
 70
     1
102
RTVSPropertyOp1
 70
     1
102
RTVSPropertyOp2
 70
     1
102
RTVSPropertyOp3
 70
     1
102
RTVSPropertyOp4
 70
     1
102
RTVSPropertyOp5
 70
     1
102
RTVSPropertyOp6
 70
     1
102
RTVSPropertyOp7
 70
     1
102
RTVSPropertyOp8
 70
     1
102
RTVSPropertyOp9
 70
     1
102
RTVSPropertyOp10
 70
     1
102
RTVSPropertyOp11
 70
     1
102
RTVSPropertyOp12
 70
     1
102
RTVSPropertyOp13
 70
     1
102
RTVSPropertyOp14
 70
     1
102
RTVSPropertyOp15
 70
     1
102
RTVSPropertyOp16
 70
     1
102
RTVSPropertyOp17
 70
     1
102
RTVSPropertyOp18
 70
     1
102
RTVSPropertyOp19
 70
     1
102
RTVSPropertyOp20
 70
     1
102
RTVSPropertyOp21
 70
     1
102
RTVSPropertyOp22
 70
     1
102
RTVSPropertyOp23
 70
     1
102
RTVSPropertyOp24
 70
     1
102
RTVSPropertyOp25
 70
     1
102
RTVSPropertyOp26
 70
     1
102
RTVSPropertyOp27
 70
     1
102
RTVSPropertyOp28
 70
     1
102
RTVSPropertyOp29
 70
     1
102
RTVSPropertyOp30
 70
     1
102
RTVSPropertyOp31
 70
     1
102
RTVSPropertyOp32
 70
     1
102
RTVSPropertyOp33
 70
     1
102
RTVSPropertyOp34
 70
     1
102
RTVSPropertyOp35
 70
     1
102
RTVSPropertyOp36
 70
     1
102
RTVSPropertyOp37
 70
     1
102
RTVSPropertyOp38
 70
     1
102
RTVSPropertyOp39
 70
     1
102
RTVSPropertyOp40
 70
     1
102
RTVSPropertyOp41
 70
     1
102
RTVSPropertyOp42
 70
     1
102
RTVSPropertyOp43
 70
     1
102
RTVSPropertyOp44
 70
     1
102
RTVSPropertyOp45
 70
     1
102
RTVSPropertyOp46
 70
     1
102
RTVSPropertyOp47
 70
     1
102
RTVSPropertyOp48
 70
     1
102
RTVSPropertyOp49
 70
     1
102
RTVSPropertyOp50
 70
     1
102
RTVSPropertyOp51
 70
     0
102
RTVSPropertyOp52
 70
     0
102
RTVSPropertyOp53
 70
     1
102
RTVSPropertyOp54
 70
     1
102
RTVSPropertyOp55
 70
     1
102
RTVSPropertyOp56
 70
     1
102
RTVSPropertyOp57
 70
     1
102
RTVSPost2010Prop28
280
     0
102
RTVSPost2010PropOp28
 70
     1
102
RTVSPost2010Prop29
280
     1
102
RTVSPost2010PropOp29
 70
     1
102
RTVSPost2010Prop30
280
     1
102
RTVSPost2010PropOp30
 70
     1
102
RTVSPost2010Prop31
280
     0
102
RTVSPost2010PropOp31
 70
     1
102
RTVSPost2010Prop32
280
     0
102
RTVSPost2010PropOp32
 70
     1
102
RTVSPost2010Prop33
280
     0
102
RTVSPost2010PropOp33
 70
     1
102
RTVSPost2010Prop34
280
     0
102
RTVSPost2010PropOp34
 70
     1
102
RTVSPost2010Prop35
280
     0
102
RTVSPost2010PropOp35
 70
     1
102
RTVSPost2010Prop36
280
     0
102
RTVSPost2010PropOp36
 70
     1
102
RTVSPost2010Prop37
 90
       50
102
RTVSPost2010PropOp37
 70
     1
102
RTVSPost2010Prop38
140
0.0
102
RTVSPost2010PropOp38
 70
     1
102
RTVSPost2010Prop39
140
1.0
102
RTVSPost2010PropOp39
 70
     1
102
RTVSPost2010Prop40
 90
        0
102
RTVSPost2010PropOp40
 70
     1
102
RTVSPost2010Prop41ColorIndex
 90
       18
102
RTVSPost2010Prop41ColorRGB
 90
        0
102
RTVSPost2010PropOp41
 70
     1
102
RTVSPost2010Prop42
 90
       50
102
RTVSPost2010PropOp42
 70
     1
102
RTVSPost2010Prop43
 90
        3
102
RTVSPost2010PropOp43
 70
     1
102
RTVSPost2010Prop44ColorIndex
 90
        5
102
RTVSPost2010Prop44ColorRGB
 90
      255
102
RTVSPost2010PropOp44
 70
     1
102
RTVSPost2010Prop45
280
     0
102
RTVSPost2010PropOp45
 70
     1
102
RTVSPost2010Prop46
 90
       50
102
RTVSPost2010PropOp46
 70
     1
102
RTVSPost2010Prop47
 90
       50
102
RTVSPost2010PropOp47
 70
     1
102
RTVSPost2010Prop48
 90
       50
102
RTVSPost2010PropOp48
 70
     1
102
RTVSPost2010Prop49
280
     0
102
RTVSPost2010PropOp49
 70
     1
102
RTVSPost2010Prop50
 90
       50
102
RTVSPost2010PropOp50
 70
     1
102
RTVSPost2010Prop51ColorIndex
 90
      256
102
RTVSPost2010Prop51ColorRGB
 90
-16777216
102
RTVSPost2010PropOp51
 70
     0
102
RTVSPost2010Prop52
140
1.0
102
RTVSPost2010PropOp52
 70
     0
102
RTVSPost2010Prop53
 90
        2
102
RTVSPost2010PropOp53
 70
     1
102
RTVSPost2010Prop54
  1
strokes_ogs.tif
102
RTVSPost2010PropOp54
 70
     1
102
RTVSPost2010Prop55
280
     0
102
RTVSPost2010PropOp55
 70
     1
102
RTVSPost2010Prop56
140
1.0
102
RTVSPost2010PropOp56
 70
     1
102
RTVSPost2010Prop57
140
1.0
102
RTVSPost2010PropOp57
 70
     1
  0
XRECORD
  5
56B
102
{ACAD_REACTORS
330
56A
102
}
330
56A
100
AcDbXrecord
280
     1
102
RTVSPropertyOp0
 70
     1
102
RTVSPropertyOp1
 70
     1
102
RTVSPropertyOp2
 70
     1
102
RTVSPropertyOp3
 70
     1
102
RTVSPropertyOp4
 70
     1
102
RTVSPropertyOp5
 70
     1
102
RTVSPropertyOp6
 70
     1
102
RTVSPropertyOp7
 70
     1
102
RTVSPropertyOp8
 70
     1
102
RTVSPropertyOp9
 70
     1
102
RTVSPropertyOp10
 70
     1
102
RTVSPropertyOp11
 70
     1
102
RTVSPropertyOp12
 70
     1
102
RTVSPropertyOp13
 70
     1
102
RTVSPropertyOp14
 70
     1
102
RTVSPropertyOp15
 70
     1
102
RTVSPropertyOp16
 70
     1
102
RTVSPropertyOp17
 70
     1
102
RTVSPropertyOp18
 70
     1
102
RTVSPropertyOp19
 70
     1
102
RTVSPropertyOp20
 70
     1
102
RTVSPropertyOp21
 70
     1
102
RTVSPropertyOp22
 70
     1
102
RTVSPropertyOp23
 70
     1
102
RTVSPropertyOp24
 70
     1
102
RTVSPropertyOp25
 70
     1
102
RTVSPropertyOp26
 70
     1
102
RTVSPropertyOp27
 70
     1
102
RTVSPropertyOp28
 70
     1
102
RTVSPropertyOp29
 70
     1
102
RTVSPropertyOp30
 70
     1
102
RTVSPropertyOp31
 70
     1
102
RTVSPropertyOp32
 70
     1
102
RTVSPropertyOp33
 70
     1
102
RTVSPropertyOp34
 70
     1
102
RTVSPropertyOp35
 70
     1
102
RTVSPropertyOp36
 70
     1
102
RTVSPropertyOp37
 70
     1
102
RTVSPropertyOp38
 70
     1
102
RTVSPropertyOp39
 70
     1
102
RTVSPropertyOp40
 70
     1
102
RTVSPropertyOp41
 70
     1
102
RTVSPropertyOp42
 70
     1
102
RTVSPropertyOp43
 70
     1
102
RTVSPropertyOp44
 70
     1
102
RTVSPropertyOp45
 70
     1
102
RTVSPropertyOp46
 70
     1
102
RTVSPropertyOp47
 70
     1
102
RTVSPropertyOp48
 70
     1
102
RTVSPropertyOp49
 70
     1
102
RTVSPropertyOp50
 70
     1
102
RTVSPropertyOp51
 70
     0
102
RTVSPropertyOp52
 70
     0
102
RTVSPropertyOp53
 70
     1
102
RTVSPropertyOp54
 70
     1
102
RTVSPropertyOp55
 70
     1
102
RTVSPropertyOp56
 70
     1
102
RTVSPropertyOp57
 70
     1
102
RTVSPost2010Prop28
280
     0
102
RTVSPost2010PropOp28
 70
     1
102
RTVSPost2010Prop29
280
     1
102
RTVSPost2010PropOp29
 70
     1
102
RTVSPost2010Prop30
280
     1
102
RTVSPost2010PropOp30
 70
     1
102
RTVSPost2010Prop31
280
     0
102
RTVSPost2010PropOp31
 70
     1
102
RTVSPost2010Prop32
280
     0
102
RTVSPost2010PropOp32
 70
     1
102
RTVSPost2010Prop33
280
     0
102
RTVSPost2010PropOp33
 70
     1
102
RTVSPost2010Prop34
280
     0
102
RTVSPost2010PropOp34
 70
     1
102
RTVSPost2010Prop35
280
     0
102
RTVSPost2010PropOp35
 70
     1
102
RTVSPost2010Prop36
280
     0
102
RTVSPost2010PropOp36
 70
     1
102
RTVSPost2010Prop37
 90
       50
102
RTVSPost2010PropOp37
 70
     1
102
RTVSPost2010Prop38
140
0.0
102
RTVSPost2010PropOp38
 70
     1
102
RTVSPost2010Prop39
140
1.0
102
RTVSPost2010PropOp39
 70
     1
102
RTVSPost2010Prop40
 90
        0
102
RTVSPost2010PropOp40
 70
     1
102
RTVSPost2010Prop41ColorIndex
 90
       18
102
RTVSPost2010Prop41ColorRGB
 90
        0
102
RTVSPost2010PropOp41
 70
     1
102
RTVSPost2010Prop42
 90
       50
102
RTVSPost2010PropOp42
 70
     1
102
RTVSPost2010Prop43
 90
        3
102
RTVSPost2010PropOp43
 70
     1
102
RTVSPost2010Prop44ColorIndex
 90
        5
102
RTVSPost2010Prop44ColorRGB
 90
      255
102
RTVSPost2010PropOp44
 70
     1
102
RTVSPost2010Prop45
280
     0
102
RTVSPost2010PropOp45
 70
     1
102
RTVSPost2010Prop46
 90
       50
102
RTVSPost2010PropOp46
 70
     1
102
RTVSPost2010Prop47
 90
       50
102
RTVSPost2010PropOp47
 70
     1
102
RTVSPost2010Prop48
 90
       50
102
RTVSPost2010PropOp48
 70
     1
102
RTVSPost2010Prop49
280
     0
102
RTVSPost2010PropOp49
 70
     1
102
RTVSPost2010Prop50
 90
       50
102
RTVSPost2010PropOp50
 70
     1
102
RTVSPost2010Prop51ColorIndex
 90
      256
102
RTVSPost2010Prop51ColorRGB
 90
-16777216
102
RTVSPost2010PropOp51
 70
     0
102
RTVSPost2010Prop52
140
1.0
102
RTVSPost2010PropOp52
 70
     0
102
RTVSPost2010Prop53
 90
        2
102
RTVSPost2010PropOp53
 70
     1
102
RTVSPost2010Prop54
  1
strokes_ogs.tif
102
RTVSPost2010PropOp54
 70
     1
102
RTVSPost2010Prop55
280
     0
102
RTVSPost2010PropOp55
 70
     1
102
RTVSPost2010Prop56
140
1.0
102
RTVSPost2010PropOp56
 70
     1
102
RTVSPost2010Prop57
140
1.0
102
RTVSPost2010PropOp57
 70
     1
  0
XRECORD
  5
573
102
{ACAD_REACTORS
330
572
102
}
330
572
100
AcDbXrecord
280
     1
102
RTVSPropertyOp0
 70
     1
102
RTVSPropertyOp1
 70
     1
102
RTVSPropertyOp2
 70
     1
102
RTVSPropertyOp3
 70
     1
102
RTVSPropertyOp4
 70
     1
102
RTVSPropertyOp5
 70
     1
102
RTVSPropertyOp6
 70
     1
102
RTVSPropertyOp7
 70
     1
102
RTVSPropertyOp8
 70
     1
102
RTVSPropertyOp9
 70
     1
102
RTVSPropertyOp10
 70
     1
102
RTVSPropertyOp11
 70
     1
102
RTVSPropertyOp12
 70
     1
102
RTVSPropertyOp13
 70
     1
102
RTVSPropertyOp14
 70
     1
102
RTVSPropertyOp15
 70
     1
102
RTVSPropertyOp16
 70
     1
102
RTVSPropertyOp17
 70
     1
102
RTVSPropertyOp18
 70
     1
102
RTVSPropertyOp19
 70
     1
102
RTVSPropertyOp20
 70
     1
102
RTVSPropertyOp21
 70
     1
102
RTVSPropertyOp22
 70
     1
102
RTVSPropertyOp23
 70
     1
102
RTVSPropertyOp24
 70
     1
102
RTVSPropertyOp25
 70
     1
102
RTVSPropertyOp26
 70
     1
102
RTVSPropertyOp27
 70
     1
102
RTVSPropertyOp28
 70
     1
102
RTVSPropertyOp29
 70
     1
102
RTVSPropertyOp30
 70
     1
102
RTVSPropertyOp31
 70
     1
102
RTVSPropertyOp32
 70
     1
102
RTVSPropertyOp33
 70
     1
102
RTVSPropertyOp34
 70
     1
102
RTVSPropertyOp35
 70
     1
102
RTVSPropertyOp36
 70
     1
102
RTVSPropertyOp37
 70
     1
102
RTVSPropertyOp38
 70
     1
102
RTVSPropertyOp39
 70
     1
102
RTVSPropertyOp40
 70
     1
102
RTVSPropertyOp41
 70
     1
102
RTVSPropertyOp42
 70
     1
102
RTVSPropertyOp43
 70
     1
102
RTVSPropertyOp44
 70
     1
102
RTVSPropertyOp45
 70
     1
102
RTVSPropertyOp46
 70
     1
102
RTVSPropertyOp47
 70
     1
102
RTVSPropertyOp48
 70
     1
102
RTVSPropertyOp49
 70
     1
102
RTVSPropertyOp50
 70
     1
102
RTVSPropertyOp51
 70
     0
102
RTVSPropertyOp52
 70
     0
102
RTVSPropertyOp53
 70
     1
102
RTVSPropertyOp54
 70
     1
102
RTVSPropertyOp55
 70
     1
102
RTVSPropertyOp56
 70
     1
102
RTVSPropertyOp57
 70
     1
102
RTVSPost2010Prop28
280
     0
102
RTVSPost2010PropOp28
 70
     1
102
RTVSPost2010Prop29
280
     1
102
RTVSPost2010PropOp29
 70
     1
102
RTVSPost2010Prop30
280
     1
102
RTVSPost2010PropOp30
 70
     1
102
RTVSPost2010Prop31
280
     0
102
RTVSPost2010PropOp31
 70
     1
102
RTVSPost2010Prop32
280
     0
102
RTVSPost2010PropOp32
 70
     1
102
RTVSPost2010Prop33
280
     0
102
RTVSPost2010PropOp33
 70
     1
102
RTVSPost2010Prop34
280
     0
102
RTVSPost2010PropOp34
 70
     1
102
RTVSPost2010Prop35
280
     0
102
RTVSPost2010PropOp35
 70
     1
102
RTVSPost2010Prop36
280
     0
102
RTVSPost2010PropOp36
 70
     1
102
RTVSPost2010Prop37
 90
       50
102
RTVSPost2010PropOp37
 70
     1
102
RTVSPost2010Prop38
140
0.0
102
RTVSPost2010PropOp38
 70
     1
102
RTVSPost2010Prop39
140
1.0
102
RTVSPost2010PropOp39
 70
     1
102
RTVSPost2010Prop40
 90
        0
102
RTVSPost2010PropOp40
 70
     1
102
RTVSPost2010Prop41ColorIndex
 90
       18
102
RTVSPost2010Prop41ColorRGB
 90
        0
102
RTVSPost2010PropOp41
 70
     1
102
RTVSPost2010Prop42
 90
       50
102
RTVSPost2010PropOp42
 70
     1
102
RTVSPost2010Prop43
 90
        3
102
RTVSPost2010PropOp43
 70
     1
102
RTVSPost2010Prop44ColorIndex
 90
        5
102
RTVSPost2010Prop44ColorRGB
 90
      255
102
RTVSPost2010PropOp44
 70
     1
102
RTVSPost2010Prop45
280
     0
102
RTVSPost2010PropOp45
 70
     1
102
RTVSPost2010Prop46
 90
       50
102
RTVSPost2010PropOp46
 70
     1
102
RTVSPost2010Prop47
 90
       50
102
RTVSPost2010PropOp47
 70
     1
102
RTVSPost2010Prop48
 90
       50
102
RTVSPost2010PropOp48
 70
     1
102
RTVSPost2010Prop49
280
     0
102
RTVSPost2010PropOp49
 70
     1
102
RTVSPost2010Prop50
 90
       50
102
RTVSPost2010PropOp50
 70
     1
102
RTVSPost2010Prop51ColorIndex
 90
      256
102
RTVSPost2010Prop51ColorRGB
 90
-16777216
102
RTVSPost2010PropOp51
 70
     0
102
RTVSPost2010Prop52
140
1.0
102
RTVSPost2010PropOp52
 70
     0
102
RTVSPost2010Prop53
 90
        2
102
RTVSPost2010PropOp53
 70
     1
102
RTVSPost2010Prop54
  1
strokes_ogs.tif
102
RTVSPost2010PropOp54
 70
     1
102
RTVSPost2010Prop55
280
     0
102
RTVSPost2010PropOp55
 70
     1
102
RTVSPost2010Prop56
140
1.0
102
RTVSPost2010PropOp56
 70
     1
102
RTVSPost2010Prop57
140
1.0
102
RTVSPost2010PropOp57
 70
     1
  0
XRECORD
  5
567
102
{ACAD_REACTORS
330
566
102
}
330
566
100
AcDbXrecord
280
     1
102
RTVSPropertyOp0
 70
     1
102
RTVSPropertyOp1
 70
     1
102
RTVSPropertyOp2
 70
     1
102
RTVSPropertyOp3
 70
     1
102
RTVSPropertyOp4
 70
     1
102
RTVSPropertyOp5
 70
     1
102
RTVSPropertyOp6
 70
     1
102
RTVSPropertyOp7
 70
     1
102
RTVSPropertyOp8
 70
     1
102
RTVSPropertyOp9
 70
     1
102
RTVSPropertyOp10
 70
     1
102
RTVSPropertyOp11
 70
     1
102
RTVSPropertyOp12
 70
     1
102
RTVSPropertyOp13
 70
     1
102
RTVSPropertyOp14
 70
     1
102
RTVSPropertyOp15
 70
     1
102
RTVSPropertyOp16
 70
     1
102
RTVSPropertyOp17
 70
     1
102
RTVSPropertyOp18
 70
     1
102
RTVSPropertyOp19
 70
     1
102
RTVSPropertyOp20
 70
     1
102
RTVSPropertyOp21
 70
     1
102
RTVSPropertyOp22
 70
     1
102
RTVSPropertyOp23
 70
     1
102
RTVSPropertyOp24
 70
     1
102
RTVSPropertyOp25
 70
     1
102
RTVSPropertyOp26
 70
     1
102
RTVSPropertyOp27
 70
     1
102
RTVSPropertyOp28
 70
     1
102
RTVSPropertyOp29
 70
     1
102
RTVSPropertyOp30
 70
     1
102
RTVSPropertyOp31
 70
     1
102
RTVSPropertyOp32
 70
     1
102
RTVSPropertyOp33
 70
     1
102
RTVSPropertyOp34
 70
     1
102
RTVSPropertyOp35
 70
     1
102
RTVSPropertyOp36
 70
     1
102
RTVSPropertyOp37
 70
     1
102
RTVSPropertyOp38
 70
     1
102
RTVSPropertyOp39
 70
     1
102
RTVSPropertyOp40
 70
     1
102
RTVSPropertyOp41
 70
     1
102
RTVSPropertyOp42
 70
     1
102
RTVSPropertyOp43
 70
     1
102
RTVSPropertyOp44
 70
     1
102
RTVSPropertyOp45
 70
     1
102
RTVSPropertyOp46
 70
     1
102
RTVSPropertyOp47
 70
     1
102
RTVSPropertyOp48
 70
     1
102
RTVSPropertyOp49
 70
     1
102
RTVSPropertyOp50
 70
     1
102
RTVSPropertyOp51
 70
     0
102
RTVSPropertyOp52
 70
     0
102
RTVSPropertyOp53
 70
     1
102
RTVSPropertyOp54
 70
     1
102
RTVSPropertyOp55
 70
     1
102
RTVSPropertyOp56
 70
     1
102
RTVSPropertyOp57
 70
     1
102
RTVSPost2010Prop28
280
     0
102
RTVSPost2010PropOp28
 70
     1
102
RTVSPost2010Prop29
280
     1
102
RTVSPost2010PropOp29
 70
     1
102
RTVSPost2010Prop30
280
     1
102
RTVSPost2010PropOp30
 70
     1
102
RTVSPost2010Prop31
280
     0
102
RTVSPost2010PropOp31
 70
     1
102
RTVSPost2010Prop32
280
     0
102
RTVSPost2010PropOp32
 70
     1
102
RTVSPost2010Prop33
280
     0
102
RTVSPost2010PropOp33
 70
     1
102
RTVSPost2010Prop34
280
     0
102
RTVSPost2010PropOp34
 70
     1
102
RTVSPost2010Prop35
280
     0
102
RTVSPost2010PropOp35
 70
     1
102
RTVSPost2010Prop36
280
     0
102
RTVSPost2010PropOp36
 70
     1
102
RTVSPost2010Prop37
 90
       50
102
RTVSPost2010PropOp37
 70
     1
102
RTVSPost2010Prop38
140
0.0
102
RTVSPost2010PropOp38
 70
     1
102
RTVSPost2010Prop39
140
1.0
102
RTVSPost2010PropOp39
 70
     1
102
RTVSPost2010Prop40
 90
        0
102
RTVSPost2010PropOp40
 70
     1
102
RTVSPost2010Prop41ColorIndex
 90
       18
102
RTVSPost2010Prop41ColorRGB
 90
        0
102
RTVSPost2010PropOp41
 70
     1
102
RTVSPost2010Prop42
 90
       50
102
RTVSPost2010PropOp42
 70
     1
102
RTVSPost2010Prop43
 90
        3
102
RTVSPost2010PropOp43
 70
     1
102
RTVSPost2010Prop44ColorIndex
 90
        5
102
RTVSPost2010Prop44ColorRGB
 90
      255
102
RTVSPost2010PropOp44
 70
     1
102
RTVSPost2010Prop45
280
     0
102
RTVSPost2010PropOp45
 70
     1
102
RTVSPost2010Prop46
 90
       50
102
RTVSPost2010PropOp46
 70
     1
102
RTVSPost2010Prop47
 90
       50
102
RTVSPost2010PropOp47
 70
     1
102
RTVSPost2010Prop48
 90
       50
102
RTVSPost2010PropOp48
 70
     1
102
RTVSPost2010Prop49
280
     0
102
RTVSPost2010PropOp49
 70
     1
102
RTVSPost2010Prop50
 90
       50
102
RTVSPost2010PropOp50
 70
     1
102
RTVSPost2010Prop51ColorIndex
 90
      256
102
RTVSPost2010Prop51ColorRGB
 90
-16777216
102
RTVSPost2010PropOp51
 70
     0
102
RTVSPost2010Prop52
140
1.0
102
RTVSPost2010PropOp52
 70
     0
102
RTVSPost2010Prop53
 90
        2
102
RTVSPost2010PropOp53
 70
     1
102
RTVSPost2010Prop54
  1
strokes_ogs.tif
102
RTVSPost2010PropOp54
 70
     1
102
RTVSPost2010Prop55
280
     0
102
RTVSPost2010PropOp55
 70
     1
102
RTVSPost2010Prop56
140
1.0
102
RTVSPost2010PropOp56
 70
     1
102
RTVSPost2010Prop57
140
1.0
102
RTVSPost2010PropOp57
 70
     1
  0
XRECORD
  5
569
102
{ACAD_REACTORS
330
568
102
}
330
568
100
AcDbXrecord
280
     1
102
RTVSPropertyOp0
 70
     1
102
RTVSPropertyOp1
 70
     1
102
RTVSPropertyOp2
 70
     1
102
RTVSPropertyOp3
 70
     1
102
RTVSPropertyOp4
 70
     1
102
RTVSPropertyOp5
 70
     1
102
RTVSPropertyOp6
 70
     1
102
RTVSPropertyOp7
 70
     1
102
RTVSPropertyOp8
 70
     1
102
RTVSPropertyOp9
 70
     1
102
RTVSPropertyOp10
 70
     1
102
RTVSPropertyOp11
 70
     1
102
RTVSPropertyOp12
 70
     1
102
RTVSPropertyOp13
 70
     1
102
RTVSPropertyOp14
 70
     1
102
RTVSPropertyOp15
 70
     1
102
RTVSPropertyOp16
 70
     1
102
RTVSPropertyOp17
 70
     1
102
RTVSPropertyOp18
 70
     1
102
RTVSPropertyOp19
 70
     1
102
RTVSPropertyOp20
 70
     1
102
RTVSPropertyOp21
 70
     1
102
RTVSPropertyOp22
 70
     1
102
RTVSPropertyOp23
 70
     1
102
RTVSPropertyOp24
 70
     1
102
RTVSPropertyOp25
 70
     1
102
RTVSPropertyOp26
 70
     1
102
RTVSPropertyOp27
 70
     1
102
RTVSPropertyOp28
 70
     1
102
RTVSPropertyOp29
 70
     1
102
RTVSPropertyOp30
 70
     1
102
RTVSPropertyOp31
 70
     1
102
RTVSPropertyOp32
 70
     1
102
RTVSPropertyOp33
 70
     1
102
RTVSPropertyOp34
 70
     1
102
RTVSPropertyOp35
 70
     1
102
RTVSPropertyOp36
 70
     1
102
RTVSPropertyOp37
 70
     1
102
RTVSPropertyOp38
 70
     1
102
RTVSPropertyOp39
 70
     1
102
RTVSPropertyOp40
 70
     1
102
RTVSPropertyOp41
 70
     1
102
RTVSPropertyOp42
 70
     1
102
RTVSPropertyOp43
 70
     1
102
RTVSPropertyOp44
 70
     1
102
RTVSPropertyOp45
 70
     1
102
RTVSPropertyOp46
 70
     1
102
RTVSPropertyOp47
 70
     1
102
RTVSPropertyOp48
 70
     1
102
RTVSPropertyOp49
 70
     1
102
RTVSPropertyOp50
 70
     1
102
RTVSPropertyOp51
 70
     0
102
RTVSPropertyOp52
 70
     0
102
RTVSPropertyOp53
 70
     1
102
RTVSPropertyOp54
 70
     1
102
RTVSPropertyOp55
 70
     1
102
RTVSPropertyOp56
 70
     1
102
RTVSPropertyOp57
 70
     1
102
RTVSPost2010Prop28
280
     0
102
RTVSPost2010PropOp28
 70
     1
102
RTVSPost2010Prop29
280
     1
102
RTVSPost2010PropOp29
 70
     1
102
RTVSPost2010Prop30
280
     1
102
RTVSPost2010PropOp30
 70
     1
102
RTVSPost2010Prop31
280
     0
102
RTVSPost2010PropOp31
 70
     1
102
RTVSPost2010Prop32
280
     0
102
RTVSPost2010PropOp32
 70
     1
102
RTVSPost2010Prop33
280
     0
102
RTVSPost2010PropOp33
 70
     1
102
RTVSPost2010Prop34
280
     0
102
RTVSPost2010PropOp34
 70
     1
102
RTVSPost2010Prop35
280
     0
102
RTVSPost2010PropOp35
 70
     1
102
RTVSPost2010Prop36
280
     0
102
RTVSPost2010PropOp36
 70
     1
102
RTVSPost2010Prop37
 90
       50
102
RTVSPost2010PropOp37
 70
     1
102
RTVSPost2010Prop38
140
0.0
102
RTVSPost2010PropOp38
 70
     1
102
RTVSPost2010Prop39
140
1.0
102
RTVSPost2010PropOp39
 70
     1
102
RTVSPost2010Prop40
 90
        0
102
RTVSPost2010PropOp40
 70
     1
102
RTVSPost2010Prop41ColorIndex
 90
       18
102
RTVSPost2010Prop41ColorRGB
 90
        0
102
RTVSPost2010PropOp41
 70
     1
102
RTVSPost2010Prop42
 90
       50
102
RTVSPost2010PropOp42
 70
     1
102
RTVSPost2010Prop43
 90
        3
102
RTVSPost2010PropOp43
 70
     1
102
RTVSPost2010Prop44ColorIndex
 90
        5
102
RTVSPost2010Prop44ColorRGB
 90
      255
102
RTVSPost2010PropOp44
 70
     1
102
RTVSPost2010Prop45
280
     0
102
RTVSPost2010PropOp45
 70
     1
102
RTVSPost2010Prop46
 90
       50
102
RTVSPost2010PropOp46
 70
     1
102
RTVSPost2010Prop47
 90
       50
102
RTVSPost2010PropOp47
 70
     1
102
RTVSPost2010Prop48
 90
       50
102
RTVSPost2010PropOp48
 70
     1
102
RTVSPost2010Prop49
280
     0
102
RTVSPost2010PropOp49
 70
     1
102
RTVSPost2010Prop50
 90
       50
102
RTVSPost2010PropOp50
 70
     1
102
RTVSPost2010Prop51ColorIndex
 90
      256
102
RTVSPost2010Prop51ColorRGB
 90
-16777216
102
RTVSPost2010PropOp51
 70
     0
102
RTVSPost2010Prop52
140
1.0
102
RTVSPost2010PropOp52
 70
     0
102
RTVSPost2010Prop53
 90
        2
102
RTVSPost2010PropOp53
 70
     1
102
RTVSPost2010Prop54
  1
strokes_ogs.tif
102
RTVSPost2010PropOp54
 70
     1
102
RTVSPost2010Prop55
280
     0
102
RTVSPost2010PropOp55
 70
     1
102
RTVSPost2010Prop56
140
1.0
102
RTVSPost2010PropOp56
 70
     1
102
RTVSPost2010Prop57
140
1.0
102
RTVSPost2010PropOp57
 70
     1
  0
XRECORD
  5
579
102
{ACAD_REACTORS
330
578
102
}
330
578
100
AcDbXrecord
280
     1
102
RTVSPropertyOp0
 70
     0
102
RTVSPropertyOp1
 70
     0
102
RTVSPropertyOp2
 70
     0
102
RTVSPropertyOp3
 70
     0
102
RTVSPropertyOp4
 70
     0
102
RTVSPropertyOp5
 70
     0
102
RTVSPropertyOp6
 70
     0
102
RTVSPropertyOp7
 70
     0
102
RTVSPropertyOp8
 70
     0
102
RTVSPropertyOp9
 70
     0
102
RTVSPropertyOp10
 70
     0
102
RTVSPropertyOp11
 70
     0
102
RTVSPropertyOp12
 70
     0
102
RTVSPropertyOp13
 70
     0
102
RTVSPropertyOp14
 70
     0
102
RTVSPropertyOp15
 70
     0
102
RTVSPropertyOp16
 70
     0
102
RTVSPropertyOp17
 70
     0
102
RTVSPropertyOp18
 70
     0
102
RTVSPropertyOp19
 70
     0
102
RTVSPropertyOp20
 70
     0
102
RTVSPropertyOp21
 70
     0
102
RTVSPropertyOp22
 70
     0
102
RTVSPropertyOp23
 70
     0
102
RTVSPropertyOp24
 70
     0
102
RTVSPropertyOp25
 70
     0
102
RTVSPropertyOp26
 70
     0
102
RTVSPropertyOp27
 70
     0
102
RTVSPropertyOp28
 70
     1
102
RTVSPropertyOp29
 70
     1
102
RTVSPropertyOp30
 70
     1
102
RTVSPropertyOp31
 70
     1
102
RTVSPropertyOp32
 70
     1
102
RTVSPropertyOp33
 70
     1
102
RTVSPropertyOp34
 70
     1
102
RTVSPropertyOp35
 70
     1
102
RTVSPropertyOp36
 70
     1
102
RTVSPropertyOp37
 70
     1
102
RTVSPropertyOp38
 70
     1
102
RTVSPropertyOp39
 70
     1
102
RTVSPropertyOp40
 70
     1
102
RTVSPropertyOp41
 70
     1
102
RTVSPropertyOp42
 70
     1
102
RTVSPropertyOp43
 70
     1
102
RTVSPropertyOp44
 70
     1
102
RTVSPropertyOp45
 70
     1
102
RTVSPropertyOp46
 70
     1
102
RTVSPropertyOp47
 70
     1
102
RTVSPropertyOp48
 70
     1
102
RTVSPropertyOp49
 70
     1
102
RTVSPropertyOp50
 70
     1
102
RTVSPropertyOp51
 70
     0
102
RTVSPropertyOp52
 70
     0
102
RTVSPropertyOp53
 70
     1
102
RTVSPropertyOp54
 70
     1
102
RTVSPropertyOp55
 70
     1
102
RTVSPropertyOp56
 70
     1
102
RTVSPropertyOp57
 70
     1
102
RTVSPost2010Prop28
280
     0
102
RTVSPost2010PropOp28
 70
     1
102
RTVSPost2010Prop29
280
     1
102
RTVSPost2010PropOp29
 70
     1
102
RTVSPost2010Prop30
280
     1
102
RTVSPost2010PropOp30
 70
     1
102
RTVSPost2010Prop31
280
     0
102
RTVSPost2010PropOp31
 70
     1
102
RTVSPost2010Prop32
280
     0
102
RTVSPost2010PropOp32
 70
     1
102
RTVSPost2010Prop33
280
     0
102
RTVSPost2010PropOp33
 70
     1
102
RTVSPost2010Prop34
280
     0
102
RTVSPost2010PropOp34
 70
     1
102
RTVSPost2010Prop35
280
     0
102
RTVSPost2010PropOp35
 70
     1
102
RTVSPost2010Prop36
280
     0
102
RTVSPost2010PropOp36
 70
     1
102
RTVSPost2010Prop37
 90
       50
102
RTVSPost2010PropOp37
 70
     1
102
RTVSPost2010Prop38
140
0.0
102
RTVSPost2010PropOp38
 70
     1
102
RTVSPost2010Prop39
140
1.0
102
RTVSPost2010PropOp39
 70
     1
102
RTVSPost2010Prop40
 90
        0
102
RTVSPost2010PropOp40
 70
     1
102
RTVSPost2010Prop41ColorIndex
 90
       18
102
RTVSPost2010Prop41ColorRGB
 90
        0
102
RTVSPost2010PropOp41
 70
     1
102
RTVSPost2010Prop42
 90
       50
102
RTVSPost2010PropOp42
 70
     1
102
RTVSPost2010Prop43
 90
        3
102
RTVSPost2010PropOp43
 70
     1
102
RTVSPost2010Prop44ColorIndex
 90
        5
102
RTVSPost2010Prop44ColorRGB
 90
      255
102
RTVSPost2010PropOp44
 70
     1
102
RTVSPost2010Prop45
280
     0
102
RTVSPost2010PropOp45
 70
     1
102
RTVSPost2010Prop46
 90
       50
102
RTVSPost2010PropOp46
 70
     1
102
RTVSPost2010Prop47
 90
       50
102
RTVSPost2010PropOp47
 70
     1
102
RTVSPost2010Prop48
 90
       50
102
RTVSPost2010PropOp48
 70
     1
102
RTVSPost2010Prop49
280
     0
102
RTVSPost2010PropOp49
 70
     1
102
RTVSPost2010Prop50
 90
       50
102
RTVSPost2010PropOp50
 70
     1
102
RTVSPost2010Prop51ColorIndex
 90
      256
102
RTVSPost2010Prop51ColorRGB
 90
-16777216
102
RTVSPost2010PropOp51
 70
     0
102
RTVSPost2010Prop52
140
1.0
102
RTVSPost2010PropOp52
 70
     0
102
RTVSPost2010Prop53
 90
        2
102
RTVSPost2010PropOp53
 70
     1
102
RTVSPost2010Prop54
  1
strokes_ogs.tif
102
RTVSPost2010PropOp54
 70
     1
102
RTVSPost2010Prop55
280
     0
102
RTVSPost2010PropOp55
 70
     1
102
RTVSPost2010Prop56
140
1.0
102
RTVSPost2010PropOp56
 70
     1
102
RTVSPost2010Prop57
140
1.0
102
RTVSPost2010PropOp57
 70
     1
  0
XRECORD
  5
571
102
{ACAD_REACTORS
330
570
102
}
330
570
100
AcDbXrecord
280
     1
102
RTVSPropertyOp0
 70
     1
102
RTVSPropertyOp1
 70
     1
102
RTVSPropertyOp2
 70
     1
102
RTVSPropertyOp3
 70
     1
102
RTVSPropertyOp4
 70
     1
102
RTVSPropertyOp5
 70
     1
102
RTVSPropertyOp6
 70
     1
102
RTVSPropertyOp7
 70
     1
102
RTVSPropertyOp8
 70
     1
102
RTVSPropertyOp9
 70
     1
102
RTVSPropertyOp10
 70
     1
102
RTVSPropertyOp11
 70
     1
102
RTVSPropertyOp12
 70
     1
102
RTVSPropertyOp13
 70
     1
102
RTVSPropertyOp14
 70
     1
102
RTVSPropertyOp15
 70
     1
102
RTVSPropertyOp16
 70
     1
102
RTVSPropertyOp17
 70
     1
102
RTVSPropertyOp18
 70
     1
102
RTVSPropertyOp19
 70
     1
102
RTVSPropertyOp20
 70
     1
102
RTVSPropertyOp21
 70
     1
102
RTVSPropertyOp22
 70
     1
102
RTVSPropertyOp23
 70
     1
102
RTVSPropertyOp24
 70
     1
102
RTVSPropertyOp25
 70
     1
102
RTVSPropertyOp26
 70
     1
102
RTVSPropertyOp27
 70
     1
102
RTVSPropertyOp28
 70
     1
102
RTVSPropertyOp29
 70
     1
102
RTVSPropertyOp30
 70
     1
102
RTVSPropertyOp31
 70
     1
102
RTVSPropertyOp32
 70
     1
102
RTVSPropertyOp33
 70
     1
102
RTVSPropertyOp34
 70
     1
102
RTVSPropertyOp35
 70
     1
102
RTVSPropertyOp36
 70
     1
102
RTVSPropertyOp37
 70
     1
102
RTVSPropertyOp38
 70
     1
102
RTVSPropertyOp39
 70
     1
102
RTVSPropertyOp40
 70
     1
102
RTVSPropertyOp41
 70
     1
102
RTVSPropertyOp42
 70
     1
102
RTVSPropertyOp43
 70
     1
102
RTVSPropertyOp44
 70
     1
102
RTVSPropertyOp45
 70
     1
102
RTVSPropertyOp46
 70
     1
102
RTVSPropertyOp47
 70
     1
102
RTVSPropertyOp48
 70
     1
102
RTVSPropertyOp49
 70
     1
102
RTVSPropertyOp50
 70
     1
102
RTVSPropertyOp51
 70
     0
102
RTVSPropertyOp52
 70
     0
102
RTVSPropertyOp53
 70
     1
102
RTVSPropertyOp54
 70
     1
102
RTVSPropertyOp55
 70
     1
102
RTVSPropertyOp56
 70
     1
102
RTVSPropertyOp57
 70
     1
102
RTVSPost2010Prop28
280
     0
102
RTVSPost2010PropOp28
 70
     1
102
RTVSPost2010Prop29
280
     1
102
RTVSPost2010PropOp29
 70
     1
102
RTVSPost2010Prop30
280
     1
102
RTVSPost2010PropOp30
 70
     1
102
RTVSPost2010Prop31
280
     0
102
RTVSPost2010PropOp31
 70
     1
102
RTVSPost2010Prop32
280
     0
102
RTVSPost2010PropOp32
 70
     1
102
RTVSPost2010Prop33
280
     0
102
RTVSPost2010PropOp33
 70
     1
102
RTVSPost2010Prop34
280
     0
102
RTVSPost2010PropOp34
 70
     1
102
RTVSPost2010Prop35
280
     0
102
RTVSPost2010PropOp35
 70
     1
102
RTVSPost2010Prop36
280
     0
102
RTVSPost2010PropOp36
 70
     1
102
RTVSPost2010Prop37
 90
       50
102
RTVSPost2010PropOp37
 70
     1
102
RTVSPost2010Prop38
140
0.0
102
RTVSPost2010PropOp38
 70
     1
102
RTVSPost2010Prop39
140
1.0
102
RTVSPost2010PropOp39
 70
     1
102
RTVSPost2010Prop40
 90
        0
102
RTVSPost2010PropOp40
 70
     1
102
RTVSPost2010Prop41ColorIndex
 90
       18
102
RTVSPost2010Prop41ColorRGB
 90
        0
102
RTVSPost2010PropOp41
 70
     1
102
RTVSPost2010Prop42
 90
       50
102
RTVSPost2010PropOp42
 70
     1
102
RTVSPost2010Prop43
 90
        3
102
RTVSPost2010PropOp43
 70
     1
102
RTVSPost2010Prop44ColorIndex
 90
        5
102
RTVSPost2010Prop44ColorRGB
 90
      255
102
RTVSPost2010PropOp44
 70
     1
102
RTVSPost2010Prop45
280
     0
102
RTVSPost2010PropOp45
 70
     1
102
RTVSPost2010Prop46
 90
       50
102
RTVSPost2010PropOp46
 70
     1
102
RTVSPost2010Prop47
 90
       50
102
RTVSPost2010PropOp47
 70
     1
102
RTVSPost2010Prop48
 90
       50
102
RTVSPost2010PropOp48
 70
     1
102
RTVSPost2010Prop49
280
     0
102
RTVSPost2010PropOp49
 70
     1
102
RTVSPost2010Prop50
 90
       50
102
RTVSPost2010PropOp50
 70
     1
102
RTVSPost2010Prop51ColorIndex
 90
      256
102
RTVSPost2010Prop51ColorRGB
 90
-16777216
102
RTVSPost2010PropOp51
 70
     0
102
RTVSPost2010Prop52
140
1.0
102
RTVSPost2010PropOp52
 70
     0
102
RTVSPost2010Prop53
 90
        2
102
RTVSPost2010PropOp53
 70
     1
102
RTVSPost2010Prop54
  1
strokes_ogs.tif
102
RTVSPost2010PropOp54
 70
     1
102
RTVSPost2010Prop55
280
     0
102
RTVSPost2010PropOp55
 70
     1
102
RTVSPost2010Prop56
140
1.0
102
RTVSPost2010PropOp56
 70
     1
102
RTVSPost2010Prop57
140
1.0
102
RTVSPost2010PropOp57
 70
     1
  0
XRECORD
  5
555
102
{ACAD_REACTORS
330
554
102
}
330
554
100
AcDbXrecord
280
     1
102
RTVSPropertyOp0
 70
     1
102
RTVSPropertyOp1
 70
     1
102
RTVSPropertyOp2
 70
     1
102
RTVSPropertyOp3
 70
     1
102
RTVSPropertyOp4
 70
     1
102
RTVSPropertyOp5
 70
     1
102
RTVSPropertyOp6
 70
     1
102
RTVSPropertyOp7
 70
     1
102
RTVSPropertyOp8
 70
     1
102
RTVSPropertyOp9
 70
     1
102
RTVSPropertyOp10
 70
     1
102
RTVSPropertyOp11
 70
     1
102
RTVSPropertyOp12
 70
     1
102
RTVSPropertyOp13
 70
     1
102
RTVSPropertyOp14
 70
     1
102
RTVSPropertyOp15
 70
     1
102
RTVSPropertyOp16
 70
     1
102
RTVSPropertyOp17
 70
     1
102
RTVSPropertyOp18
 70
     1
102
RTVSPropertyOp19
 70
     1
102
RTVSPropertyOp20
 70
     1
102
RTVSPropertyOp21
 70
     1
102
RTVSPropertyOp22
 70
     1
102
RTVSPropertyOp23
 70
     1
102
RTVSPropertyOp24
 70
     1
102
RTVSPropertyOp25
 70
     1
102
RTVSPropertyOp26
 70
     1
102
RTVSPropertyOp27
 70
     1
102
RTVSPropertyOp28
 70
     1
102
RTVSPropertyOp29
 70
     1
102
RTVSPropertyOp30
 70
     1
102
RTVSPropertyOp31
 70
     1
102
RTVSPropertyOp32
 70
     1
102
RTVSPropertyOp33
 70
     1
102
RTVSPropertyOp34
 70
     1
102
RTVSPropertyOp35
 70
     1
102
RTVSPropertyOp36
 70
     1
102
RTVSPropertyOp37
 70
     1
102
RTVSPropertyOp38
 70
     1
102
RTVSPropertyOp39
 70
     1
102
RTVSPropertyOp40
 70
     1
102
RTVSPropertyOp41
 70
     1
102
RTVSPropertyOp42
 70
     1
102
RTVSPropertyOp43
 70
     1
102
RTVSPropertyOp44
 70
     1
102
RTVSPropertyOp45
 70
     1
102
RTVSPropertyOp46
 70
     1
102
RTVSPropertyOp47
 70
     1
102
RTVSPropertyOp48
 70
     1
102
RTVSPropertyOp49
 70
     1
102
RTVSPropertyOp50
 70
     1
102
RTVSPropertyOp51
 70
     0
102
RTVSPropertyOp52
 70
     0
102
RTVSPropertyOp53
 70
     1
102
RTVSPropertyOp54
 70
     1
102
RTVSPropertyOp55
 70
     1
102
RTVSPropertyOp56
 70
     1
102
RTVSPropertyOp57
 70
     1
102
RTVSPost2010Prop28
280
     0
102
RTVSPost2010PropOp28
 70
     1
102
RTVSPost2010Prop29
280
     1
102
RTVSPost2010PropOp29
 70
     1
102
RTVSPost2010Prop30
280
     1
102
RTVSPost2010PropOp30
 70
     1
102
RTVSPost2010Prop31
280
     0
102
RTVSPost2010PropOp31
 70
     1
102
RTVSPost2010Prop32
280
     0
102
RTVSPost2010PropOp32
 70
     1
102
RTVSPost2010Prop33
280
     0
102
RTVSPost2010PropOp33
 70
     1
102
RTVSPost2010Prop34
280
     0
102
RTVSPost2010PropOp34
 70
     1
102
RTVSPost2010Prop35
280
     0
102
RTVSPost2010PropOp35
 70
     1
102
RTVSPost2010Prop36
280
     0
102
RTVSPost2010PropOp36
 70
     1
102
RTVSPost2010Prop37
 90
       50
102
RTVSPost2010PropOp37
 70
     1
102
RTVSPost2010Prop38
140
0.0
102
RTVSPost2010PropOp38
 70
     1
102
RTVSPost2010Prop39
140
1.0
102
RTVSPost2010PropOp39
 70
     1
102
RTVSPost2010Prop40
 90
        0
102
RTVSPost2010PropOp40
 70
     1
102
RTVSPost2010Prop41ColorIndex
 90
       18
102
RTVSPost2010Prop41ColorRGB
 90
        0
102
RTVSPost2010PropOp41
 70
     1
102
RTVSPost2010Prop42
 90
       50
102
RTVSPost2010PropOp42
 70
     1
102
RTVSPost2010Prop43
 90
        3
102
RTVSPost2010PropOp43
 70
     1
102
RTVSPost2010Prop44ColorIndex
 90
        5
102
RTVSPost2010Prop44ColorRGB
 90
      255
102
RTVSPost2010PropOp44
 70
     1
102
RTVSPost2010Prop45
280
     0
102
RTVSPost2010PropOp45
 70
     1
102
RTVSPost2010Prop46
 90
       50
102
RTVSPost2010PropOp46
 70
     1
102
RTVSPost2010Prop47
 90
       50
102
RTVSPost2010PropOp47
 70
     1
102
RTVSPost2010Prop48
 90
       50
102
RTVSPost2010PropOp48
 70
     1
102
RTVSPost2010Prop49
280
     0
102
RTVSPost2010PropOp49
 70
     1
102
RTVSPost2010Prop50
 90
       50
102
RTVSPost2010PropOp50
 70
     1
102
RTVSPost2010Prop51ColorIndex
 90
      256
102
RTVSPost2010Prop51ColorRGB
 90
-16777216
102
RTVSPost2010PropOp51
 70
     0
102
RTVSPost2010Prop52
140
1.0
102
RTVSPost2010PropOp52
 70
     0
102
RTVSPost2010Prop53
 90
        2
102
RTVSPost2010PropOp53
 70
     1
102
RTVSPost2010Prop54
  1
strokes_ogs.tif
102
RTVSPost2010PropOp54
 70
     1
102
RTVSPost2010Prop55
280
     0
102
RTVSPost2010PropOp55
 70
     1
102
RTVSPost2010Prop56
140
1.0
102
RTVSPost2010PropOp56
 70
     1
102
RTVSPost2010Prop57
140
1.0
102
RTVSPost2010PropOp57
 70
     1
  0
XRECORD
  5
557
102
{ACAD_REACTORS
330
556
102
}
330
556
100
AcDbXrecord
280
     1
102
RTVSPropertyOp0
 70
     1
102
RTVSPropertyOp1
 70
     1
102
RTVSPropertyOp2
 70
     1
102
RTVSPropertyOp3
 70
     1
102
RTVSPropertyOp4
 70
     1
102
RTVSPropertyOp5
 70
     1
102
RTVSPropertyOp6
 70
     1
102
RTVSPropertyOp7
 70
     1
102
RTVSPropertyOp8
 70
     1
102
RTVSPropertyOp9
 70
     1
102
RTVSPropertyOp10
 70
     1
102
RTVSPropertyOp11
 70
     1
102
RTVSPropertyOp12
 70
     1
102
RTVSPropertyOp13
 70
     1
102
RTVSPropertyOp14
 70
     1
102
RTVSPropertyOp15
 70
     1
102
RTVSPropertyOp16
 70
     1
102
RTVSPropertyOp17
 70
     1
102
RTVSPropertyOp18
 70
     1
102
RTVSPropertyOp19
 70
     1
102
RTVSPropertyOp20
 70
     1
102
RTVSPropertyOp21
 70
     1
102
RTVSPropertyOp22
 70
     1
102
RTVSPropertyOp23
 70
     1
102
RTVSPropertyOp24
 70
     1
102
RTVSPropertyOp25
 70
     1
102
RTVSPropertyOp26
 70
     1
102
RTVSPropertyOp27
 70
     1
102
RTVSPropertyOp28
 70
     1
102
RTVSPropertyOp29
 70
     1
102
RTVSPropertyOp30
 70
     1
102
RTVSPropertyOp31
 70
     1
102
RTVSPropertyOp32
 70
     1
102
RTVSPropertyOp33
 70
     1
102
RTVSPropertyOp34
 70
     1
102
RTVSPropertyOp35
 70
     1
102
RTVSPropertyOp36
 70
     1
102
RTVSPropertyOp37
 70
     1
102
RTVSPropertyOp38
 70
     1
102
RTVSPropertyOp39
 70
     1
102
RTVSPropertyOp40
 70
     1
102
RTVSPropertyOp41
 70
     1
102
RTVSPropertyOp42
 70
     1
102
RTVSPropertyOp43
 70
     1
102
RTVSPropertyOp44
 70
     1
102
RTVSPropertyOp45
 70
     1
102
RTVSPropertyOp46
 70
     1
102
RTVSPropertyOp47
 70
     1
102
RTVSPropertyOp48
 70
     1
102
RTVSPropertyOp49
 70
     1
102
RTVSPropertyOp50
 70
     1
102
RTVSPropertyOp51
 70
     0
102
RTVSPropertyOp52
 70
     0
102
RTVSPropertyOp53
 70
     1
102
RTVSPropertyOp54
 70
     1
102
RTVSPropertyOp55
 70
     1
102
RTVSPropertyOp56
 70
     1
102
RTVSPropertyOp57
 70
     1
102
RTVSPost2010Prop28
280
     0
102
RTVSPost2010PropOp28
 70
     1
102
RTVSPost2010Prop29
280
     1
102
RTVSPost2010PropOp29
 70
     1
102
RTVSPost2010Prop30
280
     1
102
RTVSPost2010PropOp30
 70
     1
102
RTVSPost2010Prop31
280
     0
102
RTVSPost2010PropOp31
 70
     1
102
RTVSPost2010Prop32
280
     0
102
RTVSPost2010PropOp32
 70
     1
102
RTVSPost2010Prop33
280
     0
102
RTVSPost2010PropOp33
 70
     1
102
RTVSPost2010Prop34
280
     0
102
RTVSPost2010PropOp34
 70
     1
102
RTVSPost2010Prop35
280
     0
102
RTVSPost2010PropOp35
 70
     1
102
RTVSPost2010Prop36
280
     0
102
RTVSPost2010PropOp36
 70
     1
102
RTVSPost2010Prop37
 90
       50
102
RTVSPost2010PropOp37
 70
     1
102
RTVSPost2010Prop38
140
0.0
102
RTVSPost2010PropOp38
 70
     1
102
RTVSPost2010Prop39
140
1.0
102
RTVSPost2010PropOp39
 70
     1
102
RTVSPost2010Prop40
 90
        0
102
RTVSPost2010PropOp40
 70
     1
102
RTVSPost2010Prop41ColorIndex
 90
       18
102
RTVSPost2010Prop41ColorRGB
 90
        0
102
RTVSPost2010PropOp41
 70
     1
102
RTVSPost2010Prop42
 90
       50
102
RTVSPost2010PropOp42
 70
     1
102
RTVSPost2010Prop43
 90
        3
102
RTVSPost2010PropOp43
 70
     1
102
RTVSPost2010Prop44ColorIndex
 90
        5
102
RTVSPost2010Prop44ColorRGB
 90
      255
102
RTVSPost2010PropOp44
 70
     1
102
RTVSPost2010Prop45
280
     0
102
RTVSPost2010PropOp45
 70
     1
102
RTVSPost2010Prop46
 90
       50
102
RTVSPost2010PropOp46
 70
     1
102
RTVSPost2010Prop47
 90
       50
102
RTVSPost2010PropOp47
 70
     1
102
RTVSPost2010Prop48
 90
       50
102
RTVSPost2010PropOp48
 70
     1
102
RTVSPost2010Prop49
280
     0
102
RTVSPost2010PropOp49
 70
     1
102
RTVSPost2010Prop50
 90
       50
102
RTVSPost2010PropOp50
 70
     1
102
RTVSPost2010Prop51ColorIndex
 90
      256
102
RTVSPost2010Prop51ColorRGB
 90
-16777216
102
RTVSPost2010PropOp51
 70
     0
102
RTVSPost2010Prop52
140
1.0
102
RTVSPost2010PropOp52
 70
     0
102
RTVSPost2010Prop53
 90
        2
102
RTVSPost2010PropOp53
 70
     1
102
RTVSPost2010Prop54
  1
strokes_ogs.tif
102
RTVSPost2010PropOp54
 70
     1
102
RTVSPost2010Prop55
280
     0
102
RTVSPost2010PropOp55
 70
     1
102
RTVSPost2010Prop56
140
1.0
102
RTVSPost2010PropOp56
 70
     1
102
RTVSPost2010Prop57
140
1.0
102
RTVSPost2010PropOp57
 70
     1
  0
XRECORD
  5
559
102
{ACAD_REACTORS
330
558
102
}
330
558
100
AcDbXrecord
280
     1
102
RTVSPropertyOp0
 70
     1
102
RTVSPropertyOp1
 70
     1
102
RTVSPropertyOp2
 70
     1
102
RTVSPropertyOp3
 70
     1
102
RTVSPropertyOp4
 70
     1
102
RTVSPropertyOp5
 70
     1
102
RTVSPropertyOp6
 70
     1
102
RTVSPropertyOp7
 70
     1
102
RTVSPropertyOp8
 70
     1
102
RTVSPropertyOp9
 70
     1
102
RTVSPropertyOp10
 70
     1
102
RTVSPropertyOp11
 70
     1
102
RTVSPropertyOp12
 70
     1
102
RTVSPropertyOp13
 70
     1
102
RTVSPropertyOp14
 70
     1
102
RTVSPropertyOp15
 70
     1
102
RTVSPropertyOp16
 70
     1
102
RTVSPropertyOp17
 70
     1
102
RTVSPropertyOp18
 70
     1
102
RTVSPropertyOp19
 70
     1
102
RTVSPropertyOp20
 70
     1
102
RTVSPropertyOp21
 70
     1
102
RTVSPropertyOp22
 70
     1
102
RTVSPropertyOp23
 70
     1
102
RTVSPropertyOp24
 70
     1
102
RTVSPropertyOp25
 70
     1
102
RTVSPropertyOp26
 70
     1
102
RTVSPropertyOp27
 70
     1
102
RTVSPropertyOp28
 70
     1
102
RTVSPropertyOp29
 70
     1
102
RTVSPropertyOp30
 70
     1
102
RTVSPropertyOp31
 70
     1
102
RTVSPropertyOp32
 70
     1
102
RTVSPropertyOp33
 70
     1
102
RTVSPropertyOp34
 70
     1
102
RTVSPropertyOp35
 70
     1
102
RTVSPropertyOp36
 70
     1
102
RTVSPropertyOp37
 70
     1
102
RTVSPropertyOp38
 70
     1
102
RTVSPropertyOp39
 70
     1
102
RTVSPropertyOp40
 70
     1
102
RTVSPropertyOp41
 70
     1
102
RTVSPropertyOp42
 70
     1
102
RTVSPropertyOp43
 70
     1
102
RTVSPropertyOp44
 70
     1
102
RTVSPropertyOp45
 70
     1
102
RTVSPropertyOp46
 70
     1
102
RTVSPropertyOp47
 70
     1
102
RTVSPropertyOp48
 70
     1
102
RTVSPropertyOp49
 70
     1
102
RTVSPropertyOp50
 70
     1
102
RTVSPropertyOp51
 70
     0
102
RTVSPropertyOp52
 70
     0
102
RTVSPropertyOp53
 70
     1
102
RTVSPropertyOp54
 70
     1
102
RTVSPropertyOp55
 70
     1
102
RTVSPropertyOp56
 70
     1
102
RTVSPropertyOp57
 70
     1
102
RTVSPost2010Prop28
280
     0
102
RTVSPost2010PropOp28
 70
     1
102
RTVSPost2010Prop29
280
     1
102
RTVSPost2010PropOp29
 70
     1
102
RTVSPost2010Prop30
280
     1
102
RTVSPost2010PropOp30
 70
     1
102
RTVSPost2010Prop31
280
     0
102
RTVSPost2010PropOp31
 70
     1
102
RTVSPost2010Prop32
280
     0
102
RTVSPost2010PropOp32
 70
     1
102
RTVSPost2010Prop33
280
     0
102
RTVSPost2010PropOp33
 70
     1
102
RTVSPost2010Prop34
280
     0
102
RTVSPost2010PropOp34
 70
     1
102
RTVSPost2010Prop35
280
     0
102
RTVSPost2010PropOp35
 70
     1
102
RTVSPost2010Prop36
280
     0
102
RTVSPost2010PropOp36
 70
     1
102
RTVSPost2010Prop37
 90
       50
102
RTVSPost2010PropOp37
 70
     1
102
RTVSPost2010Prop38
140
0.0
102
RTVSPost2010PropOp38
 70
     1
102
RTVSPost2010Prop39
140
1.0
102
RTVSPost2010PropOp39
 70
     1
102
RTVSPost2010Prop40
 90
        0
102
RTVSPost2010PropOp40
 70
     1
102
RTVSPost2010Prop41ColorIndex
 90
       18
102
RTVSPost2010Prop41ColorRGB
 90
        0
102
RTVSPost2010PropOp41
 70
     1
102
RTVSPost2010Prop42
 90
       50
102
RTVSPost2010PropOp42
 70
     1
102
RTVSPost2010Prop43
 90
        3
102
RTVSPost2010PropOp43
 70
     1
102
RTVSPost2010Prop44ColorIndex
 90
        5
102
RTVSPost2010Prop44ColorRGB
 90
      255
102
RTVSPost2010PropOp44
 70
     1
102
RTVSPost2010Prop45
280
     0
102
RTVSPost2010PropOp45
 70
     1
102
RTVSPost2010Prop46
 90
       50
102
RTVSPost2010PropOp46
 70
     1
102
RTVSPost2010Prop47
 90
       50
102
RTVSPost2010PropOp47
 70
     1
102
RTVSPost2010Prop48
 90
       50
102
RTVSPost2010PropOp48
 70
     1
102
RTVSPost2010Prop49
280
     0
102
RTVSPost2010PropOp49
 70
     1
102
RTVSPost2010Prop50
 90
       50
102
RTVSPost2010PropOp50
 70
     1
102
RTVSPost2010Prop51ColorIndex
 90
      256
102
RTVSPost2010Prop51ColorRGB
 90
-16777216
102
RTVSPost2010PropOp51
 70
     0
102
RTVSPost2010Prop52
140
1.0
102
RTVSPost2010PropOp52
 70
     0
102
RTVSPost2010Prop53
 90
        2
102
RTVSPost2010PropOp53
 70
     1
102
RTVSPost2010Prop54
  1
strokes_ogs.tif
102
RTVSPost2010PropOp54
 70
     1
102
RTVSPost2010Prop55
280
     0
102
RTVSPost2010PropOp55
 70
     1
102
RTVSPost2010Prop56
140
1.0
102
RTVSPost2010PropOp56
 70
     1
102
RTVSPost2010Prop57
140
1.0
102
RTVSPost2010PropOp57
 70
     1
  0
XRECORD
  5
55B
102
{ACAD_REACTORS
330
55A
102
}
330
55A
100
AcDbXrecord
280
     1
102
RTVSPropertyOp0
 70
     1
102
RTVSPropertyOp1
 70
     1
102
RTVSPropertyOp2
 70
     1
102
RTVSPropertyOp3
 70
     1
102
RTVSPropertyOp4
 70
     1
102
RTVSPropertyOp5
 70
     1
102
RTVSPropertyOp6
 70
     1
102
RTVSPropertyOp7
 70
     1
102
RTVSPropertyOp8
 70
     1
102
RTVSPropertyOp9
 70
     1
102
RTVSPropertyOp10
 70
     1
102
RTVSPropertyOp11
 70
     1
102
RTVSPropertyOp12
 70
     1
102
RTVSPropertyOp13
 70
     1
102
RTVSPropertyOp14
 70
     1
102
RTVSPropertyOp15
 70
     1
102
RTVSPropertyOp16
 70
     1
102
RTVSPropertyOp17
 70
     1
102
RTVSPropertyOp18
 70
     1
102
RTVSPropertyOp19
 70
     1
102
RTVSPropertyOp20
 70
     1
102
RTVSPropertyOp21
 70
     1
102
RTVSPropertyOp22
 70
     1
102
RTVSPropertyOp23
 70
     1
102
RTVSPropertyOp24
 70
     1
102
RTVSPropertyOp25
 70
     1
102
RTVSPropertyOp26
 70
     1
102
RTVSPropertyOp27
 70
     1
102
RTVSPropertyOp28
 70
     1
102
RTVSPropertyOp29
 70
     1
102
RTVSPropertyOp30
 70
     1
102
RTVSPropertyOp31
 70
     1
102
RTVSPropertyOp32
 70
     1
102
RTVSPropertyOp33
 70
     1
102
RTVSPropertyOp34
 70
     1
102
RTVSPropertyOp35
 70
     1
102
RTVSPropertyOp36
 70
     1
102
RTVSPropertyOp37
 70
     1
102
RTVSPropertyOp38
 70
     1
102
RTVSPropertyOp39
 70
     1
102
RTVSPropertyOp40
 70
     1
102
RTVSPropertyOp41
 70
     1
102
RTVSPropertyOp42
 70
     1
102
RTVSPropertyOp43
 70
     1
102
RTVSPropertyOp44
 70
     1
102
RTVSPropertyOp45
 70
     1
102
RTVSPropertyOp46
 70
     1
102
RTVSPropertyOp47
 70
     1
102
RTVSPropertyOp48
 70
     1
102
RTVSPropertyOp49
 70
     1
102
RTVSPropertyOp50
 70
     1
102
RTVSPropertyOp51
 70
     0
102
RTVSPropertyOp52
 70
     0
102
RTVSPropertyOp53
 70
     1
102
RTVSPropertyOp54
 70
     1
102
RTVSPropertyOp55
 70
     1
102
RTVSPropertyOp56
 70
     1
102
RTVSPropertyOp57
 70
     1
102
RTVSPost2010Prop28
280
     0
102
RTVSPost2010PropOp28
 70
     1
102
RTVSPost2010Prop29
280
     1
102
RTVSPost2010PropOp29
 70
     1
102
RTVSPost2010Prop30
280
     1
102
RTVSPost2010PropOp30
 70
     1
102
RTVSPost2010Prop31
280
     0
102
RTVSPost2010PropOp31
 70
     1
102
RTVSPost2010Prop32
280
     0
102
RTVSPost2010PropOp32
 70
     1
102
RTVSPost2010Prop33
280
     0
102
RTVSPost2010PropOp33
 70
     1
102
RTVSPost2010Prop34
280
     0
102
RTVSPost2010PropOp34
 70
     1
102
RTVSPost2010Prop35
280
     0
102
RTVSPost2010PropOp35
 70
     1
102
RTVSPost2010Prop36
280
     0
102
RTVSPost2010PropOp36
 70
     1
102
RTVSPost2010Prop37
 90
       50
102
RTVSPost2010PropOp37
 70
     1
102
RTVSPost2010Prop38
140
0.0
102
RTVSPost2010PropOp38
 70
     1
102
RTVSPost2010Prop39
140
1.0
102
RTVSPost2010PropOp39
 70
     1
102
RTVSPost2010Prop40
 90
        0
102
RTVSPost2010PropOp40
 70
     1
102
RTVSPost2010Prop41ColorIndex
 90
       18
102
RTVSPost2010Prop41ColorRGB
 90
        0
102
RTVSPost2010PropOp41
 70
     1
102
RTVSPost2010Prop42
 90
       50
102
RTVSPost2010PropOp42
 70
     1
102
RTVSPost2010Prop43
 90
        3
102
RTVSPost2010PropOp43
 70
     1
102
RTVSPost2010Prop44ColorIndex
 90
        5
102
RTVSPost2010Prop44ColorRGB
 90
      255
102
RTVSPost2010PropOp44
 70
     1
102
RTVSPost2010Prop45
280
     0
102
RTVSPost2010PropOp45
 70
     1
102
RTVSPost2010Prop46
 90
       50
102
RTVSPost2010PropOp46
 70
     1
102
RTVSPost2010Prop47
 90
       50
102
RTVSPost2010PropOp47
 70
     1
102
RTVSPost2010Prop48
 90
       50
102
RTVSPost2010PropOp48
 70
     1
102
RTVSPost2010Prop49
280
     0
102
RTVSPost2010PropOp49
 70
     1
102
RTVSPost2010Prop50
 90
       50
102
RTVSPost2010PropOp50
 70
     1
102
RTVSPost2010Prop51ColorIndex
 90
      256
102
RTVSPost2010Prop51ColorRGB
 90
-16777216
102
RTVSPost2010PropOp51
 70
     0
102
RTVSPost2010Prop52
140
1.0
102
RTVSPost2010PropOp52
 70
     0
102
RTVSPost2010Prop53
 90
        2
102
RTVSPost2010PropOp53
 70
     1
102
RTVSPost2010Prop54
  1
strokes_ogs.tif
102
RTVSPost2010PropOp54
 70
     1
102
RTVSPost2010Prop55
280
     0
102
RTVSPost2010PropOp55
 70
     1
102
RTVSPost2010Prop56
140
1.0
102
RTVSPost2010PropOp56
 70
     1
102
RTVSPost2010Prop57
140
1.0
102
RTVSPost2010PropOp57
 70
     1
  0
XRECORD
  5
561
102
{ACAD_REACTORS
330
560
102
}
330
560
100
AcDbXrecord
280
     1
102
RTVSPropertyOp0
 70
     1
102
RTVSPropertyOp1
 70
     1
102
RTVSPropertyOp2
 70
     1
102
RTVSPropertyOp3
 70
     1
102
RTVSPropertyOp4
 70
     1
102
RTVSPropertyOp5
 70
     1
102
RTVSPropertyOp6
 70
     1
102
RTVSPropertyOp7
 70
     1
102
RTVSPropertyOp8
 70
     1
102
RTVSPropertyOp9
 70
     1
102
RTVSPropertyOp10
 70
     1
102
RTVSPropertyOp11
 70
     1
102
RTVSPropertyOp12
 70
     1
102
RTVSPropertyOp13
 70
     1
102
RTVSPropertyOp14
 70
     1
102
RTVSPropertyOp15
 70
     1
102
RTVSPropertyOp16
 70
     1
102
RTVSPropertyOp17
 70
     1
102
RTVSPropertyOp18
 70
     1
102
RTVSPropertyOp19
 70
     1
102
RTVSPropertyOp20
 70
     1
102
RTVSPropertyOp21
 70
     1
102
RTVSPropertyOp22
 70
     1
102
RTVSPropertyOp23
 70
     1
102
RTVSPropertyOp24
 70
     1
102
RTVSPropertyOp25
 70
     1
102
RTVSPropertyOp26
 70
     1
102
RTVSPropertyOp27
 70
     1
102
RTVSPropertyOp28
 70
     1
102
RTVSPropertyOp29
 70
     1
102
RTVSPropertyOp30
 70
     1
102
RTVSPropertyOp31
 70
     1
102
RTVSPropertyOp32
 70
     1
102
RTVSPropertyOp33
 70
     1
102
RTVSPropertyOp34
 70
     1
102
RTVSPropertyOp35
 70
     1
102
RTVSPropertyOp36
 70
     1
102
RTVSPropertyOp37
 70
     1
102
RTVSPropertyOp38
 70
     1
102
RTVSPropertyOp39
 70
     1
102
RTVSPropertyOp40
 70
     1
102
RTVSPropertyOp41
 70
     1
102
RTVSPropertyOp42
 70
     1
102
RTVSPropertyOp43
 70
     1
102
RTVSPropertyOp44
 70
     1
102
RTVSPropertyOp45
 70
     1
102
RTVSPropertyOp46
 70
     1
102
RTVSPropertyOp47
 70
     1
102
RTVSPropertyOp48
 70
     1
102
RTVSPropertyOp49
 70
     1
102
RTVSPropertyOp50
 70
     1
102
RTVSPropertyOp51
 70
     0
102
RTVSPropertyOp52
 70
     0
102
RTVSPropertyOp53
 70
     1
102
RTVSPropertyOp54
 70
     1
102
RTVSPropertyOp55
 70
     1
102
RTVSPropertyOp56
 70
     1
102
RTVSPropertyOp57
 70
     1
102
RTVSPost2010Prop28
280
     0
102
RTVSPost2010PropOp28
 70
     1
102
RTVSPost2010Prop29
280
     1
102
RTVSPost2010PropOp29
 70
     1
102
RTVSPost2010Prop30
280
     1
102
RTVSPost2010PropOp30
 70
     1
102
RTVSPost2010Prop31
280
     0
102
RTVSPost2010PropOp31
 70
     1
102
RTVSPost2010Prop32
280
     0
102
RTVSPost2010PropOp32
 70
     1
102
RTVSPost2010Prop33
280
     0
102
RTVSPost2010PropOp33
 70
     1
102
RTVSPost2010Prop34
280
     0
102
RTVSPost2010PropOp34
 70
     1
102
RTVSPost2010Prop35
280
     0
102
RTVSPost2010PropOp35
 70
     1
102
RTVSPost2010Prop36
280
     0
102
RTVSPost2010PropOp36
 70
     1
102
RTVSPost2010Prop37
 90
       50
102
RTVSPost2010PropOp37
 70
     1
102
RTVSPost2010Prop38
140
0.0
102
RTVSPost2010PropOp38
 70
     1
102
RTVSPost2010Prop39
140
1.0
102
RTVSPost2010PropOp39
 70
     1
102
RTVSPost2010Prop40
 90
        0
102
RTVSPost2010PropOp40
 70
     1
102
RTVSPost2010Prop41ColorIndex
 90
       18
102
RTVSPost2010Prop41ColorRGB
 90
        0
102
RTVSPost2010PropOp41
 70
     1
102
RTVSPost2010Prop42
 90
       50
102
RTVSPost2010PropOp42
 70
     1
102
RTVSPost2010Prop43
 90
        3
102
RTVSPost2010PropOp43
 70
     1
102
RTVSPost2010Prop44ColorIndex
 90
        5
102
RTVSPost2010Prop44ColorRGB
 90
      255
102
RTVSPost2010PropOp44
 70
     1
102
RTVSPost2010Prop45
280
     0
102
RTVSPost2010PropOp45
 70
     1
102
RTVSPost2010Prop46
 90
       50
102
RTVSPost2010PropOp46
 70
     1
102
RTVSPost2010Prop47
 90
       50
102
RTVSPost2010PropOp47
 70
     1
102
RTVSPost2010Prop48
 90
       50
102
RTVSPost2010PropOp48
 70
     1
102
RTVSPost2010Prop49
280
     0
102
RTVSPost2010PropOp49
 70
     1
102
RTVSPost2010Prop50
 90
       50
102
RTVSPost2010PropOp50
 70
     1
102
RTVSPost2010Prop51ColorIndex
 90
      256
102
RTVSPost2010Prop51ColorRGB
 90
-16777216
102
RTVSPost2010PropOp51
 70
     0
102
RTVSPost2010Prop52
140
1.0
102
RTVSPost2010PropOp52
 70
     0
102
RTVSPost2010Prop53
 90
        2
102
RTVSPost2010PropOp53
 70
     1
102
RTVSPost2010Prop54
  1
strokes_ogs.tif
102
RTVSPost2010PropOp54
 70
     1
102
RTVSPost2010Prop55
280
     0
102
RTVSPost2010PropOp55
 70
     1
102
RTVSPost2010Prop56
140
1.0
102
RTVSPost2010PropOp56
 70
     1
102
RTVSPost2010Prop57
140
1.0
102
RTVSPost2010PropOp57
 70
     1
  0
XRECORD
  5
575
102
{ACAD_REACTORS
330
574
102
}
330
574
100
AcDbXrecord
280
     1
102
RTVSPropertyOp0
 70
     0
102
RTVSPropertyOp1
 70
     0
102
RTVSPropertyOp2
 70
     0
102
RTVSPropertyOp3
 70
     0
102
RTVSPropertyOp4
 70
     0
102
RTVSPropertyOp5
 70
     0
102
RTVSPropertyOp6
 70
     0
102
RTVSPropertyOp7
 70
     0
102
RTVSPropertyOp8
 70
     0
102
RTVSPropertyOp9
 70
     0
102
RTVSPropertyOp10
 70
     0
102
RTVSPropertyOp11
 70
     0
102
RTVSPropertyOp12
 70
     0
102
RTVSPropertyOp13
 70
     0
102
RTVSPropertyOp14
 70
     0
102
RTVSPropertyOp15
 70
     0
102
RTVSPropertyOp16
 70
     0
102
RTVSPropertyOp17
 70
     0
102
RTVSPropertyOp18
 70
     0
102
RTVSPropertyOp19
 70
     0
102
RTVSPropertyOp20
 70
     0
102
RTVSPropertyOp21
 70
     0
102
RTVSPropertyOp22
 70
     0
102
RTVSPropertyOp23
 70
     0
102
RTVSPropertyOp24
 70
     0
102
RTVSPropertyOp25
 70
     0
102
RTVSPropertyOp26
 70
     0
102
RTVSPropertyOp27
 70
     0
102
RTVSPropertyOp28
 70
     1
102
RTVSPropertyOp29
 70
     1
102
RTVSPropertyOp30
 70
     1
102
RTVSPropertyOp31
 70
     1
102
RTVSPropertyOp32
 70
     1
102
RTVSPropertyOp33
 70
     1
102
RTVSPropertyOp34
 70
     1
102
RTVSPropertyOp35
 70
     1
102
RTVSPropertyOp36
 70
     1
102
RTVSPropertyOp37
 70
     1
102
RTVSPropertyOp38
 70
     1
102
RTVSPropertyOp39
 70
     1
102
RTVSPropertyOp40
 70
     1
102
RTVSPropertyOp41
 70
     1
102
RTVSPropertyOp42
 70
     1
102
RTVSPropertyOp43
 70
     1
102
RTVSPropertyOp44
 70
     1
102
RTVSPropertyOp45
 70
     1
102
RTVSPropertyOp46
 70
     1
102
RTVSPropertyOp47
 70
     1
102
RTVSPropertyOp48
 70
     1
102
RTVSPropertyOp49
 70
     1
102
RTVSPropertyOp50
 70
     1
102
RTVSPropertyOp51
 70
     0
102
RTVSPropertyOp52
 70
     0
102
RTVSPropertyOp53
 70
     1
102
RTVSPropertyOp54
 70
     1
102
RTVSPropertyOp55
 70
     1
102
RTVSPropertyOp56
 70
     1
102
RTVSPropertyOp57
 70
     1
102
RTVSPost2010Prop28
280
     0
102
RTVSPost2010PropOp28
 70
     1
102
RTVSPost2010Prop29
280
     1
102
RTVSPost2010PropOp29
 70
     1
102
RTVSPost2010Prop30
280
     1
102
RTVSPost2010PropOp30
 70
     1
102
RTVSPost2010Prop31
280
     0
102
RTVSPost2010PropOp31
 70
     1
102
RTVSPost2010Prop32
280
     0
102
RTVSPost2010PropOp32
 70
     1
102
RTVSPost2010Prop33
280
     0
102
RTVSPost2010PropOp33
 70
     1
102
RTVSPost2010Prop34
280
     0
102
RTVSPost2010PropOp34
 70
     1
102
RTVSPost2010Prop35
280
     0
102
RTVSPost2010PropOp35
 70
     1
102
RTVSPost2010Prop36
280
     0
102
RTVSPost2010PropOp36
 70
     1
102
RTVSPost2010Prop37
 90
       50
102
RTVSPost2010PropOp37
 70
     1
102
RTVSPost2010Prop38
140
0.0
102
RTVSPost2010PropOp38
 70
     1
102
RTVSPost2010Prop39
140
1.0
102
RTVSPost2010PropOp39
 70
     1
102
RTVSPost2010Prop40
 90
        0
102
RTVSPost2010PropOp40
 70
     1
102
RTVSPost2010Prop41ColorIndex
 90
       18
102
RTVSPost2010Prop41ColorRGB
 90
        0
102
RTVSPost2010PropOp41
 70
     1
102
RTVSPost2010Prop42
 90
       50
102
RTVSPost2010PropOp42
 70
     1
102
RTVSPost2010Prop43
 90
        3
102
RTVSPost2010PropOp43
 70
     1
102
RTVSPost2010Prop44ColorIndex
 90
        5
102
RTVSPost2010Prop44ColorRGB
 90
      255
102
RTVSPost2010PropOp44
 70
     1
102
RTVSPost2010Prop45
280
     0
102
RTVSPost2010PropOp45
 70
     1
102
RTVSPost2010Prop46
 90
       50
102
RTVSPost2010PropOp46
 70
     1
102
RTVSPost2010Prop47
 90
       50
102
RTVSPost2010PropOp47
 70
     1
102
RTVSPost2010Prop48
 90
       50
102
RTVSPost2010PropOp48
 70
     1
102
RTVSPost2010Prop49
280
     0
102
RTVSPost2010PropOp49
 70
     1
102
RTVSPost2010Prop50
 90
       50
102
RTVSPost2010PropOp50
 70
     1
102
RTVSPost2010Prop51ColorIndex
 90
      256
102
RTVSPost2010Prop51ColorRGB
 90
-16777216
102
RTVSPost2010PropOp51
 70
     0
102
RTVSPost2010Prop52
140
1.0
102
RTVSPost2010PropOp52
 70
     0
102
RTVSPost2010Prop53
 90
        2
102
RTVSPost2010PropOp53
 70
     1
102
RTVSPost2010Prop54
  1
strokes_ogs.tif
102
RTVSPost2010PropOp54
 70
     1
102
RTVSPost2010Prop55
280
     0
102
RTVSPost2010PropOp55
 70
     1
102
RTVSPost2010Prop56
140
1.0
102
RTVSPost2010PropOp56
 70
     1
102
RTVSPost2010Prop57
140
1.0
102
RTVSPost2010PropOp57
 70
     1
  0
XRECORD
  5
56F
102
{ACAD_REACTORS
330
56E
102
}
330
56E
100
AcDbXrecord
280
     1
102
RTVSPropertyOp0
 70
     1
102
RTVSPropertyOp1
 70
     1
102
RTVSPropertyOp2
 70
     1
102
RTVSPropertyOp3
 70
     1
102
RTVSPropertyOp4
 70
     1
102
RTVSPropertyOp5
 70
     1
102
RTVSPropertyOp6
 70
     1
102
RTVSPropertyOp7
 70
     1
102
RTVSPropertyOp8
 70
     1
102
RTVSPropertyOp9
 70
     1
102
RTVSPropertyOp10
 70
     1
102
RTVSPropertyOp11
 70
     1
102
RTVSPropertyOp12
 70
     1
102
RTVSPropertyOp13
 70
     1
102
RTVSPropertyOp14
 70
     1
102
RTVSPropertyOp15
 70
     1
102
RTVSPropertyOp16
 70
     1
102
RTVSPropertyOp17
 70
     1
102
RTVSPropertyOp18
 70
     1
102
RTVSPropertyOp19
 70
     1
102
RTVSPropertyOp20
 70
     1
102
RTVSPropertyOp21
 70
     1
102
RTVSPropertyOp22
 70
     1
102
RTVSPropertyOp23
 70
     1
102
RTVSPropertyOp24
 70
     1
102
RTVSPropertyOp25
 70
     1
102
RTVSPropertyOp26
 70
     1
102
RTVSPropertyOp27
 70
     1
102
RTVSPropertyOp28
 70
     1
102
RTVSPropertyOp29
 70
     1
102
RTVSPropertyOp30
 70
     1
102
RTVSPropertyOp31
 70
     1
102
RTVSPropertyOp32
 70
     1
102
RTVSPropertyOp33
 70
     1
102
RTVSPropertyOp34
 70
     1
102
RTVSPropertyOp35
 70
     1
102
RTVSPropertyOp36
 70
     1
102
RTVSPropertyOp37
 70
     1
102
RTVSPropertyOp38
 70
     1
102
RTVSPropertyOp39
 70
     1
102
RTVSPropertyOp40
 70
     1
102
RTVSPropertyOp41
 70
     1
102
RTVSPropertyOp42
 70
     1
102
RTVSPropertyOp43
 70
     1
102
RTVSPropertyOp44
 70
     1
102
RTVSPropertyOp45
 70
     1
102
RTVSPropertyOp46
 70
     1
102
RTVSPropertyOp47
 70
     1
102
RTVSPropertyOp48
 70
     1
102
RTVSPropertyOp49
 70
     1
102
RTVSPropertyOp50
 70
     1
102
RTVSPropertyOp51
 70
     0
102
RTVSPropertyOp52
 70
     0
102
RTVSPropertyOp53
 70
     1
102
RTVSPropertyOp54
 70
     1
102
RTVSPropertyOp55
 70
     1
102
RTVSPropertyOp56
 70
     1
102
RTVSPropertyOp57
 70
     1
102
RTVSPost2010Prop28
280
     0
102
RTVSPost2010PropOp28
 70
     1
102
RTVSPost2010Prop29
280
     1
102
RTVSPost2010PropOp29
 70
     1
102
RTVSPost2010Prop30
280
     1
102
RTVSPost2010PropOp30
 70
     1
102
RTVSPost2010Prop31
280
     0
102
RTVSPost2010PropOp31
 70
     1
102
RTVSPost2010Prop32
280
     0
102
RTVSPost2010PropOp32
 70
     1
102
RTVSPost2010Prop33
280
     0
102
RTVSPost2010PropOp33
 70
     1
102
RTVSPost2010Prop34
280
     0
102
RTVSPost2010PropOp34
 70
     1
102
RTVSPost2010Prop35
280
     0
102
RTVSPost2010PropOp35
 70
     1
102
RTVSPost2010Prop36
280
     0
102
RTVSPost2010PropOp36
 70
     1
102
RTVSPost2010Prop37
 90
       50
102
RTVSPost2010PropOp37
 70
     1
102
RTVSPost2010Prop38
140
0.0
102
RTVSPost2010PropOp38
 70
     1
102
RTVSPost2010Prop39
140
1.0
102
RTVSPost2010PropOp39
 70
     1
102
RTVSPost2010Prop40
 90
        0
102
RTVSPost2010PropOp40
 70
     1
102
RTVSPost2010Prop41ColorIndex
 90
       18
102
RTVSPost2010Prop41ColorRGB
 90
        0
102
RTVSPost2010PropOp41
 70
     1
102
RTVSPost2010Prop42
 90
       50
102
RTVSPost2010PropOp42
 70
     1
102
RTVSPost2010Prop43
 90
        3
102
RTVSPost2010PropOp43
 70
     1
102
RTVSPost2010Prop44ColorIndex
 90
        5
102
RTVSPost2010Prop44ColorRGB
 90
      255
102
RTVSPost2010PropOp44
 70
     1
102
RTVSPost2010Prop45
280
     0
102
RTVSPost2010PropOp45
 70
     1
102
RTVSPost2010Prop46
 90
       50
102
RTVSPost2010PropOp46
 70
     1
102
RTVSPost2010Prop47
 90
       50
102
RTVSPost2010PropOp47
 70
     1
102
RTVSPost2010Prop48
 90
       50
102
RTVSPost2010PropOp48
 70
     1
102
RTVSPost2010Prop49
280
     0
102
RTVSPost2010PropOp49
 70
     1
102
RTVSPost2010Prop50
 90
       50
102
RTVSPost2010PropOp50
 70
     1
102
RTVSPost2010Prop51ColorIndex
 90
      256
102
RTVSPost2010Prop51ColorRGB
 90
-16777216
102
RTVSPost2010PropOp51
 70
     0
102
RTVSPost2010Prop52
140
1.0
102
RTVSPost2010PropOp52
 70
     0
102
RTVSPost2010Prop53
 90
        2
102
RTVSPost2010PropOp53
 70
     1
102
RTVSPost2010Prop54
  1
strokes_ogs.tif
102
RTVSPost2010PropOp54
 70
     1
102
RTVSPost2010Prop55
280
     0
102
RTVSPost2010PropOp55
 70
     1
102
RTVSPost2010Prop56
140
1.0
102
RTVSPost2010PropOp56
 70
     1
102
RTVSPost2010Prop57
140
1.0
102
RTVSPost2010PropOp57
 70
     1
  0
XRECORD
  5
577
102
{ACAD_REACTORS
330
576
102
}
330
576
100
AcDbXrecord
280
     1
102
RTVSPropertyOp0
 70
     0
102
RTVSPropertyOp1
 70
     0
102
RTVSPropertyOp2
 70
     0
102
RTVSPropertyOp3
 70
     0
102
RTVSPropertyOp4
 70
     0
102
RTVSPropertyOp5
 70
     0
102
RTVSPropertyOp6
 70
     0
102
RTVSPropertyOp7
 70
     0
102
RTVSPropertyOp8
 70
     0
102
RTVSPropertyOp9
 70
     0
102
RTVSPropertyOp10
 70
     0
102
RTVSPropertyOp11
 70
     0
102
RTVSPropertyOp12
 70
     0
102
RTVSPropertyOp13
 70
     0
102
RTVSPropertyOp14
 70
     0
102
RTVSPropertyOp15
 70
     0
102
RTVSPropertyOp16
 70
     0
102
RTVSPropertyOp17
 70
     0
102
RTVSPropertyOp18
 70
     0
102
RTVSPropertyOp19
 70
     0
102
RTVSPropertyOp20
 70
     0
102
RTVSPropertyOp21
 70
     0
102
RTVSPropertyOp22
 70
     0
102
RTVSPropertyOp23
 70
     0
102
RTVSPropertyOp24
 70
     0
102
RTVSPropertyOp25
 70
     0
102
RTVSPropertyOp26
 70
     0
102
RTVSPropertyOp27
 70
     0
102
RTVSPropertyOp28
 70
     1
102
RTVSPropertyOp29
 70
     1
102
RTVSPropertyOp30
 70
     1
102
RTVSPropertyOp31
 70
     1
102
RTVSPropertyOp32
 70
     1
102
RTVSPropertyOp33
 70
     1
102
RTVSPropertyOp34
 70
     1
102
RTVSPropertyOp35
 70
     1
102
RTVSPropertyOp36
 70
     1
102
RTVSPropertyOp37
 70
     1
102
RTVSPropertyOp38
 70
     1
102
RTVSPropertyOp39
 70
     1
102
RTVSPropertyOp40
 70
     1
102
RTVSPropertyOp41
 70
     1
102
RTVSPropertyOp42
 70
     1
102
RTVSPropertyOp43
 70
     1
102
RTVSPropertyOp44
 70
     1
102
RTVSPropertyOp45
 70
     1
102
RTVSPropertyOp46
 70
     1
102
RTVSPropertyOp47
 70
     1
102
RTVSPropertyOp48
 70
     1
102
RTVSPropertyOp49
 70
     1
102
RTVSPropertyOp50
 70
     1
102
RTVSPropertyOp51
 70
     0
102
RTVSPropertyOp52
 70
     0
102
RTVSPropertyOp53
 70
     1
102
RTVSPropertyOp54
 70
     1
102
RTVSPropertyOp55
 70
     1
102
RTVSPropertyOp56
 70
     1
102
RTVSPropertyOp57
 70
     1
102
RTVSPost2010Prop28
280
     0
102
RTVSPost2010PropOp28
 70
     1
102
RTVSPost2010Prop29
280
     1
102
RTVSPost2010PropOp29
 70
     1
102
RTVSPost2010Prop30
280
     1
102
RTVSPost2010PropOp30
 70
     1
102
RTVSPost2010Prop31
280
     0
102
RTVSPost2010PropOp31
 70
     1
102
RTVSPost2010Prop32
280
     0
102
RTVSPost2010PropOp32
 70
     1
102
RTVSPost2010Prop33
280
     0
102
RTVSPost2010PropOp33
 70
     1
102
RTVSPost2010Prop34
280
     0
102
RTVSPost2010PropOp34
 70
     1
102
RTVSPost2010Prop35
280
     0
102
RTVSPost2010PropOp35
 70
     1
102
RTVSPost2010Prop36
280
     0
102
RTVSPost2010PropOp36
 70
     1
102
RTVSPost2010Prop37
 90
       50
102
RTVSPost2010PropOp37
 70
     1
102
RTVSPost2010Prop38
140
0.0
102
RTVSPost2010PropOp38
 70
     1
102
RTVSPost2010Prop39
140
1.0
102
RTVSPost2010PropOp39
 70
     1
102
RTVSPost2010Prop40
 90
        0
102
RTVSPost2010PropOp40
 70
     1
102
RTVSPost2010Prop41ColorIndex
 90
       18
102
RTVSPost2010Prop41ColorRGB
 90
        0
102
RTVSPost2010PropOp41
 70
     1
102
RTVSPost2010Prop42
 90
       50
102
RTVSPost2010PropOp42
 70
     1
102
RTVSPost2010Prop43
 90
        3
102
RTVSPost2010PropOp43
 70
     1
102
RTVSPost2010Prop44ColorIndex
 90
        5
102
RTVSPost2010Prop44ColorRGB
 90
      255
102
RTVSPost2010PropOp44
 70
     1
102
RTVSPost2010Prop45
280
     0
102
RTVSPost2010PropOp45
 70
     1
102
RTVSPost2010Prop46
 90
       50
102
RTVSPost2010PropOp46
 70
     1
102
RTVSPost2010Prop47
 90
       50
102
RTVSPost2010PropOp47
 70
     1
102
RTVSPost2010Prop48
 90
       50
102
RTVSPost2010PropOp48
 70
     1
102
RTVSPost2010Prop49
280
     0
102
RTVSPost2010PropOp49
 70
     1
102
RTVSPost2010Prop50
 90
       50
102
RTVSPost2010PropOp50
 70
     1
102
RTVSPost2010Prop51ColorIndex
 90
      256
102
RTVSPost2010Prop51ColorRGB
 90
-16777216
102
RTVSPost2010PropOp51
 70
     0
102
RTVSPost2010Prop52
140
1.0
102
RTVSPost2010PropOp52
 70
     0
102
RTVSPost2010Prop53
 90
        2
102
RTVSPost2010PropOp53
 70
     1
102
RTVSPost2010Prop54
  1
strokes_ogs.tif
102
RTVSPost2010PropOp54
 70
     1
102
RTVSPost2010Prop55
280
     0
102
RTVSPost2010PropOp55
 70
     1
102
RTVSPost2010Prop56
140
1.0
102
RTVSPost2010PropOp56
 70
     1
102
RTVSPost2010Prop57
140
1.0
102
RTVSPost2010PropOp57
 70
     1
  0
XRECORD
  5
565
102
{ACAD_REACTORS
330
564
102
}
330
564
100
AcDbXrecord
280
     1
102
RTVSPropertyOp0
 70
     1
102
RTVSPropertyOp1
 70
     1
102
RTVSPropertyOp2
 70
     1
102
RTVSPropertyOp3
 70
     1
102
RTVSPropertyOp4
 70
     1
102
RTVSPropertyOp5
 70
     1
102
RTVSPropertyOp6
 70
     1
102
RTVSPropertyOp7
 70
     1
102
RTVSPropertyOp8
 70
     1
102
RTVSPropertyOp9
 70
     1
102
RTVSPropertyOp10
 70
     1
102
RTVSPropertyOp11
 70
     1
102
RTVSPropertyOp12
 70
     1
102
RTVSPropertyOp13
 70
     1
102
RTVSPropertyOp14
 70
     1
102
RTVSPropertyOp15
 70
     1
102
RTVSPropertyOp16
 70
     1
102
RTVSPropertyOp17
 70
     1
102
RTVSPropertyOp18
 70
     1
102
RTVSPropertyOp19
 70
     1
102
RTVSPropertyOp20
 70
     1
102
RTVSPropertyOp21
 70
     1
102
RTVSPropertyOp22
 70
     1
102
RTVSPropertyOp23
 70
     1
102
RTVSPropertyOp24
 70
     1
102
RTVSPropertyOp25
 70
     1
102
RTVSPropertyOp26
 70
     1
102
RTVSPropertyOp27
 70
     1
102
RTVSPropertyOp28
 70
     1
102
RTVSPropertyOp29
 70
     1
102
RTVSPropertyOp30
 70
     1
102
RTVSPropertyOp31
 70
     1
102
RTVSPropertyOp32
 70
     1
102
RTVSPropertyOp33
 70
     1
102
RTVSPropertyOp34
 70
     1
102
RTVSPropertyOp35
 70
     1
102
RTVSPropertyOp36
 70
     1
102
RTVSPropertyOp37
 70
     1
102
RTVSPropertyOp38
 70
     1
102
RTVSPropertyOp39
 70
     1
102
RTVSPropertyOp40
 70
     1
102
RTVSPropertyOp41
 70
     1
102
RTVSPropertyOp42
 70
     1
102
RTVSPropertyOp43
 70
     1
102
RTVSPropertyOp44
 70
     1
102
RTVSPropertyOp45
 70
     1
102
RTVSPropertyOp46
 70
     1
102
RTVSPropertyOp47
 70
     1
102
RTVSPropertyOp48
 70
     1
102
RTVSPropertyOp49
 70
     1
102
RTVSPropertyOp50
 70
     1
102
RTVSPropertyOp51
 70
     0
102
RTVSPropertyOp52
 70
     0
102
RTVSPropertyOp53
 70
     1
102
RTVSPropertyOp54
 70
     1
102
RTVSPropertyOp55
 70
     1
102
RTVSPropertyOp56
 70
     1
102
RTVSPropertyOp57
 70
     1
102
RTVSPost2010Prop28
280
     0
102
RTVSPost2010PropOp28
 70
     1
102
RTVSPost2010Prop29
280
     1
102
RTVSPost2010PropOp29
 70
     1
102
RTVSPost2010Prop30
280
     1
102
RTVSPost2010PropOp30
 70
     1
102
RTVSPost2010Prop31
280
     0
102
RTVSPost2010PropOp31
 70
     1
102
RTVSPost2010Prop32
280
     0
102
RTVSPost2010PropOp32
 70
     1
102
RTVSPost2010Prop33
280
     0
102
RTVSPost2010PropOp33
 70
     1
102
RTVSPost2010Prop34
280
     0
102
RTVSPost2010PropOp34
 70
     1
102
RTVSPost2010Prop35
280
     0
102
RTVSPost2010PropOp35
 70
     1
102
RTVSPost2010Prop36
280
     0
102
RTVSPost2010PropOp36
 70
     1
102
RTVSPost2010Prop37
 90
       50
102
RTVSPost2010PropOp37
 70
     1
102
RTVSPost2010Prop38
140
0.0
102
RTVSPost2010PropOp38
 70
     1
102
RTVSPost2010Prop39
140
1.0
102
RTVSPost2010PropOp39
 70
     1
102
RTVSPost2010Prop40
 90
        0
102
RTVSPost2010PropOp40
 70
     1
102
RTVSPost2010Prop41ColorIndex
 90
       18
102
RTVSPost2010Prop41ColorRGB
 90
        0
102
RTVSPost2010PropOp41
 70
     1
102
RTVSPost2010Prop42
 90
       50
102
RTVSPost2010PropOp42
 70
     1
102
RTVSPost2010Prop43
 90
        3
102
RTVSPost2010PropOp43
 70
     1
102
RTVSPost2010Prop44ColorIndex
 90
        5
102
RTVSPost2010Prop44ColorRGB
 90
      255
102
RTVSPost2010PropOp44
 70
     1
102
RTVSPost2010Prop45
280
     0
102
RTVSPost2010PropOp45
 70
     1
102
RTVSPost2010Prop46
 90
       50
102
RTVSPost2010PropOp46
 70
     1
102
RTVSPost2010Prop47
 90
       50
102
RTVSPost2010PropOp47
 70
     1
102
RTVSPost2010Prop48
 90
       50
102
RTVSPost2010PropOp48
 70
     1
102
RTVSPost2010Prop49
280
     0
102
RTVSPost2010PropOp49
 70
     1
102
RTVSPost2010Prop50
 90
       50
102
RTVSPost2010PropOp50
 70
     1
102
RTVSPost2010Prop51ColorIndex
 90
      256
102
RTVSPost2010Prop51ColorRGB
 90
-16777216
102
RTVSPost2010PropOp51
 70
     0
102
RTVSPost2010Prop52
140
1.0
102
RTVSPost2010PropOp52
 70
     0
102
RTVSPost2010Prop53
 90
        2
102
RTVSPost2010PropOp53
 70
     1
102
RTVSPost2010Prop54
  1
strokes_ogs.tif
102
RTVSPost2010PropOp54
 70
     1
102
RTVSPost2010Prop55
280
     0
102
RTVSPost2010PropOp55
 70
     1
102
RTVSPost2010Prop56
140
1.0
102
RTVSPost2010PropOp56
 70
     1
102
RTVSPost2010Prop57
140
1.0
102
RTVSPost2010PropOp57
 70
     1
  0
XRECORD
  5
583
102
{ACAD_REACTORS
330
582
102
}
330
582
100
AcDbXrecord
280
     1
102
RTVSPropertyOp0
 70
     1
102
RTVSPropertyOp1
 70
     1
102
RTVSPropertyOp2
 70
     1
102
RTVSPropertyOp3
 70
     1
102
RTVSPropertyOp4
 70
     1
102
RTVSPropertyOp5
 70
     1
102
RTVSPropertyOp6
 70
     1
102
RTVSPropertyOp7
 70
     1
102
RTVSPropertyOp8
 70
     1
102
RTVSPropertyOp9
 70
     1
102
RTVSPropertyOp10
 70
     1
102
RTVSPropertyOp11
 70
     1
102
RTVSPropertyOp12
 70
     1
102
RTVSPropertyOp13
 70
     1
102
RTVSPropertyOp14
 70
     1
102
RTVSPropertyOp15
 70
     1
102
RTVSPropertyOp16
 70
     1
102
RTVSPropertyOp17
 70
     1
102
RTVSPropertyOp18
 70
     1
102
RTVSPropertyOp19
 70
     1
102
RTVSPropertyOp20
 70
     1
102
RTVSPropertyOp21
 70
     1
102
RTVSPropertyOp22
 70
     1
102
RTVSPropertyOp23
 70
     1
102
RTVSPropertyOp24
 70
     1
102
RTVSPropertyOp25
 70
     1
102
RTVSPropertyOp26
 70
     1
102
RTVSPropertyOp27
 70
     1
102
RTVSPropertyOp28
 70
     1
102
RTVSPropertyOp29
 70
     1
102
RTVSPropertyOp30
 70
     1
102
RTVSPropertyOp31
 70
     1
102
RTVSPropertyOp32
 70
     1
102
RTVSPropertyOp33
 70
     1
102
RTVSPropertyOp34
 70
     1
102
RTVSPropertyOp35
 70
     1
102
RTVSPropertyOp36
 70
     1
102
RTVSPropertyOp37
 70
     1
102
RTVSPropertyOp38
 70
     1
102
RTVSPropertyOp39
 70
     1
102
RTVSPropertyOp40
 70
     1
102
RTVSPropertyOp41
 70
     1
102
RTVSPropertyOp42
 70
     1
102
RTVSPropertyOp43
 70
     1
102
RTVSPropertyOp44
 70
     1
102
RTVSPropertyOp45
 70
     1
102
RTVSPropertyOp46
 70
     1
102
RTVSPropertyOp47
 70
     1
102
RTVSPropertyOp48
 70
     1
102
RTVSPropertyOp49
 70
     1
102
RTVSPropertyOp50
 70
     1
102
RTVSPropertyOp51
 70
     0
102
RTVSPropertyOp52
 70
     0
102
RTVSPropertyOp53
 70
     1
102
RTVSPropertyOp54
 70
     1
102
RTVSPropertyOp55
 70
     1
102
RTVSPropertyOp56
 70
     1
102
RTVSPropertyOp57
 70
     1
102
RTVSPost2010Prop28
280
     0
102
RTVSPost2010PropOp28
 70
     1
102
RTVSPost2010Prop29
280
     1
102
RTVSPost2010PropOp29
 70
     1
102
RTVSPost2010Prop30
280
     1
102
RTVSPost2010PropOp30
 70
     1
102
RTVSPost2010Prop31
280
     0
102
RTVSPost2010PropOp31
 70
     1
102
RTVSPost2010Prop32
280
     0
102
RTVSPost2010PropOp32
 70
     1
102
RTVSPost2010Prop33
280
     0
102
RTVSPost2010PropOp33
 70
     1
102
RTVSPost2010Prop34
280
     0
102
RTVSPost2010PropOp34
 70
     1
102
RTVSPost2010Prop35
280
     0
102
RTVSPost2010PropOp35
 70
     1
102
RTVSPost2010Prop36
280
     0
102
RTVSPost2010PropOp36
 70
     1
102
RTVSPost2010Prop37
 90
       50
102
RTVSPost2010PropOp37
 70
     1
102
RTVSPost2010Prop38
140
0.0
102
RTVSPost2010PropOp38
 70
     1
102
RTVSPost2010Prop39
140
1.0
102
RTVSPost2010PropOp39
 70
     1
102
RTVSPost2010Prop40
 90
        0
102
RTVSPost2010PropOp40
 70
     1
102
RTVSPost2010Prop41ColorIndex
 90
       18
102
RTVSPost2010Prop41ColorRGB
 90
        0
102
RTVSPost2010PropOp41
 70
     1
102
RTVSPost2010Prop42
 90
       50
102
RTVSPost2010PropOp42
 70
     1
102
RTVSPost2010Prop43
 90
        3
102
RTVSPost2010PropOp43
 70
     1
102
RTVSPost2010Prop44ColorIndex
 90
        5
102
RTVSPost2010Prop44ColorRGB
 90
      255
102
RTVSPost2010PropOp44
 70
     1
102
RTVSPost2010Prop45
280
     0
102
RTVSPost2010PropOp45
 70
     1
102
RTVSPost2010Prop46
 90
       50
102
RTVSPost2010PropOp46
 70
     1
102
RTVSPost2010Prop47
 90
       50
102
RTVSPost2010PropOp47
 70
     1
102
RTVSPost2010Prop48
 90
       50
102
RTVSPost2010PropOp48
 70
     1
102
RTVSPost2010Prop49
280
     0
102
RTVSPost2010PropOp49
 70
     1
102
RTVSPost2010Prop50
 90
       50
102
RTVSPost2010PropOp50
 70
     1
102
RTVSPost2010Prop51ColorIndex
 90
      256
102
RTVSPost2010Prop51ColorRGB
 90
-16777216
102
RTVSPost2010PropOp51
 70
     0
102
RTVSPost2010Prop52
140
1.0
102
RTVSPost2010PropOp52
 70
     0
102
RTVSPost2010Prop53
 90
        2
102
RTVSPost2010PropOp53
 70
     1
102
RTVSPost2010Prop54
  1
strokes_ogs.tif
102
RTVSPost2010PropOp54
 70
     1
102
RTVSPost2010Prop55
280
     0
102
RTVSPost2010PropOp55
 70
     1
102
RTVSPost2010Prop56
140
1.0
102
RTVSPost2010PropOp56
 70
     1
102
RTVSPost2010Prop57
140
1.0
102
RTVSPost2010PropOp57
 70
     1
  0
XRECORD
  5
581
102
{ACAD_REACTORS
330
580
102
}
330
580
100
AcDbXrecord
280
     1
102
RTVSPropertyOp0
 70
     1
102
RTVSPropertyOp1
 70
     1
102
RTVSPropertyOp2
 70
     1
102
RTVSPropertyOp3
 70
     1
102
RTVSPropertyOp4
 70
     1
102
RTVSPropertyOp5
 70
     1
102
RTVSPropertyOp6
 70
     1
102
RTVSPropertyOp7
 70
     1
102
RTVSPropertyOp8
 70
     1
102
RTVSPropertyOp9
 70
     1
102
RTVSPropertyOp10
 70
     1
102
RTVSPropertyOp11
 70
     1
102
RTVSPropertyOp12
 70
     1
102
RTVSPropertyOp13
 70
     1
102
RTVSPropertyOp14
 70
     1
102
RTVSPropertyOp15
 70
     1
102
RTVSPropertyOp16
 70
     1
102
RTVSPropertyOp17
 70
     1
102
RTVSPropertyOp18
 70
     1
102
RTVSPropertyOp19
 70
     1
102
RTVSPropertyOp20
 70
     1
102
RTVSPropertyOp21
 70
     1
102
RTVSPropertyOp22
 70
     1
102
RTVSPropertyOp23
 70
     1
102
RTVSPropertyOp24
 70
     1
102
RTVSPropertyOp25
 70
     1
102
RTVSPropertyOp26
 70
     1
102
RTVSPropertyOp27
 70
     1
102
RTVSPropertyOp28
 70
     1
102
RTVSPropertyOp29
 70
     1
102
RTVSPropertyOp30
 70
     1
102
RTVSPropertyOp31
 70
     1
102
RTVSPropertyOp32
 70
     1
102
RTVSPropertyOp33
 70
     1
102
RTVSPropertyOp34
 70
     1
102
RTVSPropertyOp35
 70
     1
102
RTVSPropertyOp36
 70
     1
102
RTVSPropertyOp37
 70
     1
102
RTVSPropertyOp38
 70
     1
102
RTVSPropertyOp39
 70
     1
102
RTVSPropertyOp40
 70
     1
102
RTVSPropertyOp41
 70
     1
102
RTVSPropertyOp42
 70
     1
102
RTVSPropertyOp43
 70
     1
102
RTVSPropertyOp44
 70
     1
102
RTVSPropertyOp45
 70
     1
102
RTVSPropertyOp46
 70
     1
102
RTVSPropertyOp47
 70
     1
102
RTVSPropertyOp48
 70
     1
102
RTVSPropertyOp49
 70
     1
102
RTVSPropertyOp50
 70
     1
102
RTVSPropertyOp51
 70
     0
102
RTVSPropertyOp52
 70
     0
102
RTVSPropertyOp53
 70
     1
102
RTVSPropertyOp54
 70
     1
102
RTVSPropertyOp55
 70
     1
102
RTVSPropertyOp56
 70
     1
102
RTVSPropertyOp57
 70
     1
102
RTVSPost2010Prop28
280
     0
102
RTVSPost2010PropOp28
 70
     1
102
RTVSPost2010Prop29
280
     1
102
RTVSPost2010PropOp29
 70
     1
102
RTVSPost2010Prop30
280
     1
102
RTVSPost2010PropOp30
 70
     1
102
RTVSPost2010Prop31
280
     0
102
RTVSPost2010PropOp31
 70
     1
102
RTVSPost2010Prop32
280
     0
102
RTVSPost2010PropOp32
 70
     1
102
RTVSPost2010Prop33
280
     0
102
RTVSPost2010PropOp33
 70
     1
102
RTVSPost2010Prop34
280
     0
102
RTVSPost2010PropOp34
 70
     1
102
RTVSPost2010Prop35
280
     0
102
RTVSPost2010PropOp35
 70
     1
102
RTVSPost2010Prop36
280
     0
102
RTVSPost2010PropOp36
 70
     1
102
RTVSPost2010Prop37
 90
       50
102
RTVSPost2010PropOp37
 70
     1
102
RTVSPost2010Prop38
140
0.0
102
RTVSPost2010PropOp38
 70
     1
102
RTVSPost2010Prop39
140
1.0
102
RTVSPost2010PropOp39
 70
     1
102
RTVSPost2010Prop40
 90
        0
102
RTVSPost2010PropOp40
 70
     1
102
RTVSPost2010Prop41ColorIndex
 90
       18
102
RTVSPost2010Prop41ColorRGB
 90
        0
102
RTVSPost2010PropOp41
 70
     1
102
RTVSPost2010Prop42
 90
       50
102
RTVSPost2010PropOp42
 70
     1
102
RTVSPost2010Prop43
 90
        3
102
RTVSPost2010PropOp43
 70
     1
102
RTVSPost2010Prop44ColorIndex
 90
        5
102
RTVSPost2010Prop44ColorRGB
 90
      255
102
RTVSPost2010PropOp44
 70
     1
102
RTVSPost2010Prop45
280
     0
102
RTVSPost2010PropOp45
 70
     1
102
RTVSPost2010Prop46
 90
       50
102
RTVSPost2010PropOp46
 70
     1
102
RTVSPost2010Prop47
 90
       50
102
RTVSPost2010PropOp47
 70
     1
102
RTVSPost2010Prop48
 90
       50
102
RTVSPost2010PropOp48
 70
     1
102
RTVSPost2010Prop49
280
     0
102
RTVSPost2010PropOp49
 70
     1
102
RTVSPost2010Prop50
 90
       50
102
RTVSPost2010PropOp50
 70
     1
102
RTVSPost2010Prop51ColorIndex
 90
      256
102
RTVSPost2010Prop51ColorRGB
 90
-16777216
102
RTVSPost2010PropOp51
 70
     0
102
RTVSPost2010Prop52
140
1.0
102
RTVSPost2010PropOp52
 70
     0
102
RTVSPost2010Prop53
 90
        2
102
RTVSPost2010PropOp53
 70
     1
102
RTVSPost2010Prop54
  1
strokes_ogs.tif
102
RTVSPost2010PropOp54
 70
     1
102
RTVSPost2010Prop55
280
     0
102
RTVSPost2010PropOp55
 70
     1
102
RTVSPost2010Prop56
140
1.0
102
RTVSPost2010PropOp56
 70
     1
102
RTVSPost2010Prop57
140
1.0
102
RTVSPost2010PropOp57
 70
     1
  0
XRECORD
  5
57B
102
{ACAD_REACTORS
330
57A
102
}
330
57A
100
AcDbXrecord
280
     1
102
RTVSPropertyOp0
 70
     1
102
RTVSPropertyOp1
 70
     1
102
RTVSPropertyOp2
 70
     1
102
RTVSPropertyOp3
 70
     1
102
RTVSPropertyOp4
 70
     1
102
RTVSPropertyOp5
 70
     1
102
RTVSPropertyOp6
 70
     1
102
RTVSPropertyOp7
 70
     1
102
RTVSPropertyOp8
 70
     1
102
RTVSPropertyOp9
 70
     1
102
RTVSPropertyOp10
 70
     1
102
RTVSPropertyOp11
 70
     1
102
RTVSPropertyOp12
 70
     1
102
RTVSPropertyOp13
 70
     1
102
RTVSPropertyOp14
 70
     1
102
RTVSPropertyOp15
 70
     1
102
RTVSPropertyOp16
 70
     1
102
RTVSPropertyOp17
 70
     1
102
RTVSPropertyOp18
 70
     1
102
RTVSPropertyOp19
 70
     1
102
RTVSPropertyOp20
 70
     1
102
RTVSPropertyOp21
 70
     1
102
RTVSPropertyOp22
 70
     1
102
RTVSPropertyOp23
 70
     1
102
RTVSPropertyOp24
 70
     1
102
RTVSPropertyOp25
 70
     1
102
RTVSPropertyOp26
 70
     1
102
RTVSPropertyOp27
 70
     1
102
RTVSPropertyOp28
 70
     1
102
RTVSPropertyOp29
 70
     1
102
RTVSPropertyOp30
 70
     1
102
RTVSPropertyOp31
 70
     1
102
RTVSPropertyOp32
 70
     1
102
RTVSPropertyOp33
 70
     1
102
RTVSPropertyOp34
 70
     1
102
RTVSPropertyOp35
 70
     1
102
RTVSPropertyOp36
 70
     1
102
RTVSPropertyOp37
 70
     1
102
RTVSPropertyOp38
 70
     1
102
RTVSPropertyOp39
 70
     1
102
RTVSPropertyOp40
 70
     1
102
RTVSPropertyOp41
 70
     1
102
RTVSPropertyOp42
 70
     1
102
RTVSPropertyOp43
 70
     1
102
RTVSPropertyOp44
 70
     1
102
RTVSPropertyOp45
 70
     1
102
RTVSPropertyOp46
 70
     1
102
RTVSPropertyOp47
 70
     1
102
RTVSPropertyOp48
 70
     1
102
RTVSPropertyOp49
 70
     1
102
RTVSPropertyOp50
 70
     1
102
RTVSPropertyOp51
 70
     0
102
RTVSPropertyOp52
 70
     0
102
RTVSPropertyOp53
 70
     1
102
RTVSPropertyOp54
 70
     1
102
RTVSPropertyOp55
 70
     1
102
RTVSPropertyOp56
 70
     1
102
RTVSPropertyOp57
 70
     1
102
RTVSPost2010Prop28
280
     0
102
RTVSPost2010PropOp28
 70
     1
102
RTVSPost2010Prop29
280
     1
102
RTVSPost2010PropOp29
 70
     1
102
RTVSPost2010Prop30
280
     1
102
RTVSPost2010PropOp30
 70
     1
102
RTVSPost2010Prop31
280
     0
102
RTVSPost2010PropOp31
 70
     1
102
RTVSPost2010Prop32
280
     0
102
RTVSPost2010PropOp32
 70
     1
102
RTVSPost2010Prop33
280
     0
102
RTVSPost2010PropOp33
 70
     1
102
RTVSPost2010Prop34
280
     0
102
RTVSPost2010PropOp34
 70
     1
102
RTVSPost2010Prop35
280
     0
102
RTVSPost2010PropOp35
 70
     1
102
RTVSPost2010Prop36
280
     0
102
RTVSPost2010PropOp36
 70
     1
102
RTVSPost2010Prop37
 90
       50
102
RTVSPost2010PropOp37
 70
     1
102
RTVSPost2010Prop38
140
0.0
102
RTVSPost2010PropOp38
 70
     1
102
RTVSPost2010Prop39
140
1.0
102
RTVSPost2010PropOp39
 70
     1
102
RTVSPost2010Prop40
 90
        0
102
RTVSPost2010PropOp40
 70
     1
102
RTVSPost2010Prop41ColorIndex
 90
       18
102
RTVSPost2010Prop41ColorRGB
 90
        0
102
RTVSPost2010PropOp41
 70
     1
102
RTVSPost2010Prop42
 90
       50
102
RTVSPost2010PropOp42
 70
     1
102
RTVSPost2010Prop43
 90
        3
102
RTVSPost2010PropOp43
 70
     1
102
RTVSPost2010Prop44ColorIndex
 90
        5
102
RTVSPost2010Prop44ColorRGB
 90
      255
102
RTVSPost2010PropOp44
 70
     1
102
RTVSPost2010Prop45
280
     0
102
RTVSPost2010PropOp45
 70
     1
102
RTVSPost2010Prop46
 90
       50
102
RTVSPost2010PropOp46
 70
     1
102
RTVSPost2010Prop47
 90
       50
102
RTVSPost2010PropOp47
 70
     1
102
RTVSPost2010Prop48
 90
       50
102
RTVSPost2010PropOp48
 70
     1
102
RTVSPost2010Prop49
280
     0
102
RTVSPost2010PropOp49
 70
     1
102
RTVSPost2010Prop50
 90
       50
102
RTVSPost2010PropOp50
 70
     1
102
RTVSPost2010Prop51ColorIndex
 90
      256
102
RTVSPost2010Prop51ColorRGB
 90
-16777216
102
RTVSPost2010PropOp51
 70
     0
102
RTVSPost2010Prop52
140
1.0
102
RTVSPost2010PropOp52
 70
     0
102
RTVSPost2010Prop53
 90
        2
102
RTVSPost2010PropOp53
 70
     1
102
RTVSPost2010Prop54
  1
strokes_ogs.tif
102
RTVSPost2010PropOp54
 70
     1
102
RTVSPost2010Prop55
280
     0
102
RTVSPost2010PropOp55
 70
     1
102
RTVSPost2010Prop56
140
1.0
102
RTVSPost2010PropOp56
 70
     1
102
RTVSPost2010Prop57
140
1.0
102
RTVSPost2010PropOp57
 70
     1
  0
XRECORD
  5
57D
102
{ACAD_REACTORS
330
57C
102
}
330
57C
100
AcDbXrecord
280
     1
102
RTVSPropertyOp0
 70
     1
102
RTVSPropertyOp1
 70
     1
102
RTVSPropertyOp2
 70
     1
102
RTVSPropertyOp3
 70
     1
102
RTVSPropertyOp4
 70
     1
102
RTVSPropertyOp5
 70
     1
102
RTVSPropertyOp6
 70
     1
102
RTVSPropertyOp7
 70
     1
102
RTVSPropertyOp8
 70
     1
102
RTVSPropertyOp9
 70
     1
102
RTVSPropertyOp10
 70
     1
102
RTVSPropertyOp11
 70
     1
102
RTVSPropertyOp12
 70
     1
102
RTVSPropertyOp13
 70
     1
102
RTVSPropertyOp14
 70
     1
102
RTVSPropertyOp15
 70
     1
102
RTVSPropertyOp16
 70
     1
102
RTVSPropertyOp17
 70
     1
102
RTVSPropertyOp18
 70
     1
102
RTVSPropertyOp19
 70
     1
102
RTVSPropertyOp20
 70
     1
102
RTVSPropertyOp21
 70
     1
102
RTVSPropertyOp22
 70
     1
102
RTVSPropertyOp23
 70
     1
102
RTVSPropertyOp24
 70
     1
102
RTVSPropertyOp25
 70
     1
102
RTVSPropertyOp26
 70
     1
102
RTVSPropertyOp27
 70
     1
102
RTVSPropertyOp28
 70
     1
102
RTVSPropertyOp29
 70
     1
102
RTVSPropertyOp30
 70
     1
102
RTVSPropertyOp31
 70
     1
102
RTVSPropertyOp32
 70
     1
102
RTVSPropertyOp33
 70
     1
102
RTVSPropertyOp34
 70
     1
102
RTVSPropertyOp35
 70
     1
102
RTVSPropertyOp36
 70
     1
102
RTVSPropertyOp37
 70
     1
102
RTVSPropertyOp38
 70
     1
102
RTVSPropertyOp39
 70
     1
102
RTVSPropertyOp40
 70
     1
102
RTVSPropertyOp41
 70
     1
102
RTVSPropertyOp42
 70
     1
102
RTVSPropertyOp43
 70
     1
102
RTVSPropertyOp44
 70
     1
102
RTVSPropertyOp45
 70
     1
102
RTVSPropertyOp46
 70
     1
102
RTVSPropertyOp47
 70
     1
102
RTVSPropertyOp48
 70
     1
102
RTVSPropertyOp49
 70
     1
102
RTVSPropertyOp50
 70
     1
102
RTVSPropertyOp51
 70
     0
102
RTVSPropertyOp52
 70
     0
102
RTVSPropertyOp53
 70
     1
102
RTVSPropertyOp54
 70
     1
102
RTVSPropertyOp55
 70
     1
102
RTVSPropertyOp56
 70
     1
102
RTVSPropertyOp57
 70
     1
102
RTVSPost2010Prop28
280
     0
102
RTVSPost2010PropOp28
 70
     1
102
RTVSPost2010Prop29
280
     1
102
RTVSPost2010PropOp29
 70
     1
102
RTVSPost2010Prop30
280
     1
102
RTVSPost2010PropOp30
 70
     1
102
RTVSPost2010Prop31
280
     0
102
RTVSPost2010PropOp31
 70
     1
102
RTVSPost2010Prop32
280
     0
102
RTVSPost2010PropOp32
 70
     1
102
RTVSPost2010Prop33
280
     0
102
RTVSPost2010PropOp33
 70
     1
102
RTVSPost2010Prop34
280
     0
102
RTVSPost2010PropOp34
 70
     1
102
RTVSPost2010Prop35
280
     0
102
RTVSPost2010PropOp35
 70
     1
102
RTVSPost2010Prop36
280
     0
102
RTVSPost2010PropOp36
 70
     1
102
RTVSPost2010Prop37
 90
       50
102
RTVSPost2010PropOp37
 70
     1
102
RTVSPost2010Prop38
140
0.0
102
RTVSPost2010PropOp38
 70
     1
102
RTVSPost2010Prop39
140
1.0
102
RTVSPost2010PropOp39
 70
     1
102
RTVSPost2010Prop40
 90
        0
102
RTVSPost2010PropOp40
 70
     1
102
RTVSPost2010Prop41ColorIndex
 90
       18
102
RTVSPost2010Prop41ColorRGB
 90
        0
102
RTVSPost2010PropOp41
 70
     1
102
RTVSPost2010Prop42
 90
       50
102
RTVSPost2010PropOp42
 70
     1
102
RTVSPost2010Prop43
 90
        3
102
RTVSPost2010PropOp43
 70
     1
102
RTVSPost2010Prop44ColorIndex
 90
        5
102
RTVSPost2010Prop44ColorRGB
 90
      255
102
RTVSPost2010PropOp44
 70
     1
102
RTVSPost2010Prop45
280
     0
102
RTVSPost2010PropOp45
 70
     1
102
RTVSPost2010Prop46
 90
       50
102
RTVSPost2010PropOp46
 70
     1
102
RTVSPost2010Prop47
 90
       50
102
RTVSPost2010PropOp47
 70
     1
102
RTVSPost2010Prop48
 90
       50
102
RTVSPost2010PropOp48
 70
     1
102
RTVSPost2010Prop49
280
     0
102
RTVSPost2010PropOp49
 70
     1
102
RTVSPost2010Prop50
 90
       50
102
RTVSPost2010PropOp50
 70
     1
102
RTVSPost2010Prop51ColorIndex
 90
      256
102
RTVSPost2010Prop51ColorRGB
 90
-16777216
102
RTVSPost2010PropOp51
 70
     0
102
RTVSPost2010Prop52
140
1.0
102
RTVSPost2010PropOp52
 70
     0
102
RTVSPost2010Prop53
 90
        2
102
RTVSPost2010PropOp53
 70
     1
102
RTVSPost2010Prop54
  1
strokes_ogs.tif
102
RTVSPost2010PropOp54
 70
     1
102
RTVSPost2010Prop55
280
     0
102
RTVSPost2010PropOp55
 70
     1
102
RTVSPost2010Prop56
140
1.0
102
RTVSPost2010PropOp56
 70
     1
102
RTVSPost2010Prop57
140
1.0
102
RTVSPost2010PropOp57
 70
     1
  0
XRECORD
  5
56D
102
{ACAD_REACTORS
330
56C
102
}
330
56C
100
AcDbXrecord
280
     1
102
RTVSPropertyOp0
 70
     1
102
RTVSPropertyOp1
 70
     1
102
RTVSPropertyOp2
 70
     1
102
RTVSPropertyOp3
 70
     1
102
RTVSPropertyOp4
 70
     1
102
RTVSPropertyOp5
 70
     1
102
RTVSPropertyOp6
 70
     1
102
RTVSPropertyOp7
 70
     1
102
RTVSPropertyOp8
 70
     1
102
RTVSPropertyOp9
 70
     1
102
RTVSPropertyOp10
 70
     1
102
RTVSPropertyOp11
 70
     1
102
RTVSPropertyOp12
 70
     1
102
RTVSPropertyOp13
 70
     1
102
RTVSPropertyOp14
 70
     1
102
RTVSPropertyOp15
 70
     1
102
RTVSPropertyOp16
 70
     1
102
RTVSPropertyOp17
 70
     1
102
RTVSPropertyOp18
 70
     1
102
RTVSPropertyOp19
 70
     1
102
RTVSPropertyOp20
 70
     1
102
RTVSPropertyOp21
 70
     1
102
RTVSPropertyOp22
 70
     1
102
RTVSPropertyOp23
 70
     1
102
RTVSPropertyOp24
 70
     1
102
RTVSPropertyOp25
 70
     1
102
RTVSPropertyOp26
 70
     1
102
RTVSPropertyOp27
 70
     1
102
RTVSPropertyOp28
 70
     1
102
RTVSPropertyOp29
 70
     1
102
RTVSPropertyOp30
 70
     1
102
RTVSPropertyOp31
 70
     1
102
RTVSPropertyOp32
 70
     1
102
RTVSPropertyOp33
 70
     1
102
RTVSPropertyOp34
 70
     1
102
RTVSPropertyOp35
 70
     1
102
RTVSPropertyOp36
 70
     1
102
RTVSPropertyOp37
 70
     1
102
RTVSPropertyOp38
 70
     1
102
RTVSPropertyOp39
 70
     1
102
RTVSPropertyOp40
 70
     1
102
RTVSPropertyOp41
 70
     1
102
RTVSPropertyOp42
 70
     1
102
RTVSPropertyOp43
 70
     1
102
RTVSPropertyOp44
 70
     1
102
RTVSPropertyOp45
 70
     1
102
RTVSPropertyOp46
 70
     1
102
RTVSPropertyOp47
 70
     1
102
RTVSPropertyOp48
 70
     1
102
RTVSPropertyOp49
 70
     1
102
RTVSPropertyOp50
 70
     1
102
RTVSPropertyOp51
 70
     0
102
RTVSPropertyOp52
 70
     0
102
RTVSPropertyOp53
 70
     1
102
RTVSPropertyOp54
 70
     1
102
RTVSPropertyOp55
 70
     1
102
RTVSPropertyOp56
 70
     1
102
RTVSPropertyOp57
 70
     1
102
RTVSPost2010Prop28
280
     0
102
RTVSPost2010PropOp28
 70
     1
102
RTVSPost2010Prop29
280
     1
102
RTVSPost2010PropOp29
 70
     1
102
RTVSPost2010Prop30
280
     1
102
RTVSPost2010PropOp30
 70
     1
102
RTVSPost2010Prop31
280
     0
102
RTVSPost2010PropOp31
 70
     1
102
RTVSPost2010Prop32
280
     0
102
RTVSPost2010PropOp32
 70
     1
102
RTVSPost2010Prop33
280
     0
102
RTVSPost2010PropOp33
 70
     1
102
RTVSPost2010Prop34
280
     0
102
RTVSPost2010PropOp34
 70
     1
102
RTVSPost2010Prop35
280
     0
102
RTVSPost2010PropOp35
 70
     1
102
RTVSPost2010Prop36
280
     0
102
RTVSPost2010PropOp36
 70
     1
102
RTVSPost2010Prop37
 90
       50
102
RTVSPost2010PropOp37
 70
     1
102
RTVSPost2010Prop38
140
0.0
102
RTVSPost2010PropOp38
 70
     1
102
RTVSPost2010Prop39
140
1.0
102
RTVSPost2010PropOp39
 70
     1
102
RTVSPost2010Prop40
 90
        0
102
RTVSPost2010PropOp40
 70
     1
102
RTVSPost2010Prop41ColorIndex
 90
       18
102
RTVSPost2010Prop41ColorRGB
 90
        0
102
RTVSPost2010PropOp41
 70
     1
102
RTVSPost2010Prop42
 90
       50
102
RTVSPost2010PropOp42
 70
     1
102
RTVSPost2010Prop43
 90
        3
102
RTVSPost2010PropOp43
 70
     1
102
RTVSPost2010Prop44ColorIndex
 90
        5
102
RTVSPost2010Prop44ColorRGB
 90
      255
102
RTVSPost2010PropOp44
 70
     1
102
RTVSPost2010Prop45
280
     0
102
RTVSPost2010PropOp45
 70
     1
102
RTVSPost2010Prop46
 90
       50
102
RTVSPost2010PropOp46
 70
     1
102
RTVSPost2010Prop47
 90
       50
102
RTVSPost2010PropOp47
 70
     1
102
RTVSPost2010Prop48
 90
       50
102
RTVSPost2010PropOp48
 70
     1
102
RTVSPost2010Prop49
280
     0
102
RTVSPost2010PropOp49
 70
     1
102
RTVSPost2010Prop50
 90
       50
102
RTVSPost2010PropOp50
 70
     1
102
RTVSPost2010Prop51ColorIndex
 90
      256
102
RTVSPost2010Prop51ColorRGB
 90
-16777216
102
RTVSPost2010PropOp51
 70
     0
102
RTVSPost2010Prop52
140
1.0
102
RTVSPost2010PropOp52
 70
     0
102
RTVSPost2010Prop53
 90
        2
102
RTVSPost2010PropOp53
 70
     1
102
RTVSPost2010Prop54
  1
strokes_ogs.tif
102
RTVSPost2010PropOp54
 70
     1
102
RTVSPost2010Prop55
280
     0
102
RTVSPost2010PropOp55
 70
     1
102
RTVSPost2010Prop56
140
1.0
102
RTVSPost2010PropOp56
 70
     1
102
RTVSPost2010Prop57
140
1.0
102
RTVSPost2010PropOp57
 70
     1
  0
XRECORD
  5
55F
102
{ACAD_REACTORS
330
55E
102
}
330
55E
100
AcDbXrecord
280
     1
102
RTVSPropertyOp0
 70
     1
102
RTVSPropertyOp1
 70
     1
102
RTVSPropertyOp2
 70
     1
102
RTVSPropertyOp3
 70
     1
102
RTVSPropertyOp4
 70
     1
102
RTVSPropertyOp5
 70
     1
102
RTVSPropertyOp6
 70
     1
102
RTVSPropertyOp7
 70
     1
102
RTVSPropertyOp8
 70
     1
102
RTVSPropertyOp9
 70
     1
102
RTVSPropertyOp10
 70
     1
102
RTVSPropertyOp11
 70
     1
102
RTVSPropertyOp12
 70
     1
102
RTVSPropertyOp13
 70
     1
102
RTVSPropertyOp14
 70
     1
102
RTVSPropertyOp15
 70
     1
102
RTVSPropertyOp16
 70
     1
102
RTVSPropertyOp17
 70
     1
102
RTVSPropertyOp18
 70
     1
102
RTVSPropertyOp19
 70
     1
102
RTVSPropertyOp20
 70
     1
102
RTVSPropertyOp21
 70
     1
102
RTVSPropertyOp22
 70
     1
102
RTVSPropertyOp23
 70
     1
102
RTVSPropertyOp24
 70
     1
102
RTVSPropertyOp25
 70
     1
102
RTVSPropertyOp26
 70
     1
102
RTVSPropertyOp27
 70
     1
102
RTVSPropertyOp28
 70
     1
102
RTVSPropertyOp29
 70
     1
102
RTVSPropertyOp30
 70
     1
102
RTVSPropertyOp31
 70
     1
102
RTVSPropertyOp32
 70
     1
102
RTVSPropertyOp33
 70
     1
102
RTVSPropertyOp34
 70
     1
102
RTVSPropertyOp35
 70
     1
102
RTVSPropertyOp36
 70
     1
102
RTVSPropertyOp37
 70
     1
102
RTVSPropertyOp38
 70
     1
102
RTVSPropertyOp39
 70
     1
102
RTVSPropertyOp40
 70
     1
102
RTVSPropertyOp41
 70
     1
102
RTVSPropertyOp42
 70
     1
102
RTVSPropertyOp43
 70
     1
102
RTVSPropertyOp44
 70
     1
102
RTVSPropertyOp45
 70
     1
102
RTVSPropertyOp46
 70
     1
102
RTVSPropertyOp47
 70
     1
102
RTVSPropertyOp48
 70
     1
102
RTVSPropertyOp49
 70
     1
102
RTVSPropertyOp50
 70
     1
102
RTVSPropertyOp51
 70
     0
102
RTVSPropertyOp52
 70
     0
102
RTVSPropertyOp53
 70
     1
102
RTVSPropertyOp54
 70
     1
102
RTVSPropertyOp55
 70
     1
102
RTVSPropertyOp56
 70
     1
102
RTVSPropertyOp57
 70
     1
102
RTVSPost2010Prop28
280
     0
102
RTVSPost2010PropOp28
 70
     1
102
RTVSPost2010Prop29
280
     1
102
RTVSPost2010PropOp29
 70
     1
102
RTVSPost2010Prop30
280
     1
102
RTVSPost2010PropOp30
 70
     1
102
RTVSPost2010Prop31
280
     0
102
RTVSPost2010PropOp31
 70
     1
102
RTVSPost2010Prop32
280
     0
102
RTVSPost2010PropOp32
 70
     1
102
RTVSPost2010Prop33
280
     0
102
RTVSPost2010PropOp33
 70
     1
102
RTVSPost2010Prop34
280
     0
102
RTVSPost2010PropOp34
 70
     1
102
RTVSPost2010Prop35
280
     0
102
RTVSPost2010PropOp35
 70
     1
102
RTVSPost2010Prop36
280
     0
102
RTVSPost2010PropOp36
 70
     1
102
RTVSPost2010Prop37
 90
       50
102
RTVSPost2010PropOp37
 70
     1
102
RTVSPost2010Prop38
140
0.0
102
RTVSPost2010PropOp38
 70
     1
102
RTVSPost2010Prop39
140
1.0
102
RTVSPost2010PropOp39
 70
     1
102
RTVSPost2010Prop40
 90
        0
102
RTVSPost2010PropOp40
 70
     1
102
RTVSPost2010Prop41ColorIndex
 90
       18
102
RTVSPost2010Prop41ColorRGB
 90
        0
102
RTVSPost2010PropOp41
 70
     1
102
RTVSPost2010Prop42
 90
       50
102
RTVSPost2010PropOp42
 70
     1
102
RTVSPost2010Prop43
 90
        3
102
RTVSPost2010PropOp43
 70
     1
102
RTVSPost2010Prop44ColorIndex
 90
        5
102
RTVSPost2010Prop44ColorRGB
 90
      255
102
RTVSPost2010PropOp44
 70
     1
102
RTVSPost2010Prop45
280
     0
102
RTVSPost2010PropOp45
 70
     1
102
RTVSPost2010Prop46
 90
       50
102
RTVSPost2010PropOp46
 70
     1
102
RTVSPost2010Prop47
 90
       50
102
RTVSPost2010PropOp47
 70
     1
102
RTVSPost2010Prop48
 90
       50
102
RTVSPost2010PropOp48
 70
     1
102
RTVSPost2010Prop49
280
     0
102
RTVSPost2010PropOp49
 70
     1
102
RTVSPost2010Prop50
 90
       50
102
RTVSPost2010PropOp50
 70
     1
102
RTVSPost2010Prop51ColorIndex
 90
      256
102
RTVSPost2010Prop51ColorRGB
 90
-16777216
102
RTVSPost2010PropOp51
 70
     0
102
RTVSPost2010Prop52
140
1.0
102
RTVSPost2010PropOp52
 70
     0
102
RTVSPost2010Prop53
 90
        2
102
RTVSPost2010PropOp53
 70
     1
102
RTVSPost2010Prop54
  1
strokes_ogs.tif
102
RTVSPost2010PropOp54
 70
     1
102
RTVSPost2010Prop55
280
     0
102
RTVSPost2010PropOp55
 70
     1
102
RTVSPost2010Prop56
140
1.0
102
RTVSPost2010PropOp56
 70
     1
102
RTVSPost2010Prop57
140
1.0
102
RTVSPost2010PropOp57
 70
     1
  0
XRECORD
  5
57F
102
{ACAD_REACTORS
330
57E
102
}
330
57E
100
AcDbXrecord
280
     1
102
RTVSPropertyOp0
 70
     1
102
RTVSPropertyOp1
 70
     1
102
RTVSPropertyOp2
 70
     1
102
RTVSPropertyOp3
 70
     1
102
RTVSPropertyOp4
 70
     1
102
RTVSPropertyOp5
 70
     1
102
RTVSPropertyOp6
 70
     1
102
RTVSPropertyOp7
 70
     1
102
RTVSPropertyOp8
 70
     1
102
RTVSPropertyOp9
 70
     1
102
RTVSPropertyOp10
 70
     1
102
RTVSPropertyOp11
 70
     1
102
RTVSPropertyOp12
 70
     1
102
RTVSPropertyOp13
 70
     1
102
RTVSPropertyOp14
 70
     1
102
RTVSPropertyOp15
 70
     1
102
RTVSPropertyOp16
 70
     1
102
RTVSPropertyOp17
 70
     1
102
RTVSPropertyOp18
 70
     1
102
RTVSPropertyOp19
 70
     1
102
RTVSPropertyOp20
 70
     1
102
RTVSPropertyOp21
 70
     1
102
RTVSPropertyOp22
 70
     1
102
RTVSPropertyOp23
 70
     1
102
RTVSPropertyOp24
 70
     1
102
RTVSPropertyOp25
 70
     1
102
RTVSPropertyOp26
 70
     1
102
RTVSPropertyOp27
 70
     1
102
RTVSPropertyOp28
 70
     1
102
RTVSPropertyOp29
 70
     1
102
RTVSPropertyOp30
 70
     1
102
RTVSPropertyOp31
 70
     1
102
RTVSPropertyOp32
 70
     1
102
RTVSPropertyOp33
 70
     1
102
RTVSPropertyOp34
 70
     1
102
RTVSPropertyOp35
 70
     1
102
RTVSPropertyOp36
 70
     1
102
RTVSPropertyOp37
 70
     1
102
RTVSPropertyOp38
 70
     1
102
RTVSPropertyOp39
 70
     1
102
RTVSPropertyOp40
 70
     1
102
RTVSPropertyOp41
 70
     1
102
RTVSPropertyOp42
 70
     1
102
RTVSPropertyOp43
 70
     1
102
RTVSPropertyOp44
 70
     1
102
RTVSPropertyOp45
 70
     1
102
RTVSPropertyOp46
 70
     1
102
RTVSPropertyOp47
 70
     1
102
RTVSPropertyOp48
 70
     1
102
RTVSPropertyOp49
 70
     1
102
RTVSPropertyOp50
 70
     1
102
RTVSPropertyOp51
 70
     0
102
RTVSPropertyOp52
 70
     0
102
RTVSPropertyOp53
 70
     1
102
RTVSPropertyOp54
 70
     1
102
RTVSPropertyOp55
 70
     1
102
RTVSPropertyOp56
 70
     1
102
RTVSPropertyOp57
 70
     1
102
RTVSPost2010Prop28
280
     0
102
RTVSPost2010PropOp28
 70
     1
102
RTVSPost2010Prop29
280
     1
102
RTVSPost2010PropOp29
 70
     1
102
RTVSPost2010Prop30
280
     1
102
RTVSPost2010PropOp30
 70
     1
102
RTVSPost2010Prop31
280
     0
102
RTVSPost2010PropOp31
 70
     1
102
RTVSPost2010Prop32
280
     0
102
RTVSPost2010PropOp32
 70
     1
102
RTVSPost2010Prop33
280
     0
102
RTVSPost2010PropOp33
 70
     1
102
RTVSPost2010Prop34
280
     0
102
RTVSPost2010PropOp34
 70
     1
102
RTVSPost2010Prop35
280
     0
102
RTVSPost2010PropOp35
 70
     1
102
RTVSPost2010Prop36
280
     0
102
RTVSPost2010PropOp36
 70
     1
102
RTVSPost2010Prop37
 90
       50
102
RTVSPost2010PropOp37
 70
     1
102
RTVSPost2010Prop38
140
0.0
102
RTVSPost2010PropOp38
 70
     1
102
RTVSPost2010Prop39
140
1.0
102
RTVSPost2010PropOp39
 70
     1
102
RTVSPost2010Prop40
 90
        0
102
RTVSPost2010PropOp40
 70
     1
102
RTVSPost2010Prop41ColorIndex
 90
       18
102
RTVSPost2010Prop41ColorRGB
 90
        0
102
RTVSPost2010PropOp41
 70
     1
102
RTVSPost2010Prop42
 90
       50
102
RTVSPost2010PropOp42
 70
     1
102
RTVSPost2010Prop43
 90
        3
102
RTVSPost2010PropOp43
 70
     1
102
RTVSPost2010Prop44ColorIndex
 90
        5
102
RTVSPost2010Prop44ColorRGB
 90
      255
102
RTVSPost2010PropOp44
 70
     1
102
RTVSPost2010Prop45
280
     0
102
RTVSPost2010PropOp45
 70
     1
102
RTVSPost2010Prop46
 90
       50
102
RTVSPost2010PropOp46
 70
     1
102
RTVSPost2010Prop47
 90
       50
102
RTVSPost2010PropOp47
 70
     1
102
RTVSPost2010Prop48
 90
       50
102
RTVSPost2010PropOp48
 70
     1
102
RTVSPost2010Prop49
280
     0
102
RTVSPost2010PropOp49
 70
     1
102
RTVSPost2010Prop50
 90
       50
102
RTVSPost2010PropOp50
 70
     1
102
RTVSPost2010Prop51ColorIndex
 90
      256
102
RTVSPost2010Prop51ColorRGB
 90
-16777216
102
RTVSPost2010PropOp51
 70
     0
102
RTVSPost2010Prop52
140
1.0
102
RTVSPost2010PropOp52
 70
     0
102
RTVSPost2010Prop53
 90
        2
102
RTVSPost2010PropOp53
 70
     1
102
RTVSPost2010Prop54
  1
strokes_ogs.tif
102
RTVSPost2010PropOp54
 70
     1
102
RTVSPost2010Prop55
280
     0
102
RTVSPost2010PropOp55
 70
     1
102
RTVSPost2010Prop56
140
1.0
102
RTVSPost2010PropOp56
 70
     1
102
RTVSPost2010Prop57
140
1.0
102
RTVSPost2010PropOp57
 70
     1
  0
ENDSEC
  0
EOF
