  0
SECTION
  2
HEADER
  9
$ACADVER
  1
AC1015
  9
$ACADMAINTVER
 70
     6
  9
$DWGCODEPAGE
  3
ANSI_932
  9
$INSBASE
 10
1068.233954266984
 20
405.3066694028232
 30
0.0
  9
$EXTMIN
 10
111.136824366061
 20
43.21807482280821
 30
0.0
  9
$EXTMAX
 10
737.904367217681
 20
538.2256062353847
 30
0.0
  9
$LIMMIN
 10
0.0
 20
0.0
  9
$LIMMAX
 10
816.5000000000001
 20
565.0
  9
$ORTHOMODE
 70
     1
  9
$REGENMODE
 70
     1
  9
$FILLMODE
 70
     1
  9
$QTEXTMODE
 70
     0
  9
$MIRRTEXT
 70
     1
  9
$LTSCALE
 40
5.0
  9
$ATTMODE
 70
     1
  9
$TEXTSIZE
 40
6.0
  9
$TRACEWID
 40
0.05
  9
$TEXTSTYLE
  7
KANJI
  9
$CLAYER
  8
2
  9
$CELTYPE
  6
BYLAYER
  9
$CECOLOR
 62
   256
  9
$CELTSCALE
 40
1.0
  9
$DISPSILH
 70
     0
  9
$DIMSCALE
 40
2.0
  9
$DIMASZ
 40
2.0
  9
$DIMEXO
 40
0.5
  9
$DIMDLI
 40
0.0
  9
$DIMRND
 40
0.0
  9
$DIMDLE
 40
0.0
  9
$DIMEXE
 40
1.0
  9
$DIMTP
 40
0.0
  9
$DIMTM
 40
0.0
  9
$DIMTXT
 40
3.0
  9
$DIMCEN
 40
0.09
  9
$DIMTSZ
 40
0.0
  9
$DIMTOL
 70
     0
  9
$DIMLIM
 70
     0
  9
$DIMTIH
 70
     0
  9
$DIMTOH
 70
     0
  9
$DIMSE1
 70
     0
  9
$DIMSE2
 70
     0
  9
$DIMTAD
 70
     0
  9
$DIMZIN
 70
     8
  9
$DIMBLK
  1

  9
$DIMASO
 70
     0
  9
$DIMSHO
 70
     0
  9
$DIMPOST
  1

  9
$DIMAPOST
  1

  9
$DIMALT
 70
     0
  9
$DIMALTD
 70
     2
  9
$DIMALTF
 40
25.4
  9
$DIMLFAC
 40
1.0
  9
$DIMTOFL
 70
     1
  9
$DIMTVP
 40
1.0
  9
$DIMTIX
 70
     1
  9
$DIMSOXD
 70
     1
  9
$DIMSAH
 70
     0
  9
$DIMBLK1
  1

  9
$DIMBLK2
  1

  9
$DIMSTYLE
  2
STANDARD
  9
$DIMCLRD
 70
   256
  9
$DIMCLRE
 70
   256
  9
$DIMCLRT
 70
   256
  9
$DIMTFAC
 40
1.0
  9
$DIMGAP
 40
0.09
  9
$DIMJUST
 70
     0
  9
$DIMSD1
 70
     0
  9
$DIMSD2
 70
     0
  9
$DIMTOLJ
 70
     1
  9
$DIMTZIN
 70
     0
  9
$DIMALTZ
 70
     0
  9
$DIMALTTZ
 70
     0
  9
$DIMUPT
 70
     0
  9
$DIMDEC
 70
     1
  9
$DIMTDEC
 70
     4
  9
$DIMALTU
 70
     2
  9
$DIMALTTD
 70
     2
  9
$DIMTXSTY
  7
STANDARD
  9
$DIMAUNIT
 70
     0
  9
$DIMADEC
 70
     0
  9
$DIMALTRND
 40
0.0
  9
$DIMAZIN
 70
     0
  9
$DIMDSEP
 70
    46
  9
$DIMATFIT
 70
     3
  9
$DIMFRAC
 70
     0
  9
$DIMLDRBLK
  1

  9
$DIMLUNIT
 70
     2
  9
$DIMLWD
 70
    -2
  9
$DIMLWE
 70
    -2
  9
$DIMTMOVE
 70
     0
  9
$LUNITS
 70
     2
  9
$LUPREC
 70
     3
  9
$SKETCHINC
 40
0.1
  9
$FILLETRAD
 40
2.0
  9
$AUNITS
 70
     0
  9
$AUPREC
 70
     3
  9
$MENU
  1
C:\R13\WIN\SUPPORT\ACADFULL
  9
$ELEVATION
 40
0.0
  9
$PELEVATION
 40
0.0
  9
$THICKNESS
 40
0.0
  9
$LIMCHECK
 70
     0
  9
$CHAMFERA
 40
0.0
  9
$CHAMFERB
 40
0.0
  9
$CHAMFERC
 40
0.0
  9
$CHAMFERD
 40
0.0
  9
$SKPOLY
 70
     0
  9
$TDCREATE
 40
2457528.418327002
  9
$TDUCREATE
 40
2457528.043327002
  9
$TDUPDATE
 40
2457870.615202361
  9
$TDUUPDATE
 40
2457870.240202361
  9
$TDINDWG
 40
0.0068666782
  9
$TDUSRTIMER
 40
0.0068661227
  9
$USRTIMER
 70
     1
  9
$ANGBASE
 50
0.0
  9
$ANGDIR
 70
     0
  9
$PDMODE
 70
     0
  9
$PDSIZE
 40
0.0
  9
$PLINEWID
 40
0.0
  9
$SPLFRAME
 70
     0
  9
$SPLINETYPE
 70
     6
  9
$SPLINESEGS
 70
     8
  9
$HANDSEED
  5
4E7
  9
$SURFTAB1
 70
     6
  9
$SURFTAB2
 70
     6
  9
$SURFTYPE
 70
     6
  9
$SURFU
 70
     6
  9
$SURFV
 70
     6
  9
$UCSBASE
  2

  9
$UCSNAME
  2

  9
$UCSORG
 10
0.0
 20
0.0
 30
0.0
  9
$UCSXDIR
 10
1.0
 20
0.0
 30
0.0
  9
$UCSYDIR
 10
0.0
 20
1.0
 30
0.0
  9
$UCSORTHOREF
  2

  9
$UCSORTHOVIEW
 70
     0
  9
$UCSORGTOP
 10
0.0
 20
0.0
 30
0.0
  9
$UCSORGBOTTOM
 10
0.0
 20
0.0
 30
0.0
  9
$UCSORGLEFT
 10
0.0
 20
0.0
 30
0.0
  9
$UCSORGRIGHT
 10
0.0
 20
0.0
 30
0.0
  9
$UCSORGFRONT
 10
0.0
 20
0.0
 30
0.0
  9
$UCSORGBACK
 10
0.0
 20
0.0
 30
0.0
  9
$PUCSBASE
  2

  9
$PUCSNAME
  2

  9
$PUCSORG
 10
0.0
 20
0.0
 30
0.0
  9
$PUCSXDIR
 10
1.0
 20
0.0
 30
0.0
  9
$PUCSYDIR
 10
0.0
 20
1.0
 30
0.0
  9
$PUCSORTHOREF
  2

  9
$PUCSORTHOVIEW
 70
     0
  9
$PUCSORGTOP
 10
0.0
 20
0.0
 30
0.0
  9
$PUCSORGBOTTOM
 10
0.0
 20
0.0
 30
0.0
  9
$PUCSORGLEFT
 10
0.0
 20
0.0
 30
0.0
  9
$PUCSORGRIGHT
 10
0.0
 20
0.0
 30
0.0
  9
$PUCSORGFRONT
 10
0.0
 20
0.0
 30
0.0
  9
$PUCSORGBACK
 10
0.0
 20
0.0
 30
0.0
  9
$USERI1
 70
     0
  9
$USERI2
 70
     0
  9
$USERI3
 70
     0
  9
$USERI4
 70
     0
  9
$USERI5
 70
     0
  9
$USERR1
 40
0.0
  9
$USERR2
 40
0.0
  9
$USERR3
 40
0.0
  9
$USERR4
 40
2448925.372986111
  9
$USERR5
 40
0.04166667
  9
$WORLDVIEW
 70
     1
  9
$SHADEDGE
 70
     3
  9
$SHADEDIF
 70
    70
  9
$TILEMODE
 70
     1
  9
$MAXACTVP
 70
    16
  9
$PINSBASE
 10
0.0
 20
0.0
 30
0.0
  9
$PLIMCHECK
 70
     0
  9
$PEXTMIN
 10
1.000000000000000E+20
 20
1.000000000000000E+20
 30
1.000000000000000E+20
  9
$PEXTMAX
 10
-1.000000000000000E+20
 20
-1.000000000000000E+20
 30
-1.000000000000000E+20
  9
$PLIMMIN
 10
0.0
 20
0.0
  9
$PLIMMAX
 10
12.0
 20
9.0
  9
$UNITMODE
 70
     0
  9
$VISRETAIN
 70
     0
  9
$PLINEGEN
 70
     0
  9
$PSLTSCALE
 70
     0
  9
$TREEDEPTH
 70
  3020
  9
$CMLSTYLE
  2
STANDARD
  9
$CMLJUST
 70
     0
  9
$CMLSCALE
 40
1.0
  9
$PROXYGRAPHICS
 70
     1
  9
$MEASUREMENT
 70
     0
  9
$CELWEIGHT
370
    -1
  9
$ENDCAPS
280
     0
  9
$JOINSTYLE
280
     0
  9
$LWDISPLAY
290
     0
  9
$INSUNITS
 70
     0
  9
$HYPERLINKBASE
  1

  9
$STYLESHEET
  1

  9
$XEDIT
290
     1
  9
$CEPSNTYPE
380
     0
  9
$PSTYLEMODE
290
     1
  9
$FINGERPRINTGUID
  2
{4CD1E96B-E608-455E-A213-D17A19F2BC18}
  9
$VERSIONGUID
  2
{8D3381B0-2869-449F-8E41-864422808CBE}
  9
$EXTNAMES
290
     1
  9
$PSVPSCALE
 40
0.0
  9
$OLESTARTUP
290
     0
  0
ENDSEC
  0
SECTION
  2
CLASSES
  0
CLASS
  1
ACDBDICTIONARYWDFLT
  2
AcDbDictionaryWithDefault
  3
ObjectDBX Classes
 90
        0
280
     0
281
     0
  0
CLASS
  1
MATERIAL
  2
AcDbMaterial
  3
ObjectDBX Classes
 90
     1153
280
     0
281
     0
  0
CLASS
  1
SORTENTSTABLE
  2
AcDbSortentsTable
  3
ObjectDBX Classes
 90
        0
280
     0
281
     0
  0
CLASS
  1
SCALE
  2
AcDbScale
  3
ObjectDBX Classes
 90
     1153
280
     0
281
     0
  0
CLASS
  1
DICTIONARYVAR
  2
AcDbDictionaryVar
  3
ObjectDBX Classes
 90
        0
280
     0
281
     0
  0
CLASS
  1
VISUALSTYLE
  2
AcDbVisualStyle
  3
ObjectDBX Classes
 90
     4095
280
     0
281
     0
  0
CLASS
  1
MLEADERSTYLE
  2
AcDbMLeaderStyle
  3
ACDB_MLEADERSTYLE_CLASS
 90
     4095
280
     0
281
     0
  0
CLASS
  1
TABLESTYLE
  2
AcDbTableStyle
  3
ObjectDBX Classes
 90
     4095
280
     0
281
     0
  0
CLASS
  1
ACDBPLACEHOLDER
  2
AcDbPlaceHolder
  3
ObjectDBX Classes
 90
        0
280
     0
281
     0
  0
CLASS
  1
LAYOUT
  2
AcDbLayout
  3
ObjectDBX Classes
 90
        0
280
     0
281
     0
  0
ENDSEC
  0
SECTION
  2
TABLES
  0
TABLE
  2
VPORT
  5
2C
102
{ACAD_XDICTIONARY
360
4AC
102
}
330
0
100
AcDbSymbolTable
 70
     1
  0
VPORT
  5
31
330
2C
100
AcDbSymbolTableRecord
100
AcDbViewportTableRecord
  2
*ACTIVE
 70
     0
 10
0.0
 20
0.0
 11
1.0
 21
1.0
 12
614.394315625483
 22
258.1831049585977
 13
0.0
 23
0.0
 14
1.0
 24
1.0
 15
50.0
 25
50.0
 16
0.0
 26
0.0
 36
1.0
 17
0.0
 27
0.0
 37
0.0
 40
691.64980032509
 41
2.177611940298507
 42
50.0
 43
0.0
 44
0.0
 50
0.0
 51
0.0
 71
     0
 72
  5000
 73
     1
 74
     0
 75
     0
 76
     0
 77
     0
 78
     0
281
     0
 65
     1
110
0.0
120
0.0
130
0.0
111
1.0
121
0.0
131
0.0
112
0.0
122
1.0
132
0.0
 79
     0
146
0.0
1001
ACAD_NAV_VCDISPLAY
1070
     3
  0
ENDTAB
  0
TABLE
  2
LTYPE
  5
F
330
0
100
AcDbSymbolTable
 70
     2
  0
LTYPE
  5
10
330
F
100
AcDbSymbolTableRecord
100
AcDbLinetypeTableRecord
  2
BYBLOCK
 70
     0
  3

 72
    65
 73
     0
 40
0.0
  0
LTYPE
  5
11
330
F
100
AcDbSymbolTableRecord
100
AcDbLinetypeTableRecord
  2
BYLAYER
 70
     0
  3

 72
    65
 73
     0
 40
0.0
  0
LTYPE
  5
E
330
F
100
AcDbSymbolTableRecord
100
AcDbLinetypeTableRecord
  2
CONTINUOUS
 70
     0
  3
Solid line
 72
    65
 73
     0
 40
0.0
  0
LTYPE
  5
5C
330
F
100
AcDbSymbolTableRecord
100
AcDbLinetypeTableRecord
  2
CENTER
 70
     0
  3
____ _ ____ _ ____ _ ____ _ ____ _ ____ _ ____
 72
    65
 73
     4
 40
2.0
 49
1.25
 74
     0
 49
-0.25
 74
     0
 49
0.25
 74
     0
 49
-0.25
 74
     0
  0
ENDTAB
  0
TABLE
  2
LAYER
  5
2
102
{ACAD_XDICTIONARY
360
3
102
}
330
0
100
AcDbSymbolTable
 70
     8
  0
LAYER
  5
1F
102
{ACAD_XDICTIONARY
360
20
102
}
330
2
100
AcDbSymbolTableRecord
100
AcDbLayerTableRecord
  2
0
 70
     0
 62
     7
  6
CONTINUOUS
370
    -3
390
7
  0
LAYER
  5
D4
102
{ACAD_XDICTIONARY
360
D5
102
}
330
2
100
AcDbSymbolTableRecord
100
AcDbLayerTableRecord
  2
1
 70
     0
 62
     9
  6
CONTINUOUS
370
    -3
390
7
  0
LAYER
  5
1
102
{ACAD_XDICTIONARY
360
5
102
}
330
2
100
AcDbSymbolTableRecord
100
AcDbLayerTableRecord
  2
2
 70
     0
 62
     4
  6
CONTINUOUS
370
    -3
390
7
  0
LAYER
  5
CE
102
{ACAD_XDICTIONARY
360
CF
102
}
330
2
100
AcDbSymbolTableRecord
100
AcDbLayerTableRecord
  2
4
 70
     0
 62
     3
  6
CONTINUOUS
370
    -3
390
7
  0
LAYER
  5
59
102
{ACAD_XDICTIONARY
360
5A
102
}
330
2
100
AcDbSymbolTableRecord
100
AcDbLayerTableRecord
  2
L-CENTER
 70
     0
 62
     1
  6
CENTER
370
    -3
390
7
  0
LAYER
  5
61
102
{ACAD_XDICTIONARY
360
62
102
}
330
2
100
AcDbSymbolTableRecord
100
AcDbLayerTableRecord
  2
3
 70
     0
 62
     2
  6
CONTINUOUS
370
    -3
390
7
  0
LAYER
  5
C7
102
{ACAD_XDICTIONARY
360
C8
102
}
330
2
100
AcDbSymbolTableRecord
100
AcDbLayerTableRecord
  2
5
 70
     0
 62
     6
  6
CONTINUOUS
370
    -3
390
7
  0
ENDTAB
  0
TABLE
  2
STYLE
  5
13
330
0
100
AcDbSymbolTable
 70
     2
  0
STYLE
  5
17
330
13
100
AcDbSymbolTableRecord
100
AcDbTextStyleTableRecord
  2
STANDARD
 70
     0
 40
0.0
 41
1.0
 50
0.0
 71
     0
 42
3.6
  3
TXT
  4

  0
STYLE
  5
12
330
13
100
AcDbSymbolTableRecord
100
AcDbTextStyleTableRecord
  2
KANJI
 70
     0
 40
0.0
 41
1.0
 50
0.0
 71
     0
 42
6.0
  3
TXT
  4
BIGFONT
  0
ENDTAB
  0
TABLE
  2
VIEW
  5
2A
330
0
100
AcDbSymbolTable
 70
     0
  0
ENDTAB
  0
TABLE
  2
UCS
  5
2B
330
0
100
AcDbSymbolTable
 70
     0
  0
ENDTAB
  0
TABLE
  2
APPID
  5
D
330
0
100
AcDbSymbolTable
 70
     5
  0
APPID
  5
C
330
D
100
AcDbSymbolTableRecord
100
AcDbRegAppTableRecord
  2
ACAD
 70
     0
  0
APPID
  5
32
330
D
100
AcDbSymbolTableRecord
100
AcDbRegAppTableRecord
  2
ACAD_NAV_VCDISPLAY
 70
     0
  0
APPID
  5
25
330
D
100
AcDbSymbolTableRecord
100
AcDbRegAppTableRecord
  2
ACAD_PSEXT
 70
     0
  0
APPID
  5
49E
330
D
100
AcDbSymbolTableRecord
100
AcDbRegAppTableRecord
  2
ACAD_MLEADERVER
 70
     0
  0
ENDTAB
  0
TABLE
  2
DIMSTYLE
  5
16
330
0
100
AcDbSymbolTable
 70
     1
100
AcDbDimStyleTable
  0
DIMSTYLE
105
15
330
16
100
AcDbSymbolTableRecord
100
AcDbDimStyleTableRecord
  2
STANDARD
 70
     0
178
     0
340
17
  0
ENDTAB
  0
TABLE
  2
BLOCK_RECORD
  5
1A
330
0
100
AcDbSymbolTable
 70
     0
  0
BLOCK_RECORD
  5
1B
102
{ACAD_XDICTIONARY
360
1C
102
}
330
1A
100
AcDbSymbolTableRecord
100
AcDbBlockTableRecord
  2
*MODEL_SPACE
340
23
  0
BLOCK_RECORD
  5
26
330
1A
100
AcDbSymbolTableRecord
100
AcDbBlockTableRecord
  2
*PAPER_SPACE
340
29
  0
ENDTAB
  0
ENDSEC
  0
SECTION
  2
BLOCKS
  0
BLOCK
  5
1E
330
1B
100
AcDbEntity
  8
0
100
AcDbBlockBegin
  2
*MODEL_SPACE
 70
     0
 10
0.0
 20
0.0
 30
0.0
  3
*MODEL_SPACE
  1

  0
ENDBLK
  5
22
330
1B
100
AcDbEntity
  8
0
100
AcDbBlockEnd
  0
BLOCK
  5
27
330
26
100
AcDbEntity
 67
     1
  8
0
100
AcDbBlockBegin
  2
*PAPER_SPACE
 70
     0
 10
0.0
 20
0.0
 30
0.0
  3
*PAPER_SPACE
  1

  0
ENDBLK
  5
28
330
26
100
AcDbEntity
 67
     1
  8
0
100
AcDbBlockEnd
  0
ENDSEC
  0
SECTION
  2
ENTITIES
  0
LINE
  5
1A2
330
1B
100
AcDbEntity
  8
4
 62
     3
100
AcDbLine
 10
362.4140696870172
 20
391.5461841976291
 30
0.0
 11
362.4140696870172
 21
389.5461841976291
 31
0.0
  0
LINE
  5
1A3
330
1B
100
AcDbEntity
  8
4
 62
     3
100
AcDbLine
 10
313.4140696870172
 20
391.5461841976291
 30
0.0
 11
313.4140696870172
 21
389.5461841976291
 31
0.0
  0
LINE
  5
1A4
330
1B
100
AcDbEntity
  8
4
 62
     3
100
AcDbLine
 10
274.9140696870172
 20
200.2180748228082
 30
0.0
 11
274.9140696870172
 21
203.7790202346519
 31
0.0
  0
ARC
  5
1A5
330
1B
100
AcDbEntity
  8
4
 62
     3
100
AcDbCircle
 10
272.9140696870172
 20
203.7790202346519
 30
0.0
 40
2.0
100
AcDbArc
 50
0.0
 51
105.8689209862303
  0
LINE
  5
1A6
330
1B
100
AcDbEntity
  8
4
 62
     3
100
AcDbLine
 10
532.9968567021616
 20
246.2560208980855
 30
0.0
 11
534.3306785486926
 21
246.1861182571496
 31
0.0
  0
ARC
  5
1A7
330
1B
100
AcDbEntity
  8
4
 62
     3
100
AcDbCircle
 10
532.9445207459186
 20
245.257391363331
 30
0.0
 40
1.0
100
AcDbArc
 50
87.00000000000742
 51
176.999999999998
  0
LINE
  5
1A8
330
1B
100
AcDbEntity
  8
4
 62
     3
100
AcDbLine
 10
531.8978017780677
 20
225.2848036641281
 30
0.0
 11
532.9692626370628
 21
225.2286507799195
 31
0.0
  0
ARC
  5
1A9
330
1B
100
AcDbEntity
  8
4
 62
     3
100
AcDbCircle
 10
531.9501377343105
 20
226.2834331988827
 30
0.0
 40
1.0
100
AcDbArc
 50
177.0000000000012
 51
267.0000000000074
  0
LINE
  5
1AA
330
1B
100
AcDbEntity
  8
4
 62
     3
100
AcDbLine
 10
530.9515081995559
 20
226.3357691551257
 30
0.0
 11
531.9458912111639
 21
245.3097273195739
 31
0.0
  0
ARC
  5
1AB
330
1B
100
AcDbEntity
  8
4
 62
     3
100
AcDbCircle
 10
359.4140696870172
 20
243.2180748228082
 30
0.0
 40
3.0
100
AcDbArc
 50
0.0
 51
90.0
  0
LINE
  5
1AC
330
1B
100
AcDbEntity
  8
4
 62
     3
100
AcDbLine
 10
353.4140756870172
 20
242.7180738228082
 30
0.0
 11
353.9140756870172
 21
242.7180738228082
 31
0.0
  0
ARC
  5
1AD
330
1B
100
AcDbEntity
  8
4
 62
     3
100
AcDbCircle
 10
353.9140756870172
 20
237.7180738228082
 30
0.0
 40
5.0
100
AcDbArc
 50
30.52252099999851
 51
90.0
  0
ARC
  5
1AE
330
1B
100
AcDbEntity
  8
4
 62
     3
100
AcDbCircle
 10
329.9140676870172
 20
242.2180758228082
 30
0.0
 40
0.5
100
AcDbArc
 50
90.0
 51
180.0
  0
LINE
  5
1AF
330
1B
100
AcDbEntity
  8
4
 62
     3
100
AcDbLine
 10
339.9140696870172
 20
239.4261748228082
 30
0.0
 11
339.9140696870172
 21
240.2180758228082
 31
0.0
  0
ARC
  5
1B0
330
1B
100
AcDbEntity
  8
4
 62
     3
100
AcDbCircle
 10
337.4140696870172
 20
240.2180758228082
 30
0.0
 40
2.5
100
AcDbArc
 50
0.0
 51
90.0
  0
LINE
  5
1B1
330
1B
100
AcDbEntity
  8
4
 62
     3
100
AcDbLine
 10
329.9140676870172
 20
242.7180758228082
 30
0.0
 11
337.4140696870172
 21
242.7180758228082
 31
0.0
  0
LINE
  5
1B2
330
1B
100
AcDbEntity
  8
4
 62
     3
100
AcDbLine
 10
317.4140916870172
 20
242.7180758228082
 30
0.0
 11
319.9140906870173
 21
242.7180758228082
 31
0.0
  0
ARC
  5
1B3
330
1B
100
AcDbEntity
  8
4
 62
     3
100
AcDbCircle
 10
319.9140906870173
 20
242.2180758228082
 30
0.0
 40
0.5
100
AcDbArc
 50
0.0
 51
90.0
  0
ARC
  5
1B4
330
1B
100
AcDbEntity
  8
4
 62
     3
100
AcDbCircle
 10
359.4140696870172
 20
228.2180778228082
 30
0.0
 40
3.0
100
AcDbArc
 50
270.0
 51
0.0
  0
LINE
  5
1B5
330
1B
100
AcDbEntity
  8
4
 62
     3
100
AcDbLine
 10
355.9244816870171
 20
234.7787338228082
 30
0.0
 11
357.7582556870173
 21
236.6125078228082
 31
0.0
  0
LINE
  5
1B6
330
1B
100
AcDbEntity
  8
4
 62
     3
100
AcDbLine
 10
358.9140756870172
 20
229.2180738228082
 30
0.0
 11
358.9140756870172
 21
231.7180738228082
 31
0.0
  0
LINE
  5
1B7
330
1B
100
AcDbEntity
  8
4
 62
     3
100
AcDbLine
 10
356.9851416870172
 20
232.2180738228082
 30
0.0
 11
358.4140756870172
 21
232.2180738228082
 31
0.0
  0
ARC
  5
1B8
330
1B
100
AcDbEntity
  8
4
 62
     3
100
AcDbCircle
 10
358.4140756870172
 20
231.7180738228082
 30
0.0
 40
0.5
100
AcDbArc
 50
0.0
 51
90.0
  0
ARC
  5
1B9
330
1B
100
AcDbEntity
  8
4
 62
     3
100
AcDbCircle
 10
358.4140756870172
 20
229.2180738228082
 30
0.0
 40
0.5
100
AcDbArc
 50
270.0
 51
0.0
  0
ARC
  5
1BA
330
1B
100
AcDbEntity
  8
4
 62
     3
100
AcDbCircle
 10
356.9851416870172
 20
233.7180738228082
 30
0.0
 40
1.5
100
AcDbArc
 50
135.000006999999
 51
270.0
  0
LINE
  5
1BB
330
1B
100
AcDbEntity
  8
4
 62
     3
100
AcDbLine
 10
345.9140756870172
 20
234.4680758228082
 30
0.0
 11
345.9140756870172
 21
236.9680758228082
 31
0.0
  0
ARC
  5
1BC
330
1B
100
AcDbEntity
  8
4
 62
     3
100
AcDbCircle
 10
350.0427566870173
 20
235.9680758228082
 30
0.0
 40
1.5
100
AcDbArc
 50
315.000006999999
 51
90.0
  0
LINE
  5
1BD
330
1B
100
AcDbEntity
  8
4
 62
     3
100
AcDbLine
 10
348.5605216870172
 20
232.3645198228082
 30
0.0
 11
351.1034166870172
 21
234.9074158228082
 31
0.0
  0
LINE
  5
1BE
330
1B
100
AcDbEntity
  8
4
 62
     3
100
AcDbLine
 10
348.4140756870172
 20
232.0109668228082
 30
0.0
 11
348.4140756870172
 21
229.2180738228082
 31
0.0
  0
ARC
  5
1BF
330
1B
100
AcDbEntity
  8
4
 62
     3
100
AcDbCircle
 10
345.4140756870172
 20
234.4680758228082
 30
0.0
 40
0.5
100
AcDbArc
 50
270.0
 51
0.0
  0
ARC
  5
1C0
330
1B
100
AcDbEntity
  8
4
 62
     3
100
AcDbCircle
 10
348.9140756870172
 20
232.0109668228082
 30
0.0
 40
0.5
100
AcDbArc
 50
135.000006999999
 51
180.0
  0
ARC
  5
1C1
330
1B
100
AcDbEntity
  8
4
 62
     3
100
AcDbCircle
 10
348.9140756870172
 20
229.2180738228082
 30
0.0
 40
0.5
100
AcDbArc
 50
180.0
 51
270.0
  0
LINE
  5
1C2
330
1B
100
AcDbEntity
  8
4
 62
     3
100
AcDbLine
 10
348.9210256870172
 20
237.4680758228082
 30
0.0
 11
350.0427566870173
 21
237.4680758228082
 31
0.0
  0
ARC
  5
1C3
330
1B
100
AcDbEntity
  8
4
 62
     3
100
AcDbCircle
 10
345.4140756870172
 20
236.9680758228082
 30
0.0
 40
0.5
100
AcDbArc
 50
0.0
 51
90.0
  0
ARC
  5
1C4
330
1B
100
AcDbEntity
  8
4
 62
     3
100
AcDbCircle
 10
348.9210256870172
 20
237.9680758228082
 30
0.0
 40
0.5
100
AcDbArc
 50
176.8152309999994
 51
270.0
  0
LINE
  5
1C5
330
1B
100
AcDbEntity
  8
4
 62
     3
100
AcDbLine
 10
342.4140756870172
 20
234.4680758228082
 30
0.0
 11
342.4140756870172
 21
236.9680758228082
 31
0.0
  0
ARC
  5
1C6
330
1B
100
AcDbEntity
  8
4
 62
     3
100
AcDbCircle
 10
342.9140756870172
 20
234.4680758228082
 30
0.0
 40
0.5
100
AcDbArc
 50
180.0
 51
270.0
  0
ARC
  5
1C7
330
1B
100
AcDbEntity
  8
4
 62
     3
100
AcDbCircle
 10
342.9140756870172
 20
236.9680758228082
 30
0.0
 40
0.5
100
AcDbArc
 50
90.0
 51
180.0
  0
LINE
  5
1C8
330
1B
100
AcDbEntity
  8
4
 62
     3
100
AcDbLine
 10
345.4140756870172
 20
233.9680758228082
 30
0.0
 11
342.9140756870172
 21
233.9680758228082
 31
0.0
  0
LINE
  5
1C9
330
1B
100
AcDbEntity
  8
4
 62
     3
100
AcDbLine
 10
345.4140756870172
 20
237.4680758228082
 30
0.0
 11
342.9140756870172
 21
237.4680758228082
 31
0.0
  0
LINE
  5
1CA
330
1B
100
AcDbEntity
  8
4
 62
     3
100
AcDbLine
 10
348.9140756870172
 20
228.7180738228082
 30
0.0
 11
358.4140756870172
 21
228.7180738228082
 31
0.0
  0
ARC
  5
1CB
330
1B
100
AcDbEntity
  8
4
 62
     3
100
AcDbCircle
 10
329.9140676870172
 20
229.2180758228082
 30
0.0
 40
0.5
100
AcDbArc
 50
180.0
 51
270.0
  0
ARC
  5
1CC
330
1B
100
AcDbEntity
  8
4
 62
     3
100
AcDbCircle
 10
338.9140696870172
 20
235.7180758228082
 30
0.0
 40
1.5
100
AcDbArc
 50
112.0243130000021
 51
247.9756869999979
  0
LINE
  5
1CD
330
1B
100
AcDbEntity
  8
4
 62
     3
100
AcDbLine
 10
339.9140696870172
 20
232.0099768228082
 30
0.0
 11
339.9140696870172
 21
231.2180758228082
 31
0.0
  0
ARC
  5
1CE
330
1B
100
AcDbEntity
  8
4
 62
     3
100
AcDbCircle
 10
337.4140696870172
 20
231.2180758228082
 30
0.0
 40
2.5
100
AcDbArc
 50
270.0
 51
0.0
  0
ARC
  5
1CF
330
1B
100
AcDbEntity
  8
4
 62
     3
100
AcDbCircle
 10
337.4140696870172
 20
232.0099768228082
 30
0.0
 40
2.5
100
AcDbArc
 50
0.0
 51
67.97568699999826
  0
LINE
  5
1D0
330
1B
100
AcDbEntity
  8
4
 62
     3
100
AcDbLine
 10
329.9140676870172
 20
228.7180758228082
 30
0.0
 11
337.4140696870172
 21
228.7180758228082
 31
0.0
  0
LINE
  5
1D1
330
1B
100
AcDbEntity
  8
4
 62
     3
100
AcDbLine
 10
317.4140636870172
 20
228.7180748228082
 30
0.0
 11
326.4140636870172
 21
228.7180758228082
 31
0.0
  0
LINE
  5
1D2
330
1B
100
AcDbEntity
  8
4
 62
     3
100
AcDbLine
 10
320.9140656870172
 20
232.2180758228082
 30
0.0
 11
326.4140636870172
 21
232.2180758228082
 31
0.0
  0
LINE
  5
1D3
330
1B
100
AcDbEntity
  8
4
 62
     3
100
AcDbLine
 10
326.9140636870172
 20
229.2180758228082
 30
0.0
 11
326.9140636870172
 21
231.7180758228082
 31
0.0
  0
ARC
  5
1D4
330
1B
100
AcDbEntity
  8
4
 62
     3
100
AcDbCircle
 10
320.9140656870172
 20
232.7180758228082
 30
0.0
 40
0.5
100
AcDbArc
 50
180.0
 51
270.0
  0
ARC
  5
1D5
330
1B
100
AcDbEntity
  8
4
 62
     3
100
AcDbCircle
 10
326.4140636870172
 20
231.7180758228082
 30
0.0
 40
0.5
100
AcDbArc
 50
0.0
 51
90.0
  0
ARC
  5
1D6
330
1B
100
AcDbEntity
  8
4
 62
     3
100
AcDbCircle
 10
326.4140636870172
 20
229.2180758228082
 30
0.0
 40
0.5
100
AcDbArc
 50
270.0
 51
0.0
  0
ARC
  5
1D7
330
1B
100
AcDbEntity
  8
4
 62
     3
100
AcDbCircle
 10
353.4140756870172
 20
237.7180738228082
 30
0.0
 40
5.0
100
AcDbArc
 50
90.0
 51
176.8152310000004
  0
LINE
  5
1D8
330
1B
100
AcDbEntity
  8
4
 62
     3
100
AcDbLine
 10
320.4140636870172
 20
232.7180758228082
 30
0.0
 11
320.4140926870173
 21
242.2180758228082
 31
0.0
  0
LINE
  5
1D9
330
1B
100
AcDbEntity
  8
4
 62
     3
100
AcDbLine
 10
329.4140676870172
 20
229.2180758228082
 30
0.0
 11
329.4140676870172
 21
242.2180758228082
 31
0.0
  0
ARC
  5
1DA
330
1B
100
AcDbEntity
  8
4
 62
     3
100
AcDbCircle
 10
337.4140696870172
 20
239.4261748228082
 30
0.0
 40
2.5
100
AcDbArc
 50
292.0243130000017
 51
0.0
  0
LINE
  5
1DB
330
1B
100
AcDbEntity
  8
4
 62
     3
100
AcDbLine
 10
362.4140696870172
 20
243.2180748228082
 30
0.0
 11
362.4140696870172
 21
228.2180778228082
 31
0.0
  0
ARC
  5
1DC
330
1B
100
AcDbEntity
  8
4
 62
     3
100
AcDbCircle
 10
355.6369346870172
 20
238.7338278228082
 30
0.0
 40
3.0
100
AcDbArc
 50
315.0000070000004
 51
30.52252099999653
  0
ARC
  5
1DD
330
1B
100
AcDbEntity
  8
4
 62
     3
100
AcDbCircle
 10
316.4140696870172
 20
243.2180748228082
 30
0.0
 40
3.0
100
AcDbArc
 50
90.0
 51
180.0
  0
ARC
  5
1DE
330
1B
100
AcDbEntity
  8
4
 62
     3
100
AcDbCircle
 10
316.4140696870172
 20
228.2180778228082
 30
0.0
 40
3.0
100
AcDbArc
 50
180.0
 51
270.0
  0
LINE
  5
1DF
330
1B
100
AcDbEntity
  8
4
 62
     3
100
AcDbLine
 10
313.4140696870172
 20
243.2180748228082
 30
0.0
 11
313.4140696870172
 21
228.2180778228082
 31
0.0
  0
LINE
  5
1E0
330
1B
100
AcDbEntity
  8
4
 62
     3
100
AcDbLine
 10
316.9140646870171
 20
229.2180768228082
 30
0.0
 11
316.9140926870173
 21
242.2180758228082
 31
0.0
  0
LINE
  5
1E1
330
1B
100
AcDbEntity
  8
4
 62
     3
100
AcDbLine
 10
316.4140696870172
 20
225.2180778228082
 30
0.0
 11
359.4140696870172
 21
225.2180778228082
 31
0.0
  0
LINE
  5
1E2
330
1B
100
AcDbEntity
  8
4
 62
     3
100
AcDbLine
 10
316.4140696870172
 20
246.2180748228082
 30
0.0
 11
359.4140696870172
 21
246.2180748228082
 31
0.0
  0
ARC
  5
1E3
330
1B
100
AcDbEntity
  8
4
 62
     3
100
AcDbCircle
 10
317.4140916870172
 20
242.2180758228082
 30
0.0
 40
0.5
100
AcDbArc
 50
90.0
 51
180.0
  0
ARC
  5
1E4
330
1B
100
AcDbEntity
  8
4
 62
     3
100
AcDbCircle
 10
317.4140646870171
 20
229.2180758228082
 30
0.0
 40
0.5
100
AcDbArc
 50
179.9998800030328
 51
269.9998800000139
  0
ARC
  5
1E5
330
1B
100
AcDbEntity
  8
4
 62
     3
100
AcDbCircle
 10
290.4140696870172
 20
200.2180748228082
 30
0.0
 40
15.5
100
AcDbArc
 50
180.0
 51
0.0
  0
LINE
  5
1E6
330
1B
100
AcDbEntity
  8
4
 62
     3
100
AcDbLine
 10
305.9140696870172
 20
200.2180748228082
 30
0.0
 11
305.9140696870172
 21
203.7790202346519
 31
0.0
  0
ARC
  5
1E7
330
1B
100
AcDbEntity
  8
4
 62
     3
100
AcDbCircle
 10
307.9140696870172
 20
203.7790202346519
 30
0.0
 40
2.0
100
AcDbArc
 50
74.1310790137697
 51
180.0
  0
LINE
  5
1F1
330
1B
100
AcDbEntity
  8
4
100
AcDbLine
 10
577.8782321522486
 20
254.7180748228082
 30
0.0
 11
577.8782321522486
 21
256.7180748228082
 31
0.0
  0
LINE
  5
1F2
330
1B
100
AcDbEntity
  8
4
100
AcDbLine
 10
576.2034281522486
 20
256.7180748228082
 30
0.0
 11
576.2034281522486
 21
260.7180748228082
 31
0.0
  0
LINE
  5
1F3
330
1B
100
AcDbEntity
  8
4
100
AcDbLine
 10
552.8782321522486
 20
254.7180748228082
 30
0.0
 11
552.8782321522486
 21
256.7180748228082
 31
0.0
  0
LINE
  5
1F4
330
1B
100
AcDbEntity
  8
4
100
AcDbLine
 10
554.5527921522486
 20
256.7180748228082
 30
0.0
 11
554.5527921522486
 21
260.7180748228082
 31
0.0
  0
LINE
  5
1F5
330
1B
100
AcDbEntity
  8
4
100
AcDbLine
 10
577.8782321522486
 20
254.7180748228082
 30
0.0
 11
552.8782321522486
 21
254.7180748228082
 31
0.0
  0
LINE
  5
1F6
330
1B
100
AcDbEntity
  8
4
100
AcDbLine
 10
577.8782321522486
 20
256.7180748228082
 30
0.0
 11
552.8782321522486
 21
256.7180748228082
 31
0.0
  0
LINE
  5
1F7
330
1B
100
AcDbEntity
  8
4
100
AcDbLine
 10
576.2034281522486
 20
260.7180748228082
 30
0.0
 11
554.5527921522486
 21
260.7180748228082
 31
0.0
  0
LINE
  5
200
330
1B
100
AcDbEntity
  8
4
 62
     3
100
AcDbLine
 10
579.3782321522486
 20
253.2180748228082
 30
0.0
 11
579.3782321522486
 21
252.8026268228082
 31
0.0
  0
ARC
  5
201
330
1B
100
AcDbEntity
  8
4
 62
     3
100
AcDbCircle
 10
580.3782321522486
 20
252.8026268228082
 30
0.0
 40
1.0
100
AcDbArc
 50
180.0
 51
266.8270250000029
  0
ARC
  5
202
330
1B
100
AcDbEntity
  8
4
 62
     3
100
AcDbCircle
 10
594.1425401522487
 20
248.6699738228082
 30
0.0
 40
2.0
100
AcDbArc
 50
6.524408999999578
 51
83.83860399999942
  0
LINE
  5
203
330
1B
100
AcDbEntity
  8
4
 62
     3
100
AcDbLine
 10
551.3782321522486
 20
253.2180748228082
 30
0.0
 11
551.3782321522486
 21
252.8026268228082
 31
0.0
  0
ARC
  5
204
330
1B
100
AcDbEntity
  8
4
 62
     3
100
AcDbCircle
 10
550.3782321522486
 20
252.8026268228082
 30
0.0
 40
1.0
100
AcDbArc
 50
273.1729749999971
 51
0.0
  0
LINE
  5
205
330
1B
100
AcDbEntity
  8
4
100
AcDbLine
 10
576.8782321522486
 20
253.2180748228082
 30
0.0
 11
553.8782321522486
 21
253.2180748228082
 31
0.0
  0
LINE
  5
206
330
1B
100
AcDbEntity
  8
4
 62
     3
100
AcDbLine
 10
579.3782321522486
 20
253.2180748228082
 30
0.0
 11
551.3782321522486
 21
253.2180748228082
 31
0.0
  0
ARC
  5
207
330
1B
100
AcDbEntity
  8
4
 62
     3
100
AcDbCircle
 10
598.8321031522486
 20
223.2180748228082
 30
0.0
 40
1.0
100
AcDbArc
 50
181.0571779999997
 51
270.0
  0
LINE
  5
208
330
1B
100
AcDbEntity
  8
4
 62
     3
100
AcDbLine
 10
599.3782321522486
 20
221.2180748228082
 30
0.0
 11
599.3782321522486
 21
221.2180748228082
 31
0.0
  0
LINE
  5
209
330
1B
100
AcDbEntity
  8
4
 62
     3
100
AcDbLine
 10
599.3782321522486
 20
221.7180748228082
 30
0.0
 11
599.3782321522486
 21
221.2180748228082
 31
0.0
  0
LINE
  5
20A
330
1B
100
AcDbEntity
  8
4
 62
     3
100
AcDbLine
 10
598.8321031522486
 20
222.2180748228082
 30
0.0
 11
598.8782321522486
 21
222.2180748228082
 31
0.0
  0
ARC
  5
20B
330
1B
100
AcDbEntity
  8
4
 62
     3
100
AcDbCircle
 10
598.8782321522486
 20
221.7180748228082
 30
0.0
 40
0.5
100
AcDbArc
 50
0.0
 51
90.0
  0
ARC
  5
210
330
1B
100
AcDbEntity
  8
4
 62
     3
100
AcDbCircle
 10
327.8782321522486
 20
218.2180748228082
 30
0.0
 40
270.0
100
AcDbArc
 50
0.9972242662842217
 51
6.524408999999913
  0
LINE
  5
211
330
1B
100
AcDbEntity
  8
4
 62
     3
100
AcDbLine
 10
600.3782321522486
 20
220.2180748228082
 30
0.0
 11
604.3782321522486
 21
220.2180748228082
 31
0.0
  0
LINE
  5
212
330
1B
100
AcDbEntity
  8
4
100
AcDbLine
 10
613.1782321522486
 20
220.2180748228082
 30
0.0
 11
604.3782321522486
 21
220.2180748228082
 31
0.0
  0
ARC
  5
213
330
1B
100
AcDbEntity
  8
4
100
AcDbCircle
 10
613.1782321522486
 20
219.2180748228082
 30
0.0
 40
1.0
100
AcDbArc
 50
0.0
 51
90.0
  0
LINE
  5
214
330
1B
100
AcDbEntity
  8
4
100
AcDbLine
 10
620.4782321522486
 20
209.6879290870128
 30
0.0
 11
614.1782321522486
 21
209.6879290870128
 31
0.0
  0
LINE
  5
215
330
1B
100
AcDbEntity
  8
2
100
AcDbLine
 10
614.1782321522486
 20
205.4379290870128
 30
0.0
 11
615.4782321522486
 21
206.7379290870128
 31
0.0
  0
LINE
  5
216
330
1B
100
AcDbEntity
  8
4
100
AcDbLine
 10
620.4782321522486
 20
201.1879290870128
 30
0.0
 11
614.1782321522486
 21
201.1879290870128
 31
0.0
  0
LINE
  5
217
330
1B
100
AcDbEntity
  8
2
100
AcDbLine
 10
614.1782321522486
 20
203.5994514559278
 30
0.0
 11
615.4782321522486
 21
204.8994514559278
 31
0.0
  0
LINE
  5
218
330
1B
100
AcDbEntity
  8
4
100
AcDbLine
 10
615.4782321522486
 20
201.1879290870128
 30
0.0
 11
615.4782321522486
 21
209.6879290870128
 31
0.0
  0
LINE
  5
219
330
1B
100
AcDbEntity
  8
4
100
AcDbLine
 10
620.4782321522486
 20
201.1879290870128
 30
0.0
 11
620.4782321522486
 21
209.6879290870128
 31
0.0
  0
LINE
  5
21A
330
1B
100
AcDbEntity
  8
L-CENTER
 48
2.0
100
AcDbLine
 10
622.652003595783
 20
205.4379290870128
 30
0.0
 11
596.6196754924559
 21
205.4379290870128
 31
0.0
  0
ARC
  5
21C
330
1B
100
AcDbEntity
  8
4
 62
     3
100
AcDbCircle
 10
600.3782321522486
 20
221.2180748228082
 30
0.0
 40
1.0
100
AcDbArc
 50
180.0
 51
270.0
  0
ARC
  5
21D
330
1B
100
AcDbEntity
  8
4
 62
     3
100
AcDbCircle
 10
536.6139231522485
 20
248.6699738228082
 30
0.0
 40
2.0
100
AcDbArc
 50
96.16139600000058
 51
173.4755910000004
  0
ARC
  5
21E
330
1B
100
AcDbEntity
  8
4
 62
     3
100
AcDbCircle
 10
531.9243611522487
 20
223.2180748228082
 30
0.0
 40
1.0
100
AcDbArc
 50
270.0
 51
358.9428220000003
  0
LINE
  5
21F
330
1B
100
AcDbEntity
  8
4
 62
     3
100
AcDbLine
 10
531.9243611522487
 20
222.2180748228082
 30
0.0
 11
531.8782291522485
 21
222.2180748228082
 31
0.0
  0
LINE
  5
220
330
1B
100
AcDbEntity
  8
4
 62
     3
100
AcDbLine
 10
531.3782261522487
 20
221.2180748228082
 30
0.0
 11
531.3782321522486
 21
221.7180748228082
 31
0.0
  0
ARC
  5
221
330
1B
100
AcDbEntity
  8
4
 62
     3
100
AcDbCircle
 10
531.8782291522485
 20
221.7180748228082
 30
0.0
 40
0.5
100
AcDbArc
 50
90.0
 51
180.0
  0
ARC
  5
222
330
1B
100
AcDbEntity
  8
4
 62
     3
100
AcDbCircle
 10
802.8782321522486
 20
218.2180748228082
 30
0.0
 40
270.0
100
AcDbArc
 50
173.4755910000001
 51
178.9428219999999
  0
LINE
  5
224
330
1B
100
AcDbEntity
  8
4
 62
     3
100
AcDbLine
 10
530.3782291522485
 20
220.2180748228082
 30
0.0
 11
525.3782321522486
 21
220.2180748228082
 31
0.0
  0
ARC
  5
225
330
1B
100
AcDbEntity
  8
4
 62
     3
100
AcDbCircle
 10
525.3782321522486
 20
219.2180748228082
 30
0.0
 40
1.0
100
AcDbArc
 50
90.00000299999769
 51
180.0000029575587
  0
ARC
  5
22D
330
1B
100
AcDbEntity
  8
4
 62
     3
100
AcDbCircle
 10
530.3782291522485
 20
221.2180748228082
 30
0.0
 40
1.0
100
AcDbArc
 50
270.0
 51
0.0
  0
ARC
  5
22E
330
1B
100
AcDbEntity
  8
4
 62
     3
100
AcDbCircle
 10
565.3782321522486
 20
-17.78192517719179
 30
0.0
 40
270.0
100
AcDbArc
 50
83.83860399999999
 51
96.16139600000001
  0
LINE
  5
22F
330
1B
100
AcDbEntity
  8
L-CENTER
 48
2.0
100
AcDbLine
 10
528.1695128977627
 20
218.2180748228082
 30
0.0
 11
602.5869514067346
 21
218.2180748228082
 31
0.0
  0
CIRCLE
  5
230
330
1B
100
AcDbEntity
  8
4
 62
     3
100
AcDbCircle
 10
565.3782321522486
 20
218.2180748228082
 30
0.0
 40
23.5
  0
LINE
  5
232
330
1B
100
AcDbEntity
  8
4
100
AcDbLine
 10
553.8782321522486
 20
253.2180748228082
 30
0.0
 11
553.8782321522486
 21
254.7180748228082
 31
0.0
  0
LINE
  5
233
330
1B
100
AcDbEntity
  8
4
100
AcDbLine
 10
576.8782321522486
 20
253.2180748228082
 30
0.0
 11
576.8782321522486
 21
254.7180748228082
 31
0.0
  0
LINE
  5
236
330
1B
100
AcDbEntity
  8
4
100
AcDbLine
 10
293.9140696870172
 20
533.0461841976291
 30
0.0
 11
302.4140696870171
 21
533.0461841976291
 31
0.0
  0
LINE
  5
237
330
1B
100
AcDbEntity
  8
4
100
AcDbLine
 10
302.4140696870171
 20
533.0461841976291
 30
0.0
 11
301.4140696870171
 21
534.0461841976291
 31
0.0
  0
LINE
  5
238
330
1B
100
AcDbEntity
  8
4
100
AcDbLine
 10
278.4140696870171
 20
533.0461841976291
 30
0.0
 11
279.4140696870171
 21
534.0461841976291
 31
0.0
  0
LINE
  5
239
330
1B
100
AcDbEntity
  8
4
100
AcDbLine
 10
279.4140696870171
 20
534.0461841976291
 30
0.0
 11
301.4140696870171
 21
534.0461841976291
 31
0.0
  0
LINE
  5
23A
330
1B
100
AcDbEntity
  8
4
100
AcDbLine
 10
278.4140696870171
 20
533.0461841976291
 30
0.0
 11
286.9140696870171
 21
533.0461841976291
 31
0.0
  0
ARC
  5
23B
330
1B
100
AcDbEntity
  8
4
 62
     3
100
AcDbCircle
 10
394.9140696870172
 20
481.0461841976291
 30
0.0
 40
3.0
100
AcDbArc
 50
0.0
 51
90.0
  0
ARC
  5
23C
330
1B
100
AcDbEntity
  8
4
 62
     3
100
AcDbCircle
 10
362.8157356870172
 20
481.0461841976291
 30
0.0
 40
3.0
100
AcDbArc
 50
90.0
 51
178.0908479999999
  0
LINE
  5
23D
330
1B
100
AcDbEntity
  8
4
 62
     3
100
AcDbLine
 10
362.8157356870172
 20
484.0461841976291
 30
0.0
 11
394.9140696870172
 21
484.0461841976291
 31
0.0
  0
ARC
  5
23E
330
1B
100
AcDbEntity
  8
4
100
AcDbCircle
 10
367.414069687017
 20
471.8461841976291
 30
0.0
 40
1.0
100
AcDbArc
 50
0.0
 51
90.0
  0
LINE
  5
23F
330
1B
100
AcDbEntity
  8
4
100
AcDbLine
 10
367.6640696870172
 20
479.1461841976291
 30
0.0
 11
367.6640696870172
 21
472.8461841976291
 31
0.0
  0
LINE
  5
240
330
1B
100
AcDbEntity
  8
4
100
AcDbLine
 10
359.1640696870172
 20
479.1461841976291
 30
0.0
 11
359.1640696870172
 21
472.8461841976292
 31
0.0
  0
LINE
  5
241
330
1B
100
AcDbEntity
  8
4
100
AcDbLine
 10
359.1640696870172
 20
474.1461841976292
 30
0.0
 11
367.6640696870172
 21
474.1461841976292
 31
0.0
  0
LINE
  5
242
330
1B
100
AcDbEntity
  8
4
100
AcDbLine
 10
359.1640696870172
 20
479.1461841976291
 30
0.0
 11
367.6640696870172
 21
479.1461841976292
 31
0.0
  0
LINE
  5
243
330
1B
100
AcDbEntity
  8
4
100
AcDbLine
 10
368.4140696870173
 20
463.046184197629
 30
0.0
 11
368.4140696870173
 21
458.046184197629
 31
0.0
  0
LINE
  5
244
330
1B
100
AcDbEntity
  8
4
100
AcDbLine
 10
368.4140696870171
 20
471.8461841976291
 30
0.0
 11
368.4140696870171
 21
463.3461841976291
 31
0.0
  0
CIRCLE
  5
245
330
1B
100
AcDbEntity
  8
4
 62
     3
100
AcDbCircle
 10
385.4140696870172
 20
469.0461841976291
 30
0.0
 40
5.5
  0
LINE
  5
246
330
1B
100
AcDbEntity
  8
L-CENTER
 48
2.0
100
AcDbLine
 10
374.4560466870172
 20
469.0461841976291
 30
0.0
 11
396.3720926870172
 21
469.0461841976291
 31
0.0
  0
LINE
  5
247
330
1B
100
AcDbEntity
  8
4
 62
     3
100
AcDbLine
 10
359.8193126877804
 20
481.2034882345873
 30
0.0
 11
359.7507359033625
 21
479.1461841976291
 31
0.0
  0
LINE
  5
248
330
1B
100
AcDbEntity
  8
L-CENTER
 48
2.0
100
AcDbLine
 10
385.4140696870172
 20
458.0881611976291
 30
0.0
 11
385.4140696870172
 21
480.0042071976292
 31
0.0
  0
LINE
  5
249
330
1B
100
AcDbEntity
  8
L-CENTER
 48
2.0
100
AcDbLine
 10
363.4140696870172
 20
480.2562302698882
 30
0.0
 11
363.4140696870172
 21
456.6247648737126
 31
0.0
  0
LINE
  5
24A
330
1B
100
AcDbEntity
  8
4
100
AcDbLine
 10
160.4140696870172
 20
432.0461841976291
 30
0.0
 11
161.4140696870172
 21
433.0461841976291
 31
0.0
  0
ARC
  5
24B
330
1B
100
AcDbEntity
  8
4
100
AcDbCircle
 10
189.9140696870172
 20
424.0461841976291
 30
0.0
 40
2.5
100
AcDbArc
 50
270.0
 51
90.0
  0
LINE
  5
24C
330
1B
100
AcDbEntity
  8
4
100
AcDbLine
 10
160.4140696870172
 20
421.5461841976291
 30
0.0
 11
189.9140696870173
 21
421.5461841976291
 31
0.0
  0
LINE
  5
24D
330
1B
100
AcDbEntity
  8
4
100
AcDbLine
 10
160.4140696870172
 20
426.546184197629
 30
0.0
 11
189.9140696870173
 21
426.5461841976291
 31
0.0
  0
LINE
  5
24E
330
1B
100
AcDbEntity
  8
4
100
AcDbLine
 10
160.4140696870172
 20
432.0461841976291
 30
0.0
 11
160.4140696870172
 21
416.0461841976291
 31
0.0
  0
LINE
  5
24F
330
1B
100
AcDbEntity
  8
4
100
AcDbLine
 10
161.4140696870172
 20
426.5461841976291
 30
0.0
 11
161.4140696870172
 21
433.0461841976291
 31
0.0
  0
LINE
  5
250
330
1B
100
AcDbEntity
  8
4
100
AcDbLine
 10
209.4140696870172
 20
434.0461841976291
 30
0.0
 11
195.4140696870172
 21
434.0461841976291
 31
0.0
  0
LINE
  5
251
330
1B
100
AcDbEntity
  8
4
100
AcDbLine
 10
371.4140696870172
 20
447.5461841976291
 30
0.0
 11
370.4140696870172
 21
447.5461841976291
 31
0.0
  0
LINE
  5
252
330
1B
100
AcDbEntity
  8
4
100
AcDbLine
 10
195.4140696870172
 20
433.0461841976291
 30
0.0
 11
161.4140696870172
 21
433.0461841976291
 31
0.0
  0
LINE
  5
253
330
1B
100
AcDbEntity
  8
4
100
AcDbLine
 10
195.4140696870172
 20
414.0461841976291
 30
0.0
 11
209.4140696870172
 21
414.0461841976291
 31
0.0
  0
LINE
  5
254
330
1B
100
AcDbEntity
  8
4
100
AcDbLine
 10
371.4140696870172
 20
400.5461841976291
 30
0.0
 11
370.4140696870172
 21
400.5461841976291
 31
0.0
  0
LINE
  5
255
330
1B
100
AcDbEntity
  8
4
100
AcDbLine
 10
368.4140696870172
 20
390.0461841976291
 30
0.0
 11
368.4140696870172
 21
383.0461841976291
 31
0.0
  0
LINE
  5
256
330
1B
100
AcDbEntity
  8
4
100
AcDbLine
 10
195.4140696870172
 20
415.0461841976291
 30
0.0
 11
161.4140696870172
 21
415.0461841976291
 31
0.0
  0
LINE
  5
257
330
1B
100
AcDbEntity
  8
4
100
AcDbLine
 10
371.4140696870172
 20
400.5461841976291
 30
0.0
 11
371.4140696870172
 21
447.5461841976291
 31
0.0
  0
LINE
  5
258
330
1B
100
AcDbEntity
  8
4
100
AcDbLine
 10
195.4140696870172
 20
434.0461841976291
 30
0.0
 11
195.4140696870172
 21
414.0461841976291
 31
0.0
  0
LINE
  5
259
330
1B
100
AcDbEntity
  8
4
100
AcDbLine
 10
161.4140696870172
 20
415.0461841976291
 30
0.0
 11
161.4140696870172
 21
421.5461841976291
 31
0.0
  0
LINE
  5
25A
330
1B
100
AcDbEntity
  8
4
100
AcDbLine
 10
161.4140696870172
 20
415.0461841976291
 30
0.0
 11
160.4140696870172
 21
416.0461841976291
 31
0.0
  0
LINE
  5
25B
330
1B
100
AcDbEntity
  8
4
100
AcDbLine
 10
368.4140696870173
 20
456.5461841976291
 30
0.0
 11
368.4140696870172
 21
391.5461841976291
 31
0.0
  0
LINE
  5
25C
330
1B
100
AcDbEntity
  8
4
100
AcDbLine
 10
370.4140696870172
 20
458.0461841976291
 30
0.0
 11
370.4140696870172
 21
390.0461841976291
 31
0.0
  0
ARC
  5
25E
330
1B
100
AcDbEntity
  8
4
100
AcDbCircle
 10
290.4140696870173
 20
500.5461841976293
 30
0.0
 40
3.5
100
AcDbArc
 50
180.0
 51
0.0
  0
LINE
  5
25F
330
1B
100
AcDbEntity
  8
4
100
AcDbLine
 10
313.9140696870171
 20
481.9461841976291
 30
0.0
 11
313.9140696870172
 21
480.946184197629
 31
0.0
  0
ARC
  5
260
330
1B
100
AcDbEntity
  8
4
100
AcDbCircle
 10
319.5822526338507
 20
479.946184197629
 30
0.0
 40
1.0
100
AcDbArc
 50
10.49147701233408
 51
90.0
  0
LINE
  5
261
330
1B
100
AcDbEntity
  8
4
100
AcDbLine
 10
302.9140696870171
 20
481.9461841976291
 30
0.0
 11
302.9140696870171
 21
494.0461841976291
 31
0.0
  0
ARC
  5
262
330
1B
100
AcDbEntity
  8
4
100
AcDbCircle
 10
302.9140696870172
 20
494.5461841976293
 30
0.0
 40
0.5
100
AcDbArc
 50
180.0
 51
270.0
  0
LINE
  5
263
330
1B
100
AcDbEntity
  8
4
100
AcDbLine
 10
302.9140696870171
 20
494.0461841976291
 30
0.0
 11
302.9140696870171
 21
494.0461841976291
 31
0.0
  0
ARC
  5
264
330
1B
100
AcDbEntity
  8
4
100
AcDbCircle
 10
261.2458867401834
 20
479.946184197629
 30
0.0
 40
1.0
100
AcDbArc
 50
90.0
 51
169.5085229876659
  0
LINE
  5
265
330
1B
100
AcDbEntity
  8
4
100
AcDbLine
 10
266.9140696870172
 20
481.946184197629
 30
0.0
 11
266.9140696870172
 21
480.946184197629
 31
0.0
  0
LINE
  5
266
330
1B
100
AcDbEntity
  8
4
100
AcDbLine
 10
277.9140696870171
 20
481.946184197629
 30
0.0
 11
277.9140696870171
 21
494.0461841976291
 31
0.0
  0
ARC
  5
267
330
1B
100
AcDbEntity
  8
4
100
AcDbCircle
 10
277.9140696870173
 20
494.5461841976293
 30
0.0
 40
0.5
100
AcDbArc
 50
270.0
 51
0.0
  0
LINE
  5
268
330
1B
100
AcDbEntity
  8
4
100
AcDbLine
 10
277.9140696870171
 20
494.0461841976291
 30
0.0
 11
277.9140696870172
 21
494.0461841976291
 31
0.0
  0
LINE
  5
269
330
1B
100
AcDbEntity
  8
4
100
AcDbLine
 10
261.2458867401836
 20
480.946184197629
 30
0.0
 11
319.5822526338508
 21
480.946184197629
 31
0.0
  0
LINE
  5
26A
330
1B
100
AcDbEntity
  8
4
100
AcDbLine
 10
266.9140696870172
 20
481.9461841976289
 30
0.0
 11
313.9140696870171
 21
481.9461841976291
 31
0.0
  0
LINE
  5
26B
330
1B
100
AcDbEntity
  8
4
100
AcDbLine
 10
277.9140696870171
 20
494.0461841976291
 30
0.0
 11
302.9140696870171
 21
494.0461841976291
 31
0.0
  0
LINE
  5
26C
330
1B
100
AcDbEntity
  8
4
100
AcDbLine
 10
322.6640700543147
 20
473.7847403727005
 30
0.0
 11
321.7913424123241
 21
473.8606297328733
 31
0.0
  0
ARC
  5
26D
330
1B
100
AcDbEntity
  8
4
100
AcDbCircle
 10
323.6035113440062
 20
474.7068234240846
 30
0.0
 40
2.0
100
AcDbArc
 50
190.4914770123308
 51
202.4563817741526
  0
LINE
  5
26E
330
1B
100
AcDbEntity
  8
4
100
AcDbLine
 10
333.4574660676474
 20
472.8461841976291
 30
0.0
 11
331.1640700543147
 21
473.0456099379189
 31
0.0
  0
LINE
  5
26F
330
1B
100
AcDbEntity
  8
4
100
AcDbLine
 10
322.6640700543147
 20
479.1461841976291
 30
0.0
 11
331.1640700543147
 21
479.1461841976292
 31
0.0
  0
LINE
  5
270
330
1B
100
AcDbEntity
  8
4
100
AcDbLine
 10
322.6640700543147
 20
474.1461841976292
 30
0.0
 11
331.1640700543147
 21
474.1461841976292
 31
0.0
  0
LINE
  5
271
330
1B
100
AcDbEntity
  8
4
100
AcDbLine
 10
331.1640700543147
 20
479.1461841976291
 30
0.0
 11
331.1640700543147
 21
472.8461841976292
 31
0.0
  0
ARC
  5
272
330
1B
100
AcDbEntity
  8
4
100
AcDbCircle
 10
323.6035113440064
 20
474.7068234240849
 30
0.0
 40
2.0
100
AcDbArc
 50
190.4914770123308
 51
241.9838354828969
  0
LINE
  5
273
330
1B
100
AcDbEntity
  8
4
100
AcDbLine
 10
322.6640700543147
 20
479.1461841976291
 30
0.0
 11
322.6640700543147
 21
472.8461841976292
 31
0.0
  0
ARC
  5
274
330
1B
100
AcDbEntity
  8
4
100
AcDbCircle
 10
257.224628030028
 20
474.7068234240849
 30
0.0
 40
2.0
100
AcDbArc
 50
298.0161645171032
 51
349.5085229876692
  0
LINE
  5
275
330
1B
100
AcDbEntity
  8
4
100
AcDbLine
 10
258.1640693197197
 20
479.1461841976291
 30
0.0
 11
258.1640693197197
 21
472.8461841976292
 31
0.0
  0
LINE
  5
276
330
1B
100
AcDbEntity
  8
4
  6
Continuous
 62
     3
100
AcDbLine
 10
247.370673306407
 20
472.8461841976291
 30
0.0
 11
249.6640693197197
 21
473.045609937917
 31
0.0
  0
LINE
  5
277
330
1B
100
AcDbEntity
  8
4
100
AcDbLine
 10
249.6640693197197
 20
479.1461841976291
 30
0.0
 11
249.6640693197197
 21
472.8461841976292
 31
0.0
  0
LINE
  5
278
330
1B
100
AcDbEntity
  8
4
100
AcDbLine
 10
258.1640693197197
 20
474.1461841976292
 30
0.0
 11
249.6640693197197
 21
474.1461841976292
 31
0.0
  0
LINE
  5
279
330
1B
100
AcDbEntity
  8
4
100
AcDbLine
 10
258.1640693197197
 20
479.1461841976291
 30
0.0
 11
249.6640693197197
 21
479.1461841976292
 31
0.0
  0
LINE
  5
27A
330
1B
100
AcDbEntity
  8
L-CENTER
 48
2.0
100
AcDbLine
 10
253.9140693197197
 20
480.2562302698882
 30
0.0
 11
253.9140693197197
 21
456.6247648737126
 31
0.0
  0
LINE
  5
27B
330
1B
100
AcDbEntity
  8
4
100
AcDbLine
 10
259.1911920399971
 20
474.3426449037202
 30
0.0
 11
260.262604735199
 21
480.1282734578112
 31
0.0
  0
LINE
  5
27C
330
1B
100
AcDbEntity
  8
4
100
AcDbLine
 10
321.6369473340372
 20
474.3426449037202
 30
0.0
 11
320.5655346388353
 21
480.1282734578112
 31
0.0
  0
LINE
  5
27D
330
1B
100
AcDbEntity
  8
L-CENTER
 48
2.0
100
AcDbLine
 10
326.9140700543147
 20
480.2562302698882
 30
0.0
 11
326.9140700543147
 21
456.6247648737126
 31
0.0
  0
ARC
  5
27E
330
1B
100
AcDbEntity
  8
4
 62
     3
100
AcDbCircle
 10
218.0124036870172
 20
481.0461841976291
 30
0.0
 40
3.0
100
AcDbArc
 50
1.909152000000113
 51
90.0
  0
ARC
  5
27F
330
1B
100
AcDbEntity
  8
4
 62
     3
100
AcDbCircle
 10
185.9140696870172
 20
481.0461841976291
 30
0.0
 40
3.0
100
AcDbArc
 50
90.0
 51
180.0
  0
LINE
  5
280
330
1B
100
AcDbEntity
  8
4
 62
     3
100
AcDbLine
 10
185.9140696870172
 20
484.0461841976291
 30
0.0
 11
218.0124036870172
 21
484.0461841976291
 31
0.0
  0
ARC
  5
281
330
1B
100
AcDbEntity
  8
4
100
AcDbCircle
 10
213.414069687017
 20
471.8461841976291
 30
0.0
 40
1.0
100
AcDbArc
 50
90.0
 51
180.0
  0
LINE
  5
282
330
1B
100
AcDbEntity
  8
4
100
AcDbLine
 10
226.4140696870172
 20
473.8461841976291
 30
0.0
 11
226.4140696870172
 21
472.8461841976291
 31
0.0
  0
LINE
  5
283
330
1B
100
AcDbEntity
  8
4
100
AcDbLine
 10
221.6640696870172
 20
479.1461841976291
 30
0.0
 11
213.1640696870172
 21
479.1461841976292
 31
0.0
  0
LINE
  5
284
330
1B
100
AcDbEntity
  8
4
100
AcDbLine
 10
221.6640696870172
 20
474.1461841976292
 30
0.0
 11
213.1640696870172
 21
474.1461841976292
 31
0.0
  0
LINE
  5
285
330
1B
100
AcDbEntity
  8
4
100
AcDbLine
 10
221.6640696870172
 20
479.1461841976291
 30
0.0
 11
221.6640696870172
 21
472.8461841976292
 31
0.0
  0
LINE
  5
286
330
1B
100
AcDbEntity
  8
4
100
AcDbLine
 10
213.1640696870172
 20
479.1461841976291
 30
0.0
 11
213.1640696870172
 21
472.846184197629
 31
0.0
  0
LINE
  5
287
330
1B
100
AcDbEntity
  8
L-CENTER
 48
2.0
100
AcDbLine
 10
184.4560466870172
 20
469.0461841976291
 30
0.0
 11
206.3720926870172
 21
469.0461841976291
 31
0.0
  0
LINE
  5
288
330
1B
100
AcDbEntity
  8
4
100
AcDbLine
 10
212.4140696870172
 20
463.0461841976291
 30
0.0
 11
212.4140696870172
 21
458.0461841976293
 31
0.0
  0
CIRCLE
  5
289
330
1B
100
AcDbEntity
  8
4
 62
     3
100
AcDbCircle
 10
195.4140696870172
 20
469.0461841976291
 30
0.0
 40
5.5
  0
LINE
  5
28A
330
1B
100
AcDbEntity
  8
4
100
AcDbLine
 10
212.4140696870171
 20
471.8461841976291
 30
0.0
 11
212.4140696870171
 21
463.3461841976291
 31
0.0
  0
LINE
  5
28B
330
1B
100
AcDbEntity
  8
L-CENTER
 48
2.0
100
AcDbLine
 10
195.4140696870172
 20
458.0881611976291
 30
0.0
 11
195.4140696870172
 21
480.0042071976292
 31
0.0
  0
LINE
  5
28C
330
1B
100
AcDbEntity
  8
L-CENTER
 48
2.0
100
AcDbLine
 10
217.4140696870172
 20
480.2562302698882
 30
0.0
 11
217.4140696870172
 21
456.6247648737126
 31
0.0
  0
LINE
  5
28D
330
1B
100
AcDbEntity
  8
4
 62
     3
100
AcDbLine
 10
221.0107386711244
 20
481.1461286744152
 30
0.0
 11
221.0774034706721
 21
479.1461841976292
 31
0.0
  0
LINE
  5
28E
330
1B
100
AcDbEntity
  8
4
100
AcDbLine
 10
226.4140696870172
 20
473.8461841976291
 30
0.0
 11
249.6640693197197
 21
473.8461841976291
 31
0.0
  0
LWPOLYLINE
  5
28F
330
1B
100
AcDbEntity
  8
4
100
AcDbPolyline
 90
        6
 70
     1
 43
0.0
 10
267.9140696870172
 20
424.0461841976291
 10
261.6640696870172
 20
434.8715017449347
 10
249.1640696870172
 20
434.8715017449347
 10
242.9140696870172
 20
424.0461841976291
 10
249.1640696870172
 20
413.2208666503236
 10
261.6640696870172
 20
413.2208666503236
  0
CIRCLE
  5
290
330
1B
100
AcDbEntity
  8
4
100
AcDbCircle
 10
255.4140696870172
 20
424.0461841976291
 30
0.0
 40
12.5
  0
CIRCLE
  5
291
330
1B
100
AcDbEntity
  8
4
100
AcDbCircle
 10
255.4140696870172
 20
424.0461841976291
 30
0.0
 40
14.0
  0
LINE
  5
292
330
1B
100
AcDbEntity
  8
L-CENTER
 48
2.0
100
AcDbLine
 10
255.4140696870172
 20
441.9116777469187
 30
0.0
 11
255.4140696870172
 21
406.1806906483396
 31
0.0
  0
LINE
  5
293
330
1B
100
AcDbEntity
  8
4
100
AcDbLine
 10
209.4143736870172
 20
439.0461841976291
 30
0.0
 11
208.4140696870172
 21
439.0461841976291
 31
0.0
  0
LINE
  5
294
330
1B
100
AcDbEntity
  8
4
100
AcDbLine
 10
206.9140696870172
 20
435.5461841976291
 30
0.0
 11
208.4140696870172
 21
435.5461841976291
 31
0.0
  0
LINE
  5
295
330
1B
100
AcDbEntity
  8
4
100
AcDbLine
 10
204.9140696870172
 20
436.5461841976291
 30
0.0
 11
206.9140696870172
 21
436.5461841976291
 31
0.0
  0
LINE
  5
296
330
1B
100
AcDbEntity
  8
4
100
AcDbLine
 10
210.4143736870172
 20
447.5461841976291
 30
0.0
 11
209.4143736870172
 21
447.5461841976291
 31
0.0
  0
LWPOLYLINE
  5
297
330
1B
100
AcDbEntity
  8
4
100
AcDbPolyline
 90
        2
 70
     0
 43
0.0
 10
204.9140696870172
 20
434.8715017449347
 10
199.9140696870172
 20
434.8715017449347
  0
LINE
  5
298
330
1B
100
AcDbEntity
  8
4
100
AcDbLine
 10
209.4143736870172
 20
400.5461841976291
 30
0.0
 11
210.4143736870172
 21
400.5461841976291
 31
0.0
  0
LINE
  5
299
330
1B
100
AcDbEntity
  8
4
100
AcDbLine
 10
209.4143736870172
 20
409.0461841976291
 30
0.0
 11
208.4140696870172
 21
409.0461841976291
 31
0.0
  0
LINE
  5
29A
330
1B
100
AcDbEntity
  8
4
100
AcDbLine
 10
206.9140696870172
 20
412.5461841976291
 30
0.0
 11
208.4140696870172
 21
412.5461841976291
 31
0.0
  0
LINE
  5
29B
330
1B
100
AcDbEntity
  8
4
100
AcDbLine
 10
204.9140696870172
 20
411.5461841976291
 30
0.0
 11
206.9140696870172
 21
411.5461841976291
 31
0.0
  0
LWPOLYLINE
  5
29C
330
1B
100
AcDbEntity
  8
4
100
AcDbPolyline
 90
        2
 70
     0
 43
0.0
 10
199.9140696870172
 20
413.2208666503236
 10
204.9140696870172
 20
413.2208666503236
  0
LINE
  5
29D
330
1B
100
AcDbEntity
  8
4
100
AcDbLine
 10
212.4140696870172
 20
390.0461841976291
 30
0.0
 11
212.4140696870172
 21
383.0461841976291
 31
0.0
  0
LINE
  5
29E
330
1B
100
AcDbEntity
  8
4
100
AcDbLine
 10
206.9140696870172
 20
411.5461841976291
 30
0.0
 11
206.9140696870172
 21
414.0461841976291
 31
0.0
  0
LINE
  5
29F
330
1B
100
AcDbEntity
  8
4
100
AcDbLine
 10
204.9140696870172
 20
411.5461841976291
 30
0.0
 11
204.9140696870172
 21
414.0461841976291
 31
0.0
  0
LINE
  5
2A0
330
1B
100
AcDbEntity
  8
4
100
AcDbLine
 10
208.4140696870172
 20
409.0461841976291
 30
0.0
 11
208.4140696870172
 21
414.0461841976291
 31
0.0
  0
LINE
  5
2A1
330
1B
100
AcDbEntity
  8
4
100
AcDbLine
 10
199.9140696870172
 20
413.2208666503236
 30
0.0
 11
199.9140696870172
 21
414.0461841976291
 31
0.0
  0
LINE
  5
2A2
330
1B
100
AcDbEntity
  8
4
100
AcDbLine
 10
209.4143736870172
 20
447.5461841976291
 30
0.0
 11
209.4143736870172
 21
400.5461841976291
 31
0.0
  0
LINE
  5
2A3
330
1B
100
AcDbEntity
  8
4
100
AcDbLine
 10
212.4140696870172
 20
456.5461841976291
 30
0.0
 11
212.4140696870172
 21
391.5461841976291
 31
0.0
  0
LINE
  5
2A4
330
1B
100
AcDbEntity
  8
4
100
AcDbLine
 10
210.4140696870172
 20
458.0461841976293
 30
0.0
 11
210.4140696870172
 21
390.0461841976291
 31
0.0
  0
LINE
  5
2A5
330
1B
100
AcDbEntity
  8
4
100
AcDbLine
 10
212.4140696870171
 20
463.3461841976291
 30
0.0
 11
368.4140696870171
 21
463.3461841976291
 31
0.0
  0
LINE
  5
2A6
330
1B
100
AcDbEntity
  8
4
 62
     3
100
AcDbLine
 10
313.4140696870172
 20
390.0461841976291
 30
0.0
 11
210.4140696870172
 21
390.0461841976291
 31
0.0
  0
LINE
  5
2A7
330
1B
100
AcDbEntity
  8
4
 62
     3
100
AcDbLine
 10
370.4140696870172
 20
390.0461841976291
 30
0.0
 11
362.4140696870172
 21
390.0461841976291
 31
0.0
  0
LINE
  5
2A8
330
1B
100
AcDbEntity
  8
4
 62
     3
100
AcDbLine
 10
368.4140696870173
 20
463.046184197629
 30
0.0
 11
212.4140696870172
 21
463.0461841976291
 31
0.0
  0
LINE
  5
2A9
330
1B
100
AcDbEntity
  8
4
 62
     3
100
AcDbLine
 10
370.4140696870172
 20
458.0461841976291
 30
0.0
 11
210.4140696870172
 21
458.0461841976293
 31
0.0
  0
LINE
  5
2AA
330
1B
100
AcDbEntity
  8
4
 62
     3
100
AcDbLine
 10
362.4140696870172
 20
389.5461841976291
 30
0.0
 11
313.4140696870172
 21
389.5461841976291
 31
0.0
  0
LINE
  5
2AB
330
1B
100
AcDbEntity
  8
4
 62
     3
100
AcDbLine
 10
370.4140696870172
 20
391.5461841976291
 30
0.0
 11
210.4140696870172
 21
391.5461841976291
 31
0.0
  0
LINE
  5
2AC
330
1B
100
AcDbEntity
  8
4
 62
     3
100
AcDbLine
 10
368.4140696870172
 20
383.0461841976291
 30
0.0
 11
212.4140696870172
 21
383.0461841976291
 31
0.0
  0
LINE
  5
2AD
330
1B
100
AcDbEntity
  8
4
 62
     3
100
AcDbLine
 10
370.4140696870172
 20
456.5461841976291
 30
0.0
 11
210.4140696870172
 21
456.5461841976291
 31
0.0
  0
LINE
  5
2AE
330
1B
100
AcDbEntity
  8
L-CENTER
 48
2.0
100
AcDbLine
 10
158.1874314287279
 20
424.0461841976291
 30
0.0
 11
403.0339126870172
 21
424.0461841976291
 31
0.0
  0
LINE
  5
2AF
330
1B
100
AcDbEntity
  8
4
100
AcDbLine
 10
213.1640696870172
 20
472.846184197629
 30
0.0
 11
367.6640696870172
 21
472.8461841976291
 31
0.0
  0
LINE
  5
2B0
330
1B
100
AcDbEntity
  8
4
100
AcDbLine
 10
286.9140696870171
 20
534.0461841976291
 30
0.0
 11
286.9140696870171
 21
500.5461841976291
 31
0.0
  0
LINE
  5
2B1
330
1B
100
AcDbEntity
  8
4
100
AcDbLine
 10
293.9140696870171
 20
534.0461841976291
 30
0.0
 11
293.9140696870171
 21
500.5461841976291
 31
0.0
  0
LINE
  5
2B2
330
1B
100
AcDbEntity
  8
4
100
AcDbLine
 10
302.4140696870171
 20
494.5461841976291
 30
0.0
 11
302.4140696870171
 21
533.0461841976291
 31
0.0
  0
LINE
  5
2B3
330
1B
100
AcDbEntity
  8
4
100
AcDbLine
 10
278.4140696870172
 20
494.5461841976291
 30
0.0
 11
278.4140696870171
 21
533.0461841976291
 31
0.0
  0
ARC
  5
2B4
330
1B
100
AcDbEntity
  8
4
 62
     3
100
AcDbCircle
 10
394.9140696870172
 20
367.0461841976291
 30
0.0
 40
3.0
100
AcDbArc
 50
270.0
 51
0.0
  0
ARC
  5
2B5
330
1B
100
AcDbEntity
  8
4
 62
     3
100
AcDbCircle
 10
362.8157356870172
 20
367.0461841976291
 30
0.0
 40
3.0
100
AcDbArc
 50
181.9091520000001
 51
270.0
  0
LINE
  5
2B6
330
1B
100
AcDbEntity
  8
4
 62
     3
100
AcDbLine
 10
362.8157356870172
 20
364.0461841976291
 30
0.0
 11
394.9140696870172
 21
364.0461841976291
 31
0.0
  0
LINE
  5
2B7
330
1B
100
AcDbEntity
  8
L-CENTER
 48
2.0
100
AcDbLine
 10
374.4701606870171
 20
379.0461841976291
 30
0.0
 11
396.3720926870172
 21
379.0461841976291
 31
0.0
  0
ARC
  5
2B8
330
1B
100
AcDbEntity
  8
4
 62
     3
100
AcDbCircle
 10
319.5669426870172
 20
370.0461841976291
 30
0.0
 40
1.0
100
AcDbArc
 50
270.0
 51
350.5376779999999
  0
LINE
  5
2B9
330
1B
100
AcDbEntity
  8
4
100
AcDbLine
 10
314.9140696870172
 20
378.0461841976291
 30
0.0
 11
314.9140696870172
 21
381.6981841976291
 31
0.0
  0
ARC
  5
2BA
330
1B
100
AcDbEntity
  8
4
 62
     3
100
AcDbCircle
 10
323.6525686870173
 20
376.3116501976292
 30
0.0
 40
2.0
100
AcDbArc
 50
99.59313400000079
 51
170.5376779999999
  0
LINE
  5
2BB
330
1B
100
AcDbEntity
  8
4
 62
     3
100
AcDbLine
 10
320.5533366870172
 20
369.8817851976291
 30
0.0
 11
321.6797806870172
 21
376.6404481976292
 31
0.0
  0
ARC
  5
2BC
330
1B
100
AcDbEntity
  8
4
 62
     3
100
AcDbCircle
 10
261.2611966870172
 20
370.0461841976291
 30
0.0
 40
1.0
100
AcDbArc
 50
189.4623220000001
 51
270.0
  0
ARC
  5
2BD
330
1B
100
AcDbEntity
  8
4
 62
     3
100
AcDbCircle
 10
257.1755706870172
 20
376.3116501976292
 30
0.0
 40
2.0
100
AcDbArc
 50
9.46232200000015
 51
80.40686600000083
  0
LINE
  5
2BE
330
1B
100
AcDbEntity
  8
4
 62
     3
100
AcDbLine
 10
260.2748026870172
 20
369.8817851976291
 30
0.0
 11
259.1483586870172
 21
376.6404481976292
 31
0.0
  0
LINE
  5
2BF
330
1B
100
AcDbEntity
  8
4
100
AcDbLine
 10
265.9140696870172
 20
378.0461841976291
 30
0.0
 11
265.9140696870172
 21
381.6981841976291
 31
0.0
  0
LINE
  5
2C0
330
1B
100
AcDbEntity
  8
4
 62
     3
100
AcDbLine
 10
265.9140696870172
 20
381.6981841976291
 30
0.0
 11
314.9140696870172
 21
381.6981841976293
 31
0.0
  0
LINE
  5
2C1
330
1B
100
AcDbEntity
  8
4
 62
     3
100
AcDbLine
 10
258.9140696870172
 20
378.0461841976291
 30
0.0
 11
321.9140696870172
 21
378.0461841976291
 31
0.0
  0
LINE
  5
2C2
330
1B
100
AcDbEntity
  8
4
 62
     3
100
AcDbLine
 10
319.5669426870172
 20
369.0461841976291
 30
0.0
 11
261.2611966870172
 21
369.0461841976291
 31
0.0
  0
LINE
  5
2C3
330
1B
100
AcDbEntity
  8
L-CENTER
 48
2.0
100
AcDbLine
 10
184.4560466870172
 20
379.0461841976291
 30
0.0
 11
206.3720926870172
 21
379.0461841976291
 31
0.0
  0
LINE
  5
2C4
330
1B
100
AcDbEntity
  8
4
 62
     3
100
AcDbLine
 10
185.9140696870172
 20
364.0461841976291
 30
0.0
 11
218.0124036870172
 21
364.0461841976291
 31
0.0
  0
ARC
  5
2C5
330
1B
100
AcDbEntity
  8
4
 62
     3
100
AcDbCircle
 10
185.9140696870172
 20
367.0461841976291
 30
0.0
 40
3.0
100
AcDbArc
 50
180.0
 51
270.0
  0
ARC
  5
2C6
330
1B
100
AcDbEntity
  8
4
 62
     3
100
AcDbCircle
 10
218.0124036870172
 20
367.0461841976291
 30
0.0
 40
3.0
100
AcDbArc
 50
270.0
 51
358.0908479999999
  0
LINE
  5
2D1
330
1B
100
AcDbEntity
  8
4
100
AcDbLine
 10
160.4140696870173
 20
226.218074822808
 30
0.0
 11
161.4140696870173
 21
227.218074822808
 31
0.0
  0
LINE
  5
2D2
330
1B
100
AcDbEntity
  8
4
100
AcDbLine
 10
192.4140696870173
 20
229.218074822808
 30
0.0
 11
192.4140696870173
 21
227.218074822808
 31
0.0
  0
LINE
  5
2D3
330
1B
100
AcDbEntity
  8
4
100
AcDbLine
 10
160.4140696870173
 20
229.218074822808
 30
0.0
 11
192.4140696870173
 21
229.218074822808
 31
0.0
  0
LINE
  5
2D4
330
1B
100
AcDbEntity
  8
4
 62
     3
100
AcDbLine
 10
369.3505616870173
 20
250.7180748228082
 30
0.0
 11
370.4140696870172
 21
250.7180748228082
 31
0.0
  0
ARC
  5
2D5
330
1B
100
AcDbEntity
  8
4
 62
     3
100
AcDbCircle
 10
369.3505616870173
 20
251.7180748228082
 30
0.0
 40
1.0
100
AcDbArc
 50
194.4775120000017
 51
270.0
  0
LINE
  5
2D6
330
1B
100
AcDbEntity
  8
4
100
AcDbLine
 10
371.4140696870172
 20
241.7180748228083
 30
0.0
 11
370.4140696870172
 21
241.7180748228083
 31
0.0
  0
ARC
  5
2D7
330
1B
100
AcDbEntity
  8
4
 62
     3
100
AcDbCircle
 10
367.4140696870172
 20
251.2180748228082
 30
0.0
 40
1.0
100
AcDbArc
 50
0.0
 51
90.0
  0
LINE
  5
2D8
330
1B
100
AcDbEntity
  8
4
100
AcDbLine
 10
209.4140696870173
 20
228.2180748228081
 30
0.0
 11
195.4140696870173
 21
228.218074822808
 31
0.0
  0
ARC
  5
2D9
330
1B
100
AcDbEntity
  8
4
 62
     3
100
AcDbCircle
 10
369.4140696870172
 20
229.2180748228082
 30
0.0
 40
1.0
100
AcDbArc
 50
180.0
 51
270.0
  0
LINE
  5
2DA
330
1B
100
AcDbEntity
  8
4
 62
     3
100
AcDbLine
 10
368.4140696870172
 20
229.2180748228082
 30
0.0
 11
368.4140696870172
 21
251.2180748228082
 31
0.0
  0
LINE
  5
2DB
330
1B
100
AcDbEntity
  8
4
100
AcDbLine
 10
195.4140696870173
 20
227.218074822808
 30
0.0
 11
161.4140696870173
 21
227.218074822808
 31
0.0
  0
LINE
  5
2DD
330
1B
100
AcDbEntity
  8
4
100
AcDbLine
 10
161.4140696870173
 20
209.218074822808
 30
0.0
 11
160.4140696870173
 21
210.218074822808
 31
0.0
  0
LINE
  5
2DE
330
1B
100
AcDbEntity
  8
4
100
AcDbLine
 10
195.4140696870173
 20
208.218074822808
 30
0.0
 11
209.4140696870173
 21
208.2180748228081
 31
0.0
  0
ARC
  5
2DF
330
1B
100
AcDbEntity
  8
4
 62
     3
100
AcDbCircle
 10
369.4140696870172
 20
207.2180748228082
 30
0.0
 40
1.0
100
AcDbArc
 50
90.0
 51
180.0
  0
ARC
  5
2E0
330
1B
100
AcDbEntity
  8
4
 62
     3
100
AcDbCircle
 10
358.5689036870172
 20
210.3729088228081
 30
0.0
 40
3.0
100
AcDbArc
 50
14.78908400000021
 51
75.21091599999983
  0
LINE
  5
2E1
330
1B
100
AcDbEntity
  8
4
100
AcDbLine
 10
371.4140696870172
 20
194.7180748228083
 30
0.0
 11
370.4140696870172
 21
194.7180748228083
 31
0.0
  0
LINE
  5
2E2
330
1B
100
AcDbEntity
  8
4
100
AcDbLine
 10
195.4140696870173
 20
209.218074822808
 30
0.0
 11
161.4140696870173
 21
209.218074822808
 31
0.0
  0
LINE
  5
2E3
330
1B
100
AcDbEntity
  8
4
100
AcDbLine
 10
371.4140696870172
 20
194.7180748228083
 30
0.0
 11
371.4140696870172
 21
241.7180748228083
 31
0.0
  0
LINE
  5
2E4
330
1B
100
AcDbEntity
  8
4
100
AcDbLine
 10
195.4140696870173
 20
228.218074822808
 30
0.0
 11
195.4140696870173
 21
208.218074822808
 31
0.0
  0
LINE
  5
2E5
330
1B
100
AcDbEntity
  8
4
100
AcDbLine
 10
161.4140696870173
 20
209.218074822808
 30
0.0
 11
161.4140696870173
 21
227.218074822808
 31
0.0
  0
LINE
  5
2E6
330
1B
100
AcDbEntity
  8
4
100
AcDbLine
 10
160.4140696870173
 20
229.218074822808
 30
0.0
 11
160.4140696870173
 21
210.218074822808
 31
0.0
  0
LINE
  5
2F1
330
1B
100
AcDbEntity
  8
4
100
AcDbLine
 10
267.9140696870172
 20
254.7180748228082
 30
0.0
 11
267.9140696870172
 21
260.7180748228082
 31
0.0
  0
LINE
  5
2F2
330
1B
100
AcDbEntity
  8
4
100
AcDbLine
 10
261.6640696870172
 20
256.7180748228082
 30
0.0
 11
261.6640696870172
 21
260.7180748228082
 31
0.0
  0
LINE
  5
2F3
330
1B
100
AcDbEntity
  8
4
100
AcDbLine
 10
242.9140696870172
 20
254.7180748228082
 30
0.0
 11
242.9140696870172
 21
260.7180748228082
 31
0.0
  0
LINE
  5
2F4
330
1B
100
AcDbEntity
  8
4
100
AcDbLine
 10
249.1640696870172
 20
256.7180748228082
 30
0.0
 11
249.1640696870172
 21
260.7180748228082
 31
0.0
  0
LINE
  5
2F5
330
1B
100
AcDbEntity
  8
4
100
AcDbLine
 10
242.9140696870172
 20
254.7180748228082
 30
0.0
 11
267.9140696870172
 21
254.7180748228082
 31
0.0
  0
LINE
  5
2F6
330
1B
100
AcDbEntity
  8
4
100
AcDbLine
 10
242.9140696870172
 20
256.7180748228082
 30
0.0
 11
267.9140696870172
 21
256.7180748228082
 31
0.0
  0
LINE
  5
2F7
330
1B
100
AcDbEntity
  8
4
100
AcDbLine
 10
242.9140696870172
 20
260.7180748228082
 30
0.0
 11
267.9140696870172
 21
260.7180748228082
 31
0.0
  0
LINE
  5
2FD
330
1B
100
AcDbEntity
  8
4
 62
     3
100
AcDbLine
 10
269.4140696870172
 20
253.2180748228082
 30
0.0
 11
269.4140696870172
 21
253.1180748228082
 31
0.0
  0
ARC
  5
2FE
330
1B
100
AcDbEntity
  8
4
 62
     3
100
AcDbCircle
 10
270.3140696870173
 20
253.1180748228082
 30
0.0
 40
0.9
100
AcDbArc
 50
180.0
 51
270.0
  0
LINE
  5
2FF
330
1B
100
AcDbEntity
  8
4
 62
     3
100
AcDbLine
 10
241.4140696870172
 20
253.2180748228082
 30
0.0
 11
241.4140696870172
 21
253.1180748228082
 31
0.0
  0
LINE
  5
300
330
1B
100
AcDbEntity
  8
4
100
AcDbLine
 10
241.4140696870172
 20
253.2180748228082
 30
0.0
 11
241.4140696870172
 21
253.2080748228082
 31
0.0
  0
ARC
  5
301
330
1B
100
AcDbEntity
  8
4
 62
     3
100
AcDbCircle
 10
240.5140696870171
 20
253.1180748228082
 30
0.0
 40
0.9
100
AcDbArc
 50
270.0
 51
0.0
  0
LINE
  5
302
330
1B
100
AcDbEntity
  8
4
 62
     3
100
AcDbLine
 10
269.4140696870172
 20
253.2180748228082
 30
0.0
 11
241.4140696870172
 21
253.2180748228082
 31
0.0
  0
LINE
  5
303
330
1B
100
AcDbEntity
  8
4
100
AcDbLine
 10
243.9140696870172
 20
253.2180748228082
 30
0.0
 11
266.9140696870172
 21
253.2180748228082
 31
0.0
  0
ARC
  5
304
330
1B
100
AcDbEntity
  8
4
 62
     3
100
AcDbCircle
 10
213.4140696870172
 20
251.2180748228082
 30
0.0
 40
1.0
100
AcDbArc
 50
90.0
 51
180.0
  0
ARC
  5
305
330
1B
100
AcDbEntity
  8
4
 62
     3
100
AcDbCircle
 10
213.4140696870172
 20
251.2180748228082
 30
0.0
 40
1.0
100
AcDbArc
 50
90.0
 51
165.5224879999987
  0
ARC
  5
306
330
1B
100
AcDbEntity
  8
4
 62
     3
100
AcDbCircle
 10
211.4775776870172
 20
251.7180748228082
 30
0.0
 40
1.0
100
AcDbArc
 50
270.0
 51
345.5224879999987
  0
LINE
  5
307
330
1B
100
AcDbEntity
  8
4
 62
     3
100
AcDbLine
 10
211.4775776870172
 20
250.7180748228082
 30
0.0
 11
210.4140696870172
 21
250.7180748228082
 31
0.0
  0
LINE
  5
308
330
1B
100
AcDbEntity
  8
4
 62
     3
100
AcDbLine
 10
211.4775776870172
 20
250.7180748228082
 30
0.0
 11
210.4140696870172
 21
250.7180748228082
 31
0.0
  0
ARC
  5
309
330
1B
100
AcDbEntity
  8
4
 62
     3
100
AcDbCircle
 10
211.4775776870172
 20
251.7180748228082
 30
0.0
 40
1.0
100
AcDbArc
 50
270.0
 51
345.5224879999987
  0
LINE
  5
30A
330
1B
100
AcDbEntity
  8
4
100
AcDbLine
 10
210.4143736870172
 20
241.7180748228083
 30
0.0
 11
209.4143736870172
 21
241.7180748228083
 31
0.0
  0
ARC
  5
30B
330
1B
100
AcDbEntity
  8
4
 62
     3
100
AcDbCircle
 10
211.4140696870172
 20
229.2180748228082
 30
0.0
 40
1.0
100
AcDbArc
 50
270.0
 51
0.0
  0
LINE
  5
30C
330
1B
100
AcDbEntity
  8
4
 62
     3
100
AcDbLine
 10
212.4140696870172
 20
229.2180748228082
 30
0.0
 11
212.4140696870172
 21
251.2180748228082
 31
0.0
  0
ARC
  5
30D
330
1B
100
AcDbEntity
  8
4
 62
     3
100
AcDbCircle
 10
211.4140696870172
 20
207.2180748228082
 30
0.0
 40
1.0
100
AcDbArc
 50
0.0
 51
90.0
  0
ARC
  5
30E
330
1B
100
AcDbEntity
  8
4
 62
     3
100
AcDbCircle
 10
222.2592356870173
 20
210.3729088228081
 30
0.0
 40
3.0
100
AcDbArc
 50
104.7890840000002
 51
165.2109159999998
  0
LINE
  5
30F
330
1B
100
AcDbEntity
  8
4
100
AcDbLine
 10
209.4143736870172
 20
194.7180748228083
 30
0.0
 11
210.4143736870172
 21
194.7180748228083
 31
0.0
  0
LINE
  5
310
330
1B
100
AcDbEntity
  8
4
100
AcDbLine
 10
209.4143736870172
 20
241.7180748228083
 30
0.0
 11
209.4143736870172
 21
194.7180748228083
 31
0.0
  0
ARC
  5
311
330
1B
100
AcDbEntity
  8
4
 62
     3
100
AcDbCircle
 10
290.4140696870172
 20
-47.78192517719179
 30
0.0
 40
270.0
100
AcDbArc
 50
90.0
 51
104.789084
  0
LINE
  5
313
330
1B
100
AcDbEntity
  8
L-CENTER
 48
2.0
100
AcDbLine
 10
255.4140696870172
 20
245.5915828228082
 30
0.0
 11
255.4140696870172
 21
265.5802248317662
 31
0.0
  0
LINE
  5
314
330
1B
100
AcDbEntity
  8
4
100
AcDbLine
 10
243.9140696870172
 20
253.2180748228082
 30
0.0
 11
243.9140696870172
 21
254.7180748228082
 31
0.0
  0
LINE
  5
315
330
1B
100
AcDbEntity
  8
4
100
AcDbLine
 10
266.9140696870172
 20
253.2180748228082
 30
0.0
 11
266.9140696870172
 21
254.7180748228082
 31
0.0
  0
LINE
  5
316
330
1B
100
AcDbEntity
  8
L-CENTER
 48
2.0
100
AcDbLine
 10
157.1983353892784
 20
218.2180748228078
 30
0.0
 11
374.9517070953353
 21
218.2180748228085
 31
0.0
  0
ARC
  5
319
330
1B
100
AcDbEntity
  8
4
 62
     3
100
AcDbCircle
 10
290.4140696870172
 20
-47.78192517719179
 30
0.0
 40
270.0
100
AcDbArc
 50
75.210916
 51
90.0
  0
LINE
  5
31A
330
1B
100
AcDbEntity
  8
4
 62
     3
100
AcDbLine
 10
213.4140696870172
 20
252.2180748228083
 30
0.0
 11
367.4140696870172
 21
252.2180748228082
 31
0.0
  0
LINE
  5
31B
330
1B
100
AcDbEntity
  8
L-CENTER
 48
2.0
100
AcDbLine
 10
195.4140696870172
 20
390.0042071976292
 30
0.0
 11
195.4140696870172
 21
368.0881611976291
 31
0.0
  0
LINE
  5
31C
330
1B
100
AcDbEntity
  8
4
 62
     3
100
AcDbLine
 10
182.9140696870172
 20
481.0461841976291
 30
0.0
 11
182.9140696870172
 21
433.0461841976291
 31
0.0
  0
CIRCLE
  5
31D
330
1B
100
AcDbEntity
  8
4
 62
     3
100
AcDbCircle
 10
195.4140696870172
 20
379.0461841976291
 30
0.0
 40
5.5
  0
LINE
  5
31E
330
1B
100
AcDbEntity
  8
4
 62
     3
100
AcDbLine
 10
397.9140696870172
 20
481.0461841976291
 30
0.0
 11
397.9140696870172
 21
367.0461841976291
 31
0.0
  0
LINE
  5
31F
330
1B
100
AcDbEntity
  8
L-CENTER
 48
2.0
100
AcDbLine
 10
385.4140696870172
 20
368.0881611976291
 30
0.0
 11
385.4140696870172
 21
390.0042071976292
 31
0.0
  0
LINE
  5
320
330
1B
100
AcDbEntity
  8
L-CENTER
 48
2.0
100
AcDbLine
 10
290.4140696870172
 20
538.2256062353847
 30
0.0
 11
290.4140696870172
 21
364.1361041976292
 31
0.0
  0
LINE
  5
321
330
1B
100
AcDbEntity
  8
4
 62
     3
100
AcDbLine
 10
351.4974026870173
 20
383.0461841976291
 30
0.0
 11
323.3192666870173
 21
378.2836821976291
 31
0.0
  0
LINE
  5
322
330
1B
100
AcDbEntity
  8
4
 62
     3
100
AcDbLine
 10
229.3307366870172
 20
383.0461841976291
 30
0.0
 11
257.5088726870172
 21
378.2836821976291
 31
0.0
  0
LINE
  5
323
330
1B
100
AcDbEntity
  8
4
 62
     3
100
AcDbLine
 10
221.0107386870172
 20
366.9462401976291
 30
0.0
 11
221.5474033554356
 21
383.0461841976291
 31
0.0
  0
LINE
  5
324
330
1B
100
AcDbEntity
  8
4
 62
     3
100
AcDbLine
 10
359.8174006870172
 20
366.9462401976291
 30
0.0
 11
359.2807360185988
 21
383.0461841976291
 31
0.0
  0
CIRCLE
  5
325
330
1B
100
AcDbEntity
  8
4
 62
     3
100
AcDbCircle
 10
385.4140696870172
 20
379.0461841976291
 30
0.0
 40
5.5
  0
LINE
  5
32B
330
1B
100
AcDbEntity
  8
4
100
AcDbLine
 10
675.3782321522486
 20
153.2180748228082
 30
0.0
 11
674.3782321522486
 21
154.2180748228082
 31
0.0
  0
LINE
  5
32C
330
1B
100
AcDbEntity
  8
4
100
AcDbLine
 10
674.3782321522486
 20
130.2180748228082
 30
0.0
 11
675.3782321522486
 21
131.2180748228082
 31
0.0
  0
LINE
  5
32D
330
1B
100
AcDbEntity
  8
4
100
AcDbLine
 10
674.3782321522486
 20
154.2180748228082
 30
0.0
 11
674.3782321522486
 21
130.2180748228082
 31
0.0
  0
LINE
  5
32F
330
1B
100
AcDbEntity
  8
4
100
AcDbLine
 10
675.3782321522486
 20
157.2180748228082
 30
0.0
 11
675.3782321522486
 21
131.2180748228082
 31
0.0
  0
ARC
  5
331
330
1B
100
AcDbEntity
  8
4
100
AcDbCircle
 10
616.0388713787044
 20
175.4075164797973
 30
0.0
 40
2.0
100
AcDbArc
 50
201.5153082470839
 51
259.5085229876691
  0
LINE
  5
332
330
1B
100
AcDbEntity
  8
4
  6
Continuous
 62
     3
100
AcDbLine
 10
614.1782321522486
 20
185.2614712034209
 30
0.0
 11
615.1926776874928
 21
173.5953475481152
 31
0.0
  0
LINE
  5
333
330
1B
100
AcDbEntity
  8
4
100
AcDbLine
 10
622.2780361522488
 20
165.7180748228082
 30
0.0
 11
623.2780361522488
 21
165.7180748228082
 31
0.0
  0
LINE
  5
334
330
1B
100
AcDbEntity
  8
4
100
AcDbLine
 10
615.6746928583397
 20
173.4409524698283
 30
0.0
 11
621.4603214124307
 21
172.3695397746263
 31
0.0
  0
ARC
  5
335
330
1B
100
AcDbEntity
  8
4
100
AcDbCircle
 10
621.2782321522485
 20
171.3862577696419
 30
0.0
 40
1.0
100
AcDbArc
 50
0.0
 51
79.50852298766591
  0
LINE
  5
336
330
1B
100
AcDbEntity
  8
4
100
AcDbLine
 10
620.4782321522486
 20
146.4680748228082
 30
0.0
 11
614.1782321522486
 21
146.4680748228082
 31
0.0
  0
LINE
  5
337
330
1B
100
AcDbEntity
  8
2
100
AcDbLine
 10
614.1782321522486
 20
142.2180748228082
 30
0.0
 11
615.4782321522486
 21
143.5180748228082
 31
0.0
  0
LINE
  5
338
330
1B
100
AcDbEntity
  8
2
100
AcDbLine
 10
614.1782321522486
 20
140.3795971917232
 30
0.0
 11
615.4782321522486
 21
141.6795971917232
 31
0.0
  0
LINE
  5
339
330
1B
100
AcDbEntity
  8
4
100
AcDbLine
 10
635.3782321522486
 20
154.7180748228082
 30
0.0
 11
623.2780361522488
 21
154.7180748228082
 31
0.0
  0
LINE
  5
33A
330
1B
100
AcDbEntity
  8
4
100
AcDbLine
 10
620.4782321522486
 20
137.9680748228082
 30
0.0
 11
614.1782321522486
 21
137.9680748228082
 31
0.0
  0
LINE
  5
33B
330
1B
100
AcDbEntity
  8
4
100
AcDbLine
 10
635.3782321522486
 20
129.7180748228082
 30
0.0
 11
623.2780361522488
 21
129.7180748228082
 31
0.0
  0
LINE
  5
33C
330
1B
100
AcDbEntity
  8
4
100
AcDbLine
 10
635.3782321522486
 20
154.7180748228082
 30
0.0
 11
635.3782321522486
 21
129.7180748228082
 31
0.0
  0
LINE
  5
33D
330
1B
100
AcDbEntity
  8
4
100
AcDbLine
 10
615.4782321522486
 20
137.9680748228082
 30
0.0
 11
615.4782321522486
 21
146.4680748228082
 31
0.0
  0
LINE
  5
33E
330
1B
100
AcDbEntity
  8
4
100
AcDbLine
 10
620.4782321522486
 20
137.9680748228082
 30
0.0
 11
620.4782321522486
 21
146.4680748228082
 31
0.0
  0
LINE
  5
340
330
1B
100
AcDbEntity
  8
4
100
AcDbLine
 10
638.3782321522486
 20
157.2180748228082
 30
0.0
 11
638.3782321522486
 21
154.2180748228082
 31
0.0
  0
ARC
  5
341
330
1B
100
AcDbEntity
  8
4
100
AcDbCircle
 10
517.6507641522486
 20
175.4577508228082
 30
0.0
 40
2.0
100
AcDbArc
 50
279.4623220000002
 51
350.1341929999993
  0
LINE
  5
342
330
1B
100
AcDbEntity
  8
4
100
AcDbLine
 10
517.7070301522486
 20
173.4395408228082
 30
0.0
 11
517.9795621522486
 21
173.4849628228082
 31
0.0
  0
LINE
  5
343
330
1B
100
AcDbEntity
  8
4
100
AcDbLine
 10
518.332922566664
 20
159.7180743524589
 30
0.0
 11
519.3782315908883
 21
159.7180743524589
 31
0.0
  0
LINE
  5
344
330
1B
100
AcDbEntity
  8
4
100
AcDbLine
 10
519.3782315908883
 20
159.7180743524589
 30
0.0
 11
524.3782321522486
 21
158.0129319837118
 31
0.0
  0
LINE
  5
345
330
1B
100
AcDbEntity
  8
4
100
AcDbLine
 10
518.332922566664
 20
159.7180743524589
 30
0.0
 11
524.3782321522486
 21
157.6564518826069
 31
0.0
  0
LINE
  5
346
330
1B
100
AcDbEntity
  8
4
 62
     3
100
AcDbLine
 10
511.2138331522486
 20
172.3573418228082
 30
0.0
 11
517.7070301522486
 21
173.4395408228082
 31
0.0
  0
ARC
  5
347
330
1B
100
AcDbEntity
  8
4
 62
     3
100
AcDbCircle
 10
511.3782321522486
 20
171.3709478228082
 30
0.0
 40
1.0
100
AcDbArc
 50
99.46232200000019
 51
180.0
  0
LINE
  5
348
330
1B
100
AcDbEntity
  8
4
100
AcDbLine
 10
519.3782315908883
 20
159.7180743524589
 30
0.0
 11
519.3782315908883
 21
173.6309987387397
 31
0.0
  0
LINE
  5
34A
330
1B
100
AcDbEntity
  8
4
100
AcDbLine
 10
518.332922566664
 20
124.7180752931575
 30
0.0
 11
519.3782315908883
 21
124.7180752931575
 31
0.0
  0
LINE
  5
34B
330
1B
100
AcDbEntity
  8
4
100
AcDbLine
 10
518.332922566664
 20
124.7180752931575
 30
0.0
 11
524.3782321522486
 21
126.7796977630096
 31
0.0
  0
LINE
  5
34C
330
1B
100
AcDbEntity
  8
4
100
AcDbLine
 10
519.3782315908883
 20
124.7180752931575
 30
0.0
 11
524.3782321522486
 21
126.4232176619046
 31
0.0
  0
LINE
  5
352
330
1B
100
AcDbEntity
  8
4
100
AcDbLine
 10
518.332922566664
 20
124.7180752931577
 30
0.0
 11
518.332922566664
 21
159.7180743524589
 31
0.0
  0
LINE
  5
353
330
1B
100
AcDbEntity
  8
4
100
AcDbLine
 10
615.6746928583397
 20
110.9951971757881
 30
0.0
 11
621.4603214124307
 21
112.0666098709901
 31
0.0
  0
ARC
  5
354
330
1B
100
AcDbEntity
  8
4
100
AcDbCircle
 10
616.0388713787041
 20
109.0286331658191
 30
0.0
 40
2.0
100
AcDbArc
 50
100.4914770123309
 51
112.4563817741526
  0
ARC
  5
355
330
1B
100
AcDbEntity
  8
4
100
AcDbCircle
 10
616.0388713787041
 20
109.0286331658191
 30
0.0
 40
2.0
100
AcDbArc
 50
115.0302592718877
 51
175.0302592718904
  0
ARC
  5
356
330
1B
100
AcDbEntity
  8
4
100
AcDbCircle
 10
621.2782321522485
 20
113.0498918759745
 30
0.0
 40
1.0
100
AcDbArc
 50
280.491477012334
 51
0.0
  0
LINE
  5
357
330
1B
100
AcDbEntity
  8
4
100
AcDbLine
 10
623.2780361522488
 20
118.7180748228082
 30
0.0
 11
622.2780361522488
 21
118.7180748228082
 31
0.0
  0
LINE
  5
358
330
1B
100
AcDbEntity
  8
4
100
AcDbLine
 10
614.1782321522484
 20
99.17467844219294
 30
0.0
 11
615.1926776874928
 21
110.8408020975012
 31
0.0
  0
LINE
  5
359
330
1B
100
AcDbEntity
  8
4
100
AcDbLine
 10
620.4782321522486
 20
83.24822055860363
 30
0.0
 11
614.1782321522486
 21
83.24822055860363
 31
0.0
  0
LINE
  5
35A
330
1B
100
AcDbEntity
  8
2
100
AcDbLine
 10
614.1782321522486
 20
77.15974292751866
 30
0.0
 11
615.4782321522486
 21
78.45974292751868
 31
0.0
  0
LINE
  5
35B
330
1B
100
AcDbEntity
  8
2
100
AcDbLine
 10
614.1782321522486
 20
78.99822055860363
 30
0.0
 11
615.4782321522486
 21
80.29822055860365
 31
0.0
  0
ARC
  5
35C
330
1B
100
AcDbEntity
  8
4
 62
     3
100
AcDbCircle
 10
624.3782321522486
 20
69.2180748228082
 30
0.0
 40
1.0
100
AcDbArc
 50
0.0
 51
90.0
  0
LINE
  5
35D
330
1B
100
AcDbEntity
  8
4
100
AcDbLine
 10
620.4782321522486
 20
74.74822055860363
 30
0.0
 11
614.1782321522486
 21
74.74822055860363
 31
0.0
  0
LINE
  5
35E
330
1B
100
AcDbEntity
  8
4
100
AcDbLine
 10
615.4782321522486
 20
74.74822055860363
 30
0.0
 11
615.4782321522486
 21
83.24822055860363
 31
0.0
  0
LINE
  5
35F
330
1B
100
AcDbEntity
  8
4
100
AcDbLine
 10
620.4782321522486
 20
74.74822055860363
 30
0.0
 11
620.4782321522486
 21
83.24822055860363
 31
0.0
  0
LINE
  5
360
330
1B
100
AcDbEntity
  8
L-CENTER
 48
2.0
100
AcDbLine
 10
623.0115741293295
 20
78.99822055860363
 30
0.0
 11
596.6196754924559
 21
78.99822055860363
 31
0.0
  0
LINE
  5
361
330
1B
100
AcDbEntity
  8
4
 62
     3
100
AcDbLine
 10
511.2138331522486
 20
112.0788078228082
 30
0.0
 11
517.9113230644256
 21
110.96255989438
 31
0.0
  0
ARC
  5
362
330
1B
100
AcDbEntity
  8
4
 62
     3
100
AcDbCircle
 10
511.3782321522486
 20
113.0652018228082
 30
0.0
 40
1.0
100
AcDbArc
 50
180.0
 51
260.5376779999998
  0
ARC
  5
363
330
1B
100
AcDbEntity
  8
4
100
AcDbCircle
 10
517.6507641522486
 20
108.9783988228082
 30
0.0
 40
2.0
100
AcDbArc
 50
9.86580700000068
 51
80.53767799999983
  0
ARC
  5
364
330
1B
100
AcDbEntity
  8
4
 62
     3
100
AcDbCircle
 10
516.6054551522485
 20
109.1526168228082
 30
0.0
 40
2.0
100
AcDbArc
 50
9.86580700000068
 51
80.53767799999983
  0
LINE
  5
365
330
1B
100
AcDbEntity
  8
4
100
AcDbLine
 10
516.9342531522485
 20
111.1254048228082
 30
0.0
 11
517.9795621522486
 21
110.9511868228082
 31
0.0
  0
ARC
  5
366
330
1B
100
AcDbEntity
  8
4
 62
     3
100
AcDbCircle
 10
506.3782321522486
 20
69.2180748228082
 30
0.0
 40
1.0
100
AcDbArc
 50
90.0
 51
180.0
  0
LINE
  5
368
330
1B
100
AcDbEntity
  8
4
 62
     3
100
AcDbLine
 10
518.5756212093951
 20
109.4967762441048
 30
0.0
 11
524.3782321522486
 21
76.13176582280818
 31
0.0
  0
LINE
  5
369
330
1B
100
AcDbEntity
  8
4
100
AcDbLine
 10
519.620930210593
 20
109.3225582372484
 30
0.0
 11
524.3782321522486
 21
81.96807354487561
 31
0.0
  0
LINE
  5
36A
330
1B
100
AcDbEntity
  8
4
 62
     3
100
AcDbLine
 10
506.3782321522486
 20
70.2180748228082
 30
0.0
 11
624.3782321522486
 21
70.2180748228082
 31
0.0
  0
LINE
  5
36B
330
1B
100
AcDbEntity
  8
4
 62
     3
100
AcDbLine
 10
510.3782321522486
 20
113.0652018228082
 30
0.0
 11
510.3782321522486
 21
171.3709478228082
 31
0.0
  0
LINE
  5
36C
330
1B
100
AcDbEntity
  8
4
100
AcDbLine
 10
532.8782321522486
 20
129.7488352790268
 30
0.0
 11
532.8782321522486
 21
70.21807482280815
 31
0.0
  0
LINE
  5
36D
330
1B
100
AcDbEntity
  8
4
100
AcDbLine
 10
519.3782315908883
 20
110.7180752254474
 30
0.0
 11
519.3782315908883
 21
124.7180752931575
 31
0.0
  0
LINE
  5
36E
330
1B
100
AcDbEntity
  8
4
100
AcDbLine
 10
597.8782321522486
 20
129.7488352790268
 30
0.0
 11
597.8782321522486
 21
70.21807482280815
 31
0.0
  0
LINE
  5
36F
330
1B
100
AcDbEntity
  8
4
100
AcDbLine
 10
622.2782321522485
 20
171.3862577696419
 30
0.0
 11
622.2782321522485
 21
113.0498918759745
 31
0.0
  0
LINE
  5
370
330
1B
100
AcDbEntity
  8
4
100
AcDbLine
 10
623.2780361522488
 20
165.7180748228082
 30
0.0
 11
623.2780361522488
 21
118.7180748228082
 31
0.0
  0
LINE
  5
371
330
1B
100
AcDbEntity
  8
L-CENTER
 48
2.0
100
AcDbLine
 10
679.3083296451288
 20
142.2180748228082
 30
0.0
 11
505.2342903757632
 21
142.2180748228082
 31
0.0
  0
LINE
  5
373
330
1B
100
AcDbEntity
  8
4
100
AcDbLine
 10
675.3782321522486
 20
157.2180748228082
 30
0.0
 11
638.3782321522486
 21
157.2180748228082
 31
0.0
  0
LINE
  5
374
330
1B
100
AcDbEntity
  8
4
100
AcDbLine
 10
635.3782321522486
 20
154.2180748228082
 30
0.0
 11
674.3782321522486
 21
154.2180748228082
 31
0.0
  0
LINE
  5
375
330
1B
100
AcDbEntity
  8
4
100
AcDbLine
 10
635.3782321522486
 20
130.2180748228082
 30
0.0
 11
674.3782321522486
 21
130.2180748228082
 31
0.0
  0
LINE
  5
384
330
1B
100
AcDbEntity
  8
4
 62
     3
100
AcDbLine
 10
625.3782321522486
 20
50.21807482280821
 30
0.0
 11
505.3782321522486
 21
50.21807482280821
 31
0.0
  0
LINE
  5
388
330
1B
100
AcDbEntity
  8
L-CENTER
 48
2.0
100
AcDbLine
 10
610.3782321522486
 20
77.2180748228082
 30
0.0
 11
610.3782321522486
 21
43.21807482280821
 31
0.0
  0
LINE
  5
389
330
1B
100
AcDbEntity
  8
4
 62
     3
100
AcDbLine
 10
505.3782321522486
 20
69.2180748228082
 30
0.0
 11
505.3782321522486
 21
50.21807482280821
 31
0.0
  0
LINE
  5
38A
330
1B
100
AcDbEntity
  8
L-CENTER
 48
2.0
100
AcDbLine
 10
520.3782321522486
 20
77.2180748228082
 30
0.0
 11
520.3782321522486
 21
43.21807482280821
 31
0.0
  0
LINE
  5
38B
330
1B
100
AcDbEntity
  8
4
 62
     3
100
AcDbLine
 10
625.3782321522486
 20
69.2180748228082
 30
0.0
 11
625.3782321522486
 21
50.21807482280821
 31
0.0
  0
LINE
  5
38D
330
1B
100
AcDbEntity
  8
4
 62
     3
100
AcDbLine
 10
370.3451366870172
 20
185.7180748228082
 30
0.0
 11
370.4140696870172
 21
185.7180748228082
 31
0.0
  0
LINE
  5
38E
330
1B
100
AcDbEntity
  8
4
 62
     3
100
AcDbLine
 10
370.3140696870173
 20
185.7180748228082
 30
0.0
 11
370.4140696870172
 21
185.7180748228082
 31
0.0
  0
ARC
  5
38F
330
1B
100
AcDbEntity
  8
4
 62
     3
100
AcDbCircle
 10
370.3140696870173
 20
183.8180748228082
 30
0.0
 40
1.9
100
AcDbArc
 50
90.0
 51
180.0
  0
ARC
  5
390
330
1B
100
AcDbEntity
  8
4
 62
     3
100
AcDbCircle
 10
350.5781776870172
 20
160.9071118228082
 30
0.0
 40
3.0
100
AcDbArc
 50
266.4985550000002
 51
17.25658699999994
  0
ARC
  5
392
330
1B
100
AcDbEntity
  8
4
 62
     3
100
AcDbCircle
 10
396.9140696870172
 20
69.2180748228082
 30
0.0
 40
1.0
100
AcDbArc
 50
0.0
 51
90.0
  0
ARC
  5
394
330
1B
100
AcDbEntity
  8
4
 62
     3
100
AcDbCircle
 10
375.4140696870172
 20
75.2180748228082
 30
0.0
 40
5.0
100
AcDbArc
 50
180.0
 51
270.0
  0
ARC
  5
395
330
1B
100
AcDbEntity
  8
4
 62
     3
100
AcDbCircle
 10
352.9140696870172
 20
64.41450882280822
 30
0.0
 40
5.0
100
AcDbArc
 50
0.0
 51
103.1365590000003
  0
ARC
  5
396
330
1B
100
AcDbEntity
  8
4
 62
     3
100
AcDbCircle
 10
360.9140696870172
 20
69.2180748228082
 30
0.0
 40
1.0
100
AcDbArc
 50
90.0
 51
180.0
  0
ARC
  5
397
330
1B
100
AcDbEntity
  8
4
 62
     3
100
AcDbCircle
 10
358.9140696870172
 20
69.2180748228082
 30
0.0
 40
1.0
100
AcDbArc
 50
90.0
 51
180.0
  0
ARC
  5
398
330
1B
100
AcDbEntity
  8
4
 62
     3
100
AcDbCircle
 10
367.1273986870171
 20
75.2180748228082
 30
0.0
 40
5.0
100
AcDbArc
 50
165.8987389999998
 51
270.0
  0
LINE
  5
399
330
1B
100
AcDbEntity
  8
4
 62
     3
100
AcDbLine
 10
358.9140696870172
 20
70.2180748228082
 30
0.0
 11
396.9140696870172
 21
70.2180748228082
 31
0.0
  0
ARC
  5
39A
330
1B
100
AcDbEntity
  8
4
 62
     3
100
AcDbCircle
 10
350.5781776870172
 20
123.5290378228082
 30
0.0
 40
3.0
100
AcDbArc
 50
342.743413
 51
93.50144499999976
  0
LINE
  5
39B
330
1B
100
AcDbEntity
  8
4
 62
     3
100
AcDbLine
 10
370.4140696870172
 20
142.2180748228082
 30
0.0
 11
370.4140696870172
 21
75.2180748228082
 31
0.0
  0
ARC
  5
39C
330
1B
100
AcDbEntity
  8
4
 62
     3
100
AcDbCircle
 10
315.2933956870172
 20
167.0974008228082
 30
0.0
 40
3.0
100
AcDbArc
 50
9.744047999999724
 51
80.25595200000033
  0
ARC
  5
39D
330
1B
100
AcDbEntity
  8
4
 62
     3
100
AcDbCircle
 10
316.5686216870172
 20
168.3726268228082
 30
0.0
 40
3.0
100
AcDbArc
 50
10.24875299999949
 51
79.75124700000049
  0
ARC
  5
39E
330
1B
100
AcDbEntity
  8
4
 62
     3
100
AcDbCircle
 10
323.5556976870171
 20
162.5605608228082
 30
0.0
 40
3.0
100
AcDbArc
 50
187.6405240000003
 51
266.4985550000002
  0
ARC
  5
39F
330
1B
100
AcDbEntity
  8
4
 62
     3
100
AcDbCircle
 10
257.2724416870174
 20
162.5605608228082
 30
0.0
 40
3.0
100
AcDbArc
 50
273.5014449999998
 51
352.3594759999997
  0
ARC
  5
3A0
330
1B
100
AcDbEntity
  8
4
 62
     3
100
AcDbCircle
 10
264.2595176870173
 20
168.3726268228082
 30
0.0
 40
3.0
100
AcDbArc
 50
100.2487530000006
 51
169.7512470000005
  0
ARC
  5
3A1
330
1B
100
AcDbEntity
  8
4
 62
     3
100
AcDbCircle
 10
265.5347436870172
 20
167.0974008228082
 30
0.0
 40
3.0
100
AcDbArc
 50
99.74404799999968
 51
170.2559520000003
  0
LINE
  5
3A2
330
1B
100
AcDbEntity
  8
4
 62
     3
100
AcDbLine
 10
257.4556626870171
 20
159.5661608228082
 30
0.0
 11
230.4331826870173
 21
157.9127118228083
 31
0.0
  0
ARC
  5
3A3
330
1B
100
AcDbEntity
  8
4
 62
     3
100
AcDbCircle
 10
290.4140696870172
 20
22.21807482280821
 30
0.0
 40
150.0
100
AcDbArc
 50
80.25595200000002
 51
99.74404800000002
  0
ARC
  5
3A4
330
1B
100
AcDbEntity
  8
4
 62
     3
100
AcDbCircle
 10
290.4140696870172
 20
23.71807482280821
 30
0.0
 40
150.0
100
AcDbArc
 50
79.75124699999999
 51
100.248871398545
  0
LINE
  5
3A5
330
1B
100
AcDbEntity
  8
4
 62
     3
100
AcDbLine
 10
257.4556626870171
 20
124.8699888228082
 30
0.0
 11
230.4331826870173
 21
126.5234378228081
 31
0.0
  0
ARC
  5
3A6
330
1B
100
AcDbEntity
  8
4
 62
     3
100
AcDbCircle
 10
210.5140696870171
 20
183.8180748228082
 30
0.0
 40
1.9
100
AcDbArc
 50
0.0
 51
90.0
  0
ARC
  5
3A7
330
1B
100
AcDbEntity
  8
4
 62
     3
100
AcDbCircle
 10
210.5140696870172
 20
183.8180748228082
 30
0.0
 40
1.9
100
AcDbArc
 50
0.0
 51
90.0
  0
LINE
  5
3A8
330
1B
100
AcDbEntity
  8
4
 62
     3
100
AcDbLine
 10
210.5140696870171
 20
185.7180748228082
 30
0.0
 11
210.4140696870172
 21
185.7180748228082
 31
0.0
  0
LINE
  5
3A9
330
1B
100
AcDbEntity
  8
4
 62
     3
100
AcDbLine
 10
210.4830026870172
 20
185.7180748228082
 30
0.0
 11
210.4140696870172
 21
185.7180748228082
 31
0.0
  0
LINE
  5
3AA
330
1B
100
AcDbEntity
  8
4
 62
     3
100
AcDbLine
 10
210.5140696870172
 20
185.7180748228082
 30
0.0
 11
210.4140696870172
 21
185.7180748228082
 31
0.0
  0
LINE
  5
3AB
330
1B
100
AcDbEntity
  8
4
 62
     3
100
AcDbLine
 10
212.4140696870172
 20
175.0205138228083
 30
0.0
 11
212.4140696870172
 21
183.8180748228082
 31
0.0
  0
LINE
  5
3AC
330
1B
100
AcDbEntity
  8
4
100
AcDbLine
 10
208.4140696870172
 20
124.7180748228082
 30
0.0
 11
206.9140696870172
 21
124.7180748228082
 31
0.0
  0
ARC
  5
3AD
330
1B
100
AcDbEntity
  8
4
 62
     3
100
AcDbCircle
 10
208.4140696870172
 20
130.2180748228082
 30
0.0
 40
2.0
100
AcDbArc
 50
270.0
 51
0.0
  0
LINE
  5
3AE
330
1B
100
AcDbEntity
  8
4
100
AcDbLine
 10
206.9140696870172
 20
125.7180748228082
 30
0.0
 11
199.9140696870172
 21
125.7180748228082
 31
0.0
  0
LINE
  5
3AF
330
1B
100
AcDbEntity
  8
4
 62
     3
100
AcDbLine
 10
210.4140696870172
 20
142.2180748228082
 30
0.0
 11
210.4140696870172
 21
130.2180748228082
 31
0.0
  0
ARC
  5
3B0
330
1B
100
AcDbEntity
  8
4
 62
     3
100
AcDbCircle
 10
230.2499616870173
 20
160.9071118228082
 30
0.0
 40
3.0
100
AcDbArc
 50
162.7434129999999
 51
273.5014449999998
  0
ARC
  5
3B1
330
1B
100
AcDbEntity
  8
4
 62
     3
100
AcDbCircle
 10
315.2933956870172
 20
117.3387488228082
 30
0.0
 40
3.0
100
AcDbArc
 50
279.7440479999997
 51
350.2559520000003
  0
ARC
  5
3B2
330
1B
100
AcDbEntity
  8
4
 62
     3
100
AcDbCircle
 10
316.5686216870172
 20
116.0635228228082
 30
0.0
 40
3.0
100
AcDbArc
 50
280.2487529999995
 51
349.7512470000005
  0
ARC
  5
3B3
330
1B
100
AcDbEntity
  8
4
 62
     3
100
AcDbCircle
 10
310.7565556870172
 20
109.0764468228082
 30
0.0
 40
3.0
100
AcDbArc
 50
97.64052400000037
 51
176.4985550000003
  0
ARC
  5
3B4
330
1B
100
AcDbEntity
  8
4
 62
     3
100
AcDbCircle
 10
265.5347436870172
 20
117.3387488228082
 30
0.0
 40
3.0
100
AcDbArc
 50
189.7440479999997
 51
260.2559520000003
  0
ARC
  5
3B5
330
1B
100
AcDbEntity
  8
4
 62
     3
100
AcDbCircle
 10
264.2595176870173
 20
116.0635228228082
 30
0.0
 40
3.0
100
AcDbArc
 50
190.2487529999995
 51
259.7512469999994
  0
ARC
  5
3B6
330
1B
100
AcDbEntity
  8
4
 62
     3
100
AcDbCircle
 10
270.0715836870172
 20
109.0764468228082
 30
0.0
 40
3.0
100
AcDbArc
 50
3.501444999999718
 51
82.35947599999965
  0
ARC
  5
3B7
330
1B
100
AcDbEntity
  8
4
 62
     3
100
AcDbCircle
 10
290.4140696870172
 20
260.7180748228082
 30
0.0
 40
150.0
100
AcDbArc
 50
259.751128601455
 51
280.248753
  0
ARC
  5
3B8
330
1B
100
AcDbEntity
  8
4
 62
     3
100
AcDbCircle
 10
290.4140696870172
 20
262.2180748228082
 30
0.0
 40
150.0
100
AcDbArc
 50
260.255952
 51
279.744048
  0
ARC
  5
3B9
330
1B
100
AcDbEntity
  8
4
 62
     3
100
AcDbCircle
 10
309.1031066870173
 20
82.0539668228082
 30
0.0
 40
3.0
100
AcDbArc
 50
176.4985550000003
 51
287.256587
  0
ARC
  5
3BA
330
1B
100
AcDbEntity
  8
4
 62
     3
100
AcDbCircle
 10
271.7250326870171
 20
82.0539668228082
 30
0.0
 40
3.0
100
AcDbArc
 50
252.7434130000001
 51
3.501444999999718
  0
LINE
  5
3BB
330
1B
100
AcDbEntity
  8
4
 62
     3
100
AcDbLine
 10
273.0659836870173
 20
109.2596678228082
 30
0.0
 11
274.7194326870172
 21
82.23718782280815
 31
0.0
  0
LINE
  5
3BC
330
1B
100
AcDbEntity
  8
4
 62
     3
100
AcDbLine
 10
307.7621556870172
 20
109.2596678228082
 30
0.0
 11
306.1087066870173
 21
82.23718782280815
 31
0.0
  0
LINE
  5
3BD
330
1B
100
AcDbEntity
  8
L-CENTER
 48
2.0
100
AcDbLine
 10
217.9964976870172
 20
113.2180748228082
 30
0.0
 11
196.1504007119047
 21
113.2180748228082
 31
0.0
  0
LINE
  5
3BE
330
1B
100
AcDbEntity
  8
4
100
AcDbLine
 10
204.9140696870172
 20
119.4680748228082
 30
0.0
 11
199.9140696870172
 21
119.4680748228082
 31
0.0
  0
ARC
  5
3BF
330
1B
100
AcDbEntity
  8
4
 62
     3
100
AcDbCircle
 10
208.9140696870172
 20
97.7180748228082
 30
0.0
 40
0.5
100
AcDbArc
 50
0.0
 51
90.0
  0
LINE
  5
3C0
330
1B
100
AcDbEntity
  8
4
 62
     3
100
AcDbLine
 10
208.9140696870172
 20
98.2180748228082
 30
0.0
 11
208.4140696870172
 21
98.2180748228082
 31
0.0
  0
LINE
  5
3C1
330
1B
100
AcDbEntity
  8
4
100
AcDbLine
 10
208.4140696870172
 20
101.7180748228082
 30
0.0
 11
206.9140696870172
 21
101.7180748228082
 31
0.0
  0
LINE
  5
3C2
330
1B
100
AcDbEntity
  8
4
100
AcDbLine
 10
204.9140696870172
 20
106.9680748228082
 30
0.0
 11
199.9140696870172
 21
106.9680748228082
 31
0.0
  0
LINE
  5
3C3
330
1B
100
AcDbEntity
  8
4
100
AcDbLine
 10
199.9140696870172
 20
100.7180748228082
 30
0.0
 11
206.9140696870172
 21
100.7180748228082
 31
0.0
  0
LINE
  5
3C4
330
1B
100
AcDbEntity
  8
L-CENTER
 48
2.0
100
AcDbLine
 10
220.9386666870173
 20
82.2180748228082
 30
0.0
 11
205.4979016870172
 21
82.2180748228082
 31
0.0
  0
LINE
  5
3C5
330
1B
100
AcDbEntity
  8
4
 62
     3
100
AcDbLine
 10
208.9140696870172
 20
89.7180748228082
 30
0.0
 11
208.4140696870172
 21
89.7180748228082
 31
0.0
  0
ARC
  5
3C6
330
1B
100
AcDbEntity
  8
4
 62
     3
100
AcDbCircle
 10
208.9140696870172
 20
90.2180748228082
 30
0.0
 40
0.5
100
AcDbArc
 50
270.0
 51
0.0
  0
LINE
  5
3C7
330
1B
100
AcDbEntity
  8
4
100
AcDbLine
 10
207.4140696870172
 20
86.7180748228082
 30
0.0
 11
208.4140696870172
 21
86.7180748228082
 31
0.0
  0
LINE
  5
3C8
330
1B
100
AcDbEntity
  8
4
100
AcDbLine
 10
207.4140696870172
 20
77.7180748228082
 30
0.0
 11
208.4140696870172
 21
77.7180748228082
 31
0.0
  0
LINE
  5
3C9
330
1B
100
AcDbEntity
  8
4
100
AcDbLine
 10
207.4140696870172
 20
77.7180748228082
 30
0.0
 11
207.4140696870172
 21
86.7180748228082
 31
0.0
  0
ARC
  5
3CA
330
1B
100
AcDbEntity
  8
4
 62
     3
100
AcDbCircle
 10
204.4140696870172
 20
75.2180748228082
 30
0.0
 40
5.0
100
AcDbArc
 50
270.0
 51
347.1604119999997
  0
LINE
  5
3CB
330
1B
100
AcDbEntity
  8
4
 62
     3
100
AcDbLine
 10
208.8015516870172
 20
74.7180748228082
 30
0.0
 11
208.4140696870172
 21
74.7180748228082
 31
0.0
  0
ARC
  5
3CC
330
1B
100
AcDbEntity
  8
4
 62
     3
100
AcDbCircle
 10
208.8015516870172
 20
74.2180748228082
 30
0.0
 40
0.5
100
AcDbArc
 50
347.1604120000013
 51
90.0
  0
ARC
  5
3CD
330
1B
100
AcDbEntity
  8
4
 62
     3
100
AcDbCircle
 10
205.4140696870172
 20
75.2180748228082
 30
0.0
 40
5.0
100
AcDbArc
 50
270.0
 51
0.0
  0
ARC
  5
3CE
330
1B
100
AcDbEntity
  8
4
 62
     3
100
AcDbCircle
 10
227.9140696870172
 20
64.41450882280822
 30
0.0
 40
5.0
100
AcDbArc
 50
76.86344100000008
 51
180.0
  0
ARC
  5
3CF
330
1B
100
AcDbEntity
  8
4
 62
     3
100
AcDbCircle
 10
219.9140696870172
 20
69.2180748228082
 30
0.0
 40
1.0
100
AcDbArc
 50
0.0
 51
90.0
  0
ARC
  5
3D0
330
1B
100
AcDbEntity
  8
4
 62
     3
100
AcDbCircle
 10
221.9140696870172
 20
69.2180748228082
 30
0.0
 40
1.0
100
AcDbArc
 50
0.0
 51
90.0
  0
ARC
  5
3D1
330
1B
100
AcDbEntity
  8
4
 62
     3
100
AcDbCircle
 10
183.9140696870172
 20
69.2180748228082
 30
0.0
 40
1.0
100
AcDbArc
 50
90.0
 51
180.0
  0
LINE
  5
3D2
330
1B
100
AcDbEntity
  8
4
 62
     3
100
AcDbLine
 10
183.9140696870172
 20
70.2180748228082
 30
0.0
 11
221.9140696870172
 21
70.2180748228082
 31
0.0
  0
LINE
  5
3D3
330
1B
100
AcDbEntity
  8
4
 62
     3
100
AcDbLine
 10
208.4140696870172
 20
74.7180748228082
 30
0.0
 11
208.4140696870172
 21
89.7180748228082
 31
0.0
  0
ARC
  5
3D4
330
1B
100
AcDbEntity
  8
4
 62
     3
100
AcDbCircle
 10
213.7007406870173
 20
75.2180748228082
 30
0.0
 40
5.0
100
AcDbArc
 50
270.0
 51
14.10126100000022
  0
LINE
  5
3D5
330
1B
100
AcDbEntity
  8
4
 62
     3
100
AcDbLine
 10
209.4140696870172
 20
97.7180748228082
 30
0.0
 11
209.4140696870172
 21
90.2180748228082
 31
0.0
  0
ARC
  5
3D6
330
1B
100
AcDbEntity
  8
4
 62
     3
100
AcDbCircle
 10
290.4140696870172
 20
332.2180748228081
 30
0.0
 40
270.0
100
AcDbArc
 50
256.863441
 51
270.0
  0
LINE
  5
3D7
330
1B
100
AcDbEntity
  8
4
 62
     3
100
AcDbLine
 10
208.4140696870172
 20
98.2180748228082
 30
0.0
 11
208.4140696870172
 21
128.2180748228082
 31
0.0
  0
LINE
  5
3D8
330
1B
100
AcDbEntity
  8
4
100
AcDbLine
 10
206.9140696870172
 20
100.7180748228082
 30
0.0
 11
206.9140696870172
 21
125.7180748228082
 31
0.0
  0
LINE
  5
3D9
330
1B
100
AcDbEntity
  8
4
100
AcDbLine
 10
204.9140696870172
 20
125.7180748228082
 30
0.0
 11
204.9140696870172
 21
100.7180748228082
 31
0.0
  0
LINE
  5
3DA
330
1B
100
AcDbEntity
  8
4
100
AcDbLine
 10
199.9140696870172
 20
100.7180748228082
 30
0.0
 11
199.9140696870172
 21
125.7180748228082
 31
0.0
  0
LINE
  5
3DB
330
1B
100
AcDbEntity
  8
4
 62
     3
100
AcDbLine
 10
210.4140696870172
 20
142.2180748228082
 30
0.0
 11
210.4140696870172
 21
75.2180748228082
 31
0.0
  0
LINE
  5
3DC
330
1B
100
AcDbEntity
  8
4
100
AcDbLine
 10
208.4140696870172
 20
101.7180748228082
 30
0.0
 11
208.4140696870172
 21
124.7180748228082
 31
0.0
  0
ARC
  5
3DD
330
1B
100
AcDbEntity
  8
4
 62
     3
100
AcDbCircle
 10
257.2724416870174
 20
121.8755888228082
 30
0.0
 40
3.0
100
AcDbArc
 50
7.640524000000346
 51
86.49855500000022
  0
ARC
  5
3DE
330
1B
100
AcDbEntity
  8
4
 62
     3
100
AcDbCircle
 10
230.2499616870173
 20
123.5290378228082
 30
0.0
 40
3.0
100
AcDbArc
 50
86.49855500000022
 51
197.2565870000001
  0
ARC
  5
3DF
330
1B
100
AcDbEntity
  8
4
 62
     3
100
AcDbCircle
 10
408.9140696870172
 20
142.2180748228082
 30
0.0
 40
150.0
100
AcDbArc
 50
169.7512469999999
 51
190.2487529999999
  0
ARC
  5
3E0
330
1B
100
AcDbEntity
  8
4
 62
     3
100
AcDbCircle
 10
410.4140696870172
 20
142.2180748228082
 30
0.0
 40
150.0
100
AcDbArc
 50
170.255952
 51
189.744048
  0
ARC
  5
3E1
330
1B
100
AcDbEntity
  8
4
 62
     3
100
AcDbCircle
 10
323.5556976870171
 20
121.8755888228082
 30
0.0
 40
3.0
100
AcDbArc
 50
93.50144499999976
 51
172.3594759999997
  0
ARC
  5
3E2
330
1B
100
AcDbEntity
  8
4
 62
     3
100
AcDbCircle
 10
171.9140696870172
 20
142.2180748228082
 30
0.0
 40
150.0
100
AcDbArc
 50
349.751247
 51
10.24875300000003
  0
ARC
  5
3E3
330
1B
100
AcDbEntity
  8
4
 62
     3
100
AcDbCircle
 10
170.4140696870172
 20
142.2180748228082
 30
0.0
 40
150.0
100
AcDbArc
 50
350.2559519999999
 51
9.744047999999987
  0
LINE
  5
3E4
330
1B
100
AcDbEntity
  8
L-CENTER
 48
2.0
100
AcDbLine
 10
204.0454176870172
 20
142.2180748228082
 30
0.0
 11
376.7827216870172
 21
142.2180748228082
 31
0.0
  0
LINE
  5
3E5
330
1B
100
AcDbEntity
  8
4
 62
     3
100
AcDbLine
 10
350.353137622343
 20
157.9152706438589
 30
0.0
 11
323.3789911983108
 21
159.5657622134952
 31
0.0
  0
LINE
  5
3E6
330
1B
100
AcDbEntity
  8
4
 62
     3
100
AcDbLine
 10
323.3724766870173
 20
124.8699888228082
 30
0.0
 11
350.3949566870172
 21
126.5234378228081
 31
0.0
  0
LINE
  5
3E7
330
1B
100
AcDbEntity
  8
4
 62
     3
100
AcDbLine
 10
227.9140696870172
 20
61.21807482280821
 30
0.0
 11
352.9140696870172
 21
61.21807482280821
 31
0.0
  0
ARC
  5
3E8
330
1B
100
AcDbEntity
  8
4
 62
     3
100
AcDbCircle
 10
290.4140696870172
 20
332.2180748228081
 30
0.0
 40
270.0
100
AcDbArc
 50
270.0
 51
283.1365589999999
  0
LINE
  5
3EC
330
1B
100
AcDbEntity
  8
4
 62
     3
100
AcDbLine
 10
357.9140696870172
 20
50.21807482280821
 30
0.0
 11
397.9140696870172
 21
50.21807482280821
 31
0.0
  0
TEXT
  5
3F3
330
1B
100
AcDbEntity
  8
3
100
AcDbText
 10
425.1124640560416
 20
44.39833317784894
 30
0.0
 40
6.0
  1
LB2-01
  7
KANJI
 72
     1
 11
440.6124640560416
 21
44.39833317784894
 31
0.0
100
AcDbText
  0
LINE
  5
3F7
330
1B
100
AcDbEntity
  8
4
 62
     3
100
AcDbLine
 10
182.9140696870172
 20
50.21807482280821
 30
0.0
 11
222.9140696870172
 21
50.21807482280821
 31
0.0
  0
LINE
  5
402
330
1B
100
AcDbEntity
  8
4
 62
     3
100
AcDbLine
 10
182.9140696870172
 20
69.2180748228082
 30
0.0
 11
182.9140696870172
 21
50.21807482280821
 31
0.0
  0
LINE
  5
403
330
1B
100
AcDbEntity
  8
L-CENTER
 48
2.0
100
AcDbLine
 10
195.4140696870172
 20
77.2180748228082
 30
0.0
 11
195.4140696870172
 21
43.21807482280821
 31
0.0
  0
ARC
  5
404
330
1B
100
AcDbEntity
  8
4
 62
     3
100
AcDbCircle
 10
227.9140696870172
 20
56.21807482280821
 30
0.0
 40
5.0
100
AcDbArc
 50
90.0
 51
180.0
  0
LINE
  5
405
330
1B
100
AcDbEntity
  8
4
 62
     3
100
AcDbLine
 10
220.9140696870172
 20
69.2180748228082
 30
0.0
 11
220.9140696870172
 21
50.21807482280821
 31
0.0
  0
LINE
  5
406
330
1B
100
AcDbEntity
  8
4
 62
     3
100
AcDbLine
 10
222.9140696870172
 20
69.2180748228082
 30
0.0
 11
222.9140696870172
 21
50.21807482280821
 31
0.0
  0
LWPOLYLINE
  5
409
330
1B
100
AcDbEntity
  8
4
100
AcDbPolyline
 90
       30
 70
     0
 43
0.0
 10
374.5690216870173
 20
70.1856988228082
 10
374.9308856870173
 20
69.8238048228082
 10
375.2770336870171
 20
69.46079082280818
 10
375.5917456870172
 20
69.09553882280824
 10
375.8593056870172
 20
68.72692882280813
 10
376.0639956870173
 20
68.3538408228082
 10
376.1901016870172
 20
67.97515882280828
 10
376.2267176870173
 20
67.61232482280826
 10
376.1892816870172
 20
67.2439688228082
 10
376.0875196870172
 20
66.87053082280823
 10
375.4935576870173
 20
65.72415882280819
 10
374.6708816870173
 20
64.54799082280823
 10
373.8821576870173
 20
63.35397882280819
 10
373.6721936870172
 20
62.9540728228082
 10
373.5049156870173
 20
62.55395482280818
 10
373.3900516870171
 20
62.15406882280814
 10
373.3294276870172
 20
61.63483682280827
 10
373.3613656870173
 20
61.11648882280821
 10
373.4733036870173
 20
60.59877482280814
 10
374.1635256870172
 20
59.04689682280815
 10
375.1215976870171
 20
57.49160882280825
 10
376.0084096870173
 20
55.92608482280826
 10
376.2295636870172
 20
55.40079082280823
 10
376.3925596870172
 20
54.87334682280817
 10
376.4848396870173
 20
54.34350282280826
 10
376.4760416870172
 20
53.54020482280822
 10
376.3159156870172
 20
52.73208482280819
 10
376.0422916870173
 20
51.9203468228082
 10
375.6930036870172
 20
51.10619882280827
 10
375.3058836870173
 20
50.2908448228082
  0
LINE
  5
40A
330
1B
100
AcDbEntity
  8
4
100
AcDbLine
 10
379.9140696870172
 20
70.2180748228082
 30
0.0
 11
379.9140696870172
 21
50.21807482280821
 31
0.0
  0
LINE
  5
40B
330
1B
100
AcDbEntity
  8
L-CENTER
 48
2.0
100
AcDbLine
 10
385.4140696870172
 20
77.2180748228082
 30
0.0
 11
385.4140696870172
 21
43.21807482280821
 31
0.0
  0
LINE
  5
40C
330
1B
100
AcDbEntity
  8
4
100
AcDbLine
 10
390.9140696870172
 20
70.2180748228082
 30
0.0
 11
390.9140696870172
 21
50.21807482280821
 31
0.0
  0
LINE
  5
40D
330
1B
100
AcDbEntity
  8
4
 62
     3
100
AcDbLine
 10
397.9140696870172
 20
69.2180748228082
 30
0.0
 11
397.9140696870172
 21
50.21807482280821
 31
0.0
  0
ARC
  5
40E
330
1B
100
AcDbEntity
  8
4
 62
     3
100
AcDbCircle
 10
352.9140696870172
 20
56.21807482280821
 30
0.0
 40
5.0
100
AcDbArc
 50
0.0
 51
90.0
  0
LINE
  5
40F
330
1B
100
AcDbEntity
  8
4
 62
     3
100
AcDbLine
 10
357.9140696870172
 20
69.2180748228082
 30
0.0
 11
357.9140696870172
 21
50.21807482280821
 31
0.0
  0
LINE
  5
410
330
1B
100
AcDbEntity
  8
4
 62
     3
100
AcDbLine
 10
359.9140696870172
 20
69.2180748228082
 30
0.0
 11
359.9140696870172
 21
50.21807482280821
 31
0.0
  0
LINE
  5
415
330
1B
100
AcDbEntity
  8
4
100
AcDbLine
 10
723.6336152176809
 20
157.2180748228082
 30
0.0
 11
716.6336152176809
 21
157.2180748228082
 31
0.0
  0
LINE
  5
419
330
1B
100
AcDbEntity
  8
4
100
AcDbLine
 10
723.6336152176809
 20
150.2180748228082
 30
0.0
 11
716.6336152176809
 21
150.2180748228082
 31
0.0
  0
LINE
  5
41E
330
1B
100
AcDbEntity
  8
4
100
AcDbLine
 10
716.6336152176809
 20
150.2180748228082
 30
0.0
 11
716.6336152176809
 21
157.2180748228082
 31
0.0
  0
LINE
  5
41F
330
1B
100
AcDbEntity
  8
4
100
AcDbLine
 10
723.6336152176809
 20
157.2180748228082
 30
0.0
 11
723.6336152176809
 21
150.2180748228082
 31
0.0
  0
LINE
  5
427
330
1B
100
AcDbEntity
  8
L-CENTER
 48
2.0
100
AcDbLine
 10
720.1336152176809
 20
124.4473228228081
 30
0.0
 11
720.1336152176809
 21
159.9888268228083
 31
0.0
  0
LINE
  5
428
330
1B
100
AcDbEntity
  8
4
100
AcDbLine
 10
128.3519123660609
 20
229.2180748228078
 30
0.0
 11
123.3519123660609
 21
229.2180748228078
 31
0.0
  0
LINE
  5
42F
330
1B
100
AcDbEntity
  8
L-CENTER
 48
2.0
100
AcDbLine
 10
140.5670003660608
 20
218.2180748228078
 30
0.0
 11
111.136824366061
 21
218.2180748228078
 31
0.0
  0
LINE
  5
430
330
1B
100
AcDbEntity
  8
4
100
AcDbLine
 10
128.3519123660609
 20
224.2180748228078
 30
0.0
 11
123.3519123660609
 21
224.2180748228078
 31
0.0
  0
LINE
  5
433
330
1B
100
AcDbEntity
  8
4
100
AcDbLine
 10
123.3519123660609
 20
224.2180748228078
 30
0.0
 11
123.3519123660609
 21
229.2180748228078
 31
0.0
  0
LINE
  5
434
330
1B
100
AcDbEntity
  8
4
100
AcDbLine
 10
128.3519123660609
 20
229.2180748228078
 30
0.0
 11
128.3519123660609
 21
224.2180748228078
 31
0.0
  0
LINE
  5
43B
330
1B
100
AcDbEntity
  8
L-CENTER
 48
2.0
100
AcDbLine
 10
125.8519123660609
 20
232.9331628228077
 30
0.0
 11
125.8519123660609
 21
203.5029868228078
 31
0.0
  0
LINE
  5
446
330
1B
100
AcDbEntity
  8
L-CENTER
 48
2.0
100
AcDbLine
 10
737.904367217681
 20
142.2180748228082
 30
0.0
 11
702.3628632176808
 21
142.2180748228082
 31
0.0
  0
LINE
  5
450
330
1B
100
AcDbEntity
  8
4
 62
     3
100
AcDbLine
 10
370.4140696870172
 20
185.7180748228082
 30
0.0
 11
370.4140696870172
 21
250.7180748228082
 31
0.0
  0
LINE
  5
451
330
1B
100
AcDbEntity
  8
4
 62
     3
100
AcDbLine
 10
370.4140696870172
 20
185.7180748228082
 30
0.0
 11
370.4140696870172
 21
250.7180748228082
 31
0.0
  0
LINE
  5
452
330
1B
100
AcDbEntity
  8
4
 62
     3
100
AcDbLine
 10
368.4140696870172
 20
175.0205138228083
 30
0.0
 11
368.4140696870172
 21
207.2180748228082
 31
0.0
  0
LINE
  5
453
330
1B
100
AcDbEntity
  8
4
 62
     3
100
AcDbLine
 10
210.4140696870172
 20
185.7180748228082
 30
0.0
 11
210.4140696870172
 21
250.7180748228082
 31
0.0
  0
LINE
  5
454
330
1B
100
AcDbEntity
  8
4
 62
     3
100
AcDbLine
 10
210.4140696870172
 20
185.7180748228082
 30
0.0
 11
210.4140696870172
 21
250.7180748228082
 31
0.0
  0
LINE
  5
455
330
1B
100
AcDbEntity
  8
4
 62
     3
100
AcDbLine
 10
210.4140696870172
 20
185.7180748228082
 30
0.0
 11
210.4140696870172
 21
250.7180748228082
 31
0.0
  0
LINE
  5
456
330
1B
100
AcDbEntity
  8
4
 62
     3
100
AcDbLine
 10
212.4140696870172
 20
175.0205138228083
 30
0.0
 11
212.4140696870172
 21
207.2180748228082
 31
0.0
  0
ARC
  5
457
330
1B
100
AcDbEntity
  8
4
 62
     3
100
AcDbCircle
 10
290.4140696870172
 20
142.2180748228082
 30
0.0
 40
78.0
100
AcDbArc
 50
90.0
 51
270.0
  0
ARC
  5
458
330
1B
100
AcDbEntity
  8
4
 62
     3
100
AcDbCircle
 10
480.4140696870172
 20
142.2180748228082
 30
0.0
 40
270.0
100
AcDbArc
 50
165.210916
 51
194.101261
  0
ARC
  5
459
330
1B
100
AcDbEntity
  8
4
 62
     3
100
AcDbCircle
 10
290.4140696870172
 20
142.2180748228082
 30
0.0
 40
78.0
100
AcDbArc
 50
270.0
 51
90.0
  0
ARC
  5
45A
330
1B
100
AcDbEntity
  8
4
 62
     3
100
AcDbCircle
 10
290.4140696870172
 20
142.2180748228082
 30
0.0
 40
66.0
100
AcDbArc
 50
270.0
 51
74.13107901376965
  0
LINE
  5
45B
330
1B
100
AcDbEntity
  8
L-CENTER
 48
2.0
100
AcDbLine
 10
290.4140696870172
 20
55.84942282280821
 30
0.0
 11
290.4140696870172
 21
255.9713197317176
 31
0.0
  0
ARC
  5
45C
330
1B
100
AcDbEntity
  8
4
 62
     3
100
AcDbCircle
 10
290.4140696870172
 20
142.2180748228082
 30
0.0
 40
66.0
100
AcDbArc
 50
105.8689209862304
 51
270.0
  0
ARC
  5
45D
330
1B
100
AcDbEntity
  8
4
 62
     3
100
AcDbCircle
 10
100.4140696870172
 20
142.2180748228082
 30
0.0
 40
270.0
100
AcDbArc
 50
345.898739
 51
14.78908400000003
  0
CIRCLE
  5
45F
330
1B
100
AcDbEntity
  8
4
100
AcDbCircle
 10
565.3782321522486
 20
218.2180748228082
 30
0.0
 40
32.5
  0
LINE
  5
460
330
1B
100
AcDbEntity
  8
4
100
AcDbLine
 10
532.8782321522486
 20
218.2180748228082
 30
0.0
 11
532.8782321522486
 21
175.0205138228081
 31
0.0
  0
LINE
  5
461
330
1B
100
AcDbEntity
  8
4
100
AcDbLine
 10
519.6211871522486
 20
175.1150688228082
 30
0.0
 11
524.3782321522486
 21
202.4680761007398
 31
0.0
  0
LINE
  5
462
330
1B
100
AcDbEntity
  8
4
100
AcDbLine
 10
597.8782321522486
 20
218.2180748228082
 30
0.0
 11
597.8782321522486
 21
175.0205138228081
 31
0.0
  0
LINE
  5
467
330
1B
100
AcDbEntity
  8
4
100
AcDbLine
 10
614.1782321522486
 20
70.21807482280815
 30
0.0
 11
614.1782321522486
 21
219.2180748228082
 31
0.0
  0
LINE
  5
468
330
1B
100
AcDbEntity
  8
4
100
AcDbLine
 10
599.3782321522486
 20
221.2180748228082
 30
0.0
 11
599.3782321522486
 21
70.21807482280815
 31
0.0
  0
LINE
  5
469
330
1B
100
AcDbEntity
  8
4
100
AcDbLine
 10
531.3782261522487
 20
221.2180748228082
 30
0.0
 11
531.3782261522487
 21
70.2180748228082
 31
0.0
  0
LINE
  5
46A
330
1B
100
AcDbEntity
  8
4
 62
     3
100
AcDbLine
 10
524.3782321522486
 20
70.2180748228082
 30
0.0
 11
524.3782321522486
 21
219.2180748228082
 31
0.0
  0
LINE
  5
46B
330
1B
100
AcDbEntity
  8
4
 62
     3
100
AcDbLine
 10
604.3782321522486
 20
70.2180748228082
 30
0.0
 11
604.3782321522486
 21
220.2180748228082
 31
0.0
  0
LINE
  5
46C
330
1B
100
AcDbEntity
  8
L-CENTER
 48
2.0
100
AcDbLine
 10
565.3782321522486
 20
45.45290714121376
 30
0.0
 11
565.3782321522486
 21
264.0493415246504
 31
0.0
  0
LINE
  5
491
330
1B
100
AcDbEntity
  8
4
100
AcDbLine
 10
199.9140696870172
 20
434.0461841976291
 30
0.0
 11
199.9140696870172
 21
434.8715017449347
 31
0.0
  0
LINE
  5
492
330
1B
100
AcDbEntity
  8
4
100
AcDbLine
 10
204.9140696870172
 20
434.0461841976291
 30
0.0
 11
204.9140696870172
 21
436.5461841976291
 31
0.0
  0
LINE
  5
493
330
1B
100
AcDbEntity
  8
4
100
AcDbLine
 10
206.9140696870172
 20
434.0461841976291
 30
0.0
 11
206.9140696870172
 21
436.5461841976291
 31
0.0
  0
LINE
  5
494
330
1B
100
AcDbEntity
  8
4
100
AcDbLine
 10
208.4140696870172
 20
434.0461841976291
 30
0.0
 11
208.4140696870172
 21
439.046184197629
 31
0.0
  0
LINE
  5
495
330
1B
100
AcDbEntity
  8
4
 62
     3
100
AcDbLine
 10
182.9140696870172
 20
415.0461841976291
 30
0.0
 11
182.9140696870172
 21
367.0461841976291
 31
0.0
  0
ARC
  5
496
330
1B
100
AcDbEntity
  8
4
100
AcDbCircle
 10
125.8519123660609
 20
218.2180748228078
 30
0.0
 40
9.000002
100
AcDbArc
 50
106.1276165314944
 51
73.87238800000017
  0
ARC
  5
497
330
1B
100
AcDbEntity
  8
4
100
AcDbCircle
 10
720.1336152176809
 20
142.2180748228082
 30
0.0
 40
12.0
100
AcDbArc
 50
106.9577633000041
 51
73.04223800000037
  0
ENDSEC
  0
SECTION
  2
OBJECTS
  0
DICTIONARY
  5
9
330
0
100
AcDbDictionary
281
     1
  3
ACAD_COLOR
350
2F
  3
ACAD_GROUP
350
2D
  3
ACAD_LAYOUT
350
24
  3
ACAD_MATERIAL
350
B
  3
ACAD_MLEADERSTYLE
350
471
  3
ACAD_MLINESTYLE
350
19
  3
ACAD_PLOTSETTINGS
350
2E
  3
ACAD_PLOTSTYLENAME
350
8
  3
ACAD_SCALELIST
350
34
  3
ACAD_TABLESTYLE
350
470
  3
ACAD_VISUALSTYLE
350
30
  3
ACDBHEADERROUNDTRIPXREC
350
4A8
  3
AcDbVariableDictionary
350
46E
  3
DWGPROPS
350
4AB
  0
DICTIONARY
  5
4AC
330
2C
100
AcDbDictionary
280
     1
281
     1
  3
ACAD_XREC_ROUNDTRIP
360
4AD
  0
DICTIONARY
  5
3
330
2
100
AcDbDictionary
280
     1
281
     1
  3
ACAD_LAYERSTATES
360
4
  0
DICTIONARY
  5
20
330
1F
100
AcDbDictionary
280
     1
281
     1
  3
ADSK_XREC_LAYER_RECONCILED
360
21
  0
DICTIONARY
  5
D5
330
D4
100
AcDbDictionary
280
     1
281
     1
  3
ADSK_XREC_LAYER_RECONCILED
360
D6
  0
DICTIONARY
  5
5
330
1
100
AcDbDictionary
280
     1
281
     1
  3
ADSK_XREC_LAYER_RECONCILED
360
6
  0
DICTIONARY
  5
CF
330
CE
100
AcDbDictionary
280
     1
281
     1
  3
ADSK_XREC_LAYER_RECONCILED
360
D0
  0
DICTIONARY
  5
5A
330
59
100
AcDbDictionary
280
     1
281
     1
  3
ADSK_XREC_LAYER_RECONCILED
360
5B
  0
DICTIONARY
  5
62
330
61
100
AcDbDictionary
280
     1
281
     1
  3
ADSK_XREC_LAYER_RECONCILED
360
63
  0
DICTIONARY
  5
C8
330
C7
100
AcDbDictionary
280
     1
281
     1
  3
ADSK_XREC_LAYER_RECONCILED
360
C9
  0
DICTIONARY
  5
1C
330
1B
100
AcDbDictionary
280
     1
281
     1
  3
ACAD_SORTENTS
360
1D
  0
DICTIONARY
  5
2F
102
{ACAD_REACTORS
330
9
102
}
330
9
100
AcDbDictionary
281
     1
  0
DICTIONARY
  5
2D
102
{ACAD_REACTORS
330
9
102
}
330
9
100
AcDbDictionary
281
     1
  0
DICTIONARY
  5
24
102
{ACAD_REACTORS
330
9
102
}
330
9
100
AcDbDictionary
281
     1
  3
Model
350
23
  3
ﾚｲｱｳﾄ1
350
29
  0
DICTIONARY
  5
B
102
{ACAD_REACTORS
330
9
102
}
330
9
100
AcDbDictionary
281
     1
  3
ByBlock
350
57
  3
ByLayer
350
14
  3
Global
350
A
  0
DICTIONARY
  5
471
102
{ACAD_REACTORS
330
9
102
}
330
9
100
AcDbDictionary
281
     1
  3
Standard
350
49D
  0
DICTIONARY
  5
19
102
{ACAD_REACTORS
330
9
102
}
330
9
100
AcDbDictionary
281
     1
  3
STANDARD
350
18
  0
DICTIONARY
  5
2E
102
{ACAD_REACTORS
330
9
102
}
330
9
100
AcDbDictionary
281
     1
  0
ACDBDICTIONARYWDFLT
  5
8
102
{ACAD_REACTORS
330
9
102
}
330
9
100
AcDbDictionary
281
     1
  3
Normal
350
7
100
AcDbDictionaryWithDefault
340
7
  0
DICTIONARY
  5
34
102
{ACAD_REACTORS
330
9
102
}
330
9
100
AcDbDictionary
281
     1
  3
*A1
350
56
  0
DICTIONARY
  5
470
102
{ACAD_REACTORS
330
9
102
}
330
9
100
AcDbDictionary
281
     1
  3
Standard
350
4A4
  0
DICTIONARY
  5
30
102
{ACAD_REACTORS
330
9
102
}
330
9
100
AcDbDictionary
281
     1
  3
2dWireframe
350
479
  3
Basic
350
47C
  3
Brighten
350
480
  3
ColorChange
350
484
  3
Conceptual
350
47E
  3
Dim
350
47F
  3
EdgeColorOff
350
487
  3
Facepattern
350
483
  3
Flat
350
475
  3
FlatWithEdges
350
476
  3
Gouraud
350
477
  3
GouraudWithEdges
350
478
  3
Hidden
350
47B
  3
JitterOff
350
485
  3
Linepattern
350
482
  3
OverhangOff
350
486
  3
Realistic
350
47D
  3
Shaded
350
48C
  3
Shaded with edges
350
48B
  3
Shades of Gray
350
488
  3
Sketchy
350
489
  3
Thicken
350
481
  3
Wireframe
350
47A
  3
X-Ray
350
48A
  0
DICTIONARY
  5
4A8
102
{ACAD_REACTORS
330
9
102
}
330
9
100
AcDbDictionary
281
     1
  3
COLORDICT
350
4A9
  3
MATERIALDICT
350
4AA
  0
DICTIONARY
  5
46E
102
{ACAD_REACTORS
330
9
102
}
330
9
100
AcDbDictionary
281
     1
  3
CANNOSCALE
350
46F
  3
CMLEADERSTYLE
350
4A1
  3
CTABLESTYLE
350
4A5
  3
DIMASSOC
350
4A6
  3
HIDETEXT
350
4A7
  3
MSLTSCALE
350
4AE
  3
XCLIPFRAME
350
472
  0
XRECORD
  5
4AB
102
{ACAD_REACTORS
330
9
102
}
330
9
100
AcDbXrecord
280
     1
  1
DWGPROPS COOKIE
  2

  3

  4

  6

  7

  8
sg-d04
  9

300
=
301
=
302
=
303
=
304
=
305
=
306
=
307
=
308
=
309
=
 40
0.0
 41
2457528.043327002
 42
2457870.240202361
  1

 90
        0
  0
XRECORD
  5
4AD
102
{ACAD_REACTORS
330
4AC
102
}
330
4AC
100
AcDbXrecord
280
     1
102
VTR_0.000_0.000_1.000_1.000_VISUALSTYLE
340
479
102
VTR_0.000_0.000_1.000_1.000_GRIDDISPLAY
 70
     3
102
VTR_0.000_0.000_1.000_1.000_GRIDMAJOR
 70
     5
102
VTR_0.000_0.000_1.000_1.000_DEFAULTLIGHTING
280
     1
102
VTR_0.000_0.000_1.000_1.000_DEFAULTLIGHTINGTYPE
 70
     1
102
VTR_0.000_0.000_1.000_1.000_BRIGHTNESS
141
0.0
102
VTR_0.000_0.000_1.000_1.000_CONTRAST
142
0.0
  0
DICTIONARY
  5
4
102
{ACAD_REACTORS
330
3
102
}
330
3
100
AcDbDictionary
281
     1
  0
XRECORD
  5
21
102
{ACAD_REACTORS
330
20
102
}
330
20
100
AcDbXrecord
280
     1
290
     1
  0
XRECORD
  5
D6
102
{ACAD_REACTORS
330
D5
102
}
330
D5
100
AcDbXrecord
280
     1
290
     1
  0
XRECORD
  5
6
102
{ACAD_REACTORS
330
5
102
}
330
5
100
AcDbXrecord
280
     1
290
     1
  0
XRECORD
  5
D0
102
{ACAD_REACTORS
330
CF
102
}
330
CF
100
AcDbXrecord
280
     1
290
     1
  0
XRECORD
  5
5B
102
{ACAD_REACTORS
330
5A
102
}
330
5A
100
AcDbXrecord
280
     1
290
     1
  0
XRECORD
  5
63
102
{ACAD_REACTORS
330
62
102
}
330
62
100
AcDbXrecord
280
     1
290
     1
  0
XRECORD
  5
C9
102
{ACAD_REACTORS
330
C8
102
}
330
C8
100
AcDbXrecord
280
     1
290
     1
  0
SORTENTSTABLE
  5
1D
102
{ACAD_REACTORS
330
1C
102
}
330
1C
100
AcDbSortentsTable
330
1B
331
0
  5
3FE
331
1A2
  5
174
331
1A3
  5
173
331
1A4
  5
172
331
1A5
  5
171
331
1A6
  5
170
331
1A7
  5
16F
331
1A8
  5
16E
331
1A9
  5
16D
331
1AA
  5
16C
331
1AB
  5
16B
331
1AC
  5
16A
331
1AD
  5
169
331
1AE
  5
168
331
1AF
  5
167
331
1B0
  5
166
331
1B1
  5
165
331
1B2
  5
164
331
1B3
  5
163
331
1B4
  5
162
331
1B5
  5
161
331
1B6
  5
160
331
1B7
  5
15F
331
1B8
  5
15E
331
1B9
  5
15D
331
1BA
  5
15C
331
1BB
  5
15B
331
1BC
  5
15A
331
1BD
  5
159
331
1BE
  5
158
331
1BF
  5
157
331
1C0
  5
156
331
1C1
  5
155
331
1C2
  5
154
331
1C3
  5
153
331
1C4
  5
152
331
1C5
  5
151
331
1C6
  5
150
331
1C7
  5
14F
331
1C8
  5
14E
331
1C9
  5
14D
331
1CA
  5
14C
331
1CB
  5
14B
331
1CC
  5
14A
331
1CD
  5
149
331
1CE
  5
148
331
1CF
  5
147
331
1D0
  5
146
331
1D1
  5
145
331
1D2
  5
144
331
1D3
  5
143
331
1D4
  5
142
331
1D5
  5
141
331
1D6
  5
140
331
1D7
  5
13F
331
1D8
  5
13E
331
1D9
  5
13D
331
1DA
  5
13C
331
1DB
  5
13B
331
1DC
  5
13A
331
1DD
  5
139
331
1DE
  5
138
331
1DF
  5
137
331
1E0
  5
136
331
1E1
  5
135
331
1E2
  5
134
331
1E3
  5
133
331
1E4
  5
132
331
1E5
  5
131
331
1E6
  5
130
331
1E7
  5
12F
331
1F1
  5
125
331
1F2
  5
124
331
1F3
  5
123
331
1F4
  5
122
331
1F5
  5
121
331
1F6
  5
120
331
1F7
  5
11F
331
200
  5
116
331
201
  5
115
331
202
  5
114
331
203
  5
113
331
204
  5
112
331
205
  5
111
331
206
  5
110
331
207
  5
10F
331
208
  5
10E
331
209
  5
10D
331
20A
  5
10C
331
20B
  5
10B
331
210
  5
106
331
211
  5
105
331
212
  5
104
331
213
  5
103
331
214
  5
102
331
215
  5
101
331
216
  5
100
331
217
  5
FF
331
218
  5
FE
331
219
  5
FD
331
21A
  5
FC
331
21C
  5
FA
331
21D
  5
F9
331
21E
  5
F8
331
21F
  5
F7
331
220
  5
F6
331
221
  5
F5
331
222
  5
F4
331
224
  5
F2
331
225
  5
F1
331
22D
  5
E9
331
22E
  5
E8
331
22F
  5
E7
331
230
  5
E6
331
232
  5
E4
331
233
  5
E3
331
236
  5
E0
331
237
  5
DF
331
238
  5
DE
331
239
  5
DD
331
23A
  5
DC
331
23B
  5
DB
331
23C
  5
DA
331
23D
  5
D9
331
23E
  5
D8
331
23F
  5
D7
331
240
  5
D3
331
241
  5
D2
331
242
  5
D1
331
243
  5
CD
331
244
  5
CC
331
245
  5
CB
331
246
  5
CA
331
247
  5
C6
331
248
  5
C5
331
249
  5
C4
331
24A
  5
C3
331
24B
  5
C2
331
24C
  5
C1
331
24D
  5
C0
331
24E
  5
BF
331
24F
  5
BE
331
250
  5
BD
331
251
  5
BC
331
252
  5
BB
331
253
  5
BA
331
254
  5
B9
331
255
  5
B8
331
256
  5
B7
331
257
  5
B6
331
258
  5
B5
331
259
  5
B4
331
25A
  5
B3
331
25B
  5
B2
331
25C
  5
B1
331
25E
  5
AF
331
25F
  5
AE
331
260
  5
AD
331
261
  5
AC
331
262
  5
AB
331
263
  5
AA
331
264
  5
A9
331
265
  5
A8
331
266
  5
A7
331
267
  5
A6
331
268
  5
A5
331
269
  5
A4
331
26A
  5
A3
331
26B
  5
A2
331
26C
  5
A1
331
26D
  5
A0
331
26E
  5
9F
331
26F
  5
9E
331
270
  5
9D
331
271
  5
9C
331
272
  5
9B
331
273
  5
9A
331
274
  5
99
331
275
  5
98
331
276
  5
97
331
277
  5
96
331
278
  5
95
331
279
  5
94
331
27A
  5
93
331
27B
  5
92
331
27C
  5
91
331
27D
  5
90
331
27E
  5
8F
331
27F
  5
8E
331
280
  5
8D
331
281
  5
8C
331
282
  5
8B
331
283
  5
8A
331
284
  5
89
331
285
  5
88
331
286
  5
87
331
287
  5
86
331
288
  5
85
331
289
  5
84
331
28A
  5
83
331
28B
  5
82
331
28C
  5
81
331
28D
  5
80
331
28E
  5
7F
331
28F
  5
7E
331
290
  5
7D
331
291
  5
7C
331
292
  5
7B
331
293
  5
7A
331
294
  5
79
331
295
  5
78
331
296
  5
77
331
297
  5
76
331
298
  5
75
331
299
  5
74
331
29A
  5
73
331
29B
  5
72
331
29C
  5
71
331
29D
  5
70
331
29E
  5
6E
331
29F
  5
6C
331
2A0
  5
6A
331
2A1
  5
68
331
2A2
  5
67
331
2A3
  5
66
331
2A4
  5
65
331
2A5
  5
64
331
2A6
  5
60
331
2A7
  5
5F
331
2A8
  5
5E
331
2A9
  5
5D
331
2AA
  5
58
331
2AB
  5
2AF
331
2AC
  5
2B0
331
2AD
  5
2B1
331
2AE
  5
2B2
331
2AF
  5
2B3
331
2B0
  5
2B4
331
2B1
  5
2B5
331
2B2
  5
2B6
331
2B3
  5
2B7
331
2B4
  5
2B8
331
2B5
  5
2B9
331
2B6
  5
2BA
331
2B7
  5
2BB
331
2B8
  5
2BC
331
2B9
  5
2BD
331
2BA
  5
2BE
331
2BB
  5
2BF
331
2BC
  5
2C0
331
2BD
  5
2C1
331
2BE
  5
2C2
331
2BF
  5
2C3
331
2C0
  5
2C4
331
2C1
  5
2C5
331
2C2
  5
2C6
331
2C3
  5
2C7
331
2C4
  5
2C8
331
2C5
  5
2C9
331
2C6
  5
2CA
331
2D1
  5
2D5
331
2D2
  5
2D6
331
2D3
  5
2D7
331
2D4
  5
2D8
331
2D5
  5
2D9
331
2D6
  5
2DA
331
2D7
  5
2DB
331
2D8
  5
2DC
331
2D9
  5
2DD
331
2DA
  5
2DE
331
2DB
  5
2DF
331
2DD
  5
2E1
331
2DE
  5
2E2
331
2DF
  5
2E3
331
2E0
  5
2E4
331
2E1
  5
2E5
331
2E2
  5
2E6
331
2E3
  5
2E7
331
2E4
  5
2E8
331
2E5
  5
2E9
331
2E6
  5
2EA
331
2F1
  5
2F5
331
2F2
  5
2F6
331
2F3
  5
2F7
331
2F4
  5
2F8
331
2F5
  5
2F9
331
2F6
  5
2FA
331
2F7
  5
2FB
331
2FD
  5
301
331
2FE
  5
302
331
2FF
  5
303
331
300
  5
304
331
301
  5
305
331
302
  5
306
331
303
  5
307
331
304
  5
308
331
305
  5
309
331
306
  5
30A
331
307
  5
30B
331
308
  5
30C
331
309
  5
30D
331
30A
  5
30E
331
30B
  5
30F
331
30C
  5
310
331
30D
  5
311
331
30E
  5
312
331
30F
  5
313
331
310
  5
314
331
311
  5
315
331
313
  5
317
331
314
  5
318
331
315
  5
319
331
316
  5
31A
331
319
  5
31D
331
31A
  5
31E
331
31B
  5
31F
331
31C
  5
320
331
31D
  5
322
331
31E
  5
323
331
31F
  5
324
331
320
  5
325
331
321
  5
326
331
322
  5
327
331
323
  5
328
331
324
  5
329
331
325
  5
32A
331
32B
  5
330
331
32C
  5
331
331
32D
  5
332
331
32F
  5
334
331
331
  5
336
331
332
  5
337
331
333
  5
338
331
334
  5
339
331
335
  5
33A
331
336
  5
33B
331
337
  5
33C
331
338
  5
33D
331
339
  5
33E
331
33A
  5
33F
331
33B
  5
340
331
33C
  5
341
331
33D
  5
342
331
33E
  5
343
331
340
  5
345
331
341
  5
346
331
342
  5
347
331
343
  5
348
331
344
  5
349
331
345
  5
34A
331
346
  5
34B
331
347
  5
34C
331
348
  5
34D
331
34A
  5
34F
331
34B
  5
350
331
34C
  5
351
331
352
  5
357
331
353
  5
358
331
354
  5
359
331
355
  5
35A
331
356
  5
35B
331
357
  5
35C
331
358
  5
35D
331
359
  5
35E
331
35A
  5
35F
331
35B
  5
360
331
35C
  5
361
331
35D
  5
362
331
35E
  5
363
331
35F
  5
364
331
360
  5
365
331
361
  5
366
331
362
  5
367
331
363
  5
368
331
364
  5
369
331
365
  5
36A
331
366
  5
36B
331
368
  5
36D
331
369
  5
36E
331
36A
  5
36F
331
36B
  5
370
331
36C
  5
371
331
36D
  5
372
331
36E
  5
373
331
36F
  5
374
331
370
  5
375
331
371
  5
376
331
373
  5
378
331
374
  5
379
331
375
  5
37A
331
384
  5
389
331
388
  5
38D
331
389
  5
38E
331
38A
  5
38F
331
38B
  5
390
331
38D
  5
392
331
38E
  5
393
331
38F
  5
394
331
390
  5
395
331
392
  5
397
331
394
  5
399
331
395
  5
39A
331
396
  5
39B
331
397
  5
39C
331
398
  5
39D
331
399
  5
39E
331
39A
  5
39F
331
39B
  5
3A0
331
39C
  5
3A1
331
39D
  5
3A2
331
39E
  5
3A3
331
39F
  5
3A4
331
3A0
  5
3A5
331
3A1
  5
3A6
331
3A2
  5
3A7
331
3A3
  5
3A8
331
3A4
  5
3A9
331
3A5
  5
3AA
331
3A6
  5
3AB
331
3A7
  5
3AC
331
3A8
  5
3AD
331
3A9
  5
3AE
331
3AA
  5
3AF
331
3AB
  5
3B0
331
3AC
  5
3B1
331
3AD
  5
3B2
331
3AE
  5
3B3
331
3AF
  5
3B4
331
3B0
  5
3B5
331
3B1
  5
3B6
331
3B2
  5
3B7
331
3B3
  5
3B8
331
3B4
  5
3B9
331
3B5
  5
3BA
331
3B6
  5
3BB
331
3B7
  5
3BC
331
3B8
  5
3BD
331
3B9
  5
3BE
331
3BA
  5
3BF
331
3BB
  5
3C0
331
3BC
  5
3C1
331
3BD
  5
3C2
331
3BE
  5
3C3
331
3BF
  5
3C4
331
3C0
  5
3C5
331
3C1
  5
3C6
331
3C2
  5
3C7
331
3C3
  5
3C8
331
3C4
  5
3C9
331
3C5
  5
3CA
331
3C6
  5
3CB
331
3C7
  5
3CC
331
3C8
  5
3CD
331
3C9
  5
3CE
331
3CA
  5
3CF
331
3CB
  5
3D0
331
3CC
  5
3D1
331
3CD
  5
3D2
331
3CE
  5
3D3
331
3CF
  5
3D4
331
3D0
  5
3D5
331
3D1
  5
3D6
331
3D2
  5
3D7
331
3D3
  5
3D9
331
3D4
  5
3DA
331
3D5
  5
3DB
331
3D6
  5
3DC
331
3D7
  5
3DD
331
3D8
  5
3DE
331
3D9
  5
3DF
331
3DA
  5
3E0
331
3DB
  5
3E1
331
3DC
  5
3E2
331
3DD
  5
3E3
331
3DE
  5
3E4
331
3DF
  5
3E5
331
3E0
  5
3E6
331
3E1
  5
3E7
331
3E2
  5
3E8
331
3E3
  5
3E9
331
3E4
  5
3EA
331
3E5
  5
3EB
331
3E6
  5
3EC
331
3E7
  5
3ED
331
3E8
  5
3EE
331
3EC
  5
3F2
331
3F3
  5
3F9
331
3F7
  5
3FD
331
402
  5
409
331
403
  5
40A
331
404
  5
40B
331
405
  5
40C
331
406
  5
40D
331
409
  5
410
331
40A
  5
411
331
40B
  5
412
331
40C
  5
413
331
40D
  5
414
331
40E
  5
415
331
40F
  5
416
331
410
  5
417
331
415
  5
41C
331
419
  5
420
331
41E
  5
425
331
41F
  5
426
331
427
  5
42E
331
428
  5
42F
331
42F
  5
436
331
430
  5
437
331
433
  5
43A
331
434
  5
43B
331
43B
  5
442
331
446
  5
44D
331
450
  5
457
331
451
  5
458
331
452
  5
459
331
453
  5
45A
331
454
  5
45B
331
455
  5
45C
331
456
  5
45D
331
457
  5
45E
331
458
  5
45F
331
459
  5
460
331
45A
  5
461
331
45B
  5
462
331
45C
  5
463
331
45D
  5
464
331
45F
  5
466
331
460
  5
467
331
461
  5
468
331
462
  5
469
331
467
  5
48D
331
468
  5
48E
331
469
  5
48F
331
46A
  5
490
331
46B
  5
491
331
46C
  5
493
331
491
  5
69
331
492
  5
6D
331
493
  5
6F
331
494
  5
6B
331
495
  5
321
331
496
  5
498
331
497
  5
499
  0
LAYOUT
  5
23
102
{ACAD_REACTORS
330
24
102
}
330
24
100
AcDbPlotSettings
  1

  2
Bullzip PDF Printer.pc3
  4
A3
  6

 40
0.2
 41
0.0
 42
0.0
 43
0.0
 44
420.2
 45
297.1
 46
25.0
 47
12.0
 48
45.99999990666663
 49
10.0
140
809.9999981566668
141
554.9999987283333
142
1.0
143
2.0
 70
 11936
 72
     1
 73
     0
 74
     4
  7
monochrome.ctb
 75
    17
147
0.5
148
-45.99999990666663
149
-10.0
100
AcDbLayout
  1
Model
 70
     0
 71
     0
 10
0.0
 20
0.0
 11
12.0
 21
9.0
 12
0.0
 22
0.0
 32
0.0
 14
111.136824366061
 24
43.21807482280821
 34
0.0
 15
737.904367217681
 25
538.2256062353847
 35
0.0
146
0.0
 13
0.0
 23
0.0
 33
0.0
 16
1.0
 26
0.0
 36
0.0
 17
0.0
 27
1.0
 37
0.0
 76
     0
330
1B
331
31
1001
ACAD_PSEXT
1000
Bullzip PDF Printer.pc3
1000
Bullzip PDF Printer
1000
BULLZIP
1000
Bullzip PDF Printer 10.1.0.1871
1070
     0
  0
LAYOUT
  5
29
102
{ACAD_REACTORS
330
24
102
}
330
24
100
AcDbPlotSettings
  1

  2
SR-LP8300F
  4

  6

 40
0.0
 41
0.0
 42
0.0
 43
0.0
 44
0.0
 45
0.0
 46
0.0
 47
0.0
 48
0.0
 49
0.0
140
0.0
141
0.0
142
1.0
143
1.0
 70
   688
 72
     0
 73
     0
 74
     5
  7
monochrome.ctb
 75
    16
147
1.0
148
0.0
149
0.0
100
AcDbLayout
  1
ﾚｲｱｳﾄ1
 70
     0
 71
     1
 10
0.0
 20
0.0
 11
12.0
 21
9.0
 12
0.0
 22
0.0
 32
0.0
 14
1.000000000000000E+20
 24
1.000000000000000E+20
 34
1.000000000000000E+20
 15
-1.000000000000000E+20
 25
-1.000000000000000E+20
 35
-1.000000000000000E+20
146
0.0
 13
0.0
 23
0.0
 33
0.0
 16
1.0
 26
0.0
 36
0.0
 17
0.0
 27
1.0
 37
0.0
 76
     0
330
26
  0
MATERIAL
  5
57
102
{ACAD_REACTORS
330
B
102
}
102
{ACAD_XDICTIONARY
360
4B3
102
}
330
B
100
AcDbMaterial
  1
ByBlock
 72
     0
 73
     2
 43
0.0208333333333333
 43
0.0
 43
0.0
 43
0.0
 43
0.0
 43
0.0208333333333333
 43
0.0
 43
0.0
 43
0.0
 43
0.0
 43
1.0
 43
0.0
 43
0.0
 43
0.0
 43
0.0
 43
1.0
 77
     0
 78
     2
 47
0.0208333333333333
 47
0.0
 47
0.0
 47
0.0
 47
0.0
 47
0.0208333333333333
 47
0.0
 47
0.0
 47
0.0
 47
0.0
 47
1.0
 47
0.0
 47
0.0
 47
0.0
 47
0.0
 47
1.0
171
     0
172
     2
 49
0.0208333333333333
 49
0.0
 49
0.0
 49
0.0
 49
0.0
 49
0.0208333333333333
 49
0.0
 49
0.0
 49
0.0
 49
0.0
 49
1.0
 49
0.0
 49
0.0
 49
0.0
 49
0.0
 49
1.0
175
     0
176
     2
142
0.0208333333333333
142
0.0
142
0.0
142
0.0
142
0.0
142
0.0208333333333333
142
0.0
142
0.0
142
0.0
142
0.0
142
1.0
142
0.0
142
0.0
142
0.0
142
0.0
142
1.0
179
     0
270
     2
144
0.0208333333333333
144
0.0
144
0.0
144
0.0
144
0.0
144
0.0208333333333333
144
0.0
144
0.0
144
0.0
144
0.0
144
1.0
144
0.0
144
0.0
144
0.0
144
0.0
144
1.0
274
     2
147
0.0208333333333333
147
0.0
147
0.0
147
0.0
147
0.0
147
0.0208333333333333
147
0.0
147
0.0
147
0.0
147
0.0
147
1.0
147
0.0
147
0.0
147
0.0
147
0.0
147
1.0
  0
MATERIAL
  5
14
102
{ACAD_REACTORS
330
B
102
}
102
{ACAD_XDICTIONARY
360
4AF
102
}
330
B
100
AcDbMaterial
  1
ByLayer
 72
     0
 73
     2
 43
0.0208333333333333
 43
0.0
 43
0.0
 43
0.0
 43
0.0
 43
0.0208333333333333
 43
0.0
 43
0.0
 43
0.0
 43
0.0
 43
1.0
 43
0.0
 43
0.0
 43
0.0
 43
0.0
 43
1.0
 77
     0
 78
     2
 47
0.0208333333333333
 47
0.0
 47
0.0
 47
0.0
 47
0.0
 47
0.0208333333333333
 47
0.0
 47
0.0
 47
0.0
 47
0.0
 47
1.0
 47
0.0
 47
0.0
 47
0.0
 47
0.0
 47
1.0
171
     0
172
     2
 49
0.0208333333333333
 49
0.0
 49
0.0
 49
0.0
 49
0.0
 49
0.0208333333333333
 49
0.0
 49
0.0
 49
0.0
 49
0.0
 49
1.0
 49
0.0
 49
0.0
 49
0.0
 49
0.0
 49
1.0
175
     0
176
     2
142
0.0208333333333333
142
0.0
142
0.0
142
0.0
142
0.0
142
0.0208333333333333
142
0.0
142
0.0
142
0.0
142
0.0
142
1.0
142
0.0
142
0.0
142
0.0
142
0.0
142
1.0
179
     0
270
     2
144
0.0208333333333333
144
0.0
144
0.0
144
0.0
144
0.0
144
0.0208333333333333
144
0.0
144
0.0
144
0.0
144
0.0
144
1.0
144
0.0
144
0.0
144
0.0
144
0.0
144
1.0
274
     2
147
0.0208333333333333
147
0.0
147
0.0
147
0.0
147
0.0
147
0.0208333333333333
147
0.0
147
0.0
147
0.0
147
0.0
147
1.0
147
0.0
147
0.0
147
0.0
147
0.0
147
1.0
  0
MATERIAL
  5
A
102
{ACAD_REACTORS
330
B
102
}
102
{ACAD_XDICTIONARY
360
4B1
102
}
330
B
100
AcDbMaterial
  1
Global
 72
     0
 73
     2
 43
0.0208333333333333
 43
0.0
 43
0.0
 43
0.0
 43
0.0
 43
0.0208333333333333
 43
0.0
 43
0.0
 43
0.0
 43
0.0
 43
1.0
 43
0.0
 43
0.0
 43
0.0
 43
0.0
 43
1.0
 77
     0
 78
     2
 47
0.0208333333333333
 47
0.0
 47
0.0
 47
0.0
 47
0.0
 47
0.0208333333333333
 47
0.0
 47
0.0
 47
0.0
 47
0.0
 47
1.0
 47
0.0
 47
0.0
 47
0.0
 47
0.0
 47
1.0
171
     0
172
     2
 49
0.0208333333333333
 49
0.0
 49
0.0
 49
0.0
 49
0.0
 49
0.0208333333333333
 49
0.0
 49
0.0
 49
0.0
 49
0.0
 49
1.0
 49
0.0
 49
0.0
 49
0.0
 49
0.0
 49
1.0
175
     0
176
     2
142
0.0208333333333333
142
0.0
142
0.0
142
0.0
142
0.0
142
0.0208333333333333
142
0.0
142
0.0
142
0.0
142
0.0
142
1.0
142
0.0
142
0.0
142
0.0
142
0.0
142
1.0
179
     0
270
     2
144
0.0208333333333333
144
0.0
144
0.0
144
0.0
144
0.0
144
0.0208333333333333
144
0.0
144
0.0
144
0.0
144
0.0
144
1.0
144
0.0
144
0.0
144
0.0
144
0.0
144
1.0
274
     2
147
0.0208333333333333
147
0.0
147
0.0
147
0.0
147
0.0
147
0.0208333333333333
147
0.0
147
0.0
147
0.0
147
0.0
147
1.0
147
0.0
147
0.0
147
0.0
147
0.0
147
1.0
1001
ACAD
1070
    -1
1070
     3
1070
     0
1000

1071
        0
  0
MLEADERSTYLE
  5
49D
102
{ACAD_REACTORS
330
471
102
}
102
{ACAD_XDICTIONARY
360
4E5
102
}
330
471
100
AcDbMLeaderStyle
170
     2
171
     1
172
     0
 90
        2
 40
0.0
 41
0.0
173
     1
 91
-1056964608
340
11
 92
       -2
290
     1
 42
0.09
291
     1
 43
0.36
  3
Standard
341
0
 44
0.18
300

342
12
174
     1
178
     6
175
     1
176
     0
 93
-1056964608
 45
0.18
292
     0
297
     0
 46
0.18
343
0
 94
-1056964608
 47
1.0
 49
1.0
140
1.0
293
     1
141
0.0
294
     1
177
     0
142
1.0
295
     0
296
     0
143
0.125
1001
ACAD_MLEADERVER
1070
     2
  0
MLINESTYLE
  5
18
102
{ACAD_REACTORS
330
19
102
}
330
19
100
AcDbMlineStyle
  2
STANDARD
 70
     0
  3

 62
     0
 51
90.0
 52
90.0
 71
     2
 49
0.5
 62
   256
  6
BYLAYER
 49
-0.5
 62
   256
  6
BYLAYER
  0
ACDBPLACEHOLDER
  5
7
102
{ACAD_REACTORS
330
8
102
}
330
8
  0
SCALE
  5
56
102
{ACAD_REACTORS
330
34
102
}
330
34
100
AcDbScale
 70
     0
300
1:1
140
1.0
141
1.0
290
     1
  0
TABLESTYLE
  5
4A4
102
{ACAD_REACTORS
330
470
102
}
330
470
100
AcDbTableStyle
  3
Standard
 70
     0
 71
     0
 40
0.06
 41
0.06
280
     0
281
     0
  7
STANDARD
140
0.18
170
     2
 62
     0
 63
   257
283
     0
274
    -2
284
     1
 64
     0
275
    -2
285
     1
 65
     0
276
    -2
286
     1
 66
     0
277
    -2
287
     1
 67
     0
278
    -2
288
     1
 68
     0
279
    -2
289
     1
 69
     0
  7
STANDARD
140
0.25
170
     5
 62
     0
 63
   257
283
     0
274
    -2
284
     1
 64
     0
275
    -2
285
     1
 65
     0
276
    -2
286
     1
 66
     0
277
    -2
287
     1
 67
     0
278
    -2
288
     1
 68
     0
279
    -2
289
     1
 69
     0
  7
STANDARD
140
0.18
170
     5
 62
     0
 63
   257
283
     0
274
    -2
284
     1
 64
     0
275
    -2
285
     1
 65
     0
276
    -2
286
     1
 66
     0
277
    -2
287
     1
 67
     0
278
    -2
288
     1
 68
     0
279
    -2
289
     1
 69
     0
  0
VISUALSTYLE
  5
479
102
{ACAD_REACTORS
330
30
102
}
102
{ACAD_XDICTIONARY
360
4BD
102
}
330
30
100
AcDbVisualStyle
  2
2dWireframe
 70
     4
 71
     0
 72
     2
 73
     0
 90
        0
 40
0.6
 41
30.0
 62
     5
 63
     7
 74
     1
 91
        4
 64
     7
 65
   257
 75
     1
175
     1
 42
1.0
 92
        0
 66
   257
 43
1.0
 76
     1
 77
     6
 78
     2
 67
     7
 79
     5
170
     0
171
     0
290
     0
174
     0
 93
        1
 44
0.0
173
     0
291
     0
 45
0.0
1001
ACAD
1000
AcDbSavedByObjectVersion
1070
     0
  0
VISUALSTYLE
  5
47C
102
{ACAD_REACTORS
330
30
102
}
102
{ACAD_XDICTIONARY
360
4C3
102
}
330
30
100
AcDbVisualStyle
  2
Basic
 70
     7
 71
     1
 72
     0
 73
     1
 90
        0
 40
0.6
 41
30.0
 62
     5
 63
     7
 74
     0
 91
        4
 64
     7
 65
   257
 75
     1
175
     1
 42
1.0
 92
        8
 66
     7
 43
1.0
 76
     1
 77
     6
 78
     2
 67
     7
 79
     5
170
     0
171
     0
290
     0
174
     0
 93
        1
 44
0.0
173
     0
291
     1
 45
0.0
1001
ACAD
1000
AcDbSavedByObjectVersion
1070
     0
  0
VISUALSTYLE
  5
480
102
{ACAD_REACTORS
330
30
102
}
102
{ACAD_XDICTIONARY
360
4CB
102
}
330
30
100
AcDbVisualStyle
  2
Brighten
 70
    12
 71
     2
 72
     2
 73
     0
 90
        0
 40
0.6
 41
30.0
 62
     5
 63
     7
 74
     1
 91
        4
 64
     7
 65
   257
 75
     1
175
     1
 42
1.0
 92
        8
 66
     7
 43
1.0
 76
     1
 77
     6
 78
     2
 67
     7
 79
     5
170
     0
171
     0
290
     0
174
     0
 93
        1
 44
50.0
173
     0
291
     1
 45
0.0
1001
ACAD
1000
AcDbSavedByObjectVersion
1070
     0
  0
VISUALSTYLE
  5
484
102
{ACAD_REACTORS
330
30
102
}
102
{ACAD_XDICTIONARY
360
4D3
102
}
330
30
100
AcDbVisualStyle
  2
ColorChange
 70
    16
 71
     2
 72
     2
 73
     3
 90
        0
 40
0.6
 41
30.0
 62
     5
 63
     8
 74
     1
 91
        4
 64
     7
 65
   257
 75
     1
175
     1
 42
1.0
 92
        8
 66
     8
 43
1.0
 76
     1
 77
     6
 78
     2
 67
     7
 79
     5
170
     0
171
     0
290
     0
174
     0
 93
        1
 44
0.0
173
     0
291
     1
 45
0.0
1001
ACAD
1000
AcDbSavedByObjectVersion
1070
     0
  0
VISUALSTYLE
  5
47E
102
{ACAD_REACTORS
330
30
102
}
102
{ACAD_XDICTIONARY
360
4C7
102
}
330
30
100
AcDbVisualStyle
  2
Conceptual
 70
     9
 71
     3
 72
     2
 73
     0
 90
        0
 40
0.6
 41
30.0
 62
     5
 63
     7
 74
     2
 91
        2
 64
     7
 65
   257
 75
     1
175
     1
 42
40.0
 92
        8
 66
     7
 43
1.0
 76
     1
 77
     6
 78
     2
 67
     7
 79
     3
170
     0
171
     0
290
     0
174
     0
 93
        1
 44
0.0
173
     0
291
     0
 45
0.0
1001
ACAD
1000
AcDbSavedByObjectVersion
1070
     0
  0
VISUALSTYLE
  5
47F
102
{ACAD_REACTORS
330
30
102
}
102
{ACAD_XDICTIONARY
360
4C9
102
}
330
30
100
AcDbVisualStyle
  2
Dim
 70
    11
 71
     2
 72
     2
 73
     0
 90
        0
 40
0.6
 41
30.0
 62
     5
 63
     7
 74
     1
 91
        4
 64
     7
 65
   257
 75
     1
175
     1
 42
1.0
 92
        8
 66
     7
 43
1.0
 76
     1
 77
     6
 78
     2
 67
     7
 79
     5
170
     0
171
     0
290
     0
174
     0
 93
        1
 44
-50.0
173
     0
291
     1
 45
0.0
1001
ACAD
1000
AcDbSavedByObjectVersion
1070
     0
  0
VISUALSTYLE
  5
487
102
{ACAD_REACTORS
330
30
102
}
102
{ACAD_XDICTIONARY
360
4D9
102
}
330
30
100
AcDbVisualStyle
  2
EdgeColorOff
 70
    22
 71
     2
 72
     2
 73
     0
 90
        0
 40
0.6
 41
30.0
 62
     5
 63
     7
 74
     1
 91
        4
 64
     7
 65
   257
 75
     1
175
     1
 42
1.0
 92
        8
 66
     7
 43
1.0
 76
     1
 77
     6
 78
     2
 67
     7
 79
     5
170
     0
171
     0
290
     0
174
     0
 93
        1
 44
0.0
173
     0
291
     1
 45
0.0
1001
ACAD
1000
AcDbSavedByObjectVersion
1070
     0
  0
VISUALSTYLE
  5
483
102
{ACAD_REACTORS
330
30
102
}
102
{ACAD_XDICTIONARY
360
4D1
102
}
330
30
100
AcDbVisualStyle
  2
Facepattern
 70
    15
 71
     2
 72
     2
 73
     0
 90
        0
 40
0.6
 41
30.0
 62
     5
 63
     7
 74
     1
 91
        4
 64
     7
 65
   257
 75
     1
175
     1
 42
1.0
 92
        8
 66
     7
 43
1.0
 76
     1
 77
     6
 78
     2
 67
     7
 79
     5
170
     0
171
     0
290
     0
174
     0
 93
        1
 44
0.0
173
     0
291
     1
 45
0.0
1001
ACAD
1000
AcDbSavedByObjectVersion
1070
     0
  0
VISUALSTYLE
  5
475
102
{ACAD_REACTORS
330
30
102
}
102
{ACAD_XDICTIONARY
360
4B5
102
}
330
30
100
AcDbVisualStyle
  2
Flat
 70
     0
 71
     2
 72
     1
 73
     1
 90
        2
 40
0.6
 41
30.0
 62
     5
 63
     7
 74
     0
 91
        4
 64
     7
 65
   257
 75
     1
175
     1
 42
1.0
 92
        8
 66
     7
 43
1.0
 76
     1
 77
     6
 78
     2
 67
     7
 79
     5
170
     0
171
     0
290
     0
174
     0
 93
       13
 44
0.0
173
     0
291
     1
 45
0.0
1001
ACAD
1000
AcDbSavedByObjectVersion
1070
     0
  0
VISUALSTYLE
  5
476
102
{ACAD_REACTORS
330
30
102
}
102
{ACAD_XDICTIONARY
360
4B7
102
}
330
30
100
AcDbVisualStyle
  2
FlatWithEdges
 70
     1
 71
     2
 72
     1
 73
     1
 90
        2
 40
0.6
 41
30.0
 62
     5
 63
     7
 74
     1
 91
        4
 64
     7
 65
   257
 75
     1
175
     1
 42
1.0
 92
        0
 66
   257
 43
1.0
 76
     1
 77
     6
 78
     2
 67
     7
 79
     5
170
     0
171
     0
290
     0
174
     0
 93
       13
 44
0.0
173
     0
291
     1
 45
0.0
1001
ACAD
1000
AcDbSavedByObjectVersion
1070
     0
  0
VISUALSTYLE
  5
477
102
{ACAD_REACTORS
330
30
102
}
102
{ACAD_XDICTIONARY
360
4B9
102
}
330
30
100
AcDbVisualStyle
  2
Gouraud
 70
     2
 71
     2
 72
     2
 73
     1
 90
        2
 40
0.6
 41
30.0
 62
     5
 63
     7
 74
     0
 91
        4
 64
     7
 65
   257
 75
     1
175
     1
 42
1.0
 92
        0
 66
     7
 43
1.0
 76
     1
 77
     6
 78
     2
 67
     7
 79
     5
170
     0
171
     0
290
     0
174
     0
 93
       13
 44
0.0
173
     0
291
     1
 45
0.0
1001
ACAD
1000
AcDbSavedByObjectVersion
1070
     0
  0
VISUALSTYLE
  5
478
102
{ACAD_REACTORS
330
30
102
}
102
{ACAD_XDICTIONARY
360
4BB
102
}
330
30
100
AcDbVisualStyle
  2
GouraudWithEdges
 70
     3
 71
     2
 72
     2
 73
     1
 90
        2
 40
0.6
 41
30.0
 62
     5
 63
     7
 74
     1
 91
        4
 64
     7
 65
   257
 75
     1
175
     1
 42
1.0
 92
        0
 66
   257
 43
1.0
 76
     1
 77
     6
 78
     2
 67
     7
 79
     5
170
     0
171
     0
290
     0
174
     0
 93
       13
 44
0.0
173
     0
291
     1
 45
0.0
1001
ACAD
1000
AcDbSavedByObjectVersion
1070
     0
  0
VISUALSTYLE
  5
47B
102
{ACAD_REACTORS
330
30
102
}
102
{ACAD_XDICTIONARY
360
4C1
102
}
330
30
100
AcDbVisualStyle
  2
Hidden
 70
     6
 71
     1
 72
     2
 73
     2
 90
        0
 40
0.6
 41
30.0
 62
     5
 63
     7
 74
     2
 91
        2
 64
     7
 65
   257
 75
     2
175
     1
 42
40.0
 92
        0
 66
   257
 43
1.0
 76
     1
 77
     6
 78
     2
 67
     7
 79
     3
170
     0
171
     0
290
     0
174
     0
 93
        1
 44
0.0
173
     0
291
     0
 45
0.0
1001
ACAD
1000
AcDbSavedByObjectVersion
1070
     0
  0
VISUALSTYLE
  5
485
102
{ACAD_REACTORS
330
30
102
}
102
{ACAD_XDICTIONARY
360
4D5
102
}
330
30
100
AcDbVisualStyle
  2
JitterOff
 70
    20
 71
     2
 72
     2
 73
     0
 90
        0
 40
0.6
 41
30.0
 62
     5
 63
     7
 74
     1
 91
        4
 64
     7
 65
   257
 75
     1
175
     1
 42
1.0
 92
       10
 66
     7
 43
1.0
 76
     1
 77
     6
 78
     2
 67
     7
 79
     5
170
     0
171
     0
290
     0
174
     0
 93
        1
 44
0.0
173
     0
291
     1
 45
0.0
1001
ACAD
1000
AcDbSavedByObjectVersion
1070
     0
  0
VISUALSTYLE
  5
482
102
{ACAD_REACTORS
330
30
102
}
102
{ACAD_XDICTIONARY
360
4CF
102
}
330
30
100
AcDbVisualStyle
  2
Linepattern
 70
    14
 71
     2
 72
     2
 73
     0
 90
        0
 40
0.6
 41
30.0
 62
     5
 63
     7
 74
     1
 91
        4
 64
     7
 65
   257
 75
     7
175
     7
 42
1.0
 92
        8
 66
     7
 43
1.0
 76
     1
 77
     6
 78
     2
 67
     7
 79
     5
170
     0
171
     0
290
     0
174
     0
 93
        1
 44
0.0
173
     0
291
     1
 45
0.0
1001
ACAD
1000
AcDbSavedByObjectVersion
1070
     0
  0
VISUALSTYLE
  5
486
102
{ACAD_REACTORS
330
30
102
}
102
{ACAD_XDICTIONARY
360
4D7
102
}
330
30
100
AcDbVisualStyle
  2
OverhangOff
 70
    21
 71
     2
 72
     2
 73
     0
 90
        0
 40
0.6
 41
30.0
 62
     5
 63
     7
 74
     1
 91
        4
 64
     7
 65
   257
 75
     1
175
     1
 42
1.0
 92
        9
 66
     7
 43
1.0
 76
     1
 77
     6
 78
     2
 67
     7
 79
     5
170
     0
171
     0
290
     0
174
     0
 93
        1
 44
0.0
173
     0
291
     1
 45
0.0
1001
ACAD
1000
AcDbSavedByObjectVersion
1070
     0
  0
VISUALSTYLE
  5
47D
102
{ACAD_REACTORS
330
30
102
}
102
{ACAD_XDICTIONARY
360
4C5
102
}
330
30
100
AcDbVisualStyle
  2
Realistic
 70
     8
 71
     2
 72
     3
 73
     0
 90
        2
 40
0.6
 41
30.0
 62
     5
 63
     7
 74
     0
 91
        0
 64
     7
 65
   257
 75
     1
175
     1
 42
1.0
 92
        8
 66
   257
 43
1.0
 76
     1
 77
     6
 78
     2
 67
     7
 79
     3
170
     0
171
     0
290
     0
174
     0
 93
       13
 44
0.0
173
     0
291
     0
 45
0.0
1001
ACAD
1000
AcDbSavedByObjectVersion
1070
     0
  0
VISUALSTYLE
  5
48C
102
{ACAD_REACTORS
330
30
102
}
102
{ACAD_XDICTIONARY
360
4E3
102
}
330
30
100
AcDbVisualStyle
  2
Shaded
 70
    27
 71
     2
 72
     2
 73
     1
 90
        2
 40
0.6
 41
30.0
 62
     5
 63
     7
 74
     0
 91
        4
 64
     7
 65
   257
 75
     1
175
     1
 42
1.0
 92
        8
 66
   257
 43
1.0
 76
     1
 77
     6
 78
     2
 67
   251
 79
     3
170
     0
171
     0
290
     0
174
     0
 93
        5
 44
0.0
173
     0
291
     0
 45
0.0
1001
ACAD
1000
AcDbSavedByObjectVersion
1070
     0
  0
VISUALSTYLE
  5
48B
102
{ACAD_REACTORS
330
30
102
}
102
{ACAD_XDICTIONARY
360
4E1
102
}
330
30
100
AcDbVisualStyle
  2
Shaded with edges
 70
    26
 71
     2
 72
     2
 73
     1
 90
        2
 40
0.6
 41
30.0
 62
     5
 63
     7
 74
     1
 91
       10
 64
     7
 65
   257
 75
     2
175
     1
 42
1.0
 92
        8
 66
   257
 43
1.0
 76
     1
 77
     6
 78
     2
 67
     7
 79
     3
170
     0
171
     0
290
     0
174
     0
 93
        5
 44
0.0
173
     0
291
     0
 45
0.0
1001
ACAD
1000
AcDbSavedByObjectVersion
1070
     0
  0
VISUALSTYLE
  5
488
102
{ACAD_REACTORS
330
30
102
}
102
{ACAD_XDICTIONARY
360
4DB
102
}
330
30
100
AcDbVisualStyle
  2
Shades of Gray
 70
    23
 71
     2
 72
     2
 73
     3
 90
        0
 40
0.6
 41
30.0
 62
     5
 63
     7
 74
     2
 91
        2
 64
     7
 65
     7
 75
     1
175
     1
 42
40.0
 92
        8
 66
     7
 43
1.0
 76
     1
 77
     6
 78
     2
 67
     7
 79
     3
170
     0
171
     0
290
     0
174
     0
 93
        1
 44
0.0
173
     0
291
     0
 45
0.0
1001
ACAD
1000
AcDbSavedByObjectVersion
1070
     0
  0
VISUALSTYLE
  5
489
102
{ACAD_REACTORS
330
30
102
}
102
{ACAD_XDICTIONARY
360
4DD
102
}
330
30
100
AcDbVisualStyle
  2
Sketchy
 70
    24
 71
     1
 72
     2
 73
     2
 90
        0
 40
0.6
 41
30.0
 62
     5
 63
     7
 74
     2
 91
        2
 64
     7
 65
     7
 75
     1
175
     1
 42
40.0
 92
       11
 66
     7
 43
1.0
 76
     1
 77
     6
 78
     2
 67
     7
 79
     6
170
     0
171
     0
290
     0
174
     0
 93
        1
 44
0.0
173
     0
291
     0
 45
0.0
1001
ACAD
1000
AcDbSavedByObjectVersion
1070
     0
  0
VISUALSTYLE
  5
481
102
{ACAD_REACTORS
330
30
102
}
102
{ACAD_XDICTIONARY
360
4CD
102
}
330
30
100
AcDbVisualStyle
  2
Thicken
 70
    13
 71
     2
 72
     2
 73
     0
 90
        0
 40
0.6
 41
30.0
 62
     5
 63
     7
 74
     1
 91
        4
 64
     7
 65
   257
 75
     1
175
     1
 42
1.0
 92
       12
 66
     7
 43
1.0
 76
     1
 77
     6
 78
     2
 67
     7
 79
     5
170
     0
171
     0
290
     0
174
     0
 93
        1
 44
0.0
173
     0
291
     1
 45
0.0
1001
ACAD
1000
AcDbSavedByObjectVersion
1070
     0
  0
VISUALSTYLE
  5
47A
102
{ACAD_REACTORS
330
30
102
}
102
{ACAD_XDICTIONARY
360
4BF
102
}
330
30
100
AcDbVisualStyle
  2
Wireframe
 70
     5
 71
     0
 72
     2
 73
     0
 90
        0
 40
0.6
 41
30.0
 62
     5
 63
     7
 74
     1
 91
        4
 64
     7
 65
   257
 75
     1
175
     1
 42
1.0
 92
        0
 66
   257
 43
1.0
 76
     1
 77
     6
 78
     2
 67
     7
 79
     5
170
     0
171
     0
290
     0
174
     0
 93
        1
 44
0.0
173
     0
291
     0
 45
0.0
1001
ACAD
1000
AcDbSavedByObjectVersion
1070
     0
  0
VISUALSTYLE
  5
48A
102
{ACAD_REACTORS
330
30
102
}
102
{ACAD_XDICTIONARY
360
4DF
102
}
330
30
100
AcDbVisualStyle
  2
X-Ray
 70
    25
 71
     2
 72
     2
 73
     1
 90
        1
 40
0.5
 41
30.0
 62
     5
 63
     7
 74
     1
 91
        0
 64
     7
 65
   257
 75
     1
175
     1
 42
1.0
 92
        8
 66
     7
 43
1.0
 76
     1
 77
     6
 78
     2
 67
     7
 79
     3
170
     0
171
     0
290
     0
174
     0
 93
       13
 44
0.0
173
     0
291
     0
 45
0.0
1001
ACAD
1000
AcDbSavedByObjectVersion
1070
     0
  0
XRECORD
  5
4A9
102
{ACAD_REACTORS
330
4A8
102
}
330
4A8
100
AcDbXrecord
280
     1
340
2F
  0
XRECORD
  5
4AA
102
{ACAD_REACTORS
330
4A8
102
}
330
4A8
100
AcDbXrecord
280
     1
340
B
  0
DICTIONARYVAR
  5
46F
102
{ACAD_REACTORS
330
46E
102
}
330
46E
100
DictionaryVariables
280
     0
  1
1:1
  0
DICTIONARYVAR
  5
4A1
102
{ACAD_REACTORS
330
46E
102
}
330
46E
100
DictionaryVariables
280
     0
  1
Standard
  0
DICTIONARYVAR
  5
4A5
102
{ACAD_REACTORS
330
46E
102
}
330
46E
100
DictionaryVariables
280
     0
  1
Standard
  0
DICTIONARYVAR
  5
4A6
102
{ACAD_REACTORS
330
46E
102
}
330
46E
100
DictionaryVariables
280
     0
  1
0
  0
DICTIONARYVAR
  5
4A7
102
{ACAD_REACTORS
330
46E
102
}
330
46E
100
DictionaryVariables
280
     0
  1
1
  0
DICTIONARYVAR
  5
4AE
102
{ACAD_REACTORS
330
46E
102
}
330
46E
100
DictionaryVariables
280
     0
  1
1
  0
DICTIONARYVAR
  5
472
102
{ACAD_REACTORS
330
46E
102
}
330
46E
100
DictionaryVariables
280
     0
  1
0
  0
DICTIONARY
  5
4B3
330
57
100
AcDbDictionary
280
     1
281
     1
  3
ACAD_XREC_ROUNDTRIP
360
4B4
  0
DICTIONARY
  5
4AF
330
14
100
AcDbDictionary
280
     1
281
     1
  3
ACAD_XREC_ROUNDTRIP
360
4B0
  0
DICTIONARY
  5
4B1
330
A
100
AcDbDictionary
280
     1
281
     1
  3
ACAD_XREC_ROUNDTRIP
360
4B2
  0
DICTIONARY
  5
4E5
330
49D
100
AcDbDictionary
280
     1
281
     1
  3
ACAD_XREC_ROUNDTRIP
360
4E6
  0
DICTIONARY
  5
4BD
330
479
100
AcDbDictionary
280
     1
281
     1
  3
ACAD_XREC_ROUNDTRIP
360
4BE
  0
DICTIONARY
  5
4C3
330
47C
100
AcDbDictionary
280
     1
281
     1
  3
ACAD_XREC_ROUNDTRIP
360
4C4
  0
DICTIONARY
  5
4CB
330
480
100
AcDbDictionary
280
     1
281
     1
  3
ACAD_XREC_ROUNDTRIP
360
4CC
  0
DICTIONARY
  5
4D3
330
484
100
AcDbDictionary
280
     1
281
     1
  3
ACAD_XREC_ROUNDTRIP
360
4D4
  0
DICTIONARY
  5
4C7
330
47E
100
AcDbDictionary
280
     1
281
     1
  3
ACAD_XREC_ROUNDTRIP
360
4C8
  0
DICTIONARY
  5
4C9
330
47F
100
AcDbDictionary
280
     1
281
     1
  3
ACAD_XREC_ROUNDTRIP
360
4CA
  0
DICTIONARY
  5
4D9
330
487
100
AcDbDictionary
280
     1
281
     1
  3
ACAD_XREC_ROUNDTRIP
360
4DA
  0
DICTIONARY
  5
4D1
330
483
100
AcDbDictionary
280
     1
281
     1
  3
ACAD_XREC_ROUNDTRIP
360
4D2
  0
DICTIONARY
  5
4B5
330
475
100
AcDbDictionary
280
     1
281
     1
  3
ACAD_XREC_ROUNDTRIP
360
4B6
  0
DICTIONARY
  5
4B7
330
476
100
AcDbDictionary
280
     1
281
     1
  3
ACAD_XREC_ROUNDTRIP
360
4B8
  0
DICTIONARY
  5
4B9
330
477
100
AcDbDictionary
280
     1
281
     1
  3
ACAD_XREC_ROUNDTRIP
360
4BA
  0
DICTIONARY
  5
4BB
330
478
100
AcDbDictionary
280
     1
281
     1
  3
ACAD_XREC_ROUNDTRIP
360
4BC
  0
DICTIONARY
  5
4C1
330
47B
100
AcDbDictionary
280
     1
281
     1
  3
ACAD_XREC_ROUNDTRIP
360
4C2
  0
DICTIONARY
  5
4D5
330
485
100
AcDbDictionary
280
     1
281
     1
  3
ACAD_XREC_ROUNDTRIP
360
4D6
  0
DICTIONARY
  5
4CF
330
482
100
AcDbDictionary
280
     1
281
     1
  3
ACAD_XREC_ROUNDTRIP
360
4D0
  0
DICTIONARY
  5
4D7
330
486
100
AcDbDictionary
280
     1
281
     1
  3
ACAD_XREC_ROUNDTRIP
360
4D8
  0
DICTIONARY
  5
4C5
330
47D
100
AcDbDictionary
280
     1
281
     1
  3
ACAD_XREC_ROUNDTRIP
360
4C6
  0
DICTIONARY
  5
4E3
330
48C
100
AcDbDictionary
280
     1
281
     1
  3
ACAD_XREC_ROUNDTRIP
360
4E4
  0
DICTIONARY
  5
4E1
330
48B
100
AcDbDictionary
280
     1
281
     1
  3
ACAD_XREC_ROUNDTRIP
360
4E2
  0
DICTIONARY
  5
4DB
330
488
100
AcDbDictionary
280
     1
281
     1
  3
ACAD_XREC_ROUNDTRIP
360
4DC
  0
DICTIONARY
  5
4DD
330
489
100
AcDbDictionary
280
     1
281
     1
  3
ACAD_XREC_ROUNDTRIP
360
4DE
  0
DICTIONARY
  5
4CD
330
481
100
AcDbDictionary
280
     1
281
     1
  3
ACAD_XREC_ROUNDTRIP
360
4CE
  0
DICTIONARY
  5
4BF
330
47A
100
AcDbDictionary
280
     1
281
     1
  3
ACAD_XREC_ROUNDTRIP
360
4C0
  0
DICTIONARY
  5
4DF
330
48A
100
AcDbDictionary
280
     1
281
     1
  3
ACAD_XREC_ROUNDTRIP
360
4E0
  0
XRECORD
  5
4B4
102
{ACAD_REACTORS
330
4B3
102
}
330
4B3
100
AcDbXrecord
280
     1
102
MATERIAL
148
0.0
149
0.0
149
0.0
 93
        0
 94
      127
282
     0
 72
     0
 77
     0
171
     0
175
     0
179
     0
273
     0
  0
XRECORD
  5
4B0
102
{ACAD_REACTORS
330
4AF
102
}
330
4AF
100
AcDbXrecord
280
     1
102
MATERIAL
148
0.0
149
0.0
149
0.0
 93
        0
 94
      127
282
     0
 72
     0
 77
     0
171
     0
175
     0
179
     0
273
     0
  0
XRECORD
  5
4B2
102
{ACAD_REACTORS
330
4B1
102
}
330
4B1
100
AcDbXrecord
280
     1
102
MATERIAL
148
0.0
149
0.0
149
0.0
 93
        0
 94
      127
282
     0
 72
     0
 77
     0
171
     0
175
     0
179
     0
273
     0
  0
XRECORD
  5
4E6
102
{ACAD_REACTORS
330
4E5
102
}
330
4E5
100
AcDbXrecord
280
     1
102
ACAD_ROUNDTRIP_2010_MLEADER_STYLE
  0
XRECORD
  5
4BE
102
{ACAD_REACTORS
330
4BD
102
}
330
4BD
100
AcDbXrecord
280
     1
102
RTVSPropertyOp0
 70
     1
102
RTVSPropertyOp1
 70
     1
102
RTVSPropertyOp2
 70
     1
102
RTVSPropertyOp3
 70
     1
102
RTVSPropertyOp4
 70
     1
102
RTVSPropertyOp5
 70
     1
102
RTVSPropertyOp6
 70
     1
102
RTVSPropertyOp7
 70
     1
102
RTVSPropertyOp8
 70
     1
102
RTVSPropertyOp9
 70
     1
102
RTVSPropertyOp10
 70
     1
102
RTVSPropertyOp11
 70
     1
102
RTVSPropertyOp12
 70
     1
102
RTVSPropertyOp13
 70
     1
102
RTVSPropertyOp14
 70
     1
102
RTVSPropertyOp15
 70
     1
102
RTVSPropertyOp16
 70
     1
102
RTVSPropertyOp17
 70
     1
102
RTVSPropertyOp18
 70
     1
102
RTVSPropertyOp19
 70
     1
102
RTVSPropertyOp20
 70
     1
102
RTVSPropertyOp21
 70
     1
102
RTVSPropertyOp22
 70
     1
102
RTVSPropertyOp23
 70
     1
102
RTVSPropertyOp24
 70
     1
102
RTVSPropertyOp25
 70
     1
102
RTVSPropertyOp26
 70
     1
102
RTVSPropertyOp27
 70
     1
102
RTVSPropertyOp28
 70
     1
102
RTVSPropertyOp29
 70
     1
102
RTVSPropertyOp30
 70
     1
102
RTVSPropertyOp31
 70
     1
102
RTVSPropertyOp32
 70
     1
102
RTVSPropertyOp33
 70
     1
102
RTVSPropertyOp34
 70
     1
102
RTVSPropertyOp35
 70
     1
102
RTVSPropertyOp36
 70
     1
102
RTVSPropertyOp37
 70
     1
102
RTVSPropertyOp38
 70
     1
102
RTVSPropertyOp39
 70
     1
102
RTVSPropertyOp40
 70
     1
102
RTVSPropertyOp41
 70
     1
102
RTVSPropertyOp42
 70
     1
102
RTVSPropertyOp43
 70
     1
102
RTVSPropertyOp44
 70
     1
102
RTVSPropertyOp45
 70
     1
102
RTVSPropertyOp46
 70
     1
102
RTVSPropertyOp47
 70
     1
102
RTVSPropertyOp48
 70
     1
102
RTVSPropertyOp49
 70
     1
102
RTVSPropertyOp50
 70
     1
102
RTVSPropertyOp51
 70
     0
102
RTVSPropertyOp52
 70
     0
102
RTVSPropertyOp53
 70
     1
102
RTVSPropertyOp54
 70
     1
102
RTVSPropertyOp55
 70
     1
102
RTVSPropertyOp56
 70
     1
102
RTVSPropertyOp57
 70
     1
102
RTVSPost2010Prop28
280
     1
102
RTVSPost2010PropOp28
 70
     1
102
RTVSPost2010Prop29
280
     1
102
RTVSPost2010PropOp29
 70
     1
102
RTVSPost2010Prop30
280
     0
102
RTVSPost2010PropOp30
 70
     1
102
RTVSPost2010Prop31
280
     0
102
RTVSPost2010PropOp31
 70
     1
102
RTVSPost2010Prop32
280
     0
102
RTVSPost2010PropOp32
 70
     1
102
RTVSPost2010Prop33
280
     0
102
RTVSPost2010PropOp33
 70
     1
102
RTVSPost2010Prop34
280
     0
102
RTVSPost2010PropOp34
 70
     1
102
RTVSPost2010Prop35
280
     0
102
RTVSPost2010PropOp35
 70
     1
102
RTVSPost2010Prop36
280
     0
102
RTVSPost2010PropOp36
 70
     1
102
RTVSPost2010Prop37
 90
       50
102
RTVSPost2010PropOp37
 70
     1
102
RTVSPost2010Prop38
140
0.0
102
RTVSPost2010PropOp38
 70
     1
102
RTVSPost2010Prop39
140
1.0
102
RTVSPost2010PropOp39
 70
     1
102
RTVSPost2010Prop40
 90
        0
102
RTVSPost2010PropOp40
 70
     1
102
RTVSPost2010Prop41ColorIndex
 90
       18
102
RTVSPost2010Prop41ColorRGB
 90
        0
102
RTVSPost2010PropOp41
 70
     1
102
RTVSPost2010Prop42
 90
       50
102
RTVSPost2010PropOp42
 70
     1
102
RTVSPost2010Prop43
 90
        3
102
RTVSPost2010PropOp43
 70
     1
102
RTVSPost2010Prop44ColorIndex
 90
        5
102
RTVSPost2010Prop44ColorRGB
 90
      255
102
RTVSPost2010PropOp44
 70
     1
102
RTVSPost2010Prop45
280
     0
102
RTVSPost2010PropOp45
 70
     1
102
RTVSPost2010Prop46
 90
       50
102
RTVSPost2010PropOp46
 70
     1
102
RTVSPost2010Prop47
 90
       50
102
RTVSPost2010PropOp47
 70
     1
102
RTVSPost2010Prop48
 90
       50
102
RTVSPost2010PropOp48
 70
     1
102
RTVSPost2010Prop49
280
     0
102
RTVSPost2010PropOp49
 70
     1
102
RTVSPost2010Prop50
 90
       50
102
RTVSPost2010PropOp50
 70
     1
102
RTVSPost2010Prop51ColorIndex
 90
      256
102
RTVSPost2010Prop51ColorRGB
 90
-16777216
102
RTVSPost2010PropOp51
 70
     0
102
RTVSPost2010Prop52
140
1.0
102
RTVSPost2010PropOp52
 70
     0
102
RTVSPost2010Prop53
 90
        2
102
RTVSPost2010PropOp53
 70
     1
102
RTVSPost2010Prop54
  1
strokes_ogs.tif
102
RTVSPost2010PropOp54
 70
     1
102
RTVSPost2010Prop55
280
     0
102
RTVSPost2010PropOp55
 70
     1
102
RTVSPost2010Prop56
140
1.0
102
RTVSPost2010PropOp56
 70
     1
102
RTVSPost2010Prop57
140
1.0
102
RTVSPost2010PropOp57
 70
     1
  0
XRECORD
  5
4C4
102
{ACAD_REACTORS
330
4C3
102
}
330
4C3
100
AcDbXrecord
280
     1
102
RTVSPropertyOp0
 70
     1
102
RTVSPropertyOp1
 70
     1
102
RTVSPropertyOp2
 70
     1
102
RTVSPropertyOp3
 70
     1
102
RTVSPropertyOp4
 70
     1
102
RTVSPropertyOp5
 70
     1
102
RTVSPropertyOp6
 70
     1
102
RTVSPropertyOp7
 70
     1
102
RTVSPropertyOp8
 70
     1
102
RTVSPropertyOp9
 70
     1
102
RTVSPropertyOp10
 70
     1
102
RTVSPropertyOp11
 70
     1
102
RTVSPropertyOp12
 70
     1
102
RTVSPropertyOp13
 70
     1
102
RTVSPropertyOp14
 70
     1
102
RTVSPropertyOp15
 70
     1
102
RTVSPropertyOp16
 70
     1
102
RTVSPropertyOp17
 70
     1
102
RTVSPropertyOp18
 70
     1
102
RTVSPropertyOp19
 70
     1
102
RTVSPropertyOp20
 70
     1
102
RTVSPropertyOp21
 70
     1
102
RTVSPropertyOp22
 70
     1
102
RTVSPropertyOp23
 70
     1
102
RTVSPropertyOp24
 70
     1
102
RTVSPropertyOp25
 70
     1
102
RTVSPropertyOp26
 70
     1
102
RTVSPropertyOp27
 70
     1
102
RTVSPropertyOp28
 70
     1
102
RTVSPropertyOp29
 70
     1
102
RTVSPropertyOp30
 70
     1
102
RTVSPropertyOp31
 70
     1
102
RTVSPropertyOp32
 70
     1
102
RTVSPropertyOp33
 70
     1
102
RTVSPropertyOp34
 70
     1
102
RTVSPropertyOp35
 70
     1
102
RTVSPropertyOp36
 70
     1
102
RTVSPropertyOp37
 70
     1
102
RTVSPropertyOp38
 70
     1
102
RTVSPropertyOp39
 70
     1
102
RTVSPropertyOp40
 70
     1
102
RTVSPropertyOp41
 70
     1
102
RTVSPropertyOp42
 70
     1
102
RTVSPropertyOp43
 70
     1
102
RTVSPropertyOp44
 70
     1
102
RTVSPropertyOp45
 70
     1
102
RTVSPropertyOp46
 70
     1
102
RTVSPropertyOp47
 70
     1
102
RTVSPropertyOp48
 70
     1
102
RTVSPropertyOp49
 70
     1
102
RTVSPropertyOp50
 70
     1
102
RTVSPropertyOp51
 70
     0
102
RTVSPropertyOp52
 70
     0
102
RTVSPropertyOp53
 70
     1
102
RTVSPropertyOp54
 70
     1
102
RTVSPropertyOp55
 70
     1
102
RTVSPropertyOp56
 70
     1
102
RTVSPropertyOp57
 70
     1
102
RTVSPost2010Prop28
280
     0
102
RTVSPost2010PropOp28
 70
     1
102
RTVSPost2010Prop29
280
     1
102
RTVSPost2010PropOp29
 70
     1
102
RTVSPost2010Prop30
280
     1
102
RTVSPost2010PropOp30
 70
     1
102
RTVSPost2010Prop31
280
     0
102
RTVSPost2010PropOp31
 70
     1
102
RTVSPost2010Prop32
280
     0
102
RTVSPost2010PropOp32
 70
     1
102
RTVSPost2010Prop33
280
     0
102
RTVSPost2010PropOp33
 70
     1
102
RTVSPost2010Prop34
280
     0
102
RTVSPost2010PropOp34
 70
     1
102
RTVSPost2010Prop35
280
     0
102
RTVSPost2010PropOp35
 70
     1
102
RTVSPost2010Prop36
280
     0
102
RTVSPost2010PropOp36
 70
     1
102
RTVSPost2010Prop37
 90
       50
102
RTVSPost2010PropOp37
 70
     1
102
RTVSPost2010Prop38
140
0.0
102
RTVSPost2010PropOp38
 70
     1
102
RTVSPost2010Prop39
140
1.0
102
RTVSPost2010PropOp39
 70
     1
102
RTVSPost2010Prop40
 90
        0
102
RTVSPost2010PropOp40
 70
     1
102
RTVSPost2010Prop41ColorIndex
 90
       18
102
RTVSPost2010Prop41ColorRGB
 90
        0
102
RTVSPost2010PropOp41
 70
     1
102
RTVSPost2010Prop42
 90
       50
102
RTVSPost2010PropOp42
 70
     1
102
RTVSPost2010Prop43
 90
        3
102
RTVSPost2010PropOp43
 70
     1
102
RTVSPost2010Prop44ColorIndex
 90
        5
102
RTVSPost2010Prop44ColorRGB
 90
      255
102
RTVSPost2010PropOp44
 70
     1
102
RTVSPost2010Prop45
280
     0
102
RTVSPost2010PropOp45
 70
     1
102
RTVSPost2010Prop46
 90
       50
102
RTVSPost2010PropOp46
 70
     1
102
RTVSPost2010Prop47
 90
       50
102
RTVSPost2010PropOp47
 70
     1
102
RTVSPost2010Prop48
 90
       50
102
RTVSPost2010PropOp48
 70
     1
102
RTVSPost2010Prop49
280
     0
102
RTVSPost2010PropOp49
 70
     1
102
RTVSPost2010Prop50
 90
       50
102
RTVSPost2010PropOp50
 70
     1
102
RTVSPost2010Prop51ColorIndex
 90
      256
102
RTVSPost2010Prop51ColorRGB
 90
-16777216
102
RTVSPost2010PropOp51
 70
     0
102
RTVSPost2010Prop52
140
1.0
102
RTVSPost2010PropOp52
 70
     0
102
RTVSPost2010Prop53
 90
        2
102
RTVSPost2010PropOp53
 70
     1
102
RTVSPost2010Prop54
  1
strokes_ogs.tif
102
RTVSPost2010PropOp54
 70
     1
102
RTVSPost2010Prop55
280
     0
102
RTVSPost2010PropOp55
 70
     1
102
RTVSPost2010Prop56
140
1.0
102
RTVSPost2010PropOp56
 70
     1
102
RTVSPost2010Prop57
140
1.0
102
RTVSPost2010PropOp57
 70
     1
  0
XRECORD
  5
4CC
102
{ACAD_REACTORS
330
4CB
102
}
330
4CB
100
AcDbXrecord
280
     1
102
RTVSPropertyOp0
 70
     1
102
RTVSPropertyOp1
 70
     1
102
RTVSPropertyOp2
 70
     1
102
RTVSPropertyOp3
 70
     1
102
RTVSPropertyOp4
 70
     1
102
RTVSPropertyOp5
 70
     1
102
RTVSPropertyOp6
 70
     1
102
RTVSPropertyOp7
 70
     1
102
RTVSPropertyOp8
 70
     1
102
RTVSPropertyOp9
 70
     1
102
RTVSPropertyOp10
 70
     1
102
RTVSPropertyOp11
 70
     1
102
RTVSPropertyOp12
 70
     1
102
RTVSPropertyOp13
 70
     1
102
RTVSPropertyOp14
 70
     1
102
RTVSPropertyOp15
 70
     1
102
RTVSPropertyOp16
 70
     1
102
RTVSPropertyOp17
 70
     1
102
RTVSPropertyOp18
 70
     1
102
RTVSPropertyOp19
 70
     1
102
RTVSPropertyOp20
 70
     1
102
RTVSPropertyOp21
 70
     1
102
RTVSPropertyOp22
 70
     1
102
RTVSPropertyOp23
 70
     1
102
RTVSPropertyOp24
 70
     1
102
RTVSPropertyOp25
 70
     1
102
RTVSPropertyOp26
 70
     1
102
RTVSPropertyOp27
 70
     1
102
RTVSPropertyOp28
 70
     1
102
RTVSPropertyOp29
 70
     1
102
RTVSPropertyOp30
 70
     1
102
RTVSPropertyOp31
 70
     1
102
RTVSPropertyOp32
 70
     1
102
RTVSPropertyOp33
 70
     1
102
RTVSPropertyOp34
 70
     1
102
RTVSPropertyOp35
 70
     1
102
RTVSPropertyOp36
 70
     1
102
RTVSPropertyOp37
 70
     1
102
RTVSPropertyOp38
 70
     1
102
RTVSPropertyOp39
 70
     1
102
RTVSPropertyOp40
 70
     1
102
RTVSPropertyOp41
 70
     1
102
RTVSPropertyOp42
 70
     1
102
RTVSPropertyOp43
 70
     1
102
RTVSPropertyOp44
 70
     1
102
RTVSPropertyOp45
 70
     1
102
RTVSPropertyOp46
 70
     1
102
RTVSPropertyOp47
 70
     1
102
RTVSPropertyOp48
 70
     1
102
RTVSPropertyOp49
 70
     1
102
RTVSPropertyOp50
 70
     1
102
RTVSPropertyOp51
 70
     0
102
RTVSPropertyOp52
 70
     0
102
RTVSPropertyOp53
 70
     1
102
RTVSPropertyOp54
 70
     1
102
RTVSPropertyOp55
 70
     1
102
RTVSPropertyOp56
 70
     1
102
RTVSPropertyOp57
 70
     1
102
RTVSPost2010Prop28
280
     0
102
RTVSPost2010PropOp28
 70
     1
102
RTVSPost2010Prop29
280
     1
102
RTVSPost2010PropOp29
 70
     1
102
RTVSPost2010Prop30
280
     1
102
RTVSPost2010PropOp30
 70
     1
102
RTVSPost2010Prop31
280
     0
102
RTVSPost2010PropOp31
 70
     1
102
RTVSPost2010Prop32
280
     0
102
RTVSPost2010PropOp32
 70
     1
102
RTVSPost2010Prop33
280
     0
102
RTVSPost2010PropOp33
 70
     1
102
RTVSPost2010Prop34
280
     0
102
RTVSPost2010PropOp34
 70
     1
102
RTVSPost2010Prop35
280
     0
102
RTVSPost2010PropOp35
 70
     1
102
RTVSPost2010Prop36
280
     0
102
RTVSPost2010PropOp36
 70
     1
102
RTVSPost2010Prop37
 90
       50
102
RTVSPost2010PropOp37
 70
     1
102
RTVSPost2010Prop38
140
0.0
102
RTVSPost2010PropOp38
 70
     1
102
RTVSPost2010Prop39
140
1.0
102
RTVSPost2010PropOp39
 70
     1
102
RTVSPost2010Prop40
 90
        0
102
RTVSPost2010PropOp40
 70
     1
102
RTVSPost2010Prop41ColorIndex
 90
       18
102
RTVSPost2010Prop41ColorRGB
 90
        0
102
RTVSPost2010PropOp41
 70
     1
102
RTVSPost2010Prop42
 90
       50
102
RTVSPost2010PropOp42
 70
     1
102
RTVSPost2010Prop43
 90
        3
102
RTVSPost2010PropOp43
 70
     1
102
RTVSPost2010Prop44ColorIndex
 90
        5
102
RTVSPost2010Prop44ColorRGB
 90
      255
102
RTVSPost2010PropOp44
 70
     1
102
RTVSPost2010Prop45
280
     0
102
RTVSPost2010PropOp45
 70
     1
102
RTVSPost2010Prop46
 90
       50
102
RTVSPost2010PropOp46
 70
     1
102
RTVSPost2010Prop47
 90
       50
102
RTVSPost2010PropOp47
 70
     1
102
RTVSPost2010Prop48
 90
       50
102
RTVSPost2010PropOp48
 70
     1
102
RTVSPost2010Prop49
280
     0
102
RTVSPost2010PropOp49
 70
     1
102
RTVSPost2010Prop50
 90
       50
102
RTVSPost2010PropOp50
 70
     1
102
RTVSPost2010Prop51ColorIndex
 90
      256
102
RTVSPost2010Prop51ColorRGB
 90
-16777216
102
RTVSPost2010PropOp51
 70
     0
102
RTVSPost2010Prop52
140
1.0
102
RTVSPost2010PropOp52
 70
     0
102
RTVSPost2010Prop53
 90
        2
102
RTVSPost2010PropOp53
 70
     1
102
RTVSPost2010Prop54
  1
strokes_ogs.tif
102
RTVSPost2010PropOp54
 70
     1
102
RTVSPost2010Prop55
280
     0
102
RTVSPost2010PropOp55
 70
     1
102
RTVSPost2010Prop56
140
1.0
102
RTVSPost2010PropOp56
 70
     1
102
RTVSPost2010Prop57
140
1.0
102
RTVSPost2010PropOp57
 70
     1
  0
XRECORD
  5
4D4
102
{ACAD_REACTORS
330
4D3
102
}
330
4D3
100
AcDbXrecord
280
     1
102
RTVSPropertyOp0
 70
     1
102
RTVSPropertyOp1
 70
     1
102
RTVSPropertyOp2
 70
     1
102
RTVSPropertyOp3
 70
     1
102
RTVSPropertyOp4
 70
     1
102
RTVSPropertyOp5
 70
     1
102
RTVSPropertyOp6
 70
     1
102
RTVSPropertyOp7
 70
     1
102
RTVSPropertyOp8
 70
     1
102
RTVSPropertyOp9
 70
     1
102
RTVSPropertyOp10
 70
     1
102
RTVSPropertyOp11
 70
     1
102
RTVSPropertyOp12
 70
     1
102
RTVSPropertyOp13
 70
     1
102
RTVSPropertyOp14
 70
     1
102
RTVSPropertyOp15
 70
     1
102
RTVSPropertyOp16
 70
     1
102
RTVSPropertyOp17
 70
     1
102
RTVSPropertyOp18
 70
     1
102
RTVSPropertyOp19
 70
     1
102
RTVSPropertyOp20
 70
     1
102
RTVSPropertyOp21
 70
     1
102
RTVSPropertyOp22
 70
     1
102
RTVSPropertyOp23
 70
     1
102
RTVSPropertyOp24
 70
     1
102
RTVSPropertyOp25
 70
     1
102
RTVSPropertyOp26
 70
     1
102
RTVSPropertyOp27
 70
     1
102
RTVSPropertyOp28
 70
     1
102
RTVSPropertyOp29
 70
     1
102
RTVSPropertyOp30
 70
     1
102
RTVSPropertyOp31
 70
     1
102
RTVSPropertyOp32
 70
     1
102
RTVSPropertyOp33
 70
     1
102
RTVSPropertyOp34
 70
     1
102
RTVSPropertyOp35
 70
     1
102
RTVSPropertyOp36
 70
     1
102
RTVSPropertyOp37
 70
     1
102
RTVSPropertyOp38
 70
     1
102
RTVSPropertyOp39
 70
     1
102
RTVSPropertyOp40
 70
     1
102
RTVSPropertyOp41
 70
     1
102
RTVSPropertyOp42
 70
     1
102
RTVSPropertyOp43
 70
     1
102
RTVSPropertyOp44
 70
     1
102
RTVSPropertyOp45
 70
     1
102
RTVSPropertyOp46
 70
     1
102
RTVSPropertyOp47
 70
     1
102
RTVSPropertyOp48
 70
     1
102
RTVSPropertyOp49
 70
     1
102
RTVSPropertyOp50
 70
     1
102
RTVSPropertyOp51
 70
     0
102
RTVSPropertyOp52
 70
     0
102
RTVSPropertyOp53
 70
     1
102
RTVSPropertyOp54
 70
     1
102
RTVSPropertyOp55
 70
     1
102
RTVSPropertyOp56
 70
     1
102
RTVSPropertyOp57
 70
     1
102
RTVSPost2010Prop28
280
     0
102
RTVSPost2010PropOp28
 70
     1
102
RTVSPost2010Prop29
280
     1
102
RTVSPost2010PropOp29
 70
     1
102
RTVSPost2010Prop30
280
     1
102
RTVSPost2010PropOp30
 70
     1
102
RTVSPost2010Prop31
280
     0
102
RTVSPost2010PropOp31
 70
     1
102
RTVSPost2010Prop32
280
     0
102
RTVSPost2010PropOp32
 70
     1
102
RTVSPost2010Prop33
280
     0
102
RTVSPost2010PropOp33
 70
     1
102
RTVSPost2010Prop34
280
     0
102
RTVSPost2010PropOp34
 70
     1
102
RTVSPost2010Prop35
280
     0
102
RTVSPost2010PropOp35
 70
     1
102
RTVSPost2010Prop36
280
     0
102
RTVSPost2010PropOp36
 70
     1
102
RTVSPost2010Prop37
 90
       50
102
RTVSPost2010PropOp37
 70
     1
102
RTVSPost2010Prop38
140
0.0
102
RTVSPost2010PropOp38
 70
     1
102
RTVSPost2010Prop39
140
1.0
102
RTVSPost2010PropOp39
 70
     1
102
RTVSPost2010Prop40
 90
        0
102
RTVSPost2010PropOp40
 70
     1
102
RTVSPost2010Prop41ColorIndex
 90
       18
102
RTVSPost2010Prop41ColorRGB
 90
        0
102
RTVSPost2010PropOp41
 70
     1
102
RTVSPost2010Prop42
 90
       50
102
RTVSPost2010PropOp42
 70
     1
102
RTVSPost2010Prop43
 90
        3
102
RTVSPost2010PropOp43
 70
     1
102
RTVSPost2010Prop44ColorIndex
 90
        5
102
RTVSPost2010Prop44ColorRGB
 90
      255
102
RTVSPost2010PropOp44
 70
     1
102
RTVSPost2010Prop45
280
     0
102
RTVSPost2010PropOp45
 70
     1
102
RTVSPost2010Prop46
 90
       50
102
RTVSPost2010PropOp46
 70
     1
102
RTVSPost2010Prop47
 90
       50
102
RTVSPost2010PropOp47
 70
     1
102
RTVSPost2010Prop48
 90
       50
102
RTVSPost2010PropOp48
 70
     1
102
RTVSPost2010Prop49
280
     0
102
RTVSPost2010PropOp49
 70
     1
102
RTVSPost2010Prop50
 90
       50
102
RTVSPost2010PropOp50
 70
     1
102
RTVSPost2010Prop51ColorIndex
 90
      256
102
RTVSPost2010Prop51ColorRGB
 90
-16777216
102
RTVSPost2010PropOp51
 70
     0
102
RTVSPost2010Prop52
140
1.0
102
RTVSPost2010PropOp52
 70
     0
102
RTVSPost2010Prop53
 90
        2
102
RTVSPost2010PropOp53
 70
     1
102
RTVSPost2010Prop54
  1
strokes_ogs.tif
102
RTVSPost2010PropOp54
 70
     1
102
RTVSPost2010Prop55
280
     0
102
RTVSPost2010PropOp55
 70
     1
102
RTVSPost2010Prop56
140
1.0
102
RTVSPost2010PropOp56
 70
     1
102
RTVSPost2010Prop57
140
1.0
102
RTVSPost2010PropOp57
 70
     1
  0
XRECORD
  5
4C8
102
{ACAD_REACTORS
330
4C7
102
}
330
4C7
100
AcDbXrecord
280
     1
102
RTVSPropertyOp0
 70
     1
102
RTVSPropertyOp1
 70
     1
102
RTVSPropertyOp2
 70
     1
102
RTVSPropertyOp3
 70
     1
102
RTVSPropertyOp4
 70
     1
102
RTVSPropertyOp5
 70
     1
102
RTVSPropertyOp6
 70
     1
102
RTVSPropertyOp7
 70
     1
102
RTVSPropertyOp8
 70
     1
102
RTVSPropertyOp9
 70
     1
102
RTVSPropertyOp10
 70
     1
102
RTVSPropertyOp11
 70
     1
102
RTVSPropertyOp12
 70
     1
102
RTVSPropertyOp13
 70
     1
102
RTVSPropertyOp14
 70
     1
102
RTVSPropertyOp15
 70
     1
102
RTVSPropertyOp16
 70
     1
102
RTVSPropertyOp17
 70
     1
102
RTVSPropertyOp18
 70
     1
102
RTVSPropertyOp19
 70
     1
102
RTVSPropertyOp20
 70
     1
102
RTVSPropertyOp21
 70
     1
102
RTVSPropertyOp22
 70
     1
102
RTVSPropertyOp23
 70
     1
102
RTVSPropertyOp24
 70
     1
102
RTVSPropertyOp25
 70
     1
102
RTVSPropertyOp26
 70
     1
102
RTVSPropertyOp27
 70
     1
102
RTVSPropertyOp28
 70
     1
102
RTVSPropertyOp29
 70
     1
102
RTVSPropertyOp30
 70
     1
102
RTVSPropertyOp31
 70
     1
102
RTVSPropertyOp32
 70
     1
102
RTVSPropertyOp33
 70
     1
102
RTVSPropertyOp34
 70
     1
102
RTVSPropertyOp35
 70
     1
102
RTVSPropertyOp36
 70
     1
102
RTVSPropertyOp37
 70
     1
102
RTVSPropertyOp38
 70
     1
102
RTVSPropertyOp39
 70
     1
102
RTVSPropertyOp40
 70
     1
102
RTVSPropertyOp41
 70
     1
102
RTVSPropertyOp42
 70
     1
102
RTVSPropertyOp43
 70
     1
102
RTVSPropertyOp44
 70
     1
102
RTVSPropertyOp45
 70
     1
102
RTVSPropertyOp46
 70
     1
102
RTVSPropertyOp47
 70
     1
102
RTVSPropertyOp48
 70
     1
102
RTVSPropertyOp49
 70
     1
102
RTVSPropertyOp50
 70
     1
102
RTVSPropertyOp51
 70
     0
102
RTVSPropertyOp52
 70
     0
102
RTVSPropertyOp53
 70
     1
102
RTVSPropertyOp54
 70
     1
102
RTVSPropertyOp55
 70
     1
102
RTVSPropertyOp56
 70
     1
102
RTVSPropertyOp57
 70
     1
102
RTVSPost2010Prop28
280
     0
102
RTVSPost2010PropOp28
 70
     1
102
RTVSPost2010Prop29
280
     1
102
RTVSPost2010PropOp29
 70
     1
102
RTVSPost2010Prop30
280
     1
102
RTVSPost2010PropOp30
 70
     1
102
RTVSPost2010Prop31
280
     0
102
RTVSPost2010PropOp31
 70
     1
102
RTVSPost2010Prop32
280
     0
102
RTVSPost2010PropOp32
 70
     1
102
RTVSPost2010Prop33
280
     0
102
RTVSPost2010PropOp33
 70
     1
102
RTVSPost2010Prop34
280
     0
102
RTVSPost2010PropOp34
 70
     1
102
RTVSPost2010Prop35
280
     0
102
RTVSPost2010PropOp35
 70
     1
102
RTVSPost2010Prop36
280
     0
102
RTVSPost2010PropOp36
 70
     1
102
RTVSPost2010Prop37
 90
       50
102
RTVSPost2010PropOp37
 70
     1
102
RTVSPost2010Prop38
140
0.0
102
RTVSPost2010PropOp38
 70
     1
102
RTVSPost2010Prop39
140
1.0
102
RTVSPost2010PropOp39
 70
     1
102
RTVSPost2010Prop40
 90
        0
102
RTVSPost2010PropOp40
 70
     1
102
RTVSPost2010Prop41ColorIndex
 90
       18
102
RTVSPost2010Prop41ColorRGB
 90
        0
102
RTVSPost2010PropOp41
 70
     1
102
RTVSPost2010Prop42
 90
       50
102
RTVSPost2010PropOp42
 70
     1
102
RTVSPost2010Prop43
 90
        3
102
RTVSPost2010PropOp43
 70
     1
102
RTVSPost2010Prop44ColorIndex
 90
        5
102
RTVSPost2010Prop44ColorRGB
 90
      255
102
RTVSPost2010PropOp44
 70
     1
102
RTVSPost2010Prop45
280
     0
102
RTVSPost2010PropOp45
 70
     1
102
RTVSPost2010Prop46
 90
       50
102
RTVSPost2010PropOp46
 70
     1
102
RTVSPost2010Prop47
 90
       50
102
RTVSPost2010PropOp47
 70
     1
102
RTVSPost2010Prop48
 90
       50
102
RTVSPost2010PropOp48
 70
     1
102
RTVSPost2010Prop49
280
     0
102
RTVSPost2010PropOp49
 70
     1
102
RTVSPost2010Prop50
 90
       50
102
RTVSPost2010PropOp50
 70
     1
102
RTVSPost2010Prop51ColorIndex
 90
      256
102
RTVSPost2010Prop51ColorRGB
 90
-16777216
102
RTVSPost2010PropOp51
 70
     0
102
RTVSPost2010Prop52
140
1.0
102
RTVSPost2010PropOp52
 70
     0
102
RTVSPost2010Prop53
 90
        2
102
RTVSPost2010PropOp53
 70
     1
102
RTVSPost2010Prop54
  1
strokes_ogs.tif
102
RTVSPost2010PropOp54
 70
     1
102
RTVSPost2010Prop55
280
     0
102
RTVSPost2010PropOp55
 70
     1
102
RTVSPost2010Prop56
140
1.0
102
RTVSPost2010PropOp56
 70
     1
102
RTVSPost2010Prop57
140
1.0
102
RTVSPost2010PropOp57
 70
     1
  0
XRECORD
  5
4CA
102
{ACAD_REACTORS
330
4C9
102
}
330
4C9
100
AcDbXrecord
280
     1
102
RTVSPropertyOp0
 70
     1
102
RTVSPropertyOp1
 70
     1
102
RTVSPropertyOp2
 70
     1
102
RTVSPropertyOp3
 70
     1
102
RTVSPropertyOp4
 70
     1
102
RTVSPropertyOp5
 70
     1
102
RTVSPropertyOp6
 70
     1
102
RTVSPropertyOp7
 70
     1
102
RTVSPropertyOp8
 70
     1
102
RTVSPropertyOp9
 70
     1
102
RTVSPropertyOp10
 70
     1
102
RTVSPropertyOp11
 70
     1
102
RTVSPropertyOp12
 70
     1
102
RTVSPropertyOp13
 70
     1
102
RTVSPropertyOp14
 70
     1
102
RTVSPropertyOp15
 70
     1
102
RTVSPropertyOp16
 70
     1
102
RTVSPropertyOp17
 70
     1
102
RTVSPropertyOp18
 70
     1
102
RTVSPropertyOp19
 70
     1
102
RTVSPropertyOp20
 70
     1
102
RTVSPropertyOp21
 70
     1
102
RTVSPropertyOp22
 70
     1
102
RTVSPropertyOp23
 70
     1
102
RTVSPropertyOp24
 70
     1
102
RTVSPropertyOp25
 70
     1
102
RTVSPropertyOp26
 70
     1
102
RTVSPropertyOp27
 70
     1
102
RTVSPropertyOp28
 70
     1
102
RTVSPropertyOp29
 70
     1
102
RTVSPropertyOp30
 70
     1
102
RTVSPropertyOp31
 70
     1
102
RTVSPropertyOp32
 70
     1
102
RTVSPropertyOp33
 70
     1
102
RTVSPropertyOp34
 70
     1
102
RTVSPropertyOp35
 70
     1
102
RTVSPropertyOp36
 70
     1
102
RTVSPropertyOp37
 70
     1
102
RTVSPropertyOp38
 70
     1
102
RTVSPropertyOp39
 70
     1
102
RTVSPropertyOp40
 70
     1
102
RTVSPropertyOp41
 70
     1
102
RTVSPropertyOp42
 70
     1
102
RTVSPropertyOp43
 70
     1
102
RTVSPropertyOp44
 70
     1
102
RTVSPropertyOp45
 70
     1
102
RTVSPropertyOp46
 70
     1
102
RTVSPropertyOp47
 70
     1
102
RTVSPropertyOp48
 70
     1
102
RTVSPropertyOp49
 70
     1
102
RTVSPropertyOp50
 70
     1
102
RTVSPropertyOp51
 70
     0
102
RTVSPropertyOp52
 70
     0
102
RTVSPropertyOp53
 70
     1
102
RTVSPropertyOp54
 70
     1
102
RTVSPropertyOp55
 70
     1
102
RTVSPropertyOp56
 70
     1
102
RTVSPropertyOp57
 70
     1
102
RTVSPost2010Prop28
280
     0
102
RTVSPost2010PropOp28
 70
     1
102
RTVSPost2010Prop29
280
     1
102
RTVSPost2010PropOp29
 70
     1
102
RTVSPost2010Prop30
280
     1
102
RTVSPost2010PropOp30
 70
     1
102
RTVSPost2010Prop31
280
     0
102
RTVSPost2010PropOp31
 70
     1
102
RTVSPost2010Prop32
280
     0
102
RTVSPost2010PropOp32
 70
     1
102
RTVSPost2010Prop33
280
     0
102
RTVSPost2010PropOp33
 70
     1
102
RTVSPost2010Prop34
280
     0
102
RTVSPost2010PropOp34
 70
     1
102
RTVSPost2010Prop35
280
     0
102
RTVSPost2010PropOp35
 70
     1
102
RTVSPost2010Prop36
280
     0
102
RTVSPost2010PropOp36
 70
     1
102
RTVSPost2010Prop37
 90
       50
102
RTVSPost2010PropOp37
 70
     1
102
RTVSPost2010Prop38
140
0.0
102
RTVSPost2010PropOp38
 70
     1
102
RTVSPost2010Prop39
140
1.0
102
RTVSPost2010PropOp39
 70
     1
102
RTVSPost2010Prop40
 90
        0
102
RTVSPost2010PropOp40
 70
     1
102
RTVSPost2010Prop41ColorIndex
 90
       18
102
RTVSPost2010Prop41ColorRGB
 90
        0
102
RTVSPost2010PropOp41
 70
     1
102
RTVSPost2010Prop42
 90
       50
102
RTVSPost2010PropOp42
 70
     1
102
RTVSPost2010Prop43
 90
        3
102
RTVSPost2010PropOp43
 70
     1
102
RTVSPost2010Prop44ColorIndex
 90
        5
102
RTVSPost2010Prop44ColorRGB
 90
      255
102
RTVSPost2010PropOp44
 70
     1
102
RTVSPost2010Prop45
280
     0
102
RTVSPost2010PropOp45
 70
     1
102
RTVSPost2010Prop46
 90
       50
102
RTVSPost2010PropOp46
 70
     1
102
RTVSPost2010Prop47
 90
       50
102
RTVSPost2010PropOp47
 70
     1
102
RTVSPost2010Prop48
 90
       50
102
RTVSPost2010PropOp48
 70
     1
102
RTVSPost2010Prop49
280
     0
102
RTVSPost2010PropOp49
 70
     1
102
RTVSPost2010Prop50
 90
       50
102
RTVSPost2010PropOp50
 70
     1
102
RTVSPost2010Prop51ColorIndex
 90
      256
102
RTVSPost2010Prop51ColorRGB
 90
-16777216
102
RTVSPost2010PropOp51
 70
     0
102
RTVSPost2010Prop52
140
1.0
102
RTVSPost2010PropOp52
 70
     0
102
RTVSPost2010Prop53
 90
        2
102
RTVSPost2010PropOp53
 70
     1
102
RTVSPost2010Prop54
  1
strokes_ogs.tif
102
RTVSPost2010PropOp54
 70
     1
102
RTVSPost2010Prop55
280
     0
102
RTVSPost2010PropOp55
 70
     1
102
RTVSPost2010Prop56
140
1.0
102
RTVSPost2010PropOp56
 70
     1
102
RTVSPost2010Prop57
140
1.0
102
RTVSPost2010PropOp57
 70
     1
  0
XRECORD
  5
4DA
102
{ACAD_REACTORS
330
4D9
102
}
330
4D9
100
AcDbXrecord
280
     1
102
RTVSPropertyOp0
 70
     0
102
RTVSPropertyOp1
 70
     0
102
RTVSPropertyOp2
 70
     0
102
RTVSPropertyOp3
 70
     0
102
RTVSPropertyOp4
 70
     0
102
RTVSPropertyOp5
 70
     0
102
RTVSPropertyOp6
 70
     0
102
RTVSPropertyOp7
 70
     0
102
RTVSPropertyOp8
 70
     0
102
RTVSPropertyOp9
 70
     0
102
RTVSPropertyOp10
 70
     0
102
RTVSPropertyOp11
 70
     0
102
RTVSPropertyOp12
 70
     0
102
RTVSPropertyOp13
 70
     0
102
RTVSPropertyOp14
 70
     0
102
RTVSPropertyOp15
 70
     0
102
RTVSPropertyOp16
 70
     0
102
RTVSPropertyOp17
 70
     0
102
RTVSPropertyOp18
 70
     0
102
RTVSPropertyOp19
 70
     0
102
RTVSPropertyOp20
 70
     0
102
RTVSPropertyOp21
 70
     0
102
RTVSPropertyOp22
 70
     0
102
RTVSPropertyOp23
 70
     0
102
RTVSPropertyOp24
 70
     0
102
RTVSPropertyOp25
 70
     0
102
RTVSPropertyOp26
 70
     0
102
RTVSPropertyOp27
 70
     0
102
RTVSPropertyOp28
 70
     1
102
RTVSPropertyOp29
 70
     1
102
RTVSPropertyOp30
 70
     1
102
RTVSPropertyOp31
 70
     1
102
RTVSPropertyOp32
 70
     1
102
RTVSPropertyOp33
 70
     1
102
RTVSPropertyOp34
 70
     1
102
RTVSPropertyOp35
 70
     1
102
RTVSPropertyOp36
 70
     1
102
RTVSPropertyOp37
 70
     1
102
RTVSPropertyOp38
 70
     1
102
RTVSPropertyOp39
 70
     1
102
RTVSPropertyOp40
 70
     1
102
RTVSPropertyOp41
 70
     1
102
RTVSPropertyOp42
 70
     1
102
RTVSPropertyOp43
 70
     1
102
RTVSPropertyOp44
 70
     1
102
RTVSPropertyOp45
 70
     1
102
RTVSPropertyOp46
 70
     1
102
RTVSPropertyOp47
 70
     1
102
RTVSPropertyOp48
 70
     1
102
RTVSPropertyOp49
 70
     1
102
RTVSPropertyOp50
 70
     1
102
RTVSPropertyOp51
 70
     0
102
RTVSPropertyOp52
 70
     0
102
RTVSPropertyOp53
 70
     1
102
RTVSPropertyOp54
 70
     1
102
RTVSPropertyOp55
 70
     1
102
RTVSPropertyOp56
 70
     1
102
RTVSPropertyOp57
 70
     1
102
RTVSPost2010Prop28
280
     0
102
RTVSPost2010PropOp28
 70
     1
102
RTVSPost2010Prop29
280
     1
102
RTVSPost2010PropOp29
 70
     1
102
RTVSPost2010Prop30
280
     1
102
RTVSPost2010PropOp30
 70
     1
102
RTVSPost2010Prop31
280
     0
102
RTVSPost2010PropOp31
 70
     1
102
RTVSPost2010Prop32
280
     0
102
RTVSPost2010PropOp32
 70
     1
102
RTVSPost2010Prop33
280
     0
102
RTVSPost2010PropOp33
 70
     1
102
RTVSPost2010Prop34
280
     0
102
RTVSPost2010PropOp34
 70
     1
102
RTVSPost2010Prop35
280
     0
102
RTVSPost2010PropOp35
 70
     1
102
RTVSPost2010Prop36
280
     0
102
RTVSPost2010PropOp36
 70
     1
102
RTVSPost2010Prop37
 90
       50
102
RTVSPost2010PropOp37
 70
     1
102
RTVSPost2010Prop38
140
0.0
102
RTVSPost2010PropOp38
 70
     1
102
RTVSPost2010Prop39
140
1.0
102
RTVSPost2010PropOp39
 70
     1
102
RTVSPost2010Prop40
 90
        0
102
RTVSPost2010PropOp40
 70
     1
102
RTVSPost2010Prop41ColorIndex
 90
       18
102
RTVSPost2010Prop41ColorRGB
 90
        0
102
RTVSPost2010PropOp41
 70
     1
102
RTVSPost2010Prop42
 90
       50
102
RTVSPost2010PropOp42
 70
     1
102
RTVSPost2010Prop43
 90
        3
102
RTVSPost2010PropOp43
 70
     1
102
RTVSPost2010Prop44ColorIndex
 90
        5
102
RTVSPost2010Prop44ColorRGB
 90
      255
102
RTVSPost2010PropOp44
 70
     1
102
RTVSPost2010Prop45
280
     0
102
RTVSPost2010PropOp45
 70
     1
102
RTVSPost2010Prop46
 90
       50
102
RTVSPost2010PropOp46
 70
     1
102
RTVSPost2010Prop47
 90
       50
102
RTVSPost2010PropOp47
 70
     1
102
RTVSPost2010Prop48
 90
       50
102
RTVSPost2010PropOp48
 70
     1
102
RTVSPost2010Prop49
280
     0
102
RTVSPost2010PropOp49
 70
     1
102
RTVSPost2010Prop50
 90
       50
102
RTVSPost2010PropOp50
 70
     1
102
RTVSPost2010Prop51ColorIndex
 90
      256
102
RTVSPost2010Prop51ColorRGB
 90
-16777216
102
RTVSPost2010PropOp51
 70
     0
102
RTVSPost2010Prop52
140
1.0
102
RTVSPost2010PropOp52
 70
     0
102
RTVSPost2010Prop53
 90
        2
102
RTVSPost2010PropOp53
 70
     1
102
RTVSPost2010Prop54
  1
strokes_ogs.tif
102
RTVSPost2010PropOp54
 70
     1
102
RTVSPost2010Prop55
280
     0
102
RTVSPost2010PropOp55
 70
     1
102
RTVSPost2010Prop56
140
1.0
102
RTVSPost2010PropOp56
 70
     1
102
RTVSPost2010Prop57
140
1.0
102
RTVSPost2010PropOp57
 70
     1
  0
XRECORD
  5
4D2
102
{ACAD_REACTORS
330
4D1
102
}
330
4D1
100
AcDbXrecord
280
     1
102
RTVSPropertyOp0
 70
     1
102
RTVSPropertyOp1
 70
     1
102
RTVSPropertyOp2
 70
     1
102
RTVSPropertyOp3
 70
     1
102
RTVSPropertyOp4
 70
     1
102
RTVSPropertyOp5
 70
     1
102
RTVSPropertyOp6
 70
     1
102
RTVSPropertyOp7
 70
     1
102
RTVSPropertyOp8
 70
     1
102
RTVSPropertyOp9
 70
     1
102
RTVSPropertyOp10
 70
     1
102
RTVSPropertyOp11
 70
     1
102
RTVSPropertyOp12
 70
     1
102
RTVSPropertyOp13
 70
     1
102
RTVSPropertyOp14
 70
     1
102
RTVSPropertyOp15
 70
     1
102
RTVSPropertyOp16
 70
     1
102
RTVSPropertyOp17
 70
     1
102
RTVSPropertyOp18
 70
     1
102
RTVSPropertyOp19
 70
     1
102
RTVSPropertyOp20
 70
     1
102
RTVSPropertyOp21
 70
     1
102
RTVSPropertyOp22
 70
     1
102
RTVSPropertyOp23
 70
     1
102
RTVSPropertyOp24
 70
     1
102
RTVSPropertyOp25
 70
     1
102
RTVSPropertyOp26
 70
     1
102
RTVSPropertyOp27
 70
     1
102
RTVSPropertyOp28
 70
     1
102
RTVSPropertyOp29
 70
     1
102
RTVSPropertyOp30
 70
     1
102
RTVSPropertyOp31
 70
     1
102
RTVSPropertyOp32
 70
     1
102
RTVSPropertyOp33
 70
     1
102
RTVSPropertyOp34
 70
     1
102
RTVSPropertyOp35
 70
     1
102
RTVSPropertyOp36
 70
     1
102
RTVSPropertyOp37
 70
     1
102
RTVSPropertyOp38
 70
     1
102
RTVSPropertyOp39
 70
     1
102
RTVSPropertyOp40
 70
     1
102
RTVSPropertyOp41
 70
     1
102
RTVSPropertyOp42
 70
     1
102
RTVSPropertyOp43
 70
     1
102
RTVSPropertyOp44
 70
     1
102
RTVSPropertyOp45
 70
     1
102
RTVSPropertyOp46
 70
     1
102
RTVSPropertyOp47
 70
     1
102
RTVSPropertyOp48
 70
     1
102
RTVSPropertyOp49
 70
     1
102
RTVSPropertyOp50
 70
     1
102
RTVSPropertyOp51
 70
     0
102
RTVSPropertyOp52
 70
     0
102
RTVSPropertyOp53
 70
     1
102
RTVSPropertyOp54
 70
     1
102
RTVSPropertyOp55
 70
     1
102
RTVSPropertyOp56
 70
     1
102
RTVSPropertyOp57
 70
     1
102
RTVSPost2010Prop28
280
     0
102
RTVSPost2010PropOp28
 70
     1
102
RTVSPost2010Prop29
280
     1
102
RTVSPost2010PropOp29
 70
     1
102
RTVSPost2010Prop30
280
     1
102
RTVSPost2010PropOp30
 70
     1
102
RTVSPost2010Prop31
280
     0
102
RTVSPost2010PropOp31
 70
     1
102
RTVSPost2010Prop32
280
     0
102
RTVSPost2010PropOp32
 70
     1
102
RTVSPost2010Prop33
280
     0
102
RTVSPost2010PropOp33
 70
     1
102
RTVSPost2010Prop34
280
     0
102
RTVSPost2010PropOp34
 70
     1
102
RTVSPost2010Prop35
280
     0
102
RTVSPost2010PropOp35
 70
     1
102
RTVSPost2010Prop36
280
     0
102
RTVSPost2010PropOp36
 70
     1
102
RTVSPost2010Prop37
 90
       50
102
RTVSPost2010PropOp37
 70
     1
102
RTVSPost2010Prop38
140
0.0
102
RTVSPost2010PropOp38
 70
     1
102
RTVSPost2010Prop39
140
1.0
102
RTVSPost2010PropOp39
 70
     1
102
RTVSPost2010Prop40
 90
        0
102
RTVSPost2010PropOp40
 70
     1
102
RTVSPost2010Prop41ColorIndex
 90
       18
102
RTVSPost2010Prop41ColorRGB
 90
        0
102
RTVSPost2010PropOp41
 70
     1
102
RTVSPost2010Prop42
 90
       50
102
RTVSPost2010PropOp42
 70
     1
102
RTVSPost2010Prop43
 90
        3
102
RTVSPost2010PropOp43
 70
     1
102
RTVSPost2010Prop44ColorIndex
 90
        5
102
RTVSPost2010Prop44ColorRGB
 90
      255
102
RTVSPost2010PropOp44
 70
     1
102
RTVSPost2010Prop45
280
     0
102
RTVSPost2010PropOp45
 70
     1
102
RTVSPost2010Prop46
 90
       50
102
RTVSPost2010PropOp46
 70
     1
102
RTVSPost2010Prop47
 90
       50
102
RTVSPost2010PropOp47
 70
     1
102
RTVSPost2010Prop48
 90
       50
102
RTVSPost2010PropOp48
 70
     1
102
RTVSPost2010Prop49
280
     0
102
RTVSPost2010PropOp49
 70
     1
102
RTVSPost2010Prop50
 90
       50
102
RTVSPost2010PropOp50
 70
     1
102
RTVSPost2010Prop51ColorIndex
 90
      256
102
RTVSPost2010Prop51ColorRGB
 90
-16777216
102
RTVSPost2010PropOp51
 70
     0
102
RTVSPost2010Prop52
140
1.0
102
RTVSPost2010PropOp52
 70
     0
102
RTVSPost2010Prop53
 90
        2
102
RTVSPost2010PropOp53
 70
     1
102
RTVSPost2010Prop54
  1
strokes_ogs.tif
102
RTVSPost2010PropOp54
 70
     1
102
RTVSPost2010Prop55
280
     0
102
RTVSPost2010PropOp55
 70
     1
102
RTVSPost2010Prop56
140
1.0
102
RTVSPost2010PropOp56
 70
     1
102
RTVSPost2010Prop57
140
1.0
102
RTVSPost2010PropOp57
 70
     1
  0
XRECORD
  5
4B6
102
{ACAD_REACTORS
330
4B5
102
}
330
4B5
100
AcDbXrecord
280
     1
102
RTVSPropertyOp0
 70
     1
102
RTVSPropertyOp1
 70
     1
102
RTVSPropertyOp2
 70
     1
102
RTVSPropertyOp3
 70
     1
102
RTVSPropertyOp4
 70
     1
102
RTVSPropertyOp5
 70
     1
102
RTVSPropertyOp6
 70
     1
102
RTVSPropertyOp7
 70
     1
102
RTVSPropertyOp8
 70
     1
102
RTVSPropertyOp9
 70
     1
102
RTVSPropertyOp10
 70
     1
102
RTVSPropertyOp11
 70
     1
102
RTVSPropertyOp12
 70
     1
102
RTVSPropertyOp13
 70
     1
102
RTVSPropertyOp14
 70
     1
102
RTVSPropertyOp15
 70
     1
102
RTVSPropertyOp16
 70
     1
102
RTVSPropertyOp17
 70
     1
102
RTVSPropertyOp18
 70
     1
102
RTVSPropertyOp19
 70
     1
102
RTVSPropertyOp20
 70
     1
102
RTVSPropertyOp21
 70
     1
102
RTVSPropertyOp22
 70
     1
102
RTVSPropertyOp23
 70
     1
102
RTVSPropertyOp24
 70
     1
102
RTVSPropertyOp25
 70
     1
102
RTVSPropertyOp26
 70
     1
102
RTVSPropertyOp27
 70
     1
102
RTVSPropertyOp28
 70
     1
102
RTVSPropertyOp29
 70
     1
102
RTVSPropertyOp30
 70
     1
102
RTVSPropertyOp31
 70
     1
102
RTVSPropertyOp32
 70
     1
102
RTVSPropertyOp33
 70
     1
102
RTVSPropertyOp34
 70
     1
102
RTVSPropertyOp35
 70
     1
102
RTVSPropertyOp36
 70
     1
102
RTVSPropertyOp37
 70
     1
102
RTVSPropertyOp38
 70
     1
102
RTVSPropertyOp39
 70
     1
102
RTVSPropertyOp40
 70
     1
102
RTVSPropertyOp41
 70
     1
102
RTVSPropertyOp42
 70
     1
102
RTVSPropertyOp43
 70
     1
102
RTVSPropertyOp44
 70
     1
102
RTVSPropertyOp45
 70
     1
102
RTVSPropertyOp46
 70
     1
102
RTVSPropertyOp47
 70
     1
102
RTVSPropertyOp48
 70
     1
102
RTVSPropertyOp49
 70
     1
102
RTVSPropertyOp50
 70
     1
102
RTVSPropertyOp51
 70
     0
102
RTVSPropertyOp52
 70
     0
102
RTVSPropertyOp53
 70
     1
102
RTVSPropertyOp54
 70
     1
102
RTVSPropertyOp55
 70
     1
102
RTVSPropertyOp56
 70
     1
102
RTVSPropertyOp57
 70
     1
102
RTVSPost2010Prop28
280
     0
102
RTVSPost2010PropOp28
 70
     1
102
RTVSPost2010Prop29
280
     1
102
RTVSPost2010PropOp29
 70
     1
102
RTVSPost2010Prop30
280
     1
102
RTVSPost2010PropOp30
 70
     1
102
RTVSPost2010Prop31
280
     0
102
RTVSPost2010PropOp31
 70
     1
102
RTVSPost2010Prop32
280
     0
102
RTVSPost2010PropOp32
 70
     1
102
RTVSPost2010Prop33
280
     0
102
RTVSPost2010PropOp33
 70
     1
102
RTVSPost2010Prop34
280
     0
102
RTVSPost2010PropOp34
 70
     1
102
RTVSPost2010Prop35
280
     0
102
RTVSPost2010PropOp35
 70
     1
102
RTVSPost2010Prop36
280
     0
102
RTVSPost2010PropOp36
 70
     1
102
RTVSPost2010Prop37
 90
       50
102
RTVSPost2010PropOp37
 70
     1
102
RTVSPost2010Prop38
140
0.0
102
RTVSPost2010PropOp38
 70
     1
102
RTVSPost2010Prop39
140
1.0
102
RTVSPost2010PropOp39
 70
     1
102
RTVSPost2010Prop40
 90
        0
102
RTVSPost2010PropOp40
 70
     1
102
RTVSPost2010Prop41ColorIndex
 90
       18
102
RTVSPost2010Prop41ColorRGB
 90
        0
102
RTVSPost2010PropOp41
 70
     1
102
RTVSPost2010Prop42
 90
       50
102
RTVSPost2010PropOp42
 70
     1
102
RTVSPost2010Prop43
 90
        3
102
RTVSPost2010PropOp43
 70
     1
102
RTVSPost2010Prop44ColorIndex
 90
        5
102
RTVSPost2010Prop44ColorRGB
 90
      255
102
RTVSPost2010PropOp44
 70
     1
102
RTVSPost2010Prop45
280
     0
102
RTVSPost2010PropOp45
 70
     1
102
RTVSPost2010Prop46
 90
       50
102
RTVSPost2010PropOp46
 70
     1
102
RTVSPost2010Prop47
 90
       50
102
RTVSPost2010PropOp47
 70
     1
102
RTVSPost2010Prop48
 90
       50
102
RTVSPost2010PropOp48
 70
     1
102
RTVSPost2010Prop49
280
     0
102
RTVSPost2010PropOp49
 70
     1
102
RTVSPost2010Prop50
 90
       50
102
RTVSPost2010PropOp50
 70
     1
102
RTVSPost2010Prop51ColorIndex
 90
      256
102
RTVSPost2010Prop51ColorRGB
 90
-16777216
102
RTVSPost2010PropOp51
 70
     0
102
RTVSPost2010Prop52
140
1.0
102
RTVSPost2010PropOp52
 70
     0
102
RTVSPost2010Prop53
 90
        2
102
RTVSPost2010PropOp53
 70
     1
102
RTVSPost2010Prop54
  1
strokes_ogs.tif
102
RTVSPost2010PropOp54
 70
     1
102
RTVSPost2010Prop55
280
     0
102
RTVSPost2010PropOp55
 70
     1
102
RTVSPost2010Prop56
140
1.0
102
RTVSPost2010PropOp56
 70
     1
102
RTVSPost2010Prop57
140
1.0
102
RTVSPost2010PropOp57
 70
     1
  0
XRECORD
  5
4B8
102
{ACAD_REACTORS
330
4B7
102
}
330
4B7
100
AcDbXrecord
280
     1
102
RTVSPropertyOp0
 70
     1
102
RTVSPropertyOp1
 70
     1
102
RTVSPropertyOp2
 70
     1
102
RTVSPropertyOp3
 70
     1
102
RTVSPropertyOp4
 70
     1
102
RTVSPropertyOp5
 70
     1
102
RTVSPropertyOp6
 70
     1
102
RTVSPropertyOp7
 70
     1
102
RTVSPropertyOp8
 70
     1
102
RTVSPropertyOp9
 70
     1
102
RTVSPropertyOp10
 70
     1
102
RTVSPropertyOp11
 70
     1
102
RTVSPropertyOp12
 70
     1
102
RTVSPropertyOp13
 70
     1
102
RTVSPropertyOp14
 70
     1
102
RTVSPropertyOp15
 70
     1
102
RTVSPropertyOp16
 70
     1
102
RTVSPropertyOp17
 70
     1
102
RTVSPropertyOp18
 70
     1
102
RTVSPropertyOp19
 70
     1
102
RTVSPropertyOp20
 70
     1
102
RTVSPropertyOp21
 70
     1
102
RTVSPropertyOp22
 70
     1
102
RTVSPropertyOp23
 70
     1
102
RTVSPropertyOp24
 70
     1
102
RTVSPropertyOp25
 70
     1
102
RTVSPropertyOp26
 70
     1
102
RTVSPropertyOp27
 70
     1
102
RTVSPropertyOp28
 70
     1
102
RTVSPropertyOp29
 70
     1
102
RTVSPropertyOp30
 70
     1
102
RTVSPropertyOp31
 70
     1
102
RTVSPropertyOp32
 70
     1
102
RTVSPropertyOp33
 70
     1
102
RTVSPropertyOp34
 70
     1
102
RTVSPropertyOp35
 70
     1
102
RTVSPropertyOp36
 70
     1
102
RTVSPropertyOp37
 70
     1
102
RTVSPropertyOp38
 70
     1
102
RTVSPropertyOp39
 70
     1
102
RTVSPropertyOp40
 70
     1
102
RTVSPropertyOp41
 70
     1
102
RTVSPropertyOp42
 70
     1
102
RTVSPropertyOp43
 70
     1
102
RTVSPropertyOp44
 70
     1
102
RTVSPropertyOp45
 70
     1
102
RTVSPropertyOp46
 70
     1
102
RTVSPropertyOp47
 70
     1
102
RTVSPropertyOp48
 70
     1
102
RTVSPropertyOp49
 70
     1
102
RTVSPropertyOp50
 70
     1
102
RTVSPropertyOp51
 70
     0
102
RTVSPropertyOp52
 70
     0
102
RTVSPropertyOp53
 70
     1
102
RTVSPropertyOp54
 70
     1
102
RTVSPropertyOp55
 70
     1
102
RTVSPropertyOp56
 70
     1
102
RTVSPropertyOp57
 70
     1
102
RTVSPost2010Prop28
280
     0
102
RTVSPost2010PropOp28
 70
     1
102
RTVSPost2010Prop29
280
     1
102
RTVSPost2010PropOp29
 70
     1
102
RTVSPost2010Prop30
280
     1
102
RTVSPost2010PropOp30
 70
     1
102
RTVSPost2010Prop31
280
     0
102
RTVSPost2010PropOp31
 70
     1
102
RTVSPost2010Prop32
280
     0
102
RTVSPost2010PropOp32
 70
     1
102
RTVSPost2010Prop33
280
     0
102
RTVSPost2010PropOp33
 70
     1
102
RTVSPost2010Prop34
280
     0
102
RTVSPost2010PropOp34
 70
     1
102
RTVSPost2010Prop35
280
     0
102
RTVSPost2010PropOp35
 70
     1
102
RTVSPost2010Prop36
280
     0
102
RTVSPost2010PropOp36
 70
     1
102
RTVSPost2010Prop37
 90
       50
102
RTVSPost2010PropOp37
 70
     1
102
RTVSPost2010Prop38
140
0.0
102
RTVSPost2010PropOp38
 70
     1
102
RTVSPost2010Prop39
140
1.0
102
RTVSPost2010PropOp39
 70
     1
102
RTVSPost2010Prop40
 90
        0
102
RTVSPost2010PropOp40
 70
     1
102
RTVSPost2010Prop41ColorIndex
 90
       18
102
RTVSPost2010Prop41ColorRGB
 90
        0
102
RTVSPost2010PropOp41
 70
     1
102
RTVSPost2010Prop42
 90
       50
102
RTVSPost2010PropOp42
 70
     1
102
RTVSPost2010Prop43
 90
        3
102
RTVSPost2010PropOp43
 70
     1
102
RTVSPost2010Prop44ColorIndex
 90
        5
102
RTVSPost2010Prop44ColorRGB
 90
      255
102
RTVSPost2010PropOp44
 70
     1
102
RTVSPost2010Prop45
280
     0
102
RTVSPost2010PropOp45
 70
     1
102
RTVSPost2010Prop46
 90
       50
102
RTVSPost2010PropOp46
 70
     1
102
RTVSPost2010Prop47
 90
       50
102
RTVSPost2010PropOp47
 70
     1
102
RTVSPost2010Prop48
 90
       50
102
RTVSPost2010PropOp48
 70
     1
102
RTVSPost2010Prop49
280
     0
102
RTVSPost2010PropOp49
 70
     1
102
RTVSPost2010Prop50
 90
       50
102
RTVSPost2010PropOp50
 70
     1
102
RTVSPost2010Prop51ColorIndex
 90
      256
102
RTVSPost2010Prop51ColorRGB
 90
-16777216
102
RTVSPost2010PropOp51
 70
     0
102
RTVSPost2010Prop52
140
1.0
102
RTVSPost2010PropOp52
 70
     0
102
RTVSPost2010Prop53
 90
        2
102
RTVSPost2010PropOp53
 70
     1
102
RTVSPost2010Prop54
  1
strokes_ogs.tif
102
RTVSPost2010PropOp54
 70
     1
102
RTVSPost2010Prop55
280
     0
102
RTVSPost2010PropOp55
 70
     1
102
RTVSPost2010Prop56
140
1.0
102
RTVSPost2010PropOp56
 70
     1
102
RTVSPost2010Prop57
140
1.0
102
RTVSPost2010PropOp57
 70
     1
  0
XRECORD
  5
4BA
102
{ACAD_REACTORS
330
4B9
102
}
330
4B9
100
AcDbXrecord
280
     1
102
RTVSPropertyOp0
 70
     1
102
RTVSPropertyOp1
 70
     1
102
RTVSPropertyOp2
 70
     1
102
RTVSPropertyOp3
 70
     1
102
RTVSPropertyOp4
 70
     1
102
RTVSPropertyOp5
 70
     1
102
RTVSPropertyOp6
 70
     1
102
RTVSPropertyOp7
 70
     1
102
RTVSPropertyOp8
 70
     1
102
RTVSPropertyOp9
 70
     1
102
RTVSPropertyOp10
 70
     1
102
RTVSPropertyOp11
 70
     1
102
RTVSPropertyOp12
 70
     1
102
RTVSPropertyOp13
 70
     1
102
RTVSPropertyOp14
 70
     1
102
RTVSPropertyOp15
 70
     1
102
RTVSPropertyOp16
 70
     1
102
RTVSPropertyOp17
 70
     1
102
RTVSPropertyOp18
 70
     1
102
RTVSPropertyOp19
 70
     1
102
RTVSPropertyOp20
 70
     1
102
RTVSPropertyOp21
 70
     1
102
RTVSPropertyOp22
 70
     1
102
RTVSPropertyOp23
 70
     1
102
RTVSPropertyOp24
 70
     1
102
RTVSPropertyOp25
 70
     1
102
RTVSPropertyOp26
 70
     1
102
RTVSPropertyOp27
 70
     1
102
RTVSPropertyOp28
 70
     1
102
RTVSPropertyOp29
 70
     1
102
RTVSPropertyOp30
 70
     1
102
RTVSPropertyOp31
 70
     1
102
RTVSPropertyOp32
 70
     1
102
RTVSPropertyOp33
 70
     1
102
RTVSPropertyOp34
 70
     1
102
RTVSPropertyOp35
 70
     1
102
RTVSPropertyOp36
 70
     1
102
RTVSPropertyOp37
 70
     1
102
RTVSPropertyOp38
 70
     1
102
RTVSPropertyOp39
 70
     1
102
RTVSPropertyOp40
 70
     1
102
RTVSPropertyOp41
 70
     1
102
RTVSPropertyOp42
 70
     1
102
RTVSPropertyOp43
 70
     1
102
RTVSPropertyOp44
 70
     1
102
RTVSPropertyOp45
 70
     1
102
RTVSPropertyOp46
 70
     1
102
RTVSPropertyOp47
 70
     1
102
RTVSPropertyOp48
 70
     1
102
RTVSPropertyOp49
 70
     1
102
RTVSPropertyOp50
 70
     1
102
RTVSPropertyOp51
 70
     0
102
RTVSPropertyOp52
 70
     0
102
RTVSPropertyOp53
 70
     1
102
RTVSPropertyOp54
 70
     1
102
RTVSPropertyOp55
 70
     1
102
RTVSPropertyOp56
 70
     1
102
RTVSPropertyOp57
 70
     1
102
RTVSPost2010Prop28
280
     0
102
RTVSPost2010PropOp28
 70
     1
102
RTVSPost2010Prop29
280
     1
102
RTVSPost2010PropOp29
 70
     1
102
RTVSPost2010Prop30
280
     1
102
RTVSPost2010PropOp30
 70
     1
102
RTVSPost2010Prop31
280
     0
102
RTVSPost2010PropOp31
 70
     1
102
RTVSPost2010Prop32
280
     0
102
RTVSPost2010PropOp32
 70
     1
102
RTVSPost2010Prop33
280
     0
102
RTVSPost2010PropOp33
 70
     1
102
RTVSPost2010Prop34
280
     0
102
RTVSPost2010PropOp34
 70
     1
102
RTVSPost2010Prop35
280
     0
102
RTVSPost2010PropOp35
 70
     1
102
RTVSPost2010Prop36
280
     0
102
RTVSPost2010PropOp36
 70
     1
102
RTVSPost2010Prop37
 90
       50
102
RTVSPost2010PropOp37
 70
     1
102
RTVSPost2010Prop38
140
0.0
102
RTVSPost2010PropOp38
 70
     1
102
RTVSPost2010Prop39
140
1.0
102
RTVSPost2010PropOp39
 70
     1
102
RTVSPost2010Prop40
 90
        0
102
RTVSPost2010PropOp40
 70
     1
102
RTVSPost2010Prop41ColorIndex
 90
       18
102
RTVSPost2010Prop41ColorRGB
 90
        0
102
RTVSPost2010PropOp41
 70
     1
102
RTVSPost2010Prop42
 90
       50
102
RTVSPost2010PropOp42
 70
     1
102
RTVSPost2010Prop43
 90
        3
102
RTVSPost2010PropOp43
 70
     1
102
RTVSPost2010Prop44ColorIndex
 90
        5
102
RTVSPost2010Prop44ColorRGB
 90
      255
102
RTVSPost2010PropOp44
 70
     1
102
RTVSPost2010Prop45
280
     0
102
RTVSPost2010PropOp45
 70
     1
102
RTVSPost2010Prop46
 90
       50
102
RTVSPost2010PropOp46
 70
     1
102
RTVSPost2010Prop47
 90
       50
102
RTVSPost2010PropOp47
 70
     1
102
RTVSPost2010Prop48
 90
       50
102
RTVSPost2010PropOp48
 70
     1
102
RTVSPost2010Prop49
280
     0
102
RTVSPost2010PropOp49
 70
     1
102
RTVSPost2010Prop50
 90
       50
102
RTVSPost2010PropOp50
 70
     1
102
RTVSPost2010Prop51ColorIndex
 90
      256
102
RTVSPost2010Prop51ColorRGB
 90
-16777216
102
RTVSPost2010PropOp51
 70
     0
102
RTVSPost2010Prop52
140
1.0
102
RTVSPost2010PropOp52
 70
     0
102
RTVSPost2010Prop53
 90
        2
102
RTVSPost2010PropOp53
 70
     1
102
RTVSPost2010Prop54
  1
strokes_ogs.tif
102
RTVSPost2010PropOp54
 70
     1
102
RTVSPost2010Prop55
280
     0
102
RTVSPost2010PropOp55
 70
     1
102
RTVSPost2010Prop56
140
1.0
102
RTVSPost2010PropOp56
 70
     1
102
RTVSPost2010Prop57
140
1.0
102
RTVSPost2010PropOp57
 70
     1
  0
XRECORD
  5
4BC
102
{ACAD_REACTORS
330
4BB
102
}
330
4BB
100
AcDbXrecord
280
     1
102
RTVSPropertyOp0
 70
     1
102
RTVSPropertyOp1
 70
     1
102
RTVSPropertyOp2
 70
     1
102
RTVSPropertyOp3
 70
     1
102
RTVSPropertyOp4
 70
     1
102
RTVSPropertyOp5
 70
     1
102
RTVSPropertyOp6
 70
     1
102
RTVSPropertyOp7
 70
     1
102
RTVSPropertyOp8
 70
     1
102
RTVSPropertyOp9
 70
     1
102
RTVSPropertyOp10
 70
     1
102
RTVSPropertyOp11
 70
     1
102
RTVSPropertyOp12
 70
     1
102
RTVSPropertyOp13
 70
     1
102
RTVSPropertyOp14
 70
     1
102
RTVSPropertyOp15
 70
     1
102
RTVSPropertyOp16
 70
     1
102
RTVSPropertyOp17
 70
     1
102
RTVSPropertyOp18
 70
     1
102
RTVSPropertyOp19
 70
     1
102
RTVSPropertyOp20
 70
     1
102
RTVSPropertyOp21
 70
     1
102
RTVSPropertyOp22
 70
     1
102
RTVSPropertyOp23
 70
     1
102
RTVSPropertyOp24
 70
     1
102
RTVSPropertyOp25
 70
     1
102
RTVSPropertyOp26
 70
     1
102
RTVSPropertyOp27
 70
     1
102
RTVSPropertyOp28
 70
     1
102
RTVSPropertyOp29
 70
     1
102
RTVSPropertyOp30
 70
     1
102
RTVSPropertyOp31
 70
     1
102
RTVSPropertyOp32
 70
     1
102
RTVSPropertyOp33
 70
     1
102
RTVSPropertyOp34
 70
     1
102
RTVSPropertyOp35
 70
     1
102
RTVSPropertyOp36
 70
     1
102
RTVSPropertyOp37
 70
     1
102
RTVSPropertyOp38
 70
     1
102
RTVSPropertyOp39
 70
     1
102
RTVSPropertyOp40
 70
     1
102
RTVSPropertyOp41
 70
     1
102
RTVSPropertyOp42
 70
     1
102
RTVSPropertyOp43
 70
     1
102
RTVSPropertyOp44
 70
     1
102
RTVSPropertyOp45
 70
     1
102
RTVSPropertyOp46
 70
     1
102
RTVSPropertyOp47
 70
     1
102
RTVSPropertyOp48
 70
     1
102
RTVSPropertyOp49
 70
     1
102
RTVSPropertyOp50
 70
     1
102
RTVSPropertyOp51
 70
     0
102
RTVSPropertyOp52
 70
     0
102
RTVSPropertyOp53
 70
     1
102
RTVSPropertyOp54
 70
     1
102
RTVSPropertyOp55
 70
     1
102
RTVSPropertyOp56
 70
     1
102
RTVSPropertyOp57
 70
     1
102
RTVSPost2010Prop28
280
     0
102
RTVSPost2010PropOp28
 70
     1
102
RTVSPost2010Prop29
280
     1
102
RTVSPost2010PropOp29
 70
     1
102
RTVSPost2010Prop30
280
     1
102
RTVSPost2010PropOp30
 70
     1
102
RTVSPost2010Prop31
280
     0
102
RTVSPost2010PropOp31
 70
     1
102
RTVSPost2010Prop32
280
     0
102
RTVSPost2010PropOp32
 70
     1
102
RTVSPost2010Prop33
280
     0
102
RTVSPost2010PropOp33
 70
     1
102
RTVSPost2010Prop34
280
     0
102
RTVSPost2010PropOp34
 70
     1
102
RTVSPost2010Prop35
280
     0
102
RTVSPost2010PropOp35
 70
     1
102
RTVSPost2010Prop36
280
     0
102
RTVSPost2010PropOp36
 70
     1
102
RTVSPost2010Prop37
 90
       50
102
RTVSPost2010PropOp37
 70
     1
102
RTVSPost2010Prop38
140
0.0
102
RTVSPost2010PropOp38
 70
     1
102
RTVSPost2010Prop39
140
1.0
102
RTVSPost2010PropOp39
 70
     1
102
RTVSPost2010Prop40
 90
        0
102
RTVSPost2010PropOp40
 70
     1
102
RTVSPost2010Prop41ColorIndex
 90
       18
102
RTVSPost2010Prop41ColorRGB
 90
        0
102
RTVSPost2010PropOp41
 70
     1
102
RTVSPost2010Prop42
 90
       50
102
RTVSPost2010PropOp42
 70
     1
102
RTVSPost2010Prop43
 90
        3
102
RTVSPost2010PropOp43
 70
     1
102
RTVSPost2010Prop44ColorIndex
 90
        5
102
RTVSPost2010Prop44ColorRGB
 90
      255
102
RTVSPost2010PropOp44
 70
     1
102
RTVSPost2010Prop45
280
     0
102
RTVSPost2010PropOp45
 70
     1
102
RTVSPost2010Prop46
 90
       50
102
RTVSPost2010PropOp46
 70
     1
102
RTVSPost2010Prop47
 90
       50
102
RTVSPost2010PropOp47
 70
     1
102
RTVSPost2010Prop48
 90
       50
102
RTVSPost2010PropOp48
 70
     1
102
RTVSPost2010Prop49
280
     0
102
RTVSPost2010PropOp49
 70
     1
102
RTVSPost2010Prop50
 90
       50
102
RTVSPost2010PropOp50
 70
     1
102
RTVSPost2010Prop51ColorIndex
 90
      256
102
RTVSPost2010Prop51ColorRGB
 90
-16777216
102
RTVSPost2010PropOp51
 70
     0
102
RTVSPost2010Prop52
140
1.0
102
RTVSPost2010PropOp52
 70
     0
102
RTVSPost2010Prop53
 90
        2
102
RTVSPost2010PropOp53
 70
     1
102
RTVSPost2010Prop54
  1
strokes_ogs.tif
102
RTVSPost2010PropOp54
 70
     1
102
RTVSPost2010Prop55
280
     0
102
RTVSPost2010PropOp55
 70
     1
102
RTVSPost2010Prop56
140
1.0
102
RTVSPost2010PropOp56
 70
     1
102
RTVSPost2010Prop57
140
1.0
102
RTVSPost2010PropOp57
 70
     1
  0
XRECORD
  5
4C2
102
{ACAD_REACTORS
330
4C1
102
}
330
4C1
100
AcDbXrecord
280
     1
102
RTVSPropertyOp0
 70
     1
102
RTVSPropertyOp1
 70
     1
102
RTVSPropertyOp2
 70
     1
102
RTVSPropertyOp3
 70
     1
102
RTVSPropertyOp4
 70
     1
102
RTVSPropertyOp5
 70
     1
102
RTVSPropertyOp6
 70
     1
102
RTVSPropertyOp7
 70
     1
102
RTVSPropertyOp8
 70
     1
102
RTVSPropertyOp9
 70
     1
102
RTVSPropertyOp10
 70
     1
102
RTVSPropertyOp11
 70
     1
102
RTVSPropertyOp12
 70
     1
102
RTVSPropertyOp13
 70
     1
102
RTVSPropertyOp14
 70
     1
102
RTVSPropertyOp15
 70
     1
102
RTVSPropertyOp16
 70
     1
102
RTVSPropertyOp17
 70
     1
102
RTVSPropertyOp18
 70
     1
102
RTVSPropertyOp19
 70
     1
102
RTVSPropertyOp20
 70
     1
102
RTVSPropertyOp21
 70
     1
102
RTVSPropertyOp22
 70
     1
102
RTVSPropertyOp23
 70
     1
102
RTVSPropertyOp24
 70
     1
102
RTVSPropertyOp25
 70
     1
102
RTVSPropertyOp26
 70
     1
102
RTVSPropertyOp27
 70
     1
102
RTVSPropertyOp28
 70
     1
102
RTVSPropertyOp29
 70
     1
102
RTVSPropertyOp30
 70
     1
102
RTVSPropertyOp31
 70
     1
102
RTVSPropertyOp32
 70
     1
102
RTVSPropertyOp33
 70
     1
102
RTVSPropertyOp34
 70
     1
102
RTVSPropertyOp35
 70
     1
102
RTVSPropertyOp36
 70
     1
102
RTVSPropertyOp37
 70
     1
102
RTVSPropertyOp38
 70
     1
102
RTVSPropertyOp39
 70
     1
102
RTVSPropertyOp40
 70
     1
102
RTVSPropertyOp41
 70
     1
102
RTVSPropertyOp42
 70
     1
102
RTVSPropertyOp43
 70
     1
102
RTVSPropertyOp44
 70
     1
102
RTVSPropertyOp45
 70
     1
102
RTVSPropertyOp46
 70
     1
102
RTVSPropertyOp47
 70
     1
102
RTVSPropertyOp48
 70
     1
102
RTVSPropertyOp49
 70
     1
102
RTVSPropertyOp50
 70
     1
102
RTVSPropertyOp51
 70
     0
102
RTVSPropertyOp52
 70
     0
102
RTVSPropertyOp53
 70
     1
102
RTVSPropertyOp54
 70
     1
102
RTVSPropertyOp55
 70
     1
102
RTVSPropertyOp56
 70
     1
102
RTVSPropertyOp57
 70
     1
102
RTVSPost2010Prop28
280
     0
102
RTVSPost2010PropOp28
 70
     1
102
RTVSPost2010Prop29
280
     1
102
RTVSPost2010PropOp29
 70
     1
102
RTVSPost2010Prop30
280
     1
102
RTVSPost2010PropOp30
 70
     1
102
RTVSPost2010Prop31
280
     0
102
RTVSPost2010PropOp31
 70
     1
102
RTVSPost2010Prop32
280
     0
102
RTVSPost2010PropOp32
 70
     1
102
RTVSPost2010Prop33
280
     0
102
RTVSPost2010PropOp33
 70
     1
102
RTVSPost2010Prop34
280
     0
102
RTVSPost2010PropOp34
 70
     1
102
RTVSPost2010Prop35
280
     0
102
RTVSPost2010PropOp35
 70
     1
102
RTVSPost2010Prop36
280
     0
102
RTVSPost2010PropOp36
 70
     1
102
RTVSPost2010Prop37
 90
       50
102
RTVSPost2010PropOp37
 70
     1
102
RTVSPost2010Prop38
140
0.0
102
RTVSPost2010PropOp38
 70
     1
102
RTVSPost2010Prop39
140
1.0
102
RTVSPost2010PropOp39
 70
     1
102
RTVSPost2010Prop40
 90
        0
102
RTVSPost2010PropOp40
 70
     1
102
RTVSPost2010Prop41ColorIndex
 90
       18
102
RTVSPost2010Prop41ColorRGB
 90
        0
102
RTVSPost2010PropOp41
 70
     1
102
RTVSPost2010Prop42
 90
       50
102
RTVSPost2010PropOp42
 70
     1
102
RTVSPost2010Prop43
 90
        3
102
RTVSPost2010PropOp43
 70
     1
102
RTVSPost2010Prop44ColorIndex
 90
        5
102
RTVSPost2010Prop44ColorRGB
 90
      255
102
RTVSPost2010PropOp44
 70
     1
102
RTVSPost2010Prop45
280
     0
102
RTVSPost2010PropOp45
 70
     1
102
RTVSPost2010Prop46
 90
       50
102
RTVSPost2010PropOp46
 70
     1
102
RTVSPost2010Prop47
 90
       50
102
RTVSPost2010PropOp47
 70
     1
102
RTVSPost2010Prop48
 90
       50
102
RTVSPost2010PropOp48
 70
     1
102
RTVSPost2010Prop49
280
     0
102
RTVSPost2010PropOp49
 70
     1
102
RTVSPost2010Prop50
 90
       50
102
RTVSPost2010PropOp50
 70
     1
102
RTVSPost2010Prop51ColorIndex
 90
      256
102
RTVSPost2010Prop51ColorRGB
 90
-16777216
102
RTVSPost2010PropOp51
 70
     0
102
RTVSPost2010Prop52
140
1.0
102
RTVSPost2010PropOp52
 70
     0
102
RTVSPost2010Prop53
 90
        2
102
RTVSPost2010PropOp53
 70
     1
102
RTVSPost2010Prop54
  1
strokes_ogs.tif
102
RTVSPost2010PropOp54
 70
     1
102
RTVSPost2010Prop55
280
     0
102
RTVSPost2010PropOp55
 70
     1
102
RTVSPost2010Prop56
140
1.0
102
RTVSPost2010PropOp56
 70
     1
102
RTVSPost2010Prop57
140
1.0
102
RTVSPost2010PropOp57
 70
     1
  0
XRECORD
  5
4D6
102
{ACAD_REACTORS
330
4D5
102
}
330
4D5
100
AcDbXrecord
280
     1
102
RTVSPropertyOp0
 70
     0
102
RTVSPropertyOp1
 70
     0
102
RTVSPropertyOp2
 70
     0
102
RTVSPropertyOp3
 70
     0
102
RTVSPropertyOp4
 70
     0
102
RTVSPropertyOp5
 70
     0
102
RTVSPropertyOp6
 70
     0
102
RTVSPropertyOp7
 70
     0
102
RTVSPropertyOp8
 70
     0
102
RTVSPropertyOp9
 70
     0
102
RTVSPropertyOp10
 70
     0
102
RTVSPropertyOp11
 70
     0
102
RTVSPropertyOp12
 70
     0
102
RTVSPropertyOp13
 70
     0
102
RTVSPropertyOp14
 70
     0
102
RTVSPropertyOp15
 70
     0
102
RTVSPropertyOp16
 70
     0
102
RTVSPropertyOp17
 70
     0
102
RTVSPropertyOp18
 70
     0
102
RTVSPropertyOp19
 70
     0
102
RTVSPropertyOp20
 70
     0
102
RTVSPropertyOp21
 70
     0
102
RTVSPropertyOp22
 70
     0
102
RTVSPropertyOp23
 70
     0
102
RTVSPropertyOp24
 70
     0
102
RTVSPropertyOp25
 70
     0
102
RTVSPropertyOp26
 70
     0
102
RTVSPropertyOp27
 70
     0
102
RTVSPropertyOp28
 70
     1
102
RTVSPropertyOp29
 70
     1
102
RTVSPropertyOp30
 70
     1
102
RTVSPropertyOp31
 70
     1
102
RTVSPropertyOp32
 70
     1
102
RTVSPropertyOp33
 70
     1
102
RTVSPropertyOp34
 70
     1
102
RTVSPropertyOp35
 70
     1
102
RTVSPropertyOp36
 70
     1
102
RTVSPropertyOp37
 70
     1
102
RTVSPropertyOp38
 70
     1
102
RTVSPropertyOp39
 70
     1
102
RTVSPropertyOp40
 70
     1
102
RTVSPropertyOp41
 70
     1
102
RTVSPropertyOp42
 70
     1
102
RTVSPropertyOp43
 70
     1
102
RTVSPropertyOp44
 70
     1
102
RTVSPropertyOp45
 70
     1
102
RTVSPropertyOp46
 70
     1
102
RTVSPropertyOp47
 70
     1
102
RTVSPropertyOp48
 70
     1
102
RTVSPropertyOp49
 70
     1
102
RTVSPropertyOp50
 70
     1
102
RTVSPropertyOp51
 70
     0
102
RTVSPropertyOp52
 70
     0
102
RTVSPropertyOp53
 70
     1
102
RTVSPropertyOp54
 70
     1
102
RTVSPropertyOp55
 70
     1
102
RTVSPropertyOp56
 70
     1
102
RTVSPropertyOp57
 70
     1
102
RTVSPost2010Prop28
280
     0
102
RTVSPost2010PropOp28
 70
     1
102
RTVSPost2010Prop29
280
     1
102
RTVSPost2010PropOp29
 70
     1
102
RTVSPost2010Prop30
280
     1
102
RTVSPost2010PropOp30
 70
     1
102
RTVSPost2010Prop31
280
     0
102
RTVSPost2010PropOp31
 70
     1
102
RTVSPost2010Prop32
280
     0
102
RTVSPost2010PropOp32
 70
     1
102
RTVSPost2010Prop33
280
     0
102
RTVSPost2010PropOp33
 70
     1
102
RTVSPost2010Prop34
280
     0
102
RTVSPost2010PropOp34
 70
     1
102
RTVSPost2010Prop35
280
     0
102
RTVSPost2010PropOp35
 70
     1
102
RTVSPost2010Prop36
280
     0
102
RTVSPost2010PropOp36
 70
     1
102
RTVSPost2010Prop37
 90
       50
102
RTVSPost2010PropOp37
 70
     1
102
RTVSPost2010Prop38
140
0.0
102
RTVSPost2010PropOp38
 70
     1
102
RTVSPost2010Prop39
140
1.0
102
RTVSPost2010PropOp39
 70
     1
102
RTVSPost2010Prop40
 90
        0
102
RTVSPost2010PropOp40
 70
     1
102
RTVSPost2010Prop41ColorIndex
 90
       18
102
RTVSPost2010Prop41ColorRGB
 90
        0
102
RTVSPost2010PropOp41
 70
     1
102
RTVSPost2010Prop42
 90
       50
102
RTVSPost2010PropOp42
 70
     1
102
RTVSPost2010Prop43
 90
        3
102
RTVSPost2010PropOp43
 70
     1
102
RTVSPost2010Prop44ColorIndex
 90
        5
102
RTVSPost2010Prop44ColorRGB
 90
      255
102
RTVSPost2010PropOp44
 70
     1
102
RTVSPost2010Prop45
280
     0
102
RTVSPost2010PropOp45
 70
     1
102
RTVSPost2010Prop46
 90
       50
102
RTVSPost2010PropOp46
 70
     1
102
RTVSPost2010Prop47
 90
       50
102
RTVSPost2010PropOp47
 70
     1
102
RTVSPost2010Prop48
 90
       50
102
RTVSPost2010PropOp48
 70
     1
102
RTVSPost2010Prop49
280
     0
102
RTVSPost2010PropOp49
 70
     1
102
RTVSPost2010Prop50
 90
       50
102
RTVSPost2010PropOp50
 70
     1
102
RTVSPost2010Prop51ColorIndex
 90
      256
102
RTVSPost2010Prop51ColorRGB
 90
-16777216
102
RTVSPost2010PropOp51
 70
     0
102
RTVSPost2010Prop52
140
1.0
102
RTVSPost2010PropOp52
 70
     0
102
RTVSPost2010Prop53
 90
        2
102
RTVSPost2010PropOp53
 70
     1
102
RTVSPost2010Prop54
  1
strokes_ogs.tif
102
RTVSPost2010PropOp54
 70
     1
102
RTVSPost2010Prop55
280
     0
102
RTVSPost2010PropOp55
 70
     1
102
RTVSPost2010Prop56
140
1.0
102
RTVSPost2010PropOp56
 70
     1
102
RTVSPost2010Prop57
140
1.0
102
RTVSPost2010PropOp57
 70
     1
  0
XRECORD
  5
4D0
102
{ACAD_REACTORS
330
4CF
102
}
330
4CF
100
AcDbXrecord
280
     1
102
RTVSPropertyOp0
 70
     1
102
RTVSPropertyOp1
 70
     1
102
RTVSPropertyOp2
 70
     1
102
RTVSPropertyOp3
 70
     1
102
RTVSPropertyOp4
 70
     1
102
RTVSPropertyOp5
 70
     1
102
RTVSPropertyOp6
 70
     1
102
RTVSPropertyOp7
 70
     1
102
RTVSPropertyOp8
 70
     1
102
RTVSPropertyOp9
 70
     1
102
RTVSPropertyOp10
 70
     1
102
RTVSPropertyOp11
 70
     1
102
RTVSPropertyOp12
 70
     1
102
RTVSPropertyOp13
 70
     1
102
RTVSPropertyOp14
 70
     1
102
RTVSPropertyOp15
 70
     1
102
RTVSPropertyOp16
 70
     1
102
RTVSPropertyOp17
 70
     1
102
RTVSPropertyOp18
 70
     1
102
RTVSPropertyOp19
 70
     1
102
RTVSPropertyOp20
 70
     1
102
RTVSPropertyOp21
 70
     1
102
RTVSPropertyOp22
 70
     1
102
RTVSPropertyOp23
 70
     1
102
RTVSPropertyOp24
 70
     1
102
RTVSPropertyOp25
 70
     1
102
RTVSPropertyOp26
 70
     1
102
RTVSPropertyOp27
 70
     1
102
RTVSPropertyOp28
 70
     1
102
RTVSPropertyOp29
 70
     1
102
RTVSPropertyOp30
 70
     1
102
RTVSPropertyOp31
 70
     1
102
RTVSPropertyOp32
 70
     1
102
RTVSPropertyOp33
 70
     1
102
RTVSPropertyOp34
 70
     1
102
RTVSPropertyOp35
 70
     1
102
RTVSPropertyOp36
 70
     1
102
RTVSPropertyOp37
 70
     1
102
RTVSPropertyOp38
 70
     1
102
RTVSPropertyOp39
 70
     1
102
RTVSPropertyOp40
 70
     1
102
RTVSPropertyOp41
 70
     1
102
RTVSPropertyOp42
 70
     1
102
RTVSPropertyOp43
 70
     1
102
RTVSPropertyOp44
 70
     1
102
RTVSPropertyOp45
 70
     1
102
RTVSPropertyOp46
 70
     1
102
RTVSPropertyOp47
 70
     1
102
RTVSPropertyOp48
 70
     1
102
RTVSPropertyOp49
 70
     1
102
RTVSPropertyOp50
 70
     1
102
RTVSPropertyOp51
 70
     0
102
RTVSPropertyOp52
 70
     0
102
RTVSPropertyOp53
 70
     1
102
RTVSPropertyOp54
 70
     1
102
RTVSPropertyOp55
 70
     1
102
RTVSPropertyOp56
 70
     1
102
RTVSPropertyOp57
 70
     1
102
RTVSPost2010Prop28
280
     0
102
RTVSPost2010PropOp28
 70
     1
102
RTVSPost2010Prop29
280
     1
102
RTVSPost2010PropOp29
 70
     1
102
RTVSPost2010Prop30
280
     1
102
RTVSPost2010PropOp30
 70
     1
102
RTVSPost2010Prop31
280
     0
102
RTVSPost2010PropOp31
 70
     1
102
RTVSPost2010Prop32
280
     0
102
RTVSPost2010PropOp32
 70
     1
102
RTVSPost2010Prop33
280
     0
102
RTVSPost2010PropOp33
 70
     1
102
RTVSPost2010Prop34
280
     0
102
RTVSPost2010PropOp34
 70
     1
102
RTVSPost2010Prop35
280
     0
102
RTVSPost2010PropOp35
 70
     1
102
RTVSPost2010Prop36
280
     0
102
RTVSPost2010PropOp36
 70
     1
102
RTVSPost2010Prop37
 90
       50
102
RTVSPost2010PropOp37
 70
     1
102
RTVSPost2010Prop38
140
0.0
102
RTVSPost2010PropOp38
 70
     1
102
RTVSPost2010Prop39
140
1.0
102
RTVSPost2010PropOp39
 70
     1
102
RTVSPost2010Prop40
 90
        0
102
RTVSPost2010PropOp40
 70
     1
102
RTVSPost2010Prop41ColorIndex
 90
       18
102
RTVSPost2010Prop41ColorRGB
 90
        0
102
RTVSPost2010PropOp41
 70
     1
102
RTVSPost2010Prop42
 90
       50
102
RTVSPost2010PropOp42
 70
     1
102
RTVSPost2010Prop43
 90
        3
102
RTVSPost2010PropOp43
 70
     1
102
RTVSPost2010Prop44ColorIndex
 90
        5
102
RTVSPost2010Prop44ColorRGB
 90
      255
102
RTVSPost2010PropOp44
 70
     1
102
RTVSPost2010Prop45
280
     0
102
RTVSPost2010PropOp45
 70
     1
102
RTVSPost2010Prop46
 90
       50
102
RTVSPost2010PropOp46
 70
     1
102
RTVSPost2010Prop47
 90
       50
102
RTVSPost2010PropOp47
 70
     1
102
RTVSPost2010Prop48
 90
       50
102
RTVSPost2010PropOp48
 70
     1
102
RTVSPost2010Prop49
280
     0
102
RTVSPost2010PropOp49
 70
     1
102
RTVSPost2010Prop50
 90
       50
102
RTVSPost2010PropOp50
 70
     1
102
RTVSPost2010Prop51ColorIndex
 90
      256
102
RTVSPost2010Prop51ColorRGB
 90
-16777216
102
RTVSPost2010PropOp51
 70
     0
102
RTVSPost2010Prop52
140
1.0
102
RTVSPost2010PropOp52
 70
     0
102
RTVSPost2010Prop53
 90
        2
102
RTVSPost2010PropOp53
 70
     1
102
RTVSPost2010Prop54
  1
strokes_ogs.tif
102
RTVSPost2010PropOp54
 70
     1
102
RTVSPost2010Prop55
280
     0
102
RTVSPost2010PropOp55
 70
     1
102
RTVSPost2010Prop56
140
1.0
102
RTVSPost2010PropOp56
 70
     1
102
RTVSPost2010Prop57
140
1.0
102
RTVSPost2010PropOp57
 70
     1
  0
XRECORD
  5
4D8
102
{ACAD_REACTORS
330
4D7
102
}
330
4D7
100
AcDbXrecord
280
     1
102
RTVSPropertyOp0
 70
     0
102
RTVSPropertyOp1
 70
     0
102
RTVSPropertyOp2
 70
     0
102
RTVSPropertyOp3
 70
     0
102
RTVSPropertyOp4
 70
     0
102
RTVSPropertyOp5
 70
     0
102
RTVSPropertyOp6
 70
     0
102
RTVSPropertyOp7
 70
     0
102
RTVSPropertyOp8
 70
     0
102
RTVSPropertyOp9
 70
     0
102
RTVSPropertyOp10
 70
     0
102
RTVSPropertyOp11
 70
     0
102
RTVSPropertyOp12
 70
     0
102
RTVSPropertyOp13
 70
     0
102
RTVSPropertyOp14
 70
     0
102
RTVSPropertyOp15
 70
     0
102
RTVSPropertyOp16
 70
     0
102
RTVSPropertyOp17
 70
     0
102
RTVSPropertyOp18
 70
     0
102
RTVSPropertyOp19
 70
     0
102
RTVSPropertyOp20
 70
     0
102
RTVSPropertyOp21
 70
     0
102
RTVSPropertyOp22
 70
     0
102
RTVSPropertyOp23
 70
     0
102
RTVSPropertyOp24
 70
     0
102
RTVSPropertyOp25
 70
     0
102
RTVSPropertyOp26
 70
     0
102
RTVSPropertyOp27
 70
     0
102
RTVSPropertyOp28
 70
     1
102
RTVSPropertyOp29
 70
     1
102
RTVSPropertyOp30
 70
     1
102
RTVSPropertyOp31
 70
     1
102
RTVSPropertyOp32
 70
     1
102
RTVSPropertyOp33
 70
     1
102
RTVSPropertyOp34
 70
     1
102
RTVSPropertyOp35
 70
     1
102
RTVSPropertyOp36
 70
     1
102
RTVSPropertyOp37
 70
     1
102
RTVSPropertyOp38
 70
     1
102
RTVSPropertyOp39
 70
     1
102
RTVSPropertyOp40
 70
     1
102
RTVSPropertyOp41
 70
     1
102
RTVSPropertyOp42
 70
     1
102
RTVSPropertyOp43
 70
     1
102
RTVSPropertyOp44
 70
     1
102
RTVSPropertyOp45
 70
     1
102
RTVSPropertyOp46
 70
     1
102
RTVSPropertyOp47
 70
     1
102
RTVSPropertyOp48
 70
     1
102
RTVSPropertyOp49
 70
     1
102
RTVSPropertyOp50
 70
     1
102
RTVSPropertyOp51
 70
     0
102
RTVSPropertyOp52
 70
     0
102
RTVSPropertyOp53
 70
     1
102
RTVSPropertyOp54
 70
     1
102
RTVSPropertyOp55
 70
     1
102
RTVSPropertyOp56
 70
     1
102
RTVSPropertyOp57
 70
     1
102
RTVSPost2010Prop28
280
     0
102
RTVSPost2010PropOp28
 70
     1
102
RTVSPost2010Prop29
280
     1
102
RTVSPost2010PropOp29
 70
     1
102
RTVSPost2010Prop30
280
     1
102
RTVSPost2010PropOp30
 70
     1
102
RTVSPost2010Prop31
280
     0
102
RTVSPost2010PropOp31
 70
     1
102
RTVSPost2010Prop32
280
     0
102
RTVSPost2010PropOp32
 70
     1
102
RTVSPost2010Prop33
280
     0
102
RTVSPost2010PropOp33
 70
     1
102
RTVSPost2010Prop34
280
     0
102
RTVSPost2010PropOp34
 70
     1
102
RTVSPost2010Prop35
280
     0
102
RTVSPost2010PropOp35
 70
     1
102
RTVSPost2010Prop36
280
     0
102
RTVSPost2010PropOp36
 70
     1
102
RTVSPost2010Prop37
 90
       50
102
RTVSPost2010PropOp37
 70
     1
102
RTVSPost2010Prop38
140
0.0
102
RTVSPost2010PropOp38
 70
     1
102
RTVSPost2010Prop39
140
1.0
102
RTVSPost2010PropOp39
 70
     1
102
RTVSPost2010Prop40
 90
        0
102
RTVSPost2010PropOp40
 70
     1
102
RTVSPost2010Prop41ColorIndex
 90
       18
102
RTVSPost2010Prop41ColorRGB
 90
        0
102
RTVSPost2010PropOp41
 70
     1
102
RTVSPost2010Prop42
 90
       50
102
RTVSPost2010PropOp42
 70
     1
102
RTVSPost2010Prop43
 90
        3
102
RTVSPost2010PropOp43
 70
     1
102
RTVSPost2010Prop44ColorIndex
 90
        5
102
RTVSPost2010Prop44ColorRGB
 90
      255
102
RTVSPost2010PropOp44
 70
     1
102
RTVSPost2010Prop45
280
     0
102
RTVSPost2010PropOp45
 70
     1
102
RTVSPost2010Prop46
 90
       50
102
RTVSPost2010PropOp46
 70
     1
102
RTVSPost2010Prop47
 90
       50
102
RTVSPost2010PropOp47
 70
     1
102
RTVSPost2010Prop48
 90
       50
102
RTVSPost2010PropOp48
 70
     1
102
RTVSPost2010Prop49
280
     0
102
RTVSPost2010PropOp49
 70
     1
102
RTVSPost2010Prop50
 90
       50
102
RTVSPost2010PropOp50
 70
     1
102
RTVSPost2010Prop51ColorIndex
 90
      256
102
RTVSPost2010Prop51ColorRGB
 90
-16777216
102
RTVSPost2010PropOp51
 70
     0
102
RTVSPost2010Prop52
140
1.0
102
RTVSPost2010PropOp52
 70
     0
102
RTVSPost2010Prop53
 90
        2
102
RTVSPost2010PropOp53
 70
     1
102
RTVSPost2010Prop54
  1
strokes_ogs.tif
102
RTVSPost2010PropOp54
 70
     1
102
RTVSPost2010Prop55
280
     0
102
RTVSPost2010PropOp55
 70
     1
102
RTVSPost2010Prop56
140
1.0
102
RTVSPost2010PropOp56
 70
     1
102
RTVSPost2010Prop57
140
1.0
102
RTVSPost2010PropOp57
 70
     1
  0
XRECORD
  5
4C6
102
{ACAD_REACTORS
330
4C5
102
}
330
4C5
100
AcDbXrecord
280
     1
102
RTVSPropertyOp0
 70
     1
102
RTVSPropertyOp1
 70
     1
102
RTVSPropertyOp2
 70
     1
102
RTVSPropertyOp3
 70
     1
102
RTVSPropertyOp4
 70
     1
102
RTVSPropertyOp5
 70
     1
102
RTVSPropertyOp6
 70
     1
102
RTVSPropertyOp7
 70
     1
102
RTVSPropertyOp8
 70
     1
102
RTVSPropertyOp9
 70
     1
102
RTVSPropertyOp10
 70
     1
102
RTVSPropertyOp11
 70
     1
102
RTVSPropertyOp12
 70
     1
102
RTVSPropertyOp13
 70
     1
102
RTVSPropertyOp14
 70
     1
102
RTVSPropertyOp15
 70
     1
102
RTVSPropertyOp16
 70
     1
102
RTVSPropertyOp17
 70
     1
102
RTVSPropertyOp18
 70
     1
102
RTVSPropertyOp19
 70
     1
102
RTVSPropertyOp20
 70
     1
102
RTVSPropertyOp21
 70
     1
102
RTVSPropertyOp22
 70
     1
102
RTVSPropertyOp23
 70
     1
102
RTVSPropertyOp24
 70
     1
102
RTVSPropertyOp25
 70
     1
102
RTVSPropertyOp26
 70
     1
102
RTVSPropertyOp27
 70
     1
102
RTVSPropertyOp28
 70
     1
102
RTVSPropertyOp29
 70
     1
102
RTVSPropertyOp30
 70
     1
102
RTVSPropertyOp31
 70
     1
102
RTVSPropertyOp32
 70
     1
102
RTVSPropertyOp33
 70
     1
102
RTVSPropertyOp34
 70
     1
102
RTVSPropertyOp35
 70
     1
102
RTVSPropertyOp36
 70
     1
102
RTVSPropertyOp37
 70
     1
102
RTVSPropertyOp38
 70
     1
102
RTVSPropertyOp39
 70
     1
102
RTVSPropertyOp40
 70
     1
102
RTVSPropertyOp41
 70
     1
102
RTVSPropertyOp42
 70
     1
102
RTVSPropertyOp43
 70
     1
102
RTVSPropertyOp44
 70
     1
102
RTVSPropertyOp45
 70
     1
102
RTVSPropertyOp46
 70
     1
102
RTVSPropertyOp47
 70
     1
102
RTVSPropertyOp48
 70
     1
102
RTVSPropertyOp49
 70
     1
102
RTVSPropertyOp50
 70
     1
102
RTVSPropertyOp51
 70
     0
102
RTVSPropertyOp52
 70
     0
102
RTVSPropertyOp53
 70
     1
102
RTVSPropertyOp54
 70
     1
102
RTVSPropertyOp55
 70
     1
102
RTVSPropertyOp56
 70
     1
102
RTVSPropertyOp57
 70
     1
102
RTVSPost2010Prop28
280
     0
102
RTVSPost2010PropOp28
 70
     1
102
RTVSPost2010Prop29
280
     1
102
RTVSPost2010PropOp29
 70
     1
102
RTVSPost2010Prop30
280
     1
102
RTVSPost2010PropOp30
 70
     1
102
RTVSPost2010Prop31
280
     0
102
RTVSPost2010PropOp31
 70
     1
102
RTVSPost2010Prop32
280
     0
102
RTVSPost2010PropOp32
 70
     1
102
RTVSPost2010Prop33
280
     0
102
RTVSPost2010PropOp33
 70
     1
102
RTVSPost2010Prop34
280
     0
102
RTVSPost2010PropOp34
 70
     1
102
RTVSPost2010Prop35
280
     0
102
RTVSPost2010PropOp35
 70
     1
102
RTVSPost2010Prop36
280
     0
102
RTVSPost2010PropOp36
 70
     1
102
RTVSPost2010Prop37
 90
       50
102
RTVSPost2010PropOp37
 70
     1
102
RTVSPost2010Prop38
140
0.0
102
RTVSPost2010PropOp38
 70
     1
102
RTVSPost2010Prop39
140
1.0
102
RTVSPost2010PropOp39
 70
     1
102
RTVSPost2010Prop40
 90
        0
102
RTVSPost2010PropOp40
 70
     1
102
RTVSPost2010Prop41ColorIndex
 90
       18
102
RTVSPost2010Prop41ColorRGB
 90
        0
102
RTVSPost2010PropOp41
 70
     1
102
RTVSPost2010Prop42
 90
       50
102
RTVSPost2010PropOp42
 70
     1
102
RTVSPost2010Prop43
 90
        3
102
RTVSPost2010PropOp43
 70
     1
102
RTVSPost2010Prop44ColorIndex
 90
        5
102
RTVSPost2010Prop44ColorRGB
 90
      255
102
RTVSPost2010PropOp44
 70
     1
102
RTVSPost2010Prop45
280
     0
102
RTVSPost2010PropOp45
 70
     1
102
RTVSPost2010Prop46
 90
       50
102
RTVSPost2010PropOp46
 70
     1
102
RTVSPost2010Prop47
 90
       50
102
RTVSPost2010PropOp47
 70
     1
102
RTVSPost2010Prop48
 90
       50
102
RTVSPost2010PropOp48
 70
     1
102
RTVSPost2010Prop49
280
     0
102
RTVSPost2010PropOp49
 70
     1
102
RTVSPost2010Prop50
 90
       50
102
RTVSPost2010PropOp50
 70
     1
102
RTVSPost2010Prop51ColorIndex
 90
      256
102
RTVSPost2010Prop51ColorRGB
 90
-16777216
102
RTVSPost2010PropOp51
 70
     0
102
RTVSPost2010Prop52
140
1.0
102
RTVSPost2010PropOp52
 70
     0
102
RTVSPost2010Prop53
 90
        2
102
RTVSPost2010PropOp53
 70
     1
102
RTVSPost2010Prop54
  1
strokes_ogs.tif
102
RTVSPost2010PropOp54
 70
     1
102
RTVSPost2010Prop55
280
     0
102
RTVSPost2010PropOp55
 70
     1
102
RTVSPost2010Prop56
140
1.0
102
RTVSPost2010PropOp56
 70
     1
102
RTVSPost2010Prop57
140
1.0
102
RTVSPost2010PropOp57
 70
     1
  0
XRECORD
  5
4E4
102
{ACAD_REACTORS
330
4E3
102
}
330
4E3
100
AcDbXrecord
280
     1
102
RTVSPropertyOp0
 70
     1
102
RTVSPropertyOp1
 70
     1
102
RTVSPropertyOp2
 70
     1
102
RTVSPropertyOp3
 70
     1
102
RTVSPropertyOp4
 70
     1
102
RTVSPropertyOp5
 70
     1
102
RTVSPropertyOp6
 70
     1
102
RTVSPropertyOp7
 70
     1
102
RTVSPropertyOp8
 70
     1
102
RTVSPropertyOp9
 70
     1
102
RTVSPropertyOp10
 70
     1
102
RTVSPropertyOp11
 70
     1
102
RTVSPropertyOp12
 70
     1
102
RTVSPropertyOp13
 70
     1
102
RTVSPropertyOp14
 70
     1
102
RTVSPropertyOp15
 70
     1
102
RTVSPropertyOp16
 70
     1
102
RTVSPropertyOp17
 70
     1
102
RTVSPropertyOp18
 70
     1
102
RTVSPropertyOp19
 70
     1
102
RTVSPropertyOp20
 70
     1
102
RTVSPropertyOp21
 70
     1
102
RTVSPropertyOp22
 70
     1
102
RTVSPropertyOp23
 70
     1
102
RTVSPropertyOp24
 70
     1
102
RTVSPropertyOp25
 70
     1
102
RTVSPropertyOp26
 70
     1
102
RTVSPropertyOp27
 70
     1
102
RTVSPropertyOp28
 70
     1
102
RTVSPropertyOp29
 70
     1
102
RTVSPropertyOp30
 70
     1
102
RTVSPropertyOp31
 70
     1
102
RTVSPropertyOp32
 70
     1
102
RTVSPropertyOp33
 70
     1
102
RTVSPropertyOp34
 70
     1
102
RTVSPropertyOp35
 70
     1
102
RTVSPropertyOp36
 70
     1
102
RTVSPropertyOp37
 70
     1
102
RTVSPropertyOp38
 70
     1
102
RTVSPropertyOp39
 70
     1
102
RTVSPropertyOp40
 70
     1
102
RTVSPropertyOp41
 70
     1
102
RTVSPropertyOp42
 70
     1
102
RTVSPropertyOp43
 70
     1
102
RTVSPropertyOp44
 70
     1
102
RTVSPropertyOp45
 70
     1
102
RTVSPropertyOp46
 70
     1
102
RTVSPropertyOp47
 70
     1
102
RTVSPropertyOp48
 70
     1
102
RTVSPropertyOp49
 70
     1
102
RTVSPropertyOp50
 70
     1
102
RTVSPropertyOp51
 70
     0
102
RTVSPropertyOp52
 70
     0
102
RTVSPropertyOp53
 70
     1
102
RTVSPropertyOp54
 70
     1
102
RTVSPropertyOp55
 70
     1
102
RTVSPropertyOp56
 70
     1
102
RTVSPropertyOp57
 70
     1
102
RTVSPost2010Prop28
280
     0
102
RTVSPost2010PropOp28
 70
     1
102
RTVSPost2010Prop29
280
     1
102
RTVSPost2010PropOp29
 70
     1
102
RTVSPost2010Prop30
280
     1
102
RTVSPost2010PropOp30
 70
     1
102
RTVSPost2010Prop31
280
     0
102
RTVSPost2010PropOp31
 70
     1
102
RTVSPost2010Prop32
280
     0
102
RTVSPost2010PropOp32
 70
     1
102
RTVSPost2010Prop33
280
     0
102
RTVSPost2010PropOp33
 70
     1
102
RTVSPost2010Prop34
280
     0
102
RTVSPost2010PropOp34
 70
     1
102
RTVSPost2010Prop35
280
     0
102
RTVSPost2010PropOp35
 70
     1
102
RTVSPost2010Prop36
280
     0
102
RTVSPost2010PropOp36
 70
     1
102
RTVSPost2010Prop37
 90
       50
102
RTVSPost2010PropOp37
 70
     1
102
RTVSPost2010Prop38
140
0.0
102
RTVSPost2010PropOp38
 70
     1
102
RTVSPost2010Prop39
140
1.0
102
RTVSPost2010PropOp39
 70
     1
102
RTVSPost2010Prop40
 90
        0
102
RTVSPost2010PropOp40
 70
     1
102
RTVSPost2010Prop41ColorIndex
 90
       18
102
RTVSPost2010Prop41ColorRGB
 90
        0
102
RTVSPost2010PropOp41
 70
     1
102
RTVSPost2010Prop42
 90
       50
102
RTVSPost2010PropOp42
 70
     1
102
RTVSPost2010Prop43
 90
        3
102
RTVSPost2010PropOp43
 70
     1
102
RTVSPost2010Prop44ColorIndex
 90
        5
102
RTVSPost2010Prop44ColorRGB
 90
      255
102
RTVSPost2010PropOp44
 70
     1
102
RTVSPost2010Prop45
280
     0
102
RTVSPost2010PropOp45
 70
     1
102
RTVSPost2010Prop46
 90
       50
102
RTVSPost2010PropOp46
 70
     1
102
RTVSPost2010Prop47
 90
       50
102
RTVSPost2010PropOp47
 70
     1
102
RTVSPost2010Prop48
 90
       50
102
RTVSPost2010PropOp48
 70
     1
102
RTVSPost2010Prop49
280
     0
102
RTVSPost2010PropOp49
 70
     1
102
RTVSPost2010Prop50
 90
       50
102
RTVSPost2010PropOp50
 70
     1
102
RTVSPost2010Prop51ColorIndex
 90
      256
102
RTVSPost2010Prop51ColorRGB
 90
-16777216
102
RTVSPost2010PropOp51
 70
     0
102
RTVSPost2010Prop52
140
1.0
102
RTVSPost2010PropOp52
 70
     0
102
RTVSPost2010Prop53
 90
        2
102
RTVSPost2010PropOp53
 70
     1
102
RTVSPost2010Prop54
  1
strokes_ogs.tif
102
RTVSPost2010PropOp54
 70
     1
102
RTVSPost2010Prop55
280
     0
102
RTVSPost2010PropOp55
 70
     1
102
RTVSPost2010Prop56
140
1.0
102
RTVSPost2010PropOp56
 70
     1
102
RTVSPost2010Prop57
140
1.0
102
RTVSPost2010PropOp57
 70
     1
  0
XRECORD
  5
4E2
102
{ACAD_REACTORS
330
4E1
102
}
330
4E1
100
AcDbXrecord
280
     1
102
RTVSPropertyOp0
 70
     1
102
RTVSPropertyOp1
 70
     1
102
RTVSPropertyOp2
 70
     1
102
RTVSPropertyOp3
 70
     1
102
RTVSPropertyOp4
 70
     1
102
RTVSPropertyOp5
 70
     1
102
RTVSPropertyOp6
 70
     1
102
RTVSPropertyOp7
 70
     1
102
RTVSPropertyOp8
 70
     1
102
RTVSPropertyOp9
 70
     1
102
RTVSPropertyOp10
 70
     1
102
RTVSPropertyOp11
 70
     1
102
RTVSPropertyOp12
 70
     1
102
RTVSPropertyOp13
 70
     1
102
RTVSPropertyOp14
 70
     1
102
RTVSPropertyOp15
 70
     1
102
RTVSPropertyOp16
 70
     1
102
RTVSPropertyOp17
 70
     1
102
RTVSPropertyOp18
 70
     1
102
RTVSPropertyOp19
 70
     1
102
RTVSPropertyOp20
 70
     1
102
RTVSPropertyOp21
 70
     1
102
RTVSPropertyOp22
 70
     1
102
RTVSPropertyOp23
 70
     1
102
RTVSPropertyOp24
 70
     1
102
RTVSPropertyOp25
 70
     1
102
RTVSPropertyOp26
 70
     1
102
RTVSPropertyOp27
 70
     1
102
RTVSPropertyOp28
 70
     1
102
RTVSPropertyOp29
 70
     1
102
RTVSPropertyOp30
 70
     1
102
RTVSPropertyOp31
 70
     1
102
RTVSPropertyOp32
 70
     1
102
RTVSPropertyOp33
 70
     1
102
RTVSPropertyOp34
 70
     1
102
RTVSPropertyOp35
 70
     1
102
RTVSPropertyOp36
 70
     1
102
RTVSPropertyOp37
 70
     1
102
RTVSPropertyOp38
 70
     1
102
RTVSPropertyOp39
 70
     1
102
RTVSPropertyOp40
 70
     1
102
RTVSPropertyOp41
 70
     1
102
RTVSPropertyOp42
 70
     1
102
RTVSPropertyOp43
 70
     1
102
RTVSPropertyOp44
 70
     1
102
RTVSPropertyOp45
 70
     1
102
RTVSPropertyOp46
 70
     1
102
RTVSPropertyOp47
 70
     1
102
RTVSPropertyOp48
 70
     1
102
RTVSPropertyOp49
 70
     1
102
RTVSPropertyOp50
 70
     1
102
RTVSPropertyOp51
 70
     0
102
RTVSPropertyOp52
 70
     0
102
RTVSPropertyOp53
 70
     1
102
RTVSPropertyOp54
 70
     1
102
RTVSPropertyOp55
 70
     1
102
RTVSPropertyOp56
 70
     1
102
RTVSPropertyOp57
 70
     1
102
RTVSPost2010Prop28
280
     0
102
RTVSPost2010PropOp28
 70
     1
102
RTVSPost2010Prop29
280
     1
102
RTVSPost2010PropOp29
 70
     1
102
RTVSPost2010Prop30
280
     1
102
RTVSPost2010PropOp30
 70
     1
102
RTVSPost2010Prop31
280
     0
102
RTVSPost2010PropOp31
 70
     1
102
RTVSPost2010Prop32
280
     0
102
RTVSPost2010PropOp32
 70
     1
102
RTVSPost2010Prop33
280
     0
102
RTVSPost2010PropOp33
 70
     1
102
RTVSPost2010Prop34
280
     0
102
RTVSPost2010PropOp34
 70
     1
102
RTVSPost2010Prop35
280
     0
102
RTVSPost2010PropOp35
 70
     1
102
RTVSPost2010Prop36
280
     0
102
RTVSPost2010PropOp36
 70
     1
102
RTVSPost2010Prop37
 90
       50
102
RTVSPost2010PropOp37
 70
     1
102
RTVSPost2010Prop38
140
0.0
102
RTVSPost2010PropOp38
 70
     1
102
RTVSPost2010Prop39
140
1.0
102
RTVSPost2010PropOp39
 70
     1
102
RTVSPost2010Prop40
 90
        0
102
RTVSPost2010PropOp40
 70
     1
102
RTVSPost2010Prop41ColorIndex
 90
       18
102
RTVSPost2010Prop41ColorRGB
 90
        0
102
RTVSPost2010PropOp41
 70
     1
102
RTVSPost2010Prop42
 90
       50
102
RTVSPost2010PropOp42
 70
     1
102
RTVSPost2010Prop43
 90
        3
102
RTVSPost2010PropOp43
 70
     1
102
RTVSPost2010Prop44ColorIndex
 90
        5
102
RTVSPost2010Prop44ColorRGB
 90
      255
102
RTVSPost2010PropOp44
 70
     1
102
RTVSPost2010Prop45
280
     0
102
RTVSPost2010PropOp45
 70
     1
102
RTVSPost2010Prop46
 90
       50
102
RTVSPost2010PropOp46
 70
     1
102
RTVSPost2010Prop47
 90
       50
102
RTVSPost2010PropOp47
 70
     1
102
RTVSPost2010Prop48
 90
       50
102
RTVSPost2010PropOp48
 70
     1
102
RTVSPost2010Prop49
280
     0
102
RTVSPost2010PropOp49
 70
     1
102
RTVSPost2010Prop50
 90
       50
102
RTVSPost2010PropOp50
 70
     1
102
RTVSPost2010Prop51ColorIndex
 90
      256
102
RTVSPost2010Prop51ColorRGB
 90
-16777216
102
RTVSPost2010PropOp51
 70
     0
102
RTVSPost2010Prop52
140
1.0
102
RTVSPost2010PropOp52
 70
     0
102
RTVSPost2010Prop53
 90
        2
102
RTVSPost2010PropOp53
 70
     1
102
RTVSPost2010Prop54
  1
strokes_ogs.tif
102
RTVSPost2010PropOp54
 70
     1
102
RTVSPost2010Prop55
280
     0
102
RTVSPost2010PropOp55
 70
     1
102
RTVSPost2010Prop56
140
1.0
102
RTVSPost2010PropOp56
 70
     1
102
RTVSPost2010Prop57
140
1.0
102
RTVSPost2010PropOp57
 70
     1
  0
XRECORD
  5
4DC
102
{ACAD_REACTORS
330
4DB
102
}
330
4DB
100
AcDbXrecord
280
     1
102
RTVSPropertyOp0
 70
     1
102
RTVSPropertyOp1
 70
     1
102
RTVSPropertyOp2
 70
     1
102
RTVSPropertyOp3
 70
     1
102
RTVSPropertyOp4
 70
     1
102
RTVSPropertyOp5
 70
     1
102
RTVSPropertyOp6
 70
     1
102
RTVSPropertyOp7
 70
     1
102
RTVSPropertyOp8
 70
     1
102
RTVSPropertyOp9
 70
     1
102
RTVSPropertyOp10
 70
     1
102
RTVSPropertyOp11
 70
     1
102
RTVSPropertyOp12
 70
     1
102
RTVSPropertyOp13
 70
     1
102
RTVSPropertyOp14
 70
     1
102
RTVSPropertyOp15
 70
     1
102
RTVSPropertyOp16
 70
     1
102
RTVSPropertyOp17
 70
     1
102
RTVSPropertyOp18
 70
     1
102
RTVSPropertyOp19
 70
     1
102
RTVSPropertyOp20
 70
     1
102
RTVSPropertyOp21
 70
     1
102
RTVSPropertyOp22
 70
     1
102
RTVSPropertyOp23
 70
     1
102
RTVSPropertyOp24
 70
     1
102
RTVSPropertyOp25
 70
     1
102
RTVSPropertyOp26
 70
     1
102
RTVSPropertyOp27
 70
     1
102
RTVSPropertyOp28
 70
     1
102
RTVSPropertyOp29
 70
     1
102
RTVSPropertyOp30
 70
     1
102
RTVSPropertyOp31
 70
     1
102
RTVSPropertyOp32
 70
     1
102
RTVSPropertyOp33
 70
     1
102
RTVSPropertyOp34
 70
     1
102
RTVSPropertyOp35
 70
     1
102
RTVSPropertyOp36
 70
     1
102
RTVSPropertyOp37
 70
     1
102
RTVSPropertyOp38
 70
     1
102
RTVSPropertyOp39
 70
     1
102
RTVSPropertyOp40
 70
     1
102
RTVSPropertyOp41
 70
     1
102
RTVSPropertyOp42
 70
     1
102
RTVSPropertyOp43
 70
     1
102
RTVSPropertyOp44
 70
     1
102
RTVSPropertyOp45
 70
     1
102
RTVSPropertyOp46
 70
     1
102
RTVSPropertyOp47
 70
     1
102
RTVSPropertyOp48
 70
     1
102
RTVSPropertyOp49
 70
     1
102
RTVSPropertyOp50
 70
     1
102
RTVSPropertyOp51
 70
     0
102
RTVSPropertyOp52
 70
     0
102
RTVSPropertyOp53
 70
     1
102
RTVSPropertyOp54
 70
     1
102
RTVSPropertyOp55
 70
     1
102
RTVSPropertyOp56
 70
     1
102
RTVSPropertyOp57
 70
     1
102
RTVSPost2010Prop28
280
     0
102
RTVSPost2010PropOp28
 70
     1
102
RTVSPost2010Prop29
280
     1
102
RTVSPost2010PropOp29
 70
     1
102
RTVSPost2010Prop30
280
     1
102
RTVSPost2010PropOp30
 70
     1
102
RTVSPost2010Prop31
280
     0
102
RTVSPost2010PropOp31
 70
     1
102
RTVSPost2010Prop32
280
     0
102
RTVSPost2010PropOp32
 70
     1
102
RTVSPost2010Prop33
280
     0
102
RTVSPost2010PropOp33
 70
     1
102
RTVSPost2010Prop34
280
     0
102
RTVSPost2010PropOp34
 70
     1
102
RTVSPost2010Prop35
280
     0
102
RTVSPost2010PropOp35
 70
     1
102
RTVSPost2010Prop36
280
     0
102
RTVSPost2010PropOp36
 70
     1
102
RTVSPost2010Prop37
 90
       50
102
RTVSPost2010PropOp37
 70
     1
102
RTVSPost2010Prop38
140
0.0
102
RTVSPost2010PropOp38
 70
     1
102
RTVSPost2010Prop39
140
1.0
102
RTVSPost2010PropOp39
 70
     1
102
RTVSPost2010Prop40
 90
        0
102
RTVSPost2010PropOp40
 70
     1
102
RTVSPost2010Prop41ColorIndex
 90
       18
102
RTVSPost2010Prop41ColorRGB
 90
        0
102
RTVSPost2010PropOp41
 70
     1
102
RTVSPost2010Prop42
 90
       50
102
RTVSPost2010PropOp42
 70
     1
102
RTVSPost2010Prop43
 90
        3
102
RTVSPost2010PropOp43
 70
     1
102
RTVSPost2010Prop44ColorIndex
 90
        5
102
RTVSPost2010Prop44ColorRGB
 90
      255
102
RTVSPost2010PropOp44
 70
     1
102
RTVSPost2010Prop45
280
     0
102
RTVSPost2010PropOp45
 70
     1
102
RTVSPost2010Prop46
 90
       50
102
RTVSPost2010PropOp46
 70
     1
102
RTVSPost2010Prop47
 90
       50
102
RTVSPost2010PropOp47
 70
     1
102
RTVSPost2010Prop48
 90
       50
102
RTVSPost2010PropOp48
 70
     1
102
RTVSPost2010Prop49
280
     0
102
RTVSPost2010PropOp49
 70
     1
102
RTVSPost2010Prop50
 90
       50
102
RTVSPost2010PropOp50
 70
     1
102
RTVSPost2010Prop51ColorIndex
 90
      256
102
RTVSPost2010Prop51ColorRGB
 90
-16777216
102
RTVSPost2010PropOp51
 70
     0
102
RTVSPost2010Prop52
140
1.0
102
RTVSPost2010PropOp52
 70
     0
102
RTVSPost2010Prop53
 90
        2
102
RTVSPost2010PropOp53
 70
     1
102
RTVSPost2010Prop54
  1
strokes_ogs.tif
102
RTVSPost2010PropOp54
 70
     1
102
RTVSPost2010Prop55
280
     0
102
RTVSPost2010PropOp55
 70
     1
102
RTVSPost2010Prop56
140
1.0
102
RTVSPost2010PropOp56
 70
     1
102
RTVSPost2010Prop57
140
1.0
102
RTVSPost2010PropOp57
 70
     1
  0
XRECORD
  5
4DE
102
{ACAD_REACTORS
330
4DD
102
}
330
4DD
100
AcDbXrecord
280
     1
102
RTVSPropertyOp0
 70
     1
102
RTVSPropertyOp1
 70
     1
102
RTVSPropertyOp2
 70
     1
102
RTVSPropertyOp3
 70
     1
102
RTVSPropertyOp4
 70
     1
102
RTVSPropertyOp5
 70
     1
102
RTVSPropertyOp6
 70
     1
102
RTVSPropertyOp7
 70
     1
102
RTVSPropertyOp8
 70
     1
102
RTVSPropertyOp9
 70
     1
102
RTVSPropertyOp10
 70
     1
102
RTVSPropertyOp11
 70
     1
102
RTVSPropertyOp12
 70
     1
102
RTVSPropertyOp13
 70
     1
102
RTVSPropertyOp14
 70
     1
102
RTVSPropertyOp15
 70
     1
102
RTVSPropertyOp16
 70
     1
102
RTVSPropertyOp17
 70
     1
102
RTVSPropertyOp18
 70
     1
102
RTVSPropertyOp19
 70
     1
102
RTVSPropertyOp20
 70
     1
102
RTVSPropertyOp21
 70
     1
102
RTVSPropertyOp22
 70
     1
102
RTVSPropertyOp23
 70
     1
102
RTVSPropertyOp24
 70
     1
102
RTVSPropertyOp25
 70
     1
102
RTVSPropertyOp26
 70
     1
102
RTVSPropertyOp27
 70
     1
102
RTVSPropertyOp28
 70
     1
102
RTVSPropertyOp29
 70
     1
102
RTVSPropertyOp30
 70
     1
102
RTVSPropertyOp31
 70
     1
102
RTVSPropertyOp32
 70
     1
102
RTVSPropertyOp33
 70
     1
102
RTVSPropertyOp34
 70
     1
102
RTVSPropertyOp35
 70
     1
102
RTVSPropertyOp36
 70
     1
102
RTVSPropertyOp37
 70
     1
102
RTVSPropertyOp38
 70
     1
102
RTVSPropertyOp39
 70
     1
102
RTVSPropertyOp40
 70
     1
102
RTVSPropertyOp41
 70
     1
102
RTVSPropertyOp42
 70
     1
102
RTVSPropertyOp43
 70
     1
102
RTVSPropertyOp44
 70
     1
102
RTVSPropertyOp45
 70
     1
102
RTVSPropertyOp46
 70
     1
102
RTVSPropertyOp47
 70
     1
102
RTVSPropertyOp48
 70
     1
102
RTVSPropertyOp49
 70
     1
102
RTVSPropertyOp50
 70
     1
102
RTVSPropertyOp51
 70
     0
102
RTVSPropertyOp52
 70
     0
102
RTVSPropertyOp53
 70
     1
102
RTVSPropertyOp54
 70
     1
102
RTVSPropertyOp55
 70
     1
102
RTVSPropertyOp56
 70
     1
102
RTVSPropertyOp57
 70
     1
102
RTVSPost2010Prop28
280
     0
102
RTVSPost2010PropOp28
 70
     1
102
RTVSPost2010Prop29
280
     1
102
RTVSPost2010PropOp29
 70
     1
102
RTVSPost2010Prop30
280
     1
102
RTVSPost2010PropOp30
 70
     1
102
RTVSPost2010Prop31
280
     0
102
RTVSPost2010PropOp31
 70
     1
102
RTVSPost2010Prop32
280
     0
102
RTVSPost2010PropOp32
 70
     1
102
RTVSPost2010Prop33
280
     0
102
RTVSPost2010PropOp33
 70
     1
102
RTVSPost2010Prop34
280
     0
102
RTVSPost2010PropOp34
 70
     1
102
RTVSPost2010Prop35
280
     0
102
RTVSPost2010PropOp35
 70
     1
102
RTVSPost2010Prop36
280
     0
102
RTVSPost2010PropOp36
 70
     1
102
RTVSPost2010Prop37
 90
       50
102
RTVSPost2010PropOp37
 70
     1
102
RTVSPost2010Prop38
140
0.0
102
RTVSPost2010PropOp38
 70
     1
102
RTVSPost2010Prop39
140
1.0
102
RTVSPost2010PropOp39
 70
     1
102
RTVSPost2010Prop40
 90
        0
102
RTVSPost2010PropOp40
 70
     1
102
RTVSPost2010Prop41ColorIndex
 90
       18
102
RTVSPost2010Prop41ColorRGB
 90
        0
102
RTVSPost2010PropOp41
 70
     1
102
RTVSPost2010Prop42
 90
       50
102
RTVSPost2010PropOp42
 70
     1
102
RTVSPost2010Prop43
 90
        3
102
RTVSPost2010PropOp43
 70
     1
102
RTVSPost2010Prop44ColorIndex
 90
        5
102
RTVSPost2010Prop44ColorRGB
 90
      255
102
RTVSPost2010PropOp44
 70
     1
102
RTVSPost2010Prop45
280
     0
102
RTVSPost2010PropOp45
 70
     1
102
RTVSPost2010Prop46
 90
       50
102
RTVSPost2010PropOp46
 70
     1
102
RTVSPost2010Prop47
 90
       50
102
RTVSPost2010PropOp47
 70
     1
102
RTVSPost2010Prop48
 90
       50
102
RTVSPost2010PropOp48
 70
     1
102
RTVSPost2010Prop49
280
     0
102
RTVSPost2010PropOp49
 70
     1
102
RTVSPost2010Prop50
 90
       50
102
RTVSPost2010PropOp50
 70
     1
102
RTVSPost2010Prop51ColorIndex
 90
      256
102
RTVSPost2010Prop51ColorRGB
 90
-16777216
102
RTVSPost2010PropOp51
 70
     0
102
RTVSPost2010Prop52
140
1.0
102
RTVSPost2010PropOp52
 70
     0
102
RTVSPost2010Prop53
 90
        2
102
RTVSPost2010PropOp53
 70
     1
102
RTVSPost2010Prop54
  1
strokes_ogs.tif
102
RTVSPost2010PropOp54
 70
     1
102
RTVSPost2010Prop55
280
     0
102
RTVSPost2010PropOp55
 70
     1
102
RTVSPost2010Prop56
140
1.0
102
RTVSPost2010PropOp56
 70
     1
102
RTVSPost2010Prop57
140
1.0
102
RTVSPost2010PropOp57
 70
     1
  0
XRECORD
  5
4CE
102
{ACAD_REACTORS
330
4CD
102
}
330
4CD
100
AcDbXrecord
280
     1
102
RTVSPropertyOp0
 70
     1
102
RTVSPropertyOp1
 70
     1
102
RTVSPropertyOp2
 70
     1
102
RTVSPropertyOp3
 70
     1
102
RTVSPropertyOp4
 70
     1
102
RTVSPropertyOp5
 70
     1
102
RTVSPropertyOp6
 70
     1
102
RTVSPropertyOp7
 70
     1
102
RTVSPropertyOp8
 70
     1
102
RTVSPropertyOp9
 70
     1
102
RTVSPropertyOp10
 70
     1
102
RTVSPropertyOp11
 70
     1
102
RTVSPropertyOp12
 70
     1
102
RTVSPropertyOp13
 70
     1
102
RTVSPropertyOp14
 70
     1
102
RTVSPropertyOp15
 70
     1
102
RTVSPropertyOp16
 70
     1
102
RTVSPropertyOp17
 70
     1
102
RTVSPropertyOp18
 70
     1
102
RTVSPropertyOp19
 70
     1
102
RTVSPropertyOp20
 70
     1
102
RTVSPropertyOp21
 70
     1
102
RTVSPropertyOp22
 70
     1
102
RTVSPropertyOp23
 70
     1
102
RTVSPropertyOp24
 70
     1
102
RTVSPropertyOp25
 70
     1
102
RTVSPropertyOp26
 70
     1
102
RTVSPropertyOp27
 70
     1
102
RTVSPropertyOp28
 70
     1
102
RTVSPropertyOp29
 70
     1
102
RTVSPropertyOp30
 70
     1
102
RTVSPropertyOp31
 70
     1
102
RTVSPropertyOp32
 70
     1
102
RTVSPropertyOp33
 70
     1
102
RTVSPropertyOp34
 70
     1
102
RTVSPropertyOp35
 70
     1
102
RTVSPropertyOp36
 70
     1
102
RTVSPropertyOp37
 70
     1
102
RTVSPropertyOp38
 70
     1
102
RTVSPropertyOp39
 70
     1
102
RTVSPropertyOp40
 70
     1
102
RTVSPropertyOp41
 70
     1
102
RTVSPropertyOp42
 70
     1
102
RTVSPropertyOp43
 70
     1
102
RTVSPropertyOp44
 70
     1
102
RTVSPropertyOp45
 70
     1
102
RTVSPropertyOp46
 70
     1
102
RTVSPropertyOp47
 70
     1
102
RTVSPropertyOp48
 70
     1
102
RTVSPropertyOp49
 70
     1
102
RTVSPropertyOp50
 70
     1
102
RTVSPropertyOp51
 70
     0
102
RTVSPropertyOp52
 70
     0
102
RTVSPropertyOp53
 70
     1
102
RTVSPropertyOp54
 70
     1
102
RTVSPropertyOp55
 70
     1
102
RTVSPropertyOp56
 70
     1
102
RTVSPropertyOp57
 70
     1
102
RTVSPost2010Prop28
280
     0
102
RTVSPost2010PropOp28
 70
     1
102
RTVSPost2010Prop29
280
     1
102
RTVSPost2010PropOp29
 70
     1
102
RTVSPost2010Prop30
280
     1
102
RTVSPost2010PropOp30
 70
     1
102
RTVSPost2010Prop31
280
     0
102
RTVSPost2010PropOp31
 70
     1
102
RTVSPost2010Prop32
280
     0
102
RTVSPost2010PropOp32
 70
     1
102
RTVSPost2010Prop33
280
     0
102
RTVSPost2010PropOp33
 70
     1
102
RTVSPost2010Prop34
280
     0
102
RTVSPost2010PropOp34
 70
     1
102
RTVSPost2010Prop35
280
     0
102
RTVSPost2010PropOp35
 70
     1
102
RTVSPost2010Prop36
280
     0
102
RTVSPost2010PropOp36
 70
     1
102
RTVSPost2010Prop37
 90
       50
102
RTVSPost2010PropOp37
 70
     1
102
RTVSPost2010Prop38
140
0.0
102
RTVSPost2010PropOp38
 70
     1
102
RTVSPost2010Prop39
140
1.0
102
RTVSPost2010PropOp39
 70
     1
102
RTVSPost2010Prop40
 90
        0
102
RTVSPost2010PropOp40
 70
     1
102
RTVSPost2010Prop41ColorIndex
 90
       18
102
RTVSPost2010Prop41ColorRGB
 90
        0
102
RTVSPost2010PropOp41
 70
     1
102
RTVSPost2010Prop42
 90
       50
102
RTVSPost2010PropOp42
 70
     1
102
RTVSPost2010Prop43
 90
        3
102
RTVSPost2010PropOp43
 70
     1
102
RTVSPost2010Prop44ColorIndex
 90
        5
102
RTVSPost2010Prop44ColorRGB
 90
      255
102
RTVSPost2010PropOp44
 70
     1
102
RTVSPost2010Prop45
280
     0
102
RTVSPost2010PropOp45
 70
     1
102
RTVSPost2010Prop46
 90
       50
102
RTVSPost2010PropOp46
 70
     1
102
RTVSPost2010Prop47
 90
       50
102
RTVSPost2010PropOp47
 70
     1
102
RTVSPost2010Prop48
 90
       50
102
RTVSPost2010PropOp48
 70
     1
102
RTVSPost2010Prop49
280
     0
102
RTVSPost2010PropOp49
 70
     1
102
RTVSPost2010Prop50
 90
       50
102
RTVSPost2010PropOp50
 70
     1
102
RTVSPost2010Prop51ColorIndex
 90
      256
102
RTVSPost2010Prop51ColorRGB
 90
-16777216
102
RTVSPost2010PropOp51
 70
     0
102
RTVSPost2010Prop52
140
1.0
102
RTVSPost2010PropOp52
 70
     0
102
RTVSPost2010Prop53
 90
        2
102
RTVSPost2010PropOp53
 70
     1
102
RTVSPost2010Prop54
  1
strokes_ogs.tif
102
RTVSPost2010PropOp54
 70
     1
102
RTVSPost2010Prop55
280
     0
102
RTVSPost2010PropOp55
 70
     1
102
RTVSPost2010Prop56
140
1.0
102
RTVSPost2010PropOp56
 70
     1
102
RTVSPost2010Prop57
140
1.0
102
RTVSPost2010PropOp57
 70
     1
  0
XRECORD
  5
4C0
102
{ACAD_REACTORS
330
4BF
102
}
330
4BF
100
AcDbXrecord
280
     1
102
RTVSPropertyOp0
 70
     1
102
RTVSPropertyOp1
 70
     1
102
RTVSPropertyOp2
 70
     1
102
RTVSPropertyOp3
 70
     1
102
RTVSPropertyOp4
 70
     1
102
RTVSPropertyOp5
 70
     1
102
RTVSPropertyOp6
 70
     1
102
RTVSPropertyOp7
 70
     1
102
RTVSPropertyOp8
 70
     1
102
RTVSPropertyOp9
 70
     1
102
RTVSPropertyOp10
 70
     1
102
RTVSPropertyOp11
 70
     1
102
RTVSPropertyOp12
 70
     1
102
RTVSPropertyOp13
 70
     1
102
RTVSPropertyOp14
 70
     1
102
RTVSPropertyOp15
 70
     1
102
RTVSPropertyOp16
 70
     1
102
RTVSPropertyOp17
 70
     1
102
RTVSPropertyOp18
 70
     1
102
RTVSPropertyOp19
 70
     1
102
RTVSPropertyOp20
 70
     1
102
RTVSPropertyOp21
 70
     1
102
RTVSPropertyOp22
 70
     1
102
RTVSPropertyOp23
 70
     1
102
RTVSPropertyOp24
 70
     1
102
RTVSPropertyOp25
 70
     1
102
RTVSPropertyOp26
 70
     1
102
RTVSPropertyOp27
 70
     1
102
RTVSPropertyOp28
 70
     1
102
RTVSPropertyOp29
 70
     1
102
RTVSPropertyOp30
 70
     1
102
RTVSPropertyOp31
 70
     1
102
RTVSPropertyOp32
 70
     1
102
RTVSPropertyOp33
 70
     1
102
RTVSPropertyOp34
 70
     1
102
RTVSPropertyOp35
 70
     1
102
RTVSPropertyOp36
 70
     1
102
RTVSPropertyOp37
 70
     1
102
RTVSPropertyOp38
 70
     1
102
RTVSPropertyOp39
 70
     1
102
RTVSPropertyOp40
 70
     1
102
RTVSPropertyOp41
 70
     1
102
RTVSPropertyOp42
 70
     1
102
RTVSPropertyOp43
 70
     1
102
RTVSPropertyOp44
 70
     1
102
RTVSPropertyOp45
 70
     1
102
RTVSPropertyOp46
 70
     1
102
RTVSPropertyOp47
 70
     1
102
RTVSPropertyOp48
 70
     1
102
RTVSPropertyOp49
 70
     1
102
RTVSPropertyOp50
 70
     1
102
RTVSPropertyOp51
 70
     0
102
RTVSPropertyOp52
 70
     0
102
RTVSPropertyOp53
 70
     1
102
RTVSPropertyOp54
 70
     1
102
RTVSPropertyOp55
 70
     1
102
RTVSPropertyOp56
 70
     1
102
RTVSPropertyOp57
 70
     1
102
RTVSPost2010Prop28
280
     0
102
RTVSPost2010PropOp28
 70
     1
102
RTVSPost2010Prop29
280
     1
102
RTVSPost2010PropOp29
 70
     1
102
RTVSPost2010Prop30
280
     1
102
RTVSPost2010PropOp30
 70
     1
102
RTVSPost2010Prop31
280
     0
102
RTVSPost2010PropOp31
 70
     1
102
RTVSPost2010Prop32
280
     0
102
RTVSPost2010PropOp32
 70
     1
102
RTVSPost2010Prop33
280
     0
102
RTVSPost2010PropOp33
 70
     1
102
RTVSPost2010Prop34
280
     0
102
RTVSPost2010PropOp34
 70
     1
102
RTVSPost2010Prop35
280
     0
102
RTVSPost2010PropOp35
 70
     1
102
RTVSPost2010Prop36
280
     0
102
RTVSPost2010PropOp36
 70
     1
102
RTVSPost2010Prop37
 90
       50
102
RTVSPost2010PropOp37
 70
     1
102
RTVSPost2010Prop38
140
0.0
102
RTVSPost2010PropOp38
 70
     1
102
RTVSPost2010Prop39
140
1.0
102
RTVSPost2010PropOp39
 70
     1
102
RTVSPost2010Prop40
 90
        0
102
RTVSPost2010PropOp40
 70
     1
102
RTVSPost2010Prop41ColorIndex
 90
       18
102
RTVSPost2010Prop41ColorRGB
 90
        0
102
RTVSPost2010PropOp41
 70
     1
102
RTVSPost2010Prop42
 90
       50
102
RTVSPost2010PropOp42
 70
     1
102
RTVSPost2010Prop43
 90
        3
102
RTVSPost2010PropOp43
 70
     1
102
RTVSPost2010Prop44ColorIndex
 90
        5
102
RTVSPost2010Prop44ColorRGB
 90
      255
102
RTVSPost2010PropOp44
 70
     1
102
RTVSPost2010Prop45
280
     0
102
RTVSPost2010PropOp45
 70
     1
102
RTVSPost2010Prop46
 90
       50
102
RTVSPost2010PropOp46
 70
     1
102
RTVSPost2010Prop47
 90
       50
102
RTVSPost2010PropOp47
 70
     1
102
RTVSPost2010Prop48
 90
       50
102
RTVSPost2010PropOp48
 70
     1
102
RTVSPost2010Prop49
280
     0
102
RTVSPost2010PropOp49
 70
     1
102
RTVSPost2010Prop50
 90
       50
102
RTVSPost2010PropOp50
 70
     1
102
RTVSPost2010Prop51ColorIndex
 90
      256
102
RTVSPost2010Prop51ColorRGB
 90
-16777216
102
RTVSPost2010PropOp51
 70
     0
102
RTVSPost2010Prop52
140
1.0
102
RTVSPost2010PropOp52
 70
     0
102
RTVSPost2010Prop53
 90
        2
102
RTVSPost2010PropOp53
 70
     1
102
RTVSPost2010Prop54
  1
strokes_ogs.tif
102
RTVSPost2010PropOp54
 70
     1
102
RTVSPost2010Prop55
280
     0
102
RTVSPost2010PropOp55
 70
     1
102
RTVSPost2010Prop56
140
1.0
102
RTVSPost2010PropOp56
 70
     1
102
RTVSPost2010Prop57
140
1.0
102
RTVSPost2010PropOp57
 70
     1
  0
XRECORD
  5
4E0
102
{ACAD_REACTORS
330
4DF
102
}
330
4DF
100
AcDbXrecord
280
     1
102
RTVSPropertyOp0
 70
     1
102
RTVSPropertyOp1
 70
     1
102
RTVSPropertyOp2
 70
     1
102
RTVSPropertyOp3
 70
     1
102
RTVSPropertyOp4
 70
     1
102
RTVSPropertyOp5
 70
     1
102
RTVSPropertyOp6
 70
     1
102
RTVSPropertyOp7
 70
     1
102
RTVSPropertyOp8
 70
     1
102
RTVSPropertyOp9
 70
     1
102
RTVSPropertyOp10
 70
     1
102
RTVSPropertyOp11
 70
     1
102
RTVSPropertyOp12
 70
     1
102
RTVSPropertyOp13
 70
     1
102
RTVSPropertyOp14
 70
     1
102
RTVSPropertyOp15
 70
     1
102
RTVSPropertyOp16
 70
     1
102
RTVSPropertyOp17
 70
     1
102
RTVSPropertyOp18
 70
     1
102
RTVSPropertyOp19
 70
     1
102
RTVSPropertyOp20
 70
     1
102
RTVSPropertyOp21
 70
     1
102
RTVSPropertyOp22
 70
     1
102
RTVSPropertyOp23
 70
     1
102
RTVSPropertyOp24
 70
     1
102
RTVSPropertyOp25
 70
     1
102
RTVSPropertyOp26
 70
     1
102
RTVSPropertyOp27
 70
     1
102
RTVSPropertyOp28
 70
     1
102
RTVSPropertyOp29
 70
     1
102
RTVSPropertyOp30
 70
     1
102
RTVSPropertyOp31
 70
     1
102
RTVSPropertyOp32
 70
     1
102
RTVSPropertyOp33
 70
     1
102
RTVSPropertyOp34
 70
     1
102
RTVSPropertyOp35
 70
     1
102
RTVSPropertyOp36
 70
     1
102
RTVSPropertyOp37
 70
     1
102
RTVSPropertyOp38
 70
     1
102
RTVSPropertyOp39
 70
     1
102
RTVSPropertyOp40
 70
     1
102
RTVSPropertyOp41
 70
     1
102
RTVSPropertyOp42
 70
     1
102
RTVSPropertyOp43
 70
     1
102
RTVSPropertyOp44
 70
     1
102
RTVSPropertyOp45
 70
     1
102
RTVSPropertyOp46
 70
     1
102
RTVSPropertyOp47
 70
     1
102
RTVSPropertyOp48
 70
     1
102
RTVSPropertyOp49
 70
     1
102
RTVSPropertyOp50
 70
     1
102
RTVSPropertyOp51
 70
     0
102
RTVSPropertyOp52
 70
     0
102
RTVSPropertyOp53
 70
     1
102
RTVSPropertyOp54
 70
     1
102
RTVSPropertyOp55
 70
     1
102
RTVSPropertyOp56
 70
     1
102
RTVSPropertyOp57
 70
     1
102
RTVSPost2010Prop28
280
     0
102
RTVSPost2010PropOp28
 70
     1
102
RTVSPost2010Prop29
280
     1
102
RTVSPost2010PropOp29
 70
     1
102
RTVSPost2010Prop30
280
     1
102
RTVSPost2010PropOp30
 70
     1
102
RTVSPost2010Prop31
280
     0
102
RTVSPost2010PropOp31
 70
     1
102
RTVSPost2010Prop32
280
     0
102
RTVSPost2010PropOp32
 70
     1
102
RTVSPost2010Prop33
280
     0
102
RTVSPost2010PropOp33
 70
     1
102
RTVSPost2010Prop34
280
     0
102
RTVSPost2010PropOp34
 70
     1
102
RTVSPost2010Prop35
280
     0
102
RTVSPost2010PropOp35
 70
     1
102
RTVSPost2010Prop36
280
     0
102
RTVSPost2010PropOp36
 70
     1
102
RTVSPost2010Prop37
 90
       50
102
RTVSPost2010PropOp37
 70
     1
102
RTVSPost2010Prop38
140
0.0
102
RTVSPost2010PropOp38
 70
     1
102
RTVSPost2010Prop39
140
1.0
102
RTVSPost2010PropOp39
 70
     1
102
RTVSPost2010Prop40
 90
        0
102
RTVSPost2010PropOp40
 70
     1
102
RTVSPost2010Prop41ColorIndex
 90
       18
102
RTVSPost2010Prop41ColorRGB
 90
        0
102
RTVSPost2010PropOp41
 70
     1
102
RTVSPost2010Prop42
 90
       50
102
RTVSPost2010PropOp42
 70
     1
102
RTVSPost2010Prop43
 90
        3
102
RTVSPost2010PropOp43
 70
     1
102
RTVSPost2010Prop44ColorIndex
 90
        5
102
RTVSPost2010Prop44ColorRGB
 90
      255
102
RTVSPost2010PropOp44
 70
     1
102
RTVSPost2010Prop45
280
     0
102
RTVSPost2010PropOp45
 70
     1
102
RTVSPost2010Prop46
 90
       50
102
RTVSPost2010PropOp46
 70
     1
102
RTVSPost2010Prop47
 90
       50
102
RTVSPost2010PropOp47
 70
     1
102
RTVSPost2010Prop48
 90
       50
102
RTVSPost2010PropOp48
 70
     1
102
RTVSPost2010Prop49
280
     0
102
RTVSPost2010PropOp49
 70
     1
102
RTVSPost2010Prop50
 90
       50
102
RTVSPost2010PropOp50
 70
     1
102
RTVSPost2010Prop51ColorIndex
 90
      256
102
RTVSPost2010Prop51ColorRGB
 90
-16777216
102
RTVSPost2010PropOp51
 70
     0
102
RTVSPost2010Prop52
140
1.0
102
RTVSPost2010PropOp52
 70
     0
102
RTVSPost2010Prop53
 90
        2
102
RTVSPost2010PropOp53
 70
     1
102
RTVSPost2010Prop54
  1
strokes_ogs.tif
102
RTVSPost2010PropOp54
 70
     1
102
RTVSPost2010Prop55
280
     0
102
RTVSPost2010PropOp55
 70
     1
102
RTVSPost2010Prop56
140
1.0
102
RTVSPost2010PropOp56
 70
     1
102
RTVSPost2010Prop57
140
1.0
102
RTVSPost2010PropOp57
 70
     1
  0
ENDSEC
  0
EOF
