  0
SECTION
  2
HEADER
  9
$ACADVER
  1
AC1015
  9
$ACADMAINTVER
 70
     6
  9
$DWGCODEPAGE
  3
ANSI_932
  9
$INSBASE
 10
821.6635006931615
 20
227.9504064979209
 30
0.0
  9
$EXTMIN
 10
98.99495413458396
 20
28.13290068193189
 30
0.0
  9
$EXTMAX
 10
563.6442606658043
 20
476.6292176865294
 30
0.0
  9
$LIMMIN
 10
0.0
 20
0.0
  9
$LIMMAX
 10
816.5000000000001
 20
565.0
  9
$ORTHOMODE
 70
     1
  9
$REGENMODE
 70
     1
  9
$FILLMODE
 70
     1
  9
$QTEXTMODE
 70
     0
  9
$MIRRTEXT
 70
     1
  9
$LTSCALE
 40
20.0
  9
$ATTMODE
 70
     1
  9
$TEXTSIZE
 40
4.5
  9
$TRACEWID
 40
0.05
  9
$TEXTSTYLE
  7
KANJI
  9
$CLAYER
  8
2
  9
$CELTYPE
  6
BYLAYER
  9
$CECOLOR
 62
   256
  9
$CELTSCALE
 40
1.0
  9
$DISPSILH
 70
     0
  9
$DIMSCALE
 40
1.5
  9
$DIMASZ
 40
2.0
  9
$DIMEXO
 40
0.5
  9
$DIMDLI
 40
0.0
  9
$DIMRND
 40
0.0
  9
$DIMDLE
 40
0.0
  9
$DIMEXE
 40
1.0
  9
$DIMTP
 40
0.0
  9
$DIMTM
 40
0.0
  9
$DIMTXT
 40
3.0
  9
$DIMCEN
 40
0.09
  9
$DIMTSZ
 40
0.0
  9
$DIMTOL
 70
     0
  9
$DIMLIM
 70
     0
  9
$DIMTIH
 70
     0
  9
$DIMTOH
 70
     0
  9
$DIMSE1
 70
     0
  9
$DIMSE2
 70
     0
  9
$DIMTAD
 70
     0
  9
$DIMZIN
 70
     8
  9
$DIMBLK
  1

  9
$DIMASO
 70
     0
  9
$DIMSHO
 70
     0
  9
$DIMPOST
  1

  9
$DIMAPOST
  1

  9
$DIMALT
 70
     0
  9
$DIMALTD
 70
     2
  9
$DIMALTF
 40
25.4
  9
$DIMLFAC
 40
1.0
  9
$DIMTOFL
 70
     1
  9
$DIMTVP
 40
1.0
  9
$DIMTIX
 70
     1
  9
$DIMSOXD
 70
     1
  9
$DIMSAH
 70
     0
  9
$DIMBLK1
  1

  9
$DIMBLK2
  1

  9
$DIMSTYLE
  2
STANDARD
  9
$DIMCLRD
 70
   256
  9
$DIMCLRE
 70
   256
  9
$DIMCLRT
 70
   256
  9
$DIMTFAC
 40
1.0
  9
$DIMGAP
 40
0.09
  9
$DIMJUST
 70
     0
  9
$DIMSD1
 70
     0
  9
$DIMSD2
 70
     0
  9
$DIMTOLJ
 70
     1
  9
$DIMTZIN
 70
     0
  9
$DIMALTZ
 70
     0
  9
$DIMALTTZ
 70
     0
  9
$DIMUPT
 70
     0
  9
$DIMDEC
 70
     1
  9
$DIMTDEC
 70
     4
  9
$DIMALTU
 70
     2
  9
$DIMALTTD
 70
     2
  9
$DIMTXSTY
  7
STANDARD
  9
$DIMAUNIT
 70
     0
  9
$DIMADEC
 70
     0
  9
$DIMALTRND
 40
0.0
  9
$DIMAZIN
 70
     0
  9
$DIMDSEP
 70
    46
  9
$DIMATFIT
 70
     3
  9
$DIMFRAC
 70
     0
  9
$DIMLDRBLK
  1

  9
$DIMLUNIT
 70
     2
  9
$DIMLWD
 70
    -2
  9
$DIMLWE
 70
    -2
  9
$DIMTMOVE
 70
     0
  9
$LUNITS
 70
     2
  9
$LUPREC
 70
     3
  9
$SKETCHINC
 40
0.1
  9
$FILLETRAD
 40
1.0
  9
$AUNITS
 70
     0
  9
$AUPREC
 70
     3
  9
$MENU
  1
C:\R13\WIN\SUPPORT\ACADFULL
  9
$ELEVATION
 40
0.0
  9
$PELEVATION
 40
0.0
  9
$THICKNESS
 40
0.0
  9
$LIMCHECK
 70
     0
  9
$CHAMFERA
 40
0.0
  9
$CHAMFERB
 40
0.0
  9
$CHAMFERC
 40
0.0
  9
$CHAMFERD
 40
0.0
  9
$SKPOLY
 70
     0
  9
$TDCREATE
 40
2449813.131805555
  9
$TDUCREATE
 40
2449812.756805555
  9
$TDUPDATE
 40
2457871.828239815
  9
$TDUUPDATE
 40
2457871.453239815
  9
$TDINDWG
 40
1.1253737731
  9
$TDUSRTIMER
 40
1.1253733796
  9
$USRTIMER
 70
     1
  9
$ANGBASE
 50
0.0
  9
$ANGDIR
 70
     0
  9
$PDMODE
 70
     0
  9
$PDSIZE
 40
0.0
  9
$PLINEWID
 40
0.0
  9
$SPLFRAME
 70
     0
  9
$SPLINETYPE
 70
     6
  9
$SPLINESEGS
 70
     8
  9
$HANDSEED
  5
534
  9
$SURFTAB1
 70
     6
  9
$SURFTAB2
 70
     6
  9
$SURFTYPE
 70
     6
  9
$SURFU
 70
     6
  9
$SURFV
 70
     6
  9
$UCSBASE
  2

  9
$UCSNAME
  2

  9
$UCSORG
 10
0.0
 20
0.0
 30
0.0
  9
$UCSXDIR
 10
1.0
 20
0.0
 30
0.0
  9
$UCSYDIR
 10
0.0
 20
1.0
 30
0.0
  9
$UCSORTHOREF
  2

  9
$UCSORTHOVIEW
 70
     0
  9
$UCSORGTOP
 10
0.0
 20
0.0
 30
0.0
  9
$UCSORGBOTTOM
 10
0.0
 20
0.0
 30
0.0
  9
$UCSORGLEFT
 10
0.0
 20
0.0
 30
0.0
  9
$UCSORGRIGHT
 10
0.0
 20
0.0
 30
0.0
  9
$UCSORGFRONT
 10
0.0
 20
0.0
 30
0.0
  9
$UCSORGBACK
 10
0.0
 20
0.0
 30
0.0
  9
$PUCSBASE
  2

  9
$PUCSNAME
  2

  9
$PUCSORG
 10
0.0
 20
0.0
 30
0.0
  9
$PUCSXDIR
 10
1.0
 20
0.0
 30
0.0
  9
$PUCSYDIR
 10
0.0
 20
1.0
 30
0.0
  9
$PUCSORTHOREF
  2

  9
$PUCSORTHOVIEW
 70
     0
  9
$PUCSORGTOP
 10
0.0
 20
0.0
 30
0.0
  9
$PUCSORGBOTTOM
 10
0.0
 20
0.0
 30
0.0
  9
$PUCSORGLEFT
 10
0.0
 20
0.0
 30
0.0
  9
$PUCSORGRIGHT
 10
0.0
 20
0.0
 30
0.0
  9
$PUCSORGFRONT
 10
0.0
 20
0.0
 30
0.0
  9
$PUCSORGBACK
 10
0.0
 20
0.0
 30
0.0
  9
$USERI1
 70
     0
  9
$USERI2
 70
     0
  9
$USERI3
 70
     0
  9
$USERI4
 70
     0
  9
$USERI5
 70
     0
  9
$USERR1
 40
0.0
  9
$USERR2
 40
0.0
  9
$USERR3
 40
0.0
  9
$USERR4
 40
2448925.372986111
  9
$USERR5
 40
0.04166667
  9
$WORLDVIEW
 70
     1
  9
$SHADEDGE
 70
     3
  9
$SHADEDIF
 70
    70
  9
$TILEMODE
 70
     1
  9
$MAXACTVP
 70
    16
  9
$PINSBASE
 10
0.0
 20
0.0
 30
0.0
  9
$PLIMCHECK
 70
     0
  9
$PEXTMIN
 10
1.000000000000000E+20
 20
1.000000000000000E+20
 30
1.000000000000000E+20
  9
$PEXTMAX
 10
-1.000000000000000E+20
 20
-1.000000000000000E+20
 30
-1.000000000000000E+20
  9
$PLIMMIN
 10
0.0
 20
0.0
  9
$PLIMMAX
 10
12.0
 20
9.0
  9
$UNITMODE
 70
     0
  9
$VISRETAIN
 70
     0
  9
$PLINEGEN
 70
     0
  9
$PSLTSCALE
 70
     0
  9
$TREEDEPTH
 70
  3020
  9
$CMLSTYLE
  2
STANDARD
  9
$CMLJUST
 70
     0
  9
$CMLSCALE
 40
1.0
  9
$PROXYGRAPHICS
 70
     1
  9
$MEASUREMENT
 70
     0
  9
$CELWEIGHT
370
    -1
  9
$ENDCAPS
280
     0
  9
$JOINSTYLE
280
     0
  9
$LWDISPLAY
290
     0
  9
$INSUNITS
 70
     0
  9
$HYPERLINKBASE
  1

  9
$STYLESHEET
  1

  9
$XEDIT
290
     1
  9
$CEPSNTYPE
380
     0
  9
$PSTYLEMODE
290
     1
  9
$FINGERPRINTGUID
  2
{1207B529-6B91-43A1-A6FF-1655EF8C041E}
  9
$VERSIONGUID
  2
{729004AC-B4DE-4596-A085-33E087AD932D}
  9
$EXTNAMES
290
     1
  9
$PSVPSCALE
 40
0.0
  9
$OLESTARTUP
290
     0
  0
ENDSEC
  0
SECTION
  2
CLASSES
  0
CLASS
  1
ACDBDICTIONARYWDFLT
  2
AcDbDictionaryWithDefault
  3
ObjectDBX Classes
 90
        0
280
     0
281
     0
  0
CLASS
  1
MATERIAL
  2
AcDbMaterial
  3
ObjectDBX Classes
 90
     1153
280
     0
281
     0
  0
CLASS
  1
SORTENTSTABLE
  2
AcDbSortentsTable
  3
ObjectDBX Classes
 90
        0
280
     0
281
     0
  0
CLASS
  1
SCALE
  2
AcDbScale
  3
ObjectDBX Classes
 90
     1153
280
     0
281
     0
  0
CLASS
  1
DICTIONARYVAR
  2
AcDbDictionaryVar
  3
ObjectDBX Classes
 90
        0
280
     0
281
     0
  0
CLASS
  1
VISUALSTYLE
  2
AcDbVisualStyle
  3
ObjectDBX Classes
 90
     4095
280
     0
281
     0
  0
CLASS
  1
MLEADERSTYLE
  2
AcDbMLeaderStyle
  3
ACDB_MLEADERSTYLE_CLASS
 90
     4095
280
     0
281
     0
  0
CLASS
  1
TABLESTYLE
  2
AcDbTableStyle
  3
ObjectDBX Classes
 90
     4095
280
     0
281
     0
  0
CLASS
  1
ACDBPLACEHOLDER
  2
AcDbPlaceHolder
  3
ObjectDBX Classes
 90
        0
280
     0
281
     0
  0
CLASS
  1
LAYOUT
  2
AcDbLayout
  3
ObjectDBX Classes
 90
        0
280
     0
281
     0
  0
ENDSEC
  0
SECTION
  2
TABLES
  0
TABLE
  2
VPORT
  5
25
102
{ACAD_XDICTIONARY
360
4F9
102
}
330
0
100
AcDbSymbolTable
 70
     7
  0
VPORT
  5
2B
330
25
100
AcDbSymbolTableRecord
100
AcDbViewportTableRecord
  2
*ACTIVE
 70
     0
 10
0.0
 20
0.0
 11
1.0
 21
1.0
 12
486.7576383965567
 22
240.5133200428671
 13
0.0
 23
0.0
 14
1.0
 24
1.0
 15
50.0
 25
50.0
 16
0.0
 26
0.0
 36
1.0
 17
0.0
 27
0.0
 37
0.0
 40
539.9133767329081
 41
2.171641791044776
 42
50.0
 43
0.0
 44
0.0
 50
0.0
 51
0.0
 71
     0
 72
  5000
 73
     1
 74
     0
 75
     0
 76
     0
 77
     0
 78
     0
281
     0
 65
     1
110
0.0
120
0.0
130
0.0
111
1.0
121
0.0
131
0.0
112
0.0
122
1.0
132
0.0
 79
     0
146
0.0
  0
ENDTAB
  0
TABLE
  2
LTYPE
  5
9
330
0
100
AcDbSymbolTable
 70
     2
  0
LTYPE
  5
A
330
9
100
AcDbSymbolTableRecord
100
AcDbLinetypeTableRecord
  2
BYBLOCK
 70
     0
  3

 72
    65
 73
     0
 40
0.0
  0
LTYPE
  5
B
330
9
100
AcDbSymbolTableRecord
100
AcDbLinetypeTableRecord
  2
BYLAYER
 70
     0
  3

 72
    65
 73
     0
 40
0.0
  0
LTYPE
  5
8
330
9
100
AcDbSymbolTableRecord
100
AcDbLinetypeTableRecord
  2
CONTINUOUS
 70
     0
  3
Solid line
 72
    65
 73
     0
 40
0.0
  0
LTYPE
  5
7A
330
9
100
AcDbSymbolTableRecord
100
AcDbLinetypeTableRecord
  2
CENTER
 70
     0
  3
Center ____ _ ____ _ ____ _ ____ _ ____ _ ____
 72
    65
 73
     4
 40
2.0
 49
1.25
 74
     0
 49
-0.25
 74
     0
 49
0.25
 74
     0
 49
-0.25
 74
     0
  0
ENDTAB
  0
TABLE
  2
LAYER
  5
2
330
0
100
AcDbSymbolTable
 70
     8
  0
LAYER
  5
19
330
2
100
AcDbSymbolTableRecord
100
AcDbLayerTableRecord
  2
0
 70
     0
 62
     7
  6
CONTINUOUS
370
    -3
390
3
  0
LAYER
  5
2B0
330
2
100
AcDbSymbolTableRecord
100
AcDbLayerTableRecord
  2
1
 70
     0
 62
     9
  6
CONTINUOUS
370
    -3
390
3
  0
LAYER
  5
1
330
2
100
AcDbSymbolTableRecord
100
AcDbLayerTableRecord
  2
2
 70
     0
 62
     4
  6
CONTINUOUS
370
    -3
390
3
  0
LAYER
  5
74
330
2
100
AcDbSymbolTableRecord
100
AcDbLayerTableRecord
  2
4
 70
     0
 62
     3
  6
CONTINUOUS
370
    -3
390
3
  0
LAYER
  5
79
330
2
100
AcDbSymbolTableRecord
100
AcDbLayerTableRecord
  2
L-CENTER
 70
     0
 62
     1
  6
CENTER
370
    -3
390
3
  0
LAYER
  5
72
330
2
100
AcDbSymbolTableRecord
100
AcDbLayerTableRecord
  2
3
 70
     0
 62
     2
  6
CONTINUOUS
370
    -3
390
3
  0
LAYER
  5
2AA
330
2
100
AcDbSymbolTableRecord
100
AcDbLayerTableRecord
  2
5
 70
     0
 62
     6
  6
CONTINUOUS
370
    -3
390
3
  0
LAYER
  5
46A
330
2
100
AcDbSymbolTableRecord
100
AcDbLayerTableRecord
  2
Defpoints
 70
     0
 62
     7
  6
CONTINUOUS
290
     0
370
    -3
390
3
  0
ENDTAB
  0
TABLE
  2
STYLE
  5
D
330
0
100
AcDbSymbolTable
 70
     2
  0
STYLE
  5
11
330
D
100
AcDbSymbolTableRecord
100
AcDbTextStyleTableRecord
  2
STANDARD
 70
     0
 40
0.0
 41
1.0
 50
0.0
 71
     0
 42
2.7
  3
TXT
  4

  0
STYLE
  5
C
330
D
100
AcDbSymbolTableRecord
100
AcDbTextStyleTableRecord
  2
KANJI
 70
     0
 40
0.0
 41
1.0
 50
0.0
 71
     0
 42
4.5
  3
TXT
  4
BIGFONT
  0
ENDTAB
  0
TABLE
  2
VIEW
  5
23
330
0
100
AcDbSymbolTable
 70
     0
  0
ENDTAB
  0
TABLE
  2
UCS
  5
24
330
0
100
AcDbSymbolTable
 70
     0
  0
ENDTAB
  0
TABLE
  2
APPID
  5
1E
330
0
100
AcDbSymbolTable
 70
     5
  0
APPID
  5
2A
330
1E
100
AcDbSymbolTableRecord
100
AcDbRegAppTableRecord
  2
ACAD
 70
     0
  0
APPID
  5
1D
330
1E
100
AcDbSymbolTableRecord
100
AcDbRegAppTableRecord
  2
ACAD_PSEXT
 70
     0
  0
APPID
  5
447
330
1E
100
AcDbSymbolTableRecord
100
AcDbRegAppTableRecord
  2
ACAD_MLEADERVER
 70
     0
  0
ENDTAB
  0
TABLE
  2
DIMSTYLE
  5
10
330
0
100
AcDbSymbolTable
 70
     1
100
AcDbDimStyleTable
  0
DIMSTYLE
105
F
330
10
100
AcDbSymbolTableRecord
100
AcDbDimStyleTableRecord
  2
STANDARD
 70
     0
178
     0
340
11
  0
ENDTAB
  0
TABLE
  2
BLOCK_RECORD
  5
14
330
0
100
AcDbSymbolTable
 70
     0
  0
BLOCK_RECORD
  5
15
102
{ACAD_XDICTIONARY
360
16
102
}
330
14
100
AcDbSymbolTableRecord
100
AcDbBlockTableRecord
  2
*MODEL_SPACE
340
1B
  0
BLOCK_RECORD
  5
1F
330
14
100
AcDbSymbolTableRecord
100
AcDbBlockTableRecord
  2
*PAPER_SPACE
340
22
  0
ENDTAB
  0
ENDSEC
  0
SECTION
  2
BLOCKS
  0
BLOCK
  5
18
330
15
100
AcDbEntity
  8
0
100
AcDbBlockBegin
  2
*MODEL_SPACE
 70
     0
 10
0.0
 20
0.0
 30
0.0
  3
*MODEL_SPACE
  1

  0
ENDBLK
  5
1A
330
15
100
AcDbEntity
  8
0
100
AcDbBlockEnd
  0
BLOCK
  5
20
330
1F
100
AcDbEntity
 67
     1
  8
0
100
AcDbBlockBegin
  2
*PAPER_SPACE
 70
     0
 10
0.0
 20
0.0
 30
0.0
  3
*PAPER_SPACE
  1

  0
ENDBLK
  5
21
330
1F
100
AcDbEntity
 67
     1
  8
0
100
AcDbBlockEnd
  0
ENDSEC
  0
SECTION
  2
ENTITIES
  0
LINE
  5
73
330
15
100
AcDbEntity
  8
4
100
AcDbLine
 10
471.1994989925921
 20
184.2091755623115
 30
0.0
 11
470.1994984925922
 21
184.2091755623115
 31
0.0
  0
LINE
  5
75
330
15
100
AcDbEntity
  8
4
100
AcDbLine
 10
449.6994979925922
 20
50.2093440623116
 30
0.0
 11
559.6994989925921
 21
50.2093440623116
 31
0.0
  0
LINE
  5
76
330
15
100
AcDbEntity
  8
4
100
AcDbLine
 10
452.6994979925922
 20
71.2093440623116
 30
0.0
 11
556.6994989925921
 21
71.2093440623116
 31
0.0
  0
ARC
  5
77
330
15
100
AcDbEntity
  8
4
100
AcDbCircle
 10
464.1994984925922
 20
78.20934456231157
 30
0.0
 40
7.000000499999999
100
AcDbArc
 50
270.0
 51
0.0
  0
LINE
  5
78
330
15
100
AcDbEntity
  8
L-CENTER
 48
0.5
100
AcDbLine
 10
397.2551877295574
 20
120.2091765623116
 30
0.0
 11
563.6442606658043
 21
120.2091765623116
 31
0.0
  0
LINE
  5
7B
330
15
100
AcDbEntity
  8
L-CENTER
 48
0.5
100
AcDbLine
 10
542.066970546848
 20
180.2091765623117
 30
0.0
 11
467.3320264383364
 21
180.2091765623117
 31
0.0
  0
LINE
  5
81
330
15
100
AcDbEntity
  8
4
100
AcDbLine
 10
470.1994984925922
 20
74.60379306231161
 30
0.0
 11
470.1994984925922
 21
184.2091755623115
 31
0.0
  0
ARC
  5
85
330
15
100
AcDbEntity
  8
4
100
AcDbCircle
 10
275.5901443178007
 20
177.1098105623116
 30
0.0
 40
2.999976
100
AcDbArc
 50
8.239470000000304
 51
81.76042699999894
  0
ARC
  5
86
330
15
100
AcDbEntity
  8
4
100
AcDbCircle
 10
161.7888298178007
 20
177.1098105623116
 30
0.0
 40
2.999976
100
AcDbArc
 50
98.23957300000106
 51
171.7605299999996
  0
CIRCLE
  5
87
330
15
100
AcDbEntity
  8
4
100
AcDbCircle
 10
218.6894338178007
 20
120.2091765623116
 30
0.0
 40
63.0
  0
LINE
  5
88
330
15
100
AcDbEntity
  8
L-CENTER
 48
0.5
100
AcDbLine
 10
218.6894338178007
 20
218.4688545623115
 30
0.0
 11
218.6894338178007
 21
52.07789672396871
 31
0.0
  0
LINE
  5
89
330
15
100
AcDbEntity
  8
4
100
AcDbLine
 10
154.6897078178007
 20
147.7091760623116
 30
0.0
 11
154.6897078178007
 21
213.7091760623116
 31
0.0
  0
LINE
  5
8A
330
15
100
AcDbEntity
  8
4
100
AcDbLine
 10
150.6897088178007
 20
212.7091755623115
 30
0.0
 11
150.6897088178007
 21
147.7091760623116
 31
0.0
  0
LINE
  5
8B
330
15
100
AcDbEntity
  8
4
100
AcDbLine
 10
149.6897083178006
 20
203.7091755623115
 30
0.0
 11
149.6897083178006
 21
156.7091760623116
 31
0.0
  0
LINE
  5
8C
330
15
100
AcDbEntity
  8
4
100
AcDbLine
 10
286.6892653178006
 20
212.7091755623115
 30
0.0
 11
286.6892653178006
 21
147.7091760623116
 31
0.0
  0
LINE
  5
8D
330
15
100
AcDbEntity
  8
4
100
AcDbLine
 10
282.6892648178007
 20
147.7091760623116
 30
0.0
 11
282.6892648178007
 21
213.7091760623116
 31
0.0
  0
LINE
  5
8E
330
15
100
AcDbEntity
  8
4
100
AcDbLine
 10
287.6892658178007
 20
203.7091755623115
 30
0.0
 11
287.6892658178007
 21
156.7091760623116
 31
0.0
  0
LINE
  5
8F
330
15
100
AcDbEntity
  8
4
100
AcDbLine
 10
298.6894333178006
 20
188.7091755623115
 30
0.0
 11
298.6894333178006
 21
171.7091760623116
 31
0.0
  0
LINE
  5
90
330
15
100
AcDbEntity
  8
4
100
AcDbLine
 10
333.6892648178007
 20
190.2091755623115
 30
0.0
 11
333.6892648178007
 21
173.2091760623116
 31
0.0
  0
LINE
  5
91
330
15
100
AcDbEntity
  8
4
100
AcDbLine
 10
332.6892658178006
 20
188.2091760623116
 30
0.0
 11
332.6892658178006
 21
172.2091755623115
 31
0.0
  0
LINE
  5
92
330
15
100
AcDbEntity
  8
4
100
AcDbLine
 10
464.1994984925922
 20
71.2093440623116
 30
0.0
 11
464.1994984925922
 21
182.2091760623116
 31
0.0
  0
ARC
  5
95
330
15
100
AcDbEntity
  8
4
100
AcDbCircle
 10
218.6897083178006
 20
193.2094200623116
 30
0.0
 40
99.999999
100
AcDbArc
 50
257.1514829999999
 51
282.849507
  0
ARC
  5
96
330
15
100
AcDbEntity
  8
4
100
AcDbCircle
 10
218.6894638178007
 20
456.2096640623116
 30
0.0
 40
400.000002
100
AcDbArc
 50
262.9446470000001
 51
277.05536
  0
LINE
  5
97
330
15
100
AcDbEntity
  8
4
100
AcDbLine
 10
171.1897078178007
 20
56.2093440623116
 30
0.0
 11
266.1892648178007
 21
56.2093440623116
 31
0.0
  0
ARC
  5
98
330
15
100
AcDbEntity
  8
4
100
AcDbCircle
 10
218.6897083178006
 20
191.2094205623116
 30
0.0
 40
100.000002
100
AcDbArc
 50
256.1701249999999
 51
283.830872
  0
LINE
  5
99
330
15
100
AcDbEntity
  8
L-CENTER
 48
0.5
100
AcDbLine
 10
150.5581539794578
 20
120.2091765623116
 30
0.0
 11
286.8207136561437
 21
120.2091765623116
 31
0.0
  0
ARC
  5
9A
330
15
100
AcDbEntity
  8
4
100
AcDbCircle
 10
218.6894338178007
 20
49.20935856231159
 30
0.0
 40
99.99998550000001
100
AcDbArc
 50
76.169548
 51
103.830422
  0
ARC
  5
9B
330
15
100
AcDbEntity
  8
4
100
AcDbCircle
 10
218.6897083178006
 20
47.20935906231159
 30
0.0
 40
100.0000395
100
AcDbArc
 50
77.15112500000002
 51
102.849151
  0
ARC
  5
9E
330
15
100
AcDbEntity
  8
4
100
AcDbCircle
 10
218.6894338178006
 20
120.2091765623116
 30
0.0
 40
48.0
100
AcDbArc
 50
108.7420477253906
 51
71.25795227460911
  0
ARC
  5
9F
330
15
100
AcDbEntity
  8
4
100
AcDbCircle
 10
158.7689743178007
 20
74.2093440623116
 30
0.0
 40
3.0
100
AcDbArc
 50
270.0
 51
17.49679700000084
  0
LINE
  5
A0
330
15
100
AcDbEntity
  8
4
100
AcDbLine
 10
154.6897078178007
 20
120.2091765623116
 30
0.0
 11
154.6897078178007
 21
73.20934356231163
 31
0.0
  0
LINE
  5
A1
330
15
100
AcDbEntity
  8
L-CENTER
 48
0.5
100
AcDbLine
 10
143.6897083178006
 20
78.2093440623116
 30
0.0
 11
143.6897083178006
 21
43.2093440623116
 31
0.0
  0
LINE
  5
A2
330
15
100
AcDbEntity
  8
4
100
AcDbLine
 10
151.6897078178007
 20
71.2093440623116
 30
0.0
 11
151.6897078178007
 21
90.20934456231157
 31
0.0
  0
LINE
  5
A3
330
15
100
AcDbEntity
  8
4
100
AcDbLine
 10
134.1897088178007
 20
71.2093440623116
 30
0.0
 11
163.1897083178006
 21
71.2093440623116
 31
0.0
  0
LINE
  5
A4
330
15
100
AcDbEntity
  8
4
100
AcDbLine
 10
168.1897078178007
 20
50.2093440623116
 30
0.0
 11
131.1897088178007
 21
50.2093440623116
 31
0.0
  0
LINE
  5
A9
330
15
100
AcDbEntity
  8
4
100
AcDbLine
 10
131.1897088178007
 20
68.2093440623116
 30
0.0
 11
131.1897088178007
 21
50.2093440623116
 31
0.0
  0
ARC
  5
AA
330
15
100
AcDbEntity
  8
4
100
AcDbCircle
 10
134.1897088178007
 20
68.2093440623116
 30
0.0
 40
3.0
100
AcDbArc
 50
90.0
 51
180.0002860014283
  0
ARC
  5
AB
330
15
100
AcDbEntity
  8
4
100
AcDbCircle
 10
152.6897083178006
 20
73.20934356231163
 30
0.0
 40
1.9999995
100
AcDbArc
 50
270.0
 51
0.0
  0
LINE
  5
AC
330
15
100
AcDbEntity
  8
4
100
AcDbLine
 10
166.1897083178006
 20
68.2093440623116
 30
0.0
 11
166.1897083178006
 21
50.2093440623116
 31
0.0
  0
ARC
  5
AD
330
15
100
AcDbEntity
  8
4
100
AcDbCircle
 10
169.1897083178006
 20
56.26119756231162
 30
0.0
 40
3.0
100
AcDbArc
 50
82.94464700000124
 51
180.0
  0
ARC
  5
AE
330
15
100
AcDbEntity
  8
4
100
AcDbCircle
 10
171.1897078178007
 20
53.2093440623116
 30
0.0
 40
3.0
100
AcDbArc
 50
90.0
 51
180.0002860014283
  0
LINE
  5
AF
330
15
100
AcDbEntity
  8
4
100
AcDbLine
 10
168.1897078178007
 20
53.2093440623116
 30
0.0
 11
168.1897078178007
 21
50.2093440623116
 31
0.0
  0
ARC
  5
B0
330
15
100
AcDbEntity
  8
4
100
AcDbCircle
 10
163.1897083178006
 20
68.2093440623116
 30
0.0
 40
3.0
100
AcDbArc
 50
0.0
 51
90.0
  0
LINE
  5
B1
330
15
100
AcDbEntity
  8
L-CENTER
 48
0.5
100
AcDbLine
 10
140.6724193178006
 20
111.2093445623116
 30
0.0
 11
161.9904583178006
 21
111.2093445623116
 31
0.0
  0
LINE
  5
B2
330
15
100
AcDbEntity
  8
4
100
AcDbLine
 10
143.1897088178007
 20
98.70932856231161
 30
0.0
 11
150.1897078178007
 21
98.70932856231161
 31
0.0
  0
LINE
  5
B3
330
15
100
AcDbEntity
  8
4
100
AcDbLine
 10
148.1897083178006
 20
104.9593440623116
 30
0.0
 11
143.1897088178007
 21
104.9593440623116
 31
0.0
  0
LINE
  5
B4
330
15
100
AcDbEntity
  8
4
100
AcDbLine
 10
150.1897078178007
 20
123.7091760623116
 30
0.0
 11
143.1897088178007
 21
123.7091760623116
 31
0.0
  0
LINE
  5
B5
330
15
100
AcDbEntity
  8
4
100
AcDbLine
 10
148.1897083178006
 20
117.4591755623116
 30
0.0
 11
143.1897088178007
 21
117.4591755623116
 31
0.0
  0
LINE
  5
B6
330
15
100
AcDbEntity
  8
4
100
AcDbLine
 10
143.1897088178007
 20
98.70932856231161
 30
0.0
 11
143.1897088178007
 21
123.7091760623116
 31
0.0
  0
ARC
  5
B7
330
15
100
AcDbEntity
  8
4
100
AcDbCircle
 10
554.6899978178008
 20
120.2091765623116
 30
0.0
 40
400.000002
100
AcDbArc
 50
171.760082
 51
180.0003849998515
  0
ARC
  5
B8
330
15
100
AcDbEntity
  8
4
100
AcDbCircle
 10
151.7905048178006
 20
129.2091765623117
 30
0.0
 40
3.0
100
AcDbArc
 50
270.0
 51
358.7203350000001
  0
ARC
  5
B9
330
15
100
AcDbEntity
  8
4
100
AcDbCircle
 10
291.6897538178007
 20
120.2094195623116
 30
0.0
 40
100.000011
100
AcDbArc
 50
167.151551
 51
192.848918
  0
ARC
  5
BA
330
15
100
AcDbEntity
  8
4
100
AcDbCircle
 10
289.6897528178007
 20
120.2094195623116
 30
0.0
 40
99.999999
100
AcDbArc
 50
166.170225
 51
193.830278
  0
LINE
  5
BB
330
15
100
AcDbEntity
  8
4
100
AcDbLine
 10
151.6897078178007
 20
126.2091765623116
 30
0.0
 11
151.6897078178007
 21
96.20934456231157
 31
0.0
  0
LINE
  5
BC
330
15
100
AcDbEntity
  8
4
100
AcDbLine
 10
150.1897078178007
 20
98.70932856231161
 30
0.0
 11
150.1897078178007
 21
123.7091760623116
 31
0.0
  0
LINE
  5
BD
330
15
100
AcDbEntity
  8
4
100
AcDbLine
 10
148.1897083178006
 20
98.70932856231161
 30
0.0
 11
148.1897083178006
 21
123.7091760623116
 31
0.0
  0
ARC
  5
BE
330
15
100
AcDbEntity
  8
4
100
AcDbCircle
 10
304.6902418178008
 20
120.2091765623116
 30
0.0
 40
150.000003
100
AcDbArc
 50
180.0003729994306
 51
197.496797
  0
LINE
  5
BF
330
15
100
AcDbEntity
  8
L-CENTER
 48
0.5
100
AcDbLine
 10
149.5640368178007
 20
80.2093440623116
 30
0.0
 11
157.4599108178007
 21
80.2093440623116
 31
0.0
  0
LINE
  5
C0
330
15
100
AcDbEntity
  8
4
100
AcDbLine
 10
150.6897088178007
 20
75.7093440623116
 30
0.0
 11
150.6897088178007
 21
84.7093440623116
 31
0.0
  0
LINE
  5
C1
330
15
100
AcDbEntity
  8
4
100
AcDbLine
 10
150.6897088178007
 20
75.7093440623116
 30
0.0
 11
151.6897078178007
 21
75.7093440623116
 31
0.0
  0
LINE
  5
C2
330
15
100
AcDbEntity
  8
4
100
AcDbLine
 10
150.6897088178007
 20
84.7093440623116
 30
0.0
 11
151.6897078178007
 21
84.7093440623116
 31
0.0
  0
LINE
  5
C3
330
15
100
AcDbEntity
  8
4
100
AcDbLine
 10
151.6897078178007
 20
90.20934456231157
 30
0.0
 11
152.6897083178006
 21
90.20934456231157
 31
0.0
  0
LINE
  5
C4
330
15
100
AcDbEntity
  8
4
100
AcDbLine
 10
152.6897083178006
 20
96.20934456231157
 30
0.0
 11
151.6897078178007
 21
96.20934456231157
 31
0.0
  0
LINE
  5
C5
330
15
100
AcDbEntity
  8
4
100
AcDbLine
 10
151.6897078178007
 20
99.70932906231161
 30
0.0
 11
150.1897078178007
 21
99.70932906231161
 31
0.0
  0
LINE
  5
C6
330
15
100
AcDbEntity
  8
4
100
AcDbLine
 10
153.6897088178007
 20
95.2093440623116
 30
0.0
 11
153.6897088178007
 21
91.20934356231163
 31
0.0
  0
ARC
  5
C7
330
15
100
AcDbEntity
  8
4
100
AcDbCircle
 10
152.6897083178006
 20
91.20934356231163
 30
0.0
 40
1.0000005
100
AcDbArc
 50
270.0
 51
0.0
  0
ARC
  5
C8
330
15
100
AcDbEntity
  8
4
100
AcDbCircle
 10
152.6897083178006
 20
95.2093440623116
 30
0.0
 40
1.0000005
100
AcDbArc
 50
0.0
 51
90.0
  0
LINE
  5
C9
330
15
100
AcDbEntity
  8
4
100
AcDbLine
 10
151.7905048178006
 20
126.2091765623116
 30
0.0
 11
151.6897078178007
 21
126.2091765623116
 31
0.0
  0
LINE
  5
CA
330
15
100
AcDbEntity
  8
4
100
AcDbLine
 10
151.6897078178007
 20
122.7091755623116
 30
0.0
 11
150.1897078178007
 21
122.7091755623116
 31
0.0
  0
ARC
  5
CB
330
15
100
AcDbEntity
  8
4
100
AcDbCircle
 10
195.5019628178006
 20
97.02169056231162
 30
0.0
 40
3.0
100
AcDbArc
 50
193.8304299999992
 51
256.1698709999997
  0
ARC
  5
CC
330
15
100
AcDbEntity
  8
4
100
AcDbCircle
 10
197.1184198178006
 20
98.6383455623116
 30
0.0
 40
2.9999985
100
AcDbArc
 50
192.8489500000003
 51
257.1516080000007
  0
LINE
  5
CD
330
15
100
AcDbEntity
  8
4
100
AcDbLine
 10
155.6364283178007
 20
147.7091760623116
 30
0.0
 11
150.6897088178007
 21
147.7091760623116
 31
0.0
  0
LINE
  5
CE
330
15
100
AcDbEntity
  8
4
100
AcDbLine
 10
149.6897083178006
 20
156.7091760623116
 30
0.0
 11
150.6897088178007
 21
156.7091760623116
 31
0.0
  0
ARC
  5
CF
330
15
100
AcDbEntity
  8
4
100
AcDbCircle
 10
195.5019628178006
 20
143.3969205623116
 30
0.0
 40
3.0000195
100
AcDbArc
 50
103.8301290000002
 51
166.171554
  0
ARC
  5
D0
330
15
100
AcDbEntity
  8
4
100
AcDbCircle
 10
197.1184198178006
 20
141.7802205623116
 30
0.0
 40
2.9999745
100
AcDbArc
 50
102.8492730000006
 51
167.149355
  0
TEXT
  5
D2
330
15
100
AcDbEntity
  8
3
100
AcDbText
 10
319.6522417702871
 20
28.13290068193189
 30
0.0
 40
4.684553993753926
  1
LB1.5-08
  7
KANJI
100
AcDbText
  0
ARC
  5
D3
330
15
100
AcDbEntity
  8
4
100
AcDbCircle
 10
278.6102053178007
 20
74.2093440623116
 30
0.0
 40
3.0
100
AcDbArc
 50
162.5032019999999
 51
270.0
  0
LINE
  5
D4
330
15
100
AcDbEntity
  8
4
100
AcDbLine
 10
282.6892648178007
 20
120.2091765623116
 30
0.0
 11
282.6892648178007
 21
73.20934356231163
 31
0.0
  0
LINE
  5
D5
330
15
100
AcDbEntity
  8
L-CENTER
 48
0.5
100
AcDbLine
 10
293.6892658178007
 20
78.2093440623116
 30
0.0
 11
293.6892658178007
 21
43.2093440623116
 31
0.0
  0
LINE
  5
D6
330
15
100
AcDbEntity
  8
4
100
AcDbLine
 10
269.1892648178007
 20
50.2093440623116
 30
0.0
 11
306.1892653178006
 21
50.2093440623116
 31
0.0
  0
ARC
  5
D7
330
15
100
AcDbEntity
  8
4
100
AcDbCircle
 10
268.1892658178007
 20
56.26120356231161
 30
0.0
 40
3.0
100
AcDbArc
 50
0.0
 51
97.05535999999952
  0
ARC
  5
D8
330
15
100
AcDbEntity
  8
4
100
AcDbCircle
 10
274.1892658178007
 20
68.2093440623116
 30
0.0
 40
3.0
100
AcDbArc
 50
90.0
 51
180.0
  0
LINE
  5
DB
330
15
100
AcDbEntity
  8
4
100
AcDbLine
 10
271.1892658178007
 20
68.2093440623116
 30
0.0
 11
271.1892658178007
 21
50.2093440623116
 31
0.0
  0
LINE
  5
DC
330
15
100
AcDbEntity
  8
4
100
AcDbLine
 10
269.1892648178007
 20
53.2093440623116
 30
0.0
 11
269.1892648178007
 21
50.2093440623116
 31
0.0
  0
ARC
  5
DD
330
15
100
AcDbEntity
  8
4
100
AcDbCircle
 10
266.1892648178007
 20
53.2093440623116
 30
0.0
 40
3.0
100
AcDbArc
 50
0.0
 51
90.0
  0
ARC
  5
E0
330
15
100
AcDbEntity
  8
4
100
AcDbCircle
 10
303.1892653178006
 20
68.2093440623116
 30
0.0
 40
3.0
100
AcDbArc
 50
0.0
 51
90.0
  0
LINE
  5
E5
330
15
100
AcDbEntity
  8
4
100
AcDbLine
 10
303.1892653178006
 20
71.2093440623116
 30
0.0
 11
274.1892658178007
 21
71.2093440623116
 31
0.0
  0
LWPOLYLINE
  5
E6
330
15
100
AcDbEntity
  8
4
100
AcDbPolyline
 90
       35
 70
     0
 43
0.0
 10
279.0744673178007
 20
71.2093440623116
 10
279.0576433178007
 20
70.76713056231162
 10
279.0449548178007
 20
70.32591756231159
 10
279.0387283178007
 20
69.88626756231162
 10
279.0821113178007
 20
68.58232506231158
 10
279.2674873178006
 20
67.3127205623116
 10
279.3716998178006
 20
66.89977656231162
 10
279.5010043178007
 20
66.4929015623116
 10
279.6577288178006
 20
66.09265656231162
 10
279.8436163178006
 20
65.6966040623116
 10
280.0504123178007
 20
65.30597256231158
 10
280.2688813178006
 20
64.9188975623116
 10
280.9019383178006
 20
63.76032156231162
 10
281.0747173178006
 20
63.36878856231161
 10
281.2129783178007
 20
62.97147156231159
 10
281.3074873178007
 20
62.5665030623116
 10
281.3515543178007
 20
62.1668025623116
 10
281.3558068178007
 20
61.75958256231158
 10
281.3298778178007
 20
61.34620206231162
 10
281.1673318178007
 20
60.08272956231161
 10
281.1170053178007
 20
59.65833306231161
 10
281.0846608178007
 20
59.23458756231162
 10
281.0799328178007
 20
58.8128535623116
 10
281.1216013178007
 20
58.29547656231162
 10
281.2080958178007
 20
57.78260106231158
 10
281.3272543178007
 20
57.27356556231157
 10
281.7590863178007
 20
55.76289156231158
 10
281.8872718178006
 20
55.26260856231158
 10
281.9873083178006
 20
54.76286106231157
 10
282.0470323178006
 20
54.26298756231159
 10
282.0401233178006
 20
53.4548760623116
 10
281.9212168178007
 20
52.64508606231161
 10
281.7149788178007
 20
51.83398656231162
 10
281.4460768178006
 20
51.02194956231162
 10
281.1391738178006
 20
50.2093440623116
  0
ARC
  5
E7
330
15
100
AcDbEntity
  8
4
100
AcDbCircle
 10
284.6892658178007
 20
73.20934356231163
 30
0.0
 40
1.9999995
100
AcDbArc
 50
180.0
 51
270.0
  0
LINE
  5
E8
330
15
100
AcDbEntity
  8
4
100
AcDbLine
 10
299.1892648178007
 20
71.2093440623116
 30
0.0
 11
299.1892648178007
 21
50.2093440623116
 31
0.0
  0
LINE
  5
E9
330
15
100
AcDbEntity
  8
4
100
AcDbLine
 10
288.1892653178006
 20
71.2093440623116
 30
0.0
 11
288.1892653178006
 21
50.2093440623116
 31
0.0
  0
LINE
  5
EC
330
15
100
AcDbEntity
  8
4
100
AcDbLine
 10
306.1892653178006
 20
68.2093440623116
 30
0.0
 11
306.1892653178006
 21
50.2093440623116
 31
0.0
  0
ARC
  5
F1
330
15
100
AcDbEntity
  8
4
100
AcDbCircle
 10
147.6894328178007
 20
120.2094195623116
 30
0.0
 40
100.000002
100
AcDbArc
 50
346.170649
 51
13.83034999999999
  0
ARC
  5
F2
330
15
100
AcDbEntity
  8
4
100
AcDbCircle
 10
145.6894333178006
 20
120.2094195623116
 30
0.0
 40
99.999993
100
AcDbArc
 50
347.15196
 51
12.84888399999998
  0
ARC
  5
F3
330
15
100
AcDbEntity
  8
4
100
AcDbCircle
 10
241.8771628178007
 20
97.02169056231162
 30
0.0
 40
3.0
100
AcDbArc
 50
283.8310550000002
 51
346.170496
  0
ARC
  5
F4
330
15
100
AcDbEntity
  8
4
100
AcDbCircle
 10
240.2605078178007
 20
98.6383455623116
 30
0.0
 40
3.0
100
AcDbArc
 50
282.8495910000005
 51
347.1519739999997
  0
ARC
  5
F5
330
15
100
AcDbEntity
  8
4
100
AcDbCircle
 10
240.2605243178007
 20
141.7802205623116
 30
0.0
 40
2.9999745
100
AcDbArc
 50
12.85064500000002
 51
77.15074599999964
  0
ARC
  5
F6
330
15
100
AcDbEntity
  8
4
100
AcDbCircle
 10
241.8771778178007
 20
143.3969205623116
 30
0.0
 40
3.0000195
100
AcDbArc
 50
13.82844100000011
 51
76.16985299999992
  0
ARC
  5
F7
330
15
100
AcDbEntity
  8
4
100
AcDbCircle
 10
-117.3110401821993
 20
120.2091765623116
 30
0.0
 40
399.99999
100
AcDbArc
 50
0.000035015129822
 51
8.24041300000001
  0
ARC
  5
F8
330
15
100
AcDbEntity
  8
4
100
AcDbCircle
 10
132.6889453178006
 20
120.2091765623116
 30
0.0
 40
149.9999955
100
AcDbArc
 50
342.5032019999999
 51
0.0
  0
LINE
  5
F9
330
15
100
AcDbEntity
  8
4
100
AcDbLine
 10
298.6894333178006
 20
172.2091755623115
 30
0.0
 11
332.6892658178006
 21
172.2091755623115
 31
0.0
  0
LINE
  5
FA
330
15
100
AcDbEntity
  8
4
100
AcDbLine
 10
286.6892653178006
 20
147.7091760623116
 30
0.0
 11
281.7425173178007
 21
147.7091760623116
 31
0.0
  0
LINE
  5
FB
330
15
100
AcDbEntity
  8
4
100
AcDbLine
 10
298.6894333178006
 20
171.7091760623116
 30
0.0
 11
287.6892658178007
 21
171.7091760623116
 31
0.0
  0
LINE
  5
FC
330
15
100
AcDbEntity
  8
4
100
AcDbLine
 10
287.6892658178007
 20
156.7091760623116
 30
0.0
 11
286.6892653178006
 21
156.7091760623116
 31
0.0
  0
LINE
  5
FD
330
15
100
AcDbEntity
  8
4
100
AcDbLine
 10
332.6892658178006
 20
172.2091755623115
 30
0.0
 11
333.6892648178007
 21
173.2091760623116
 31
0.0
  0
LINE
  5
FE
330
15
100
AcDbEntity
  8
4
100
AcDbLine
 10
454.199865492592
 20
91.20911856231157
 30
0.0
 11
464.1994984925922
 21
73.9365015623116
 31
0.0
  0
LINE
  5
109
330
15
100
AcDbEntity
  8
L-CENTER
 48
0.5
100
AcDbLine
 10
464.6994979925922
 20
43.2093440623116
 30
0.0
 11
464.6994979925922
 21
78.2093440623116
 31
0.0
  0
LINE
  5
10C
330
15
100
AcDbEntity
  8
4
100
AcDbLine
 10
449.6994979925922
 20
50.2093440623116
 30
0.0
 11
449.6994979925922
 21
68.2093440623116
 31
0.0
  0
ARC
  5
10D
330
15
100
AcDbEntity
  8
4
100
AcDbCircle
 10
452.6994979925922
 20
68.2093440623116
 30
0.0
 40
3.0
100
AcDbArc
 50
90.0
 51
180.0002860014283
  0
LINE
  5
110
330
15
100
AcDbEntity
  8
4
100
AcDbLine
 10
454.199865492592
 20
149.2092330623116
 30
0.0
 11
454.199865492592
 21
91.2093645623116
 31
0.0
  0
LINE
  5
111
330
15
100
AcDbEntity
  8
4
100
AcDbLine
 10
449.1994984925922
 20
147.2091765623117
 30
0.0
 11
449.1994984925922
 21
93.20941956231161
 31
0.0
  0
LINE
  5
118
330
15
100
AcDbEntity
  8
4
100
AcDbLine
 10
454.199865492592
 20
91.2093645623116
 30
0.0
 11
449.1994984925922
 21
93.20941956231161
 31
0.0
  0
LINE
  5
11A
330
15
100
AcDbEntity
  8
4
100
AcDbLine
 10
454.199865492592
 20
149.2092330623116
 30
0.0
 11
464.1994984925922
 21
166.4818515623116
 31
0.0
  0
LINE
  5
11B
330
15
100
AcDbEntity
  8
4
100
AcDbLine
 10
454.199865492592
 20
149.2092330623116
 30
0.0
 11
449.1994984925922
 21
147.2091765623117
 31
0.0
  0
LINE
  5
11C
330
15
100
AcDbEntity
  8
4
100
AcDbLine
 10
154.6897078178007
 20
213.7091760623116
 30
0.0
 11
282.6892648178007
 21
213.7091760623116
 31
0.0
  0
LINE
  5
11F
330
15
100
AcDbEntity
  8
L-CENTER
 48
0.5
100
AcDbLine
 10
98.99495413458396
 20
415.7969377109345
 30
0.0
 11
334.1781453614606
 21
415.7969377109345
 31
0.0
  0
LINE
  5
120
330
15
100
AcDbEntity
  8
4
100
AcDbLine
 10
152.6925224035979
 20
449.2969377109345
 30
0.0
 11
280.6925224035979
 21
449.2969377109345
 31
0.0
  0
LINE
  5
121
330
15
100
AcDbEntity
  8
4
100
AcDbLine
 10
152.6925224035979
 20
382.2969377109346
 30
0.0
 11
280.6925224035979
 21
382.2969377109345
 31
0.0
  0
LINE
  5
122
330
15
100
AcDbEntity
  8
4
100
AcDbLine
 10
226.189433817801
 20
380.2969377109346
 30
0.0
 11
275.6894338178004
 21
380.2969377109345
 31
0.0
  0
LINE
  5
123
330
15
100
AcDbEntity
  8
4
100
AcDbLine
 10
152.6925224035979
 20
450.2969377109345
 30
0.0
 11
280.6925224035979
 21
450.2969377109345
 31
0.0
  0
LINE
  5
124
330
15
100
AcDbEntity
  8
4
100
AcDbLine
 10
152.6925224035979
 20
381.2969377109346
 30
0.0
 11
225.189433817801
 21
381.2969377109346
 31
0.0
  0
LINE
  5
125
330
15
100
AcDbEntity
  8
4
100
AcDbLine
 10
276.6894338178004
 20
381.2969377109345
 30
0.0
 11
280.6925224035979
 21
381.2969377109345
 31
0.0
  0
LINE
  5
126
330
15
100
AcDbEntity
  8
2
100
AcDbLine
 10
153.6925224035979
 20
455.2969377109345
 30
0.0
 11
279.6925224035979
 21
455.2969377109345
 31
0.0
  0
LINE
  5
127
330
15
100
AcDbEntity
  8
4
100
AcDbLine
 10
153.6925224035979
 20
375.2969377109346
 30
0.0
 11
279.6925224035979
 21
375.2969377109347
 31
0.0
  0
LINE
  5
128
330
15
100
AcDbEntity
  8
4
100
AcDbLine
 10
187.6925224035979
 20
365.2969377109346
 30
0.0
 11
245.6925224035978
 21
365.2969377109347
 31
0.0
  0
LINE
  5
129
330
15
100
AcDbEntity
  8
4
100
AcDbLine
 10
189.6925224035979
 20
360.2969377109346
 30
0.0
 11
243.6925224035979
 21
360.2969377109347
 31
0.0
  0
LINE
  5
12A
330
15
100
AcDbEntity
  8
2
100
AcDbLine
 10
153.6925224035979
 20
455.5969377109344
 30
0.0
 11
279.692522403598
 21
455.5969377109344
 31
0.0
  0
LINE
  5
12B
330
15
100
AcDbEntity
  8
4
100
AcDbLine
 10
154.6925224035979
 20
464.1969377109345
 30
0.0
 11
278.692522403598
 21
464.1969377109345
 31
0.0
  0
LINE
  5
12C
330
15
100
AcDbEntity
  8
4
100
AcDbLine
 10
193.3113245571146
 20
465.1969377109345
 30
0.0
 11
240.4425224035981
 21
465.1969377109345
 31
0.0
  0
LINE
  5
12D
330
15
100
AcDbEntity
  8
4
100
AcDbLine
 10
193.1925224035979
 20
472.1969377109343
 30
0.0
 11
240.192522403598
 21
472.1969377109345
 31
0.0
  0
LINE
  5
12E
330
15
100
AcDbEntity
  8
4
100
AcDbLine
 10
190.413281623654
 20
471.1969377109345
 30
0.0
 11
242.9717631835418
 21
471.1969377109345
 31
0.0
  0
LINE
  5
132
330
15
100
AcDbEntity
  8
L-CENTER
 48
0.5
100
AcDbLine
 10
100.9918655487868
 20
180.2091765623117
 30
0.0
 11
336.3870020868146
 21
180.2091765623117
 31
0.0
  0
ARC
  5
133
330
15
100
AcDbEntity
  8
4
100
AcDbCircle
 10
218.6894638178007
 20
-215.7911144376884
 30
0.0
 40
399.9999885
100
AcDbArc
 50
81.759606
 51
98.240582
  0
LINE
  5
134
330
15
100
AcDbEntity
  8
4
100
AcDbLine
 10
129.1925224035979
 20
467.7969377109342
 30
0.0
 11
129.1925224035979
 21
423.7969372109344
 31
0.0
  0
LINE
  5
135
330
15
100
AcDbEntity
  8
4
100
AcDbLine
 10
152.6925224035979
 20
381.2969377109347
 30
0.0
 11
152.6925224035979
 21
450.2969377109345
 31
0.0
  0
LINE
  5
136
330
15
100
AcDbEntity
  8
4
100
AcDbLine
 10
148.6925224035979
 20
383.2969377109346
 30
0.0
 11
148.6925224035979
 21
448.2969377109345
 31
0.0
  0
LINE
  5
137
330
15
100
AcDbEntity
  8
4
100
AcDbLine
 10
147.6927969035978
 20
439.2969367109343
 30
0.0
 11
147.6927969035978
 21
392.2969372109345
 31
0.0
  0
LINE
  5
138
330
15
100
AcDbEntity
  8
L-CENTER
 48
0.5
100
AcDbLine
 10
181.6925224035979
 20
397.6302371050411
 30
0.0
 11
181.6925224035979
 21
433.9636383168278
 31
0.0
  0
LINE
  5
13A
330
15
100
AcDbEntity
  8
4
100
AcDbLine
 10
169.6894333178006
 20
214.7091765623117
 30
0.0
 11
197.6894338178006
 21
214.7091765623117
 31
0.0
  0
LINE
  5
13B
330
15
100
AcDbEntity
  8
4
100
AcDbLine
 10
172.1892193178006
 20
214.7094195623116
 30
0.0
 11
195.1892188178007
 21
214.7094195623116
 31
0.0
  0
LINE
  5
13C
330
15
100
AcDbEntity
  8
4
100
AcDbLine
 10
171.1892188178007
 20
216.2094195623116
 30
0.0
 11
196.1892193178006
 21
216.2094195623116
 31
0.0
  0
LINE
  5
13D
330
15
100
AcDbEntity
  8
4
100
AcDbLine
 10
171.1892188178007
 20
218.2094205623116
 30
0.0
 11
196.1892193178006
 21
218.2094205623116
 31
0.0
  0
LINE
  5
13E
330
15
100
AcDbEntity
  8
4
100
AcDbLine
 10
171.1892188178007
 20
222.2094195623116
 30
0.0
 11
196.1892193178006
 21
222.2094195623116
 31
0.0
  0
LINE
  5
13F
330
15
100
AcDbEntity
  8
4
100
AcDbLine
 10
150.6897088178007
 20
203.7091755623115
 30
0.0
 11
149.6897083178006
 21
203.7091755623115
 31
0.0
  0
LINE
  5
140
330
15
100
AcDbEntity
  8
4
100
AcDbLine
 10
154.6897078178007
 20
212.7091755623115
 30
0.0
 11
150.6897088178007
 21
212.7091755623115
 31
0.0
  0
LINE
  5
141
330
15
100
AcDbEntity
  8
4
100
AcDbLine
 10
171.1892188178007
 20
216.2094195623116
 30
0.0
 11
171.1892188178007
 21
222.2094195623116
 31
0.0
  0
ARC
  5
142
330
15
100
AcDbEntity
  8
4
100
AcDbCircle
 10
168.6894328178007
 20
214.7091765623117
 30
0.0
 40
1.0000005
100
AcDbArc
 50
270.0
 51
0.0
  0
LINE
  5
143
330
15
100
AcDbEntity
  8
4
100
AcDbLine
 10
169.6894333178006
 20
214.7091765623117
 30
0.0
 11
169.6894333178006
 21
214.7091765623117
 31
0.0
  0
LINE
  5
144
330
15
100
AcDbEntity
  8
4
100
AcDbLine
 10
172.1892193178006
 20
214.7094195623116
 30
0.0
 11
172.1892193178006
 21
216.2094195623116
 31
0.0
  0
LINE
  5
145
330
15
100
AcDbEntity
  8
L-CENTER
 48
0.5
100
AcDbLine
 10
183.6894328178007
 20
225.1662570623116
 30
0.0
 11
183.6894328178007
 21
211.0496715623116
 31
0.0
  0
LINE
  5
146
330
15
100
AcDbEntity
  8
4
100
AcDbLine
 10
177.4392193178006
 20
218.2094205623116
 30
0.0
 11
177.4392193178006
 21
222.2094195623116
 31
0.0
  0
LINE
  5
147
330
15
100
AcDbEntity
  8
4
100
AcDbLine
 10
189.9392188178007
 20
218.2094205623116
 30
0.0
 11
189.9392188178007
 21
222.2094195623116
 31
0.0
  0
LINE
  5
148
330
15
100
AcDbEntity
  8
4
100
AcDbLine
 10
196.1892193178006
 20
216.2094195623116
 30
0.0
 11
196.1892193178006
 21
222.2094195623116
 31
0.0
  0
ARC
  5
149
330
15
100
AcDbEntity
  8
4
100
AcDbCircle
 10
198.6894328178007
 20
214.7091765623117
 30
0.0
 40
1.0000005
100
AcDbArc
 50
180.0
 51
270.0
  0
LINE
  5
14A
330
15
100
AcDbEntity
  8
4
100
AcDbLine
 10
197.6894338178006
 20
214.7091765623117
 30
0.0
 11
197.6894338178006
 21
214.7091765623117
 31
0.0
  0
LINE
  5
14B
330
15
100
AcDbEntity
  8
4
100
AcDbLine
 10
195.1892188178007
 20
214.7094195623116
 30
0.0
 11
195.1892188178007
 21
216.2094195623116
 31
0.0
  0
LINE
  5
150
330
15
100
AcDbEntity
  8
L-CENTER
 48
0.5
100
AcDbLine
 10
130.0934291964245
 20
375.7969377109346
 30
0.0
 11
153.2916156107713
 21
375.7969377109346
 31
0.0
  0
LINE
  5
151
330
15
100
AcDbEntity
  8
4
100
AcDbLine
 10
132.1925224035979
 20
360.7969377109346
 30
0.0
 11
161.1925224035979
 21
360.7969377109346
 31
0.0
  0
CIRCLE
  5
152
330
15
100
AcDbEntity
  8
4
100
AcDbCircle
 10
141.6925224035979
 20
375.7969377109346
 30
0.0
 40
5.5
  0
LINE
  5
153
330
15
100
AcDbEntity
  8
L-CENTER
 48
0.5
100
AcDbLine
 10
141.6925224035979
 20
387.3960309181078
 30
0.0
 11
141.6925224035979
 21
364.1978445037612
 31
0.0
  0
ARC
  5
154
330
15
100
AcDbEntity
  8
4
100
AcDbCircle
 10
132.1925224035979
 20
363.7969377109346
 30
0.0
 40
3.0
100
AcDbArc
 50
180.0
 51
270.0
  0
LINE
  5
155
330
15
100
AcDbEntity
  8
4
100
AcDbLine
 10
187.6925224035979
 20
365.2969377109346
 30
0.0
 11
170.4197951308706
 21
375.2969377109346
 31
0.0
  0
LINE
  5
156
330
15
100
AcDbEntity
  8
4
100
AcDbLine
 10
164.1925224035979
 20
363.7969377109346
 30
0.0
 11
164.1925224035979
 21
375.2969377109346
 31
0.0
  0
ARC
  5
157
330
15
100
AcDbEntity
  8
4
100
AcDbCircle
 10
161.1925224035979
 20
363.7969377109346
 30
0.0
 40
3.0
100
AcDbArc
 50
270.0
 51
0.0
  0
LINE
  5
158
330
15
100
AcDbEntity
  8
4
100
AcDbLine
 10
148.6925224035979
 20
383.2969377109346
 30
0.0
 11
152.6925224035979
 21
383.2969377109345
 31
0.0
  0
LINE
  5
159
330
15
100
AcDbEntity
  8
4
100
AcDbLine
 10
153.6925224035979
 20
375.2969377109346
 30
0.0
 11
153.6925224035979
 21
381.2969377109347
 31
0.0
  0
LINE
  5
15A
330
15
100
AcDbEntity
  8
4
100
AcDbLine
 10
147.6927969035978
 20
392.2969372109345
 30
0.0
 11
148.6927974035979
 21
392.2969372109345
 31
0.0
  0
LINE
  5
15B
330
15
100
AcDbEntity
  8
4
100
AcDbLine
 10
192.4425224035988
 20
365.2969377109347
 30
0.0
 11
192.4425224035988
 21
375.2969377109346
 31
0.0
  0
LINE
  5
15C
330
15
100
AcDbEntity
  8
4
100
AcDbLine
 10
187.6925224035979
 20
365.2969377109346
 30
0.0
 11
189.6925224035979
 21
360.2969377109346
 31
0.0
  0
LINE
  5
15E
330
15
100
AcDbEntity
  8
L-CENTER
 48
0.5
100
AcDbLine
 10
130.0934291964245
 20
455.7969377109342
 30
0.0
 11
153.2916156107713
 21
455.7969377109342
 31
0.0
  0
LINE
  5
15F
330
15
100
AcDbEntity
  8
4
100
AcDbLine
 10
132.1925224035979
 20
470.7969377109342
 30
0.0
 11
161.1925224035979
 21
470.7969377109342
 31
0.0
  0
CIRCLE
  5
160
330
15
100
AcDbEntity
  8
4
100
AcDbCircle
 10
141.6925224035979
 20
455.7969377109342
 30
0.0
 40
5.5
  0
LWPOLYLINE
  5
161
330
15
100
AcDbEntity
  8
4
100
AcDbPolyline
 90
        2
 70
     0
 43
0.0
 10
146.192797403598
 20
426.62225525824
 10
141.192797403598
 20
426.62225525824
  0
LWPOLYLINE
  5
162
330
15
100
AcDbEntity
  8
4
100
AcDbPolyline
 90
        2
 70
     0
 43
0.0
 10
141.192797403598
 20
404.9716201636289
 10
146.192797403598
 20
404.9716201636289
  0
LINE
  5
163
330
15
100
AcDbEntity
  8
L-CENTER
 48
0.5
100
AcDbLine
 10
141.6925224035979
 20
467.3960309181076
 30
0.0
 11
141.6925224035979
 21
444.1978445037608
 31
0.0
  0
LINE
  5
164
330
15
100
AcDbEntity
  8
4
100
AcDbLine
 10
141.192797403598
 20
404.9716201636289
 30
0.0
 11
141.192797403598
 21
407.2969372109344
 31
0.0
  0
ARC
  5
165
330
15
100
AcDbEntity
  8
4
100
AcDbCircle
 10
132.1925224035979
 20
467.7969377109342
 30
0.0
 40
3.0
100
AcDbArc
 50
90.0
 51
180.0
  0
LINE
  5
166
330
15
100
AcDbEntity
  8
4
100
AcDbLine
 10
153.6925224035979
 20
450.2969377109345
 30
0.0
 11
153.6925224035979
 21
463.1969377109345
 31
0.0
  0
LINE
  5
167
330
15
100
AcDbEntity
  8
L-CENTER
 48
0.5
100
AcDbLine
 10
160.6925224035976
 20
471.9179886553321
 30
0.0
 11
160.6925224035976
 21
449.7973470646378
 31
0.0
  0
LINE
  5
168
330
15
100
AcDbEntity
  8
L-CENTER
 48
0.5
100
AcDbLine
 10
188.6925224035976
 20
471.9179886553321
 30
0.0
 11
188.6925224035976
 21
449.7973470646378
 31
0.0
  0
CIRCLE
  5
169
330
15
100
AcDbEntity
  8
4
100
AcDbCircle
 10
181.6925224035979
 20
415.7969377109345
 30
0.0
 40
14.0
  0
CIRCLE
  5
16A
330
15
100
AcDbEntity
  8
4
100
AcDbCircle
 10
181.6925224035979
 20
415.7969377109345
 30
0.0
 40
12.5
  0
LWPOLYLINE
  5
16B
330
15
100
AcDbEntity
  8
4
100
AcDbPolyline
 90
        6
 70
     1
 43
0.0
 10
169.1925224035979
 20
415.7969377109345
 10
175.4425224035979
 20
404.9716201636289
 10
187.9425224035979
 20
404.9716201636289
 10
194.1925224035979
 20
415.7969377109345
 10
187.9425224035979
 20
426.62225525824
 10
175.4425224035979
 20
426.62225525824
  0
LINE
  5
16C
330
15
100
AcDbEntity
  8
4
100
AcDbLine
 10
146.192797403598
 20
403.2969377109345
 30
0.0
 11
146.192797403598
 21
407.2969372109344
 31
0.0
  0
LINE
  5
16D
330
15
100
AcDbEntity
  8
4
100
AcDbLine
 10
146.192797403598
 20
403.2969377109345
 30
0.0
 11
147.6927969035978
 21
403.2969377109345
 31
0.0
  0
LINE
  5
16E
330
15
100
AcDbEntity
  8
4
100
AcDbLine
 10
146.1927974035981
 20
428.2969377109345
 30
0.0
 11
147.6927969035978
 21
428.2969377109345
 31
0.0
  0
LINE
  5
16F
330
15
100
AcDbEntity
  8
4
100
AcDbLine
 10
148.6925224035979
 20
448.2969377109345
 30
0.0
 11
152.6925224035979
 21
448.2969377109345
 31
0.0
  0
LINE
  5
170
330
15
100
AcDbEntity
  8
4
100
AcDbLine
 10
148.6927974035979
 20
439.2969367109343
 30
0.0
 11
147.6927969035978
 21
439.2969367109343
 31
0.0
  0
LINE
  5
171
330
15
100
AcDbEntity
  8
4
100
AcDbLine
 10
167.1925224035979
 20
465.1969377109345
 30
0.0
 11
184.4425224035976
 21
465.1969377109345
 31
0.0
  0
LINE
  5
172
330
15
100
AcDbEntity
  8
4
100
AcDbLine
 10
164.9425224035976
 20
465.4969377109345
 30
0.0
 11
156.4425224035976
 21
465.4969377109345
 31
0.0
  0
LINE
  5
173
330
15
100
AcDbEntity
  8
4
100
AcDbLine
 10
164.9425224035976
 20
470.4969377109345
 30
0.0
 11
156.4425224035976
 21
470.4969377109345
 31
0.0
  0
LINE
  5
174
330
15
100
AcDbEntity
  8
4
100
AcDbLine
 10
156.4425224035976
 20
470.4969377109345
 30
0.0
 11
156.4425224035976
 21
464.1969377109345
 31
0.0
  0
ARC
  5
175
330
15
100
AcDbEntity
  8
4
100
AcDbCircle
 10
154.6925224035979
 20
463.1969377109345
 30
0.0
 40
1.0
100
AcDbArc
 50
90.0
 51
180.0
  0
LINE
  5
176
330
15
100
AcDbEntity
  8
4
100
AcDbLine
 10
164.9425224035976
 20
470.4969377109345
 30
0.0
 11
164.9425224035976
 21
464.1969377109345
 31
0.0
  0
LINE
  5
177
330
15
100
AcDbEntity
  8
4
100
AcDbLine
 10
167.1925224035979
 20
464.1969377109345
 30
0.0
 11
167.1925224035979
 21
465.1969377109345
 31
0.0
  0
ARC
  5
178
330
15
100
AcDbEntity
  8
4
100
AcDbCircle
 10
161.1925224035979
 20
467.7969377109342
 30
0.0
 40
3.0
100
AcDbArc
 50
64.15806723684081
 51
90.0
  0
LINE
  5
17A
330
15
100
AcDbEntity
  8
4
100
AcDbLine
 10
192.9425224035976
 20
465.4969377109345
 30
0.0
 11
184.4425224035976
 21
465.4969377109345
 31
0.0
  0
LINE
  5
17B
330
15
100
AcDbEntity
  8
4
100
AcDbLine
 10
192.9425224035976
 20
470.4969377109345
 30
0.0
 11
184.4425224035976
 21
470.4969377109345
 31
0.0
  0
ARC
  5
17C
330
15
100
AcDbEntity
  8
4
100
AcDbCircle
 10
190.413281623654
 20
470.1969377109345
 30
0.0
 40
1.0
100
AcDbArc
 50
90.0
 51
161.5650511770857
  0
LINE
  5
17D
330
15
100
AcDbEntity
  8
4
100
AcDbLine
 10
184.4425224035976
 20
470.4969377109345
 30
0.0
 11
184.4425224035976
 21
464.1969377109345
 31
0.0
  0
LINE
  5
17E
330
15
100
AcDbEntity
  8
4
100
AcDbLine
 10
177.4686820583123
 20
464.1969377109343
 30
0.0
 11
184.4425224035976
 21
464.8755803731364
 31
0.0
  0
LINE
  5
17F
330
15
100
AcDbEntity
  8
4
100
AcDbLine
 10
189.4645983256034
 20
470.5131654769513
 30
0.0
 11
189.4591890702645
 21
470.4969377109345
 31
0.0
  0
LINE
  5
180
330
15
100
AcDbEntity
  8
4
100
AcDbLine
 10
192.9425224035976
 20
470.4969377109345
 30
0.0
 11
192.9425224035976
 21
464.1969377109345
 31
0.0
  0
LINE
  5
181
330
15
100
AcDbEntity
  8
4
100
AcDbLine
 10
193.1925224035979
 20
472.1969377109343
 30
0.0
 11
193.1925224035979
 21
471.1969377109348
 31
0.0
  0
LINE
  5
185
330
15
100
AcDbEntity
  8
L-CENTER
 48
0.5
100
AcDbLine
 10
216.6925224035979
 20
306.5692082820234
 30
0.0
 11
216.6925224035979
 21
476.6292176865295
 31
0.0
  0
LINE
  5
186
330
15
100
AcDbEntity
  8
4
100
AcDbLine
 10
280.6925224035979
 20
381.2969377109346
 30
0.0
 11
280.6925224035979
 21
450.2969377109345
 31
0.0
  0
LINE
  5
187
330
15
100
AcDbEntity
  8
4
100
AcDbLine
 10
284.6925224035979
 20
383.2969377109345
 30
0.0
 11
284.6925224035979
 21
448.2969377109347
 31
0.0
  0
LINE
  5
188
330
15
100
AcDbEntity
  8
4
100
AcDbLine
 10
285.6923544035978
 20
439.2969367109343
 30
0.0
 11
285.6923544035978
 21
392.2969372109345
 31
0.0
  0
LINE
  5
189
330
15
100
AcDbEntity
  8
4
100
AcDbLine
 10
304.1925224035979
 20
407.7969367109343
 30
0.0
 11
304.1925224035976
 21
363.7969377109346
 31
0.0
  0
LINE
  5
192
330
15
100
AcDbEntity
  8
4
100
AcDbLine
 10
301.6894333178006
 20
190.2091755623115
 30
0.0
 11
333.6892648178007
 21
190.2091755623115
 31
0.0
  0
LINE
  5
193
330
15
100
AcDbEntity
  8
4
100
AcDbLine
 10
298.6894333178006
 20
188.2091760623116
 30
0.0
 11
332.6892658178006
 21
188.2091760623116
 31
0.0
  0
LINE
  5
196
330
15
100
AcDbEntity
  8
4
100
AcDbLine
 10
287.6892658178007
 20
188.7091755623115
 30
0.0
 11
298.6894333178006
 21
188.7091755623115
 31
0.0
  0
LINE
  5
197
330
15
100
AcDbEntity
  8
4
100
AcDbLine
 10
286.6892653178006
 20
203.7091755623115
 30
0.0
 11
287.6892658178007
 21
203.7091755623115
 31
0.0
  0
LINE
  5
198
330
15
100
AcDbEntity
  8
4
100
AcDbLine
 10
301.6894333178006
 20
190.2091755623115
 30
0.0
 11
301.6894333178006
 21
188.2091760623116
 31
0.0
  0
LINE
  5
199
330
15
100
AcDbEntity
  8
4
100
AcDbLine
 10
282.6892648178007
 20
212.7091755623115
 30
0.0
 11
286.6892653178006
 21
212.7091755623115
 31
0.0
  0
LINE
  5
19C
330
15
100
AcDbEntity
  8
4
100
AcDbLine
 10
333.6892648178007
 20
187.2091755623115
 30
0.0
 11
332.6892658178006
 21
188.2091760623116
 31
0.0
  0
ARC
  5
1A2
330
15
100
AcDbEntity
  8
4
100
AcDbCircle
 10
272.1925224035976
 20
363.7969377109349
 30
0.0
 40
3.0
100
AcDbArc
 50
180.0
 51
270.0
  0
LINE
  5
1A3
330
15
100
AcDbEntity
  8
4
100
AcDbLine
 10
269.1925224035976
 20
363.7969377109349
 30
0.0
 11
269.1925224035976
 21
375.2969377109347
 31
0.0
  0
LINE
  5
1A4
330
15
100
AcDbEntity
  8
4
100
AcDbLine
 10
245.6925224035979
 20
365.2969377109347
 30
0.0
 11
262.965249676325
 21
375.2969377109347
 31
0.0
  0
LINE
  5
1A5
330
15
100
AcDbEntity
  8
4
100
AcDbLine
 10
240.9425224035972
 20
365.2969377109348
 30
0.0
 11
240.9425224035972
 21
375.2969377109347
 31
0.0
  0
LINE
  5
1A6
330
15
100
AcDbEntity
  8
4
100
AcDbLine
 10
245.6925224035979
 20
365.2969377109346
 30
0.0
 11
243.6925224035979
 21
360.2969377109346
 31
0.0
  0
LINE
  5
1A7
330
15
100
AcDbEntity
  8
L-CENTER
 48
0.5
100
AcDbLine
 10
280.0934291964245
 20
375.7969377109346
 30
0.0
 11
303.2916156107713
 21
375.7969377109346
 31
0.0
  0
ARC
  5
1A8
330
15
100
AcDbEntity
  8
4
100
AcDbCircle
 10
301.1925224035976
 20
363.7969377109346
 30
0.0
 40
3.0
100
AcDbArc
 50
270.0
 51
0.0
  0
CIRCLE
  5
1A9
330
15
100
AcDbEntity
  8
4
100
AcDbCircle
 10
291.6925224035979
 20
375.7969377109346
 30
0.0
 40
5.5
  0
LINE
  5
1AA
330
15
100
AcDbEntity
  8
L-CENTER
 48
0.5
100
AcDbLine
 10
291.6925224035979
 20
387.3960309181078
 30
0.0
 11
291.6925224035979
 21
364.1978445037612
 31
0.0
  0
LINE
  5
1AB
330
15
100
AcDbEntity
  8
4
100
AcDbLine
 10
272.1925224035976
 20
360.7969377109349
 30
0.0
 11
301.1925224035976
 21
360.7969377109346
 31
0.0
  0
LINE
  5
1AC
330
15
100
AcDbEntity
  8
4
100
AcDbLine
 10
280.6925224035979
 20
383.2969377109345
 30
0.0
 11
284.6925224035979
 21
383.2969377109345
 31
0.0
  0
LINE
  5
1AD
330
15
100
AcDbEntity
  8
4
100
AcDbLine
 10
279.6925224035979
 20
375.2969377109347
 30
0.0
 11
279.6925224035979
 21
381.2969377109346
 31
0.0
  0
LINE
  5
1AE
330
15
100
AcDbEntity
  8
4
100
AcDbLine
 10
285.6923544035978
 20
392.2969372109345
 30
0.0
 11
284.6923539035978
 21
392.2969372109345
 31
0.0
  0
ARC
  5
1BA
330
15
100
AcDbEntity
  8
4
100
AcDbCircle
 10
465.1994989925921
 20
182.2091760623116
 30
0.0
 40
1.0000005
100
AcDbArc
 50
90.0
 51
180.0
  0
LINE
  5
1BB
330
15
100
AcDbEntity
  8
4
100
AcDbLine
 10
470.1994984925922
 20
183.2091765623117
 30
0.0
 11
465.1994989925921
 21
183.2091765623117
 31
0.0
  0
LINE
  5
1C2
330
15
100
AcDbEntity
  8
4
100
AcDbLine
 10
268.4425224035981
 20
465.4969377109345
 30
0.0
 11
276.9425224035981
 21
465.4969377109345
 31
0.0
  0
LINE
  5
1C3
330
15
100
AcDbEntity
  8
4
100
AcDbLine
 10
268.4425224035981
 20
470.4969377109345
 30
0.0
 11
276.9425224035981
 21
470.4969377109345
 31
0.0
  0
LINE
  5
1C4
330
15
100
AcDbEntity
  8
L-CENTER
 48
0.5
100
AcDbLine
 10
244.6925224035981
 20
471.9179886553321
 30
0.0
 11
244.6925224035981
 21
449.7973470646378
 31
0.0
  0
LINE
  5
1C8
330
15
100
AcDbEntity
  8
4
100
AcDbLine
 10
255.9163627488841
 20
464.1969377109343
 30
0.0
 11
248.9425224035981
 21
464.8755803731361
 31
0.0
  0
LINE
  5
1C9
330
15
100
AcDbEntity
  8
4
100
AcDbLine
 10
240.4425224035981
 20
470.4969377109345
 30
0.0
 11
240.4425224035981
 21
464.1969377109345
 31
0.0
  0
LINE
  5
1CA
330
15
100
AcDbEntity
  8
4
100
AcDbLine
 10
248.9425224035981
 20
470.4969377109345
 30
0.0
 11
248.9425224035981
 21
464.1969377109345
 31
0.0
  0
LINE
  5
1CB
330
15
100
AcDbEntity
  8
4
100
AcDbLine
 10
240.4425224035981
 20
470.4969377109345
 30
0.0
 11
248.9425224035981
 21
470.4969377109345
 31
0.0
  0
LINE
  5
1CC
330
15
100
AcDbEntity
  8
4
100
AcDbLine
 10
240.4425224035981
 20
465.4969377109345
 30
0.0
 11
248.9425224035981
 21
465.4969377109345
 31
0.0
  0
LINE
  5
1CD
330
15
100
AcDbEntity
  8
4
100
AcDbLine
 10
243.9204464815923
 20
470.5131654769513
 30
0.0
 11
243.9258557369312
 21
470.4969377109345
 31
0.0
  0
LINE
  5
1CE
330
15
100
AcDbEntity
  8
4
100
AcDbLine
 10
240.192522403598
 20
472.1969377109345
 30
0.0
 11
240.192522403598
 21
471.1969377109345
 31
0.0
  0
ARC
  5
1CF
330
15
100
AcDbEntity
  8
4
100
AcDbCircle
 10
242.9717631835418
 20
470.1969377109345
 30
0.0
 40
1.0
100
AcDbArc
 50
18.43494882291427
 51
90.0
  0
LINE
  5
1D0
330
15
100
AcDbEntity
  8
4
100
AcDbLine
 10
243.9204464815924
 20
470.5131654769513
 30
0.0
 11
243.9258557369313
 21
470.4969377109345
 31
0.0
  0
LINE
  5
1D1
330
15
100
AcDbEntity
  8
4
100
AcDbLine
 10
268.4425224035981
 20
470.4969377109345
 30
0.0
 11
268.4425224035981
 21
464.1969377109345
 31
0.0
  0
LINE
  5
1D2
330
15
100
AcDbEntity
  8
L-CENTER
 48
0.5
100
AcDbLine
 10
272.6925224035981
 20
471.9179886553321
 30
0.0
 11
272.6925224035981
 21
449.7973470646378
 31
0.0
  0
LINE
  5
1D3
330
15
100
AcDbEntity
  8
4
100
AcDbLine
 10
304.1925224035979
 20
467.7969377109342
 30
0.0
 11
304.1925224035979
 21
423.7969372109345
 31
0.0
  0
CIRCLE
  5
1D4
330
15
100
AcDbEntity
  8
4
100
AcDbCircle
 10
291.6925224035979
 20
455.7969377109342
 30
0.0
 40
5.5
  0
LINE
  5
1D5
330
15
100
AcDbEntity
  8
L-CENTER
 48
0.5
100
AcDbLine
 10
291.6925224035979
 20
467.3960309181076
 30
0.0
 11
291.6925224035979
 21
444.1978445037608
 31
0.0
  0
LINE
  5
1D6
330
15
100
AcDbEntity
  8
4
100
AcDbLine
 10
279.6925224035979
 20
450.2969377109345
 30
0.0
 11
279.6925224035978
 21
463.1969377109345
 31
0.0
  0
LINE
  5
1D7
330
15
100
AcDbEntity
  8
4
100
AcDbLine
 10
296.6925219035978
 20
423.7969372109345
 30
0.0
 11
330.6923544035978
 21
423.7969372109345
 31
0.0
  0
LINE
  5
1D8
330
15
100
AcDbEntity
  8
4
100
AcDbLine
 10
296.6925219035978
 20
407.7969367109343
 30
0.0
 11
330.6923544035978
 21
407.7969367109343
 31
0.0
  0
ARC
  5
1D9
330
15
100
AcDbEntity
  8
4
100
AcDbCircle
 10
302.1925219035978
 20
415.7969377109345
 30
0.0
 40
2.5
100
AcDbArc
 50
90.0
 51
270.0
  0
LINE
  5
1DA
330
15
100
AcDbEntity
  8
4
100
AcDbLine
 10
285.6923544035978
 20
424.2969367109343
 30
0.0
 11
296.6925219035978
 21
424.2969367109343
 31
0.0
  0
LINE
  5
1DB
330
15
100
AcDbEntity
  8
4
100
AcDbLine
 10
296.6925219035978
 20
407.2969372109345
 30
0.0
 11
285.6923544035978
 21
407.2969372109345
 31
0.0
  0
LINE
  5
1DC
330
15
100
AcDbEntity
  8
4
100
AcDbLine
 10
296.6925219035978
 20
424.2969367109343
 30
0.0
 11
296.6925219035978
 21
407.2969372109345
 31
0.0
  0
LINE
  5
1DD
330
15
100
AcDbEntity
  8
4
100
AcDbLine
 10
280.6925224035979
 20
448.2969377109345
 30
0.0
 11
284.6925224035979
 21
448.2969377109347
 31
0.0
  0
LINE
  5
1DE
330
15
100
AcDbEntity
  8
4
100
AcDbLine
 10
284.6923539035978
 20
439.2969367109343
 30
0.0
 11
285.6923544035978
 21
439.2969367109343
 31
0.0
  0
LINE
  5
1DF
330
15
100
AcDbEntity
  8
4
100
AcDbLine
 10
302.1925219035978
 20
418.2969377109347
 30
0.0
 11
331.692353403598
 21
418.2969377109347
 31
0.0
  0
LINE
  5
1E0
330
15
100
AcDbEntity
  8
4
100
AcDbLine
 10
302.1925219035978
 20
413.2969377109347
 30
0.0
 11
331.692353403598
 21
413.2969377109347
 31
0.0
  0
LINE
  5
1E1
330
15
100
AcDbEntity
  8
4
100
AcDbLine
 10
330.6923544035978
 20
413.2969377109345
 30
0.0
 11
330.6923544035978
 21
407.7969367109343
 31
0.0
  0
LINE
  5
1E2
330
15
100
AcDbEntity
  8
4
100
AcDbLine
 10
331.6923534035977
 20
422.7969367109343
 30
0.0
 11
331.692353403598
 21
408.7969372109345
 31
0.0
  0
LINE
  5
1E3
330
15
100
AcDbEntity
  8
4
100
AcDbLine
 10
330.6923544035978
 20
407.7969367109343
 30
0.0
 11
331.692353403598
 21
408.7969372109345
 31
0.0
  0
LINE
  5
1E4
330
15
100
AcDbEntity
  8
4
100
AcDbLine
 10
330.6923544035978
 20
423.7969372109345
 30
0.0
 11
330.6923544035978
 21
418.2969377109345
 31
0.0
  0
LINE
  5
1E5
330
15
100
AcDbEntity
  8
4
100
AcDbLine
 10
331.692353403598
 20
422.7969367109343
 30
0.0
 11
330.6923544035978
 21
423.7969372109345
 31
0.0
  0
LINE
  5
1E6
330
15
100
AcDbEntity
  8
L-CENTER
 48
0.5
100
AcDbLine
 10
280.0934291964245
 20
455.7969377109342
 30
0.0
 11
303.2916156107713
 21
455.7969377109342
 31
0.0
  0
ARC
  5
1E7
330
15
100
AcDbEntity
  8
4
100
AcDbCircle
 10
301.1925224035979
 20
467.7969377109342
 30
0.0
 40
3.0
100
AcDbArc
 50
0.0
 51
90.0
  0
LINE
  5
1E8
330
15
100
AcDbEntity
  8
4
100
AcDbLine
 10
272.1925224035976
 20
470.7969377109342
 30
0.0
 11
301.1925224035979
 21
470.7969377109342
 31
0.0
  0
LINE
  5
1E9
330
15
100
AcDbEntity
  8
4
100
AcDbLine
 10
276.9425224035981
 20
470.4969377109345
 30
0.0
 11
276.9425224035981
 21
464.1969377109345
 31
0.0
  0
ARC
  5
1EA
330
15
100
AcDbEntity
  8
4
100
AcDbCircle
 10
278.6925224035979
 20
463.1969377109345
 30
0.0
 40
1.0
100
AcDbArc
 50
0.0
 51
90.0
  0
ARC
  5
1EB
330
15
100
AcDbEntity
  8
4
100
AcDbCircle
 10
272.1925224035976
 20
467.7969377109342
 30
0.0
 40
3.0
100
AcDbArc
 50
90.0
 51
115.8419327631544
  0
LINE
  5
1EE
330
15
100
AcDbEntity
  8
4
100
AcDbLine
 10
538.1994979925922
 20
180.2091765623117
 30
0.0
 11
538.1994979925922
 21
78.20934456231157
 31
0.0
  0
LINE
  5
1EF
330
15
100
AcDbEntity
  8
4
100
AcDbLine
 10
471.1994989925921
 20
180.2091765623117
 30
0.0
 11
471.1994989925921
 21
78.20934456231157
 31
0.0
  0
LINE
  5
1F0
330
15
100
AcDbEntity
  8
4
100
AcDbLine
 10
539.1994984925922
 20
74.60379306231161
 30
0.0
 11
539.1994984925922
 21
184.2091755623115
 31
0.0
  0
LINE
  5
1F1
330
15
100
AcDbEntity
  8
4
100
AcDbLine
 10
544.1994979925922
 20
71.2093440623116
 30
0.0
 11
544.1994979925922
 21
183.2091765623117
 31
0.0
  0
LINE
  5
1F2
330
15
100
AcDbEntity
  8
L-CENTER
 48
0.5
100
AcDbLine
 10
504.6994984925922
 20
226.2765060623116
 30
0.0
 11
504.6994984925922
 21
46.43667756231162
 31
0.0
  0
LINE
  5
1F3
330
15
100
AcDbEntity
  8
4
100
AcDbLine
 10
553.0994014925922
 20
71.2093440623116
 30
0.0
 11
553.0994014925922
 21
182.2091760623116
 31
0.0
  0
CIRCLE
  5
1F4
330
15
100
AcDbEntity
  8
4
100
AcDbCircle
 10
504.6994984925922
 20
180.2091765623117
 30
0.0
 40
32.5000005
  0
CIRCLE
  5
1F5
330
15
100
AcDbEntity
  8
4
100
AcDbCircle
 10
504.6994984925922
 20
180.2091765623117
 30
0.0
 40
23.5000005
  0
ARC
  5
1F6
330
15
100
AcDbEntity
  8
4
100
AcDbCircle
 10
504.6994984925922
 20
180.2091765623117
 30
0.0
 40
8.000022
100
AcDbArc
 50
108.209906
 51
71.790094
  0
LINE
  5
1FC
330
15
100
AcDbEntity
  8
4
100
AcDbLine
 10
554.3994014925921
 20
71.20934406231163
 30
0.0
 11
554.3994014925921
 21
75.96175395038179
 31
0.0
  0
LINE
  5
1FD
330
15
100
AcDbEntity
  8
4
100
AcDbLine
 10
559.3994014925921
 20
69.51721503855256
 30
0.0
 11
559.3994014925921
 21
75.96175395038179
 31
0.0
  0
LINE
  5
1FE
330
15
100
AcDbEntity
  8
L-CENTER
 48
0.5
100
AcDbLine
 10
544.6994989925921
 20
43.2093440623116
 30
0.0
 11
544.6994989925921
 21
78.2093440623116
 31
0.0
  0
ARC
  5
1FF
330
15
100
AcDbEntity
  8
4
100
AcDbCircle
 10
545.1994984925922
 20
78.20934456231157
 30
0.0
 40
7.000000499999999
100
AcDbArc
 50
180.0
 51
270.0
  0
LINE
  5
206
330
15
100
AcDbEntity
  8
L-CENTER
 48
0.5
100
AcDbLine
 10
561.267772732644
 20
71.71175395038145
 30
0.0
 11
538.6998108462936
 21
71.71175395038239
 31
0.0
  0
LINE
  5
207
330
15
100
AcDbEntity
  8
4
100
AcDbLine
 10
559.6994989925921
 20
50.2093440623116
 30
0.0
 11
559.6994989925921
 21
68.2093440623116
 31
0.0
  0
ARC
  5
208
330
15
100
AcDbEntity
  8
4
100
AcDbCircle
 10
556.6994989925921
 20
68.2093440623116
 30
0.0
 40
3.0
100
AcDbArc
 50
0.0
 51
90.0
  0
LINE
  5
209
330
15
100
AcDbEntity
  8
2
100
AcDbLine
 10
553.0994014925922
 20
71.71175395038179
 30
0.0
 11
554.3994014925921
 21
73.0117539503818
 31
0.0
  0
LINE
  5
20A
330
15
100
AcDbEntity
  8
4
100
AcDbLine
 10
554.2994989925922
 20
149.2091760623116
 30
0.0
 11
554.2994989925922
 21
124.4591765623116
 31
0.0
  0
LINE
  5
20B
330
15
100
AcDbEntity
  8
4
100
AcDbLine
 10
560.0994979925921
 20
147.2091765623117
 30
0.0
 11
560.0994979925921
 21
93.20941956231161
 31
0.0
  0
LINE
  5
20D
330
15
100
AcDbEntity
  8
4
100
AcDbLine
 10
561.0994984925923
 20
143.7091755623115
 30
0.0
 11
561.0994984925923
 21
96.7091760623116
 31
0.0
  0
LINE
  5
20F
330
15
100
AcDbEntity
  8
4
100
AcDbLine
 10
554.2994989925922
 20
115.9591765623116
 30
0.0
 11
554.2994989925922
 21
91.2091755623116
 31
0.0
  0
LINE
  5
210
330
15
100
AcDbEntity
  8
4
100
AcDbLine
 10
554.2994989925922
 20
91.2091755623116
 30
0.0
 11
553.0994014925922
 21
82.75432056231159
 31
0.0
  0
LINE
  5
211
330
15
100
AcDbEntity
  8
4
100
AcDbLine
 10
559.3994014925921
 20
75.96175395038179
 30
0.0
 11
553.0994014925922
 21
75.96175395038179
 31
0.0
  0
LINE
  5
212
330
15
100
AcDbEntity
  8
4
100
AcDbLine
 10
560.0994979925921
 20
93.2091765623116
 30
0.0
 11
554.2994989925922
 21
91.2091755623116
 31
0.0
  0
LINE
  5
213
330
15
100
AcDbEntity
  8
4
100
AcDbLine
 10
561.0994984925923
 20
96.7091760623116
 30
0.0
 11
560.0994979925921
 21
96.7091760623116
 31
0.0
  0
LINE
  5
214
330
15
100
AcDbEntity
  8
4
100
AcDbLine
 10
559.3994014925921
 20
124.4591765623116
 30
0.0
 11
553.0994014925922
 21
124.4591765623116
 31
0.0
  0
LINE
  5
215
330
15
100
AcDbEntity
  8
4
100
AcDbLine
 10
559.3994014925921
 20
115.9591765623116
 30
0.0
 11
553.0994014925922
 21
115.9591765623116
 31
0.0
  0
LINE
  5
216
330
15
100
AcDbEntity
  8
2
100
AcDbLine
 10
553.0994014925922
 20
120.2091765623116
 30
0.0
 11
554.3994014925921
 21
121.5091765623116
 31
0.0
  0
LINE
  5
217
330
15
100
AcDbEntity
  8
2
100
AcDbLine
 10
553.0994014925922
 20
118.3706989312266
 30
0.0
 11
554.3994014925921
 21
119.6706989312266
 31
0.0
  0
LINE
  5
218
330
15
100
AcDbEntity
  8
4
100
AcDbLine
 10
554.3994014925921
 20
115.9591765623116
 30
0.0
 11
554.3994014925921
 21
124.4591765623116
 31
0.0
  0
LINE
  5
219
330
15
100
AcDbEntity
  8
4
100
AcDbLine
 10
559.3994014925921
 20
115.9591765623116
 30
0.0
 11
559.3994014925921
 21
124.4591765623116
 31
0.0
  0
LINE
  5
21B
330
15
100
AcDbEntity
  8
4
100
AcDbLine
 10
554.2994989925922
 20
149.2091760623116
 30
0.0
 11
553.0994014925922
 21
157.6640325623116
 31
0.0
  0
LINE
  5
21C
330
15
100
AcDbEntity
  8
4
100
AcDbLine
 10
560.0994979925921
 20
147.2091765623117
 30
0.0
 11
554.2994989925922
 21
149.2091760623116
 31
0.0
  0
LINE
  5
21D
330
15
100
AcDbEntity
  8
4
100
AcDbLine
 10
560.0994979925921
 20
143.7091755623115
 30
0.0
 11
561.0994984925923
 21
143.7091755623115
 31
0.0
  0
LINE
  5
21E
330
15
100
AcDbEntity
  8
L-CENTER
 48
0.5
100
AcDbLine
 10
561.1840728324622
 20
168.7065991742401
 30
0.0
 11
538.6998108462955
 21
168.7065991742401
 31
0.0
  0
LINE
  5
21F
330
15
100
AcDbEntity
  8
4
100
AcDbLine
 10
559.3994014925921
 20
164.4565991742401
 30
0.0
 11
559.3994014925921
 21
172.9565991742401
 31
0.0
  0
LINE
  5
220
330
15
100
AcDbEntity
  8
4
100
AcDbLine
 10
554.3994014925921
 20
164.4565991742401
 30
0.0
 11
554.3994014925921
 21
172.9565991742401
 31
0.0
  0
LINE
  5
221
330
15
100
AcDbEntity
  8
4
100
AcDbLine
 10
559.3994014925921
 20
164.4565991742401
 30
0.0
 11
553.0994014925922
 21
164.4565991742401
 31
0.0
  0
LINE
  5
222
330
15
100
AcDbEntity
  8
4
100
AcDbLine
 10
559.3994014925921
 20
172.9565991742401
 30
0.0
 11
553.0994014925922
 21
172.9565991742401
 31
0.0
  0
LINE
  5
223
330
15
100
AcDbEntity
  8
2
100
AcDbLine
 10
553.0994014925922
 20
166.8681215431552
 30
0.0
 11
554.3994014925921
 21
168.1681215431552
 31
0.0
  0
LINE
  5
224
330
15
100
AcDbEntity
  8
2
100
AcDbLine
 10
553.0994014925922
 20
168.7065991742401
 30
0.0
 11
554.3994014925921
 21
170.0065991742401
 31
0.0
  0
ARC
  5
233
330
15
100
AcDbEntity
  8
4
100
AcDbCircle
 10
533.5131259925921
 20
209.0227875623116
 30
0.0
 40
3.0
100
AcDbArc
 50
6.69905199999956
 51
83.30094400000176
  0
LINE
  5
236
330
15
100
AcDbEntity
  8
4
100
AcDbLine
 10
518.6994979925922
 20
214.7091765623117
 30
0.0
 11
490.6994989925921
 21
214.7091765623117
 31
0.0
  0
ARC
  5
237
330
15
100
AcDbEntity
  8
4
100
AcDbCircle
 10
504.6994984925922
 20
-36.29082443768843
 30
0.0
 40
249.9999855
100
AcDbArc
 50
83.300944
 51
96.699056
  0
LINE
  5
238
330
15
100
AcDbEntity
  8
4
100
AcDbLine
 10
516.1994989925921
 20
214.7094195623116
 30
0.0
 11
493.1994979925922
 21
214.7094195623116
 31
0.0
  0
LINE
  5
239
330
15
100
AcDbEntity
  8
4
100
AcDbLine
 10
517.1994979925922
 20
216.2094195623116
 30
0.0
 11
492.1994989925921
 21
216.2094195623116
 31
0.0
  0
LINE
  5
23A
330
15
100
AcDbEntity
  8
4
100
AcDbLine
 10
517.1994979925922
 20
218.2094205623116
 30
0.0
 11
492.1994989925921
 21
218.2094205623116
 31
0.0
  0
LINE
  5
23B
330
15
100
AcDbEntity
  8
4
100
AcDbLine
 10
515.5246939925922
 20
222.2094195623116
 30
0.0
 11
493.8740599925922
 21
222.2094195623116
 31
0.0
  0
ARC
  5
23C
330
15
100
AcDbEntity
  8
4
100
AcDbCircle
 10
721.1994979925922
 20
180.2091765623117
 30
0.0
 40
250.0000005
100
AcDbArc
 50
173.300948
 51
180.0
  0
ARC
  5
23D
330
15
100
AcDbEntity
  8
4
100
AcDbCircle
 10
475.8858709925922
 20
209.0227875623116
 30
0.0
 40
3.0
100
AcDbArc
 50
96.69905600000257
 51
173.3009480000005
  0
LINE
  5
23E
330
15
100
AcDbEntity
  8
4
100
AcDbLine
 10
493.8740599925922
 20
218.2094205623116
 30
0.0
 11
493.8740599925922
 21
222.2094195623116
 31
0.0
  0
LINE
  5
23F
330
15
100
AcDbEntity
  8
4
100
AcDbLine
 10
492.1994989925921
 20
216.2094195623116
 30
0.0
 11
492.1994989925921
 21
218.2094205623116
 31
0.0
  0
LINE
  5
240
330
15
100
AcDbEntity
  8
4
100
AcDbLine
 10
490.6994989925921
 20
214.7091765623117
 30
0.0
 11
490.6994989925921
 21
213.3168420623116
 31
0.0
  0
LINE
  5
241
330
15
100
AcDbEntity
  8
4
100
AcDbLine
 10
493.1994979925922
 20
214.7094195623116
 30
0.0
 11
493.1994979925922
 21
216.2094195623116
 31
0.0
  0
LINE
  5
242
330
15
100
AcDbEntity
  8
4
100
AcDbLine
 10
507.1994989925921
 20
185.2091760623116
 30
0.0
 11
502.1994979925922
 21
185.2091760623116
 31
0.0
  0
LINE
  5
243
330
15
100
AcDbEntity
  8
4
100
AcDbLine
 10
507.1994989925921
 20
190.2091755623115
 30
0.0
 11
502.1994979925922
 21
190.2091755623115
 31
0.0
  0
LINE
  5
244
330
15
100
AcDbEntity
  8
4
100
AcDbLine
 10
502.1994979925922
 20
185.2091760623116
 30
0.0
 11
502.1994979925922
 21
190.2091755623115
 31
0.0
  0
LINE
  5
245
330
15
100
AcDbEntity
  8
4
100
AcDbLine
 10
507.1994989925921
 20
190.2091755623115
 30
0.0
 11
507.1994989925921
 21
185.2091760623116
 31
0.0
  0
LINE
  5
246
330
15
100
AcDbEntity
  8
4
100
AcDbLine
 10
515.5246939925922
 20
218.2094205623116
 30
0.0
 11
515.5246939925922
 21
222.2094195623116
 31
0.0
  0
LINE
  5
247
330
15
100
AcDbEntity
  8
4
100
AcDbLine
 10
517.1994979925922
 20
216.2094195623116
 30
0.0
 11
517.1994979925922
 21
218.2094205623116
 31
0.0
  0
LINE
  5
248
330
15
100
AcDbEntity
  8
4
100
AcDbLine
 10
516.1994989925921
 20
214.7094195623116
 30
0.0
 11
516.1994989925921
 21
216.2094195623116
 31
0.0
  0
LINE
  5
249
330
15
100
AcDbEntity
  8
4
100
AcDbLine
 10
518.6994979925922
 20
214.7091765623117
 30
0.0
 11
518.6994979925922
 21
213.3168420623116
 31
0.0
  0
ARC
  5
24D
330
15
100
AcDbEntity
  8
4
100
AcDbCircle
 10
288.1994989925922
 20
180.2091765623117
 30
0.0
 40
250.0000005
100
AcDbArc
 50
0.0
 51
6.699051999999996
  0
LINE
  5
24E
330
15
100
AcDbEntity
  8
4
100
AcDbLine
 10
552.0994009925922
 20
183.2091765623117
 30
0.0
 11
539.1994984925922
 21
183.2091765623117
 31
0.0
  0
LINE
  5
24F
330
15
100
AcDbEntity
  8
4
100
AcDbLine
 10
538.1674969925922
 20
184.2091755623115
 30
0.0
 11
539.1994984925922
 21
184.2091755623115
 31
0.0
  0
ARC
  5
250
330
15
100
AcDbEntity
  8
4
100
AcDbCircle
 10
552.0994009925922
 20
182.2091760623116
 30
0.0
 40
1.0000005
100
AcDbArc
 50
0.0
 51
90.0
  0
LINE
  5
3D3
330
15
100
AcDbEntity
  8
4
100
AcDbLine
 10
471.3573322190656
 20
207.7491783313458
 30
0.0
 11
472.7131668087028
 21
207.6781220514277
 31
0.0
  0
ARC
  5
3D4
330
15
100
AcDbEntity
  8
4
100
AcDbCircle
 10
471.3049962628226
 20
206.7505487965911
 30
0.0
 40
1.0
100
AcDbArc
 50
86.99999999999442
 51
177.0000000000009
  0
LINE
  5
3D5
330
15
100
AcDbEntity
  8
4
100
AcDbLine
 10
470.4152850066924
 20
189.7738467057634
 30
0.0
 11
471.380599530078
 21
189.7232567152831
 31
0.0
  0
ARC
  5
3D6
330
15
100
AcDbEntity
  8
4
100
AcDbCircle
 10
470.4676209629355
 20
190.7724762405179
 30
0.0
 40
1.0
100
AcDbArc
 50
176.9999999999976
 51
266.9999999999944
  0
LINE
  5
3D7
330
15
100
AcDbEntity
  8
4
100
AcDbLine
 10
469.4689914281809
 20
190.8248121967609
 30
0.0
 11
470.3063667280679
 21
206.8028847528341
 31
0.0
  0
LINE
  5
3D8
330
15
100
AcDbEntity
  8
4
100
AcDbLine
 10
273.6894338178005
 20
204.2091765623119
 30
0.0
 11
273.6894338178007
 21
202.2091765623117
 31
0.0
  0
ARC
  5
3D9
330
15
100
AcDbEntity
  8
4
100
AcDbCircle
 10
273.1894338178007
 20
202.2091765623117
 30
0.0
 40
0.5
100
AcDbArc
 50
270.0
 51
0.0
  0
LINE
  5
3DA
330
15
100
AcDbEntity
  8
4
100
AcDbLine
 10
273.1894338178006
 20
201.7091765623117
 30
0.0
 11
273.1894338178007
 21
201.7091765623117
 31
0.0
  0
ARC
  5
3DB
330
15
100
AcDbEntity
  8
4
100
AcDbCircle
 10
273.1894338178005
 20
204.2091765623117
 30
0.0
 40
0.5
100
AcDbArc
 50
0.0
 51
90.0
  0
ARC
  5
3DC
330
15
100
AcDbEntity
  8
4
100
AcDbCircle
 10
275.6894338178004
 20
206.7091765623117
 30
0.0
 40
1.0
100
AcDbArc
 50
0.0
 51
90.0
  0
LINE
  5
3DD
330
15
100
AcDbEntity
  8
4
100
AcDbLine
 10
271.6894338178006
 20
200.2091765623114
 30
0.0
 11
271.6894338178007
 21
199.6732781774498
 31
0.0
  0
LINE
  5
3DE
330
15
100
AcDbEntity
  8
4
100
AcDbLine
 10
265.1894338178005
 20
204.7091765623117
 30
0.0
 11
273.1894338178005
 21
204.7091765623117
 31
0.0
  0
ARC
  5
3DF
330
15
100
AcDbEntity
  8
4
100
AcDbCircle
 10
273.1894338178006
 20
200.2091765623117
 30
0.0
 40
1.5
100
AcDbArc
 50
90.0
 51
180.0
  0
ARC
  5
3E0
330
15
100
AcDbEntity
  8
4
100
AcDbCircle
 10
275.6894338178004
 20
190.7091765623119
 30
0.0
 40
1.0
100
AcDbArc
 50
270.0
 51
0.0
  0
LINE
  5
3E1
330
15
100
AcDbEntity
  8
4
100
AcDbLine
 10
273.6894338178014
 20
196.2091765623119
 30
0.0
 11
273.6894338178016
 21
195.2091765623121
 31
0.0
  0
LINE
  5
3E2
330
15
100
AcDbEntity
  8
4
100
AcDbLine
 10
265.1894338178021
 20
192.7091765623117
 30
0.0
 11
271.1894338178016
 21
192.7091765623117
 31
0.0
  0
ARC
  5
3E3
330
15
100
AcDbEntity
  8
4
100
AcDbCircle
 10
271.1894338178016
 20
195.2091765623117
 30
0.0
 40
2.5
100
AcDbArc
 50
270.0
 51
0.0
  0
ARC
  5
3E4
330
15
100
AcDbEntity
  8
4
100
AcDbCircle
 10
271.1894338178014
 20
196.2091765623117
 30
0.0
 40
2.5
100
AcDbArc
 50
0.0
 51
60.00000000001174
  0
ARC
  5
3E5
330
15
100
AcDbEntity
  8
4
100
AcDbCircle
 10
264.6894338178014
 20
197.7091765623117
 30
0.0
 40
2.0
100
AcDbArc
 50
289.4712206345208
 51
70.52877936549675
  0
LINE
  5
3E6
330
15
100
AcDbEntity
  8
4
100
AcDbLine
 10
276.689433817802
 20
190.7091765623118
 30
0.0
 11
276.6894338178001
 21
206.7091765623118
 31
0.0
  0
ARC
  5
3E7
330
15
100
AcDbEntity
  8
4
100
AcDbCircle
 10
273.1894338178007
 20
199.6732781774498
 30
0.0
 40
1.5
100
AcDbArc
 50
180.0
 51
240.0000000000102
  0
ARC
  5
3E8
330
15
100
AcDbEntity
  8
4
100
AcDbCircle
 10
258.1894338178005
 20
204.2091765623117
 30
0.0
 40
0.5
100
AcDbArc
 50
0.0
 51
90.0
  0
LINE
  5
3E9
330
15
100
AcDbEntity
  8
4
100
AcDbLine
 10
264.6894338178005
 20
204.2091765623117
 30
0.0
 11
264.6894338178009
 21
200.5376036870546
 31
0.0
  0
LINE
  5
3EA
330
15
100
AcDbEntity
  8
4
100
AcDbLine
 10
251.189433817801
 20
200.2091765623117
 30
0.0
 11
253.1894338178009
 21
200.2091765623117
 31
0.0
  0
ARC
  5
3EB
330
15
100
AcDbEntity
  8
4
100
AcDbCircle
 10
251.189433817801
 20
199.7091765623117
 30
0.0
 40
0.5
100
AcDbArc
 50
90.0
 51
180.0
  0
ARC
  5
3EC
330
15
100
AcDbEntity
  8
4
100
AcDbCircle
 10
253.1894338178009
 20
199.7091765623117
 30
0.0
 40
0.5
100
AcDbArc
 50
0.0
 51
90.0
  0
ARC
  5
3ED
330
15
100
AcDbEntity
  8
4
100
AcDbCircle
 10
256.1894338178007
 20
204.2091765623117
 30
0.0
 40
0.5
100
AcDbArc
 50
90.0
 51
180.0
  0
LINE
  5
3EE
330
15
100
AcDbEntity
  8
4
100
AcDbLine
 10
256.1894338178007
 20
204.7091765623117
 30
0.0
 11
258.1894338178005
 21
204.7091765623117
 31
0.0
  0
LINE
  5
3EF
330
15
100
AcDbEntity
  8
4
100
AcDbLine
 10
260.6894338178016
 20
194.2091765623117
 30
0.0
 11
260.6894338178016
 21
193.2091765623117
 31
0.0
  0
LINE
  5
3F0
330
15
100
AcDbEntity
  8
4
100
AcDbLine
 10
262.6894338178018
 20
194.2091765623119
 30
0.0
 11
262.6894338178018
 21
193.2091765623117
 31
0.0
  0
LINE
  5
3F1
330
15
100
AcDbEntity
  8
4
100
AcDbLine
 10
264.6894338178018
 20
194.8807494375687
 30
0.0
 11
264.6894338178021
 21
193.2091765623117
 31
0.0
  0
ARC
  5
3F2
330
15
100
AcDbEntity
  8
4
100
AcDbCircle
 10
261.1894338178016
 20
193.2091765623117
 30
0.0
 40
0.5
100
AcDbArc
 50
180.0
 51
270.0
  0
ARC
  5
3F3
330
15
100
AcDbEntity
  8
4
100
AcDbCircle
 10
258.1894338178018
 20
193.2091765623117
 30
0.0
 40
0.5
100
AcDbArc
 50
270.0
 51
0.0
  0
ARC
  5
3F4
330
15
100
AcDbEntity
  8
4
100
AcDbCircle
 10
262.1894338178018
 20
193.2091765623117
 30
0.0
 40
0.5
100
AcDbArc
 50
270.0
 51
0.0
  0
LINE
  5
3F5
330
15
100
AcDbEntity
  8
4
100
AcDbLine
 10
261.1894338178016
 20
192.7091765623117
 30
0.0
 11
262.1894338178018
 21
192.7091765623117
 31
0.0
  0
ARC
  5
3F6
330
15
100
AcDbEntity
  8
4
100
AcDbCircle
 10
261.1894338178016
 20
194.2091765623117
 30
0.0
 40
0.5
100
AcDbArc
 50
90.0
 51
180.0
  0
ARC
  5
3F7
330
15
100
AcDbEntity
  8
4
100
AcDbCircle
 10
262.1894338178018
 20
194.2091765623117
 30
0.0
 40
0.5
100
AcDbArc
 50
0.0
 51
90.0
  0
LINE
  5
3F8
330
15
100
AcDbEntity
  8
4
100
AcDbLine
 10
261.1894338178016
 20
194.7091765623117
 30
0.0
 11
262.1894338178018
 21
194.7091765623117
 31
0.0
  0
LINE
  5
3F9
330
15
100
AcDbEntity
  8
4
100
AcDbLine
 10
251.1894338178009
 20
197.2091765623117
 30
0.0
 11
253.189433817801
 21
197.2091765623117
 31
0.0
  0
ARC
  5
3FA
330
15
100
AcDbEntity
  8
4
100
AcDbCircle
 10
251.1894338178009
 20
197.7091765623117
 30
0.0
 40
0.5
100
AcDbArc
 50
180.0
 51
270.0
  0
ARC
  5
3FB
330
15
100
AcDbEntity
  8
4
100
AcDbCircle
 10
253.189433817801
 20
197.7091765623117
 30
0.0
 40
0.5
100
AcDbArc
 50
270.0
 51
0.0
  0
ARC
  5
3FC
330
15
100
AcDbEntity
  8
4
100
AcDbCircle
 10
256.1894338178014
 20
193.2091765623117
 30
0.0
 40
0.5
100
AcDbArc
 50
180.0
 51
270.0
  0
LINE
  5
3FD
330
15
100
AcDbEntity
  8
4
100
AcDbLine
 10
256.1894338178014
 20
192.7091765623117
 30
0.0
 11
258.1894338178018
 21
192.7091765623117
 31
0.0
  0
LINE
  5
3FE
330
15
100
AcDbEntity
  8
4
100
AcDbLine
 10
250.689433817801
 20
199.7091765623117
 30
0.0
 11
250.6894338178009
 21
197.7091765623117
 31
0.0
  0
LINE
  5
3FF
330
15
100
AcDbEntity
  8
4
100
AcDbLine
 10
253.6894338178009
 20
199.7091765623117
 30
0.0
 11
253.689433817801
 21
197.7091765623117
 31
0.0
  0
LINE
  5
400
330
15
100
AcDbEntity
  8
4
100
AcDbLine
 10
258.6894338178005
 20
204.2091765623119
 30
0.0
 11
258.6894338178018
 21
193.2091765623117
 31
0.0
  0
LINE
  5
401
330
15
100
AcDbEntity
  8
4
100
AcDbLine
 10
255.6894338178007
 20
204.2091765623117
 30
0.0
 11
255.6894338178014
 21
193.2091765623117
 31
0.0
  0
ARC
  5
402
330
15
100
AcDbEntity
  8
4
100
AcDbCircle
 10
245.689433817801
 20
202.2091765623117
 30
0.0
 40
2.5
100
AcDbArc
 50
0.0
 51
90.0
  0
ARC
  5
403
330
15
100
AcDbEntity
  8
4
100
AcDbCircle
 10
245.689433817801
 20
201.2091765623117
 30
0.0
 40
2.5
100
AcDbArc
 50
321.3178125465138
 51
0.0
  0
LINE
  5
404
330
15
100
AcDbEntity
  8
4
100
AcDbLine
 10
248.189433817801
 20
202.2091765623117
 30
0.0
 11
248.189433817801
 21
201.2091765623119
 31
0.0
  0
ARC
  5
405
330
15
100
AcDbEntity
  8
4
100
AcDbCircle
 10
239.689433817801
 20
204.2091765623117
 30
0.0
 40
0.5
100
AcDbArc
 50
90.0
 51
180.0
  0
LINE
  5
406
330
15
100
AcDbEntity
  8
4
100
AcDbLine
 10
239.689433817801
 20
204.7091765623117
 30
0.0
 11
245.689433817801
 21
204.7091765623117
 31
0.0
  0
ARC
  5
407
330
15
100
AcDbEntity
  8
4
100
AcDbCircle
 10
245.6894338178012
 20
195.2091765623117
 30
0.0
 40
2.5
100
AcDbArc
 50
270.0
 51
0.0
  0
ARC
  5
408
330
15
100
AcDbEntity
  8
4
100
AcDbCircle
 10
245.6894338178012
 20
196.2091765623117
 30
0.0
 40
2.5
100
AcDbArc
 50
0.0
 51
38.68218745348938
  0
LINE
  5
409
330
15
100
AcDbEntity
  8
4
100
AcDbLine
 10
248.1894338178012
 20
196.2091765623117
 30
0.0
 11
248.1894338178012
 21
195.2091765623117
 31
0.0
  0
ARC
  5
40A
330
15
100
AcDbEntity
  8
4
100
AcDbCircle
 10
239.689433817801
 20
193.2091765623117
 30
0.0
 40
0.5
100
AcDbArc
 50
180.0
 51
270.0
  0
LINE
  5
40B
330
15
100
AcDbEntity
  8
4
100
AcDbLine
 10
236.6894338178009
 20
195.2091765623117
 30
0.0
 11
236.6894338178009
 21
193.2091765623117
 31
0.0
  0
ARC
  5
40C
330
15
100
AcDbEntity
  8
4
100
AcDbCircle
 10
236.1894338178009
 20
193.2091765623117
 30
0.0
 40
0.5
100
AcDbArc
 50
270.0
 51
0.0
  0
ARC
  5
40D
330
15
100
AcDbEntity
  8
4
100
AcDbCircle
 10
236.1894338178009
 20
195.2091765623117
 30
0.0
 40
0.5
100
AcDbArc
 50
0.0
 51
90.0
  0
LINE
  5
40E
330
15
100
AcDbEntity
  8
4
100
AcDbLine
 10
239.689433817801
 20
192.7091765623117
 30
0.0
 11
245.6894338178012
 21
192.7091765623117
 31
0.0
  0
LINE
  5
40F
330
15
100
AcDbEntity
  8
4
100
AcDbLine
 10
239.189433817801
 20
204.2091765623117
 30
0.0
 11
239.189433817801
 21
193.2091765623117
 31
0.0
  0
ARC
  5
410
330
15
100
AcDbEntity
  8
4
100
AcDbCircle
 10
248.8119328170003
 20
198.7091765623119
 30
0.0
 40
1.5
100
AcDbArc
 50
141.3178125465104
 51
218.682187453492
  0
ARC
  5
411
330
15
100
AcDbEntity
  8
4
100
AcDbCircle
 10
230.689433817801
 20
204.2091765623117
 30
0.0
 40
0.5
100
AcDbArc
 50
0.0
 51
90.0
  0
LINE
  5
412
330
15
100
AcDbEntity
  8
4
100
AcDbLine
 10
228.689433817801
 20
204.7091765623117
 30
0.0
 11
230.689433817801
 21
204.7091765623117
 31
0.0
  0
ARC
  5
413
330
15
100
AcDbEntity
  8
4
100
AcDbCircle
 10
228.689433817801
 20
204.2091765623117
 30
0.0
 40
0.5
100
AcDbArc
 50
90.0
 51
180.0
  0
ARC
  5
414
330
15
100
AcDbEntity
  8
4
100
AcDbCircle
 10
226.189433817801
 20
206.7091765623117
 30
0.0
 40
1.0
100
AcDbArc
 50
90.0
 51
180.0
  0
ARC
  5
415
330
15
100
AcDbEntity
  8
4
100
AcDbCircle
 10
228.689433817801
 20
193.2091765623117
 30
0.0
 40
0.5
100
AcDbArc
 50
180.0
 51
270.0
  0
ARC
  5
416
330
15
100
AcDbEntity
  8
4
100
AcDbCircle
 10
231.6894338178009
 20
196.2091765623117
 30
0.0
 40
0.5
100
AcDbArc
 50
180.0
 51
270.0
  0
ARC
  5
417
330
15
100
AcDbEntity
  8
4
100
AcDbCircle
 10
226.189433817801
 20
190.7091765623119
 30
0.0
 40
1.0
100
AcDbArc
 50
180.0
 51
270.0
  0
LINE
  5
418
330
15
100
AcDbEntity
  8
4
100
AcDbLine
 10
225.189433817801
 20
190.7091765623119
 30
0.0
 11
225.189433817801
 21
206.7091765623117
 31
0.0
  0
LINE
  5
419
330
15
100
AcDbEntity
  8
4
100
AcDbLine
 10
228.189433817801
 20
204.2091765623117
 30
0.0
 11
228.189433817801
 21
193.2091765623117
 31
0.0
  0
LINE
  5
41A
330
15
100
AcDbEntity
  8
4
100
AcDbLine
 10
231.189433817801
 20
204.2091765623117
 30
0.0
 11
231.1894338178009
 21
196.2091765623117
 31
0.0
  0
LINE
  5
41B
330
15
100
AcDbEntity
  8
4
100
AcDbLine
 10
228.689433817801
 20
192.7091765623117
 30
0.0
 11
236.1894338178009
 21
192.7091765623117
 31
0.0
  0
LINE
  5
41C
330
15
100
AcDbEntity
  8
4
100
AcDbLine
 10
231.6894338178009
 20
195.7091765623117
 30
0.0
 11
236.1894338178009
 21
195.7091765623117
 31
0.0
  0
ARC
  5
41D
330
15
100
AcDbEntity
  8
4
100
AcDbCircle
 10
218.6894338178007
 20
167.2091765623117
 30
0.0
 40
15.5
100
AcDbArc
 50
185.7213855853658
 51
354.2786144146338
  0
LINE
  5
41E
330
15
100
AcDbEntity
  8
4
100
AcDbLine
 10
226.189433817801
 20
189.7091765623117
 30
0.0
 11
275.6894338178004
 21
189.7091765623117
 31
0.0
  0
LINE
  5
41F
330
15
100
AcDbEntity
  8
4
100
AcDbLine
 10
226.189433817801
 20
207.7091765623117
 30
0.0
 11
275.6894338178004
 21
207.7091765623117
 31
0.0
  0
ARC
  5
420
330
15
100
AcDbEntity
  8
4
100
AcDbCircle
 10
265.1894338178021
 20
193.2091765623117
 30
0.0
 40
0.5
100
AcDbArc
 50
180.0
 51
270.0
  0
ARC
  5
421
330
15
100
AcDbEntity
  8
4
100
AcDbCircle
 10
265.6894338178018
 20
194.8807494375689
 30
0.0
 40
1.0
100
AcDbArc
 50
109.4712206345136
 51
180.0
  0
ARC
  5
422
330
15
100
AcDbEntity
  8
4
100
AcDbCircle
 10
265.6894338178009
 20
200.5376036870547
 30
0.0
 40
1.0
100
AcDbArc
 50
180.0
 51
250.5287793654998
  0
ARC
  5
423
330
15
100
AcDbEntity
  8
4
100
AcDbCircle
 10
265.1894338178005
 20
204.2091765623117
 30
0.0
 40
0.5
100
AcDbArc
 50
90.0
 51
180.0
  0
LINE
  5
424
330
15
100
AcDbEntity
  8
4
100
AcDbLine
 10
276.6894338178004
 20
381.2969377109346
 30
0.0
 11
276.6894338178002
 21
382.2969377109345
 31
0.0
  0
LINE
  5
425
330
15
100
AcDbEntity
  8
4
100
AcDbLine
 10
225.189433817801
 20
381.2969377109346
 30
0.0
 11
225.189433817801
 21
382.2969377109346
 31
0.0
  0
ARC
  5
426
330
15
100
AcDbEntity
  8
4
100
AcDbCircle
 10
226.189433817801
 20
381.2969377109346
 30
0.0
 40
1.0
100
AcDbArc
 50
180.0
 51
270.0
  0
ARC
  5
427
330
15
100
AcDbEntity
  8
4
100
AcDbCircle
 10
275.6894338178004
 20
381.2969377109345
 30
0.0
 40
1.0
100
AcDbArc
 50
270.0
 51
0.0
  0
LINE
  5
44D
330
15
100
AcDbEntity
  8
4
100
AcDbLine
 10
138.6894343178008
 20
188.7091755623115
 30
0.0
 11
138.6894343178008
 21
171.7091760623116
 31
0.0
  0
LINE
  5
44E
330
15
100
AcDbEntity
  8
4
100
AcDbLine
 10
103.6896028178007
 20
190.2091755623115
 30
0.0
 11
103.6896028178007
 21
173.2091760623116
 31
0.0
  0
LINE
  5
44F
330
15
100
AcDbEntity
  8
4
100
AcDbLine
 10
104.6896018178008
 20
188.2091760623116
 30
0.0
 11
104.6896018178008
 21
172.2091755623115
 31
0.0
  0
LINE
  5
450
330
15
100
AcDbEntity
  8
4
100
AcDbLine
 10
138.6894343178008
 20
172.2091755623115
 30
0.0
 11
104.6896018178008
 21
172.2091755623115
 31
0.0
  0
LINE
  5
451
330
15
100
AcDbEntity
  8
4
100
AcDbLine
 10
138.6894343178008
 20
171.7091760623116
 30
0.0
 11
149.6896018178007
 21
171.7091760623116
 31
0.0
  0
LINE
  5
452
330
15
100
AcDbEntity
  8
4
100
AcDbLine
 10
104.6896018178008
 20
172.2091755623115
 30
0.0
 11
103.6896028178007
 21
173.2091760623116
 31
0.0
  0
LINE
  5
453
330
15
100
AcDbEntity
  8
4
100
AcDbLine
 10
135.6894343178008
 20
190.2091755623115
 30
0.0
 11
103.6896028178007
 21
190.2091755623115
 31
0.0
  0
LINE
  5
454
330
15
100
AcDbEntity
  8
4
100
AcDbLine
 10
138.6894343178008
 20
188.2091760623116
 30
0.0
 11
104.6896018178008
 21
188.2091760623116
 31
0.0
  0
LINE
  5
455
330
15
100
AcDbEntity
  8
4
100
AcDbLine
 10
149.6896018178007
 20
188.7091755623115
 30
0.0
 11
138.6894343178008
 21
188.7091755623115
 31
0.0
  0
LINE
  5
456
330
15
100
AcDbEntity
  8
4
100
AcDbLine
 10
135.6894343178008
 20
190.2091755623115
 30
0.0
 11
135.6894343178008
 21
188.2091760623116
 31
0.0
  0
LINE
  5
457
330
15
100
AcDbEntity
  8
4
100
AcDbLine
 10
103.6896028178007
 20
187.2091755623115
 30
0.0
 11
104.6896018178008
 21
188.2091760623116
 31
0.0
  0
LINE
  5
45A
330
15
100
AcDbEntity
  8
4
100
AcDbLine
 10
136.6925229035979
 20
423.7969372109344
 30
0.0
 11
102.6926904035979
 21
423.7969372109343
 31
0.0
  0
LINE
  5
45B
330
15
100
AcDbEntity
  8
4
100
AcDbLine
 10
136.6925229035979
 20
407.7969367109342
 30
0.0
 11
102.6926904035979
 21
407.7969367109341
 31
0.0
  0
ARC
  5
45C
330
15
100
AcDbEntity
  8
4
100
AcDbCircle
 10
131.1925229035979
 20
415.7969377109343
 30
0.0
 40
2.5
100
AcDbArc
 50
270.0
 51
90.0
  0
LINE
  5
45D
330
15
100
AcDbEntity
  8
4
100
AcDbLine
 10
147.6926904035979
 20
424.2969367109342
 30
0.0
 11
136.6925229035979
 21
424.2969367109342
 31
0.0
  0
LINE
  5
45E
330
15
100
AcDbEntity
  8
4
100
AcDbLine
 10
136.6925229035979
 20
407.2969372109344
 30
0.0
 11
147.6926904035979
 21
407.2969372109344
 31
0.0
  0
LINE
  5
45F
330
15
100
AcDbEntity
  8
4
100
AcDbLine
 10
136.6925229035979
 20
424.2969367109342
 30
0.0
 11
136.6925229035979
 21
407.2969372109344
 31
0.0
  0
LINE
  5
460
330
15
100
AcDbEntity
  8
4
100
AcDbLine
 10
131.1925229035979
 20
418.2969377109346
 30
0.0
 11
101.6926914035978
 21
418.2969377109345
 31
0.0
  0
LINE
  5
461
330
15
100
AcDbEntity
  8
4
100
AcDbLine
 10
131.1925229035979
 20
413.2969377109346
 30
0.0
 11
101.6926914035978
 21
413.2969377109345
 31
0.0
  0
LINE
  5
462
330
15
100
AcDbEntity
  8
4
100
AcDbLine
 10
102.6926904035979
 20
413.2969377109342
 30
0.0
 11
102.6926904035979
 21
407.7969367109341
 31
0.0
  0
LINE
  5
463
330
15
100
AcDbEntity
  8
4
100
AcDbLine
 10
101.692691403598
 20
422.7969367109341
 30
0.0
 11
101.6926914035978
 21
408.7969372109343
 31
0.0
  0
LINE
  5
464
330
15
100
AcDbEntity
  8
4
100
AcDbLine
 10
102.6926904035979
 20
407.7969367109341
 30
0.0
 11
101.6926914035978
 21
408.7969372109343
 31
0.0
  0
LINE
  5
465
330
15
100
AcDbEntity
  8
4
100
AcDbLine
 10
102.6926904035979
 20
423.7969372109343
 30
0.0
 11
102.6926904035979
 21
418.2969377109342
 31
0.0
  0
LINE
  5
466
330
15
100
AcDbEntity
  8
4
100
AcDbLine
 10
101.6926914035977
 20
422.7969367109341
 30
0.0
 11
102.6926904035979
 21
423.7969372109343
 31
0.0
  0
LINE
  5
467
330
15
100
AcDbEntity
  8
4
100
AcDbLine
 10
141.192797403598
 20
424.2969367109342
 30
0.0
 11
141.192797403598
 21
426.62225525824
 31
0.0
  0
LINE
  5
468
330
15
100
AcDbEntity
  8
4
100
AcDbLine
 10
146.192797403598
 20
424.2969367109342
 30
0.0
 11
146.192797403598
 21
428.2969377109345
 31
0.0
  0
LINE
  5
469
330
15
100
AcDbEntity
  8
4
100
AcDbLine
 10
129.1925224035979
 20
407.7969367109342
 30
0.0
 11
129.1925224035979
 21
363.7969377109346
 31
0.0
  0
LINE
  5
484
330
15
100
AcDbEntity
  8
4
100
AcDbLine
 10
439.6994989925921
 20
108.2091765623116
 30
0.0
 11
400.6994989925921
 21
108.2091765623116
 31
0.0
  0
LINE
  5
485
330
15
100
AcDbEntity
  8
4
100
AcDbLine
 10
439.6994989925921
 20
132.2091765623117
 30
0.0
 11
400.6994989925921
 21
132.2091765623117
 31
0.0
  0
LINE
  5
486
330
15
100
AcDbEntity
  8
4
100
AcDbLine
 10
399.6994984925922
 20
135.2091765623117
 30
0.0
 11
436.6994989925921
 21
135.2091765623117
 31
0.0
  0
LINE
  5
487
330
15
100
AcDbEntity
  8
4
100
AcDbLine
 10
439.6994989925921
 20
132.7091760623116
 30
0.0
 11
439.6994989925921
 21
107.7091755623116
 31
0.0
  0
LINE
  5
488
330
15
100
AcDbEntity
  8
4
100
AcDbLine
 10
448.199497992592
 20
143.7091755623115
 30
0.0
 11
448.199497992592
 21
96.7091760623116
 31
0.0
  0
LINE
  5
489
330
15
100
AcDbEntity
  8
4
100
AcDbLine
 10
448.199497992592
 20
107.7091755623116
 30
0.0
 11
439.6994989925921
 21
107.7091755623116
 31
0.0
  0
LINE
  5
48A
330
15
100
AcDbEntity
  8
4
100
AcDbLine
 10
448.199497992592
 20
96.7091760623116
 30
0.0
 11
449.1994984925922
 21
96.7091760623116
 31
0.0
  0
LINE
  5
48B
330
15
100
AcDbEntity
  8
4
100
AcDbLine
 10
448.199497992592
 20
132.7091760623116
 30
0.0
 11
439.6994989925921
 21
132.7091760623116
 31
0.0
  0
LINE
  5
48C
330
15
100
AcDbEntity
  8
4
100
AcDbLine
 10
449.1994984925922
 20
143.7091755623115
 30
0.0
 11
448.199497992592
 21
143.7091755623115
 31
0.0
  0
LINE
  5
48D
330
15
100
AcDbEntity
  8
4
100
AcDbLine
 10
436.6994989925921
 20
135.2091765623117
 30
0.0
 11
436.6994989925921
 21
132.2091765623117
 31
0.0
  0
LINE
  5
48E
330
15
100
AcDbEntity
  8
4
100
AcDbLine
 10
399.6994984925922
 20
135.2091765623117
 30
0.0
 11
399.6994984925922
 21
109.2091755623116
 31
0.0
  0
LINE
  5
48F
330
15
100
AcDbEntity
  8
4
100
AcDbLine
 10
400.6994989925921
 20
108.2091765623116
 30
0.0
 11
400.6994989925921
 21
132.2091765623117
 31
0.0
  0
LINE
  5
490
330
15
100
AcDbEntity
  8
4
100
AcDbLine
 10
400.6994989925921
 20
108.2091765623116
 30
0.0
 11
399.6994984925922
 21
109.2091755623116
 31
0.0
  0
LINE
  5
491
330
15
100
AcDbEntity
  8
4
100
AcDbLine
 10
399.6994984925922
 20
131.2091760623116
 30
0.0
 11
400.6994989925921
 21
132.2091765623117
 31
0.0
  0
LINE
  5
4AA
330
15
100
AcDbEntity
  8
4
100
AcDbLine
 10
222.1894333178007
 20
128.2091760623117
 30
0.0
 11
222.1894333178007
 21
135.2091765623117
 31
0.0
  0
LINE
  5
4AB
330
15
100
AcDbEntity
  8
4
100
AcDbLine
 10
215.1894328178008
 20
128.2091760623117
 30
0.0
 11
215.1894328178008
 21
135.2091765623117
 31
0.0
  0
LINE
  5
4AC
330
15
100
AcDbEntity
  8
4
100
AcDbLine
 10
215.1894328178008
 20
135.2091765623117
 30
0.0
 11
222.1894333178007
 21
135.2091765623117
 31
0.0
  0
LINE
  5
4AD
330
15
100
AcDbEntity
  8
4
100
AcDbLine
 10
222.1894333178007
 20
128.2091760623117
 30
0.0
 11
215.1894328178008
 21
128.2091760623117
 31
0.0
  0
ARC
  5
4AE
330
15
100
AcDbEntity
  8
4
100
AcDbCircle
 10
218.6894338178006
 20
120.2091765623116
 30
0.0
 40
11.999997
100
AcDbArc
 50
106.9577726594187
 51
73.04207799999938
  0
CIRCLE
  5
4B0
330
15
100
AcDbEntity
  8
4
100
AcDbCircle
 10
218.6894338178007
 20
120.2091765623116
 30
0.0
 40
23.49999899999995
  0
LINE
  5
4B1
330
15
100
AcDbEntity
  8
4
100
AcDbLine
 10
193.1925224035979
 20
359.2969377109349
 30
0.0
 11
240.192522403598
 21
359.2969377109347
 31
0.0
  0
LINE
  5
4B2
330
15
100
AcDbEntity
  8
4
100
AcDbLine
 10
205.6925224035979
 20
310.7969377109345
 30
0.0
 11
227.6925224035979
 21
310.7969377109345
 31
0.0
  0
LINE
  5
4B3
330
15
100
AcDbEntity
  8
4
100
AcDbLine
 10
204.1925224035979
 20
350.7969377109345
 30
0.0
 11
229.1925224035979
 21
350.7969377109345
 31
0.0
  0
LINE
  5
4B4
330
15
100
AcDbEntity
  8
4
100
AcDbLine
 10
204.6925224035979
 20
311.7969377109345
 30
0.0
 11
213.1925224035979
 21
311.7969377109345
 31
0.0
  0
LINE
  5
4B5
330
15
100
AcDbEntity
  8
4
100
AcDbLine
 10
204.6925224035979
 20
350.2969377109345
 30
0.0
 11
204.6925224035979
 21
311.7969377109345
 31
0.0
  0
LINE
  5
4B6
330
15
100
AcDbEntity
  8
4
100
AcDbLine
 10
204.1925224035979
 20
359.2969377109349
 30
0.0
 11
204.1925224035979
 21
350.7969377109345
 31
0.0
  0
LINE
  5
4B7
330
15
100
AcDbEntity
  8
4
100
AcDbLine
 10
193.1925224035979
 20
359.2969377109349
 30
0.0
 11
193.1925224035979
 21
360.2969377109345
 31
0.0
  0
LINE
  5
4B8
330
15
100
AcDbEntity
  8
4
100
AcDbLine
 10
204.1925224035979
 20
350.7969377109345
 30
0.0
 11
204.1925224035979
 21
350.7969377109345
 31
0.0
  0
ARC
  5
4B9
330
15
100
AcDbEntity
  8
4
100
AcDbCircle
 10
204.1925224035979
 20
350.2969377109345
 30
0.0
 40
0.5
100
AcDbArc
 50
0.0
 51
90.0
  0
LINE
  5
4BA
330
15
100
AcDbEntity
  8
4
100
AcDbLine
 10
204.6925224035979
 20
311.7969377109345
 30
0.0
 11
205.6925224035979
 21
310.7969377109345
 31
0.0
  0
LINE
  5
4BB
330
15
100
AcDbEntity
  8
4
100
AcDbLine
 10
220.1925224035979
 20
344.2969377109345
 30
0.0
 11
220.1925224035979
 21
310.7969377109345
 31
0.0
  0
LINE
  5
4BC
330
15
100
AcDbEntity
  8
4
100
AcDbLine
 10
228.6925224035979
 20
350.2969377109345
 30
0.0
 11
228.6925224035979
 21
311.7969377109345
 31
0.0
  0
LINE
  5
4BD
330
15
100
AcDbEntity
  8
4
100
AcDbLine
 10
213.1925224035979
 20
344.2969377109345
 30
0.0
 11
213.1925224035979
 21
310.7969377109345
 31
0.0
  0
LINE
  5
4BE
330
15
100
AcDbEntity
  8
4
100
AcDbLine
 10
229.1925224035979
 20
359.2969377109347
 30
0.0
 11
229.1925224035979
 21
350.7969377109345
 31
0.0
  0
ARC
  5
4BF
330
15
100
AcDbEntity
  8
4
100
AcDbCircle
 10
216.6925224035979
 20
344.2969377109345
 30
0.0
 40
3.5
100
AcDbArc
 50
0.0
 51
180.0
  0
ARC
  5
4C0
330
15
100
AcDbEntity
  8
4
100
AcDbCircle
 10
229.1925224035979
 20
350.2969377109345
 30
0.0
 40
0.5
100
AcDbArc
 50
90.0
 51
180.0
  0
LINE
  5
4C1
330
15
100
AcDbEntity
  8
4
100
AcDbLine
 10
240.192522403598
 20
359.2969377109347
 30
0.0
 11
240.192522403598
 21
360.2969377109347
 31
0.0
  0
LINE
  5
4C2
330
15
100
AcDbEntity
  8
4
100
AcDbLine
 10
220.1925224035979
 20
311.7969377109345
 30
0.0
 11
228.6925224035979
 21
311.7969377109345
 31
0.0
  0
LINE
  5
4C3
330
15
100
AcDbEntity
  8
4
100
AcDbLine
 10
228.6925224035979
 20
311.7969377109345
 30
0.0
 11
227.6925224035979
 21
310.7969377109345
 31
0.0
  0
ENDSEC
  0
SECTION
  2
OBJECTS
  0
DICTIONARY
  5
5
330
0
100
AcDbDictionary
281
     1
  3
ACAD_COLOR
350
28
  3
ACAD_GROUP
350
26
  3
ACAD_LAYOUT
350
1C
  3
ACAD_MATERIAL
350
7
  3
ACAD_MLEADERSTYLE
350
42B
  3
ACAD_MLINESTYLE
350
13
  3
ACAD_PLOTSETTINGS
350
27
  3
ACAD_PLOTSTYLENAME
350
4
  3
ACAD_SCALELIST
350
2D
  3
ACAD_TABLESTYLE
350
42A
  3
ACAD_VISUALSTYLE
350
29
  3
ACDBHEADERROUNDTRIPXREC
350
4F5
  3
AcDbVariableDictionary
350
428
  3
DWGPROPS
350
4F8
  0
DICTIONARY
  5
4F9
330
25
100
AcDbDictionary
280
     1
281
     1
  3
ACAD_XREC_ROUNDTRIP
360
4FA
  0
DICTIONARY
  5
16
330
15
100
AcDbDictionary
280
     1
281
     1
  3
ACAD_SORTENTS
360
17
  0
DICTIONARY
  5
28
102
{ACAD_REACTORS
330
5
102
}
330
5
100
AcDbDictionary
281
     1
  0
DICTIONARY
  5
26
102
{ACAD_REACTORS
330
5
102
}
330
5
100
AcDbDictionary
281
     1
  0
DICTIONARY
  5
1C
102
{ACAD_REACTORS
330
5
102
}
330
5
100
AcDbDictionary
281
     1
  3
Model
350
1B
  3
ﾚｲｱｳﾄ1
350
22
  0
DICTIONARY
  5
7
102
{ACAD_REACTORS
330
5
102
}
330
5
100
AcDbDictionary
281
     1
  3
ByBlock
350
70
  3
ByLayer
350
E
  3
Global
350
6
  0
DICTIONARY
  5
42B
102
{ACAD_REACTORS
330
5
102
}
330
5
100
AcDbDictionary
281
     1
  3
Standard
350
446
  0
DICTIONARY
  5
13
102
{ACAD_REACTORS
330
5
102
}
330
5
100
AcDbDictionary
281
     1
  3
STANDARD
350
12
  0
DICTIONARY
  5
27
102
{ACAD_REACTORS
330
5
102
}
330
5
100
AcDbDictionary
281
     1
  0
ACDBDICTIONARYWDFLT
  5
4
102
{ACAD_REACTORS
330
5
102
}
330
5
100
AcDbDictionary
281
     1
  3
Normal
350
3
100
AcDbDictionaryWithDefault
340
3
  0
DICTIONARY
  5
2D
102
{ACAD_REACTORS
330
5
102
}
330
5
100
AcDbDictionary
281
     1
  3
*A1
350
4F
  3
*A10
350
58
  3
*A11
350
59
  3
*A12
350
5A
  3
*A13
350
5B
  3
*A14
350
5C
  3
*A15
350
5D
  3
*A16
350
5E
  3
*A17
350
5F
  3
*A18
350
60
  3
*A19
350
61
  3
*A2
350
50
  3
*A20
350
62
  3
*A21
350
63
  3
*A22
350
64
  3
*A23
350
65
  3
*A24
350
66
  3
*A25
350
67
  3
*A26
350
68
  3
*A27
350
69
  3
*A28
350
6A
  3
*A29
350
6B
  3
*A3
350
51
  3
*A30
350
6C
  3
*A31
350
6D
  3
*A32
350
6E
  3
*A33
350
6F
  3
*A4
350
52
  3
*A5
350
53
  3
*A6
350
54
  3
*A7
350
55
  3
*A8
350
56
  3
*A9
350
57
  0
DICTIONARY
  5
42A
102
{ACAD_REACTORS
330
5
102
}
330
5
100
AcDbDictionary
281
     1
  3
Standard
350
4F1
  0
DICTIONARY
  5
29
102
{ACAD_REACTORS
330
5
102
}
330
5
100
AcDbDictionary
281
     1
  3
2dWireframe
350
432
  3
Basic
350
435
  3
Brighten
350
439
  3
ColorChange
350
43D
  3
Conceptual
350
437
  3
Dim
350
438
  3
EdgeColorOff
350
440
  3
Facepattern
350
43C
  3
Flat
350
42E
  3
FlatWithEdges
350
42F
  3
Gouraud
350
430
  3
GouraudWithEdges
350
431
  3
Hidden
350
434
  3
JitterOff
350
43E
  3
Linepattern
350
43B
  3
OverhangOff
350
43F
  3
Realistic
350
436
  3
Shaded
350
445
  3
Shaded with edges
350
444
  3
Shades of Gray
350
441
  3
Sketchy
350
442
  3
Thicken
350
43A
  3
Wireframe
350
433
  3
X-Ray
350
443
  0
DICTIONARY
  5
4F5
102
{ACAD_REACTORS
330
5
102
}
330
5
100
AcDbDictionary
281
     1
  3
COLORDICT
350
4F6
  3
MATERIALDICT
350
4F7
  0
DICTIONARY
  5
428
102
{ACAD_REACTORS
330
5
102
}
330
5
100
AcDbDictionary
281
     1
  3
CANNOSCALE
350
429
  3
CMLEADERSTYLE
350
448
  3
CTABLESTYLE
350
4F2
  3
DIMASSOC
350
4F3
  3
HIDETEXT
350
4F4
  3
MSLTSCALE
350
4FB
  0
XRECORD
  5
4F8
102
{ACAD_REACTORS
330
5
102
}
330
5
100
AcDbXrecord
280
     1
  1
DWGPROPS COOKIE
  2

  3

  4

  6

  7

  8
sg-d04
  9

300
=
301
=
302
=
303
=
304
=
305
=
306
=
307
=
308
=
309
=
 40
0.0
 41
2449812.756805555
 42
2457871.453239815
  1

 90
        0
  0
XRECORD
  5
4FA
102
{ACAD_REACTORS
330
4F9
102
}
330
4F9
100
AcDbXrecord
280
     1
102
VTR_0.000_0.000_1.000_1.000_VISUALSTYLE
340
432
102
VTR_0.000_0.000_1.000_1.000_GRIDDISPLAY
 70
     3
102
VTR_0.000_0.000_1.000_1.000_GRIDMAJOR
 70
     5
102
VTR_0.000_0.000_1.000_1.000_DEFAULTLIGHTING
280
     1
102
VTR_0.000_0.000_1.000_1.000_DEFAULTLIGHTINGTYPE
 70
     1
102
VTR_0.000_0.000_1.000_1.000_BRIGHTNESS
141
0.0
102
VTR_0.000_0.000_1.000_1.000_CONTRAST
142
0.0
  0
SORTENTSTABLE
  5
17
102
{ACAD_REACTORS
330
16
102
}
330
16
100
AcDbSortentsTable
330
15
331
0
  5
11F
331
A4
  5
A5
331
A9
  5
AB
331
AA
  5
AC
331
AB
  5
AD
331
AC
  5
AE
331
AD
  5
AF
331
AE
  5
B0
331
AF
  5
B1
331
B0
  5
B2
331
B1
  5
B3
331
B2
  5
B4
331
B3
  5
B5
331
B4
  5
B6
331
B5
  5
B7
331
B6
  5
B8
331
B7
  5
B9
331
B8
  5
BA
331
B9
  5
BB
331
BA
  5
BC
331
BB
  5
BD
331
BC
  5
BE
331
BD
  5
BF
331
BE
  5
C0
331
BF
  5
C1
331
C0
  5
C2
331
C1
  5
C3
331
C2
  5
C4
331
C3
  5
C5
331
C4
  5
C6
331
C5
  5
C7
331
C6
  5
C8
331
C7
  5
C9
331
C8
  5
CA
331
C9
  5
CB
331
CA
  5
CC
331
CB
  5
CD
331
CC
  5
CE
331
CD
  5
CF
331
CE
  5
D0
331
CF
  5
D1
331
D0
  5
D2
331
D2
  5
D4
331
D3
  5
D5
331
D4
  5
D6
331
D5
  5
D7
331
D6
  5
D8
331
D7
  5
D9
331
D8
  5
DA
331
DB
  5
DD
331
DC
  5
DE
331
DD
  5
DF
331
E0
  5
E2
331
E5
  5
E7
331
E6
  5
E8
331
E7
  5
E9
331
E8
  5
EA
331
E9
  5
EB
331
EC
  5
EE
331
F1
  5
F3
331
F2
  5
F4
331
F3
  5
F5
331
F4
  5
F6
331
F5
  5
F7
331
F6
  5
F8
331
F7
  5
F9
331
F8
  5
FA
331
F9
  5
FB
331
FA
  5
FC
331
FB
  5
FD
331
FC
  5
FE
331
FD
  5
FF
331
FE
  5
100
331
109
  5
10B
331
10C
  5
10E
331
10D
  5
10F
331
110
  5
112
331
111
  5
113
331
118
  5
11A
331
11A
  5
11C
331
11B
  5
11D
331
11C
  5
11E
331
11F
  5
121
331
120
  5
122
331
121
  5
123
331
122
  5
124
331
123
  5
125
331
124
  5
126
331
125
  5
127
331
126
  5
128
331
127
  5
129
331
128
  5
12A
331
129
  5
12B
331
12A
  5
12C
331
12B
  5
12D
331
12C
  5
12E
331
12D
  5
12F
331
12E
  5
130
331
132
  5
134
331
133
  5
135
331
134
  5
136
331
135
  5
138
331
136
  5
139
331
137
  5
13A
331
138
  5
13B
331
13A
  5
13D
331
13B
  5
13E
331
13C
  5
13F
331
13D
  5
140
331
13E
  5
141
331
13F
  5
142
331
140
  5
143
331
141
  5
144
331
142
  5
145
331
143
  5
146
331
144
  5
147
331
145
  5
148
331
146
  5
149
331
147
  5
14A
331
148
  5
14B
331
149
  5
14C
331
14A
  5
14D
331
14B
  5
14E
331
150
  5
153
331
151
  5
154
331
152
  5
155
331
153
  5
156
331
154
  5
157
331
155
  5
158
331
156
  5
159
331
157
  5
15A
331
158
  5
15B
331
159
  5
15C
331
15A
  5
15D
331
15B
  5
15E
331
15C
  5
15F
331
15E
  5
161
331
15F
  5
162
331
160
  5
163
331
161
  5
164
331
162
  5
165
331
163
  5
166
331
164
  5
167
331
165
  5
169
331
166
  5
16A
331
167
  5
16B
331
168
  5
16C
331
169
  5
16D
331
16A
  5
16E
331
16B
  5
16F
331
16C
  5
170
331
16D
  5
172
331
16E
  5
173
331
16F
  5
174
331
170
  5
175
331
171
  5
176
331
172
  5
177
331
173
  5
178
331
174
  5
179
331
175
  5
17A
331
176
  5
17B
331
177
  5
17C
331
178
  5
17D
331
17A
  5
17F
331
17B
  5
180
331
17C
  5
181
331
17D
  5
182
331
17E
  5
183
331
17F
  5
184
331
180
  5
185
331
181
  5
186
331
185
  5
18A
331
186
  5
18B
331
187
  5
18C
331
188
  5
18D
331
189
  5
18E
331
192
  5
197
331
193
  5
198
331
196
  5
19B
331
197
  5
19C
331
198
  5
19D
331
199
  5
19E
331
19C
  5
1A1
331
1A2
  5
1A7
331
1A3
  5
1A8
331
1A4
  5
1A9
331
1A5
  5
1AA
331
1A6
  5
1AB
331
1A7
  5
1AC
331
1A8
  5
1AD
331
1A9
  5
1AE
331
1AA
  5
1AF
331
1AB
  5
1B0
331
1AC
  5
1B1
331
1AD
  5
1B2
331
1AE
  5
1B3
331
1BA
  5
1BF
331
1BB
  5
1C0
331
1C2
  5
1C7
331
1C3
  5
1C8
331
1C4
  5
1C9
331
1C8
  5
1CD
331
1C9
  5
1CE
331
1CA
  5
1CF
331
1CB
  5
1D0
331
1CC
  5
1D1
331
1CD
  5
1D2
331
1CE
  5
1D3
331
1CF
  5
1D4
331
1D0
  5
1D5
331
1D1
  5
1D6
331
1D2
  5
1D7
331
1D3
  5
1D8
331
1D4
  5
1D9
331
1D5
  5
1DA
331
1D6
  5
1DB
331
1D7
  5
1DC
331
1D8
  5
1DD
331
1D9
  5
1DE
331
1DA
  5
1DF
331
1DB
  5
1E0
331
1DC
  5
1E1
331
1DD
  5
1E2
331
1DE
  5
1E3
331
1DF
  5
1E4
331
1E0
  5
1E5
331
1E1
  5
1E6
331
1E2
  5
1E7
331
1E3
  5
1E8
331
1E4
  5
1E9
331
1E5
  5
1EA
331
1E6
  5
1EB
331
1E7
  5
1EC
331
1E8
  5
1ED
331
1E9
  5
1EE
331
1EA
  5
1EF
331
1EB
  5
1F0
331
1EE
  5
1F3
331
1EF
  5
1F4
331
1F0
  5
1F5
331
1F1
  5
1F6
331
1F2
  5
1F7
331
1F3
  5
1F8
331
1F4
  5
1F9
331
1F5
  5
1FA
331
1F6
  5
1FB
331
1FC
  5
201
331
1FD
  5
202
331
1FE
  5
203
331
1FF
  5
204
331
206
  5
20B
331
207
  5
20C
331
208
  5
20D
331
209
  5
20E
331
20A
  5
20F
331
20B
  5
210
331
20D
  5
212
331
20F
  5
214
331
210
  5
215
331
211
  5
216
331
212
  5
217
331
213
  5
218
331
214
  5
219
331
215
  5
21A
331
216
  5
21B
331
217
  5
21C
331
218
  5
21D
331
219
  5
21E
331
21B
  5
220
331
21C
  5
221
331
21D
  5
222
331
21E
  5
223
331
21F
  5
224
331
220
  5
225
331
221
  5
226
331
222
  5
227
331
223
  5
228
331
224
  5
229
331
233
  5
238
331
236
  5
23B
331
237
  5
23C
331
238
  5
23D
331
239
  5
23E
331
23A
  5
23F
331
23B
  5
240
331
23C
  5
241
331
23D
  5
242
331
23E
  5
243
331
23F
  5
244
331
240
  5
245
331
241
  5
246
331
242
  5
247
331
243
  5
248
331
244
  5
249
331
245
  5
24A
331
246
  5
24B
331
247
  5
24C
331
248
  5
24D
331
249
  5
24E
331
24D
  5
252
331
24E
  5
253
331
24F
  5
254
331
250
  5
255
331
3D3
  5
3D8
331
3D4
  5
3D9
331
3D5
  5
3DA
331
3D6
  5
3DB
331
3D7
  5
3DC
331
3D8
  5
3DD
331
3D9
  5
3DE
331
3DA
  5
3DF
331
3DB
  5
3E0
331
3DC
  5
3E1
331
3DD
  5
3E2
331
3DE
  5
3E3
331
3DF
  5
3E4
331
3E0
  5
3E5
331
3E1
  5
3E6
331
3E2
  5
3E7
331
3E3
  5
3E8
331
3E4
  5
3E9
331
3E5
  5
3EA
331
3E6
  5
3EB
331
3E7
  5
3EC
331
3E8
  5
3ED
331
3E9
  5
3EE
331
3EA
  5
3EF
331
3EB
  5
3F0
331
3EC
  5
3F1
331
3ED
  5
3F2
331
3EE
  5
3F3
331
3EF
  5
3F4
331
3F0
  5
3F5
331
3F1
  5
3F6
331
3F2
  5
3F7
331
3F3
  5
3F8
331
3F4
  5
3F9
331
3F5
  5
3FA
331
3F6
  5
3FB
331
3F7
  5
3FC
331
3F8
  5
3FD
331
3F9
  5
3FE
331
3FA
  5
3FF
331
3FB
  5
400
331
3FC
  5
401
331
3FD
  5
402
331
3FE
  5
403
331
3FF
  5
404
331
400
  5
405
331
401
  5
406
331
402
  5
407
331
403
  5
408
331
404
  5
409
331
405
  5
40A
331
406
  5
40B
331
407
  5
40C
331
408
  5
40D
331
409
  5
40E
331
40A
  5
40F
331
40B
  5
410
331
40C
  5
411
331
40D
  5
412
331
40E
  5
413
331
40F
  5
414
331
410
  5
415
331
411
  5
416
331
412
  5
417
331
413
  5
418
331
414
  5
419
331
415
  5
41A
331
416
  5
41B
331
417
  5
41C
331
418
  5
41D
331
419
  5
41E
331
41A
  5
41F
331
41B
  5
420
331
41C
  5
421
331
41D
  5
422
331
41E
  5
423
331
41F
  5
424
331
420
  5
425
331
421
  5
426
331
422
  5
427
331
423
  5
449
331
424
  5
44A
331
425
  5
44B
331
426
  5
44C
331
427
  5
44D
331
44D
  5
450
331
44E
  5
451
331
44F
  5
452
331
450
  5
453
331
451
  5
454
331
452
  5
455
331
453
  5
456
331
454
  5
457
331
455
  5
458
331
456
  5
459
331
457
  5
45A
331
45A
  5
45D
331
45B
  5
45E
331
45C
  5
45F
331
45D
  5
460
331
45E
  5
461
331
45F
  5
462
331
460
  5
463
331
461
  5
464
331
462
  5
465
331
463
  5
466
331
464
  5
467
331
465
  5
468
331
466
  5
469
331
467
  5
168
331
468
  5
171
331
469
  5
137
  0
LAYOUT
  5
1B
102
{ACAD_REACTORS
330
1C
102
}
330
1C
100
AcDbPlotSettings
  1

  2
Bullzip PDF Printer.pc3
  4
A3
  6

 40
0.2
 41
0.0
 42
0.0
 43
0.0
 44
420.2
 45
297.1
 46
25.0
 47
12.0
 48
44.99999995999997
 49
5.0
140
617.9999986475001
141
413.74999904625
142
1.0
143
1.5
 70
 11936
 72
     1
 73
     0
 74
     4
  7
monochrome.ctb
 75
     0
147
0.6666666666666666
148
-44.99999995999997
149
-5.0
100
AcDbLayout
  1
Model
 70
     0
 71
     0
 10
0.0
 20
0.0
 11
12.0
 21
9.0
 12
0.0
 22
0.0
 32
0.0
 14
98.99495413458396
 24
28.13290068193189
 34
0.0
 15
563.6442606658043
 25
476.6292176865294
 35
0.0
146
0.0
 13
0.0
 23
0.0
 33
0.0
 16
1.0
 26
0.0
 36
0.0
 17
0.0
 27
1.0
 37
0.0
 76
     0
330
15
331
2B
1001
ACAD_PSEXT
1000
Bullzip PDF Printer.pc3
1000
Bullzip PDF Printer
1000
BULLZIP
1000
Bullzip PDF Printer 10.1.0.1871
1070
     0
  0
LAYOUT
  5
22
102
{ACAD_REACTORS
330
1C
102
}
330
1C
100
AcDbPlotSettings
  1

  2
SR-LP8300F
  4

  6

 40
0.0
 41
0.0
 42
0.0
 43
0.0
 44
0.0
 45
0.0
 46
0.0
 47
0.0
 48
0.0
 49
0.0
140
0.0
141
0.0
142
1.0
143
1.0
 70
   688
 72
     0
 73
     0
 74
     5
  7
monochrome.ctb
 75
    16
147
1.0
148
0.0
149
0.0
100
AcDbLayout
  1
ﾚｲｱｳﾄ1
 70
     0
 71
     1
 10
0.0
 20
0.0
 11
12.0
 21
9.0
 12
0.0
 22
0.0
 32
0.0
 14
1.000000000000000E+20
 24
1.000000000000000E+20
 34
1.000000000000000E+20
 15
-1.000000000000000E+20
 25
-1.000000000000000E+20
 35
-1.000000000000000E+20
146
0.0
 13
0.0
 23
0.0
 33
0.0
 16
1.0
 26
0.0
 36
0.0
 17
0.0
 27
1.0
 37
0.0
 76
     0
330
1F
  0
MATERIAL
  5
70
102
{ACAD_REACTORS
330
7
102
}
102
{ACAD_XDICTIONARY
360
500
102
}
330
7
100
AcDbMaterial
  1
ByBlock
  0
MATERIAL
  5
E
102
{ACAD_REACTORS
330
7
102
}
102
{ACAD_XDICTIONARY
360
4FC
102
}
330
7
100
AcDbMaterial
  1
ByLayer
  0
MATERIAL
  5
6
102
{ACAD_REACTORS
330
7
102
}
102
{ACAD_XDICTIONARY
360
4FE
102
}
330
7
100
AcDbMaterial
  1
Global
  0
MLEADERSTYLE
  5
446
102
{ACAD_REACTORS
330
42B
102
}
102
{ACAD_XDICTIONARY
360
532
102
}
330
42B
100
AcDbMLeaderStyle
170
     2
171
     1
172
     0
 90
        2
 40
0.0
 41
0.0
173
     1
 91
-1056964608
340
B
 92
       -2
290
     1
 42
0.09
291
     1
 43
0.36
  3
Standard
341
0
 44
0.18
300

342
C
174
     1
178
     6
175
     1
176
     0
 93
-1056964608
 45
0.18
292
     0
297
     0
 46
0.18
343
0
 94
-1056964608
 47
1.0
 49
1.0
140
1.0
293
     1
141
0.0
294
     1
177
     0
142
1.0
295
     0
296
     0
143
0.125
1001
ACAD_MLEADERVER
1070
     2
  0
MLINESTYLE
  5
12
102
{ACAD_REACTORS
330
13
102
}
330
13
100
AcDbMlineStyle
  2
STANDARD
 70
     0
  3

 62
     0
 51
90.0
 52
90.0
 71
     2
 49
0.5
 62
   256
  6
BYLAYER
 49
-0.5
 62
   256
  6
BYLAYER
  0
ACDBPLACEHOLDER
  5
3
102
{ACAD_REACTORS
330
4
102
}
330
4
  0
SCALE
  5
4F
102
{ACAD_REACTORS
330
2D
102
}
330
2D
100
AcDbScale
 70
     0
300
1:1
140
1.0
141
1.0
290
     1
  0
SCALE
  5
58
102
{ACAD_REACTORS
330
2D
102
}
330
2D
100
AcDbScale
 70
     0
300
1:40
140
1.0
141
40.0
290
     0
  0
SCALE
  5
59
102
{ACAD_REACTORS
330
2D
102
}
330
2D
100
AcDbScale
 70
     0
300
1:50
140
1.0
141
50.0
290
     0
  0
SCALE
  5
5A
102
{ACAD_REACTORS
330
2D
102
}
330
2D
100
AcDbScale
 70
     0
300
1:100
140
1.0
141
100.0
290
     0
  0
SCALE
  5
5B
102
{ACAD_REACTORS
330
2D
102
}
330
2D
100
AcDbScale
 70
     0
300
2:1
140
2.0
141
1.0
290
     0
  0
SCALE
  5
5C
102
{ACAD_REACTORS
330
2D
102
}
330
2D
100
AcDbScale
 70
     0
300
4:1
140
4.0
141
1.0
290
     0
  0
SCALE
  5
5D
102
{ACAD_REACTORS
330
2D
102
}
330
2D
100
AcDbScale
 70
     0
300
8:1
140
8.0
141
1.0
290
     0
  0
SCALE
  5
5E
102
{ACAD_REACTORS
330
2D
102
}
330
2D
100
AcDbScale
 70
     0
300
10:1
140
10.0
141
1.0
290
     0
  0
SCALE
  5
5F
102
{ACAD_REACTORS
330
2D
102
}
330
2D
100
AcDbScale
 70
     0
300
100:1
140
100.0
141
1.0
290
     0
  0
SCALE
  5
60
102
{ACAD_REACTORS
330
2D
102
}
330
2D
100
AcDbScale
 70
     0
300
1/128" = 1'-0"
140
0.0078125
141
12.0
290
     0
  0
SCALE
  5
61
102
{ACAD_REACTORS
330
2D
102
}
330
2D
100
AcDbScale
 70
     0
300
1/64" = 1'-0"
140
0.015625
141
12.0
290
     0
  0
SCALE
  5
50
102
{ACAD_REACTORS
330
2D
102
}
330
2D
100
AcDbScale
 70
     0
300
1:2
140
1.0
141
2.0
290
     0
  0
SCALE
  5
62
102
{ACAD_REACTORS
330
2D
102
}
330
2D
100
AcDbScale
 70
     0
300
1/32" = 1'-0"
140
0.03125
141
12.0
290
     0
  0
SCALE
  5
63
102
{ACAD_REACTORS
330
2D
102
}
330
2D
100
AcDbScale
 70
     0
300
1/16" = 1'-0"
140
0.0625
141
12.0
290
     0
  0
SCALE
  5
64
102
{ACAD_REACTORS
330
2D
102
}
330
2D
100
AcDbScale
 70
     0
300
3/32" = 1'-0"
140
0.09375
141
12.0
290
     0
  0
SCALE
  5
65
102
{ACAD_REACTORS
330
2D
102
}
330
2D
100
AcDbScale
 70
     0
300
1/8" = 1'-0"
140
0.125
141
12.0
290
     0
  0
SCALE
  5
66
102
{ACAD_REACTORS
330
2D
102
}
330
2D
100
AcDbScale
 70
     0
300
3/16" = 1'-0"
140
0.1875
141
12.0
290
     0
  0
SCALE
  5
67
102
{ACAD_REACTORS
330
2D
102
}
330
2D
100
AcDbScale
 70
     0
300
1/4" = 1'-0"
140
0.25
141
12.0
290
     0
  0
SCALE
  5
68
102
{ACAD_REACTORS
330
2D
102
}
330
2D
100
AcDbScale
 70
     0
300
3/8" = 1'-0"
140
0.375
141
12.0
290
     0
  0
SCALE
  5
69
102
{ACAD_REACTORS
330
2D
102
}
330
2D
100
AcDbScale
 70
     0
300
1/2" = 1'-0"
140
0.5
141
12.0
290
     0
  0
SCALE
  5
6A
102
{ACAD_REACTORS
330
2D
102
}
330
2D
100
AcDbScale
 70
     0
300
3/4" = 1'-0"
140
0.75
141
12.0
290
     0
  0
SCALE
  5
6B
102
{ACAD_REACTORS
330
2D
102
}
330
2D
100
AcDbScale
 70
     0
300
1" = 1'-0"
140
1.0
141
12.0
290
     0
  0
SCALE
  5
51
102
{ACAD_REACTORS
330
2D
102
}
330
2D
100
AcDbScale
 70
     0
300
1:4
140
1.0
141
4.0
290
     0
  0
SCALE
  5
6C
102
{ACAD_REACTORS
330
2D
102
}
330
2D
100
AcDbScale
 70
     0
300
1-1/2" = 1'-0"
140
1.5
141
12.0
290
     0
  0
SCALE
  5
6D
102
{ACAD_REACTORS
330
2D
102
}
330
2D
100
AcDbScale
 70
     0
300
3" = 1'-0"
140
3.0
141
12.0
290
     0
  0
SCALE
  5
6E
102
{ACAD_REACTORS
330
2D
102
}
330
2D
100
AcDbScale
 70
     0
300
6" = 1'-0"
140
6.0
141
12.0
290
     0
  0
SCALE
  5
6F
102
{ACAD_REACTORS
330
2D
102
}
330
2D
100
AcDbScale
 70
     0
300
1'-0" = 1'-0"
140
12.0
141
12.0
290
     0
  0
SCALE
  5
52
102
{ACAD_REACTORS
330
2D
102
}
330
2D
100
AcDbScale
 70
     0
300
1:5
140
1.0
141
5.0
290
     0
  0
SCALE
  5
53
102
{ACAD_REACTORS
330
2D
102
}
330
2D
100
AcDbScale
 70
     0
300
1:8
140
1.0
141
8.0
290
     0
  0
SCALE
  5
54
102
{ACAD_REACTORS
330
2D
102
}
330
2D
100
AcDbScale
 70
     0
300
1:10
140
1.0
141
10.0
290
     0
  0
SCALE
  5
55
102
{ACAD_REACTORS
330
2D
102
}
330
2D
100
AcDbScale
 70
     0
300
1:16
140
1.0
141
16.0
290
     0
  0
SCALE
  5
56
102
{ACAD_REACTORS
330
2D
102
}
330
2D
100
AcDbScale
 70
     0
300
1:20
140
1.0
141
20.0
290
     0
  0
SCALE
  5
57
102
{ACAD_REACTORS
330
2D
102
}
330
2D
100
AcDbScale
 70
     0
300
1:30
140
1.0
141
30.0
290
     0
  0
TABLESTYLE
  5
4F1
102
{ACAD_REACTORS
330
42A
102
}
330
42A
100
AcDbTableStyle
  3
Standard
 70
     0
 71
     0
 40
0.06
 41
0.06
280
     0
281
     0
  7
STANDARD
140
0.18
170
     2
 62
     0
 63
   257
283
     0
274
    -2
284
     1
 64
     0
275
    -2
285
     1
 65
     0
276
    -2
286
     1
 66
     0
277
    -2
287
     1
 67
     0
278
    -2
288
     1
 68
     0
279
    -2
289
     1
 69
     0
  7
STANDARD
140
0.25
170
     5
 62
     0
 63
   257
283
     0
274
    -2
284
     1
 64
     0
275
    -2
285
     1
 65
     0
276
    -2
286
     1
 66
     0
277
    -2
287
     1
 67
     0
278
    -2
288
     1
 68
     0
279
    -2
289
     1
 69
     0
  7
STANDARD
140
0.18
170
     5
 62
     0
 63
   257
283
     0
274
    -2
284
     1
 64
     0
275
    -2
285
     1
 65
     0
276
    -2
286
     1
 66
     0
277
    -2
287
     1
 67
     0
278
    -2
288
     1
 68
     0
279
    -2
289
     1
 69
     0
  0
VISUALSTYLE
  5
432
102
{ACAD_REACTORS
330
29
102
}
102
{ACAD_XDICTIONARY
360
50A
102
}
330
29
100
AcDbVisualStyle
  2
2dWireframe
 70
     4
 71
     0
 72
     2
 73
     0
 90
        0
 40
0.6
 41
30.0
 62
     5
 63
     7
 74
     1
 91
        4
 64
     7
 65
   257
 75
     1
175
     1
 42
1.0
 92
        0
 66
   257
 43
1.0
 76
     1
 77
     6
 78
     2
 67
     7
 79
     5
170
     0
171
     0
290
     0
174
     0
 93
        1
 44
0.0
173
     0
291
     0
 45
0.0
1001
ACAD
1000
AcDbSavedByObjectVersion
1070
     0
  0
VISUALSTYLE
  5
435
102
{ACAD_REACTORS
330
29
102
}
102
{ACAD_XDICTIONARY
360
510
102
}
330
29
100
AcDbVisualStyle
  2
Basic
 70
     7
 71
     1
 72
     0
 73
     1
 90
        0
 40
0.6
 41
30.0
 62
     5
 63
     7
 74
     0
 91
        4
 64
     7
 65
   257
 75
     1
175
     1
 42
1.0
 92
        8
 66
     7
 43
1.0
 76
     1
 77
     6
 78
     2
 67
     7
 79
     5
170
     0
171
     0
290
     0
174
     0
 93
        1
 44
0.0
173
     0
291
     1
 45
0.0
1001
ACAD
1000
AcDbSavedByObjectVersion
1070
     0
  0
VISUALSTYLE
  5
439
102
{ACAD_REACTORS
330
29
102
}
102
{ACAD_XDICTIONARY
360
518
102
}
330
29
100
AcDbVisualStyle
  2
Brighten
 70
    12
 71
     2
 72
     2
 73
     0
 90
        0
 40
0.6
 41
30.0
 62
     5
 63
     7
 74
     1
 91
        4
 64
     7
 65
   257
 75
     1
175
     1
 42
1.0
 92
        8
 66
     7
 43
1.0
 76
     1
 77
     6
 78
     2
 67
     7
 79
     5
170
     0
171
     0
290
     0
174
     0
 93
        1
 44
50.0
173
     0
291
     1
 45
0.0
1001
ACAD
1000
AcDbSavedByObjectVersion
1070
     0
  0
VISUALSTYLE
  5
43D
102
{ACAD_REACTORS
330
29
102
}
102
{ACAD_XDICTIONARY
360
520
102
}
330
29
100
AcDbVisualStyle
  2
ColorChange
 70
    16
 71
     2
 72
     2
 73
     3
 90
        0
 40
0.6
 41
30.0
 62
     5
 63
     8
 74
     1
 91
        4
 64
     7
 65
   257
 75
     1
175
     1
 42
1.0
 92
        8
 66
     8
 43
1.0
 76
     1
 77
     6
 78
     2
 67
     7
 79
     5
170
     0
171
     0
290
     0
174
     0
 93
        1
 44
0.0
173
     0
291
     1
 45
0.0
1001
ACAD
1000
AcDbSavedByObjectVersion
1070
     0
  0
VISUALSTYLE
  5
437
102
{ACAD_REACTORS
330
29
102
}
102
{ACAD_XDICTIONARY
360
514
102
}
330
29
100
AcDbVisualStyle
  2
Conceptual
 70
     9
 71
     3
 72
     2
 73
     0
 90
        0
 40
0.6
 41
30.0
 62
     5
 63
     7
 74
     2
 91
        2
 64
     7
 65
   257
 75
     1
175
     1
 42
40.0
 92
        8
 66
     7
 43
1.0
 76
     1
 77
     6
 78
     2
 67
     7
 79
     3
170
     0
171
     0
290
     0
174
     0
 93
        1
 44
0.0
173
     0
291
     0
 45
0.0
1001
ACAD
1000
AcDbSavedByObjectVersion
1070
     0
  0
VISUALSTYLE
  5
438
102
{ACAD_REACTORS
330
29
102
}
102
{ACAD_XDICTIONARY
360
516
102
}
330
29
100
AcDbVisualStyle
  2
Dim
 70
    11
 71
     2
 72
     2
 73
     0
 90
        0
 40
0.6
 41
30.0
 62
     5
 63
     7
 74
     1
 91
        4
 64
     7
 65
   257
 75
     1
175
     1
 42
1.0
 92
        8
 66
     7
 43
1.0
 76
     1
 77
     6
 78
     2
 67
     7
 79
     5
170
     0
171
     0
290
     0
174
     0
 93
        1
 44
-50.0
173
     0
291
     1
 45
0.0
1001
ACAD
1000
AcDbSavedByObjectVersion
1070
     0
  0
VISUALSTYLE
  5
440
102
{ACAD_REACTORS
330
29
102
}
102
{ACAD_XDICTIONARY
360
526
102
}
330
29
100
AcDbVisualStyle
  2
EdgeColorOff
 70
    22
 71
     2
 72
     2
 73
     0
 90
        0
 40
0.6
 41
30.0
 62
     5
 63
     7
 74
     1
 91
        4
 64
     7
 65
   257
 75
     1
175
     1
 42
1.0
 92
        8
 66
     7
 43
1.0
 76
     1
 77
     6
 78
     2
 67
     7
 79
     5
170
     0
171
     0
290
     0
174
     0
 93
        1
 44
0.0
173
     0
291
     1
 45
0.0
1001
ACAD
1000
AcDbSavedByObjectVersion
1070
     0
  0
VISUALSTYLE
  5
43C
102
{ACAD_REACTORS
330
29
102
}
102
{ACAD_XDICTIONARY
360
51E
102
}
330
29
100
AcDbVisualStyle
  2
Facepattern
 70
    15
 71
     2
 72
     2
 73
     0
 90
        0
 40
0.6
 41
30.0
 62
     5
 63
     7
 74
     1
 91
        4
 64
     7
 65
   257
 75
     1
175
     1
 42
1.0
 92
        8
 66
     7
 43
1.0
 76
     1
 77
     6
 78
     2
 67
     7
 79
     5
170
     0
171
     0
290
     0
174
     0
 93
        1
 44
0.0
173
     0
291
     1
 45
0.0
1001
ACAD
1000
AcDbSavedByObjectVersion
1070
     0
  0
VISUALSTYLE
  5
42E
102
{ACAD_REACTORS
330
29
102
}
102
{ACAD_XDICTIONARY
360
502
102
}
330
29
100
AcDbVisualStyle
  2
Flat
 70
     0
 71
     2
 72
     1
 73
     1
 90
        2
 40
0.6
 41
30.0
 62
     5
 63
     7
 74
     0
 91
        4
 64
     7
 65
   257
 75
     1
175
     1
 42
1.0
 92
        8
 66
     7
 43
1.0
 76
     1
 77
     6
 78
     2
 67
     7
 79
     5
170
     0
171
     0
290
     0
174
     0
 93
       13
 44
0.0
173
     0
291
     1
 45
0.0
1001
ACAD
1000
AcDbSavedByObjectVersion
1070
     0
  0
VISUALSTYLE
  5
42F
102
{ACAD_REACTORS
330
29
102
}
102
{ACAD_XDICTIONARY
360
504
102
}
330
29
100
AcDbVisualStyle
  2
FlatWithEdges
 70
     1
 71
     2
 72
     1
 73
     1
 90
        2
 40
0.6
 41
30.0
 62
     5
 63
     7
 74
     1
 91
        4
 64
     7
 65
   257
 75
     1
175
     1
 42
1.0
 92
        0
 66
   257
 43
1.0
 76
     1
 77
     6
 78
     2
 67
     7
 79
     5
170
     0
171
     0
290
     0
174
     0
 93
       13
 44
0.0
173
     0
291
     1
 45
0.0
1001
ACAD
1000
AcDbSavedByObjectVersion
1070
     0
  0
VISUALSTYLE
  5
430
102
{ACAD_REACTORS
330
29
102
}
102
{ACAD_XDICTIONARY
360
506
102
}
330
29
100
AcDbVisualStyle
  2
Gouraud
 70
     2
 71
     2
 72
     2
 73
     1
 90
        2
 40
0.6
 41
30.0
 62
     5
 63
     7
 74
     0
 91
        4
 64
     7
 65
   257
 75
     1
175
     1
 42
1.0
 92
        0
 66
     7
 43
1.0
 76
     1
 77
     6
 78
     2
 67
     7
 79
     5
170
     0
171
     0
290
     0
174
     0
 93
       13
 44
0.0
173
     0
291
     1
 45
0.0
1001
ACAD
1000
AcDbSavedByObjectVersion
1070
     0
  0
VISUALSTYLE
  5
431
102
{ACAD_REACTORS
330
29
102
}
102
{ACAD_XDICTIONARY
360
508
102
}
330
29
100
AcDbVisualStyle
  2
GouraudWithEdges
 70
     3
 71
     2
 72
     2
 73
     1
 90
        2
 40
0.6
 41
30.0
 62
     5
 63
     7
 74
     1
 91
        4
 64
     7
 65
   257
 75
     1
175
     1
 42
1.0
 92
        0
 66
   257
 43
1.0
 76
     1
 77
     6
 78
     2
 67
     7
 79
     5
170
     0
171
     0
290
     0
174
     0
 93
       13
 44
0.0
173
     0
291
     1
 45
0.0
1001
ACAD
1000
AcDbSavedByObjectVersion
1070
     0
  0
VISUALSTYLE
  5
434
102
{ACAD_REACTORS
330
29
102
}
102
{ACAD_XDICTIONARY
360
50E
102
}
330
29
100
AcDbVisualStyle
  2
Hidden
 70
     6
 71
     1
 72
     2
 73
     2
 90
        0
 40
0.6
 41
30.0
 62
     5
 63
     7
 74
     2
 91
        2
 64
     7
 65
   257
 75
     2
175
     1
 42
40.0
 92
        0
 66
   257
 43
1.0
 76
     1
 77
     6
 78
     2
 67
     7
 79
     3
170
     0
171
     0
290
     0
174
     0
 93
        1
 44
0.0
173
     0
291
     0
 45
0.0
1001
ACAD
1000
AcDbSavedByObjectVersion
1070
     0
  0
VISUALSTYLE
  5
43E
102
{ACAD_REACTORS
330
29
102
}
102
{ACAD_XDICTIONARY
360
522
102
}
330
29
100
AcDbVisualStyle
  2
JitterOff
 70
    20
 71
     2
 72
     2
 73
     0
 90
        0
 40
0.6
 41
30.0
 62
     5
 63
     7
 74
     1
 91
        4
 64
     7
 65
   257
 75
     1
175
     1
 42
1.0
 92
       10
 66
     7
 43
1.0
 76
     1
 77
     6
 78
     2
 67
     7
 79
     5
170
     0
171
     0
290
     0
174
     0
 93
        1
 44
0.0
173
     0
291
     1
 45
0.0
1001
ACAD
1000
AcDbSavedByObjectVersion
1070
     0
  0
VISUALSTYLE
  5
43B
102
{ACAD_REACTORS
330
29
102
}
102
{ACAD_XDICTIONARY
360
51C
102
}
330
29
100
AcDbVisualStyle
  2
Linepattern
 70
    14
 71
     2
 72
     2
 73
     0
 90
        0
 40
0.6
 41
30.0
 62
     5
 63
     7
 74
     1
 91
        4
 64
     7
 65
   257
 75
     7
175
     7
 42
1.0
 92
        8
 66
     7
 43
1.0
 76
     1
 77
     6
 78
     2
 67
     7
 79
     5
170
     0
171
     0
290
     0
174
     0
 93
        1
 44
0.0
173
     0
291
     1
 45
0.0
1001
ACAD
1000
AcDbSavedByObjectVersion
1070
     0
  0
VISUALSTYLE
  5
43F
102
{ACAD_REACTORS
330
29
102
}
102
{ACAD_XDICTIONARY
360
524
102
}
330
29
100
AcDbVisualStyle
  2
OverhangOff
 70
    21
 71
     2
 72
     2
 73
     0
 90
        0
 40
0.6
 41
30.0
 62
     5
 63
     7
 74
     1
 91
        4
 64
     7
 65
   257
 75
     1
175
     1
 42
1.0
 92
        9
 66
     7
 43
1.0
 76
     1
 77
     6
 78
     2
 67
     7
 79
     5
170
     0
171
     0
290
     0
174
     0
 93
        1
 44
0.0
173
     0
291
     1
 45
0.0
1001
ACAD
1000
AcDbSavedByObjectVersion
1070
     0
  0
VISUALSTYLE
  5
436
102
{ACAD_REACTORS
330
29
102
}
102
{ACAD_XDICTIONARY
360
512
102
}
330
29
100
AcDbVisualStyle
  2
Realistic
 70
     8
 71
     2
 72
     3
 73
     0
 90
        2
 40
0.6
 41
30.0
 62
     5
 63
     7
 74
     0
 91
        0
 64
     7
 65
   257
 75
     1
175
     1
 42
1.0
 92
        8
 66
   257
 43
1.0
 76
     1
 77
     6
 78
     2
 67
     7
 79
     3
170
     0
171
     0
290
     0
174
     0
 93
       13
 44
0.0
173
     0
291
     0
 45
0.0
1001
ACAD
1000
AcDbSavedByObjectVersion
1070
     0
  0
VISUALSTYLE
  5
445
102
{ACAD_REACTORS
330
29
102
}
102
{ACAD_XDICTIONARY
360
530
102
}
330
29
100
AcDbVisualStyle
  2
Shaded
 70
    27
 71
     2
 72
     2
 73
     1
 90
        2
 40
0.6
 41
30.0
 62
     5
 63
     7
 74
     0
 91
        4
 64
     7
 65
   257
 75
     1
175
     1
 42
1.0
 92
        8
 66
   257
 43
1.0
 76
     1
 77
     6
 78
     2
 67
   251
 79
     3
170
     0
171
     0
290
     0
174
     0
 93
        5
 44
0.0
173
     0
291
     0
 45
0.0
1001
ACAD
1000
AcDbSavedByObjectVersion
1070
     0
  0
VISUALSTYLE
  5
444
102
{ACAD_REACTORS
330
29
102
}
102
{ACAD_XDICTIONARY
360
52E
102
}
330
29
100
AcDbVisualStyle
  2
Shaded with edges
 70
    26
 71
     2
 72
     2
 73
     1
 90
        2
 40
0.6
 41
30.0
 62
     5
 63
     7
 74
     1
 91
       10
 64
     7
 65
   257
 75
     2
175
     1
 42
1.0
 92
        8
 66
   257
 43
1.0
 76
     1
 77
     6
 78
     2
 67
     7
 79
     3
170
     0
171
     0
290
     0
174
     0
 93
        5
 44
0.0
173
     0
291
     0
 45
0.0
1001
ACAD
1000
AcDbSavedByObjectVersion
1070
     0
  0
VISUALSTYLE
  5
441
102
{ACAD_REACTORS
330
29
102
}
102
{ACAD_XDICTIONARY
360
528
102
}
330
29
100
AcDbVisualStyle
  2
Shades of Gray
 70
    23
 71
     2
 72
     2
 73
     3
 90
        0
 40
0.6
 41
30.0
 62
     5
 63
     7
 74
     2
 91
        2
 64
     7
 65
     7
 75
     1
175
     1
 42
40.0
 92
        8
 66
     7
 43
1.0
 76
     1
 77
     6
 78
     2
 67
     7
 79
     3
170
     0
171
     0
290
     0
174
     0
 93
        1
 44
0.0
173
     0
291
     0
 45
0.0
1001
ACAD
1000
AcDbSavedByObjectVersion
1070
     0
  0
VISUALSTYLE
  5
442
102
{ACAD_REACTORS
330
29
102
}
102
{ACAD_XDICTIONARY
360
52A
102
}
330
29
100
AcDbVisualStyle
  2
Sketchy
 70
    24
 71
     1
 72
     2
 73
     2
 90
        0
 40
0.6
 41
30.0
 62
     5
 63
     7
 74
     2
 91
        2
 64
     7
 65
     7
 75
     1
175
     1
 42
40.0
 92
       11
 66
     7
 43
1.0
 76
     1
 77
     6
 78
     2
 67
     7
 79
     6
170
     0
171
     0
290
     0
174
     0
 93
        1
 44
0.0
173
     0
291
     0
 45
0.0
1001
ACAD
1000
AcDbSavedByObjectVersion
1070
     0
  0
VISUALSTYLE
  5
43A
102
{ACAD_REACTORS
330
29
102
}
102
{ACAD_XDICTIONARY
360
51A
102
}
330
29
100
AcDbVisualStyle
  2
Thicken
 70
    13
 71
     2
 72
     2
 73
     0
 90
        0
 40
0.6
 41
30.0
 62
     5
 63
     7
 74
     1
 91
        4
 64
     7
 65
   257
 75
     1
175
     1
 42
1.0
 92
       12
 66
     7
 43
1.0
 76
     1
 77
     6
 78
     2
 67
     7
 79
     5
170
     0
171
     0
290
     0
174
     0
 93
        1
 44
0.0
173
     0
291
     1
 45
0.0
1001
ACAD
1000
AcDbSavedByObjectVersion
1070
     0
  0
VISUALSTYLE
  5
433
102
{ACAD_REACTORS
330
29
102
}
102
{ACAD_XDICTIONARY
360
50C
102
}
330
29
100
AcDbVisualStyle
  2
Wireframe
 70
     5
 71
     0
 72
     2
 73
     0
 90
        0
 40
0.6
 41
30.0
 62
     5
 63
     7
 74
     1
 91
        4
 64
     7
 65
   257
 75
     1
175
     1
 42
1.0
 92
        0
 66
   257
 43
1.0
 76
     1
 77
     6
 78
     2
 67
     7
 79
     5
170
     0
171
     0
290
     0
174
     0
 93
        1
 44
0.0
173
     0
291
     0
 45
0.0
1001
ACAD
1000
AcDbSavedByObjectVersion
1070
     0
  0
VISUALSTYLE
  5
443
102
{ACAD_REACTORS
330
29
102
}
102
{ACAD_XDICTIONARY
360
52C
102
}
330
29
100
AcDbVisualStyle
  2
X-Ray
 70
    25
 71
     2
 72
     2
 73
     1
 90
        1
 40
0.5
 41
30.0
 62
     5
 63
     7
 74
     1
 91
        0
 64
     7
 65
   257
 75
     1
175
     1
 42
1.0
 92
        8
 66
     7
 43
1.0
 76
     1
 77
     6
 78
     2
 67
     7
 79
     3
170
     0
171
     0
290
     0
174
     0
 93
       13
 44
0.0
173
     0
291
     0
 45
0.0
1001
ACAD
1000
AcDbSavedByObjectVersion
1070
     0
  0
XRECORD
  5
4F6
102
{ACAD_REACTORS
330
4F5
102
}
330
4F5
100
AcDbXrecord
280
     1
340
28
  0
XRECORD
  5
4F7
102
{ACAD_REACTORS
330
4F5
102
}
330
4F5
100
AcDbXrecord
280
     1
340
7
  0
DICTIONARYVAR
  5
429
102
{ACAD_REACTORS
330
428
102
}
330
428
100
DictionaryVariables
280
     0
  1
1:1
  0
DICTIONARYVAR
  5
448
102
{ACAD_REACTORS
330
428
102
}
330
428
100
DictionaryVariables
280
     0
  1
Standard
  0
DICTIONARYVAR
  5
4F2
102
{ACAD_REACTORS
330
428
102
}
330
428
100
DictionaryVariables
280
     0
  1
Standard
  0
DICTIONARYVAR
  5
4F3
102
{ACAD_REACTORS
330
428
102
}
330
428
100
DictionaryVariables
280
     0
  1
0
  0
DICTIONARYVAR
  5
4F4
102
{ACAD_REACTORS
330
428
102
}
330
428
100
DictionaryVariables
280
     0
  1
1
  0
DICTIONARYVAR
  5
4FB
102
{ACAD_REACTORS
330
428
102
}
330
428
100
DictionaryVariables
280
     0
  1
1
  0
DICTIONARY
  5
500
330
70
100
AcDbDictionary
280
     1
281
     1
  3
ACAD_XREC_ROUNDTRIP
360
501
  0
DICTIONARY
  5
4FC
330
E
100
AcDbDictionary
280
     1
281
     1
  3
ACAD_XREC_ROUNDTRIP
360
4FD
  0
DICTIONARY
  5
4FE
330
6
100
AcDbDictionary
280
     1
281
     1
  3
ACAD_XREC_ROUNDTRIP
360
4FF
  0
DICTIONARY
  5
532
330
446
100
AcDbDictionary
280
     1
281
     1
  3
ACAD_XREC_ROUNDTRIP
360
533
  0
DICTIONARY
  5
50A
330
432
100
AcDbDictionary
280
     1
281
     1
  3
ACAD_XREC_ROUNDTRIP
360
50B
  0
DICTIONARY
  5
510
330
435
100
AcDbDictionary
280
     1
281
     1
  3
ACAD_XREC_ROUNDTRIP
360
511
  0
DICTIONARY
  5
518
330
439
100
AcDbDictionary
280
     1
281
     1
  3
ACAD_XREC_ROUNDTRIP
360
519
  0
DICTIONARY
  5
520
330
43D
100
AcDbDictionary
280
     1
281
     1
  3
ACAD_XREC_ROUNDTRIP
360
521
  0
DICTIONARY
  5
514
330
437
100
AcDbDictionary
280
     1
281
     1
  3
ACAD_XREC_ROUNDTRIP
360
515
  0
DICTIONARY
  5
516
330
438
100
AcDbDictionary
280
     1
281
     1
  3
ACAD_XREC_ROUNDTRIP
360
517
  0
DICTIONARY
  5
526
330
440
100
AcDbDictionary
280
     1
281
     1
  3
ACAD_XREC_ROUNDTRIP
360
527
  0
DICTIONARY
  5
51E
330
43C
100
AcDbDictionary
280
     1
281
     1
  3
ACAD_XREC_ROUNDTRIP
360
51F
  0
DICTIONARY
  5
502
330
42E
100
AcDbDictionary
280
     1
281
     1
  3
ACAD_XREC_ROUNDTRIP
360
503
  0
DICTIONARY
  5
504
330
42F
100
AcDbDictionary
280
     1
281
     1
  3
ACAD_XREC_ROUNDTRIP
360
505
  0
DICTIONARY
  5
506
330
430
100
AcDbDictionary
280
     1
281
     1
  3
ACAD_XREC_ROUNDTRIP
360
507
  0
DICTIONARY
  5
508
330
431
100
AcDbDictionary
280
     1
281
     1
  3
ACAD_XREC_ROUNDTRIP
360
509
  0
DICTIONARY
  5
50E
330
434
100
AcDbDictionary
280
     1
281
     1
  3
ACAD_XREC_ROUNDTRIP
360
50F
  0
DICTIONARY
  5
522
330
43E
100
AcDbDictionary
280
     1
281
     1
  3
ACAD_XREC_ROUNDTRIP
360
523
  0
DICTIONARY
  5
51C
330
43B
100
AcDbDictionary
280
     1
281
     1
  3
ACAD_XREC_ROUNDTRIP
360
51D
  0
DICTIONARY
  5
524
330
43F
100
AcDbDictionary
280
     1
281
     1
  3
ACAD_XREC_ROUNDTRIP
360
525
  0
DICTIONARY
  5
512
330
436
100
AcDbDictionary
280
     1
281
     1
  3
ACAD_XREC_ROUNDTRIP
360
513
  0
DICTIONARY
  5
530
330
445
100
AcDbDictionary
280
     1
281
     1
  3
ACAD_XREC_ROUNDTRIP
360
531
  0
DICTIONARY
  5
52E
330
444
100
AcDbDictionary
280
     1
281
     1
  3
ACAD_XREC_ROUNDTRIP
360
52F
  0
DICTIONARY
  5
528
330
441
100
AcDbDictionary
280
     1
281
     1
  3
ACAD_XREC_ROUNDTRIP
360
529
  0
DICTIONARY
  5
52A
330
442
100
AcDbDictionary
280
     1
281
     1
  3
ACAD_XREC_ROUNDTRIP
360
52B
  0
DICTIONARY
  5
51A
330
43A
100
AcDbDictionary
280
     1
281
     1
  3
ACAD_XREC_ROUNDTRIP
360
51B
  0
DICTIONARY
  5
50C
330
433
100
AcDbDictionary
280
     1
281
     1
  3
ACAD_XREC_ROUNDTRIP
360
50D
  0
DICTIONARY
  5
52C
330
443
100
AcDbDictionary
280
     1
281
     1
  3
ACAD_XREC_ROUNDTRIP
360
52D
  0
XRECORD
  5
501
102
{ACAD_REACTORS
330
500
102
}
330
500
100
AcDbXrecord
280
     1
102
MATERIAL
148
0.0
149
0.0
149
0.0
 93
        0
 94
      127
282
     0
 72
     1
 77
     1
171
     1
175
     1
179
     1
273
     0
  0
XRECORD
  5
4FD
102
{ACAD_REACTORS
330
4FC
102
}
330
4FC
100
AcDbXrecord
280
     1
102
MATERIAL
148
0.0
149
0.0
149
0.0
 93
        0
 94
      127
282
     0
 72
     1
 77
     1
171
     1
175
     1
179
     1
273
     0
  0
XRECORD
  5
4FF
102
{ACAD_REACTORS
330
4FE
102
}
330
4FE
100
AcDbXrecord
280
     1
102
MATERIAL
148
0.0
149
0.0
149
0.0
 93
        0
 94
      127
282
     0
 72
     1
 77
     1
171
     1
175
     1
179
     1
273
     0
  0
XRECORD
  5
533
102
{ACAD_REACTORS
330
532
102
}
330
532
100
AcDbXrecord
280
     1
102
ACAD_ROUNDTRIP_2010_MLEADER_STYLE
  0
XRECORD
  5
50B
102
{ACAD_REACTORS
330
50A
102
}
330
50A
100
AcDbXrecord
280
     1
102
RTVSPropertyOp0
 70
     1
102
RTVSPropertyOp1
 70
     1
102
RTVSPropertyOp2
 70
     1
102
RTVSPropertyOp3
 70
     1
102
RTVSPropertyOp4
 70
     1
102
RTVSPropertyOp5
 70
     1
102
RTVSPropertyOp6
 70
     1
102
RTVSPropertyOp7
 70
     1
102
RTVSPropertyOp8
 70
     1
102
RTVSPropertyOp9
 70
     1
102
RTVSPropertyOp10
 70
     1
102
RTVSPropertyOp11
 70
     1
102
RTVSPropertyOp12
 70
     1
102
RTVSPropertyOp13
 70
     1
102
RTVSPropertyOp14
 70
     1
102
RTVSPropertyOp15
 70
     1
102
RTVSPropertyOp16
 70
     1
102
RTVSPropertyOp17
 70
     1
102
RTVSPropertyOp18
 70
     1
102
RTVSPropertyOp19
 70
     1
102
RTVSPropertyOp20
 70
     1
102
RTVSPropertyOp21
 70
     1
102
RTVSPropertyOp22
 70
     1
102
RTVSPropertyOp23
 70
     1
102
RTVSPropertyOp24
 70
     1
102
RTVSPropertyOp25
 70
     1
102
RTVSPropertyOp26
 70
     1
102
RTVSPropertyOp27
 70
     1
102
RTVSPropertyOp28
 70
     1
102
RTVSPropertyOp29
 70
     1
102
RTVSPropertyOp30
 70
     1
102
RTVSPropertyOp31
 70
     1
102
RTVSPropertyOp32
 70
     1
102
RTVSPropertyOp33
 70
     1
102
RTVSPropertyOp34
 70
     1
102
RTVSPropertyOp35
 70
     1
102
RTVSPropertyOp36
 70
     1
102
RTVSPropertyOp37
 70
     1
102
RTVSPropertyOp38
 70
     1
102
RTVSPropertyOp39
 70
     1
102
RTVSPropertyOp40
 70
     1
102
RTVSPropertyOp41
 70
     1
102
RTVSPropertyOp42
 70
     1
102
RTVSPropertyOp43
 70
     1
102
RTVSPropertyOp44
 70
     1
102
RTVSPropertyOp45
 70
     1
102
RTVSPropertyOp46
 70
     1
102
RTVSPropertyOp47
 70
     1
102
RTVSPropertyOp48
 70
     1
102
RTVSPropertyOp49
 70
     1
102
RTVSPropertyOp50
 70
     1
102
RTVSPropertyOp51
 70
     0
102
RTVSPropertyOp52
 70
     0
102
RTVSPropertyOp53
 70
     1
102
RTVSPropertyOp54
 70
     1
102
RTVSPropertyOp55
 70
     1
102
RTVSPropertyOp56
 70
     1
102
RTVSPropertyOp57
 70
     1
102
RTVSPost2010Prop28
280
     1
102
RTVSPost2010PropOp28
 70
     1
102
RTVSPost2010Prop29
280
     1
102
RTVSPost2010PropOp29
 70
     1
102
RTVSPost2010Prop30
280
     0
102
RTVSPost2010PropOp30
 70
     1
102
RTVSPost2010Prop31
280
     0
102
RTVSPost2010PropOp31
 70
     1
102
RTVSPost2010Prop32
280
     0
102
RTVSPost2010PropOp32
 70
     1
102
RTVSPost2010Prop33
280
     0
102
RTVSPost2010PropOp33
 70
     1
102
RTVSPost2010Prop34
280
     0
102
RTVSPost2010PropOp34
 70
     1
102
RTVSPost2010Prop35
280
     0
102
RTVSPost2010PropOp35
 70
     1
102
RTVSPost2010Prop36
280
     0
102
RTVSPost2010PropOp36
 70
     1
102
RTVSPost2010Prop37
 90
       50
102
RTVSPost2010PropOp37
 70
     1
102
RTVSPost2010Prop38
140
0.0
102
RTVSPost2010PropOp38
 70
     1
102
RTVSPost2010Prop39
140
1.0
102
RTVSPost2010PropOp39
 70
     1
102
RTVSPost2010Prop40
 90
        0
102
RTVSPost2010PropOp40
 70
     1
102
RTVSPost2010Prop41ColorIndex
 90
       18
102
RTVSPost2010Prop41ColorRGB
 90
        0
102
RTVSPost2010PropOp41
 70
     1
102
RTVSPost2010Prop42
 90
       50
102
RTVSPost2010PropOp42
 70
     1
102
RTVSPost2010Prop43
 90
        3
102
RTVSPost2010PropOp43
 70
     1
102
RTVSPost2010Prop44ColorIndex
 90
        5
102
RTVSPost2010Prop44ColorRGB
 90
      255
102
RTVSPost2010PropOp44
 70
     1
102
RTVSPost2010Prop45
280
     0
102
RTVSPost2010PropOp45
 70
     1
102
RTVSPost2010Prop46
 90
       50
102
RTVSPost2010PropOp46
 70
     1
102
RTVSPost2010Prop47
 90
       50
102
RTVSPost2010PropOp47
 70
     1
102
RTVSPost2010Prop48
 90
       50
102
RTVSPost2010PropOp48
 70
     1
102
RTVSPost2010Prop49
280
     0
102
RTVSPost2010PropOp49
 70
     1
102
RTVSPost2010Prop50
 90
       50
102
RTVSPost2010PropOp50
 70
     1
102
RTVSPost2010Prop51ColorIndex
 90
      256
102
RTVSPost2010Prop51ColorRGB
 90
-16777216
102
RTVSPost2010PropOp51
 70
     0
102
RTVSPost2010Prop52
140
1.0
102
RTVSPost2010PropOp52
 70
     0
102
RTVSPost2010Prop53
 90
        2
102
RTVSPost2010PropOp53
 70
     1
102
RTVSPost2010Prop54
  1
strokes_ogs.tif
102
RTVSPost2010PropOp54
 70
     1
102
RTVSPost2010Prop55
280
     0
102
RTVSPost2010PropOp55
 70
     1
102
RTVSPost2010Prop56
140
1.0
102
RTVSPost2010PropOp56
 70
     1
102
RTVSPost2010Prop57
140
1.0
102
RTVSPost2010PropOp57
 70
     1
  0
XRECORD
  5
511
102
{ACAD_REACTORS
330
510
102
}
330
510
100
AcDbXrecord
280
     1
102
RTVSPropertyOp0
 70
     1
102
RTVSPropertyOp1
 70
     1
102
RTVSPropertyOp2
 70
     1
102
RTVSPropertyOp3
 70
     1
102
RTVSPropertyOp4
 70
     1
102
RTVSPropertyOp5
 70
     1
102
RTVSPropertyOp6
 70
     1
102
RTVSPropertyOp7
 70
     1
102
RTVSPropertyOp8
 70
     1
102
RTVSPropertyOp9
 70
     1
102
RTVSPropertyOp10
 70
     1
102
RTVSPropertyOp11
 70
     1
102
RTVSPropertyOp12
 70
     1
102
RTVSPropertyOp13
 70
     1
102
RTVSPropertyOp14
 70
     1
102
RTVSPropertyOp15
 70
     1
102
RTVSPropertyOp16
 70
     1
102
RTVSPropertyOp17
 70
     1
102
RTVSPropertyOp18
 70
     1
102
RTVSPropertyOp19
 70
     1
102
RTVSPropertyOp20
 70
     1
102
RTVSPropertyOp21
 70
     1
102
RTVSPropertyOp22
 70
     1
102
RTVSPropertyOp23
 70
     1
102
RTVSPropertyOp24
 70
     1
102
RTVSPropertyOp25
 70
     1
102
RTVSPropertyOp26
 70
     1
102
RTVSPropertyOp27
 70
     1
102
RTVSPropertyOp28
 70
     1
102
RTVSPropertyOp29
 70
     1
102
RTVSPropertyOp30
 70
     1
102
RTVSPropertyOp31
 70
     1
102
RTVSPropertyOp32
 70
     1
102
RTVSPropertyOp33
 70
     1
102
RTVSPropertyOp34
 70
     1
102
RTVSPropertyOp35
 70
     1
102
RTVSPropertyOp36
 70
     1
102
RTVSPropertyOp37
 70
     1
102
RTVSPropertyOp38
 70
     1
102
RTVSPropertyOp39
 70
     1
102
RTVSPropertyOp40
 70
     1
102
RTVSPropertyOp41
 70
     1
102
RTVSPropertyOp42
 70
     1
102
RTVSPropertyOp43
 70
     1
102
RTVSPropertyOp44
 70
     1
102
RTVSPropertyOp45
 70
     1
102
RTVSPropertyOp46
 70
     1
102
RTVSPropertyOp47
 70
     1
102
RTVSPropertyOp48
 70
     1
102
RTVSPropertyOp49
 70
     1
102
RTVSPropertyOp50
 70
     1
102
RTVSPropertyOp51
 70
     0
102
RTVSPropertyOp52
 70
     0
102
RTVSPropertyOp53
 70
     1
102
RTVSPropertyOp54
 70
     1
102
RTVSPropertyOp55
 70
     1
102
RTVSPropertyOp56
 70
     1
102
RTVSPropertyOp57
 70
     1
102
RTVSPost2010Prop28
280
     0
102
RTVSPost2010PropOp28
 70
     1
102
RTVSPost2010Prop29
280
     1
102
RTVSPost2010PropOp29
 70
     1
102
RTVSPost2010Prop30
280
     1
102
RTVSPost2010PropOp30
 70
     1
102
RTVSPost2010Prop31
280
     0
102
RTVSPost2010PropOp31
 70
     1
102
RTVSPost2010Prop32
280
     0
102
RTVSPost2010PropOp32
 70
     1
102
RTVSPost2010Prop33
280
     0
102
RTVSPost2010PropOp33
 70
     1
102
RTVSPost2010Prop34
280
     0
102
RTVSPost2010PropOp34
 70
     1
102
RTVSPost2010Prop35
280
     0
102
RTVSPost2010PropOp35
 70
     1
102
RTVSPost2010Prop36
280
     0
102
RTVSPost2010PropOp36
 70
     1
102
RTVSPost2010Prop37
 90
       50
102
RTVSPost2010PropOp37
 70
     1
102
RTVSPost2010Prop38
140
0.0
102
RTVSPost2010PropOp38
 70
     1
102
RTVSPost2010Prop39
140
1.0
102
RTVSPost2010PropOp39
 70
     1
102
RTVSPost2010Prop40
 90
        0
102
RTVSPost2010PropOp40
 70
     1
102
RTVSPost2010Prop41ColorIndex
 90
       18
102
RTVSPost2010Prop41ColorRGB
 90
        0
102
RTVSPost2010PropOp41
 70
     1
102
RTVSPost2010Prop42
 90
       50
102
RTVSPost2010PropOp42
 70
     1
102
RTVSPost2010Prop43
 90
        3
102
RTVSPost2010PropOp43
 70
     1
102
RTVSPost2010Prop44ColorIndex
 90
        5
102
RTVSPost2010Prop44ColorRGB
 90
      255
102
RTVSPost2010PropOp44
 70
     1
102
RTVSPost2010Prop45
280
     0
102
RTVSPost2010PropOp45
 70
     1
102
RTVSPost2010Prop46
 90
       50
102
RTVSPost2010PropOp46
 70
     1
102
RTVSPost2010Prop47
 90
       50
102
RTVSPost2010PropOp47
 70
     1
102
RTVSPost2010Prop48
 90
       50
102
RTVSPost2010PropOp48
 70
     1
102
RTVSPost2010Prop49
280
     0
102
RTVSPost2010PropOp49
 70
     1
102
RTVSPost2010Prop50
 90
       50
102
RTVSPost2010PropOp50
 70
     1
102
RTVSPost2010Prop51ColorIndex
 90
      256
102
RTVSPost2010Prop51ColorRGB
 90
-16777216
102
RTVSPost2010PropOp51
 70
     0
102
RTVSPost2010Prop52
140
1.0
102
RTVSPost2010PropOp52
 70
     0
102
RTVSPost2010Prop53
 90
        2
102
RTVSPost2010PropOp53
 70
     1
102
RTVSPost2010Prop54
  1
strokes_ogs.tif
102
RTVSPost2010PropOp54
 70
     1
102
RTVSPost2010Prop55
280
     0
102
RTVSPost2010PropOp55
 70
     1
102
RTVSPost2010Prop56
140
1.0
102
RTVSPost2010PropOp56
 70
     1
102
RTVSPost2010Prop57
140
1.0
102
RTVSPost2010PropOp57
 70
     1
  0
XRECORD
  5
519
102
{ACAD_REACTORS
330
518
102
}
330
518
100
AcDbXrecord
280
     1
102
RTVSPropertyOp0
 70
     1
102
RTVSPropertyOp1
 70
     1
102
RTVSPropertyOp2
 70
     1
102
RTVSPropertyOp3
 70
     1
102
RTVSPropertyOp4
 70
     1
102
RTVSPropertyOp5
 70
     1
102
RTVSPropertyOp6
 70
     1
102
RTVSPropertyOp7
 70
     1
102
RTVSPropertyOp8
 70
     1
102
RTVSPropertyOp9
 70
     1
102
RTVSPropertyOp10
 70
     1
102
RTVSPropertyOp11
 70
     1
102
RTVSPropertyOp12
 70
     1
102
RTVSPropertyOp13
 70
     1
102
RTVSPropertyOp14
 70
     1
102
RTVSPropertyOp15
 70
     1
102
RTVSPropertyOp16
 70
     1
102
RTVSPropertyOp17
 70
     1
102
RTVSPropertyOp18
 70
     1
102
RTVSPropertyOp19
 70
     1
102
RTVSPropertyOp20
 70
     1
102
RTVSPropertyOp21
 70
     1
102
RTVSPropertyOp22
 70
     1
102
RTVSPropertyOp23
 70
     1
102
RTVSPropertyOp24
 70
     1
102
RTVSPropertyOp25
 70
     1
102
RTVSPropertyOp26
 70
     1
102
RTVSPropertyOp27
 70
     1
102
RTVSPropertyOp28
 70
     1
102
RTVSPropertyOp29
 70
     1
102
RTVSPropertyOp30
 70
     1
102
RTVSPropertyOp31
 70
     1
102
RTVSPropertyOp32
 70
     1
102
RTVSPropertyOp33
 70
     1
102
RTVSPropertyOp34
 70
     1
102
RTVSPropertyOp35
 70
     1
102
RTVSPropertyOp36
 70
     1
102
RTVSPropertyOp37
 70
     1
102
RTVSPropertyOp38
 70
     1
102
RTVSPropertyOp39
 70
     1
102
RTVSPropertyOp40
 70
     1
102
RTVSPropertyOp41
 70
     1
102
RTVSPropertyOp42
 70
     1
102
RTVSPropertyOp43
 70
     1
102
RTVSPropertyOp44
 70
     1
102
RTVSPropertyOp45
 70
     1
102
RTVSPropertyOp46
 70
     1
102
RTVSPropertyOp47
 70
     1
102
RTVSPropertyOp48
 70
     1
102
RTVSPropertyOp49
 70
     1
102
RTVSPropertyOp50
 70
     1
102
RTVSPropertyOp51
 70
     0
102
RTVSPropertyOp52
 70
     0
102
RTVSPropertyOp53
 70
     1
102
RTVSPropertyOp54
 70
     1
102
RTVSPropertyOp55
 70
     1
102
RTVSPropertyOp56
 70
     1
102
RTVSPropertyOp57
 70
     1
102
RTVSPost2010Prop28
280
     0
102
RTVSPost2010PropOp28
 70
     1
102
RTVSPost2010Prop29
280
     1
102
RTVSPost2010PropOp29
 70
     1
102
RTVSPost2010Prop30
280
     1
102
RTVSPost2010PropOp30
 70
     1
102
RTVSPost2010Prop31
280
     0
102
RTVSPost2010PropOp31
 70
     1
102
RTVSPost2010Prop32
280
     0
102
RTVSPost2010PropOp32
 70
     1
102
RTVSPost2010Prop33
280
     0
102
RTVSPost2010PropOp33
 70
     1
102
RTVSPost2010Prop34
280
     0
102
RTVSPost2010PropOp34
 70
     1
102
RTVSPost2010Prop35
280
     0
102
RTVSPost2010PropOp35
 70
     1
102
RTVSPost2010Prop36
280
     0
102
RTVSPost2010PropOp36
 70
     1
102
RTVSPost2010Prop37
 90
       50
102
RTVSPost2010PropOp37
 70
     1
102
RTVSPost2010Prop38
140
0.0
102
RTVSPost2010PropOp38
 70
     1
102
RTVSPost2010Prop39
140
1.0
102
RTVSPost2010PropOp39
 70
     1
102
RTVSPost2010Prop40
 90
        0
102
RTVSPost2010PropOp40
 70
     1
102
RTVSPost2010Prop41ColorIndex
 90
       18
102
RTVSPost2010Prop41ColorRGB
 90
        0
102
RTVSPost2010PropOp41
 70
     1
102
RTVSPost2010Prop42
 90
       50
102
RTVSPost2010PropOp42
 70
     1
102
RTVSPost2010Prop43
 90
        3
102
RTVSPost2010PropOp43
 70
     1
102
RTVSPost2010Prop44ColorIndex
 90
        5
102
RTVSPost2010Prop44ColorRGB
 90
      255
102
RTVSPost2010PropOp44
 70
     1
102
RTVSPost2010Prop45
280
     0
102
RTVSPost2010PropOp45
 70
     1
102
RTVSPost2010Prop46
 90
       50
102
RTVSPost2010PropOp46
 70
     1
102
RTVSPost2010Prop47
 90
       50
102
RTVSPost2010PropOp47
 70
     1
102
RTVSPost2010Prop48
 90
       50
102
RTVSPost2010PropOp48
 70
     1
102
RTVSPost2010Prop49
280
     0
102
RTVSPost2010PropOp49
 70
     1
102
RTVSPost2010Prop50
 90
       50
102
RTVSPost2010PropOp50
 70
     1
102
RTVSPost2010Prop51ColorIndex
 90
      256
102
RTVSPost2010Prop51ColorRGB
 90
-16777216
102
RTVSPost2010PropOp51
 70
     0
102
RTVSPost2010Prop52
140
1.0
102
RTVSPost2010PropOp52
 70
     0
102
RTVSPost2010Prop53
 90
        2
102
RTVSPost2010PropOp53
 70
     1
102
RTVSPost2010Prop54
  1
strokes_ogs.tif
102
RTVSPost2010PropOp54
 70
     1
102
RTVSPost2010Prop55
280
     0
102
RTVSPost2010PropOp55
 70
     1
102
RTVSPost2010Prop56
140
1.0
102
RTVSPost2010PropOp56
 70
     1
102
RTVSPost2010Prop57
140
1.0
102
RTVSPost2010PropOp57
 70
     1
  0
XRECORD
  5
521
102
{ACAD_REACTORS
330
520
102
}
330
520
100
AcDbXrecord
280
     1
102
RTVSPropertyOp0
 70
     1
102
RTVSPropertyOp1
 70
     1
102
RTVSPropertyOp2
 70
     1
102
RTVSPropertyOp3
 70
     1
102
RTVSPropertyOp4
 70
     1
102
RTVSPropertyOp5
 70
     1
102
RTVSPropertyOp6
 70
     1
102
RTVSPropertyOp7
 70
     1
102
RTVSPropertyOp8
 70
     1
102
RTVSPropertyOp9
 70
     1
102
RTVSPropertyOp10
 70
     1
102
RTVSPropertyOp11
 70
     1
102
RTVSPropertyOp12
 70
     1
102
RTVSPropertyOp13
 70
     1
102
RTVSPropertyOp14
 70
     1
102
RTVSPropertyOp15
 70
     1
102
RTVSPropertyOp16
 70
     1
102
RTVSPropertyOp17
 70
     1
102
RTVSPropertyOp18
 70
     1
102
RTVSPropertyOp19
 70
     1
102
RTVSPropertyOp20
 70
     1
102
RTVSPropertyOp21
 70
     1
102
RTVSPropertyOp22
 70
     1
102
RTVSPropertyOp23
 70
     1
102
RTVSPropertyOp24
 70
     1
102
RTVSPropertyOp25
 70
     1
102
RTVSPropertyOp26
 70
     1
102
RTVSPropertyOp27
 70
     1
102
RTVSPropertyOp28
 70
     1
102
RTVSPropertyOp29
 70
     1
102
RTVSPropertyOp30
 70
     1
102
RTVSPropertyOp31
 70
     1
102
RTVSPropertyOp32
 70
     1
102
RTVSPropertyOp33
 70
     1
102
RTVSPropertyOp34
 70
     1
102
RTVSPropertyOp35
 70
     1
102
RTVSPropertyOp36
 70
     1
102
RTVSPropertyOp37
 70
     1
102
RTVSPropertyOp38
 70
     1
102
RTVSPropertyOp39
 70
     1
102
RTVSPropertyOp40
 70
     1
102
RTVSPropertyOp41
 70
     1
102
RTVSPropertyOp42
 70
     1
102
RTVSPropertyOp43
 70
     1
102
RTVSPropertyOp44
 70
     1
102
RTVSPropertyOp45
 70
     1
102
RTVSPropertyOp46
 70
     1
102
RTVSPropertyOp47
 70
     1
102
RTVSPropertyOp48
 70
     1
102
RTVSPropertyOp49
 70
     1
102
RTVSPropertyOp50
 70
     1
102
RTVSPropertyOp51
 70
     0
102
RTVSPropertyOp52
 70
     0
102
RTVSPropertyOp53
 70
     1
102
RTVSPropertyOp54
 70
     1
102
RTVSPropertyOp55
 70
     1
102
RTVSPropertyOp56
 70
     1
102
RTVSPropertyOp57
 70
     1
102
RTVSPost2010Prop28
280
     0
102
RTVSPost2010PropOp28
 70
     1
102
RTVSPost2010Prop29
280
     1
102
RTVSPost2010PropOp29
 70
     1
102
RTVSPost2010Prop30
280
     1
102
RTVSPost2010PropOp30
 70
     1
102
RTVSPost2010Prop31
280
     0
102
RTVSPost2010PropOp31
 70
     1
102
RTVSPost2010Prop32
280
     0
102
RTVSPost2010PropOp32
 70
     1
102
RTVSPost2010Prop33
280
     0
102
RTVSPost2010PropOp33
 70
     1
102
RTVSPost2010Prop34
280
     0
102
RTVSPost2010PropOp34
 70
     1
102
RTVSPost2010Prop35
280
     0
102
RTVSPost2010PropOp35
 70
     1
102
RTVSPost2010Prop36
280
     0
102
RTVSPost2010PropOp36
 70
     1
102
RTVSPost2010Prop37
 90
       50
102
RTVSPost2010PropOp37
 70
     1
102
RTVSPost2010Prop38
140
0.0
102
RTVSPost2010PropOp38
 70
     1
102
RTVSPost2010Prop39
140
1.0
102
RTVSPost2010PropOp39
 70
     1
102
RTVSPost2010Prop40
 90
        0
102
RTVSPost2010PropOp40
 70
     1
102
RTVSPost2010Prop41ColorIndex
 90
       18
102
RTVSPost2010Prop41ColorRGB
 90
        0
102
RTVSPost2010PropOp41
 70
     1
102
RTVSPost2010Prop42
 90
       50
102
RTVSPost2010PropOp42
 70
     1
102
RTVSPost2010Prop43
 90
        3
102
RTVSPost2010PropOp43
 70
     1
102
RTVSPost2010Prop44ColorIndex
 90
        5
102
RTVSPost2010Prop44ColorRGB
 90
      255
102
RTVSPost2010PropOp44
 70
     1
102
RTVSPost2010Prop45
280
     0
102
RTVSPost2010PropOp45
 70
     1
102
RTVSPost2010Prop46
 90
       50
102
RTVSPost2010PropOp46
 70
     1
102
RTVSPost2010Prop47
 90
       50
102
RTVSPost2010PropOp47
 70
     1
102
RTVSPost2010Prop48
 90
       50
102
RTVSPost2010PropOp48
 70
     1
102
RTVSPost2010Prop49
280
     0
102
RTVSPost2010PropOp49
 70
     1
102
RTVSPost2010Prop50
 90
       50
102
RTVSPost2010PropOp50
 70
     1
102
RTVSPost2010Prop51ColorIndex
 90
      256
102
RTVSPost2010Prop51ColorRGB
 90
-16777216
102
RTVSPost2010PropOp51
 70
     0
102
RTVSPost2010Prop52
140
1.0
102
RTVSPost2010PropOp52
 70
     0
102
RTVSPost2010Prop53
 90
        2
102
RTVSPost2010PropOp53
 70
     1
102
RTVSPost2010Prop54
  1
strokes_ogs.tif
102
RTVSPost2010PropOp54
 70
     1
102
RTVSPost2010Prop55
280
     0
102
RTVSPost2010PropOp55
 70
     1
102
RTVSPost2010Prop56
140
1.0
102
RTVSPost2010PropOp56
 70
     1
102
RTVSPost2010Prop57
140
1.0
102
RTVSPost2010PropOp57
 70
     1
  0
XRECORD
  5
515
102
{ACAD_REACTORS
330
514
102
}
330
514
100
AcDbXrecord
280
     1
102
RTVSPropertyOp0
 70
     1
102
RTVSPropertyOp1
 70
     1
102
RTVSPropertyOp2
 70
     1
102
RTVSPropertyOp3
 70
     1
102
RTVSPropertyOp4
 70
     1
102
RTVSPropertyOp5
 70
     1
102
RTVSPropertyOp6
 70
     1
102
RTVSPropertyOp7
 70
     1
102
RTVSPropertyOp8
 70
     1
102
RTVSPropertyOp9
 70
     1
102
RTVSPropertyOp10
 70
     1
102
RTVSPropertyOp11
 70
     1
102
RTVSPropertyOp12
 70
     1
102
RTVSPropertyOp13
 70
     1
102
RTVSPropertyOp14
 70
     1
102
RTVSPropertyOp15
 70
     1
102
RTVSPropertyOp16
 70
     1
102
RTVSPropertyOp17
 70
     1
102
RTVSPropertyOp18
 70
     1
102
RTVSPropertyOp19
 70
     1
102
RTVSPropertyOp20
 70
     1
102
RTVSPropertyOp21
 70
     1
102
RTVSPropertyOp22
 70
     1
102
RTVSPropertyOp23
 70
     1
102
RTVSPropertyOp24
 70
     1
102
RTVSPropertyOp25
 70
     1
102
RTVSPropertyOp26
 70
     1
102
RTVSPropertyOp27
 70
     1
102
RTVSPropertyOp28
 70
     1
102
RTVSPropertyOp29
 70
     1
102
RTVSPropertyOp30
 70
     1
102
RTVSPropertyOp31
 70
     1
102
RTVSPropertyOp32
 70
     1
102
RTVSPropertyOp33
 70
     1
102
RTVSPropertyOp34
 70
     1
102
RTVSPropertyOp35
 70
     1
102
RTVSPropertyOp36
 70
     1
102
RTVSPropertyOp37
 70
     1
102
RTVSPropertyOp38
 70
     1
102
RTVSPropertyOp39
 70
     1
102
RTVSPropertyOp40
 70
     1
102
RTVSPropertyOp41
 70
     1
102
RTVSPropertyOp42
 70
     1
102
RTVSPropertyOp43
 70
     1
102
RTVSPropertyOp44
 70
     1
102
RTVSPropertyOp45
 70
     1
102
RTVSPropertyOp46
 70
     1
102
RTVSPropertyOp47
 70
     1
102
RTVSPropertyOp48
 70
     1
102
RTVSPropertyOp49
 70
     1
102
RTVSPropertyOp50
 70
     1
102
RTVSPropertyOp51
 70
     0
102
RTVSPropertyOp52
 70
     0
102
RTVSPropertyOp53
 70
     1
102
RTVSPropertyOp54
 70
     1
102
RTVSPropertyOp55
 70
     1
102
RTVSPropertyOp56
 70
     1
102
RTVSPropertyOp57
 70
     1
102
RTVSPost2010Prop28
280
     0
102
RTVSPost2010PropOp28
 70
     1
102
RTVSPost2010Prop29
280
     1
102
RTVSPost2010PropOp29
 70
     1
102
RTVSPost2010Prop30
280
     1
102
RTVSPost2010PropOp30
 70
     1
102
RTVSPost2010Prop31
280
     0
102
RTVSPost2010PropOp31
 70
     1
102
RTVSPost2010Prop32
280
     0
102
RTVSPost2010PropOp32
 70
     1
102
RTVSPost2010Prop33
280
     0
102
RTVSPost2010PropOp33
 70
     1
102
RTVSPost2010Prop34
280
     0
102
RTVSPost2010PropOp34
 70
     1
102
RTVSPost2010Prop35
280
     0
102
RTVSPost2010PropOp35
 70
     1
102
RTVSPost2010Prop36
280
     0
102
RTVSPost2010PropOp36
 70
     1
102
RTVSPost2010Prop37
 90
       50
102
RTVSPost2010PropOp37
 70
     1
102
RTVSPost2010Prop38
140
0.0
102
RTVSPost2010PropOp38
 70
     1
102
RTVSPost2010Prop39
140
1.0
102
RTVSPost2010PropOp39
 70
     1
102
RTVSPost2010Prop40
 90
        0
102
RTVSPost2010PropOp40
 70
     1
102
RTVSPost2010Prop41ColorIndex
 90
       18
102
RTVSPost2010Prop41ColorRGB
 90
        0
102
RTVSPost2010PropOp41
 70
     1
102
RTVSPost2010Prop42
 90
       50
102
RTVSPost2010PropOp42
 70
     1
102
RTVSPost2010Prop43
 90
        3
102
RTVSPost2010PropOp43
 70
     1
102
RTVSPost2010Prop44ColorIndex
 90
        5
102
RTVSPost2010Prop44ColorRGB
 90
      255
102
RTVSPost2010PropOp44
 70
     1
102
RTVSPost2010Prop45
280
     0
102
RTVSPost2010PropOp45
 70
     1
102
RTVSPost2010Prop46
 90
       50
102
RTVSPost2010PropOp46
 70
     1
102
RTVSPost2010Prop47
 90
       50
102
RTVSPost2010PropOp47
 70
     1
102
RTVSPost2010Prop48
 90
       50
102
RTVSPost2010PropOp48
 70
     1
102
RTVSPost2010Prop49
280
     0
102
RTVSPost2010PropOp49
 70
     1
102
RTVSPost2010Prop50
 90
       50
102
RTVSPost2010PropOp50
 70
     1
102
RTVSPost2010Prop51ColorIndex
 90
      256
102
RTVSPost2010Prop51ColorRGB
 90
-16777216
102
RTVSPost2010PropOp51
 70
     0
102
RTVSPost2010Prop52
140
1.0
102
RTVSPost2010PropOp52
 70
     0
102
RTVSPost2010Prop53
 90
        2
102
RTVSPost2010PropOp53
 70
     1
102
RTVSPost2010Prop54
  1
strokes_ogs.tif
102
RTVSPost2010PropOp54
 70
     1
102
RTVSPost2010Prop55
280
     0
102
RTVSPost2010PropOp55
 70
     1
102
RTVSPost2010Prop56
140
1.0
102
RTVSPost2010PropOp56
 70
     1
102
RTVSPost2010Prop57
140
1.0
102
RTVSPost2010PropOp57
 70
     1
  0
XRECORD
  5
517
102
{ACAD_REACTORS
330
516
102
}
330
516
100
AcDbXrecord
280
     1
102
RTVSPropertyOp0
 70
     1
102
RTVSPropertyOp1
 70
     1
102
RTVSPropertyOp2
 70
     1
102
RTVSPropertyOp3
 70
     1
102
RTVSPropertyOp4
 70
     1
102
RTVSPropertyOp5
 70
     1
102
RTVSPropertyOp6
 70
     1
102
RTVSPropertyOp7
 70
     1
102
RTVSPropertyOp8
 70
     1
102
RTVSPropertyOp9
 70
     1
102
RTVSPropertyOp10
 70
     1
102
RTVSPropertyOp11
 70
     1
102
RTVSPropertyOp12
 70
     1
102
RTVSPropertyOp13
 70
     1
102
RTVSPropertyOp14
 70
     1
102
RTVSPropertyOp15
 70
     1
102
RTVSPropertyOp16
 70
     1
102
RTVSPropertyOp17
 70
     1
102
RTVSPropertyOp18
 70
     1
102
RTVSPropertyOp19
 70
     1
102
RTVSPropertyOp20
 70
     1
102
RTVSPropertyOp21
 70
     1
102
RTVSPropertyOp22
 70
     1
102
RTVSPropertyOp23
 70
     1
102
RTVSPropertyOp24
 70
     1
102
RTVSPropertyOp25
 70
     1
102
RTVSPropertyOp26
 70
     1
102
RTVSPropertyOp27
 70
     1
102
RTVSPropertyOp28
 70
     1
102
RTVSPropertyOp29
 70
     1
102
RTVSPropertyOp30
 70
     1
102
RTVSPropertyOp31
 70
     1
102
RTVSPropertyOp32
 70
     1
102
RTVSPropertyOp33
 70
     1
102
RTVSPropertyOp34
 70
     1
102
RTVSPropertyOp35
 70
     1
102
RTVSPropertyOp36
 70
     1
102
RTVSPropertyOp37
 70
     1
102
RTVSPropertyOp38
 70
     1
102
RTVSPropertyOp39
 70
     1
102
RTVSPropertyOp40
 70
     1
102
RTVSPropertyOp41
 70
     1
102
RTVSPropertyOp42
 70
     1
102
RTVSPropertyOp43
 70
     1
102
RTVSPropertyOp44
 70
     1
102
RTVSPropertyOp45
 70
     1
102
RTVSPropertyOp46
 70
     1
102
RTVSPropertyOp47
 70
     1
102
RTVSPropertyOp48
 70
     1
102
RTVSPropertyOp49
 70
     1
102
RTVSPropertyOp50
 70
     1
102
RTVSPropertyOp51
 70
     0
102
RTVSPropertyOp52
 70
     0
102
RTVSPropertyOp53
 70
     1
102
RTVSPropertyOp54
 70
     1
102
RTVSPropertyOp55
 70
     1
102
RTVSPropertyOp56
 70
     1
102
RTVSPropertyOp57
 70
     1
102
RTVSPost2010Prop28
280
     0
102
RTVSPost2010PropOp28
 70
     1
102
RTVSPost2010Prop29
280
     1
102
RTVSPost2010PropOp29
 70
     1
102
RTVSPost2010Prop30
280
     1
102
RTVSPost2010PropOp30
 70
     1
102
RTVSPost2010Prop31
280
     0
102
RTVSPost2010PropOp31
 70
     1
102
RTVSPost2010Prop32
280
     0
102
RTVSPost2010PropOp32
 70
     1
102
RTVSPost2010Prop33
280
     0
102
RTVSPost2010PropOp33
 70
     1
102
RTVSPost2010Prop34
280
     0
102
RTVSPost2010PropOp34
 70
     1
102
RTVSPost2010Prop35
280
     0
102
RTVSPost2010PropOp35
 70
     1
102
RTVSPost2010Prop36
280
     0
102
RTVSPost2010PropOp36
 70
     1
102
RTVSPost2010Prop37
 90
       50
102
RTVSPost2010PropOp37
 70
     1
102
RTVSPost2010Prop38
140
0.0
102
RTVSPost2010PropOp38
 70
     1
102
RTVSPost2010Prop39
140
1.0
102
RTVSPost2010PropOp39
 70
     1
102
RTVSPost2010Prop40
 90
        0
102
RTVSPost2010PropOp40
 70
     1
102
RTVSPost2010Prop41ColorIndex
 90
       18
102
RTVSPost2010Prop41ColorRGB
 90
        0
102
RTVSPost2010PropOp41
 70
     1
102
RTVSPost2010Prop42
 90
       50
102
RTVSPost2010PropOp42
 70
     1
102
RTVSPost2010Prop43
 90
        3
102
RTVSPost2010PropOp43
 70
     1
102
RTVSPost2010Prop44ColorIndex
 90
        5
102
RTVSPost2010Prop44ColorRGB
 90
      255
102
RTVSPost2010PropOp44
 70
     1
102
RTVSPost2010Prop45
280
     0
102
RTVSPost2010PropOp45
 70
     1
102
RTVSPost2010Prop46
 90
       50
102
RTVSPost2010PropOp46
 70
     1
102
RTVSPost2010Prop47
 90
       50
102
RTVSPost2010PropOp47
 70
     1
102
RTVSPost2010Prop48
 90
       50
102
RTVSPost2010PropOp48
 70
     1
102
RTVSPost2010Prop49
280
     0
102
RTVSPost2010PropOp49
 70
     1
102
RTVSPost2010Prop50
 90
       50
102
RTVSPost2010PropOp50
 70
     1
102
RTVSPost2010Prop51ColorIndex
 90
      256
102
RTVSPost2010Prop51ColorRGB
 90
-16777216
102
RTVSPost2010PropOp51
 70
     0
102
RTVSPost2010Prop52
140
1.0
102
RTVSPost2010PropOp52
 70
     0
102
RTVSPost2010Prop53
 90
        2
102
RTVSPost2010PropOp53
 70
     1
102
RTVSPost2010Prop54
  1
strokes_ogs.tif
102
RTVSPost2010PropOp54
 70
     1
102
RTVSPost2010Prop55
280
     0
102
RTVSPost2010PropOp55
 70
     1
102
RTVSPost2010Prop56
140
1.0
102
RTVSPost2010PropOp56
 70
     1
102
RTVSPost2010Prop57
140
1.0
102
RTVSPost2010PropOp57
 70
     1
  0
XRECORD
  5
527
102
{ACAD_REACTORS
330
526
102
}
330
526
100
AcDbXrecord
280
     1
102
RTVSPropertyOp0
 70
     0
102
RTVSPropertyOp1
 70
     0
102
RTVSPropertyOp2
 70
     0
102
RTVSPropertyOp3
 70
     0
102
RTVSPropertyOp4
 70
     0
102
RTVSPropertyOp5
 70
     0
102
RTVSPropertyOp6
 70
     0
102
RTVSPropertyOp7
 70
     0
102
RTVSPropertyOp8
 70
     0
102
RTVSPropertyOp9
 70
     0
102
RTVSPropertyOp10
 70
     0
102
RTVSPropertyOp11
 70
     0
102
RTVSPropertyOp12
 70
     0
102
RTVSPropertyOp13
 70
     0
102
RTVSPropertyOp14
 70
     0
102
RTVSPropertyOp15
 70
     0
102
RTVSPropertyOp16
 70
     0
102
RTVSPropertyOp17
 70
     0
102
RTVSPropertyOp18
 70
     0
102
RTVSPropertyOp19
 70
     0
102
RTVSPropertyOp20
 70
     0
102
RTVSPropertyOp21
 70
     0
102
RTVSPropertyOp22
 70
     0
102
RTVSPropertyOp23
 70
     0
102
RTVSPropertyOp24
 70
     0
102
RTVSPropertyOp25
 70
     0
102
RTVSPropertyOp26
 70
     0
102
RTVSPropertyOp27
 70
     0
102
RTVSPropertyOp28
 70
     1
102
RTVSPropertyOp29
 70
     1
102
RTVSPropertyOp30
 70
     1
102
RTVSPropertyOp31
 70
     1
102
RTVSPropertyOp32
 70
     1
102
RTVSPropertyOp33
 70
     1
102
RTVSPropertyOp34
 70
     1
102
RTVSPropertyOp35
 70
     1
102
RTVSPropertyOp36
 70
     1
102
RTVSPropertyOp37
 70
     1
102
RTVSPropertyOp38
 70
     1
102
RTVSPropertyOp39
 70
     1
102
RTVSPropertyOp40
 70
     1
102
RTVSPropertyOp41
 70
     1
102
RTVSPropertyOp42
 70
     1
102
RTVSPropertyOp43
 70
     1
102
RTVSPropertyOp44
 70
     1
102
RTVSPropertyOp45
 70
     1
102
RTVSPropertyOp46
 70
     1
102
RTVSPropertyOp47
 70
     1
102
RTVSPropertyOp48
 70
     1
102
RTVSPropertyOp49
 70
     1
102
RTVSPropertyOp50
 70
     1
102
RTVSPropertyOp51
 70
     0
102
RTVSPropertyOp52
 70
     0
102
RTVSPropertyOp53
 70
     1
102
RTVSPropertyOp54
 70
     1
102
RTVSPropertyOp55
 70
     1
102
RTVSPropertyOp56
 70
     1
102
RTVSPropertyOp57
 70
     1
102
RTVSPost2010Prop28
280
     0
102
RTVSPost2010PropOp28
 70
     1
102
RTVSPost2010Prop29
280
     1
102
RTVSPost2010PropOp29
 70
     1
102
RTVSPost2010Prop30
280
     1
102
RTVSPost2010PropOp30
 70
     1
102
RTVSPost2010Prop31
280
     0
102
RTVSPost2010PropOp31
 70
     1
102
RTVSPost2010Prop32
280
     0
102
RTVSPost2010PropOp32
 70
     1
102
RTVSPost2010Prop33
280
     0
102
RTVSPost2010PropOp33
 70
     1
102
RTVSPost2010Prop34
280
     0
102
RTVSPost2010PropOp34
 70
     1
102
RTVSPost2010Prop35
280
     0
102
RTVSPost2010PropOp35
 70
     1
102
RTVSPost2010Prop36
280
     0
102
RTVSPost2010PropOp36
 70
     1
102
RTVSPost2010Prop37
 90
       50
102
RTVSPost2010PropOp37
 70
     1
102
RTVSPost2010Prop38
140
0.0
102
RTVSPost2010PropOp38
 70
     1
102
RTVSPost2010Prop39
140
1.0
102
RTVSPost2010PropOp39
 70
     1
102
RTVSPost2010Prop40
 90
        0
102
RTVSPost2010PropOp40
 70
     1
102
RTVSPost2010Prop41ColorIndex
 90
       18
102
RTVSPost2010Prop41ColorRGB
 90
        0
102
RTVSPost2010PropOp41
 70
     1
102
RTVSPost2010Prop42
 90
       50
102
RTVSPost2010PropOp42
 70
     1
102
RTVSPost2010Prop43
 90
        3
102
RTVSPost2010PropOp43
 70
     1
102
RTVSPost2010Prop44ColorIndex
 90
        5
102
RTVSPost2010Prop44ColorRGB
 90
      255
102
RTVSPost2010PropOp44
 70
     1
102
RTVSPost2010Prop45
280
     0
102
RTVSPost2010PropOp45
 70
     1
102
RTVSPost2010Prop46
 90
       50
102
RTVSPost2010PropOp46
 70
     1
102
RTVSPost2010Prop47
 90
       50
102
RTVSPost2010PropOp47
 70
     1
102
RTVSPost2010Prop48
 90
       50
102
RTVSPost2010PropOp48
 70
     1
102
RTVSPost2010Prop49
280
     0
102
RTVSPost2010PropOp49
 70
     1
102
RTVSPost2010Prop50
 90
       50
102
RTVSPost2010PropOp50
 70
     1
102
RTVSPost2010Prop51ColorIndex
 90
      256
102
RTVSPost2010Prop51ColorRGB
 90
-16777216
102
RTVSPost2010PropOp51
 70
     0
102
RTVSPost2010Prop52
140
1.0
102
RTVSPost2010PropOp52
 70
     0
102
RTVSPost2010Prop53
 90
        2
102
RTVSPost2010PropOp53
 70
     1
102
RTVSPost2010Prop54
  1
strokes_ogs.tif
102
RTVSPost2010PropOp54
 70
     1
102
RTVSPost2010Prop55
280
     0
102
RTVSPost2010PropOp55
 70
     1
102
RTVSPost2010Prop56
140
1.0
102
RTVSPost2010PropOp56
 70
     1
102
RTVSPost2010Prop57
140
1.0
102
RTVSPost2010PropOp57
 70
     1
  0
XRECORD
  5
51F
102
{ACAD_REACTORS
330
51E
102
}
330
51E
100
AcDbXrecord
280
     1
102
RTVSPropertyOp0
 70
     1
102
RTVSPropertyOp1
 70
     1
102
RTVSPropertyOp2
 70
     1
102
RTVSPropertyOp3
 70
     1
102
RTVSPropertyOp4
 70
     1
102
RTVSPropertyOp5
 70
     1
102
RTVSPropertyOp6
 70
     1
102
RTVSPropertyOp7
 70
     1
102
RTVSPropertyOp8
 70
     1
102
RTVSPropertyOp9
 70
     1
102
RTVSPropertyOp10
 70
     1
102
RTVSPropertyOp11
 70
     1
102
RTVSPropertyOp12
 70
     1
102
RTVSPropertyOp13
 70
     1
102
RTVSPropertyOp14
 70
     1
102
RTVSPropertyOp15
 70
     1
102
RTVSPropertyOp16
 70
     1
102
RTVSPropertyOp17
 70
     1
102
RTVSPropertyOp18
 70
     1
102
RTVSPropertyOp19
 70
     1
102
RTVSPropertyOp20
 70
     1
102
RTVSPropertyOp21
 70
     1
102
RTVSPropertyOp22
 70
     1
102
RTVSPropertyOp23
 70
     1
102
RTVSPropertyOp24
 70
     1
102
RTVSPropertyOp25
 70
     1
102
RTVSPropertyOp26
 70
     1
102
RTVSPropertyOp27
 70
     1
102
RTVSPropertyOp28
 70
     1
102
RTVSPropertyOp29
 70
     1
102
RTVSPropertyOp30
 70
     1
102
RTVSPropertyOp31
 70
     1
102
RTVSPropertyOp32
 70
     1
102
RTVSPropertyOp33
 70
     1
102
RTVSPropertyOp34
 70
     1
102
RTVSPropertyOp35
 70
     1
102
RTVSPropertyOp36
 70
     1
102
RTVSPropertyOp37
 70
     1
102
RTVSPropertyOp38
 70
     1
102
RTVSPropertyOp39
 70
     1
102
RTVSPropertyOp40
 70
     1
102
RTVSPropertyOp41
 70
     1
102
RTVSPropertyOp42
 70
     1
102
RTVSPropertyOp43
 70
     1
102
RTVSPropertyOp44
 70
     1
102
RTVSPropertyOp45
 70
     1
102
RTVSPropertyOp46
 70
     1
102
RTVSPropertyOp47
 70
     1
102
RTVSPropertyOp48
 70
     1
102
RTVSPropertyOp49
 70
     1
102
RTVSPropertyOp50
 70
     1
102
RTVSPropertyOp51
 70
     0
102
RTVSPropertyOp52
 70
     0
102
RTVSPropertyOp53
 70
     1
102
RTVSPropertyOp54
 70
     1
102
RTVSPropertyOp55
 70
     1
102
RTVSPropertyOp56
 70
     1
102
RTVSPropertyOp57
 70
     1
102
RTVSPost2010Prop28
280
     0
102
RTVSPost2010PropOp28
 70
     1
102
RTVSPost2010Prop29
280
     1
102
RTVSPost2010PropOp29
 70
     1
102
RTVSPost2010Prop30
280
     1
102
RTVSPost2010PropOp30
 70
     1
102
RTVSPost2010Prop31
280
     0
102
RTVSPost2010PropOp31
 70
     1
102
RTVSPost2010Prop32
280
     0
102
RTVSPost2010PropOp32
 70
     1
102
RTVSPost2010Prop33
280
     0
102
RTVSPost2010PropOp33
 70
     1
102
RTVSPost2010Prop34
280
     0
102
RTVSPost2010PropOp34
 70
     1
102
RTVSPost2010Prop35
280
     0
102
RTVSPost2010PropOp35
 70
     1
102
RTVSPost2010Prop36
280
     0
102
RTVSPost2010PropOp36
 70
     1
102
RTVSPost2010Prop37
 90
       50
102
RTVSPost2010PropOp37
 70
     1
102
RTVSPost2010Prop38
140
0.0
102
RTVSPost2010PropOp38
 70
     1
102
RTVSPost2010Prop39
140
1.0
102
RTVSPost2010PropOp39
 70
     1
102
RTVSPost2010Prop40
 90
        0
102
RTVSPost2010PropOp40
 70
     1
102
RTVSPost2010Prop41ColorIndex
 90
       18
102
RTVSPost2010Prop41ColorRGB
 90
        0
102
RTVSPost2010PropOp41
 70
     1
102
RTVSPost2010Prop42
 90
       50
102
RTVSPost2010PropOp42
 70
     1
102
RTVSPost2010Prop43
 90
        3
102
RTVSPost2010PropOp43
 70
     1
102
RTVSPost2010Prop44ColorIndex
 90
        5
102
RTVSPost2010Prop44ColorRGB
 90
      255
102
RTVSPost2010PropOp44
 70
     1
102
RTVSPost2010Prop45
280
     0
102
RTVSPost2010PropOp45
 70
     1
102
RTVSPost2010Prop46
 90
       50
102
RTVSPost2010PropOp46
 70
     1
102
RTVSPost2010Prop47
 90
       50
102
RTVSPost2010PropOp47
 70
     1
102
RTVSPost2010Prop48
 90
       50
102
RTVSPost2010PropOp48
 70
     1
102
RTVSPost2010Prop49
280
     0
102
RTVSPost2010PropOp49
 70
     1
102
RTVSPost2010Prop50
 90
       50
102
RTVSPost2010PropOp50
 70
     1
102
RTVSPost2010Prop51ColorIndex
 90
      256
102
RTVSPost2010Prop51ColorRGB
 90
-16777216
102
RTVSPost2010PropOp51
 70
     0
102
RTVSPost2010Prop52
140
1.0
102
RTVSPost2010PropOp52
 70
     0
102
RTVSPost2010Prop53
 90
        2
102
RTVSPost2010PropOp53
 70
     1
102
RTVSPost2010Prop54
  1
strokes_ogs.tif
102
RTVSPost2010PropOp54
 70
     1
102
RTVSPost2010Prop55
280
     0
102
RTVSPost2010PropOp55
 70
     1
102
RTVSPost2010Prop56
140
1.0
102
RTVSPost2010PropOp56
 70
     1
102
RTVSPost2010Prop57
140
1.0
102
RTVSPost2010PropOp57
 70
     1
  0
XRECORD
  5
503
102
{ACAD_REACTORS
330
502
102
}
330
502
100
AcDbXrecord
280
     1
102
RTVSPropertyOp0
 70
     1
102
RTVSPropertyOp1
 70
     1
102
RTVSPropertyOp2
 70
     1
102
RTVSPropertyOp3
 70
     1
102
RTVSPropertyOp4
 70
     1
102
RTVSPropertyOp5
 70
     1
102
RTVSPropertyOp6
 70
     1
102
RTVSPropertyOp7
 70
     1
102
RTVSPropertyOp8
 70
     1
102
RTVSPropertyOp9
 70
     1
102
RTVSPropertyOp10
 70
     1
102
RTVSPropertyOp11
 70
     1
102
RTVSPropertyOp12
 70
     1
102
RTVSPropertyOp13
 70
     1
102
RTVSPropertyOp14
 70
     1
102
RTVSPropertyOp15
 70
     1
102
RTVSPropertyOp16
 70
     1
102
RTVSPropertyOp17
 70
     1
102
RTVSPropertyOp18
 70
     1
102
RTVSPropertyOp19
 70
     1
102
RTVSPropertyOp20
 70
     1
102
RTVSPropertyOp21
 70
     1
102
RTVSPropertyOp22
 70
     1
102
RTVSPropertyOp23
 70
     1
102
RTVSPropertyOp24
 70
     1
102
RTVSPropertyOp25
 70
     1
102
RTVSPropertyOp26
 70
     1
102
RTVSPropertyOp27
 70
     1
102
RTVSPropertyOp28
 70
     1
102
RTVSPropertyOp29
 70
     1
102
RTVSPropertyOp30
 70
     1
102
RTVSPropertyOp31
 70
     1
102
RTVSPropertyOp32
 70
     1
102
RTVSPropertyOp33
 70
     1
102
RTVSPropertyOp34
 70
     1
102
RTVSPropertyOp35
 70
     1
102
RTVSPropertyOp36
 70
     1
102
RTVSPropertyOp37
 70
     1
102
RTVSPropertyOp38
 70
     1
102
RTVSPropertyOp39
 70
     1
102
RTVSPropertyOp40
 70
     1
102
RTVSPropertyOp41
 70
     1
102
RTVSPropertyOp42
 70
     1
102
RTVSPropertyOp43
 70
     1
102
RTVSPropertyOp44
 70
     1
102
RTVSPropertyOp45
 70
     1
102
RTVSPropertyOp46
 70
     1
102
RTVSPropertyOp47
 70
     1
102
RTVSPropertyOp48
 70
     1
102
RTVSPropertyOp49
 70
     1
102
RTVSPropertyOp50
 70
     1
102
RTVSPropertyOp51
 70
     0
102
RTVSPropertyOp52
 70
     0
102
RTVSPropertyOp53
 70
     1
102
RTVSPropertyOp54
 70
     1
102
RTVSPropertyOp55
 70
     1
102
RTVSPropertyOp56
 70
     1
102
RTVSPropertyOp57
 70
     1
102
RTVSPost2010Prop28
280
     0
102
RTVSPost2010PropOp28
 70
     1
102
RTVSPost2010Prop29
280
     1
102
RTVSPost2010PropOp29
 70
     1
102
RTVSPost2010Prop30
280
     1
102
RTVSPost2010PropOp30
 70
     1
102
RTVSPost2010Prop31
280
     0
102
RTVSPost2010PropOp31
 70
     1
102
RTVSPost2010Prop32
280
     0
102
RTVSPost2010PropOp32
 70
     1
102
RTVSPost2010Prop33
280
     0
102
RTVSPost2010PropOp33
 70
     1
102
RTVSPost2010Prop34
280
     0
102
RTVSPost2010PropOp34
 70
     1
102
RTVSPost2010Prop35
280
     0
102
RTVSPost2010PropOp35
 70
     1
102
RTVSPost2010Prop36
280
     0
102
RTVSPost2010PropOp36
 70
     1
102
RTVSPost2010Prop37
 90
       50
102
RTVSPost2010PropOp37
 70
     1
102
RTVSPost2010Prop38
140
0.0
102
RTVSPost2010PropOp38
 70
     1
102
RTVSPost2010Prop39
140
1.0
102
RTVSPost2010PropOp39
 70
     1
102
RTVSPost2010Prop40
 90
        0
102
RTVSPost2010PropOp40
 70
     1
102
RTVSPost2010Prop41ColorIndex
 90
       18
102
RTVSPost2010Prop41ColorRGB
 90
        0
102
RTVSPost2010PropOp41
 70
     1
102
RTVSPost2010Prop42
 90
       50
102
RTVSPost2010PropOp42
 70
     1
102
RTVSPost2010Prop43
 90
        3
102
RTVSPost2010PropOp43
 70
     1
102
RTVSPost2010Prop44ColorIndex
 90
        5
102
RTVSPost2010Prop44ColorRGB
 90
      255
102
RTVSPost2010PropOp44
 70
     1
102
RTVSPost2010Prop45
280
     0
102
RTVSPost2010PropOp45
 70
     1
102
RTVSPost2010Prop46
 90
       50
102
RTVSPost2010PropOp46
 70
     1
102
RTVSPost2010Prop47
 90
       50
102
RTVSPost2010PropOp47
 70
     1
102
RTVSPost2010Prop48
 90
       50
102
RTVSPost2010PropOp48
 70
     1
102
RTVSPost2010Prop49
280
     0
102
RTVSPost2010PropOp49
 70
     1
102
RTVSPost2010Prop50
 90
       50
102
RTVSPost2010PropOp50
 70
     1
102
RTVSPost2010Prop51ColorIndex
 90
      256
102
RTVSPost2010Prop51ColorRGB
 90
-16777216
102
RTVSPost2010PropOp51
 70
     0
102
RTVSPost2010Prop52
140
1.0
102
RTVSPost2010PropOp52
 70
     0
102
RTVSPost2010Prop53
 90
        2
102
RTVSPost2010PropOp53
 70
     1
102
RTVSPost2010Prop54
  1
strokes_ogs.tif
102
RTVSPost2010PropOp54
 70
     1
102
RTVSPost2010Prop55
280
     0
102
RTVSPost2010PropOp55
 70
     1
102
RTVSPost2010Prop56
140
1.0
102
RTVSPost2010PropOp56
 70
     1
102
RTVSPost2010Prop57
140
1.0
102
RTVSPost2010PropOp57
 70
     1
  0
XRECORD
  5
505
102
{ACAD_REACTORS
330
504
102
}
330
504
100
AcDbXrecord
280
     1
102
RTVSPropertyOp0
 70
     1
102
RTVSPropertyOp1
 70
     1
102
RTVSPropertyOp2
 70
     1
102
RTVSPropertyOp3
 70
     1
102
RTVSPropertyOp4
 70
     1
102
RTVSPropertyOp5
 70
     1
102
RTVSPropertyOp6
 70
     1
102
RTVSPropertyOp7
 70
     1
102
RTVSPropertyOp8
 70
     1
102
RTVSPropertyOp9
 70
     1
102
RTVSPropertyOp10
 70
     1
102
RTVSPropertyOp11
 70
     1
102
RTVSPropertyOp12
 70
     1
102
RTVSPropertyOp13
 70
     1
102
RTVSPropertyOp14
 70
     1
102
RTVSPropertyOp15
 70
     1
102
RTVSPropertyOp16
 70
     1
102
RTVSPropertyOp17
 70
     1
102
RTVSPropertyOp18
 70
     1
102
RTVSPropertyOp19
 70
     1
102
RTVSPropertyOp20
 70
     1
102
RTVSPropertyOp21
 70
     1
102
RTVSPropertyOp22
 70
     1
102
RTVSPropertyOp23
 70
     1
102
RTVSPropertyOp24
 70
     1
102
RTVSPropertyOp25
 70
     1
102
RTVSPropertyOp26
 70
     1
102
RTVSPropertyOp27
 70
     1
102
RTVSPropertyOp28
 70
     1
102
RTVSPropertyOp29
 70
     1
102
RTVSPropertyOp30
 70
     1
102
RTVSPropertyOp31
 70
     1
102
RTVSPropertyOp32
 70
     1
102
RTVSPropertyOp33
 70
     1
102
RTVSPropertyOp34
 70
     1
102
RTVSPropertyOp35
 70
     1
102
RTVSPropertyOp36
 70
     1
102
RTVSPropertyOp37
 70
     1
102
RTVSPropertyOp38
 70
     1
102
RTVSPropertyOp39
 70
     1
102
RTVSPropertyOp40
 70
     1
102
RTVSPropertyOp41
 70
     1
102
RTVSPropertyOp42
 70
     1
102
RTVSPropertyOp43
 70
     1
102
RTVSPropertyOp44
 70
     1
102
RTVSPropertyOp45
 70
     1
102
RTVSPropertyOp46
 70
     1
102
RTVSPropertyOp47
 70
     1
102
RTVSPropertyOp48
 70
     1
102
RTVSPropertyOp49
 70
     1
102
RTVSPropertyOp50
 70
     1
102
RTVSPropertyOp51
 70
     0
102
RTVSPropertyOp52
 70
     0
102
RTVSPropertyOp53
 70
     1
102
RTVSPropertyOp54
 70
     1
102
RTVSPropertyOp55
 70
     1
102
RTVSPropertyOp56
 70
     1
102
RTVSPropertyOp57
 70
     1
102
RTVSPost2010Prop28
280
     0
102
RTVSPost2010PropOp28
 70
     1
102
RTVSPost2010Prop29
280
     1
102
RTVSPost2010PropOp29
 70
     1
102
RTVSPost2010Prop30
280
     1
102
RTVSPost2010PropOp30
 70
     1
102
RTVSPost2010Prop31
280
     0
102
RTVSPost2010PropOp31
 70
     1
102
RTVSPost2010Prop32
280
     0
102
RTVSPost2010PropOp32
 70
     1
102
RTVSPost2010Prop33
280
     0
102
RTVSPost2010PropOp33
 70
     1
102
RTVSPost2010Prop34
280
     0
102
RTVSPost2010PropOp34
 70
     1
102
RTVSPost2010Prop35
280
     0
102
RTVSPost2010PropOp35
 70
     1
102
RTVSPost2010Prop36
280
     0
102
RTVSPost2010PropOp36
 70
     1
102
RTVSPost2010Prop37
 90
       50
102
RTVSPost2010PropOp37
 70
     1
102
RTVSPost2010Prop38
140
0.0
102
RTVSPost2010PropOp38
 70
     1
102
RTVSPost2010Prop39
140
1.0
102
RTVSPost2010PropOp39
 70
     1
102
RTVSPost2010Prop40
 90
        0
102
RTVSPost2010PropOp40
 70
     1
102
RTVSPost2010Prop41ColorIndex
 90
       18
102
RTVSPost2010Prop41ColorRGB
 90
        0
102
RTVSPost2010PropOp41
 70
     1
102
RTVSPost2010Prop42
 90
       50
102
RTVSPost2010PropOp42
 70
     1
102
RTVSPost2010Prop43
 90
        3
102
RTVSPost2010PropOp43
 70
     1
102
RTVSPost2010Prop44ColorIndex
 90
        5
102
RTVSPost2010Prop44ColorRGB
 90
      255
102
RTVSPost2010PropOp44
 70
     1
102
RTVSPost2010Prop45
280
     0
102
RTVSPost2010PropOp45
 70
     1
102
RTVSPost2010Prop46
 90
       50
102
RTVSPost2010PropOp46
 70
     1
102
RTVSPost2010Prop47
 90
       50
102
RTVSPost2010PropOp47
 70
     1
102
RTVSPost2010Prop48
 90
       50
102
RTVSPost2010PropOp48
 70
     1
102
RTVSPost2010Prop49
280
     0
102
RTVSPost2010PropOp49
 70
     1
102
RTVSPost2010Prop50
 90
       50
102
RTVSPost2010PropOp50
 70
     1
102
RTVSPost2010Prop51ColorIndex
 90
      256
102
RTVSPost2010Prop51ColorRGB
 90
-16777216
102
RTVSPost2010PropOp51
 70
     0
102
RTVSPost2010Prop52
140
1.0
102
RTVSPost2010PropOp52
 70
     0
102
RTVSPost2010Prop53
 90
        2
102
RTVSPost2010PropOp53
 70
     1
102
RTVSPost2010Prop54
  1
strokes_ogs.tif
102
RTVSPost2010PropOp54
 70
     1
102
RTVSPost2010Prop55
280
     0
102
RTVSPost2010PropOp55
 70
     1
102
RTVSPost2010Prop56
140
1.0
102
RTVSPost2010PropOp56
 70
     1
102
RTVSPost2010Prop57
140
1.0
102
RTVSPost2010PropOp57
 70
     1
  0
XRECORD
  5
507
102
{ACAD_REACTORS
330
506
102
}
330
506
100
AcDbXrecord
280
     1
102
RTVSPropertyOp0
 70
     1
102
RTVSPropertyOp1
 70
     1
102
RTVSPropertyOp2
 70
     1
102
RTVSPropertyOp3
 70
     1
102
RTVSPropertyOp4
 70
     1
102
RTVSPropertyOp5
 70
     1
102
RTVSPropertyOp6
 70
     1
102
RTVSPropertyOp7
 70
     1
102
RTVSPropertyOp8
 70
     1
102
RTVSPropertyOp9
 70
     1
102
RTVSPropertyOp10
 70
     1
102
RTVSPropertyOp11
 70
     1
102
RTVSPropertyOp12
 70
     1
102
RTVSPropertyOp13
 70
     1
102
RTVSPropertyOp14
 70
     1
102
RTVSPropertyOp15
 70
     1
102
RTVSPropertyOp16
 70
     1
102
RTVSPropertyOp17
 70
     1
102
RTVSPropertyOp18
 70
     1
102
RTVSPropertyOp19
 70
     1
102
RTVSPropertyOp20
 70
     1
102
RTVSPropertyOp21
 70
     1
102
RTVSPropertyOp22
 70
     1
102
RTVSPropertyOp23
 70
     1
102
RTVSPropertyOp24
 70
     1
102
RTVSPropertyOp25
 70
     1
102
RTVSPropertyOp26
 70
     1
102
RTVSPropertyOp27
 70
     1
102
RTVSPropertyOp28
 70
     1
102
RTVSPropertyOp29
 70
     1
102
RTVSPropertyOp30
 70
     1
102
RTVSPropertyOp31
 70
     1
102
RTVSPropertyOp32
 70
     1
102
RTVSPropertyOp33
 70
     1
102
RTVSPropertyOp34
 70
     1
102
RTVSPropertyOp35
 70
     1
102
RTVSPropertyOp36
 70
     1
102
RTVSPropertyOp37
 70
     1
102
RTVSPropertyOp38
 70
     1
102
RTVSPropertyOp39
 70
     1
102
RTVSPropertyOp40
 70
     1
102
RTVSPropertyOp41
 70
     1
102
RTVSPropertyOp42
 70
     1
102
RTVSPropertyOp43
 70
     1
102
RTVSPropertyOp44
 70
     1
102
RTVSPropertyOp45
 70
     1
102
RTVSPropertyOp46
 70
     1
102
RTVSPropertyOp47
 70
     1
102
RTVSPropertyOp48
 70
     1
102
RTVSPropertyOp49
 70
     1
102
RTVSPropertyOp50
 70
     1
102
RTVSPropertyOp51
 70
     0
102
RTVSPropertyOp52
 70
     0
102
RTVSPropertyOp53
 70
     1
102
RTVSPropertyOp54
 70
     1
102
RTVSPropertyOp55
 70
     1
102
RTVSPropertyOp56
 70
     1
102
RTVSPropertyOp57
 70
     1
102
RTVSPost2010Prop28
280
     0
102
RTVSPost2010PropOp28
 70
     1
102
RTVSPost2010Prop29
280
     1
102
RTVSPost2010PropOp29
 70
     1
102
RTVSPost2010Prop30
280
     1
102
RTVSPost2010PropOp30
 70
     1
102
RTVSPost2010Prop31
280
     0
102
RTVSPost2010PropOp31
 70
     1
102
RTVSPost2010Prop32
280
     0
102
RTVSPost2010PropOp32
 70
     1
102
RTVSPost2010Prop33
280
     0
102
RTVSPost2010PropOp33
 70
     1
102
RTVSPost2010Prop34
280
     0
102
RTVSPost2010PropOp34
 70
     1
102
RTVSPost2010Prop35
280
     0
102
RTVSPost2010PropOp35
 70
     1
102
RTVSPost2010Prop36
280
     0
102
RTVSPost2010PropOp36
 70
     1
102
RTVSPost2010Prop37
 90
       50
102
RTVSPost2010PropOp37
 70
     1
102
RTVSPost2010Prop38
140
0.0
102
RTVSPost2010PropOp38
 70
     1
102
RTVSPost2010Prop39
140
1.0
102
RTVSPost2010PropOp39
 70
     1
102
RTVSPost2010Prop40
 90
        0
102
RTVSPost2010PropOp40
 70
     1
102
RTVSPost2010Prop41ColorIndex
 90
       18
102
RTVSPost2010Prop41ColorRGB
 90
        0
102
RTVSPost2010PropOp41
 70
     1
102
RTVSPost2010Prop42
 90
       50
102
RTVSPost2010PropOp42
 70
     1
102
RTVSPost2010Prop43
 90
        3
102
RTVSPost2010PropOp43
 70
     1
102
RTVSPost2010Prop44ColorIndex
 90
        5
102
RTVSPost2010Prop44ColorRGB
 90
      255
102
RTVSPost2010PropOp44
 70
     1
102
RTVSPost2010Prop45
280
     0
102
RTVSPost2010PropOp45
 70
     1
102
RTVSPost2010Prop46
 90
       50
102
RTVSPost2010PropOp46
 70
     1
102
RTVSPost2010Prop47
 90
       50
102
RTVSPost2010PropOp47
 70
     1
102
RTVSPost2010Prop48
 90
       50
102
RTVSPost2010PropOp48
 70
     1
102
RTVSPost2010Prop49
280
     0
102
RTVSPost2010PropOp49
 70
     1
102
RTVSPost2010Prop50
 90
       50
102
RTVSPost2010PropOp50
 70
     1
102
RTVSPost2010Prop51ColorIndex
 90
      256
102
RTVSPost2010Prop51ColorRGB
 90
-16777216
102
RTVSPost2010PropOp51
 70
     0
102
RTVSPost2010Prop52
140
1.0
102
RTVSPost2010PropOp52
 70
     0
102
RTVSPost2010Prop53
 90
        2
102
RTVSPost2010PropOp53
 70
     1
102
RTVSPost2010Prop54
  1
strokes_ogs.tif
102
RTVSPost2010PropOp54
 70
     1
102
RTVSPost2010Prop55
280
     0
102
RTVSPost2010PropOp55
 70
     1
102
RTVSPost2010Prop56
140
1.0
102
RTVSPost2010PropOp56
 70
     1
102
RTVSPost2010Prop57
140
1.0
102
RTVSPost2010PropOp57
 70
     1
  0
XRECORD
  5
509
102
{ACAD_REACTORS
330
508
102
}
330
508
100
AcDbXrecord
280
     1
102
RTVSPropertyOp0
 70
     1
102
RTVSPropertyOp1
 70
     1
102
RTVSPropertyOp2
 70
     1
102
RTVSPropertyOp3
 70
     1
102
RTVSPropertyOp4
 70
     1
102
RTVSPropertyOp5
 70
     1
102
RTVSPropertyOp6
 70
     1
102
RTVSPropertyOp7
 70
     1
102
RTVSPropertyOp8
 70
     1
102
RTVSPropertyOp9
 70
     1
102
RTVSPropertyOp10
 70
     1
102
RTVSPropertyOp11
 70
     1
102
RTVSPropertyOp12
 70
     1
102
RTVSPropertyOp13
 70
     1
102
RTVSPropertyOp14
 70
     1
102
RTVSPropertyOp15
 70
     1
102
RTVSPropertyOp16
 70
     1
102
RTVSPropertyOp17
 70
     1
102
RTVSPropertyOp18
 70
     1
102
RTVSPropertyOp19
 70
     1
102
RTVSPropertyOp20
 70
     1
102
RTVSPropertyOp21
 70
     1
102
RTVSPropertyOp22
 70
     1
102
RTVSPropertyOp23
 70
     1
102
RTVSPropertyOp24
 70
     1
102
RTVSPropertyOp25
 70
     1
102
RTVSPropertyOp26
 70
     1
102
RTVSPropertyOp27
 70
     1
102
RTVSPropertyOp28
 70
     1
102
RTVSPropertyOp29
 70
     1
102
RTVSPropertyOp30
 70
     1
102
RTVSPropertyOp31
 70
     1
102
RTVSPropertyOp32
 70
     1
102
RTVSPropertyOp33
 70
     1
102
RTVSPropertyOp34
 70
     1
102
RTVSPropertyOp35
 70
     1
102
RTVSPropertyOp36
 70
     1
102
RTVSPropertyOp37
 70
     1
102
RTVSPropertyOp38
 70
     1
102
RTVSPropertyOp39
 70
     1
102
RTVSPropertyOp40
 70
     1
102
RTVSPropertyOp41
 70
     1
102
RTVSPropertyOp42
 70
     1
102
RTVSPropertyOp43
 70
     1
102
RTVSPropertyOp44
 70
     1
102
RTVSPropertyOp45
 70
     1
102
RTVSPropertyOp46
 70
     1
102
RTVSPropertyOp47
 70
     1
102
RTVSPropertyOp48
 70
     1
102
RTVSPropertyOp49
 70
     1
102
RTVSPropertyOp50
 70
     1
102
RTVSPropertyOp51
 70
     0
102
RTVSPropertyOp52
 70
     0
102
RTVSPropertyOp53
 70
     1
102
RTVSPropertyOp54
 70
     1
102
RTVSPropertyOp55
 70
     1
102
RTVSPropertyOp56
 70
     1
102
RTVSPropertyOp57
 70
     1
102
RTVSPost2010Prop28
280
     0
102
RTVSPost2010PropOp28
 70
     1
102
RTVSPost2010Prop29
280
     1
102
RTVSPost2010PropOp29
 70
     1
102
RTVSPost2010Prop30
280
     1
102
RTVSPost2010PropOp30
 70
     1
102
RTVSPost2010Prop31
280
     0
102
RTVSPost2010PropOp31
 70
     1
102
RTVSPost2010Prop32
280
     0
102
RTVSPost2010PropOp32
 70
     1
102
RTVSPost2010Prop33
280
     0
102
RTVSPost2010PropOp33
 70
     1
102
RTVSPost2010Prop34
280
     0
102
RTVSPost2010PropOp34
 70
     1
102
RTVSPost2010Prop35
280
     0
102
RTVSPost2010PropOp35
 70
     1
102
RTVSPost2010Prop36
280
     0
102
RTVSPost2010PropOp36
 70
     1
102
RTVSPost2010Prop37
 90
       50
102
RTVSPost2010PropOp37
 70
     1
102
RTVSPost2010Prop38
140
0.0
102
RTVSPost2010PropOp38
 70
     1
102
RTVSPost2010Prop39
140
1.0
102
RTVSPost2010PropOp39
 70
     1
102
RTVSPost2010Prop40
 90
        0
102
RTVSPost2010PropOp40
 70
     1
102
RTVSPost2010Prop41ColorIndex
 90
       18
102
RTVSPost2010Prop41ColorRGB
 90
        0
102
RTVSPost2010PropOp41
 70
     1
102
RTVSPost2010Prop42
 90
       50
102
RTVSPost2010PropOp42
 70
     1
102
RTVSPost2010Prop43
 90
        3
102
RTVSPost2010PropOp43
 70
     1
102
RTVSPost2010Prop44ColorIndex
 90
        5
102
RTVSPost2010Prop44ColorRGB
 90
      255
102
RTVSPost2010PropOp44
 70
     1
102
RTVSPost2010Prop45
280
     0
102
RTVSPost2010PropOp45
 70
     1
102
RTVSPost2010Prop46
 90
       50
102
RTVSPost2010PropOp46
 70
     1
102
RTVSPost2010Prop47
 90
       50
102
RTVSPost2010PropOp47
 70
     1
102
RTVSPost2010Prop48
 90
       50
102
RTVSPost2010PropOp48
 70
     1
102
RTVSPost2010Prop49
280
     0
102
RTVSPost2010PropOp49
 70
     1
102
RTVSPost2010Prop50
 90
       50
102
RTVSPost2010PropOp50
 70
     1
102
RTVSPost2010Prop51ColorIndex
 90
      256
102
RTVSPost2010Prop51ColorRGB
 90
-16777216
102
RTVSPost2010PropOp51
 70
     0
102
RTVSPost2010Prop52
140
1.0
102
RTVSPost2010PropOp52
 70
     0
102
RTVSPost2010Prop53
 90
        2
102
RTVSPost2010PropOp53
 70
     1
102
RTVSPost2010Prop54
  1
strokes_ogs.tif
102
RTVSPost2010PropOp54
 70
     1
102
RTVSPost2010Prop55
280
     0
102
RTVSPost2010PropOp55
 70
     1
102
RTVSPost2010Prop56
140
1.0
102
RTVSPost2010PropOp56
 70
     1
102
RTVSPost2010Prop57
140
1.0
102
RTVSPost2010PropOp57
 70
     1
  0
XRECORD
  5
50F
102
{ACAD_REACTORS
330
50E
102
}
330
50E
100
AcDbXrecord
280
     1
102
RTVSPropertyOp0
 70
     1
102
RTVSPropertyOp1
 70
     1
102
RTVSPropertyOp2
 70
     1
102
RTVSPropertyOp3
 70
     1
102
RTVSPropertyOp4
 70
     1
102
RTVSPropertyOp5
 70
     1
102
RTVSPropertyOp6
 70
     1
102
RTVSPropertyOp7
 70
     1
102
RTVSPropertyOp8
 70
     1
102
RTVSPropertyOp9
 70
     1
102
RTVSPropertyOp10
 70
     1
102
RTVSPropertyOp11
 70
     1
102
RTVSPropertyOp12
 70
     1
102
RTVSPropertyOp13
 70
     1
102
RTVSPropertyOp14
 70
     1
102
RTVSPropertyOp15
 70
     1
102
RTVSPropertyOp16
 70
     1
102
RTVSPropertyOp17
 70
     1
102
RTVSPropertyOp18
 70
     1
102
RTVSPropertyOp19
 70
     1
102
RTVSPropertyOp20
 70
     1
102
RTVSPropertyOp21
 70
     1
102
RTVSPropertyOp22
 70
     1
102
RTVSPropertyOp23
 70
     1
102
RTVSPropertyOp24
 70
     1
102
RTVSPropertyOp25
 70
     1
102
RTVSPropertyOp26
 70
     1
102
RTVSPropertyOp27
 70
     1
102
RTVSPropertyOp28
 70
     1
102
RTVSPropertyOp29
 70
     1
102
RTVSPropertyOp30
 70
     1
102
RTVSPropertyOp31
 70
     1
102
RTVSPropertyOp32
 70
     1
102
RTVSPropertyOp33
 70
     1
102
RTVSPropertyOp34
 70
     1
102
RTVSPropertyOp35
 70
     1
102
RTVSPropertyOp36
 70
     1
102
RTVSPropertyOp37
 70
     1
102
RTVSPropertyOp38
 70
     1
102
RTVSPropertyOp39
 70
     1
102
RTVSPropertyOp40
 70
     1
102
RTVSPropertyOp41
 70
     1
102
RTVSPropertyOp42
 70
     1
102
RTVSPropertyOp43
 70
     1
102
RTVSPropertyOp44
 70
     1
102
RTVSPropertyOp45
 70
     1
102
RTVSPropertyOp46
 70
     1
102
RTVSPropertyOp47
 70
     1
102
RTVSPropertyOp48
 70
     1
102
RTVSPropertyOp49
 70
     1
102
RTVSPropertyOp50
 70
     1
102
RTVSPropertyOp51
 70
     0
102
RTVSPropertyOp52
 70
     0
102
RTVSPropertyOp53
 70
     1
102
RTVSPropertyOp54
 70
     1
102
RTVSPropertyOp55
 70
     1
102
RTVSPropertyOp56
 70
     1
102
RTVSPropertyOp57
 70
     1
102
RTVSPost2010Prop28
280
     0
102
RTVSPost2010PropOp28
 70
     1
102
RTVSPost2010Prop29
280
     1
102
RTVSPost2010PropOp29
 70
     1
102
RTVSPost2010Prop30
280
     1
102
RTVSPost2010PropOp30
 70
     1
102
RTVSPost2010Prop31
280
     0
102
RTVSPost2010PropOp31
 70
     1
102
RTVSPost2010Prop32
280
     0
102
RTVSPost2010PropOp32
 70
     1
102
RTVSPost2010Prop33
280
     0
102
RTVSPost2010PropOp33
 70
     1
102
RTVSPost2010Prop34
280
     0
102
RTVSPost2010PropOp34
 70
     1
102
RTVSPost2010Prop35
280
     0
102
RTVSPost2010PropOp35
 70
     1
102
RTVSPost2010Prop36
280
     0
102
RTVSPost2010PropOp36
 70
     1
102
RTVSPost2010Prop37
 90
       50
102
RTVSPost2010PropOp37
 70
     1
102
RTVSPost2010Prop38
140
0.0
102
RTVSPost2010PropOp38
 70
     1
102
RTVSPost2010Prop39
140
1.0
102
RTVSPost2010PropOp39
 70
     1
102
RTVSPost2010Prop40
 90
        0
102
RTVSPost2010PropOp40
 70
     1
102
RTVSPost2010Prop41ColorIndex
 90
       18
102
RTVSPost2010Prop41ColorRGB
 90
        0
102
RTVSPost2010PropOp41
 70
     1
102
RTVSPost2010Prop42
 90
       50
102
RTVSPost2010PropOp42
 70
     1
102
RTVSPost2010Prop43
 90
        3
102
RTVSPost2010PropOp43
 70
     1
102
RTVSPost2010Prop44ColorIndex
 90
        5
102
RTVSPost2010Prop44ColorRGB
 90
      255
102
RTVSPost2010PropOp44
 70
     1
102
RTVSPost2010Prop45
280
     0
102
RTVSPost2010PropOp45
 70
     1
102
RTVSPost2010Prop46
 90
       50
102
RTVSPost2010PropOp46
 70
     1
102
RTVSPost2010Prop47
 90
       50
102
RTVSPost2010PropOp47
 70
     1
102
RTVSPost2010Prop48
 90
       50
102
RTVSPost2010PropOp48
 70
     1
102
RTVSPost2010Prop49
280
     0
102
RTVSPost2010PropOp49
 70
     1
102
RTVSPost2010Prop50
 90
       50
102
RTVSPost2010PropOp50
 70
     1
102
RTVSPost2010Prop51ColorIndex
 90
      256
102
RTVSPost2010Prop51ColorRGB
 90
-16777216
102
RTVSPost2010PropOp51
 70
     0
102
RTVSPost2010Prop52
140
1.0
102
RTVSPost2010PropOp52
 70
     0
102
RTVSPost2010Prop53
 90
        2
102
RTVSPost2010PropOp53
 70
     1
102
RTVSPost2010Prop54
  1
strokes_ogs.tif
102
RTVSPost2010PropOp54
 70
     1
102
RTVSPost2010Prop55
280
     0
102
RTVSPost2010PropOp55
 70
     1
102
RTVSPost2010Prop56
140
1.0
102
RTVSPost2010PropOp56
 70
     1
102
RTVSPost2010Prop57
140
1.0
102
RTVSPost2010PropOp57
 70
     1
  0
XRECORD
  5
523
102
{ACAD_REACTORS
330
522
102
}
330
522
100
AcDbXrecord
280
     1
102
RTVSPropertyOp0
 70
     0
102
RTVSPropertyOp1
 70
     0
102
RTVSPropertyOp2
 70
     0
102
RTVSPropertyOp3
 70
     0
102
RTVSPropertyOp4
 70
     0
102
RTVSPropertyOp5
 70
     0
102
RTVSPropertyOp6
 70
     0
102
RTVSPropertyOp7
 70
     0
102
RTVSPropertyOp8
 70
     0
102
RTVSPropertyOp9
 70
     0
102
RTVSPropertyOp10
 70
     0
102
RTVSPropertyOp11
 70
     0
102
RTVSPropertyOp12
 70
     0
102
RTVSPropertyOp13
 70
     0
102
RTVSPropertyOp14
 70
     0
102
RTVSPropertyOp15
 70
     0
102
RTVSPropertyOp16
 70
     0
102
RTVSPropertyOp17
 70
     0
102
RTVSPropertyOp18
 70
     0
102
RTVSPropertyOp19
 70
     0
102
RTVSPropertyOp20
 70
     0
102
RTVSPropertyOp21
 70
     0
102
RTVSPropertyOp22
 70
     0
102
RTVSPropertyOp23
 70
     0
102
RTVSPropertyOp24
 70
     0
102
RTVSPropertyOp25
 70
     0
102
RTVSPropertyOp26
 70
     0
102
RTVSPropertyOp27
 70
     0
102
RTVSPropertyOp28
 70
     1
102
RTVSPropertyOp29
 70
     1
102
RTVSPropertyOp30
 70
     1
102
RTVSPropertyOp31
 70
     1
102
RTVSPropertyOp32
 70
     1
102
RTVSPropertyOp33
 70
     1
102
RTVSPropertyOp34
 70
     1
102
RTVSPropertyOp35
 70
     1
102
RTVSPropertyOp36
 70
     1
102
RTVSPropertyOp37
 70
     1
102
RTVSPropertyOp38
 70
     1
102
RTVSPropertyOp39
 70
     1
102
RTVSPropertyOp40
 70
     1
102
RTVSPropertyOp41
 70
     1
102
RTVSPropertyOp42
 70
     1
102
RTVSPropertyOp43
 70
     1
102
RTVSPropertyOp44
 70
     1
102
RTVSPropertyOp45
 70
     1
102
RTVSPropertyOp46
 70
     1
102
RTVSPropertyOp47
 70
     1
102
RTVSPropertyOp48
 70
     1
102
RTVSPropertyOp49
 70
     1
102
RTVSPropertyOp50
 70
     1
102
RTVSPropertyOp51
 70
     0
102
RTVSPropertyOp52
 70
     0
102
RTVSPropertyOp53
 70
     1
102
RTVSPropertyOp54
 70
     1
102
RTVSPropertyOp55
 70
     1
102
RTVSPropertyOp56
 70
     1
102
RTVSPropertyOp57
 70
     1
102
RTVSPost2010Prop28
280
     0
102
RTVSPost2010PropOp28
 70
     1
102
RTVSPost2010Prop29
280
     1
102
RTVSPost2010PropOp29
 70
     1
102
RTVSPost2010Prop30
280
     1
102
RTVSPost2010PropOp30
 70
     1
102
RTVSPost2010Prop31
280
     0
102
RTVSPost2010PropOp31
 70
     1
102
RTVSPost2010Prop32
280
     0
102
RTVSPost2010PropOp32
 70
     1
102
RTVSPost2010Prop33
280
     0
102
RTVSPost2010PropOp33
 70
     1
102
RTVSPost2010Prop34
280
     0
102
RTVSPost2010PropOp34
 70
     1
102
RTVSPost2010Prop35
280
     0
102
RTVSPost2010PropOp35
 70
     1
102
RTVSPost2010Prop36
280
     0
102
RTVSPost2010PropOp36
 70
     1
102
RTVSPost2010Prop37
 90
       50
102
RTVSPost2010PropOp37
 70
     1
102
RTVSPost2010Prop38
140
0.0
102
RTVSPost2010PropOp38
 70
     1
102
RTVSPost2010Prop39
140
1.0
102
RTVSPost2010PropOp39
 70
     1
102
RTVSPost2010Prop40
 90
        0
102
RTVSPost2010PropOp40
 70
     1
102
RTVSPost2010Prop41ColorIndex
 90
       18
102
RTVSPost2010Prop41ColorRGB
 90
        0
102
RTVSPost2010PropOp41
 70
     1
102
RTVSPost2010Prop42
 90
       50
102
RTVSPost2010PropOp42
 70
     1
102
RTVSPost2010Prop43
 90
        3
102
RTVSPost2010PropOp43
 70
     1
102
RTVSPost2010Prop44ColorIndex
 90
        5
102
RTVSPost2010Prop44ColorRGB
 90
      255
102
RTVSPost2010PropOp44
 70
     1
102
RTVSPost2010Prop45
280
     0
102
RTVSPost2010PropOp45
 70
     1
102
RTVSPost2010Prop46
 90
       50
102
RTVSPost2010PropOp46
 70
     1
102
RTVSPost2010Prop47
 90
       50
102
RTVSPost2010PropOp47
 70
     1
102
RTVSPost2010Prop48
 90
       50
102
RTVSPost2010PropOp48
 70
     1
102
RTVSPost2010Prop49
280
     0
102
RTVSPost2010PropOp49
 70
     1
102
RTVSPost2010Prop50
 90
       50
102
RTVSPost2010PropOp50
 70
     1
102
RTVSPost2010Prop51ColorIndex
 90
      256
102
RTVSPost2010Prop51ColorRGB
 90
-16777216
102
RTVSPost2010PropOp51
 70
     0
102
RTVSPost2010Prop52
140
1.0
102
RTVSPost2010PropOp52
 70
     0
102
RTVSPost2010Prop53
 90
        2
102
RTVSPost2010PropOp53
 70
     1
102
RTVSPost2010Prop54
  1
strokes_ogs.tif
102
RTVSPost2010PropOp54
 70
     1
102
RTVSPost2010Prop55
280
     0
102
RTVSPost2010PropOp55
 70
     1
102
RTVSPost2010Prop56
140
1.0
102
RTVSPost2010PropOp56
 70
     1
102
RTVSPost2010Prop57
140
1.0
102
RTVSPost2010PropOp57
 70
     1
  0
XRECORD
  5
51D
102
{ACAD_REACTORS
330
51C
102
}
330
51C
100
AcDbXrecord
280
     1
102
RTVSPropertyOp0
 70
     1
102
RTVSPropertyOp1
 70
     1
102
RTVSPropertyOp2
 70
     1
102
RTVSPropertyOp3
 70
     1
102
RTVSPropertyOp4
 70
     1
102
RTVSPropertyOp5
 70
     1
102
RTVSPropertyOp6
 70
     1
102
RTVSPropertyOp7
 70
     1
102
RTVSPropertyOp8
 70
     1
102
RTVSPropertyOp9
 70
     1
102
RTVSPropertyOp10
 70
     1
102
RTVSPropertyOp11
 70
     1
102
RTVSPropertyOp12
 70
     1
102
RTVSPropertyOp13
 70
     1
102
RTVSPropertyOp14
 70
     1
102
RTVSPropertyOp15
 70
     1
102
RTVSPropertyOp16
 70
     1
102
RTVSPropertyOp17
 70
     1
102
RTVSPropertyOp18
 70
     1
102
RTVSPropertyOp19
 70
     1
102
RTVSPropertyOp20
 70
     1
102
RTVSPropertyOp21
 70
     1
102
RTVSPropertyOp22
 70
     1
102
RTVSPropertyOp23
 70
     1
102
RTVSPropertyOp24
 70
     1
102
RTVSPropertyOp25
 70
     1
102
RTVSPropertyOp26
 70
     1
102
RTVSPropertyOp27
 70
     1
102
RTVSPropertyOp28
 70
     1
102
RTVSPropertyOp29
 70
     1
102
RTVSPropertyOp30
 70
     1
102
RTVSPropertyOp31
 70
     1
102
RTVSPropertyOp32
 70
     1
102
RTVSPropertyOp33
 70
     1
102
RTVSPropertyOp34
 70
     1
102
RTVSPropertyOp35
 70
     1
102
RTVSPropertyOp36
 70
     1
102
RTVSPropertyOp37
 70
     1
102
RTVSPropertyOp38
 70
     1
102
RTVSPropertyOp39
 70
     1
102
RTVSPropertyOp40
 70
     1
102
RTVSPropertyOp41
 70
     1
102
RTVSPropertyOp42
 70
     1
102
RTVSPropertyOp43
 70
     1
102
RTVSPropertyOp44
 70
     1
102
RTVSPropertyOp45
 70
     1
102
RTVSPropertyOp46
 70
     1
102
RTVSPropertyOp47
 70
     1
102
RTVSPropertyOp48
 70
     1
102
RTVSPropertyOp49
 70
     1
102
RTVSPropertyOp50
 70
     1
102
RTVSPropertyOp51
 70
     0
102
RTVSPropertyOp52
 70
     0
102
RTVSPropertyOp53
 70
     1
102
RTVSPropertyOp54
 70
     1
102
RTVSPropertyOp55
 70
     1
102
RTVSPropertyOp56
 70
     1
102
RTVSPropertyOp57
 70
     1
102
RTVSPost2010Prop28
280
     0
102
RTVSPost2010PropOp28
 70
     1
102
RTVSPost2010Prop29
280
     1
102
RTVSPost2010PropOp29
 70
     1
102
RTVSPost2010Prop30
280
     1
102
RTVSPost2010PropOp30
 70
     1
102
RTVSPost2010Prop31
280
     0
102
RTVSPost2010PropOp31
 70
     1
102
RTVSPost2010Prop32
280
     0
102
RTVSPost2010PropOp32
 70
     1
102
RTVSPost2010Prop33
280
     0
102
RTVSPost2010PropOp33
 70
     1
102
RTVSPost2010Prop34
280
     0
102
RTVSPost2010PropOp34
 70
     1
102
RTVSPost2010Prop35
280
     0
102
RTVSPost2010PropOp35
 70
     1
102
RTVSPost2010Prop36
280
     0
102
RTVSPost2010PropOp36
 70
     1
102
RTVSPost2010Prop37
 90
       50
102
RTVSPost2010PropOp37
 70
     1
102
RTVSPost2010Prop38
140
0.0
102
RTVSPost2010PropOp38
 70
     1
102
RTVSPost2010Prop39
140
1.0
102
RTVSPost2010PropOp39
 70
     1
102
RTVSPost2010Prop40
 90
        0
102
RTVSPost2010PropOp40
 70
     1
102
RTVSPost2010Prop41ColorIndex
 90
       18
102
RTVSPost2010Prop41ColorRGB
 90
        0
102
RTVSPost2010PropOp41
 70
     1
102
RTVSPost2010Prop42
 90
       50
102
RTVSPost2010PropOp42
 70
     1
102
RTVSPost2010Prop43
 90
        3
102
RTVSPost2010PropOp43
 70
     1
102
RTVSPost2010Prop44ColorIndex
 90
        5
102
RTVSPost2010Prop44ColorRGB
 90
      255
102
RTVSPost2010PropOp44
 70
     1
102
RTVSPost2010Prop45
280
     0
102
RTVSPost2010PropOp45
 70
     1
102
RTVSPost2010Prop46
 90
       50
102
RTVSPost2010PropOp46
 70
     1
102
RTVSPost2010Prop47
 90
       50
102
RTVSPost2010PropOp47
 70
     1
102
RTVSPost2010Prop48
 90
       50
102
RTVSPost2010PropOp48
 70
     1
102
RTVSPost2010Prop49
280
     0
102
RTVSPost2010PropOp49
 70
     1
102
RTVSPost2010Prop50
 90
       50
102
RTVSPost2010PropOp50
 70
     1
102
RTVSPost2010Prop51ColorIndex
 90
      256
102
RTVSPost2010Prop51ColorRGB
 90
-16777216
102
RTVSPost2010PropOp51
 70
     0
102
RTVSPost2010Prop52
140
1.0
102
RTVSPost2010PropOp52
 70
     0
102
RTVSPost2010Prop53
 90
        2
102
RTVSPost2010PropOp53
 70
     1
102
RTVSPost2010Prop54
  1
strokes_ogs.tif
102
RTVSPost2010PropOp54
 70
     1
102
RTVSPost2010Prop55
280
     0
102
RTVSPost2010PropOp55
 70
     1
102
RTVSPost2010Prop56
140
1.0
102
RTVSPost2010PropOp56
 70
     1
102
RTVSPost2010Prop57
140
1.0
102
RTVSPost2010PropOp57
 70
     1
  0
XRECORD
  5
525
102
{ACAD_REACTORS
330
524
102
}
330
524
100
AcDbXrecord
280
     1
102
RTVSPropertyOp0
 70
     0
102
RTVSPropertyOp1
 70
     0
102
RTVSPropertyOp2
 70
     0
102
RTVSPropertyOp3
 70
     0
102
RTVSPropertyOp4
 70
     0
102
RTVSPropertyOp5
 70
     0
102
RTVSPropertyOp6
 70
     0
102
RTVSPropertyOp7
 70
     0
102
RTVSPropertyOp8
 70
     0
102
RTVSPropertyOp9
 70
     0
102
RTVSPropertyOp10
 70
     0
102
RTVSPropertyOp11
 70
     0
102
RTVSPropertyOp12
 70
     0
102
RTVSPropertyOp13
 70
     0
102
RTVSPropertyOp14
 70
     0
102
RTVSPropertyOp15
 70
     0
102
RTVSPropertyOp16
 70
     0
102
RTVSPropertyOp17
 70
     0
102
RTVSPropertyOp18
 70
     0
102
RTVSPropertyOp19
 70
     0
102
RTVSPropertyOp20
 70
     0
102
RTVSPropertyOp21
 70
     0
102
RTVSPropertyOp22
 70
     0
102
RTVSPropertyOp23
 70
     0
102
RTVSPropertyOp24
 70
     0
102
RTVSPropertyOp25
 70
     0
102
RTVSPropertyOp26
 70
     0
102
RTVSPropertyOp27
 70
     0
102
RTVSPropertyOp28
 70
     1
102
RTVSPropertyOp29
 70
     1
102
RTVSPropertyOp30
 70
     1
102
RTVSPropertyOp31
 70
     1
102
RTVSPropertyOp32
 70
     1
102
RTVSPropertyOp33
 70
     1
102
RTVSPropertyOp34
 70
     1
102
RTVSPropertyOp35
 70
     1
102
RTVSPropertyOp36
 70
     1
102
RTVSPropertyOp37
 70
     1
102
RTVSPropertyOp38
 70
     1
102
RTVSPropertyOp39
 70
     1
102
RTVSPropertyOp40
 70
     1
102
RTVSPropertyOp41
 70
     1
102
RTVSPropertyOp42
 70
     1
102
RTVSPropertyOp43
 70
     1
102
RTVSPropertyOp44
 70
     1
102
RTVSPropertyOp45
 70
     1
102
RTVSPropertyOp46
 70
     1
102
RTVSPropertyOp47
 70
     1
102
RTVSPropertyOp48
 70
     1
102
RTVSPropertyOp49
 70
     1
102
RTVSPropertyOp50
 70
     1
102
RTVSPropertyOp51
 70
     0
102
RTVSPropertyOp52
 70
     0
102
RTVSPropertyOp53
 70
     1
102
RTVSPropertyOp54
 70
     1
102
RTVSPropertyOp55
 70
     1
102
RTVSPropertyOp56
 70
     1
102
RTVSPropertyOp57
 70
     1
102
RTVSPost2010Prop28
280
     0
102
RTVSPost2010PropOp28
 70
     1
102
RTVSPost2010Prop29
280
     1
102
RTVSPost2010PropOp29
 70
     1
102
RTVSPost2010Prop30
280
     1
102
RTVSPost2010PropOp30
 70
     1
102
RTVSPost2010Prop31
280
     0
102
RTVSPost2010PropOp31
 70
     1
102
RTVSPost2010Prop32
280
     0
102
RTVSPost2010PropOp32
 70
     1
102
RTVSPost2010Prop33
280
     0
102
RTVSPost2010PropOp33
 70
     1
102
RTVSPost2010Prop34
280
     0
102
RTVSPost2010PropOp34
 70
     1
102
RTVSPost2010Prop35
280
     0
102
RTVSPost2010PropOp35
 70
     1
102
RTVSPost2010Prop36
280
     0
102
RTVSPost2010PropOp36
 70
     1
102
RTVSPost2010Prop37
 90
       50
102
RTVSPost2010PropOp37
 70
     1
102
RTVSPost2010Prop38
140
0.0
102
RTVSPost2010PropOp38
 70
     1
102
RTVSPost2010Prop39
140
1.0
102
RTVSPost2010PropOp39
 70
     1
102
RTVSPost2010Prop40
 90
        0
102
RTVSPost2010PropOp40
 70
     1
102
RTVSPost2010Prop41ColorIndex
 90
       18
102
RTVSPost2010Prop41ColorRGB
 90
        0
102
RTVSPost2010PropOp41
 70
     1
102
RTVSPost2010Prop42
 90
       50
102
RTVSPost2010PropOp42
 70
     1
102
RTVSPost2010Prop43
 90
        3
102
RTVSPost2010PropOp43
 70
     1
102
RTVSPost2010Prop44ColorIndex
 90
        5
102
RTVSPost2010Prop44ColorRGB
 90
      255
102
RTVSPost2010PropOp44
 70
     1
102
RTVSPost2010Prop45
280
     0
102
RTVSPost2010PropOp45
 70
     1
102
RTVSPost2010Prop46
 90
       50
102
RTVSPost2010PropOp46
 70
     1
102
RTVSPost2010Prop47
 90
       50
102
RTVSPost2010PropOp47
 70
     1
102
RTVSPost2010Prop48
 90
       50
102
RTVSPost2010PropOp48
 70
     1
102
RTVSPost2010Prop49
280
     0
102
RTVSPost2010PropOp49
 70
     1
102
RTVSPost2010Prop50
 90
       50
102
RTVSPost2010PropOp50
 70
     1
102
RTVSPost2010Prop51ColorIndex
 90
      256
102
RTVSPost2010Prop51ColorRGB
 90
-16777216
102
RTVSPost2010PropOp51
 70
     0
102
RTVSPost2010Prop52
140
1.0
102
RTVSPost2010PropOp52
 70
     0
102
RTVSPost2010Prop53
 90
        2
102
RTVSPost2010PropOp53
 70
     1
102
RTVSPost2010Prop54
  1
strokes_ogs.tif
102
RTVSPost2010PropOp54
 70
     1
102
RTVSPost2010Prop55
280
     0
102
RTVSPost2010PropOp55
 70
     1
102
RTVSPost2010Prop56
140
1.0
102
RTVSPost2010PropOp56
 70
     1
102
RTVSPost2010Prop57
140
1.0
102
RTVSPost2010PropOp57
 70
     1
  0
XRECORD
  5
513
102
{ACAD_REACTORS
330
512
102
}
330
512
100
AcDbXrecord
280
     1
102
RTVSPropertyOp0
 70
     1
102
RTVSPropertyOp1
 70
     1
102
RTVSPropertyOp2
 70
     1
102
RTVSPropertyOp3
 70
     1
102
RTVSPropertyOp4
 70
     1
102
RTVSPropertyOp5
 70
     1
102
RTVSPropertyOp6
 70
     1
102
RTVSPropertyOp7
 70
     1
102
RTVSPropertyOp8
 70
     1
102
RTVSPropertyOp9
 70
     1
102
RTVSPropertyOp10
 70
     1
102
RTVSPropertyOp11
 70
     1
102
RTVSPropertyOp12
 70
     1
102
RTVSPropertyOp13
 70
     1
102
RTVSPropertyOp14
 70
     1
102
RTVSPropertyOp15
 70
     1
102
RTVSPropertyOp16
 70
     1
102
RTVSPropertyOp17
 70
     1
102
RTVSPropertyOp18
 70
     1
102
RTVSPropertyOp19
 70
     1
102
RTVSPropertyOp20
 70
     1
102
RTVSPropertyOp21
 70
     1
102
RTVSPropertyOp22
 70
     1
102
RTVSPropertyOp23
 70
     1
102
RTVSPropertyOp24
 70
     1
102
RTVSPropertyOp25
 70
     1
102
RTVSPropertyOp26
 70
     1
102
RTVSPropertyOp27
 70
     1
102
RTVSPropertyOp28
 70
     1
102
RTVSPropertyOp29
 70
     1
102
RTVSPropertyOp30
 70
     1
102
RTVSPropertyOp31
 70
     1
102
RTVSPropertyOp32
 70
     1
102
RTVSPropertyOp33
 70
     1
102
RTVSPropertyOp34
 70
     1
102
RTVSPropertyOp35
 70
     1
102
RTVSPropertyOp36
 70
     1
102
RTVSPropertyOp37
 70
     1
102
RTVSPropertyOp38
 70
     1
102
RTVSPropertyOp39
 70
     1
102
RTVSPropertyOp40
 70
     1
102
RTVSPropertyOp41
 70
     1
102
RTVSPropertyOp42
 70
     1
102
RTVSPropertyOp43
 70
     1
102
RTVSPropertyOp44
 70
     1
102
RTVSPropertyOp45
 70
     1
102
RTVSPropertyOp46
 70
     1
102
RTVSPropertyOp47
 70
     1
102
RTVSPropertyOp48
 70
     1
102
RTVSPropertyOp49
 70
     1
102
RTVSPropertyOp50
 70
     1
102
RTVSPropertyOp51
 70
     0
102
RTVSPropertyOp52
 70
     0
102
RTVSPropertyOp53
 70
     1
102
RTVSPropertyOp54
 70
     1
102
RTVSPropertyOp55
 70
     1
102
RTVSPropertyOp56
 70
     1
102
RTVSPropertyOp57
 70
     1
102
RTVSPost2010Prop28
280
     0
102
RTVSPost2010PropOp28
 70
     1
102
RTVSPost2010Prop29
280
     1
102
RTVSPost2010PropOp29
 70
     1
102
RTVSPost2010Prop30
280
     1
102
RTVSPost2010PropOp30
 70
     1
102
RTVSPost2010Prop31
280
     0
102
RTVSPost2010PropOp31
 70
     1
102
RTVSPost2010Prop32
280
     0
102
RTVSPost2010PropOp32
 70
     1
102
RTVSPost2010Prop33
280
     0
102
RTVSPost2010PropOp33
 70
     1
102
RTVSPost2010Prop34
280
     0
102
RTVSPost2010PropOp34
 70
     1
102
RTVSPost2010Prop35
280
     0
102
RTVSPost2010PropOp35
 70
     1
102
RTVSPost2010Prop36
280
     0
102
RTVSPost2010PropOp36
 70
     1
102
RTVSPost2010Prop37
 90
       50
102
RTVSPost2010PropOp37
 70
     1
102
RTVSPost2010Prop38
140
0.0
102
RTVSPost2010PropOp38
 70
     1
102
RTVSPost2010Prop39
140
1.0
102
RTVSPost2010PropOp39
 70
     1
102
RTVSPost2010Prop40
 90
        0
102
RTVSPost2010PropOp40
 70
     1
102
RTVSPost2010Prop41ColorIndex
 90
       18
102
RTVSPost2010Prop41ColorRGB
 90
        0
102
RTVSPost2010PropOp41
 70
     1
102
RTVSPost2010Prop42
 90
       50
102
RTVSPost2010PropOp42
 70
     1
102
RTVSPost2010Prop43
 90
        3
102
RTVSPost2010PropOp43
 70
     1
102
RTVSPost2010Prop44ColorIndex
 90
        5
102
RTVSPost2010Prop44ColorRGB
 90
      255
102
RTVSPost2010PropOp44
 70
     1
102
RTVSPost2010Prop45
280
     0
102
RTVSPost2010PropOp45
 70
     1
102
RTVSPost2010Prop46
 90
       50
102
RTVSPost2010PropOp46
 70
     1
102
RTVSPost2010Prop47
 90
       50
102
RTVSPost2010PropOp47
 70
     1
102
RTVSPost2010Prop48
 90
       50
102
RTVSPost2010PropOp48
 70
     1
102
RTVSPost2010Prop49
280
     0
102
RTVSPost2010PropOp49
 70
     1
102
RTVSPost2010Prop50
 90
       50
102
RTVSPost2010PropOp50
 70
     1
102
RTVSPost2010Prop51ColorIndex
 90
      256
102
RTVSPost2010Prop51ColorRGB
 90
-16777216
102
RTVSPost2010PropOp51
 70
     0
102
RTVSPost2010Prop52
140
1.0
102
RTVSPost2010PropOp52
 70
     0
102
RTVSPost2010Prop53
 90
        2
102
RTVSPost2010PropOp53
 70
     1
102
RTVSPost2010Prop54
  1
strokes_ogs.tif
102
RTVSPost2010PropOp54
 70
     1
102
RTVSPost2010Prop55
280
     0
102
RTVSPost2010PropOp55
 70
     1
102
RTVSPost2010Prop56
140
1.0
102
RTVSPost2010PropOp56
 70
     1
102
RTVSPost2010Prop57
140
1.0
102
RTVSPost2010PropOp57
 70
     1
  0
XRECORD
  5
531
102
{ACAD_REACTORS
330
530
102
}
330
530
100
AcDbXrecord
280
     1
102
RTVSPropertyOp0
 70
     1
102
RTVSPropertyOp1
 70
     1
102
RTVSPropertyOp2
 70
     1
102
RTVSPropertyOp3
 70
     1
102
RTVSPropertyOp4
 70
     1
102
RTVSPropertyOp5
 70
     1
102
RTVSPropertyOp6
 70
     1
102
RTVSPropertyOp7
 70
     1
102
RTVSPropertyOp8
 70
     1
102
RTVSPropertyOp9
 70
     1
102
RTVSPropertyOp10
 70
     1
102
RTVSPropertyOp11
 70
     1
102
RTVSPropertyOp12
 70
     1
102
RTVSPropertyOp13
 70
     1
102
RTVSPropertyOp14
 70
     1
102
RTVSPropertyOp15
 70
     1
102
RTVSPropertyOp16
 70
     1
102
RTVSPropertyOp17
 70
     1
102
RTVSPropertyOp18
 70
     1
102
RTVSPropertyOp19
 70
     1
102
RTVSPropertyOp20
 70
     1
102
RTVSPropertyOp21
 70
     1
102
RTVSPropertyOp22
 70
     1
102
RTVSPropertyOp23
 70
     1
102
RTVSPropertyOp24
 70
     1
102
RTVSPropertyOp25
 70
     1
102
RTVSPropertyOp26
 70
     1
102
RTVSPropertyOp27
 70
     1
102
RTVSPropertyOp28
 70
     1
102
RTVSPropertyOp29
 70
     1
102
RTVSPropertyOp30
 70
     1
102
RTVSPropertyOp31
 70
     1
102
RTVSPropertyOp32
 70
     1
102
RTVSPropertyOp33
 70
     1
102
RTVSPropertyOp34
 70
     1
102
RTVSPropertyOp35
 70
     1
102
RTVSPropertyOp36
 70
     1
102
RTVSPropertyOp37
 70
     1
102
RTVSPropertyOp38
 70
     1
102
RTVSPropertyOp39
 70
     1
102
RTVSPropertyOp40
 70
     1
102
RTVSPropertyOp41
 70
     1
102
RTVSPropertyOp42
 70
     1
102
RTVSPropertyOp43
 70
     1
102
RTVSPropertyOp44
 70
     1
102
RTVSPropertyOp45
 70
     1
102
RTVSPropertyOp46
 70
     1
102
RTVSPropertyOp47
 70
     1
102
RTVSPropertyOp48
 70
     1
102
RTVSPropertyOp49
 70
     1
102
RTVSPropertyOp50
 70
     1
102
RTVSPropertyOp51
 70
     0
102
RTVSPropertyOp52
 70
     0
102
RTVSPropertyOp53
 70
     1
102
RTVSPropertyOp54
 70
     1
102
RTVSPropertyOp55
 70
     1
102
RTVSPropertyOp56
 70
     1
102
RTVSPropertyOp57
 70
     1
102
RTVSPost2010Prop28
280
     0
102
RTVSPost2010PropOp28
 70
     1
102
RTVSPost2010Prop29
280
     1
102
RTVSPost2010PropOp29
 70
     1
102
RTVSPost2010Prop30
280
     1
102
RTVSPost2010PropOp30
 70
     1
102
RTVSPost2010Prop31
280
     0
102
RTVSPost2010PropOp31
 70
     1
102
RTVSPost2010Prop32
280
     0
102
RTVSPost2010PropOp32
 70
     1
102
RTVSPost2010Prop33
280
     0
102
RTVSPost2010PropOp33
 70
     1
102
RTVSPost2010Prop34
280
     0
102
RTVSPost2010PropOp34
 70
     1
102
RTVSPost2010Prop35
280
     0
102
RTVSPost2010PropOp35
 70
     1
102
RTVSPost2010Prop36
280
     0
102
RTVSPost2010PropOp36
 70
     1
102
RTVSPost2010Prop37
 90
       50
102
RTVSPost2010PropOp37
 70
     1
102
RTVSPost2010Prop38
140
0.0
102
RTVSPost2010PropOp38
 70
     1
102
RTVSPost2010Prop39
140
1.0
102
RTVSPost2010PropOp39
 70
     1
102
RTVSPost2010Prop40
 90
        0
102
RTVSPost2010PropOp40
 70
     1
102
RTVSPost2010Prop41ColorIndex
 90
       18
102
RTVSPost2010Prop41ColorRGB
 90
        0
102
RTVSPost2010PropOp41
 70
     1
102
RTVSPost2010Prop42
 90
       50
102
RTVSPost2010PropOp42
 70
     1
102
RTVSPost2010Prop43
 90
        3
102
RTVSPost2010PropOp43
 70
     1
102
RTVSPost2010Prop44ColorIndex
 90
        5
102
RTVSPost2010Prop44ColorRGB
 90
      255
102
RTVSPost2010PropOp44
 70
     1
102
RTVSPost2010Prop45
280
     0
102
RTVSPost2010PropOp45
 70
     1
102
RTVSPost2010Prop46
 90
       50
102
RTVSPost2010PropOp46
 70
     1
102
RTVSPost2010Prop47
 90
       50
102
RTVSPost2010PropOp47
 70
     1
102
RTVSPost2010Prop48
 90
       50
102
RTVSPost2010PropOp48
 70
     1
102
RTVSPost2010Prop49
280
     0
102
RTVSPost2010PropOp49
 70
     1
102
RTVSPost2010Prop50
 90
       50
102
RTVSPost2010PropOp50
 70
     1
102
RTVSPost2010Prop51ColorIndex
 90
      256
102
RTVSPost2010Prop51ColorRGB
 90
-16777216
102
RTVSPost2010PropOp51
 70
     0
102
RTVSPost2010Prop52
140
1.0
102
RTVSPost2010PropOp52
 70
     0
102
RTVSPost2010Prop53
 90
        2
102
RTVSPost2010PropOp53
 70
     1
102
RTVSPost2010Prop54
  1
strokes_ogs.tif
102
RTVSPost2010PropOp54
 70
     1
102
RTVSPost2010Prop55
280
     0
102
RTVSPost2010PropOp55
 70
     1
102
RTVSPost2010Prop56
140
1.0
102
RTVSPost2010PropOp56
 70
     1
102
RTVSPost2010Prop57
140
1.0
102
RTVSPost2010PropOp57
 70
     1
  0
XRECORD
  5
52F
102
{ACAD_REACTORS
330
52E
102
}
330
52E
100
AcDbXrecord
280
     1
102
RTVSPropertyOp0
 70
     1
102
RTVSPropertyOp1
 70
     1
102
RTVSPropertyOp2
 70
     1
102
RTVSPropertyOp3
 70
     1
102
RTVSPropertyOp4
 70
     1
102
RTVSPropertyOp5
 70
     1
102
RTVSPropertyOp6
 70
     1
102
RTVSPropertyOp7
 70
     1
102
RTVSPropertyOp8
 70
     1
102
RTVSPropertyOp9
 70
     1
102
RTVSPropertyOp10
 70
     1
102
RTVSPropertyOp11
 70
     1
102
RTVSPropertyOp12
 70
     1
102
RTVSPropertyOp13
 70
     1
102
RTVSPropertyOp14
 70
     1
102
RTVSPropertyOp15
 70
     1
102
RTVSPropertyOp16
 70
     1
102
RTVSPropertyOp17
 70
     1
102
RTVSPropertyOp18
 70
     1
102
RTVSPropertyOp19
 70
     1
102
RTVSPropertyOp20
 70
     1
102
RTVSPropertyOp21
 70
     1
102
RTVSPropertyOp22
 70
     1
102
RTVSPropertyOp23
 70
     1
102
RTVSPropertyOp24
 70
     1
102
RTVSPropertyOp25
 70
     1
102
RTVSPropertyOp26
 70
     1
102
RTVSPropertyOp27
 70
     1
102
RTVSPropertyOp28
 70
     1
102
RTVSPropertyOp29
 70
     1
102
RTVSPropertyOp30
 70
     1
102
RTVSPropertyOp31
 70
     1
102
RTVSPropertyOp32
 70
     1
102
RTVSPropertyOp33
 70
     1
102
RTVSPropertyOp34
 70
     1
102
RTVSPropertyOp35
 70
     1
102
RTVSPropertyOp36
 70
     1
102
RTVSPropertyOp37
 70
     1
102
RTVSPropertyOp38
 70
     1
102
RTVSPropertyOp39
 70
     1
102
RTVSPropertyOp40
 70
     1
102
RTVSPropertyOp41
 70
     1
102
RTVSPropertyOp42
 70
     1
102
RTVSPropertyOp43
 70
     1
102
RTVSPropertyOp44
 70
     1
102
RTVSPropertyOp45
 70
     1
102
RTVSPropertyOp46
 70
     1
102
RTVSPropertyOp47
 70
     1
102
RTVSPropertyOp48
 70
     1
102
RTVSPropertyOp49
 70
     1
102
RTVSPropertyOp50
 70
     1
102
RTVSPropertyOp51
 70
     0
102
RTVSPropertyOp52
 70
     0
102
RTVSPropertyOp53
 70
     1
102
RTVSPropertyOp54
 70
     1
102
RTVSPropertyOp55
 70
     1
102
RTVSPropertyOp56
 70
     1
102
RTVSPropertyOp57
 70
     1
102
RTVSPost2010Prop28
280
     0
102
RTVSPost2010PropOp28
 70
     1
102
RTVSPost2010Prop29
280
     1
102
RTVSPost2010PropOp29
 70
     1
102
RTVSPost2010Prop30
280
     1
102
RTVSPost2010PropOp30
 70
     1
102
RTVSPost2010Prop31
280
     0
102
RTVSPost2010PropOp31
 70
     1
102
RTVSPost2010Prop32
280
     0
102
RTVSPost2010PropOp32
 70
     1
102
RTVSPost2010Prop33
280
     0
102
RTVSPost2010PropOp33
 70
     1
102
RTVSPost2010Prop34
280
     0
102
RTVSPost2010PropOp34
 70
     1
102
RTVSPost2010Prop35
280
     0
102
RTVSPost2010PropOp35
 70
     1
102
RTVSPost2010Prop36
280
     0
102
RTVSPost2010PropOp36
 70
     1
102
RTVSPost2010Prop37
 90
       50
102
RTVSPost2010PropOp37
 70
     1
102
RTVSPost2010Prop38
140
0.0
102
RTVSPost2010PropOp38
 70
     1
102
RTVSPost2010Prop39
140
1.0
102
RTVSPost2010PropOp39
 70
     1
102
RTVSPost2010Prop40
 90
        0
102
RTVSPost2010PropOp40
 70
     1
102
RTVSPost2010Prop41ColorIndex
 90
       18
102
RTVSPost2010Prop41ColorRGB
 90
        0
102
RTVSPost2010PropOp41
 70
     1
102
RTVSPost2010Prop42
 90
       50
102
RTVSPost2010PropOp42
 70
     1
102
RTVSPost2010Prop43
 90
        3
102
RTVSPost2010PropOp43
 70
     1
102
RTVSPost2010Prop44ColorIndex
 90
        5
102
RTVSPost2010Prop44ColorRGB
 90
      255
102
RTVSPost2010PropOp44
 70
     1
102
RTVSPost2010Prop45
280
     0
102
RTVSPost2010PropOp45
 70
     1
102
RTVSPost2010Prop46
 90
       50
102
RTVSPost2010PropOp46
 70
     1
102
RTVSPost2010Prop47
 90
       50
102
RTVSPost2010PropOp47
 70
     1
102
RTVSPost2010Prop48
 90
       50
102
RTVSPost2010PropOp48
 70
     1
102
RTVSPost2010Prop49
280
     0
102
RTVSPost2010PropOp49
 70
     1
102
RTVSPost2010Prop50
 90
       50
102
RTVSPost2010PropOp50
 70
     1
102
RTVSPost2010Prop51ColorIndex
 90
      256
102
RTVSPost2010Prop51ColorRGB
 90
-16777216
102
RTVSPost2010PropOp51
 70
     0
102
RTVSPost2010Prop52
140
1.0
102
RTVSPost2010PropOp52
 70
     0
102
RTVSPost2010Prop53
 90
        2
102
RTVSPost2010PropOp53
 70
     1
102
RTVSPost2010Prop54
  1
strokes_ogs.tif
102
RTVSPost2010PropOp54
 70
     1
102
RTVSPost2010Prop55
280
     0
102
RTVSPost2010PropOp55
 70
     1
102
RTVSPost2010Prop56
140
1.0
102
RTVSPost2010PropOp56
 70
     1
102
RTVSPost2010Prop57
140
1.0
102
RTVSPost2010PropOp57
 70
     1
  0
XRECORD
  5
529
102
{ACAD_REACTORS
330
528
102
}
330
528
100
AcDbXrecord
280
     1
102
RTVSPropertyOp0
 70
     1
102
RTVSPropertyOp1
 70
     1
102
RTVSPropertyOp2
 70
     1
102
RTVSPropertyOp3
 70
     1
102
RTVSPropertyOp4
 70
     1
102
RTVSPropertyOp5
 70
     1
102
RTVSPropertyOp6
 70
     1
102
RTVSPropertyOp7
 70
     1
102
RTVSPropertyOp8
 70
     1
102
RTVSPropertyOp9
 70
     1
102
RTVSPropertyOp10
 70
     1
102
RTVSPropertyOp11
 70
     1
102
RTVSPropertyOp12
 70
     1
102
RTVSPropertyOp13
 70
     1
102
RTVSPropertyOp14
 70
     1
102
RTVSPropertyOp15
 70
     1
102
RTVSPropertyOp16
 70
     1
102
RTVSPropertyOp17
 70
     1
102
RTVSPropertyOp18
 70
     1
102
RTVSPropertyOp19
 70
     1
102
RTVSPropertyOp20
 70
     1
102
RTVSPropertyOp21
 70
     1
102
RTVSPropertyOp22
 70
     1
102
RTVSPropertyOp23
 70
     1
102
RTVSPropertyOp24
 70
     1
102
RTVSPropertyOp25
 70
     1
102
RTVSPropertyOp26
 70
     1
102
RTVSPropertyOp27
 70
     1
102
RTVSPropertyOp28
 70
     1
102
RTVSPropertyOp29
 70
     1
102
RTVSPropertyOp30
 70
     1
102
RTVSPropertyOp31
 70
     1
102
RTVSPropertyOp32
 70
     1
102
RTVSPropertyOp33
 70
     1
102
RTVSPropertyOp34
 70
     1
102
RTVSPropertyOp35
 70
     1
102
RTVSPropertyOp36
 70
     1
102
RTVSPropertyOp37
 70
     1
102
RTVSPropertyOp38
 70
     1
102
RTVSPropertyOp39
 70
     1
102
RTVSPropertyOp40
 70
     1
102
RTVSPropertyOp41
 70
     1
102
RTVSPropertyOp42
 70
     1
102
RTVSPropertyOp43
 70
     1
102
RTVSPropertyOp44
 70
     1
102
RTVSPropertyOp45
 70
     1
102
RTVSPropertyOp46
 70
     1
102
RTVSPropertyOp47
 70
     1
102
RTVSPropertyOp48
 70
     1
102
RTVSPropertyOp49
 70
     1
102
RTVSPropertyOp50
 70
     1
102
RTVSPropertyOp51
 70
     0
102
RTVSPropertyOp52
 70
     0
102
RTVSPropertyOp53
 70
     1
102
RTVSPropertyOp54
 70
     1
102
RTVSPropertyOp55
 70
     1
102
RTVSPropertyOp56
 70
     1
102
RTVSPropertyOp57
 70
     1
102
RTVSPost2010Prop28
280
     0
102
RTVSPost2010PropOp28
 70
     1
102
RTVSPost2010Prop29
280
     1
102
RTVSPost2010PropOp29
 70
     1
102
RTVSPost2010Prop30
280
     1
102
RTVSPost2010PropOp30
 70
     1
102
RTVSPost2010Prop31
280
     0
102
RTVSPost2010PropOp31
 70
     1
102
RTVSPost2010Prop32
280
     0
102
RTVSPost2010PropOp32
 70
     1
102
RTVSPost2010Prop33
280
     0
102
RTVSPost2010PropOp33
 70
     1
102
RTVSPost2010Prop34
280
     0
102
RTVSPost2010PropOp34
 70
     1
102
RTVSPost2010Prop35
280
     0
102
RTVSPost2010PropOp35
 70
     1
102
RTVSPost2010Prop36
280
     0
102
RTVSPost2010PropOp36
 70
     1
102
RTVSPost2010Prop37
 90
       50
102
RTVSPost2010PropOp37
 70
     1
102
RTVSPost2010Prop38
140
0.0
102
RTVSPost2010PropOp38
 70
     1
102
RTVSPost2010Prop39
140
1.0
102
RTVSPost2010PropOp39
 70
     1
102
RTVSPost2010Prop40
 90
        0
102
RTVSPost2010PropOp40
 70
     1
102
RTVSPost2010Prop41ColorIndex
 90
       18
102
RTVSPost2010Prop41ColorRGB
 90
        0
102
RTVSPost2010PropOp41
 70
     1
102
RTVSPost2010Prop42
 90
       50
102
RTVSPost2010PropOp42
 70
     1
102
RTVSPost2010Prop43
 90
        3
102
RTVSPost2010PropOp43
 70
     1
102
RTVSPost2010Prop44ColorIndex
 90
        5
102
RTVSPost2010Prop44ColorRGB
 90
      255
102
RTVSPost2010PropOp44
 70
     1
102
RTVSPost2010Prop45
280
     0
102
RTVSPost2010PropOp45
 70
     1
102
RTVSPost2010Prop46
 90
       50
102
RTVSPost2010PropOp46
 70
     1
102
RTVSPost2010Prop47
 90
       50
102
RTVSPost2010PropOp47
 70
     1
102
RTVSPost2010Prop48
 90
       50
102
RTVSPost2010PropOp48
 70
     1
102
RTVSPost2010Prop49
280
     0
102
RTVSPost2010PropOp49
 70
     1
102
RTVSPost2010Prop50
 90
       50
102
RTVSPost2010PropOp50
 70
     1
102
RTVSPost2010Prop51ColorIndex
 90
      256
102
RTVSPost2010Prop51ColorRGB
 90
-16777216
102
RTVSPost2010PropOp51
 70
     0
102
RTVSPost2010Prop52
140
1.0
102
RTVSPost2010PropOp52
 70
     0
102
RTVSPost2010Prop53
 90
        2
102
RTVSPost2010PropOp53
 70
     1
102
RTVSPost2010Prop54
  1
strokes_ogs.tif
102
RTVSPost2010PropOp54
 70
     1
102
RTVSPost2010Prop55
280
     0
102
RTVSPost2010PropOp55
 70
     1
102
RTVSPost2010Prop56
140
1.0
102
RTVSPost2010PropOp56
 70
     1
102
RTVSPost2010Prop57
140
1.0
102
RTVSPost2010PropOp57
 70
     1
  0
XRECORD
  5
52B
102
{ACAD_REACTORS
330
52A
102
}
330
52A
100
AcDbXrecord
280
     1
102
RTVSPropertyOp0
 70
     1
102
RTVSPropertyOp1
 70
     1
102
RTVSPropertyOp2
 70
     1
102
RTVSPropertyOp3
 70
     1
102
RTVSPropertyOp4
 70
     1
102
RTVSPropertyOp5
 70
     1
102
RTVSPropertyOp6
 70
     1
102
RTVSPropertyOp7
 70
     1
102
RTVSPropertyOp8
 70
     1
102
RTVSPropertyOp9
 70
     1
102
RTVSPropertyOp10
 70
     1
102
RTVSPropertyOp11
 70
     1
102
RTVSPropertyOp12
 70
     1
102
RTVSPropertyOp13
 70
     1
102
RTVSPropertyOp14
 70
     1
102
RTVSPropertyOp15
 70
     1
102
RTVSPropertyOp16
 70
     1
102
RTVSPropertyOp17
 70
     1
102
RTVSPropertyOp18
 70
     1
102
RTVSPropertyOp19
 70
     1
102
RTVSPropertyOp20
 70
     1
102
RTVSPropertyOp21
 70
     1
102
RTVSPropertyOp22
 70
     1
102
RTVSPropertyOp23
 70
     1
102
RTVSPropertyOp24
 70
     1
102
RTVSPropertyOp25
 70
     1
102
RTVSPropertyOp26
 70
     1
102
RTVSPropertyOp27
 70
     1
102
RTVSPropertyOp28
 70
     1
102
RTVSPropertyOp29
 70
     1
102
RTVSPropertyOp30
 70
     1
102
RTVSPropertyOp31
 70
     1
102
RTVSPropertyOp32
 70
     1
102
RTVSPropertyOp33
 70
     1
102
RTVSPropertyOp34
 70
     1
102
RTVSPropertyOp35
 70
     1
102
RTVSPropertyOp36
 70
     1
102
RTVSPropertyOp37
 70
     1
102
RTVSPropertyOp38
 70
     1
102
RTVSPropertyOp39
 70
     1
102
RTVSPropertyOp40
 70
     1
102
RTVSPropertyOp41
 70
     1
102
RTVSPropertyOp42
 70
     1
102
RTVSPropertyOp43
 70
     1
102
RTVSPropertyOp44
 70
     1
102
RTVSPropertyOp45
 70
     1
102
RTVSPropertyOp46
 70
     1
102
RTVSPropertyOp47
 70
     1
102
RTVSPropertyOp48
 70
     1
102
RTVSPropertyOp49
 70
     1
102
RTVSPropertyOp50
 70
     1
102
RTVSPropertyOp51
 70
     0
102
RTVSPropertyOp52
 70
     0
102
RTVSPropertyOp53
 70
     1
102
RTVSPropertyOp54
 70
     1
102
RTVSPropertyOp55
 70
     1
102
RTVSPropertyOp56
 70
     1
102
RTVSPropertyOp57
 70
     1
102
RTVSPost2010Prop28
280
     0
102
RTVSPost2010PropOp28
 70
     1
102
RTVSPost2010Prop29
280
     1
102
RTVSPost2010PropOp29
 70
     1
102
RTVSPost2010Prop30
280
     1
102
RTVSPost2010PropOp30
 70
     1
102
RTVSPost2010Prop31
280
     0
102
RTVSPost2010PropOp31
 70
     1
102
RTVSPost2010Prop32
280
     0
102
RTVSPost2010PropOp32
 70
     1
102
RTVSPost2010Prop33
280
     0
102
RTVSPost2010PropOp33
 70
     1
102
RTVSPost2010Prop34
280
     0
102
RTVSPost2010PropOp34
 70
     1
102
RTVSPost2010Prop35
280
     0
102
RTVSPost2010PropOp35
 70
     1
102
RTVSPost2010Prop36
280
     0
102
RTVSPost2010PropOp36
 70
     1
102
RTVSPost2010Prop37
 90
       50
102
RTVSPost2010PropOp37
 70
     1
102
RTVSPost2010Prop38
140
0.0
102
RTVSPost2010PropOp38
 70
     1
102
RTVSPost2010Prop39
140
1.0
102
RTVSPost2010PropOp39
 70
     1
102
RTVSPost2010Prop40
 90
        0
102
RTVSPost2010PropOp40
 70
     1
102
RTVSPost2010Prop41ColorIndex
 90
       18
102
RTVSPost2010Prop41ColorRGB
 90
        0
102
RTVSPost2010PropOp41
 70
     1
102
RTVSPost2010Prop42
 90
       50
102
RTVSPost2010PropOp42
 70
     1
102
RTVSPost2010Prop43
 90
        3
102
RTVSPost2010PropOp43
 70
     1
102
RTVSPost2010Prop44ColorIndex
 90
        5
102
RTVSPost2010Prop44ColorRGB
 90
      255
102
RTVSPost2010PropOp44
 70
     1
102
RTVSPost2010Prop45
280
     0
102
RTVSPost2010PropOp45
 70
     1
102
RTVSPost2010Prop46
 90
       50
102
RTVSPost2010PropOp46
 70
     1
102
RTVSPost2010Prop47
 90
       50
102
RTVSPost2010PropOp47
 70
     1
102
RTVSPost2010Prop48
 90
       50
102
RTVSPost2010PropOp48
 70
     1
102
RTVSPost2010Prop49
280
     0
102
RTVSPost2010PropOp49
 70
     1
102
RTVSPost2010Prop50
 90
       50
102
RTVSPost2010PropOp50
 70
     1
102
RTVSPost2010Prop51ColorIndex
 90
      256
102
RTVSPost2010Prop51ColorRGB
 90
-16777216
102
RTVSPost2010PropOp51
 70
     0
102
RTVSPost2010Prop52
140
1.0
102
RTVSPost2010PropOp52
 70
     0
102
RTVSPost2010Prop53
 90
        2
102
RTVSPost2010PropOp53
 70
     1
102
RTVSPost2010Prop54
  1
strokes_ogs.tif
102
RTVSPost2010PropOp54
 70
     1
102
RTVSPost2010Prop55
280
     0
102
RTVSPost2010PropOp55
 70
     1
102
RTVSPost2010Prop56
140
1.0
102
RTVSPost2010PropOp56
 70
     1
102
RTVSPost2010Prop57
140
1.0
102
RTVSPost2010PropOp57
 70
     1
  0
XRECORD
  5
51B
102
{ACAD_REACTORS
330
51A
102
}
330
51A
100
AcDbXrecord
280
     1
102
RTVSPropertyOp0
 70
     1
102
RTVSPropertyOp1
 70
     1
102
RTVSPropertyOp2
 70
     1
102
RTVSPropertyOp3
 70
     1
102
RTVSPropertyOp4
 70
     1
102
RTVSPropertyOp5
 70
     1
102
RTVSPropertyOp6
 70
     1
102
RTVSPropertyOp7
 70
     1
102
RTVSPropertyOp8
 70
     1
102
RTVSPropertyOp9
 70
     1
102
RTVSPropertyOp10
 70
     1
102
RTVSPropertyOp11
 70
     1
102
RTVSPropertyOp12
 70
     1
102
RTVSPropertyOp13
 70
     1
102
RTVSPropertyOp14
 70
     1
102
RTVSPropertyOp15
 70
     1
102
RTVSPropertyOp16
 70
     1
102
RTVSPropertyOp17
 70
     1
102
RTVSPropertyOp18
 70
     1
102
RTVSPropertyOp19
 70
     1
102
RTVSPropertyOp20
 70
     1
102
RTVSPropertyOp21
 70
     1
102
RTVSPropertyOp22
 70
     1
102
RTVSPropertyOp23
 70
     1
102
RTVSPropertyOp24
 70
     1
102
RTVSPropertyOp25
 70
     1
102
RTVSPropertyOp26
 70
     1
102
RTVSPropertyOp27
 70
     1
102
RTVSPropertyOp28
 70
     1
102
RTVSPropertyOp29
 70
     1
102
RTVSPropertyOp30
 70
     1
102
RTVSPropertyOp31
 70
     1
102
RTVSPropertyOp32
 70
     1
102
RTVSPropertyOp33
 70
     1
102
RTVSPropertyOp34
 70
     1
102
RTVSPropertyOp35
 70
     1
102
RTVSPropertyOp36
 70
     1
102
RTVSPropertyOp37
 70
     1
102
RTVSPropertyOp38
 70
     1
102
RTVSPropertyOp39
 70
     1
102
RTVSPropertyOp40
 70
     1
102
RTVSPropertyOp41
 70
     1
102
RTVSPropertyOp42
 70
     1
102
RTVSPropertyOp43
 70
     1
102
RTVSPropertyOp44
 70
     1
102
RTVSPropertyOp45
 70
     1
102
RTVSPropertyOp46
 70
     1
102
RTVSPropertyOp47
 70
     1
102
RTVSPropertyOp48
 70
     1
102
RTVSPropertyOp49
 70
     1
102
RTVSPropertyOp50
 70
     1
102
RTVSPropertyOp51
 70
     0
102
RTVSPropertyOp52
 70
     0
102
RTVSPropertyOp53
 70
     1
102
RTVSPropertyOp54
 70
     1
102
RTVSPropertyOp55
 70
     1
102
RTVSPropertyOp56
 70
     1
102
RTVSPropertyOp57
 70
     1
102
RTVSPost2010Prop28
280
     0
102
RTVSPost2010PropOp28
 70
     1
102
RTVSPost2010Prop29
280
     1
102
RTVSPost2010PropOp29
 70
     1
102
RTVSPost2010Prop30
280
     1
102
RTVSPost2010PropOp30
 70
     1
102
RTVSPost2010Prop31
280
     0
102
RTVSPost2010PropOp31
 70
     1
102
RTVSPost2010Prop32
280
     0
102
RTVSPost2010PropOp32
 70
     1
102
RTVSPost2010Prop33
280
     0
102
RTVSPost2010PropOp33
 70
     1
102
RTVSPost2010Prop34
280
     0
102
RTVSPost2010PropOp34
 70
     1
102
RTVSPost2010Prop35
280
     0
102
RTVSPost2010PropOp35
 70
     1
102
RTVSPost2010Prop36
280
     0
102
RTVSPost2010PropOp36
 70
     1
102
RTVSPost2010Prop37
 90
       50
102
RTVSPost2010PropOp37
 70
     1
102
RTVSPost2010Prop38
140
0.0
102
RTVSPost2010PropOp38
 70
     1
102
RTVSPost2010Prop39
140
1.0
102
RTVSPost2010PropOp39
 70
     1
102
RTVSPost2010Prop40
 90
        0
102
RTVSPost2010PropOp40
 70
     1
102
RTVSPost2010Prop41ColorIndex
 90
       18
102
RTVSPost2010Prop41ColorRGB
 90
        0
102
RTVSPost2010PropOp41
 70
     1
102
RTVSPost2010Prop42
 90
       50
102
RTVSPost2010PropOp42
 70
     1
102
RTVSPost2010Prop43
 90
        3
102
RTVSPost2010PropOp43
 70
     1
102
RTVSPost2010Prop44ColorIndex
 90
        5
102
RTVSPost2010Prop44ColorRGB
 90
      255
102
RTVSPost2010PropOp44
 70
     1
102
RTVSPost2010Prop45
280
     0
102
RTVSPost2010PropOp45
 70
     1
102
RTVSPost2010Prop46
 90
       50
102
RTVSPost2010PropOp46
 70
     1
102
RTVSPost2010Prop47
 90
       50
102
RTVSPost2010PropOp47
 70
     1
102
RTVSPost2010Prop48
 90
       50
102
RTVSPost2010PropOp48
 70
     1
102
RTVSPost2010Prop49
280
     0
102
RTVSPost2010PropOp49
 70
     1
102
RTVSPost2010Prop50
 90
       50
102
RTVSPost2010PropOp50
 70
     1
102
RTVSPost2010Prop51ColorIndex
 90
      256
102
RTVSPost2010Prop51ColorRGB
 90
-16777216
102
RTVSPost2010PropOp51
 70
     0
102
RTVSPost2010Prop52
140
1.0
102
RTVSPost2010PropOp52
 70
     0
102
RTVSPost2010Prop53
 90
        2
102
RTVSPost2010PropOp53
 70
     1
102
RTVSPost2010Prop54
  1
strokes_ogs.tif
102
RTVSPost2010PropOp54
 70
     1
102
RTVSPost2010Prop55
280
     0
102
RTVSPost2010PropOp55
 70
     1
102
RTVSPost2010Prop56
140
1.0
102
RTVSPost2010PropOp56
 70
     1
102
RTVSPost2010Prop57
140
1.0
102
RTVSPost2010PropOp57
 70
     1
  0
XRECORD
  5
50D
102
{ACAD_REACTORS
330
50C
102
}
330
50C
100
AcDbXrecord
280
     1
102
RTVSPropertyOp0
 70
     1
102
RTVSPropertyOp1
 70
     1
102
RTVSPropertyOp2
 70
     1
102
RTVSPropertyOp3
 70
     1
102
RTVSPropertyOp4
 70
     1
102
RTVSPropertyOp5
 70
     1
102
RTVSPropertyOp6
 70
     1
102
RTVSPropertyOp7
 70
     1
102
RTVSPropertyOp8
 70
     1
102
RTVSPropertyOp9
 70
     1
102
RTVSPropertyOp10
 70
     1
102
RTVSPropertyOp11
 70
     1
102
RTVSPropertyOp12
 70
     1
102
RTVSPropertyOp13
 70
     1
102
RTVSPropertyOp14
 70
     1
102
RTVSPropertyOp15
 70
     1
102
RTVSPropertyOp16
 70
     1
102
RTVSPropertyOp17
 70
     1
102
RTVSPropertyOp18
 70
     1
102
RTVSPropertyOp19
 70
     1
102
RTVSPropertyOp20
 70
     1
102
RTVSPropertyOp21
 70
     1
102
RTVSPropertyOp22
 70
     1
102
RTVSPropertyOp23
 70
     1
102
RTVSPropertyOp24
 70
     1
102
RTVSPropertyOp25
 70
     1
102
RTVSPropertyOp26
 70
     1
102
RTVSPropertyOp27
 70
     1
102
RTVSPropertyOp28
 70
     1
102
RTVSPropertyOp29
 70
     1
102
RTVSPropertyOp30
 70
     1
102
RTVSPropertyOp31
 70
     1
102
RTVSPropertyOp32
 70
     1
102
RTVSPropertyOp33
 70
     1
102
RTVSPropertyOp34
 70
     1
102
RTVSPropertyOp35
 70
     1
102
RTVSPropertyOp36
 70
     1
102
RTVSPropertyOp37
 70
     1
102
RTVSPropertyOp38
 70
     1
102
RTVSPropertyOp39
 70
     1
102
RTVSPropertyOp40
 70
     1
102
RTVSPropertyOp41
 70
     1
102
RTVSPropertyOp42
 70
     1
102
RTVSPropertyOp43
 70
     1
102
RTVSPropertyOp44
 70
     1
102
RTVSPropertyOp45
 70
     1
102
RTVSPropertyOp46
 70
     1
102
RTVSPropertyOp47
 70
     1
102
RTVSPropertyOp48
 70
     1
102
RTVSPropertyOp49
 70
     1
102
RTVSPropertyOp50
 70
     1
102
RTVSPropertyOp51
 70
     0
102
RTVSPropertyOp52
 70
     0
102
RTVSPropertyOp53
 70
     1
102
RTVSPropertyOp54
 70
     1
102
RTVSPropertyOp55
 70
     1
102
RTVSPropertyOp56
 70
     1
102
RTVSPropertyOp57
 70
     1
102
RTVSPost2010Prop28
280
     0
102
RTVSPost2010PropOp28
 70
     1
102
RTVSPost2010Prop29
280
     1
102
RTVSPost2010PropOp29
 70
     1
102
RTVSPost2010Prop30
280
     1
102
RTVSPost2010PropOp30
 70
     1
102
RTVSPost2010Prop31
280
     0
102
RTVSPost2010PropOp31
 70
     1
102
RTVSPost2010Prop32
280
     0
102
RTVSPost2010PropOp32
 70
     1
102
RTVSPost2010Prop33
280
     0
102
RTVSPost2010PropOp33
 70
     1
102
RTVSPost2010Prop34
280
     0
102
RTVSPost2010PropOp34
 70
     1
102
RTVSPost2010Prop35
280
     0
102
RTVSPost2010PropOp35
 70
     1
102
RTVSPost2010Prop36
280
     0
102
RTVSPost2010PropOp36
 70
     1
102
RTVSPost2010Prop37
 90
       50
102
RTVSPost2010PropOp37
 70
     1
102
RTVSPost2010Prop38
140
0.0
102
RTVSPost2010PropOp38
 70
     1
102
RTVSPost2010Prop39
140
1.0
102
RTVSPost2010PropOp39
 70
     1
102
RTVSPost2010Prop40
 90
        0
102
RTVSPost2010PropOp40
 70
     1
102
RTVSPost2010Prop41ColorIndex
 90
       18
102
RTVSPost2010Prop41ColorRGB
 90
        0
102
RTVSPost2010PropOp41
 70
     1
102
RTVSPost2010Prop42
 90
       50
102
RTVSPost2010PropOp42
 70
     1
102
RTVSPost2010Prop43
 90
        3
102
RTVSPost2010PropOp43
 70
     1
102
RTVSPost2010Prop44ColorIndex
 90
        5
102
RTVSPost2010Prop44ColorRGB
 90
      255
102
RTVSPost2010PropOp44
 70
     1
102
RTVSPost2010Prop45
280
     0
102
RTVSPost2010PropOp45
 70
     1
102
RTVSPost2010Prop46
 90
       50
102
RTVSPost2010PropOp46
 70
     1
102
RTVSPost2010Prop47
 90
       50
102
RTVSPost2010PropOp47
 70
     1
102
RTVSPost2010Prop48
 90
       50
102
RTVSPost2010PropOp48
 70
     1
102
RTVSPost2010Prop49
280
     0
102
RTVSPost2010PropOp49
 70
     1
102
RTVSPost2010Prop50
 90
       50
102
RTVSPost2010PropOp50
 70
     1
102
RTVSPost2010Prop51ColorIndex
 90
      256
102
RTVSPost2010Prop51ColorRGB
 90
-16777216
102
RTVSPost2010PropOp51
 70
     0
102
RTVSPost2010Prop52
140
1.0
102
RTVSPost2010PropOp52
 70
     0
102
RTVSPost2010Prop53
 90
        2
102
RTVSPost2010PropOp53
 70
     1
102
RTVSPost2010Prop54
  1
strokes_ogs.tif
102
RTVSPost2010PropOp54
 70
     1
102
RTVSPost2010Prop55
280
     0
102
RTVSPost2010PropOp55
 70
     1
102
RTVSPost2010Prop56
140
1.0
102
RTVSPost2010PropOp56
 70
     1
102
RTVSPost2010Prop57
140
1.0
102
RTVSPost2010PropOp57
 70
     1
  0
XRECORD
  5
52D
102
{ACAD_REACTORS
330
52C
102
}
330
52C
100
AcDbXrecord
280
     1
102
RTVSPropertyOp0
 70
     1
102
RTVSPropertyOp1
 70
     1
102
RTVSPropertyOp2
 70
     1
102
RTVSPropertyOp3
 70
     1
102
RTVSPropertyOp4
 70
     1
102
RTVSPropertyOp5
 70
     1
102
RTVSPropertyOp6
 70
     1
102
RTVSPropertyOp7
 70
     1
102
RTVSPropertyOp8
 70
     1
102
RTVSPropertyOp9
 70
     1
102
RTVSPropertyOp10
 70
     1
102
RTVSPropertyOp11
 70
     1
102
RTVSPropertyOp12
 70
     1
102
RTVSPropertyOp13
 70
     1
102
RTVSPropertyOp14
 70
     1
102
RTVSPropertyOp15
 70
     1
102
RTVSPropertyOp16
 70
     1
102
RTVSPropertyOp17
 70
     1
102
RTVSPropertyOp18
 70
     1
102
RTVSPropertyOp19
 70
     1
102
RTVSPropertyOp20
 70
     1
102
RTVSPropertyOp21
 70
     1
102
RTVSPropertyOp22
 70
     1
102
RTVSPropertyOp23
 70
     1
102
RTVSPropertyOp24
 70
     1
102
RTVSPropertyOp25
 70
     1
102
RTVSPropertyOp26
 70
     1
102
RTVSPropertyOp27
 70
     1
102
RTVSPropertyOp28
 70
     1
102
RTVSPropertyOp29
 70
     1
102
RTVSPropertyOp30
 70
     1
102
RTVSPropertyOp31
 70
     1
102
RTVSPropertyOp32
 70
     1
102
RTVSPropertyOp33
 70
     1
102
RTVSPropertyOp34
 70
     1
102
RTVSPropertyOp35
 70
     1
102
RTVSPropertyOp36
 70
     1
102
RTVSPropertyOp37
 70
     1
102
RTVSPropertyOp38
 70
     1
102
RTVSPropertyOp39
 70
     1
102
RTVSPropertyOp40
 70
     1
102
RTVSPropertyOp41
 70
     1
102
RTVSPropertyOp42
 70
     1
102
RTVSPropertyOp43
 70
     1
102
RTVSPropertyOp44
 70
     1
102
RTVSPropertyOp45
 70
     1
102
RTVSPropertyOp46
 70
     1
102
RTVSPropertyOp47
 70
     1
102
RTVSPropertyOp48
 70
     1
102
RTVSPropertyOp49
 70
     1
102
RTVSPropertyOp50
 70
     1
102
RTVSPropertyOp51
 70
     0
102
RTVSPropertyOp52
 70
     0
102
RTVSPropertyOp53
 70
     1
102
RTVSPropertyOp54
 70
     1
102
RTVSPropertyOp55
 70
     1
102
RTVSPropertyOp56
 70
     1
102
RTVSPropertyOp57
 70
     1
102
RTVSPost2010Prop28
280
     0
102
RTVSPost2010PropOp28
 70
     1
102
RTVSPost2010Prop29
280
     1
102
RTVSPost2010PropOp29
 70
     1
102
RTVSPost2010Prop30
280
     1
102
RTVSPost2010PropOp30
 70
     1
102
RTVSPost2010Prop31
280
     0
102
RTVSPost2010PropOp31
 70
     1
102
RTVSPost2010Prop32
280
     0
102
RTVSPost2010PropOp32
 70
     1
102
RTVSPost2010Prop33
280
     0
102
RTVSPost2010PropOp33
 70
     1
102
RTVSPost2010Prop34
280
     0
102
RTVSPost2010PropOp34
 70
     1
102
RTVSPost2010Prop35
280
     0
102
RTVSPost2010PropOp35
 70
     1
102
RTVSPost2010Prop36
280
     0
102
RTVSPost2010PropOp36
 70
     1
102
RTVSPost2010Prop37
 90
       50
102
RTVSPost2010PropOp37
 70
     1
102
RTVSPost2010Prop38
140
0.0
102
RTVSPost2010PropOp38
 70
     1
102
RTVSPost2010Prop39
140
1.0
102
RTVSPost2010PropOp39
 70
     1
102
RTVSPost2010Prop40
 90
        0
102
RTVSPost2010PropOp40
 70
     1
102
RTVSPost2010Prop41ColorIndex
 90
       18
102
RTVSPost2010Prop41ColorRGB
 90
        0
102
RTVSPost2010PropOp41
 70
     1
102
RTVSPost2010Prop42
 90
       50
102
RTVSPost2010PropOp42
 70
     1
102
RTVSPost2010Prop43
 90
        3
102
RTVSPost2010PropOp43
 70
     1
102
RTVSPost2010Prop44ColorIndex
 90
        5
102
RTVSPost2010Prop44ColorRGB
 90
      255
102
RTVSPost2010PropOp44
 70
     1
102
RTVSPost2010Prop45
280
     0
102
RTVSPost2010PropOp45
 70
     1
102
RTVSPost2010Prop46
 90
       50
102
RTVSPost2010PropOp46
 70
     1
102
RTVSPost2010Prop47
 90
       50
102
RTVSPost2010PropOp47
 70
     1
102
RTVSPost2010Prop48
 90
       50
102
RTVSPost2010PropOp48
 70
     1
102
RTVSPost2010Prop49
280
     0
102
RTVSPost2010PropOp49
 70
     1
102
RTVSPost2010Prop50
 90
       50
102
RTVSPost2010PropOp50
 70
     1
102
RTVSPost2010Prop51ColorIndex
 90
      256
102
RTVSPost2010Prop51ColorRGB
 90
-16777216
102
RTVSPost2010PropOp51
 70
     0
102
RTVSPost2010Prop52
140
1.0
102
RTVSPost2010PropOp52
 70
     0
102
RTVSPost2010Prop53
 90
        2
102
RTVSPost2010PropOp53
 70
     1
102
RTVSPost2010Prop54
  1
strokes_ogs.tif
102
RTVSPost2010PropOp54
 70
     1
102
RTVSPost2010Prop55
280
     0
102
RTVSPost2010PropOp55
 70
     1
102
RTVSPost2010Prop56
140
1.0
102
RTVSPost2010PropOp56
 70
     1
102
RTVSPost2010Prop57
140
1.0
102
RTVSPost2010PropOp57
 70
     1
  0
ENDSEC
  0
EOF
