  0
SECTION
  2
HEADER
  9
$ACADVER
  1
AC1015
  9
$ACADMAINTVER
 70
     6
  9
$DWGCODEPAGE
  3
ANSI_932
  9
$INSBASE
 10
821.6635006931615
 20
227.9504064979209
 30
0.0
  9
$EXTMIN
 10
92.28243040092161
 20
11.62927985284247
 30
0.0
  9
$EXTMAX
 10
579.1365675974483
 20
508.5210463107562
 30
0.0
  9
$LIMMIN
 10
0.0
 20
0.0
  9
$LIMMAX
 10
816.5000000000001
 20
565.0
  9
$ORTHOMODE
 70
     1
  9
$REGENMODE
 70
     1
  9
$FILLMODE
 70
     1
  9
$QTEXTMODE
 70
     0
  9
$MIRRTEXT
 70
     1
  9
$LTSCALE
 40
20.0
  9
$ATTMODE
 70
     1
  9
$TEXTSIZE
 40
4.5
  9
$TRACEWID
 40
0.05
  9
$TEXTSTYLE
  7
KANJI
  9
$CLAYER
  8
2
  9
$CELTYPE
  6
BYLAYER
  9
$CECOLOR
 62
   256
  9
$CELTSCALE
 40
1.0
  9
$DISPSILH
 70
     0
  9
$DIMSCALE
 40
1.5
  9
$DIMASZ
 40
2.0
  9
$DIMEXO
 40
0.5
  9
$DIMDLI
 40
0.0
  9
$DIMRND
 40
0.0
  9
$DIMDLE
 40
0.0
  9
$DIMEXE
 40
1.0
  9
$DIMTP
 40
0.0
  9
$DIMTM
 40
0.0
  9
$DIMTXT
 40
3.0
  9
$DIMCEN
 40
0.09
  9
$DIMTSZ
 40
0.0
  9
$DIMTOL
 70
     0
  9
$DIMLIM
 70
     0
  9
$DIMTIH
 70
     0
  9
$DIMTOH
 70
     0
  9
$DIMSE1
 70
     0
  9
$DIMSE2
 70
     0
  9
$DIMTAD
 70
     0
  9
$DIMZIN
 70
     8
  9
$DIMBLK
  1

  9
$DIMASO
 70
     0
  9
$DIMSHO
 70
     0
  9
$DIMPOST
  1

  9
$DIMAPOST
  1

  9
$DIMALT
 70
     0
  9
$DIMALTD
 70
     2
  9
$DIMALTF
 40
25.4
  9
$DIMLFAC
 40
1.0
  9
$DIMTOFL
 70
     1
  9
$DIMTVP
 40
1.0
  9
$DIMTIX
 70
     1
  9
$DIMSOXD
 70
     1
  9
$DIMSAH
 70
     0
  9
$DIMBLK1
  1

  9
$DIMBLK2
  1

  9
$DIMSTYLE
  2
STANDARD
  9
$DIMCLRD
 70
   256
  9
$DIMCLRE
 70
   256
  9
$DIMCLRT
 70
   256
  9
$DIMTFAC
 40
1.0
  9
$DIMGAP
 40
0.09
  9
$DIMJUST
 70
     0
  9
$DIMSD1
 70
     0
  9
$DIMSD2
 70
     0
  9
$DIMTOLJ
 70
     1
  9
$DIMTZIN
 70
     0
  9
$DIMALTZ
 70
     0
  9
$DIMALTTZ
 70
     0
  9
$DIMUPT
 70
     0
  9
$DIMDEC
 70
     1
  9
$DIMTDEC
 70
     4
  9
$DIMALTU
 70
     2
  9
$DIMALTTD
 70
     2
  9
$DIMTXSTY
  7
STANDARD
  9
$DIMAUNIT
 70
     0
  9
$DIMADEC
 70
     0
  9
$DIMALTRND
 40
0.0
  9
$DIMAZIN
 70
     0
  9
$DIMDSEP
 70
    46
  9
$DIMATFIT
 70
     3
  9
$DIMFRAC
 70
     0
  9
$DIMLDRBLK
  1

  9
$DIMLUNIT
 70
     2
  9
$DIMLWD
 70
    -2
  9
$DIMLWE
 70
    -2
  9
$DIMTMOVE
 70
     0
  9
$LUNITS
 70
     2
  9
$LUPREC
 70
     3
  9
$SKETCHINC
 40
0.1
  9
$FILLETRAD
 40
1.0
  9
$AUNITS
 70
     0
  9
$AUPREC
 70
     3
  9
$MENU
  1
C:\R13\WIN\SUPPORT\ACADFULL
  9
$ELEVATION
 40
0.0
  9
$PELEVATION
 40
0.0
  9
$THICKNESS
 40
0.0
  9
$LIMCHECK
 70
     0
  9
$CHAMFERA
 40
0.0
  9
$CHAMFERB
 40
0.0
  9
$CHAMFERC
 40
0.0
  9
$CHAMFERD
 40
0.0
  9
$SKPOLY
 70
     0
  9
$TDCREATE
 40
2449813.131805555
  9
$TDUCREATE
 40
2449812.756805555
  9
$TDUPDATE
 40
2457871.82756941
  9
$TDUUPDATE
 40
2457871.45256941
  9
$TDINDWG
 40
1.1245411921
  9
$TDUSRTIMER
 40
1.1245408102
  9
$USRTIMER
 70
     1
  9
$ANGBASE
 50
0.0
  9
$ANGDIR
 70
     0
  9
$PDMODE
 70
     0
  9
$PDSIZE
 40
0.0
  9
$PLINEWID
 40
0.0
  9
$SPLFRAME
 70
     0
  9
$SPLINETYPE
 70
     6
  9
$SPLINESEGS
 70
     8
  9
$HANDSEED
  5
516
  9
$SURFTAB1
 70
     6
  9
$SURFTAB2
 70
     6
  9
$SURFTYPE
 70
     6
  9
$SURFU
 70
     6
  9
$SURFV
 70
     6
  9
$UCSBASE
  2

  9
$UCSNAME
  2

  9
$UCSORG
 10
0.0
 20
0.0
 30
0.0
  9
$UCSXDIR
 10
1.0
 20
0.0
 30
0.0
  9
$UCSYDIR
 10
0.0
 20
1.0
 30
0.0
  9
$UCSORTHOREF
  2

  9
$UCSORTHOVIEW
 70
     0
  9
$UCSORGTOP
 10
0.0
 20
0.0
 30
0.0
  9
$UCSORGBOTTOM
 10
0.0
 20
0.0
 30
0.0
  9
$UCSORGLEFT
 10
0.0
 20
0.0
 30
0.0
  9
$UCSORGRIGHT
 10
0.0
 20
0.0
 30
0.0
  9
$UCSORGFRONT
 10
0.0
 20
0.0
 30
0.0
  9
$UCSORGBACK
 10
0.0
 20
0.0
 30
0.0
  9
$PUCSBASE
  2

  9
$PUCSNAME
  2

  9
$PUCSORG
 10
0.0
 20
0.0
 30
0.0
  9
$PUCSXDIR
 10
1.0
 20
0.0
 30
0.0
  9
$PUCSYDIR
 10
0.0
 20
1.0
 30
0.0
  9
$PUCSORTHOREF
  2

  9
$PUCSORTHOVIEW
 70
     0
  9
$PUCSORGTOP
 10
0.0
 20
0.0
 30
0.0
  9
$PUCSORGBOTTOM
 10
0.0
 20
0.0
 30
0.0
  9
$PUCSORGLEFT
 10
0.0
 20
0.0
 30
0.0
  9
$PUCSORGRIGHT
 10
0.0
 20
0.0
 30
0.0
  9
$PUCSORGFRONT
 10
0.0
 20
0.0
 30
0.0
  9
$PUCSORGBACK
 10
0.0
 20
0.0
 30
0.0
  9
$USERI1
 70
     0
  9
$USERI2
 70
     0
  9
$USERI3
 70
     0
  9
$USERI4
 70
     0
  9
$USERI5
 70
     0
  9
$USERR1
 40
0.0
  9
$USERR2
 40
0.0
  9
$USERR3
 40
0.0
  9
$USERR4
 40
2448925.372986111
  9
$USERR5
 40
0.04166667
  9
$WORLDVIEW
 70
     1
  9
$SHADEDGE
 70
     3
  9
$SHADEDIF
 70
    70
  9
$TILEMODE
 70
     1
  9
$MAXACTVP
 70
    16
  9
$PINSBASE
 10
0.0
 20
0.0
 30
0.0
  9
$PLIMCHECK
 70
     0
  9
$PEXTMIN
 10
1.000000000000000E+20
 20
1.000000000000000E+20
 30
1.000000000000000E+20
  9
$PEXTMAX
 10
-1.000000000000000E+20
 20
-1.000000000000000E+20
 30
-1.000000000000000E+20
  9
$PLIMMIN
 10
0.0
 20
0.0
  9
$PLIMMAX
 10
12.0
 20
9.0
  9
$UNITMODE
 70
     0
  9
$VISRETAIN
 70
     0
  9
$PLINEGEN
 70
     0
  9
$PSLTSCALE
 70
     0
  9
$TREEDEPTH
 70
  3020
  9
$CMLSTYLE
  2
STANDARD
  9
$CMLJUST
 70
     0
  9
$CMLSCALE
 40
1.0
  9
$PROXYGRAPHICS
 70
     1
  9
$MEASUREMENT
 70
     0
  9
$CELWEIGHT
370
    -1
  9
$ENDCAPS
280
     0
  9
$JOINSTYLE
280
     0
  9
$LWDISPLAY
290
     0
  9
$INSUNITS
 70
     0
  9
$HYPERLINKBASE
  1

  9
$STYLESHEET
  1

  9
$XEDIT
290
     1
  9
$CEPSNTYPE
380
     0
  9
$PSTYLEMODE
290
     1
  9
$FINGERPRINTGUID
  2
{1207B529-6B91-43A1-A6FF-1655EF8C041E}
  9
$VERSIONGUID
  2
{729004AC-B4DE-4596-A085-33E087AD932D}
  9
$EXTNAMES
290
     1
  9
$PSVPSCALE
 40
0.0
  9
$OLESTARTUP
290
     0
  0
ENDSEC
  0
SECTION
  2
CLASSES
  0
CLASS
  1
ACDBDICTIONARYWDFLT
  2
AcDbDictionaryWithDefault
  3
ObjectDBX Classes
 90
        0
280
     0
281
     0
  0
CLASS
  1
MATERIAL
  2
AcDbMaterial
  3
ObjectDBX Classes
 90
     1153
280
     0
281
     0
  0
CLASS
  1
SORTENTSTABLE
  2
AcDbSortentsTable
  3
ObjectDBX Classes
 90
        0
280
     0
281
     0
  0
CLASS
  1
SCALE
  2
AcDbScale
  3
ObjectDBX Classes
 90
     1153
280
     0
281
     0
  0
CLASS
  1
DICTIONARYVAR
  2
AcDbDictionaryVar
  3
ObjectDBX Classes
 90
        0
280
     0
281
     0
  0
CLASS
  1
VISUALSTYLE
  2
AcDbVisualStyle
  3
ObjectDBX Classes
 90
     4095
280
     0
281
     0
  0
CLASS
  1
MLEADERSTYLE
  2
AcDbMLeaderStyle
  3
ACDB_MLEADERSTYLE_CLASS
 90
     4095
280
     0
281
     0
  0
CLASS
  1
TABLESTYLE
  2
AcDbTableStyle
  3
ObjectDBX Classes
 90
     4095
280
     0
281
     0
  0
CLASS
  1
ACDBPLACEHOLDER
  2
AcDbPlaceHolder
  3
ObjectDBX Classes
 90
        0
280
     0
281
     0
  0
CLASS
  1
LAYOUT
  2
AcDbLayout
  3
ObjectDBX Classes
 90
        0
280
     0
281
     0
  0
ENDSEC
  0
SECTION
  2
TABLES
  0
TABLE
  2
VPORT
  5
25
102
{ACAD_XDICTIONARY
360
4DB
102
}
330
0
100
AcDbSymbolTable
 70
     7
  0
VPORT
  5
2B
330
25
100
AcDbSymbolTableRecord
100
AcDbViewportTableRecord
  2
*ACTIVE
 70
     0
 10
0.0
 20
0.0
 11
1.0
 21
1.0
 12
419.0334970974522
 22
274.398708186721
 13
0.0
 23
0.0
 14
1.0
 24
1.0
 15
50.0
 25
50.0
 16
0.0
 26
0.0
 36
1.0
 17
0.0
 27
0.0
 37
0.0
 40
532.2316823484966
 41
2.171641791044776
 42
50.0
 43
0.0
 44
0.0
 50
0.0
 51
0.0
 71
     0
 72
  5000
 73
     1
 74
     0
 75
     0
 76
     0
 77
     0
 78
     0
281
     0
 65
     1
110
0.0
120
0.0
130
0.0
111
1.0
121
0.0
131
0.0
112
0.0
122
1.0
132
0.0
 79
     0
146
0.0
  0
ENDTAB
  0
TABLE
  2
LTYPE
  5
9
330
0
100
AcDbSymbolTable
 70
     2
  0
LTYPE
  5
A
330
9
100
AcDbSymbolTableRecord
100
AcDbLinetypeTableRecord
  2
BYBLOCK
 70
     0
  3

 72
    65
 73
     0
 40
0.0
  0
LTYPE
  5
B
330
9
100
AcDbSymbolTableRecord
100
AcDbLinetypeTableRecord
  2
BYLAYER
 70
     0
  3

 72
    65
 73
     0
 40
0.0
  0
LTYPE
  5
8
330
9
100
AcDbSymbolTableRecord
100
AcDbLinetypeTableRecord
  2
CONTINUOUS
 70
     0
  3
Solid line
 72
    65
 73
     0
 40
0.0
  0
LTYPE
  5
7A
330
9
100
AcDbSymbolTableRecord
100
AcDbLinetypeTableRecord
  2
CENTER
 70
     0
  3
Center ____ _ ____ _ ____ _ ____ _ ____ _ ____
 72
    65
 73
     4
 40
2.0
 49
1.25
 74
     0
 49
-0.25
 74
     0
 49
0.25
 74
     0
 49
-0.25
 74
     0
  0
ENDTAB
  0
TABLE
  2
LAYER
  5
2
330
0
100
AcDbSymbolTable
 70
     8
  0
LAYER
  5
19
330
2
100
AcDbSymbolTableRecord
100
AcDbLayerTableRecord
  2
0
 70
     0
 62
     7
  6
CONTINUOUS
370
    -3
390
3
  0
LAYER
  5
2B0
330
2
100
AcDbSymbolTableRecord
100
AcDbLayerTableRecord
  2
1
 70
     0
 62
     9
  6
CONTINUOUS
370
    -3
390
3
  0
LAYER
  5
1
330
2
100
AcDbSymbolTableRecord
100
AcDbLayerTableRecord
  2
2
 70
     0
 62
     4
  6
CONTINUOUS
370
    -3
390
3
  0
LAYER
  5
74
330
2
100
AcDbSymbolTableRecord
100
AcDbLayerTableRecord
  2
4
 70
     0
 62
     3
  6
CONTINUOUS
370
    -3
390
3
  0
LAYER
  5
79
330
2
100
AcDbSymbolTableRecord
100
AcDbLayerTableRecord
  2
L-CENTER
 70
     0
 62
     1
  6
CENTER
370
    -3
390
3
  0
LAYER
  5
72
330
2
100
AcDbSymbolTableRecord
100
AcDbLayerTableRecord
  2
3
 70
     0
 62
     2
  6
CONTINUOUS
370
    -3
390
3
  0
LAYER
  5
2AA
330
2
100
AcDbSymbolTableRecord
100
AcDbLayerTableRecord
  2
5
 70
     0
 62
     6
  6
CONTINUOUS
370
    -3
390
3
  0
LAYER
  5
46A
330
2
100
AcDbSymbolTableRecord
100
AcDbLayerTableRecord
  2
Defpoints
 70
     0
 62
     7
  6
CONTINUOUS
290
     0
370
    -3
390
3
  0
ENDTAB
  0
TABLE
  2
STYLE
  5
D
330
0
100
AcDbSymbolTable
 70
     2
  0
STYLE
  5
11
330
D
100
AcDbSymbolTableRecord
100
AcDbTextStyleTableRecord
  2
STANDARD
 70
     0
 40
0.0
 41
1.0
 50
0.0
 71
     0
 42
2.7
  3
TXT
  4

  0
STYLE
  5
C
330
D
100
AcDbSymbolTableRecord
100
AcDbTextStyleTableRecord
  2
KANJI
 70
     0
 40
0.0
 41
1.0
 50
0.0
 71
     0
 42
4.5
  3
TXT
  4
BIGFONT
  0
ENDTAB
  0
TABLE
  2
VIEW
  5
23
330
0
100
AcDbSymbolTable
 70
     0
  0
ENDTAB
  0
TABLE
  2
UCS
  5
24
330
0
100
AcDbSymbolTable
 70
     0
  0
ENDTAB
  0
TABLE
  2
APPID
  5
1E
330
0
100
AcDbSymbolTable
 70
     5
  0
APPID
  5
2A
330
1E
100
AcDbSymbolTableRecord
100
AcDbRegAppTableRecord
  2
ACAD
 70
     0
  0
APPID
  5
1D
330
1E
100
AcDbSymbolTableRecord
100
AcDbRegAppTableRecord
  2
ACAD_PSEXT
 70
     0
  0
APPID
  5
447
330
1E
100
AcDbSymbolTableRecord
100
AcDbRegAppTableRecord
  2
ACAD_MLEADERVER
 70
     0
  0
ENDTAB
  0
TABLE
  2
DIMSTYLE
  5
10
330
0
100
AcDbSymbolTable
 70
     1
100
AcDbDimStyleTable
  0
DIMSTYLE
105
F
330
10
100
AcDbSymbolTableRecord
100
AcDbDimStyleTableRecord
  2
STANDARD
 70
     0
178
     0
340
11
  0
ENDTAB
  0
TABLE
  2
BLOCK_RECORD
  5
14
330
0
100
AcDbSymbolTable
 70
     0
  0
BLOCK_RECORD
  5
15
102
{ACAD_XDICTIONARY
360
16
102
}
330
14
100
AcDbSymbolTableRecord
100
AcDbBlockTableRecord
  2
*MODEL_SPACE
340
1B
  0
BLOCK_RECORD
  5
1F
330
14
100
AcDbSymbolTableRecord
100
AcDbBlockTableRecord
  2
*PAPER_SPACE
340
22
  0
ENDTAB
  0
ENDSEC
  0
SECTION
  2
BLOCKS
  0
BLOCK
  5
18
330
15
100
AcDbEntity
  8
0
100
AcDbBlockBegin
  2
*MODEL_SPACE
 70
     0
 10
0.0
 20
0.0
 30
0.0
  3
*MODEL_SPACE
  1

  0
ENDBLK
  5
1A
330
15
100
AcDbEntity
  8
0
100
AcDbBlockEnd
  0
BLOCK
  5
20
330
1F
100
AcDbEntity
 67
     1
  8
0
100
AcDbBlockBegin
  2
*PAPER_SPACE
 70
     0
 10
0.0
 20
0.0
 30
0.0
  3
*PAPER_SPACE
  1

  0
ENDBLK
  5
21
330
1F
100
AcDbEntity
 67
     1
  8
0
100
AcDbBlockEnd
  0
ENDSEC
  0
SECTION
  2
ENTITIES
  0
LINE
  5
73
330
15
100
AcDbEntity
  8
4
100
AcDbLine
 10
438.1922573344133
 20
167.7055547332221
 30
0.0
 11
437.1922568344133
 21
167.7055547332221
 31
0.0
  0
LINE
  5
75
330
15
100
AcDbEntity
  8
4
100
AcDbLine
 10
416.6922563344134
 20
33.70572323322219
 30
0.0
 11
526.6922573344133
 21
33.70572323322219
 31
0.0
  0
LINE
  5
76
330
15
100
AcDbEntity
  8
4
100
AcDbLine
 10
419.6922563344134
 20
54.70572323322219
 30
0.0
 11
523.6922573344133
 21
54.70572323322219
 31
0.0
  0
ARC
  5
77
330
15
100
AcDbEntity
  8
4
100
AcDbCircle
 10
431.1922568344133
 20
61.70572373322216
 30
0.0
 40
7.000000499999999
100
AcDbArc
 50
270.0
 51
0.0
  0
LINE
  5
78
330
15
100
AcDbEntity
  8
L-CENTER
 48
0.5
100
AcDbLine
 10
364.2479460713786
 20
103.7055557332222
 30
0.0
 11
579.1365675974481
 21
103.7055557332222
 31
0.0
  0
LINE
  5
7B
330
15
100
AcDbEntity
  8
L-CENTER
 48
0.5
100
AcDbLine
 10
509.0597288886692
 20
163.7055557332222
 30
0.0
 11
434.3247847801575
 21
163.7055557332222
 31
0.0
  0
LINE
  5
81
330
15
100
AcDbEntity
  8
4
100
AcDbLine
 10
437.1922568344133
 20
58.1001722332222
 30
0.0
 11
437.1922568344133
 21
167.7055547332221
 31
0.0
  0
ARC
  5
85
330
15
100
AcDbEntity
  8
4
100
AcDbCircle
 10
242.5829026596218
 20
160.6061897332222
 30
0.0
 40
2.999976
100
AcDbArc
 50
8.239470000000395
 51
81.76042699999894
  0
ARC
  5
86
330
15
100
AcDbEntity
  8
4
100
AcDbCircle
 10
128.7815881596218
 20
160.6061897332222
 30
0.0
 40
2.999976
100
AcDbArc
 50
98.23957300000106
 51
171.7605299999996
  0
CIRCLE
  5
87
330
15
100
AcDbEntity
  8
4
100
AcDbCircle
 10
185.6821921596219
 20
103.7055557332222
 30
0.0
 40
63.0
  0
LINE
  5
88
330
15
100
AcDbEntity
  8
L-CENTER
 48
0.5
100
AcDbLine
 10
185.6821921596219
 20
201.9652337332221
 30
0.0
 11
185.6821921596219
 21
35.57427589487929
 31
0.0
  0
LINE
  5
89
330
15
100
AcDbEntity
  8
4
100
AcDbLine
 10
121.6824661596219
 20
131.2055552332222
 30
0.0
 11
121.6824661596219
 21
197.2055552332222
 31
0.0
  0
LINE
  5
8A
330
15
100
AcDbEntity
  8
4
100
AcDbLine
 10
117.6824671596219
 20
196.2055547332221
 30
0.0
 11
117.6824671596219
 21
131.2055552332222
 31
0.0
  0
LINE
  5
8B
330
15
100
AcDbEntity
  8
4
100
AcDbLine
 10
116.6824666596218
 20
187.2055547332221
 30
0.0
 11
116.6824666596218
 21
140.2055552332222
 31
0.0
  0
LINE
  5
8C
330
15
100
AcDbEntity
  8
4
100
AcDbLine
 10
253.6820236596218
 20
196.2055547332221
 30
0.0
 11
253.6820236596218
 21
131.2055552332222
 31
0.0
  0
LINE
  5
8D
330
15
100
AcDbEntity
  8
4
100
AcDbLine
 10
249.6820231596218
 20
131.2055552332222
 30
0.0
 11
249.6820231596218
 21
197.2055552332222
 31
0.0
  0
LINE
  5
8E
330
15
100
AcDbEntity
  8
4
100
AcDbLine
 10
254.6820241596218
 20
187.2055547332221
 30
0.0
 11
254.6820241596218
 21
140.2055552332222
 31
0.0
  0
LINE
  5
8F
330
15
100
AcDbEntity
  8
4
100
AcDbLine
 10
265.6821916596218
 20
172.2055547332221
 30
0.0
 11
265.6821916596218
 21
155.2055552332222
 31
0.0
  0
LINE
  5
90
330
15
100
AcDbEntity
  8
4
100
AcDbLine
 10
300.6820231596218
 20
173.7055547332221
 30
0.0
 11
300.6820231596218
 21
156.7055552332222
 31
0.0
  0
LINE
  5
91
330
15
100
AcDbEntity
  8
4
100
AcDbLine
 10
299.6820241596217
 20
171.7055552332222
 30
0.0
 11
299.6820241596217
 21
155.7055547332221
 31
0.0
  0
LINE
  5
92
330
15
100
AcDbEntity
  8
4
100
AcDbLine
 10
431.1922568344133
 20
54.70572323322219
 30
0.0
 11
431.1922568344133
 21
165.7055552332222
 31
0.0
  0
ARC
  5
95
330
15
100
AcDbEntity
  8
4
100
AcDbCircle
 10
185.6824666596218
 20
176.7057992332221
 30
0.0
 40
99.999999
100
AcDbArc
 50
257.1514829999999
 51
282.849507
  0
ARC
  5
96
330
15
100
AcDbEntity
  8
4
100
AcDbCircle
 10
185.6822221596219
 20
439.7060432332222
 30
0.0
 40
400.000002
100
AcDbArc
 50
262.9446470000001
 51
277.05536
  0
LINE
  5
97
330
15
100
AcDbEntity
  8
4
100
AcDbLine
 10
138.1824661596219
 20
39.70572323322219
 30
0.0
 11
233.1820231596218
 21
39.70572323322219
 31
0.0
  0
ARC
  5
98
330
15
100
AcDbEntity
  8
4
100
AcDbCircle
 10
185.6824666596218
 20
174.7057997332222
 30
0.0
 40
100.000002
100
AcDbArc
 50
256.1701249999999
 51
283.830872
  0
LINE
  5
99
330
15
100
AcDbEntity
  8
L-CENTER
 48
0.5
100
AcDbLine
 10
117.5509123212789
 20
103.7055557332222
 30
0.0
 11
253.8134719979648
 21
103.7055557332222
 31
0.0
  0
ARC
  5
9A
330
15
100
AcDbEntity
  8
4
100
AcDbCircle
 10
185.6821921596219
 20
32.70573773322218
 30
0.0
 40
99.99998550000001
100
AcDbArc
 50
76.169548
 51
103.830422
  0
ARC
  5
9B
330
15
100
AcDbEntity
  8
4
100
AcDbCircle
 10
185.6824666596218
 20
30.70573823322218
 30
0.0
 40
100.0000395
100
AcDbArc
 50
77.15112500000002
 51
102.849151
  0
ARC
  5
9E
330
15
100
AcDbEntity
  8
4
100
AcDbCircle
 10
185.6821921596218
 20
103.7055557332222
 30
0.0
 40
48.0
100
AcDbArc
 50
108.7420477253906
 51
71.25795227460911
  0
ARC
  5
9F
330
15
100
AcDbEntity
  8
4
100
AcDbCircle
 10
125.7617326596219
 20
57.70572323322219
 30
0.0
 40
3.0
100
AcDbArc
 50
270.0
 51
17.49679700000084
  0
LINE
  5
A0
330
15
100
AcDbEntity
  8
4
100
AcDbLine
 10
121.6824661596219
 20
103.7055557332222
 30
0.0
 11
121.6824661596219
 21
56.70572273322222
 31
0.0
  0
LINE
  5
A1
330
15
100
AcDbEntity
  8
L-CENTER
 48
0.5
100
AcDbLine
 10
110.6824666596218
 20
61.70572323322219
 30
0.0
 11
110.6824666596218
 21
26.70572323322219
 31
0.0
  0
LINE
  5
A2
330
15
100
AcDbEntity
  8
4
100
AcDbLine
 10
118.6824661596219
 20
54.70572323322219
 30
0.0
 11
118.6824661596219
 21
73.70572373322216
 31
0.0
  0
LINE
  5
A3
330
15
100
AcDbEntity
  8
4
100
AcDbLine
 10
101.1824671596219
 20
54.70572323322219
 30
0.0
 11
130.1824666596218
 21
54.70572323322219
 31
0.0
  0
LINE
  5
A4
330
15
100
AcDbEntity
  8
4
100
AcDbLine
 10
135.1824661596219
 20
33.70572323322219
 30
0.0
 11
98.18246715962186
 21
33.70572323322219
 31
0.0
  0
LINE
  5
A9
330
15
100
AcDbEntity
  8
4
100
AcDbLine
 10
98.18246715962186
 20
51.70572323322219
 30
0.0
 11
98.18246715962186
 21
33.70572323322219
 31
0.0
  0
ARC
  5
AA
330
15
100
AcDbEntity
  8
4
100
AcDbCircle
 10
101.1824671596219
 20
51.70572323322219
 30
0.0
 40
3.0
100
AcDbArc
 50
90.0
 51
180.0002860014283
  0
ARC
  5
AB
330
15
100
AcDbEntity
  8
4
100
AcDbCircle
 10
119.6824666596218
 20
56.70572273322222
 30
0.0
 40
1.9999995
100
AcDbArc
 50
270.0
 51
0.0
  0
LINE
  5
AC
330
15
100
AcDbEntity
  8
4
100
AcDbLine
 10
133.1824666596218
 20
51.70572323322219
 30
0.0
 11
133.1824666596218
 21
33.70572323322219
 31
0.0
  0
ARC
  5
AD
330
15
100
AcDbEntity
  8
4
100
AcDbCircle
 10
136.1824666596218
 20
39.75757673322221
 30
0.0
 40
3.0
100
AcDbArc
 50
82.94464700000124
 51
180.0
  0
ARC
  5
AE
330
15
100
AcDbEntity
  8
4
100
AcDbCircle
 10
138.1824661596219
 20
36.70572323322219
 30
0.0
 40
3.0
100
AcDbArc
 50
90.0
 51
180.0002860014283
  0
LINE
  5
AF
330
15
100
AcDbEntity
  8
4
100
AcDbLine
 10
135.1824661596219
 20
36.70572323322219
 30
0.0
 11
135.1824661596219
 21
33.70572323322219
 31
0.0
  0
ARC
  5
B0
330
15
100
AcDbEntity
  8
4
100
AcDbCircle
 10
130.1824666596218
 20
51.70572323322219
 30
0.0
 40
3.0
100
AcDbArc
 50
0.0
 51
90.0
  0
LINE
  5
B1
330
15
100
AcDbEntity
  8
L-CENTER
 48
0.5
100
AcDbLine
 10
107.6651776596218
 20
94.70572373322216
 30
0.0
 11
128.9832166596218
 21
94.70572373322216
 31
0.0
  0
LINE
  5
B2
330
15
100
AcDbEntity
  8
4
100
AcDbLine
 10
110.1824671596219
 20
82.2057077332222
 30
0.0
 11
117.1824661596219
 21
82.2057077332222
 31
0.0
  0
LINE
  5
B3
330
15
100
AcDbEntity
  8
4
100
AcDbLine
 10
115.1824666596218
 20
88.45572323322219
 30
0.0
 11
110.1824671596219
 21
88.45572323322219
 31
0.0
  0
LINE
  5
B4
330
15
100
AcDbEntity
  8
4
100
AcDbLine
 10
117.1824661596219
 20
107.2055552332222
 30
0.0
 11
110.1824671596219
 21
107.2055552332222
 31
0.0
  0
LINE
  5
B5
330
15
100
AcDbEntity
  8
4
100
AcDbLine
 10
115.1824666596218
 20
100.9555547332222
 30
0.0
 11
110.1824671596219
 21
100.9555547332222
 31
0.0
  0
LINE
  5
B6
330
15
100
AcDbEntity
  8
4
100
AcDbLine
 10
110.1824671596219
 20
82.2057077332222
 30
0.0
 11
110.1824671596219
 21
107.2055552332222
 31
0.0
  0
ARC
  5
B7
330
15
100
AcDbEntity
  8
4
100
AcDbCircle
 10
521.6827561596219
 20
103.7055557332222
 30
0.0
 40
400.000002
100
AcDbArc
 50
171.760082
 51
180.0003849998515
  0
ARC
  5
B8
330
15
100
AcDbEntity
  8
4
100
AcDbCircle
 10
118.7832631596218
 20
112.7055557332222
 30
0.0
 40
3.0
100
AcDbArc
 50
270.0
 51
358.7203350000001
  0
ARC
  5
B9
330
15
100
AcDbEntity
  8
4
100
AcDbCircle
 10
258.6825121596219
 20
103.7057987332222
 30
0.0
 40
100.000011
100
AcDbArc
 50
167.151551
 51
192.848918
  0
ARC
  5
BA
330
15
100
AcDbEntity
  8
4
100
AcDbCircle
 10
256.6825111596219
 20
103.7057987332222
 30
0.0
 40
99.999999
100
AcDbArc
 50
166.170225
 51
193.830278
  0
LINE
  5
BB
330
15
100
AcDbEntity
  8
4
100
AcDbLine
 10
118.6824661596219
 20
109.7055557332222
 30
0.0
 11
118.6824661596219
 21
79.70572373322216
 31
0.0
  0
LINE
  5
BC
330
15
100
AcDbEntity
  8
4
100
AcDbLine
 10
117.1824661596219
 20
82.2057077332222
 30
0.0
 11
117.1824661596219
 21
107.2055552332222
 31
0.0
  0
LINE
  5
BD
330
15
100
AcDbEntity
  8
4
100
AcDbLine
 10
115.1824666596218
 20
82.2057077332222
 30
0.0
 11
115.1824666596218
 21
107.2055552332222
 31
0.0
  0
ARC
  5
BE
330
15
100
AcDbEntity
  8
4
100
AcDbCircle
 10
271.683000159622
 20
103.7055557332222
 30
0.0
 40
150.000003
100
AcDbArc
 50
180.0003729994306
 51
197.496797
  0
LINE
  5
BF
330
15
100
AcDbEntity
  8
L-CENTER
 48
0.5
100
AcDbLine
 10
116.5567951596219
 20
63.70572323322219
 30
0.0
 11
124.4526691596219
 21
63.70572323322219
 31
0.0
  0
LINE
  5
C0
330
15
100
AcDbEntity
  8
4
100
AcDbLine
 10
117.6824671596219
 20
59.20572323322219
 30
0.0
 11
117.6824671596219
 21
68.20572323322219
 31
0.0
  0
LINE
  5
C1
330
15
100
AcDbEntity
  8
4
100
AcDbLine
 10
117.6824671596219
 20
59.20572323322219
 30
0.0
 11
118.6824661596219
 21
59.20572323322219
 31
0.0
  0
LINE
  5
C2
330
15
100
AcDbEntity
  8
4
100
AcDbLine
 10
117.6824671596219
 20
68.20572323322219
 30
0.0
 11
118.6824661596219
 21
68.20572323322219
 31
0.0
  0
LINE
  5
C3
330
15
100
AcDbEntity
  8
4
100
AcDbLine
 10
118.6824661596219
 20
73.70572373322216
 30
0.0
 11
119.6824666596218
 21
73.70572373322216
 31
0.0
  0
LINE
  5
C4
330
15
100
AcDbEntity
  8
4
100
AcDbLine
 10
119.6824666596218
 20
79.70572373322216
 30
0.0
 11
118.6824661596219
 21
79.70572373322216
 31
0.0
  0
LINE
  5
C5
330
15
100
AcDbEntity
  8
4
100
AcDbLine
 10
118.6824661596219
 20
83.2057082332222
 30
0.0
 11
117.1824661596219
 21
83.2057082332222
 31
0.0
  0
LINE
  5
C6
330
15
100
AcDbEntity
  8
4
100
AcDbLine
 10
120.6824671596219
 20
78.70572323322219
 30
0.0
 11
120.6824671596219
 21
74.70572273322222
 31
0.0
  0
ARC
  5
C7
330
15
100
AcDbEntity
  8
4
100
AcDbCircle
 10
119.6824666596218
 20
74.70572273322222
 30
0.0
 40
1.0000005
100
AcDbArc
 50
270.0
 51
0.0
  0
ARC
  5
C8
330
15
100
AcDbEntity
  8
4
100
AcDbCircle
 10
119.6824666596218
 20
78.70572323322219
 30
0.0
 40
1.0000005
100
AcDbArc
 50
0.0
 51
90.0
  0
LINE
  5
C9
330
15
100
AcDbEntity
  8
4
100
AcDbLine
 10
118.7832631596218
 20
109.7055557332222
 30
0.0
 11
118.6824661596219
 21
109.7055557332222
 31
0.0
  0
LINE
  5
CA
330
15
100
AcDbEntity
  8
4
100
AcDbLine
 10
118.6824661596219
 20
106.2055547332222
 30
0.0
 11
117.1824661596219
 21
106.2055547332222
 31
0.0
  0
ARC
  5
CB
330
15
100
AcDbEntity
  8
4
100
AcDbCircle
 10
162.4947211596218
 20
80.5180697332222
 30
0.0
 40
3.0
100
AcDbArc
 50
193.8304299999992
 51
256.1698709999997
  0
ARC
  5
CC
330
15
100
AcDbEntity
  8
4
100
AcDbCircle
 10
164.1111781596218
 20
82.13472473322219
 30
0.0
 40
2.9999985
100
AcDbArc
 50
192.8489500000003
 51
257.1516080000007
  0
LINE
  5
CD
330
15
100
AcDbEntity
  8
4
100
AcDbLine
 10
122.6291866596218
 20
131.2055552332222
 30
0.0
 11
117.6824671596219
 21
131.2055552332222
 31
0.0
  0
LINE
  5
CE
330
15
100
AcDbEntity
  8
4
100
AcDbLine
 10
116.6824666596218
 20
140.2055552332222
 30
0.0
 11
117.6824671596219
 21
140.2055552332222
 31
0.0
  0
ARC
  5
CF
330
15
100
AcDbEntity
  8
4
100
AcDbCircle
 10
162.4947211596218
 20
126.8932997332222
 30
0.0
 40
3.0000195
100
AcDbArc
 50
103.8301290000002
 51
166.171554
  0
ARC
  5
D0
330
15
100
AcDbEntity
  8
4
100
AcDbCircle
 10
164.1111781596218
 20
125.2765997332222
 30
0.0
 40
2.9999745
100
AcDbArc
 50
102.8492730000006
 51
167.149355
  0
TEXT
  5
D2
330
15
100
AcDbEntity
  8
3
100
AcDbText
 10
315.856731315941
 20
11.62927985284247
 30
0.0
 40
4.684553993753926
  1
LB1.5-05
  7
KANJI
100
AcDbText
  0
ARC
  5
D3
330
15
100
AcDbEntity
  8
4
100
AcDbCircle
 10
245.6029636596219
 20
57.70572323322219
 30
0.0
 40
3.0
100
AcDbArc
 50
162.5032020000001
 51
270.0
  0
LINE
  5
D4
330
15
100
AcDbEntity
  8
4
100
AcDbLine
 10
249.6820231596218
 20
103.7055557332222
 30
0.0
 11
249.6820231596218
 21
56.70572273322222
 31
0.0
  0
LINE
  5
D5
330
15
100
AcDbEntity
  8
L-CENTER
 48
0.5
100
AcDbLine
 10
260.6820241596218
 20
61.70572323322219
 30
0.0
 11
260.6820241596218
 21
26.70572323322219
 31
0.0
  0
LINE
  5
D6
330
15
100
AcDbEntity
  8
4
100
AcDbLine
 10
236.1820231596218
 20
33.70572323322219
 30
0.0
 11
273.1820236596218
 21
33.70572323322219
 31
0.0
  0
ARC
  5
D7
330
15
100
AcDbEntity
  8
4
100
AcDbCircle
 10
235.1820241596218
 20
39.75758273322219
 30
0.0
 40
3.0
100
AcDbArc
 50
0.0
 51
97.05535999999952
  0
ARC
  5
D8
330
15
100
AcDbEntity
  8
4
100
AcDbCircle
 10
241.1820241596218
 20
51.70572323322219
 30
0.0
 40
3.0
100
AcDbArc
 50
90.0
 51
180.0
  0
LINE
  5
DB
330
15
100
AcDbEntity
  8
4
100
AcDbLine
 10
238.1820241596218
 20
51.70572323322219
 30
0.0
 11
238.1820241596218
 21
33.70572323322219
 31
0.0
  0
LINE
  5
DC
330
15
100
AcDbEntity
  8
4
100
AcDbLine
 10
236.1820231596218
 20
36.70572323322219
 30
0.0
 11
236.1820231596218
 21
33.70572323322219
 31
0.0
  0
ARC
  5
DD
330
15
100
AcDbEntity
  8
4
100
AcDbCircle
 10
233.1820231596218
 20
36.70572323322219
 30
0.0
 40
3.0
100
AcDbArc
 50
0.0
 51
90.0
  0
ARC
  5
E0
330
15
100
AcDbEntity
  8
4
100
AcDbCircle
 10
270.1820236596218
 20
51.70572323322219
 30
0.0
 40
3.0
100
AcDbArc
 50
0.0
 51
90.0
  0
LINE
  5
E5
330
15
100
AcDbEntity
  8
4
100
AcDbLine
 10
270.1820236596218
 20
54.70572323322219
 30
0.0
 11
241.1820241596218
 21
54.70572323322219
 31
0.0
  0
LWPOLYLINE
  5
E6
330
15
100
AcDbEntity
  8
4
100
AcDbPolyline
 90
       35
 70
     0
 43
0.0
 10
246.0672256596218
 20
54.70572323322219
 10
246.0504016596219
 20
54.26350973322221
 10
246.0377131596218
 20
53.82229673322217
 10
246.0314866596219
 20
53.3826467332222
 10
246.0748696596219
 20
52.07870423322217
 10
246.2602456596218
 20
50.80909973322218
 10
246.3644581596218
 20
50.3961557332222
 10
246.4937626596219
 20
49.98928073322219
 10
246.6504871596218
 20
49.5890357332222
 10
246.8363746596218
 20
49.19298323322218
 10
247.0431706596219
 20
48.80235173322217
 10
247.2616396596218
 20
48.41527673322219
 10
247.8946966596218
 20
47.2567007332222
 10
248.0674756596218
 20
46.86516773322219
 10
248.2057366596218
 20
46.46785073322218
 10
248.3002456596219
 20
46.06288223322218
 10
248.3443126596219
 20
45.66318173322219
 10
248.3485651596219
 20
45.25596173322216
 10
248.3226361596219
 20
44.84258123322221
 10
248.1600901596219
 20
43.5791087332222
 10
248.1097636596219
 20
43.1547122332222
 10
248.0774191596219
 20
42.7309667332222
 10
248.0726911596219
 20
42.30923273322219
 10
248.1143596596219
 20
41.79185573322221
 10
248.2008541596218
 20
41.27898023322217
 10
248.3200126596219
 20
40.76994473322216
 10
248.7518446596218
 20
39.25927073322217
 10
248.8800301596218
 20
38.75898773322217
 10
248.9800666596218
 20
38.25924023322216
 10
249.0397906596218
 20
37.75936673322218
 10
249.0328816596218
 20
36.95125523322218
 10
248.9139751596218
 20
36.14146523322219
 10
248.7077371596218
 20
35.33036573322221
 10
248.4388351596218
 20
34.51832873322221
 10
248.1319321596218
 20
33.70572323322219
  0
ARC
  5
E7
330
15
100
AcDbEntity
  8
4
100
AcDbCircle
 10
251.6820241596218
 20
56.70572273322222
 30
0.0
 40
1.9999995
100
AcDbArc
 50
180.0
 51
270.0
  0
LINE
  5
E8
330
15
100
AcDbEntity
  8
4
100
AcDbLine
 10
266.1820231596218
 20
54.70572323322219
 30
0.0
 11
266.1820231596218
 21
33.70572323322219
 31
0.0
  0
LINE
  5
E9
330
15
100
AcDbEntity
  8
4
100
AcDbLine
 10
255.1820236596218
 20
54.70572323322219
 30
0.0
 11
255.1820236596218
 21
33.70572323322219
 31
0.0
  0
LINE
  5
EC
330
15
100
AcDbEntity
  8
4
100
AcDbLine
 10
273.1820236596218
 20
51.70572323322219
 30
0.0
 11
273.1820236596218
 21
33.70572323322219
 31
0.0
  0
ARC
  5
F1
330
15
100
AcDbEntity
  8
4
100
AcDbCircle
 10
114.6821911596219
 20
103.7057987332222
 30
0.0
 40
100.000002
100
AcDbArc
 50
346.170649
 51
13.83034999999999
  0
ARC
  5
F2
330
15
100
AcDbEntity
  8
4
100
AcDbCircle
 10
112.6821916596218
 20
103.7057987332222
 30
0.0
 40
99.999993
100
AcDbArc
 50
347.15196
 51
12.84888399999998
  0
ARC
  5
F3
330
15
100
AcDbEntity
  8
4
100
AcDbCircle
 10
208.8699211596219
 20
80.5180697332222
 30
0.0
 40
3.0
100
AcDbArc
 50
283.8310550000002
 51
346.170496
  0
ARC
  5
F4
330
15
100
AcDbEntity
  8
4
100
AcDbCircle
 10
207.2532661596218
 20
82.13472473322219
 30
0.0
 40
3.0
100
AcDbArc
 50
282.8495910000005
 51
347.1519739999997
  0
ARC
  5
F5
330
15
100
AcDbEntity
  8
4
100
AcDbCircle
 10
207.2532826596218
 20
125.2765997332222
 30
0.0
 40
2.9999745
100
AcDbArc
 50
12.85064500000002
 51
77.15074599999964
  0
ARC
  5
F6
330
15
100
AcDbEntity
  8
4
100
AcDbCircle
 10
208.8699361596218
 20
126.8932997332222
 30
0.0
 40
3.0000195
100
AcDbArc
 50
13.82844100000011
 51
76.16985299999992
  0
ARC
  5
F7
330
15
100
AcDbEntity
  8
4
100
AcDbCircle
 10
-150.3182818403782
 20
103.7055557332222
 30
0.0
 40
399.99999
100
AcDbArc
 50
0.000035015129822
 51
8.24041300000001
  0
ARC
  5
F8
330
15
100
AcDbEntity
  8
4
100
AcDbCircle
 10
99.6817036596218
 20
103.7055557332222
 30
0.0
 40
149.9999955
100
AcDbArc
 50
342.5032019999999
 51
0.0
  0
LINE
  5
F9
330
15
100
AcDbEntity
  8
4
100
AcDbLine
 10
265.6821916596218
 20
155.7055547332221
 30
0.0
 11
299.6820241596217
 21
155.7055547332221
 31
0.0
  0
LINE
  5
FA
330
15
100
AcDbEntity
  8
4
100
AcDbLine
 10
253.6820236596218
 20
131.2055552332222
 30
0.0
 11
248.7352756596218
 21
131.2055552332222
 31
0.0
  0
LINE
  5
FB
330
15
100
AcDbEntity
  8
4
100
AcDbLine
 10
265.6821916596218
 20
155.2055552332222
 30
0.0
 11
254.6820241596218
 21
155.2055552332222
 31
0.0
  0
LINE
  5
FC
330
15
100
AcDbEntity
  8
4
100
AcDbLine
 10
254.6820241596218
 20
140.2055552332222
 30
0.0
 11
253.6820236596218
 21
140.2055552332222
 31
0.0
  0
LINE
  5
FD
330
15
100
AcDbEntity
  8
4
100
AcDbLine
 10
299.6820241596217
 20
155.7055547332221
 30
0.0
 11
300.6820231596218
 21
156.7055552332222
 31
0.0
  0
LINE
  5
FE
330
15
100
AcDbEntity
  8
4
100
AcDbLine
 10
421.1926238344132
 20
74.70549773322216
 30
0.0
 11
431.1922568344133
 21
57.43288073322219
 31
0.0
  0
LINE
  5
109
330
15
100
AcDbEntity
  8
L-CENTER
 48
0.5
100
AcDbLine
 10
431.6922563344134
 20
26.70572323322219
 30
0.0
 11
431.6922563344134
 21
61.70572323322219
 31
0.0
  0
LINE
  5
10C
330
15
100
AcDbEntity
  8
4
100
AcDbLine
 10
416.6922563344134
 20
33.70572323322219
 30
0.0
 11
416.6922563344134
 21
51.70572323322219
 31
0.0
  0
ARC
  5
10D
330
15
100
AcDbEntity
  8
4
100
AcDbCircle
 10
419.6922563344134
 20
51.70572323322219
 30
0.0
 40
3.0
100
AcDbArc
 50
90.0
 51
180.0002860014283
  0
LINE
  5
110
330
15
100
AcDbEntity
  8
4
100
AcDbLine
 10
421.1926238344132
 20
132.7056122332222
 30
0.0
 11
421.1926238344132
 21
74.70574373322219
 31
0.0
  0
LINE
  5
111
330
15
100
AcDbEntity
  8
4
100
AcDbLine
 10
416.1922568344133
 20
130.7055557332222
 30
0.0
 11
416.1922568344133
 21
76.7057987332222
 31
0.0
  0
LINE
  5
118
330
15
100
AcDbEntity
  8
4
100
AcDbLine
 10
421.1926238344132
 20
74.70574373322219
 30
0.0
 11
416.1922568344133
 21
76.7057987332222
 31
0.0
  0
LINE
  5
11A
330
15
100
AcDbEntity
  8
4
100
AcDbLine
 10
421.1926238344132
 20
132.7056122332222
 30
0.0
 11
431.1922568344133
 21
149.9782307332222
 31
0.0
  0
LINE
  5
11B
330
15
100
AcDbEntity
  8
4
100
AcDbLine
 10
421.1926238344132
 20
132.7056122332222
 30
0.0
 11
416.1922568344133
 21
130.7055557332222
 31
0.0
  0
LINE
  5
11C
330
15
100
AcDbEntity
  8
4
100
AcDbLine
 10
121.6824661596219
 20
197.2055552332222
 30
0.0
 11
249.6820231596218
 21
197.2055552332222
 31
0.0
  0
LINE
  5
11F
330
15
100
AcDbEntity
  8
L-CENTER
 48
0.5
100
AcDbLine
 10
92.28243040092163
 20
399.293316881845
 30
0.0
 11
301.1709037032817
 21
399.293316881845
 31
0.0
  0
LINE
  5
120
330
15
100
AcDbEntity
  8
4
100
AcDbLine
 10
119.685280745419
 20
432.793316881845
 30
0.0
 11
247.685280745419
 21
432.793316881845
 31
0.0
  0
LINE
  5
121
330
15
100
AcDbEntity
  8
4
100
AcDbLine
 10
119.685280745419
 20
365.7933168818452
 30
0.0
 11
247.685280745419
 21
365.7933168818451
 31
0.0
  0
LINE
  5
122
330
15
100
AcDbEntity
  8
4
100
AcDbLine
 10
193.1821921596222
 20
363.7933168818452
 30
0.0
 11
242.6821921596215
 21
363.7933168818451
 31
0.0
  0
LINE
  5
123
330
15
100
AcDbEntity
  8
4
100
AcDbLine
 10
119.685280745419
 20
433.793316881845
 30
0.0
 11
247.685280745419
 21
433.793316881845
 31
0.0
  0
LINE
  5
124
330
15
100
AcDbEntity
  8
4
100
AcDbLine
 10
119.685280745419
 20
364.7933168818452
 30
0.0
 11
192.1821921596222
 21
364.7933168818452
 31
0.0
  0
LINE
  5
125
330
15
100
AcDbEntity
  8
4
100
AcDbLine
 10
243.6821921596215
 20
364.7933168818451
 30
0.0
 11
247.685280745419
 21
364.7933168818451
 31
0.0
  0
LINE
  5
126
330
15
100
AcDbEntity
  8
2
100
AcDbLine
 10
120.685280745419
 20
438.793316881845
 30
0.0
 11
246.685280745419
 21
438.793316881845
 31
0.0
  0
LINE
  5
127
330
15
100
AcDbEntity
  8
4
100
AcDbLine
 10
120.685280745419
 20
358.7933168818452
 30
0.0
 11
246.685280745419
 21
358.7933168818453
 31
0.0
  0
LINE
  5
128
330
15
100
AcDbEntity
  8
4
100
AcDbLine
 10
154.685280745419
 20
348.7933168818452
 30
0.0
 11
212.6852807454189
 21
348.7933168818453
 31
0.0
  0
LINE
  5
129
330
15
100
AcDbEntity
  8
4
100
AcDbLine
 10
156.685280745419
 20
343.7933168818452
 30
0.0
 11
210.685280745419
 21
343.7933168818453
 31
0.0
  0
LINE
  5
12A
330
15
100
AcDbEntity
  8
2
100
AcDbLine
 10
120.685280745419
 20
439.093316881845
 30
0.0
 11
246.6852807454192
 21
439.093316881845
 31
0.0
  0
LINE
  5
12B
330
15
100
AcDbEntity
  8
4
100
AcDbLine
 10
121.685280745419
 20
447.6933168818451
 30
0.0
 11
245.6852807454192
 21
447.6933168818451
 31
0.0
  0
LINE
  5
12C
330
15
100
AcDbEntity
  8
4
100
AcDbLine
 10
160.3040828989358
 20
448.6933168818451
 30
0.0
 11
207.4352807454193
 21
448.6933168818451
 31
0.0
  0
LINE
  5
12D
330
15
100
AcDbEntity
  8
4
100
AcDbLine
 10
160.185280745419
 20
455.6933168818449
 30
0.0
 11
207.1852807454192
 21
455.6933168818451
 31
0.0
  0
LINE
  5
12E
330
15
100
AcDbEntity
  8
4
100
AcDbLine
 10
157.4060399654752
 20
454.6933168818451
 30
0.0
 11
209.964521525363
 21
454.6933168818451
 31
0.0
  0
LINE
  5
12F
330
15
100
AcDbEntity
  8
4
100
AcDbLine
 10
172.685280745419
 20
504.293316881845
 30
0.0
 11
194.685280745419
 21
504.293316881845
 31
0.0
  0
LINE
  5
130
330
15
100
AcDbEntity
  8
4
100
AcDbLine
 10
171.185280745419
 20
464.293316881845
 30
0.0
 11
196.185280745419
 21
464.293316881845
 31
0.0
  0
LINE
  5
131
330
15
100
AcDbEntity
  8
4
100
AcDbLine
 10
171.685280745419
 20
503.293316881845
 30
0.0
 11
180.185280745419
 21
503.293316881845
 31
0.0
  0
LINE
  5
132
330
15
100
AcDbEntity
  8
L-CENTER
 48
0.5
100
AcDbLine
 10
112.8609221427522
 20
163.7055557332222
 30
0.0
 11
303.3797604286358
 21
163.7055557332222
 31
0.0
  0
ARC
  5
133
330
15
100
AcDbEntity
  8
4
100
AcDbCircle
 10
185.6822221596219
 20
-232.2947352667778
 30
0.0
 40
399.9999885
100
AcDbArc
 50
81.759606
 51
98.240582
  0
LINE
  5
134
330
15
100
AcDbEntity
  8
4
100
AcDbLine
 10
96.18528074541905
 20
451.2933168818448
 30
0.0
 11
96.18528074541905
 21
347.2933168818452
 31
0.0
  0
LINE
  5
135
330
15
100
AcDbEntity
  8
4
100
AcDbLine
 10
119.685280745419
 20
364.7933168818453
 30
0.0
 11
119.685280745419
 21
433.793316881845
 31
0.0
  0
LINE
  5
136
330
15
100
AcDbEntity
  8
4
100
AcDbLine
 10
115.685280745419
 20
366.7933168818452
 30
0.0
 11
115.685280745419
 21
431.793316881845
 31
0.0
  0
LINE
  5
137
330
15
100
AcDbEntity
  8
4
100
AcDbLine
 10
114.685555245419
 20
422.7933158818449
 30
0.0
 11
114.685555245419
 21
375.7933163818451
 31
0.0
  0
LINE
  5
138
330
15
100
AcDbEntity
  8
L-CENTER
 48
0.5
100
AcDbLine
 10
148.685280745419
 20
381.1266162759517
 30
0.0
 11
148.685280745419
 21
417.4600174877384
 31
0.0
  0
LINE
  5
13A
330
15
100
AcDbEntity
  8
4
100
AcDbLine
 10
136.6821916596218
 20
198.2055557332222
 30
0.0
 11
164.6821921596218
 21
198.2055557332222
 31
0.0
  0
LINE
  5
13B
330
15
100
AcDbEntity
  8
4
100
AcDbLine
 10
139.1819776596218
 20
198.2057987332222
 30
0.0
 11
162.1819771596219
 21
198.2057987332222
 31
0.0
  0
LINE
  5
13C
330
15
100
AcDbEntity
  8
4
100
AcDbLine
 10
138.1819771596219
 20
199.7057987332222
 30
0.0
 11
163.1819776596218
 21
199.7057987332222
 31
0.0
  0
LINE
  5
13D
330
15
100
AcDbEntity
  8
4
100
AcDbLine
 10
138.1819771596219
 20
201.7057997332222
 30
0.0
 11
163.1819776596218
 21
201.7057997332222
 31
0.0
  0
LINE
  5
13E
330
15
100
AcDbEntity
  8
4
100
AcDbLine
 10
138.1819771596219
 20
205.7057987332222
 30
0.0
 11
163.1819776596218
 21
205.7057987332222
 31
0.0
  0
LINE
  5
13F
330
15
100
AcDbEntity
  8
4
100
AcDbLine
 10
117.6824671596219
 20
187.2055547332221
 30
0.0
 11
116.6824666596218
 21
187.2055547332221
 31
0.0
  0
LINE
  5
140
330
15
100
AcDbEntity
  8
4
100
AcDbLine
 10
121.6824661596219
 20
196.2055547332221
 30
0.0
 11
117.6824671596219
 21
196.2055547332221
 31
0.0
  0
LINE
  5
141
330
15
100
AcDbEntity
  8
4
100
AcDbLine
 10
138.1819771596219
 20
199.7057987332222
 30
0.0
 11
138.1819771596219
 21
205.7057987332222
 31
0.0
  0
ARC
  5
142
330
15
100
AcDbEntity
  8
4
100
AcDbCircle
 10
135.6821911596219
 20
198.2055557332222
 30
0.0
 40
1.0000005
100
AcDbArc
 50
270.0
 51
0.0
  0
LINE
  5
143
330
15
100
AcDbEntity
  8
4
100
AcDbLine
 10
136.6821916596218
 20
198.2055557332222
 30
0.0
 11
136.6821916596218
 21
198.2055557332222
 31
0.0
  0
LINE
  5
144
330
15
100
AcDbEntity
  8
4
100
AcDbLine
 10
139.1819776596218
 20
198.2057987332222
 30
0.0
 11
139.1819776596218
 21
199.7057987332222
 31
0.0
  0
LINE
  5
145
330
15
100
AcDbEntity
  8
L-CENTER
 48
0.5
100
AcDbLine
 10
150.6821911596219
 20
208.6626362332222
 30
0.0
 11
150.6821911596219
 21
194.5460507332222
 31
0.0
  0
LINE
  5
146
330
15
100
AcDbEntity
  8
4
100
AcDbLine
 10
144.4319776596218
 20
201.7057997332222
 30
0.0
 11
144.4319776596218
 21
205.7057987332222
 31
0.0
  0
LINE
  5
147
330
15
100
AcDbEntity
  8
4
100
AcDbLine
 10
156.9319771596219
 20
201.7057997332222
 30
0.0
 11
156.9319771596219
 21
205.7057987332222
 31
0.0
  0
LINE
  5
148
330
15
100
AcDbEntity
  8
4
100
AcDbLine
 10
163.1819776596218
 20
199.7057987332222
 30
0.0
 11
163.1819776596218
 21
205.7057987332222
 31
0.0
  0
ARC
  5
149
330
15
100
AcDbEntity
  8
4
100
AcDbCircle
 10
165.6821911596219
 20
198.2055557332222
 30
0.0
 40
1.0000005
100
AcDbArc
 50
180.0
 51
270.0
  0
LINE
  5
14A
330
15
100
AcDbEntity
  8
4
100
AcDbLine
 10
164.6821921596218
 20
198.2055557332222
 30
0.0
 11
164.6821921596218
 21
198.2055557332222
 31
0.0
  0
LINE
  5
14B
330
15
100
AcDbEntity
  8
4
100
AcDbLine
 10
162.1819771596219
 20
198.2057987332222
 30
0.0
 11
162.1819771596219
 21
199.7057987332222
 31
0.0
  0
LINE
  5
150
330
15
100
AcDbEntity
  8
L-CENTER
 48
0.5
100
AcDbLine
 10
97.08618753824567
 20
359.2933168818452
 30
0.0
 11
120.2843739525924
 21
359.2933168818452
 31
0.0
  0
LINE
  5
151
330
15
100
AcDbEntity
  8
4
100
AcDbLine
 10
99.18528074541905
 20
344.2933168818452
 30
0.0
 11
128.185280745419
 21
344.2933168818452
 31
0.0
  0
CIRCLE
  5
152
330
15
100
AcDbEntity
  8
4
100
AcDbCircle
 10
108.685280745419
 20
359.2933168818452
 30
0.0
 40
5.5
  0
LINE
  5
153
330
15
100
AcDbEntity
  8
L-CENTER
 48
0.5
100
AcDbLine
 10
108.685280745419
 20
370.8924100890184
 30
0.0
 11
108.685280745419
 21
347.6942236746718
 31
0.0
  0
ARC
  5
154
330
15
100
AcDbEntity
  8
4
100
AcDbCircle
 10
99.18528074541905
 20
347.2933168818452
 30
0.0
 40
3.0
100
AcDbArc
 50
180.0
 51
270.0
  0
LINE
  5
155
330
15
100
AcDbEntity
  8
4
100
AcDbLine
 10
154.685280745419
 20
348.7933168818452
 30
0.0
 11
137.4125534726918
 21
358.7933168818452
 31
0.0
  0
LINE
  5
156
330
15
100
AcDbEntity
  8
4
100
AcDbLine
 10
131.185280745419
 20
347.2933168818452
 30
0.0
 11
131.185280745419
 21
358.7933168818452
 31
0.0
  0
ARC
  5
157
330
15
100
AcDbEntity
  8
4
100
AcDbCircle
 10
128.185280745419
 20
347.2933168818452
 30
0.0
 40
3.0
100
AcDbArc
 50
270.0
 51
0.0
  0
LINE
  5
158
330
15
100
AcDbEntity
  8
4
100
AcDbLine
 10
115.685280745419
 20
366.7933168818452
 30
0.0
 11
119.685280745419
 21
366.7933168818451
 31
0.0
  0
LINE
  5
159
330
15
100
AcDbEntity
  8
4
100
AcDbLine
 10
120.685280745419
 20
358.7933168818452
 30
0.0
 11
120.685280745419
 21
364.7933168818453
 31
0.0
  0
LINE
  5
15A
330
15
100
AcDbEntity
  8
4
100
AcDbLine
 10
114.685555245419
 20
375.7933163818451
 30
0.0
 11
115.685555745419
 21
375.7933163818451
 31
0.0
  0
LINE
  5
15B
330
15
100
AcDbEntity
  8
4
100
AcDbLine
 10
159.43528074542
 20
348.7933168818453
 30
0.0
 11
159.43528074542
 21
358.7933168818452
 31
0.0
  0
LINE
  5
15C
330
15
100
AcDbEntity
  8
4
100
AcDbLine
 10
154.685280745419
 20
348.7933168818452
 30
0.0
 11
156.685280745419
 21
343.7933168818452
 31
0.0
  0
LINE
  5
15D
330
15
100
AcDbEntity
  8
4
100
AcDbLine
 10
171.685280745419
 20
464.793316881845
 30
0.0
 11
171.685280745419
 21
503.293316881845
 31
0.0
  0
LINE
  5
15E
330
15
100
AcDbEntity
  8
L-CENTER
 48
0.5
100
AcDbLine
 10
97.08618753824567
 20
439.2933168818448
 30
0.0
 11
120.2843739525924
 21
439.2933168818448
 31
0.0
  0
LINE
  5
15F
330
15
100
AcDbEntity
  8
4
100
AcDbLine
 10
99.18528074541905
 20
454.2933168818448
 30
0.0
 11
128.185280745419
 21
454.2933168818448
 31
0.0
  0
CIRCLE
  5
160
330
15
100
AcDbEntity
  8
4
100
AcDbCircle
 10
108.685280745419
 20
439.2933168818448
 30
0.0
 40
5.5
  0
LWPOLYLINE
  5
161
330
15
100
AcDbEntity
  8
4
100
AcDbPolyline
 90
        2
 70
     0
 43
0.0
 10
113.1855557454192
 20
410.1186344291506
 10
108.1855557454192
 20
410.1186344291506
  0
LWPOLYLINE
  5
162
330
15
100
AcDbEntity
  8
4
100
AcDbPolyline
 90
        2
 70
     0
 43
0.0
 10
108.1855557454192
 20
388.4679993345395
 10
113.1855557454192
 20
388.4679993345395
  0
LINE
  5
163
330
15
100
AcDbEntity
  8
L-CENTER
 48
0.5
100
AcDbLine
 10
108.685280745419
 20
450.8924100890182
 30
0.0
 11
108.685280745419
 21
427.6942236746714
 31
0.0
  0
ARC
  5
165
330
15
100
AcDbEntity
  8
4
100
AcDbCircle
 10
99.18528074541905
 20
451.2933168818448
 30
0.0
 40
3.0
100
AcDbArc
 50
90.0
 51
180.0
  0
LINE
  5
166
330
15
100
AcDbEntity
  8
4
100
AcDbLine
 10
120.685280745419
 20
433.793316881845
 30
0.0
 11
120.685280745419
 21
446.6933168818451
 31
0.0
  0
LINE
  5
167
330
15
100
AcDbEntity
  8
L-CENTER
 48
0.5
100
AcDbLine
 10
127.6852807454188
 20
455.4143678262427
 30
0.0
 11
127.6852807454188
 21
433.2937262355484
 31
0.0
  0
LINE
  5
168
330
15
100
AcDbEntity
  8
L-CENTER
 48
0.5
100
AcDbLine
 10
155.6852807454188
 20
455.4143678262427
 30
0.0
 11
155.6852807454188
 21
433.2937262355484
 31
0.0
  0
CIRCLE
  5
169
330
15
100
AcDbEntity
  8
4
100
AcDbCircle
 10
148.685280745419
 20
399.293316881845
 30
0.0
 40
14.0
  0
CIRCLE
  5
16A
330
15
100
AcDbEntity
  8
4
100
AcDbCircle
 10
148.685280745419
 20
399.293316881845
 30
0.0
 40
12.5
  0
LWPOLYLINE
  5
16B
330
15
100
AcDbEntity
  8
4
100
AcDbPolyline
 90
        6
 70
     1
 43
0.0
 10
136.185280745419
 20
399.293316881845
 10
142.435280745419
 20
388.4679993345395
 10
154.935280745419
 20
388.4679993345395
 10
161.185280745419
 20
399.293316881845
 10
154.935280745419
 20
410.1186344291506
 10
142.435280745419
 20
410.1186344291506
  0
LINE
  5
16D
330
15
100
AcDbEntity
  8
4
100
AcDbLine
 10
113.1855557454192
 20
386.793316881845
 30
0.0
 11
114.685555245419
 21
386.793316881845
 31
0.0
  0
LINE
  5
16E
330
15
100
AcDbEntity
  8
4
100
AcDbLine
 10
113.1855557454193
 20
411.793316881845
 30
0.0
 11
114.685555245419
 21
411.793316881845
 31
0.0
  0
LINE
  5
16F
330
15
100
AcDbEntity
  8
4
100
AcDbLine
 10
115.685280745419
 20
431.793316881845
 30
0.0
 11
119.685280745419
 21
431.793316881845
 31
0.0
  0
LINE
  5
170
330
15
100
AcDbEntity
  8
4
100
AcDbLine
 10
115.685555745419
 20
422.7933158818449
 30
0.0
 11
114.685555245419
 21
422.7933158818449
 31
0.0
  0
LINE
  5
171
330
15
100
AcDbEntity
  8
4
100
AcDbLine
 10
134.185280745419
 20
448.6933168818451
 30
0.0
 11
151.4352807454188
 21
448.6933168818451
 31
0.0
  0
LINE
  5
172
330
15
100
AcDbEntity
  8
4
100
AcDbLine
 10
131.9352807454188
 20
448.9933168818451
 30
0.0
 11
123.4352807454188
 21
448.9933168818451
 31
0.0
  0
LINE
  5
173
330
15
100
AcDbEntity
  8
4
100
AcDbLine
 10
131.9352807454188
 20
453.9933168818451
 30
0.0
 11
123.4352807454188
 21
453.9933168818451
 31
0.0
  0
LINE
  5
174
330
15
100
AcDbEntity
  8
4
100
AcDbLine
 10
123.4352807454188
 20
453.9933168818451
 30
0.0
 11
123.4352807454188
 21
447.6933168818451
 31
0.0
  0
ARC
  5
175
330
15
100
AcDbEntity
  8
4
100
AcDbCircle
 10
121.685280745419
 20
446.6933168818451
 30
0.0
 40
1.0
100
AcDbArc
 50
90.0
 51
180.0
  0
LINE
  5
176
330
15
100
AcDbEntity
  8
4
100
AcDbLine
 10
131.9352807454188
 20
453.9933168818451
 30
0.0
 11
131.9352807454188
 21
447.6933168818451
 31
0.0
  0
LINE
  5
177
330
15
100
AcDbEntity
  8
4
100
AcDbLine
 10
134.185280745419
 20
447.6933168818451
 30
0.0
 11
134.185280745419
 21
448.6933168818451
 31
0.0
  0
ARC
  5
178
330
15
100
AcDbEntity
  8
4
100
AcDbCircle
 10
128.185280745419
 20
451.2933168818448
 30
0.0
 40
3.0
100
AcDbArc
 50
64.15806723684081
 51
90.0
  0
LINE
  5
179
330
15
100
AcDbEntity
  8
4
100
AcDbLine
 10
171.185280745419
 20
455.6933168818449
 30
0.0
 11
171.185280745419
 21
464.293316881845
 31
0.0
  0
LINE
  5
17A
330
15
100
AcDbEntity
  8
4
100
AcDbLine
 10
159.9352807454188
 20
448.9933168818451
 30
0.0
 11
151.4352807454188
 21
448.9933168818451
 31
0.0
  0
LINE
  5
17B
330
15
100
AcDbEntity
  8
4
100
AcDbLine
 10
159.9352807454188
 20
453.9933168818451
 30
0.0
 11
151.4352807454188
 21
453.9933168818451
 31
0.0
  0
ARC
  5
17C
330
15
100
AcDbEntity
  8
4
100
AcDbCircle
 10
157.4060399654752
 20
453.6933168818451
 30
0.0
 40
1.0
100
AcDbArc
 50
90.0
 51
161.5650511770857
  0
LINE
  5
17D
330
15
100
AcDbEntity
  8
4
100
AcDbLine
 10
151.4352807454188
 20
453.9933168818451
 30
0.0
 11
151.4352807454188
 21
447.6933168818451
 31
0.0
  0
LINE
  5
17E
330
15
100
AcDbEntity
  8
4
100
AcDbLine
 10
144.4614404001335
 20
447.6933168818449
 30
0.0
 11
151.4352807454188
 21
448.3719595440469
 31
0.0
  0
LINE
  5
17F
330
15
100
AcDbEntity
  8
4
100
AcDbLine
 10
156.4573566674246
 20
454.0095446478618
 30
0.0
 11
156.4519474120857
 21
453.9933168818451
 31
0.0
  0
LINE
  5
180
330
15
100
AcDbEntity
  8
4
100
AcDbLine
 10
159.9352807454188
 20
453.9933168818451
 30
0.0
 11
159.9352807454188
 21
447.6933168818451
 31
0.0
  0
LINE
  5
181
330
15
100
AcDbEntity
  8
4
100
AcDbLine
 10
160.185280745419
 20
455.6933168818449
 30
0.0
 11
160.185280745419
 21
454.6933168818454
 31
0.0
  0
LINE
  5
182
330
15
100
AcDbEntity
  8
4
100
AcDbLine
 10
171.185280745419
 20
464.293316881845
 30
0.0
 11
171.185280745419
 21
464.293316881845
 31
0.0
  0
ARC
  5
183
330
15
100
AcDbEntity
  8
4
100
AcDbCircle
 10
171.185280745419
 20
464.793316881845
 30
0.0
 40
0.5
100
AcDbArc
 50
270.0
 51
0.0
  0
LINE
  5
184
330
15
100
AcDbEntity
  8
4
100
AcDbLine
 10
171.685280745419
 20
503.293316881845
 30
0.0
 11
172.685280745419
 21
504.293316881845
 31
0.0
  0
LINE
  5
185
330
15
100
AcDbEntity
  8
L-CENTER
 48
0.5
100
AcDbLine
 10
183.685280745419
 20
290.065587452934
 30
0.0
 11
183.685280745419
 21
508.5210463107561
 31
0.0
  0
LINE
  5
186
330
15
100
AcDbEntity
  8
4
100
AcDbLine
 10
247.685280745419
 20
364.7933168818452
 30
0.0
 11
247.685280745419
 21
433.793316881845
 31
0.0
  0
LINE
  5
187
330
15
100
AcDbEntity
  8
4
100
AcDbLine
 10
251.685280745419
 20
366.7933168818451
 30
0.0
 11
251.685280745419
 21
431.7933168818453
 31
0.0
  0
LINE
  5
188
330
15
100
AcDbEntity
  8
4
100
AcDbLine
 10
252.685112745419
 20
422.7933158818449
 30
0.0
 11
252.685112745419
 21
375.7933163818451
 31
0.0
  0
LINE
  5
189
330
15
100
AcDbEntity
  8
4
100
AcDbLine
 10
271.185280745419
 20
391.2933158818449
 30
0.0
 11
271.1852807454188
 21
347.2933168818452
 31
0.0
  0
LINE
  5
192
330
15
100
AcDbEntity
  8
4
100
AcDbLine
 10
268.6821916596218
 20
173.7055547332221
 30
0.0
 11
300.6820231596218
 21
173.7055547332221
 31
0.0
  0
LINE
  5
193
330
15
100
AcDbEntity
  8
4
100
AcDbLine
 10
265.6821916596218
 20
171.7055552332222
 30
0.0
 11
299.6820241596217
 21
171.7055552332222
 31
0.0
  0
LINE
  5
196
330
15
100
AcDbEntity
  8
4
100
AcDbLine
 10
254.6820241596218
 20
172.2055547332221
 30
0.0
 11
265.6821916596218
 21
172.2055547332221
 31
0.0
  0
LINE
  5
197
330
15
100
AcDbEntity
  8
4
100
AcDbLine
 10
253.6820236596218
 20
187.2055547332221
 30
0.0
 11
254.6820241596218
 21
187.2055547332221
 31
0.0
  0
LINE
  5
198
330
15
100
AcDbEntity
  8
4
100
AcDbLine
 10
268.6821916596218
 20
173.7055547332221
 30
0.0
 11
268.6821916596218
 21
171.7055552332222
 31
0.0
  0
LINE
  5
199
330
15
100
AcDbEntity
  8
4
100
AcDbLine
 10
249.6820231596218
 20
196.2055547332221
 30
0.0
 11
253.6820236596218
 21
196.2055547332221
 31
0.0
  0
LINE
  5
19C
330
15
100
AcDbEntity
  8
4
100
AcDbLine
 10
300.6820231596218
 20
170.7055547332221
 30
0.0
 11
299.6820241596217
 21
171.7055552332222
 31
0.0
  0
ARC
  5
1A2
330
15
100
AcDbEntity
  8
4
100
AcDbCircle
 10
239.1852807454188
 20
347.2933168818454
 30
0.0
 40
3.0
100
AcDbArc
 50
180.0
 51
270.0
  0
LINE
  5
1A3
330
15
100
AcDbEntity
  8
4
100
AcDbLine
 10
236.1852807454188
 20
347.2933168818454
 30
0.0
 11
236.1852807454188
 21
358.7933168818453
 31
0.0
  0
LINE
  5
1A4
330
15
100
AcDbEntity
  8
4
100
AcDbLine
 10
212.685280745419
 20
348.7933168818453
 30
0.0
 11
229.9580080181462
 21
358.7933168818453
 31
0.0
  0
LINE
  5
1A5
330
15
100
AcDbEntity
  8
4
100
AcDbLine
 10
207.9352807454184
 20
348.7933168818454
 30
0.0
 11
207.9352807454184
 21
358.7933168818453
 31
0.0
  0
LINE
  5
1A6
330
15
100
AcDbEntity
  8
4
100
AcDbLine
 10
212.685280745419
 20
348.7933168818452
 30
0.0
 11
210.685280745419
 21
343.7933168818452
 31
0.0
  0
LINE
  5
1A7
330
15
100
AcDbEntity
  8
L-CENTER
 48
0.5
100
AcDbLine
 10
247.0861875382457
 20
359.2933168818452
 30
0.0
 11
270.2843739525924
 21
359.2933168818452
 31
0.0
  0
ARC
  5
1A8
330
15
100
AcDbEntity
  8
4
100
AcDbCircle
 10
268.1852807454188
 20
347.2933168818452
 30
0.0
 40
3.0
100
AcDbArc
 50
270.0
 51
0.0
  0
CIRCLE
  5
1A9
330
15
100
AcDbEntity
  8
4
100
AcDbCircle
 10
258.685280745419
 20
359.2933168818452
 30
0.0
 40
5.5
  0
LINE
  5
1AA
330
15
100
AcDbEntity
  8
L-CENTER
 48
0.5
100
AcDbLine
 10
258.685280745419
 20
370.8924100890184
 30
0.0
 11
258.685280745419
 21
347.6942236746718
 31
0.0
  0
LINE
  5
1AB
330
15
100
AcDbEntity
  8
4
100
AcDbLine
 10
239.1852807454188
 20
344.2933168818454
 30
0.0
 11
268.1852807454188
 21
344.2933168818452
 31
0.0
  0
LINE
  5
1AC
330
15
100
AcDbEntity
  8
4
100
AcDbLine
 10
247.685280745419
 20
366.7933168818451
 30
0.0
 11
251.685280745419
 21
366.7933168818451
 31
0.0
  0
LINE
  5
1AD
330
15
100
AcDbEntity
  8
4
100
AcDbLine
 10
246.685280745419
 20
358.7933168818453
 30
0.0
 11
246.685280745419
 21
364.7933168818452
 31
0.0
  0
LINE
  5
1AE
330
15
100
AcDbEntity
  8
4
100
AcDbLine
 10
252.685112745419
 20
375.7933163818451
 30
0.0
 11
251.685112245419
 21
375.7933163818451
 31
0.0
  0
ARC
  5
1BA
330
15
100
AcDbEntity
  8
4
100
AcDbCircle
 10
432.1922573344133
 20
165.7055552332222
 30
0.0
 40
1.0000005
100
AcDbArc
 50
90.0
 51
180.0
  0
LINE
  5
1BB
330
15
100
AcDbEntity
  8
4
100
AcDbLine
 10
437.1922568344133
 20
166.7055557332222
 30
0.0
 11
432.1922573344133
 21
166.7055557332222
 31
0.0
  0
LINE
  5
1BF
330
15
100
AcDbEntity
  8
4
100
AcDbLine
 10
187.185280745419
 20
470.793316881845
 30
0.0
 11
187.185280745419
 21
504.293316881845
 31
0.0
  0
LINE
  5
1C0
330
15
100
AcDbEntity
  8
4
100
AcDbLine
 10
195.685280745419
 20
464.793316881845
 30
0.0
 11
195.685280745419
 21
503.293316881845
 31
0.0
  0
LINE
  5
1C1
330
15
100
AcDbEntity
  8
4
100
AcDbLine
 10
180.185280745419
 20
470.793316881845
 30
0.0
 11
180.185280745419
 21
504.293316881845
 31
0.0
  0
LINE
  5
1C2
330
15
100
AcDbEntity
  8
4
100
AcDbLine
 10
235.4352807454193
 20
448.9933168818451
 30
0.0
 11
243.9352807454193
 21
448.9933168818451
 31
0.0
  0
LINE
  5
1C3
330
15
100
AcDbEntity
  8
4
100
AcDbLine
 10
235.4352807454193
 20
453.9933168818451
 30
0.0
 11
243.9352807454193
 21
453.9933168818451
 31
0.0
  0
LINE
  5
1C4
330
15
100
AcDbEntity
  8
L-CENTER
 48
0.5
100
AcDbLine
 10
211.6852807454193
 20
455.4143678262427
 30
0.0
 11
211.6852807454193
 21
433.2937262355484
 31
0.0
  0
LINE
  5
1C5
330
15
100
AcDbEntity
  8
4
100
AcDbLine
 10
196.185280745419
 20
455.6933168818449
 30
0.0
 11
196.185280745419
 21
464.293316881845
 31
0.0
  0
ARC
  5
1C6
330
15
100
AcDbEntity
  8
4
100
AcDbCircle
 10
183.685280745419
 20
470.793316881845
 30
0.0
 40
3.5
100
AcDbArc
 50
180.0
 51
0.0
  0
ARC
  5
1C7
330
15
100
AcDbEntity
  8
4
100
AcDbCircle
 10
196.185280745419
 20
464.793316881845
 30
0.0
 40
0.5
100
AcDbArc
 50
180.0
 51
270.0
  0
LINE
  5
1C8
330
15
100
AcDbEntity
  8
4
100
AcDbLine
 10
222.9091210907053
 20
447.6933168818449
 30
0.0
 11
215.9352807454193
 21
448.3719595440467
 31
0.0
  0
LINE
  5
1C9
330
15
100
AcDbEntity
  8
4
100
AcDbLine
 10
207.4352807454193
 20
453.9933168818451
 30
0.0
 11
207.4352807454193
 21
447.6933168818451
 31
0.0
  0
LINE
  5
1CA
330
15
100
AcDbEntity
  8
4
100
AcDbLine
 10
215.9352807454193
 20
453.9933168818451
 30
0.0
 11
215.9352807454193
 21
447.6933168818451
 31
0.0
  0
LINE
  5
1CB
330
15
100
AcDbEntity
  8
4
100
AcDbLine
 10
207.4352807454193
 20
453.9933168818451
 30
0.0
 11
215.9352807454193
 21
453.9933168818451
 31
0.0
  0
LINE
  5
1CC
330
15
100
AcDbEntity
  8
4
100
AcDbLine
 10
207.4352807454193
 20
448.9933168818451
 30
0.0
 11
215.9352807454193
 21
448.9933168818451
 31
0.0
  0
LINE
  5
1CD
330
15
100
AcDbEntity
  8
4
100
AcDbLine
 10
210.9132048234135
 20
454.0095446478618
 30
0.0
 11
210.9186140787524
 21
453.9933168818451
 31
0.0
  0
LINE
  5
1CE
330
15
100
AcDbEntity
  8
4
100
AcDbLine
 10
207.1852807454192
 20
455.6933168818451
 30
0.0
 11
207.1852807454192
 21
454.6933168818451
 31
0.0
  0
ARC
  5
1CF
330
15
100
AcDbEntity
  8
4
100
AcDbCircle
 10
209.964521525363
 20
453.6933168818451
 30
0.0
 40
1.0
100
AcDbArc
 50
18.43494882291427
 51
90.0
  0
LINE
  5
1D0
330
15
100
AcDbEntity
  8
4
100
AcDbLine
 10
210.9132048234136
 20
454.0095446478618
 30
0.0
 11
210.9186140787525
 21
453.9933168818451
 31
0.0
  0
LINE
  5
1D1
330
15
100
AcDbEntity
  8
4
100
AcDbLine
 10
235.4352807454193
 20
453.9933168818451
 30
0.0
 11
235.4352807454193
 21
447.6933168818451
 31
0.0
  0
LINE
  5
1D2
330
15
100
AcDbEntity
  8
L-CENTER
 48
0.5
100
AcDbLine
 10
239.6852807454193
 20
455.4143678262427
 30
0.0
 11
239.6852807454193
 21
433.2937262355484
 31
0.0
  0
LINE
  5
1D3
330
15
100
AcDbEntity
  8
4
100
AcDbLine
 10
271.185280745419
 20
451.2933168818448
 30
0.0
 11
271.185280745419
 21
407.2933163818451
 31
0.0
  0
CIRCLE
  5
1D4
330
15
100
AcDbEntity
  8
4
100
AcDbCircle
 10
258.685280745419
 20
439.2933168818448
 30
0.0
 40
5.5
  0
LINE
  5
1D5
330
15
100
AcDbEntity
  8
L-CENTER
 48
0.5
100
AcDbLine
 10
258.685280745419
 20
450.8924100890182
 30
0.0
 11
258.685280745419
 21
427.6942236746714
 31
0.0
  0
LINE
  5
1D6
330
15
100
AcDbEntity
  8
4
100
AcDbLine
 10
246.685280745419
 20
433.793316881845
 30
0.0
 11
246.6852807454189
 21
446.6933168818451
 31
0.0
  0
LINE
  5
1D7
330
15
100
AcDbEntity
  8
4
100
AcDbLine
 10
263.685280245419
 20
407.2933163818451
 30
0.0
 11
297.685112745419
 21
407.2933163818451
 31
0.0
  0
LINE
  5
1D8
330
15
100
AcDbEntity
  8
4
100
AcDbLine
 10
263.685280245419
 20
391.2933158818449
 30
0.0
 11
297.685112745419
 21
391.2933158818449
 31
0.0
  0
ARC
  5
1D9
330
15
100
AcDbEntity
  8
4
100
AcDbCircle
 10
269.185280245419
 20
399.293316881845
 30
0.0
 40
2.5
100
AcDbArc
 50
90.0
 51
270.0
  0
LINE
  5
1DA
330
15
100
AcDbEntity
  8
4
100
AcDbLine
 10
252.685112745419
 20
407.7933158818449
 30
0.0
 11
263.685280245419
 21
407.7933158818449
 31
0.0
  0
LINE
  5
1DB
330
15
100
AcDbEntity
  8
4
100
AcDbLine
 10
263.685280245419
 20
390.7933163818451
 30
0.0
 11
252.685112745419
 21
390.7933163818451
 31
0.0
  0
LINE
  5
1DC
330
15
100
AcDbEntity
  8
4
100
AcDbLine
 10
263.685280245419
 20
407.7933158818449
 30
0.0
 11
263.685280245419
 21
390.7933163818451
 31
0.0
  0
LINE
  5
1DD
330
15
100
AcDbEntity
  8
4
100
AcDbLine
 10
247.685280745419
 20
431.793316881845
 30
0.0
 11
251.685280745419
 21
431.7933168818453
 31
0.0
  0
LINE
  5
1DE
330
15
100
AcDbEntity
  8
4
100
AcDbLine
 10
251.685112245419
 20
422.7933158818449
 30
0.0
 11
252.685112745419
 21
422.7933158818449
 31
0.0
  0
LINE
  5
1DF
330
15
100
AcDbEntity
  8
4
100
AcDbLine
 10
269.185280245419
 20
401.7933168818453
 30
0.0
 11
298.6851117454191
 21
401.7933168818453
 31
0.0
  0
LINE
  5
1E0
330
15
100
AcDbEntity
  8
4
100
AcDbLine
 10
269.185280245419
 20
396.7933168818453
 30
0.0
 11
298.6851117454191
 21
396.7933168818453
 31
0.0
  0
LINE
  5
1E1
330
15
100
AcDbEntity
  8
4
100
AcDbLine
 10
297.685112745419
 20
396.793316881845
 30
0.0
 11
297.685112745419
 21
391.2933158818449
 31
0.0
  0
LINE
  5
1E2
330
15
100
AcDbEntity
  8
4
100
AcDbLine
 10
298.6851117454189
 20
406.2933158818449
 30
0.0
 11
298.6851117454191
 21
392.2933163818451
 31
0.0
  0
LINE
  5
1E3
330
15
100
AcDbEntity
  8
4
100
AcDbLine
 10
297.685112745419
 20
391.2933158818449
 30
0.0
 11
298.6851117454191
 21
392.2933163818451
 31
0.0
  0
LINE
  5
1E4
330
15
100
AcDbEntity
  8
4
100
AcDbLine
 10
297.685112745419
 20
407.2933163818451
 30
0.0
 11
297.685112745419
 21
401.793316881845
 31
0.0
  0
LINE
  5
1E5
330
15
100
AcDbEntity
  8
4
100
AcDbLine
 10
298.6851117454191
 20
406.2933158818449
 30
0.0
 11
297.685112745419
 21
407.2933163818451
 31
0.0
  0
LINE
  5
1E6
330
15
100
AcDbEntity
  8
L-CENTER
 48
0.5
100
AcDbLine
 10
247.0861875382457
 20
439.2933168818448
 30
0.0
 11
270.2843739525924
 21
439.2933168818448
 31
0.0
  0
ARC
  5
1E7
330
15
100
AcDbEntity
  8
4
100
AcDbCircle
 10
268.185280745419
 20
451.2933168818448
 30
0.0
 40
3.0
100
AcDbArc
 50
0.0
 51
90.0
  0
LINE
  5
1E8
330
15
100
AcDbEntity
  8
4
100
AcDbLine
 10
239.1852807454188
 20
454.2933168818448
 30
0.0
 11
268.185280745419
 21
454.2933168818448
 31
0.0
  0
LINE
  5
1E9
330
15
100
AcDbEntity
  8
4
100
AcDbLine
 10
243.9352807454193
 20
453.9933168818451
 30
0.0
 11
243.9352807454193
 21
447.6933168818451
 31
0.0
  0
ARC
  5
1EA
330
15
100
AcDbEntity
  8
4
100
AcDbCircle
 10
245.685280745419
 20
446.6933168818451
 30
0.0
 40
1.0
100
AcDbArc
 50
0.0
 51
90.0
  0
ARC
  5
1EB
330
15
100
AcDbEntity
  8
4
100
AcDbCircle
 10
239.1852807454188
 20
451.2933168818448
 30
0.0
 40
3.0
100
AcDbArc
 50
90.0
 51
115.8419327631544
  0
LINE
  5
1EC
330
15
100
AcDbEntity
  8
4
100
AcDbLine
 10
187.185280745419
 20
503.293316881845
 30
0.0
 11
195.685280745419
 21
503.293316881845
 31
0.0
  0
LINE
  5
1ED
330
15
100
AcDbEntity
  8
4
100
AcDbLine
 10
195.685280745419
 20
503.293316881845
 30
0.0
 11
194.685280745419
 21
504.293316881845
 31
0.0
  0
LINE
  5
1EE
330
15
100
AcDbEntity
  8
4
100
AcDbLine
 10
505.1922563344134
 20
163.7055557332222
 30
0.0
 11
505.1922563344134
 21
61.70572373322216
 31
0.0
  0
LINE
  5
1EF
330
15
100
AcDbEntity
  8
4
100
AcDbLine
 10
438.1922573344133
 20
163.7055557332222
 30
0.0
 11
438.1922573344133
 21
61.70572373322216
 31
0.0
  0
LINE
  5
1F0
330
15
100
AcDbEntity
  8
4
100
AcDbLine
 10
506.1922568344133
 20
58.1001722332222
 30
0.0
 11
506.1922568344133
 21
167.7055547332221
 31
0.0
  0
LINE
  5
1F1
330
15
100
AcDbEntity
  8
4
100
AcDbLine
 10
511.1922563344134
 20
54.70572323322219
 30
0.0
 11
511.1922563344134
 21
166.7055557332222
 31
0.0
  0
LINE
  5
1F2
330
15
100
AcDbEntity
  8
L-CENTER
 48
0.5
100
AcDbLine
 10
471.6922568344133
 20
209.7728852332222
 30
0.0
 11
471.6922568344133
 21
29.9330567332222
 31
0.0
  0
LINE
  5
1F3
330
15
100
AcDbEntity
  8
4
100
AcDbLine
 10
520.0921598344133
 20
54.70572323322219
 30
0.0
 11
520.0921598344133
 21
165.7055552332222
 31
0.0
  0
CIRCLE
  5
1F4
330
15
100
AcDbEntity
  8
4
100
AcDbCircle
 10
471.6922568344133
 20
163.7055557332222
 30
0.0
 40
32.5000005
  0
CIRCLE
  5
1F5
330
15
100
AcDbEntity
  8
4
100
AcDbCircle
 10
471.6922568344133
 20
163.7055557332222
 30
0.0
 40
23.5000005
  0
ARC
  5
1F6
330
15
100
AcDbEntity
  8
4
100
AcDbCircle
 10
471.6922568344133
 20
163.7055557332222
 30
0.0
 40
8.000022
100
AcDbArc
 50
108.209906
 51
71.790094
  0
LINE
  5
1F8
330
15
100
AcDbEntity
  8
4
100
AcDbLine
 10
536.6922563344134
 20
91.70555573322218
 30
0.0
 11
575.6922563344134
 21
91.70555573322218
 31
0.0
  0
LINE
  5
1F9
330
15
100
AcDbEntity
  8
4
100
AcDbLine
 10
536.6922563344134
 20
115.7055557332222
 30
0.0
 11
575.6922563344134
 21
115.7055557332222
 31
0.0
  0
LINE
  5
1FA
330
15
100
AcDbEntity
  8
4
100
AcDbLine
 10
576.6922568344133
 20
118.7055557332222
 30
0.0
 11
539.6922563344134
 21
118.7055557332222
 31
0.0
  0
LINE
  5
1FC
330
15
100
AcDbEntity
  8
4
100
AcDbLine
 10
521.3921598344133
 20
54.70572323322222
 30
0.0
 11
521.3921598344133
 21
59.45813312129238
 31
0.0
  0
LINE
  5
1FD
330
15
100
AcDbEntity
  8
4
100
AcDbLine
 10
526.3921598344133
 20
53.01359420946315
 30
0.0
 11
526.3921598344133
 21
59.45813312129238
 31
0.0
  0
LINE
  5
1FE
330
15
100
AcDbEntity
  8
L-CENTER
 48
0.5
100
AcDbLine
 10
511.6922573344133
 20
26.70572323322219
 30
0.0
 11
511.6922573344133
 21
61.70572323322219
 31
0.0
  0
ARC
  5
1FF
330
15
100
AcDbEntity
  8
4
100
AcDbCircle
 10
512.1922568344133
 20
61.70572373322216
 30
0.0
 40
7.000000499999999
100
AcDbArc
 50
180.0
 51
270.0
  0
LINE
  5
206
330
15
100
AcDbEntity
  8
L-CENTER
 48
0.5
100
AcDbLine
 10
528.2605310744651
 20
55.20813312129204
 30
0.0
 11
505.6925691881148
 21
55.20813312129297
 31
0.0
  0
LINE
  5
207
330
15
100
AcDbEntity
  8
4
100
AcDbLine
 10
526.6922573344133
 20
33.70572323322219
 30
0.0
 11
526.6922573344133
 21
51.70572323322219
 31
0.0
  0
ARC
  5
208
330
15
100
AcDbEntity
  8
4
100
AcDbCircle
 10
523.6922573344133
 20
51.70572323322219
 30
0.0
 40
3.0
100
AcDbArc
 50
0.0
 51
90.0
  0
LINE
  5
209
330
15
100
AcDbEntity
  8
2
100
AcDbLine
 10
520.0921598344133
 20
55.20813312129238
 30
0.0
 11
521.3921598344133
 21
56.50813312129239
 31
0.0
  0
LINE
  5
20A
330
15
100
AcDbEntity
  8
4
100
AcDbLine
 10
521.2922573344134
 20
132.7055552332222
 30
0.0
 11
521.2922573344134
 21
107.9555557332222
 31
0.0
  0
LINE
  5
20B
330
15
100
AcDbEntity
  8
4
100
AcDbLine
 10
527.0922563344133
 20
130.7055557332222
 30
0.0
 11
527.0922563344133
 21
76.7057987332222
 31
0.0
  0
LINE
  5
20C
330
15
100
AcDbEntity
  8
4
100
AcDbLine
 10
536.6922563344134
 20
116.2055552332222
 30
0.0
 11
536.6922563344134
 21
91.20555473322219
 31
0.0
  0
LINE
  5
20D
330
15
100
AcDbEntity
  8
4
100
AcDbLine
 10
528.0922568344134
 20
127.2055547332221
 30
0.0
 11
528.0922568344134
 21
80.20555523322219
 31
0.0
  0
LINE
  5
20E
330
15
100
AcDbEntity
  8
4
100
AcDbLine
 10
528.0922568344134
 20
91.20555473322219
 30
0.0
 11
536.6922563344134
 21
91.20555473322219
 31
0.0
  0
LINE
  5
20F
330
15
100
AcDbEntity
  8
4
100
AcDbLine
 10
521.2922573344134
 20
99.45555573322218
 30
0.0
 11
521.2922573344134
 21
74.70555473322219
 31
0.0
  0
LINE
  5
210
330
15
100
AcDbEntity
  8
4
100
AcDbLine
 10
521.2922573344134
 20
74.70555473322219
 30
0.0
 11
520.0921598344133
 21
66.25069973322218
 31
0.0
  0
LINE
  5
211
330
15
100
AcDbEntity
  8
4
100
AcDbLine
 10
526.3921598344133
 20
59.45813312129238
 30
0.0
 11
520.0921598344133
 21
59.45813312129238
 31
0.0
  0
LINE
  5
212
330
15
100
AcDbEntity
  8
4
100
AcDbLine
 10
527.0922563344133
 20
76.70555573322218
 30
0.0
 11
521.2922573344134
 21
74.70555473322219
 31
0.0
  0
LINE
  5
213
330
15
100
AcDbEntity
  8
4
100
AcDbLine
 10
528.0922568344134
 20
80.20555523322219
 30
0.0
 11
527.0922563344133
 21
80.20555523322219
 31
0.0
  0
LINE
  5
214
330
15
100
AcDbEntity
  8
4
100
AcDbLine
 10
526.3921598344133
 20
107.9555557332222
 30
0.0
 11
520.0921598344133
 21
107.9555557332222
 31
0.0
  0
LINE
  5
215
330
15
100
AcDbEntity
  8
4
100
AcDbLine
 10
526.3921598344133
 20
99.45555573322218
 30
0.0
 11
520.0921598344133
 21
99.45555573322218
 31
0.0
  0
LINE
  5
216
330
15
100
AcDbEntity
  8
2
100
AcDbLine
 10
520.0921598344133
 20
103.7055557332222
 30
0.0
 11
521.3921598344133
 21
105.0055557332222
 31
0.0
  0
LINE
  5
217
330
15
100
AcDbEntity
  8
2
100
AcDbLine
 10
520.0921598344133
 20
101.8670781021372
 30
0.0
 11
521.3921598344133
 21
103.1670781021372
 31
0.0
  0
LINE
  5
218
330
15
100
AcDbEntity
  8
4
100
AcDbLine
 10
521.3921598344133
 20
99.45555573322218
 30
0.0
 11
521.3921598344133
 21
107.9555557332222
 31
0.0
  0
LINE
  5
219
330
15
100
AcDbEntity
  8
4
100
AcDbLine
 10
526.3921598344133
 20
99.45555573322218
 30
0.0
 11
526.3921598344133
 21
107.9555557332222
 31
0.0
  0
LINE
  5
21A
330
15
100
AcDbEntity
  8
4
100
AcDbLine
 10
528.0922568344134
 20
116.2055552332222
 30
0.0
 11
536.6922563344134
 21
116.2055552332222
 31
0.0
  0
LINE
  5
21B
330
15
100
AcDbEntity
  8
4
100
AcDbLine
 10
521.2922573344134
 20
132.7055552332222
 30
0.0
 11
520.0921598344133
 21
141.1604117332222
 31
0.0
  0
LINE
  5
21C
330
15
100
AcDbEntity
  8
4
100
AcDbLine
 10
527.0922563344133
 20
130.7055557332222
 30
0.0
 11
521.2922573344134
 21
132.7055552332222
 31
0.0
  0
LINE
  5
21D
330
15
100
AcDbEntity
  8
4
100
AcDbLine
 10
527.0922563344133
 20
127.2055547332221
 30
0.0
 11
528.0922568344134
 21
127.2055547332221
 31
0.0
  0
LINE
  5
21E
330
15
100
AcDbEntity
  8
L-CENTER
 48
0.5
100
AcDbLine
 10
528.1768311742834
 20
152.2029783451507
 30
0.0
 11
505.6925691881166
 21
152.2029783451507
 31
0.0
  0
LINE
  5
21F
330
15
100
AcDbEntity
  8
4
100
AcDbLine
 10
526.3921598344133
 20
147.9529783451507
 30
0.0
 11
526.3921598344133
 21
156.4529783451507
 31
0.0
  0
LINE
  5
220
330
15
100
AcDbEntity
  8
4
100
AcDbLine
 10
521.3921598344133
 20
147.9529783451507
 30
0.0
 11
521.3921598344133
 21
156.4529783451507
 31
0.0
  0
LINE
  5
221
330
15
100
AcDbEntity
  8
4
100
AcDbLine
 10
526.3921598344133
 20
147.9529783451507
 30
0.0
 11
520.0921598344133
 21
147.9529783451507
 31
0.0
  0
LINE
  5
222
330
15
100
AcDbEntity
  8
4
100
AcDbLine
 10
526.3921598344133
 20
156.4529783451507
 30
0.0
 11
520.0921598344133
 21
156.4529783451507
 31
0.0
  0
LINE
  5
223
330
15
100
AcDbEntity
  8
2
100
AcDbLine
 10
520.0921598344133
 20
150.3645007140657
 30
0.0
 11
521.3921598344133
 21
151.6645007140658
 31
0.0
  0
LINE
  5
224
330
15
100
AcDbEntity
  8
2
100
AcDbLine
 10
520.0921598344133
 20
152.2029783451507
 30
0.0
 11
521.3921598344133
 21
153.5029783451507
 31
0.0
  0
LINE
  5
226
330
15
100
AcDbEntity
  8
4
100
AcDbLine
 10
539.6922563344134
 20
118.7055557332222
 30
0.0
 11
539.6922563344134
 21
115.7055557332222
 31
0.0
  0
LINE
  5
22A
330
15
100
AcDbEntity
  8
4
100
AcDbLine
 10
576.6922568344133
 20
118.7055557332222
 30
0.0
 11
576.6922568344133
 21
92.70555473322219
 31
0.0
  0
LINE
  5
22B
330
15
100
AcDbEntity
  8
4
100
AcDbLine
 10
575.6922563344134
 20
91.70555573322218
 30
0.0
 11
575.6922563344134
 21
115.7055557332222
 31
0.0
  0
LINE
  5
22D
330
15
100
AcDbEntity
  8
4
100
AcDbLine
 10
575.6922563344134
 20
91.70555573322218
 30
0.0
 11
576.6922568344133
 21
92.70555473322219
 31
0.0
  0
LINE
  5
230
330
15
100
AcDbEntity
  8
4
100
AcDbLine
 10
576.6922568344133
 20
114.7055552332222
 30
0.0
 11
575.6922563344134
 21
115.7055557332222
 31
0.0
  0
ARC
  5
233
330
15
100
AcDbEntity
  8
4
100
AcDbCircle
 10
500.5058843344133
 20
192.5191667332222
 30
0.0
 40
3.0
100
AcDbArc
 50
6.69905199999956
 51
83.30094400000176
  0
LINE
  5
236
330
15
100
AcDbEntity
  8
4
100
AcDbLine
 10
485.6922563344134
 20
198.2055557332222
 30
0.0
 11
457.6922573344133
 21
198.2055557332222
 31
0.0
  0
ARC
  5
237
330
15
100
AcDbEntity
  8
4
100
AcDbCircle
 10
471.6922568344133
 20
-52.79444526677784
 30
0.0
 40
249.9999855
100
AcDbArc
 50
83.300944
 51
96.699056
  0
LINE
  5
238
330
15
100
AcDbEntity
  8
4
100
AcDbLine
 10
483.1922573344133
 20
198.2057987332222
 30
0.0
 11
460.1922563344134
 21
198.2057987332222
 31
0.0
  0
LINE
  5
239
330
15
100
AcDbEntity
  8
4
100
AcDbLine
 10
484.1922563344134
 20
199.7057987332222
 30
0.0
 11
459.1922573344133
 21
199.7057987332222
 31
0.0
  0
LINE
  5
23A
330
15
100
AcDbEntity
  8
4
100
AcDbLine
 10
484.1922563344134
 20
201.7057997332222
 30
0.0
 11
459.1922573344133
 21
201.7057997332222
 31
0.0
  0
LINE
  5
23B
330
15
100
AcDbEntity
  8
4
100
AcDbLine
 10
482.5174523344134
 20
205.7057987332222
 30
0.0
 11
460.8668183344133
 21
205.7057987332222
 31
0.0
  0
ARC
  5
23C
330
15
100
AcDbEntity
  8
4
100
AcDbCircle
 10
688.1922563344134
 20
163.7055557332222
 30
0.0
 40
250.0000005
100
AcDbArc
 50
173.300948
 51
180.0
  0
ARC
  5
23D
330
15
100
AcDbEntity
  8
4
100
AcDbCircle
 10
442.8786293344134
 20
192.5191667332222
 30
0.0
 40
3.0
100
AcDbArc
 50
96.69905600000257
 51
173.3009480000005
  0
LINE
  5
23E
330
15
100
AcDbEntity
  8
4
100
AcDbLine
 10
460.8668183344133
 20
201.7057997332222
 30
0.0
 11
460.8668183344133
 21
205.7057987332222
 31
0.0
  0
LINE
  5
23F
330
15
100
AcDbEntity
  8
4
100
AcDbLine
 10
459.1922573344133
 20
199.7057987332222
 30
0.0
 11
459.1922573344133
 21
201.7057997332222
 31
0.0
  0
LINE
  5
240
330
15
100
AcDbEntity
  8
4
100
AcDbLine
 10
457.6922573344133
 20
198.2055557332222
 30
0.0
 11
457.6922573344133
 21
196.8132212332222
 31
0.0
  0
LINE
  5
241
330
15
100
AcDbEntity
  8
4
100
AcDbLine
 10
460.1922563344134
 20
198.2057987332222
 30
0.0
 11
460.1922563344134
 21
199.7057987332222
 31
0.0
  0
LINE
  5
242
330
15
100
AcDbEntity
  8
4
100
AcDbLine
 10
474.1922573344133
 20
168.7055552332222
 30
0.0
 11
469.1922563344134
 21
168.7055552332222
 31
0.0
  0
LINE
  5
243
330
15
100
AcDbEntity
  8
4
100
AcDbLine
 10
474.1922573344133
 20
173.7055547332221
 30
0.0
 11
469.1922563344134
 21
173.7055547332221
 31
0.0
  0
LINE
  5
244
330
15
100
AcDbEntity
  8
4
100
AcDbLine
 10
469.1922563344134
 20
168.7055552332222
 30
0.0
 11
469.1922563344134
 21
173.7055547332221
 31
0.0
  0
LINE
  5
245
330
15
100
AcDbEntity
  8
4
100
AcDbLine
 10
474.1922573344133
 20
173.7055547332221
 30
0.0
 11
474.1922573344133
 21
168.7055552332222
 31
0.0
  0
LINE
  5
246
330
15
100
AcDbEntity
  8
4
100
AcDbLine
 10
482.5174523344134
 20
201.7057997332222
 30
0.0
 11
482.5174523344134
 21
205.7057987332222
 31
0.0
  0
LINE
  5
247
330
15
100
AcDbEntity
  8
4
100
AcDbLine
 10
484.1922563344134
 20
199.7057987332222
 30
0.0
 11
484.1922563344134
 21
201.7057997332222
 31
0.0
  0
LINE
  5
248
330
15
100
AcDbEntity
  8
4
100
AcDbLine
 10
483.1922573344133
 20
198.2057987332222
 30
0.0
 11
483.1922573344133
 21
199.7057987332222
 31
0.0
  0
LINE
  5
249
330
15
100
AcDbEntity
  8
4
100
AcDbLine
 10
485.6922563344134
 20
198.2055557332222
 30
0.0
 11
485.6922563344134
 21
196.8132212332222
 31
0.0
  0
ARC
  5
24D
330
15
100
AcDbEntity
  8
4
100
AcDbCircle
 10
255.1922573344134
 20
163.7055557332222
 30
0.0
 40
250.0000005
100
AcDbArc
 50
0.0
 51
6.699051999999996
  0
LINE
  5
24E
330
15
100
AcDbEntity
  8
4
100
AcDbLine
 10
519.0921593344134
 20
166.7055557332222
 30
0.0
 11
506.1922568344133
 21
166.7055557332222
 31
0.0
  0
LINE
  5
24F
330
15
100
AcDbEntity
  8
4
100
AcDbLine
 10
505.1602553344134
 20
167.7055547332221
 30
0.0
 11
506.1922568344133
 21
167.7055547332221
 31
0.0
  0
ARC
  5
250
330
15
100
AcDbEntity
  8
4
100
AcDbCircle
 10
519.0921593344134
 20
165.7055552332222
 30
0.0
 40
1.0000005
100
AcDbArc
 50
0.0
 51
90.0
  0
LINE
  5
3D3
330
15
100
AcDbEntity
  8
4
100
AcDbLine
 10
438.3500905608868
 20
191.2455575022564
 30
0.0
 11
439.705925150524
 21
191.1745012223383
 31
0.0
  0
ARC
  5
3D4
330
15
100
AcDbEntity
  8
4
100
AcDbCircle
 10
438.2977546046437
 20
190.2469279675017
 30
0.0
 40
1.0
100
AcDbArc
 50
86.99999999999442
 51
177.0000000000009
  0
LINE
  5
3D5
330
15
100
AcDbEntity
  8
4
100
AcDbLine
 10
437.4080433485136
 20
173.270225876674
 30
0.0
 11
438.3733578718992
 21
173.2196358861937
 31
0.0
  0
ARC
  5
3D6
330
15
100
AcDbEntity
  8
4
100
AcDbCircle
 10
437.4603793047567
 20
174.2688554114285
 30
0.0
 40
1.0
100
AcDbArc
 50
176.9999999999976
 51
266.9999999999944
  0
LINE
  5
3D7
330
15
100
AcDbEntity
  8
4
100
AcDbLine
 10
436.461749770002
 20
174.3211913676715
 30
0.0
 11
437.2991250698891
 21
190.2992639237447
 31
0.0
  0
LINE
  5
3D8
330
15
100
AcDbEntity
  8
4
100
AcDbLine
 10
240.6821921596216
 20
187.7055557332225
 30
0.0
 11
240.6821921596219
 21
185.7055557332222
 31
0.0
  0
ARC
  5
3D9
330
15
100
AcDbEntity
  8
4
100
AcDbCircle
 10
240.1821921596219
 20
185.7055557332222
 30
0.0
 40
0.5
100
AcDbArc
 50
270.0
 51
0.0
  0
LINE
  5
3DA
330
15
100
AcDbEntity
  8
4
100
AcDbLine
 10
240.1821921596218
 20
185.2055557332222
 30
0.0
 11
240.1821921596219
 21
185.2055557332222
 31
0.0
  0
ARC
  5
3DB
330
15
100
AcDbEntity
  8
4
100
AcDbCircle
 10
240.1821921596216
 20
187.7055557332222
 30
0.0
 40
0.5
100
AcDbArc
 50
0.0
 51
90.0
  0
ARC
  5
3DC
330
15
100
AcDbEntity
  8
4
100
AcDbCircle
 10
242.6821921596215
 20
190.2055557332222
 30
0.0
 40
1.0
100
AcDbArc
 50
0.0
 51
90.0
  0
LINE
  5
3DD
330
15
100
AcDbEntity
  8
4
100
AcDbLine
 10
238.6821921596218
 20
183.705555733222
 30
0.0
 11
238.6821921596219
 21
183.1696573483604
 31
0.0
  0
LINE
  5
3DE
330
15
100
AcDbEntity
  8
4
100
AcDbLine
 10
232.1821921596216
 20
188.2055557332222
 30
0.0
 11
240.1821921596216
 21
188.2055557332222
 31
0.0
  0
ARC
  5
3DF
330
15
100
AcDbEntity
  8
4
100
AcDbCircle
 10
240.1821921596218
 20
183.7055557332222
 30
0.0
 40
1.5
100
AcDbArc
 50
90.0
 51
180.0
  0
ARC
  5
3E0
330
15
100
AcDbEntity
  8
4
100
AcDbCircle
 10
242.6821921596215
 20
174.2055557332225
 30
0.0
 40
1.0
100
AcDbArc
 50
270.0
 51
0.0
  0
LINE
  5
3E1
330
15
100
AcDbEntity
  8
4
100
AcDbLine
 10
240.6821921596226
 20
179.7055557332225
 30
0.0
 11
240.6821921596228
 21
178.7055557332227
 31
0.0
  0
LINE
  5
3E2
330
15
100
AcDbEntity
  8
4
100
AcDbLine
 10
232.1821921596232
 20
176.2055557332222
 30
0.0
 11
238.1821921596228
 21
176.2055557332222
 31
0.0
  0
ARC
  5
3E3
330
15
100
AcDbEntity
  8
4
100
AcDbCircle
 10
238.1821921596228
 20
178.7055557332222
 30
0.0
 40
2.5
100
AcDbArc
 50
270.0
 51
0.0
  0
ARC
  5
3E4
330
15
100
AcDbEntity
  8
4
100
AcDbCircle
 10
238.1821921596226
 20
179.7055557332222
 30
0.0
 40
2.5
100
AcDbArc
 50
0.0
 51
60.00000000001174
  0
ARC
  5
3E5
330
15
100
AcDbEntity
  8
4
100
AcDbCircle
 10
231.6821921596226
 20
181.2055557332222
 30
0.0
 40
2.0
100
AcDbArc
 50
289.4712206345208
 51
70.52877936549675
  0
LINE
  5
3E6
330
15
100
AcDbEntity
  8
4
100
AcDbLine
 10
243.6821921596231
 20
174.2055557332224
 30
0.0
 11
243.6821921596213
 21
190.2055557332224
 31
0.0
  0
ARC
  5
3E7
330
15
100
AcDbEntity
  8
4
100
AcDbCircle
 10
240.1821921596219
 20
183.1696573483604
 30
0.0
 40
1.5
100
AcDbArc
 50
180.0
 51
240.0000000000102
  0
ARC
  5
3E8
330
15
100
AcDbEntity
  8
4
100
AcDbCircle
 10
225.1821921596216
 20
187.7055557332222
 30
0.0
 40
0.5
100
AcDbArc
 50
0.0
 51
90.0
  0
LINE
  5
3E9
330
15
100
AcDbEntity
  8
4
100
AcDbLine
 10
231.6821921596216
 20
187.7055557332222
 30
0.0
 11
231.6821921596221
 21
184.0339828579652
 31
0.0
  0
LINE
  5
3EA
330
15
100
AcDbEntity
  8
4
100
AcDbLine
 10
218.1821921596222
 20
183.7055557332222
 30
0.0
 11
220.1821921596221
 21
183.7055557332222
 31
0.0
  0
ARC
  5
3EB
330
15
100
AcDbEntity
  8
4
100
AcDbCircle
 10
218.1821921596222
 20
183.2055557332222
 30
0.0
 40
0.5
100
AcDbArc
 50
90.0
 51
180.0
  0
ARC
  5
3EC
330
15
100
AcDbEntity
  8
4
100
AcDbCircle
 10
220.1821921596221
 20
183.2055557332222
 30
0.0
 40
0.5
100
AcDbArc
 50
0.0
 51
90.0
  0
ARC
  5
3ED
330
15
100
AcDbEntity
  8
4
100
AcDbCircle
 10
223.1821921596219
 20
187.7055557332222
 30
0.0
 40
0.5
100
AcDbArc
 50
90.0
 51
180.0
  0
LINE
  5
3EE
330
15
100
AcDbEntity
  8
4
100
AcDbLine
 10
223.1821921596219
 20
188.2055557332222
 30
0.0
 11
225.1821921596216
 21
188.2055557332222
 31
0.0
  0
LINE
  5
3EF
330
15
100
AcDbEntity
  8
4
100
AcDbLine
 10
227.6821921596228
 20
177.7055557332222
 30
0.0
 11
227.6821921596228
 21
176.7055557332222
 31
0.0
  0
LINE
  5
3F0
330
15
100
AcDbEntity
  8
4
100
AcDbLine
 10
229.682192159623
 20
177.7055557332225
 30
0.0
 11
229.682192159623
 21
176.7055557332222
 31
0.0
  0
LINE
  5
3F1
330
15
100
AcDbEntity
  8
4
100
AcDbLine
 10
231.682192159623
 20
178.3771286084793
 30
0.0
 11
231.6821921596232
 21
176.7055557332222
 31
0.0
  0
ARC
  5
3F2
330
15
100
AcDbEntity
  8
4
100
AcDbCircle
 10
228.1821921596228
 20
176.7055557332222
 30
0.0
 40
0.5
100
AcDbArc
 50
180.0
 51
270.0
  0
ARC
  5
3F3
330
15
100
AcDbEntity
  8
4
100
AcDbCircle
 10
225.182192159623
 20
176.7055557332222
 30
0.0
 40
0.5
100
AcDbArc
 50
270.0
 51
0.0
  0
ARC
  5
3F4
330
15
100
AcDbEntity
  8
4
100
AcDbCircle
 10
229.182192159623
 20
176.7055557332222
 30
0.0
 40
0.5
100
AcDbArc
 50
270.0
 51
0.0
  0
LINE
  5
3F5
330
15
100
AcDbEntity
  8
4
100
AcDbLine
 10
228.1821921596228
 20
176.2055557332222
 30
0.0
 11
229.182192159623
 21
176.2055557332222
 31
0.0
  0
ARC
  5
3F6
330
15
100
AcDbEntity
  8
4
100
AcDbCircle
 10
228.1821921596228
 20
177.7055557332222
 30
0.0
 40
0.5
100
AcDbArc
 50
90.0
 51
180.0
  0
ARC
  5
3F7
330
15
100
AcDbEntity
  8
4
100
AcDbCircle
 10
229.182192159623
 20
177.7055557332222
 30
0.0
 40
0.5
100
AcDbArc
 50
0.0
 51
90.0
  0
LINE
  5
3F8
330
15
100
AcDbEntity
  8
4
100
AcDbLine
 10
228.1821921596228
 20
178.2055557332222
 30
0.0
 11
229.182192159623
 21
178.2055557332222
 31
0.0
  0
LINE
  5
3F9
330
15
100
AcDbEntity
  8
4
100
AcDbLine
 10
218.1821921596221
 20
180.7055557332222
 30
0.0
 11
220.1821921596222
 21
180.7055557332222
 31
0.0
  0
ARC
  5
3FA
330
15
100
AcDbEntity
  8
4
100
AcDbCircle
 10
218.1821921596221
 20
181.2055557332222
 30
0.0
 40
0.5
100
AcDbArc
 50
180.0
 51
270.0
  0
ARC
  5
3FB
330
15
100
AcDbEntity
  8
4
100
AcDbCircle
 10
220.1821921596222
 20
181.2055557332222
 30
0.0
 40
0.5
100
AcDbArc
 50
270.0
 51
0.0
  0
ARC
  5
3FC
330
15
100
AcDbEntity
  8
4
100
AcDbCircle
 10
223.1821921596226
 20
176.7055557332222
 30
0.0
 40
0.5
100
AcDbArc
 50
180.0
 51
270.0
  0
LINE
  5
3FD
330
15
100
AcDbEntity
  8
4
100
AcDbLine
 10
223.1821921596226
 20
176.2055557332222
 30
0.0
 11
225.182192159623
 21
176.2055557332222
 31
0.0
  0
LINE
  5
3FE
330
15
100
AcDbEntity
  8
4
100
AcDbLine
 10
217.6821921596222
 20
183.2055557332222
 30
0.0
 11
217.6821921596221
 21
181.2055557332222
 31
0.0
  0
LINE
  5
3FF
330
15
100
AcDbEntity
  8
4
100
AcDbLine
 10
220.6821921596221
 20
183.2055557332222
 30
0.0
 11
220.6821921596222
 21
181.2055557332222
 31
0.0
  0
LINE
  5
400
330
15
100
AcDbEntity
  8
4
100
AcDbLine
 10
225.6821921596216
 20
187.7055557332225
 30
0.0
 11
225.682192159623
 21
176.7055557332222
 31
0.0
  0
LINE
  5
401
330
15
100
AcDbEntity
  8
4
100
AcDbLine
 10
222.6821921596219
 20
187.7055557332222
 30
0.0
 11
222.6821921596226
 21
176.7055557332222
 31
0.0
  0
ARC
  5
402
330
15
100
AcDbEntity
  8
4
100
AcDbCircle
 10
212.6821921596222
 20
185.7055557332222
 30
0.0
 40
2.5
100
AcDbArc
 50
0.0
 51
90.0
  0
ARC
  5
403
330
15
100
AcDbEntity
  8
4
100
AcDbCircle
 10
212.6821921596222
 20
184.7055557332222
 30
0.0
 40
2.5
100
AcDbArc
 50
321.3178125465138
 51
0.0
  0
LINE
  5
404
330
15
100
AcDbEntity
  8
4
100
AcDbLine
 10
215.1821921596222
 20
185.7055557332222
 30
0.0
 11
215.1821921596222
 21
184.7055557332225
 31
0.0
  0
ARC
  5
405
330
15
100
AcDbEntity
  8
4
100
AcDbCircle
 10
206.6821921596222
 20
187.7055557332222
 30
0.0
 40
0.5
100
AcDbArc
 50
90.0
 51
180.0
  0
LINE
  5
406
330
15
100
AcDbEntity
  8
4
100
AcDbLine
 10
206.6821921596222
 20
188.2055557332222
 30
0.0
 11
212.6821921596222
 21
188.2055557332222
 31
0.0
  0
ARC
  5
407
330
15
100
AcDbEntity
  8
4
100
AcDbCircle
 10
212.6821921596223
 20
178.7055557332222
 30
0.0
 40
2.5
100
AcDbArc
 50
270.0
 51
0.0
  0
ARC
  5
408
330
15
100
AcDbEntity
  8
4
100
AcDbCircle
 10
212.6821921596223
 20
179.7055557332222
 30
0.0
 40
2.5
100
AcDbArc
 50
0.0
 51
38.68218745348938
  0
LINE
  5
409
330
15
100
AcDbEntity
  8
4
100
AcDbLine
 10
215.1821921596223
 20
179.7055557332222
 30
0.0
 11
215.1821921596223
 21
178.7055557332222
 31
0.0
  0
ARC
  5
40A
330
15
100
AcDbEntity
  8
4
100
AcDbCircle
 10
206.6821921596222
 20
176.7055557332222
 30
0.0
 40
0.5
100
AcDbArc
 50
180.0
 51
270.0
  0
LINE
  5
40B
330
15
100
AcDbEntity
  8
4
100
AcDbLine
 10
203.6821921596221
 20
178.7055557332222
 30
0.0
 11
203.6821921596221
 21
176.7055557332222
 31
0.0
  0
ARC
  5
40C
330
15
100
AcDbEntity
  8
4
100
AcDbCircle
 10
203.1821921596221
 20
176.7055557332222
 30
0.0
 40
0.5
100
AcDbArc
 50
270.0
 51
0.0
  0
ARC
  5
40D
330
15
100
AcDbEntity
  8
4
100
AcDbCircle
 10
203.1821921596221
 20
178.7055557332222
 30
0.0
 40
0.5
100
AcDbArc
 50
0.0
 51
90.0
  0
LINE
  5
40E
330
15
100
AcDbEntity
  8
4
100
AcDbLine
 10
206.6821921596222
 20
176.2055557332222
 30
0.0
 11
212.6821921596223
 21
176.2055557332222
 31
0.0
  0
LINE
  5
40F
330
15
100
AcDbEntity
  8
4
100
AcDbLine
 10
206.1821921596222
 20
187.7055557332222
 30
0.0
 11
206.1821921596222
 21
176.7055557332222
 31
0.0
  0
ARC
  5
410
330
15
100
AcDbEntity
  8
4
100
AcDbCircle
 10
215.8046911588215
 20
182.2055557332225
 30
0.0
 40
1.5
100
AcDbArc
 50
141.3178125465104
 51
218.682187453492
  0
ARC
  5
411
330
15
100
AcDbEntity
  8
4
100
AcDbCircle
 10
197.6821921596222
 20
187.7055557332222
 30
0.0
 40
0.5
100
AcDbArc
 50
0.0
 51
90.0
  0
LINE
  5
412
330
15
100
AcDbEntity
  8
4
100
AcDbLine
 10
195.6821921596222
 20
188.2055557332222
 30
0.0
 11
197.6821921596222
 21
188.2055557332222
 31
0.0
  0
ARC
  5
413
330
15
100
AcDbEntity
  8
4
100
AcDbCircle
 10
195.6821921596222
 20
187.7055557332222
 30
0.0
 40
0.5
100
AcDbArc
 50
90.0
 51
180.0
  0
ARC
  5
414
330
15
100
AcDbEntity
  8
4
100
AcDbCircle
 10
193.1821921596222
 20
190.2055557332222
 30
0.0
 40
1.0
100
AcDbArc
 50
90.0
 51
180.0
  0
ARC
  5
415
330
15
100
AcDbEntity
  8
4
100
AcDbCircle
 10
195.6821921596222
 20
176.7055557332222
 30
0.0
 40
0.5
100
AcDbArc
 50
180.0
 51
270.0
  0
ARC
  5
416
330
15
100
AcDbEntity
  8
4
100
AcDbCircle
 10
198.6821921596221
 20
179.7055557332222
 30
0.0
 40
0.5
100
AcDbArc
 50
180.0
 51
270.0
  0
ARC
  5
417
330
15
100
AcDbEntity
  8
4
100
AcDbCircle
 10
193.1821921596222
 20
174.2055557332225
 30
0.0
 40
1.0
100
AcDbArc
 50
180.0
 51
270.0
  0
LINE
  5
418
330
15
100
AcDbEntity
  8
4
100
AcDbLine
 10
192.1821921596222
 20
174.2055557332225
 30
0.0
 11
192.1821921596222
 21
190.2055557332222
 31
0.0
  0
LINE
  5
419
330
15
100
AcDbEntity
  8
4
100
AcDbLine
 10
195.1821921596222
 20
187.7055557332222
 30
0.0
 11
195.1821921596222
 21
176.7055557332222
 31
0.0
  0
LINE
  5
41A
330
15
100
AcDbEntity
  8
4
100
AcDbLine
 10
198.1821921596222
 20
187.7055557332222
 30
0.0
 11
198.1821921596221
 21
179.7055557332222
 31
0.0
  0
LINE
  5
41B
330
15
100
AcDbEntity
  8
4
100
AcDbLine
 10
195.6821921596222
 20
176.2055557332222
 30
0.0
 11
203.1821921596221
 21
176.2055557332222
 31
0.0
  0
LINE
  5
41C
330
15
100
AcDbEntity
  8
4
100
AcDbLine
 10
198.6821921596221
 20
179.2055557332222
 30
0.0
 11
203.1821921596221
 21
179.2055557332222
 31
0.0
  0
ARC
  5
41D
330
15
100
AcDbEntity
  8
4
100
AcDbCircle
 10
185.6821921596219
 20
150.7055557332222
 30
0.0
 40
15.5
100
AcDbArc
 50
185.7213855853658
 51
354.2786144146338
  0
LINE
  5
41E
330
15
100
AcDbEntity
  8
4
100
AcDbLine
 10
193.1821921596222
 20
173.2055557332222
 30
0.0
 11
242.6821921596215
 21
173.2055557332222
 31
0.0
  0
LINE
  5
41F
330
15
100
AcDbEntity
  8
4
100
AcDbLine
 10
193.1821921596222
 20
191.2055557332222
 30
0.0
 11
242.6821921596215
 21
191.2055557332222
 31
0.0
  0
ARC
  5
420
330
15
100
AcDbEntity
  8
4
100
AcDbCircle
 10
232.1821921596232
 20
176.7055557332222
 30
0.0
 40
0.5
100
AcDbArc
 50
180.0
 51
270.0
  0
ARC
  5
421
330
15
100
AcDbEntity
  8
4
100
AcDbCircle
 10
232.682192159623
 20
178.3771286084794
 30
0.0
 40
1.0
100
AcDbArc
 50
109.471220634512
 51
180.0
  0
ARC
  5
422
330
15
100
AcDbEntity
  8
4
100
AcDbCircle
 10
232.6821921596221
 20
184.0339828579653
 30
0.0
 40
1.0
100
AcDbArc
 50
180.0
 51
250.5287793654998
  0
ARC
  5
423
330
15
100
AcDbEntity
  8
4
100
AcDbCircle
 10
232.1821921596216
 20
187.7055557332222
 30
0.0
 40
0.5
100
AcDbArc
 50
90.0
 51
180.0
  0
LINE
  5
424
330
15
100
AcDbEntity
  8
4
100
AcDbLine
 10
243.6821921596215
 20
364.7933168818452
 30
0.0
 11
243.6821921596214
 21
365.7933168818451
 31
0.0
  0
LINE
  5
425
330
15
100
AcDbEntity
  8
4
100
AcDbLine
 10
192.1821921596222
 20
364.7933168818452
 30
0.0
 11
192.1821921596222
 21
365.7933168818452
 31
0.0
  0
ARC
  5
426
330
15
100
AcDbEntity
  8
4
100
AcDbCircle
 10
193.1821921596222
 20
364.7933168818452
 30
0.0
 40
1.0
100
AcDbArc
 50
180.0
 51
270.0
  0
ARC
  5
427
330
15
100
AcDbEntity
  8
4
100
AcDbCircle
 10
242.6821921596215
 20
364.7933168818451
 30
0.0
 40
1.0
100
AcDbArc
 50
270.0
 51
0.0
  0
LINE
  5
467
330
15
100
AcDbEntity
  8
4
100
AcDbLine
 10
108.1855557454192
 20
388.4679993345395
 30
0.0
 11
108.1855557454192
 21
410.1186344291506
 31
0.0
  0
LINE
  5
468
330
15
100
AcDbEntity
  8
4
100
AcDbLine
 10
113.1855557454192
 20
386.793316881845
 30
0.0
 11
113.1855557454192
 21
411.793316881845
 31
0.0
  0
LINE
  5
484
330
15
100
AcDbEntity
  8
4
100
AcDbLine
 10
406.6922573344133
 20
91.70555573322218
 30
0.0
 11
367.6922573344133
 21
91.70555573322218
 31
0.0
  0
LINE
  5
485
330
15
100
AcDbEntity
  8
4
100
AcDbLine
 10
406.6922573344133
 20
115.7055557332222
 30
0.0
 11
367.6922573344133
 21
115.7055557332222
 31
0.0
  0
LINE
  5
486
330
15
100
AcDbEntity
  8
4
100
AcDbLine
 10
366.6922568344133
 20
118.7055557332222
 30
0.0
 11
403.6922573344133
 21
118.7055557332222
 31
0.0
  0
LINE
  5
487
330
15
100
AcDbEntity
  8
4
100
AcDbLine
 10
406.6922573344133
 20
116.2055552332222
 30
0.0
 11
406.6922573344133
 21
91.20555473322219
 31
0.0
  0
LINE
  5
488
330
15
100
AcDbEntity
  8
4
100
AcDbLine
 10
415.1922563344132
 20
127.2055547332221
 30
0.0
 11
415.1922563344132
 21
80.20555523322219
 31
0.0
  0
LINE
  5
489
330
15
100
AcDbEntity
  8
4
100
AcDbLine
 10
415.1922563344132
 20
91.20555473322219
 30
0.0
 11
406.6922573344133
 21
91.20555473322219
 31
0.0
  0
LINE
  5
48A
330
15
100
AcDbEntity
  8
4
100
AcDbLine
 10
415.1922563344132
 20
80.20555523322219
 30
0.0
 11
416.1922568344133
 21
80.20555523322219
 31
0.0
  0
LINE
  5
48B
330
15
100
AcDbEntity
  8
4
100
AcDbLine
 10
415.1922563344132
 20
116.2055552332222
 30
0.0
 11
406.6922573344133
 21
116.2055552332222
 31
0.0
  0
LINE
  5
48C
330
15
100
AcDbEntity
  8
4
100
AcDbLine
 10
416.1922568344133
 20
127.2055547332221
 30
0.0
 11
415.1922563344132
 21
127.2055547332221
 31
0.0
  0
LINE
  5
48D
330
15
100
AcDbEntity
  8
4
100
AcDbLine
 10
403.6922573344133
 20
118.7055557332222
 30
0.0
 11
403.6922573344133
 21
115.7055557332222
 31
0.0
  0
LINE
  5
48E
330
15
100
AcDbEntity
  8
4
100
AcDbLine
 10
366.6922568344133
 20
118.7055557332222
 30
0.0
 11
366.6922568344133
 21
92.70555473322219
 31
0.0
  0
LINE
  5
48F
330
15
100
AcDbEntity
  8
4
100
AcDbLine
 10
367.6922573344133
 20
91.70555573322218
 30
0.0
 11
367.6922573344133
 21
115.7055557332222
 31
0.0
  0
LINE
  5
490
330
15
100
AcDbEntity
  8
4
100
AcDbLine
 10
367.6922573344133
 20
91.70555573322218
 30
0.0
 11
366.6922568344133
 21
92.70555473322219
 31
0.0
  0
LINE
  5
491
330
15
100
AcDbEntity
  8
4
100
AcDbLine
 10
366.6922568344133
 20
114.7055552332222
 30
0.0
 11
367.6922573344133
 21
115.7055557332222
 31
0.0
  0
LINE
  5
4AA
330
15
100
AcDbEntity
  8
4
100
AcDbLine
 10
189.1821916596219
 20
111.7055552332223
 30
0.0
 11
189.1821916596219
 21
118.7055557332222
 31
0.0
  0
LINE
  5
4AB
330
15
100
AcDbEntity
  8
4
100
AcDbLine
 10
182.1821911596219
 20
111.7055552332223
 30
0.0
 11
182.1821911596219
 21
118.7055557332222
 31
0.0
  0
LINE
  5
4AC
330
15
100
AcDbEntity
  8
4
100
AcDbLine
 10
182.1821911596219
 20
118.7055557332222
 30
0.0
 11
189.1821916596219
 21
118.7055557332222
 31
0.0
  0
LINE
  5
4AD
330
15
100
AcDbEntity
  8
4
100
AcDbLine
 10
189.1821916596219
 20
111.7055552332223
 30
0.0
 11
182.1821911596219
 21
111.7055552332223
 31
0.0
  0
ARC
  5
4AE
330
15
100
AcDbEntity
  8
4
100
AcDbCircle
 10
185.6821921596218
 20
103.7055557332222
 30
0.0
 40
11.999997
100
AcDbArc
 50
106.9577726594187
 51
73.04207799999938
  0
CIRCLE
  5
4B0
330
15
100
AcDbEntity
  8
4
100
AcDbCircle
 10
185.6821921596219
 20
103.7055557332222
 30
0.0
 40
23.49999899999995
  0
LINE
  5
4B1
330
15
100
AcDbEntity
  8
4
100
AcDbLine
 10
160.185280745419
 20
342.7933168818455
 30
0.0
 11
207.1852807454192
 21
342.7933168818453
 31
0.0
  0
LINE
  5
4B2
330
15
100
AcDbEntity
  8
4
100
AcDbLine
 10
172.685280745419
 20
294.293316881845
 30
0.0
 11
194.685280745419
 21
294.293316881845
 31
0.0
  0
LINE
  5
4B3
330
15
100
AcDbEntity
  8
4
100
AcDbLine
 10
171.185280745419
 20
334.293316881845
 30
0.0
 11
196.185280745419
 21
334.293316881845
 31
0.0
  0
LINE
  5
4B4
330
15
100
AcDbEntity
  8
4
100
AcDbLine
 10
171.685280745419
 20
295.293316881845
 30
0.0
 11
180.185280745419
 21
295.293316881845
 31
0.0
  0
LINE
  5
4B5
330
15
100
AcDbEntity
  8
4
100
AcDbLine
 10
171.685280745419
 20
333.793316881845
 30
0.0
 11
171.685280745419
 21
295.293316881845
 31
0.0
  0
LINE
  5
4B6
330
15
100
AcDbEntity
  8
4
100
AcDbLine
 10
171.185280745419
 20
342.7933168818454
 30
0.0
 11
171.185280745419
 21
334.293316881845
 31
0.0
  0
LINE
  5
4B7
330
15
100
AcDbEntity
  8
4
100
AcDbLine
 10
160.185280745419
 20
342.7933168818455
 30
0.0
 11
160.185280745419
 21
343.793316881845
 31
0.0
  0
LINE
  5
4B8
330
15
100
AcDbEntity
  8
4
100
AcDbLine
 10
171.185280745419
 20
334.293316881845
 30
0.0
 11
171.185280745419
 21
334.293316881845
 31
0.0
  0
ARC
  5
4B9
330
15
100
AcDbEntity
  8
4
100
AcDbCircle
 10
171.185280745419
 20
333.793316881845
 30
0.0
 40
0.5
100
AcDbArc
 50
0.0
 51
90.0
  0
LINE
  5
4BA
330
15
100
AcDbEntity
  8
4
100
AcDbLine
 10
171.685280745419
 20
295.293316881845
 30
0.0
 11
172.685280745419
 21
294.293316881845
 31
0.0
  0
LINE
  5
4BB
330
15
100
AcDbEntity
  8
4
100
AcDbLine
 10
187.185280745419
 20
327.793316881845
 30
0.0
 11
187.185280745419
 21
294.293316881845
 31
0.0
  0
LINE
  5
4BC
330
15
100
AcDbEntity
  8
4
100
AcDbLine
 10
195.685280745419
 20
333.793316881845
 30
0.0
 11
195.685280745419
 21
295.293316881845
 31
0.0
  0
LINE
  5
4BD
330
15
100
AcDbEntity
  8
4
100
AcDbLine
 10
180.185280745419
 20
327.793316881845
 30
0.0
 11
180.185280745419
 21
294.293316881845
 31
0.0
  0
LINE
  5
4BE
330
15
100
AcDbEntity
  8
4
100
AcDbLine
 10
196.185280745419
 20
342.7933168818453
 30
0.0
 11
196.185280745419
 21
334.293316881845
 31
0.0
  0
ARC
  5
4BF
330
15
100
AcDbEntity
  8
4
100
AcDbCircle
 10
183.685280745419
 20
327.793316881845
 30
0.0
 40
3.5
100
AcDbArc
 50
0.0
 51
180.0
  0
ARC
  5
4C0
330
15
100
AcDbEntity
  8
4
100
AcDbCircle
 10
196.185280745419
 20
333.793316881845
 30
0.0
 40
0.5
100
AcDbArc
 50
90.0
 51
180.0
  0
LINE
  5
4C1
330
15
100
AcDbEntity
  8
4
100
AcDbLine
 10
207.1852807454192
 20
342.7933168818453
 30
0.0
 11
207.1852807454192
 21
343.7933168818453
 31
0.0
  0
LINE
  5
4C2
330
15
100
AcDbEntity
  8
4
100
AcDbLine
 10
187.185280745419
 20
295.293316881845
 30
0.0
 11
195.685280745419
 21
295.293316881845
 31
0.0
  0
LINE
  5
4C3
330
15
100
AcDbEntity
  8
4
100
AcDbLine
 10
195.685280745419
 20
295.293316881845
 30
0.0
 11
194.685280745419
 21
294.293316881845
 31
0.0
  0
ENDSEC
  0
SECTION
  2
OBJECTS
  0
DICTIONARY
  5
5
330
0
100
AcDbDictionary
281
     1
  3
ACAD_COLOR
350
28
  3
ACAD_GROUP
350
26
  3
ACAD_LAYOUT
350
1C
  3
ACAD_MATERIAL
350
7
  3
ACAD_MLEADERSTYLE
350
42B
  3
ACAD_MLINESTYLE
350
13
  3
ACAD_PLOTSETTINGS
350
27
  3
ACAD_PLOTSTYLENAME
350
4
  3
ACAD_SCALELIST
350
2D
  3
ACAD_TABLESTYLE
350
42A
  3
ACAD_VISUALSTYLE
350
29
  3
ACDBHEADERROUNDTRIPXREC
350
4D7
  3
AcDbVariableDictionary
350
428
  3
DWGPROPS
350
4DA
  0
DICTIONARY
  5
4DB
330
25
100
AcDbDictionary
280
     1
281
     1
  3
ACAD_XREC_ROUNDTRIP
360
4DC
  0
DICTIONARY
  5
16
330
15
100
AcDbDictionary
280
     1
281
     1
  3
ACAD_SORTENTS
360
17
  0
DICTIONARY
  5
28
102
{ACAD_REACTORS
330
5
102
}
330
5
100
AcDbDictionary
281
     1
  0
DICTIONARY
  5
26
102
{ACAD_REACTORS
330
5
102
}
330
5
100
AcDbDictionary
281
     1
  0
DICTIONARY
  5
1C
102
{ACAD_REACTORS
330
5
102
}
330
5
100
AcDbDictionary
281
     1
  3
Model
350
1B
  3
ﾚｲｱｳﾄ1
350
22
  0
DICTIONARY
  5
7
102
{ACAD_REACTORS
330
5
102
}
330
5
100
AcDbDictionary
281
     1
  3
ByBlock
350
70
  3
ByLayer
350
E
  3
Global
350
6
  0
DICTIONARY
  5
42B
102
{ACAD_REACTORS
330
5
102
}
330
5
100
AcDbDictionary
281
     1
  3
Standard
350
446
  0
DICTIONARY
  5
13
102
{ACAD_REACTORS
330
5
102
}
330
5
100
AcDbDictionary
281
     1
  3
STANDARD
350
12
  0
DICTIONARY
  5
27
102
{ACAD_REACTORS
330
5
102
}
330
5
100
AcDbDictionary
281
     1
  0
ACDBDICTIONARYWDFLT
  5
4
102
{ACAD_REACTORS
330
5
102
}
330
5
100
AcDbDictionary
281
     1
  3
Normal
350
3
100
AcDbDictionaryWithDefault
340
3
  0
DICTIONARY
  5
2D
102
{ACAD_REACTORS
330
5
102
}
330
5
100
AcDbDictionary
281
     1
  3
*A1
350
4F
  3
*A10
350
58
  3
*A11
350
59
  3
*A12
350
5A
  3
*A13
350
5B
  3
*A14
350
5C
  3
*A15
350
5D
  3
*A16
350
5E
  3
*A17
350
5F
  3
*A18
350
60
  3
*A19
350
61
  3
*A2
350
50
  3
*A20
350
62
  3
*A21
350
63
  3
*A22
350
64
  3
*A23
350
65
  3
*A24
350
66
  3
*A25
350
67
  3
*A26
350
68
  3
*A27
350
69
  3
*A28
350
6A
  3
*A29
350
6B
  3
*A3
350
51
  3
*A30
350
6C
  3
*A31
350
6D
  3
*A32
350
6E
  3
*A33
350
6F
  3
*A4
350
52
  3
*A5
350
53
  3
*A6
350
54
  3
*A7
350
55
  3
*A8
350
56
  3
*A9
350
57
  0
DICTIONARY
  5
42A
102
{ACAD_REACTORS
330
5
102
}
330
5
100
AcDbDictionary
281
     1
  3
Standard
350
4D3
  0
DICTIONARY
  5
29
102
{ACAD_REACTORS
330
5
102
}
330
5
100
AcDbDictionary
281
     1
  3
2dWireframe
350
432
  3
Basic
350
435
  3
Brighten
350
439
  3
ColorChange
350
43D
  3
Conceptual
350
437
  3
Dim
350
438
  3
EdgeColorOff
350
440
  3
Facepattern
350
43C
  3
Flat
350
42E
  3
FlatWithEdges
350
42F
  3
Gouraud
350
430
  3
GouraudWithEdges
350
431
  3
Hidden
350
434
  3
JitterOff
350
43E
  3
Linepattern
350
43B
  3
OverhangOff
350
43F
  3
Realistic
350
436
  3
Shaded
350
445
  3
Shaded with edges
350
444
  3
Shades of Gray
350
441
  3
Sketchy
350
442
  3
Thicken
350
43A
  3
Wireframe
350
433
  3
X-Ray
350
443
  0
DICTIONARY
  5
4D7
102
{ACAD_REACTORS
330
5
102
}
330
5
100
AcDbDictionary
281
     1
  3
COLORDICT
350
4D8
  3
MATERIALDICT
350
4D9
  0
DICTIONARY
  5
428
102
{ACAD_REACTORS
330
5
102
}
330
5
100
AcDbDictionary
281
     1
  3
CANNOSCALE
350
429
  3
CMLEADERSTYLE
350
448
  3
CTABLESTYLE
350
4D4
  3
DIMASSOC
350
4D5
  3
HIDETEXT
350
4D6
  3
MSLTSCALE
350
4DD
  0
XRECORD
  5
4DA
102
{ACAD_REACTORS
330
5
102
}
330
5
100
AcDbXrecord
280
     1
  1
DWGPROPS COOKIE
  2

  3

  4

  6

  7

  8
sg-d04
  9

300
=
301
=
302
=
303
=
304
=
305
=
306
=
307
=
308
=
309
=
 40
0.0
 41
2449812.756805555
 42
2457871.45256941
  1

 90
        0
  0
XRECORD
  5
4DC
102
{ACAD_REACTORS
330
4DB
102
}
330
4DB
100
AcDbXrecord
280
     1
102
VTR_0.000_0.000_1.000_1.000_VISUALSTYLE
340
432
102
VTR_0.000_0.000_1.000_1.000_GRIDDISPLAY
 70
     3
102
VTR_0.000_0.000_1.000_1.000_GRIDMAJOR
 70
     5
102
VTR_0.000_0.000_1.000_1.000_DEFAULTLIGHTING
280
     1
102
VTR_0.000_0.000_1.000_1.000_DEFAULTLIGHTINGTYPE
 70
     1
102
VTR_0.000_0.000_1.000_1.000_BRIGHTNESS
141
0.0
102
VTR_0.000_0.000_1.000_1.000_CONTRAST
142
0.0
  0
SORTENTSTABLE
  5
17
102
{ACAD_REACTORS
330
16
102
}
330
16
100
AcDbSortentsTable
330
15
331
0
  5
11F
331
A4
  5
A5
331
A9
  5
AB
331
AA
  5
AC
331
AB
  5
AD
331
AC
  5
AE
331
AD
  5
AF
331
AE
  5
B0
331
AF
  5
B1
331
B0
  5
B2
331
B1
  5
B3
331
B2
  5
B4
331
B3
  5
B5
331
B4
  5
B6
331
B5
  5
B7
331
B6
  5
B8
331
B7
  5
B9
331
B8
  5
BA
331
B9
  5
BB
331
BA
  5
BC
331
BB
  5
BD
331
BC
  5
BE
331
BD
  5
BF
331
BE
  5
C0
331
BF
  5
C1
331
C0
  5
C2
331
C1
  5
C3
331
C2
  5
C4
331
C3
  5
C5
331
C4
  5
C6
331
C5
  5
C7
331
C6
  5
C8
331
C7
  5
C9
331
C8
  5
CA
331
C9
  5
CB
331
CA
  5
CC
331
CB
  5
CD
331
CC
  5
CE
331
CD
  5
CF
331
CE
  5
D0
331
CF
  5
D1
331
D0
  5
D2
331
D2
  5
D4
331
D3
  5
D5
331
D4
  5
D6
331
D5
  5
D7
331
D6
  5
D8
331
D7
  5
D9
331
D8
  5
DA
331
DB
  5
DD
331
DC
  5
DE
331
DD
  5
DF
331
E0
  5
E2
331
E5
  5
E7
331
E6
  5
E8
331
E7
  5
E9
331
E8
  5
EA
331
E9
  5
EB
331
EC
  5
EE
331
F1
  5
F3
331
F2
  5
F4
331
F3
  5
F5
331
F4
  5
F6
331
F5
  5
F7
331
F6
  5
F8
331
F7
  5
F9
331
F8
  5
FA
331
F9
  5
FB
331
FA
  5
FC
331
FB
  5
FD
331
FC
  5
FE
331
FD
  5
FF
331
FE
  5
100
331
109
  5
10B
331
10C
  5
10E
331
10D
  5
10F
331
110
  5
112
331
111
  5
113
331
118
  5
11A
331
11A
  5
11C
331
11B
  5
11D
331
11C
  5
11E
331
11F
  5
121
331
120
  5
122
331
121
  5
123
331
122
  5
124
331
123
  5
125
331
124
  5
126
331
125
  5
127
331
126
  5
128
331
127
  5
129
331
128
  5
12A
331
129
  5
12B
331
12A
  5
12C
331
12B
  5
12D
331
12C
  5
12E
331
12D
  5
12F
331
12E
  5
130
331
12F
  5
131
331
130
  5
132
331
131
  5
133
331
132
  5
134
331
133
  5
135
331
134
  5
136
331
135
  5
138
331
136
  5
139
331
137
  5
13A
331
138
  5
13B
331
13A
  5
13D
331
13B
  5
13E
331
13C
  5
13F
331
13D
  5
140
331
13E
  5
141
331
13F
  5
142
331
140
  5
143
331
141
  5
144
331
142
  5
145
331
143
  5
146
331
144
  5
147
331
145
  5
148
331
146
  5
149
331
147
  5
14A
331
148
  5
14B
331
149
  5
14C
331
14A
  5
14D
331
14B
  5
14E
331
150
  5
153
331
151
  5
154
331
152
  5
155
331
153
  5
156
331
154
  5
157
331
155
  5
158
331
156
  5
159
331
157
  5
15A
331
158
  5
15B
331
159
  5
15C
331
15A
  5
15D
331
15B
  5
15E
331
15C
  5
15F
331
15D
  5
160
331
15E
  5
161
331
15F
  5
162
331
160
  5
163
331
161
  5
164
331
162
  5
165
331
163
  5
166
331
165
  5
169
331
166
  5
16A
331
167
  5
16B
331
168
  5
16C
331
169
  5
16D
331
16A
  5
16E
331
16B
  5
16F
331
16D
  5
172
331
16E
  5
173
331
16F
  5
174
331
170
  5
175
331
171
  5
176
331
172
  5
177
331
173
  5
178
331
174
  5
179
331
175
  5
17A
331
176
  5
17B
331
177
  5
17C
331
178
  5
17D
331
179
  5
17E
331
17A
  5
17F
331
17B
  5
180
331
17C
  5
181
331
17D
  5
182
331
17E
  5
183
331
17F
  5
184
331
180
  5
185
331
181
  5
186
331
182
  5
187
331
183
  5
188
331
184
  5
189
331
185
  5
18A
331
186
  5
18B
331
187
  5
18C
331
188
  5
18D
331
189
  5
18E
331
192
  5
197
331
193
  5
198
331
196
  5
19B
331
197
  5
19C
331
198
  5
19D
331
199
  5
19E
331
19C
  5
1A1
331
1A2
  5
1A7
331
1A3
  5
1A8
331
1A4
  5
1A9
331
1A5
  5
1AA
331
1A6
  5
1AB
331
1A7
  5
1AC
331
1A8
  5
1AD
331
1A9
  5
1AE
331
1AA
  5
1AF
331
1AB
  5
1B0
331
1AC
  5
1B1
331
1AD
  5
1B2
331
1AE
  5
1B3
331
1BA
  5
1BF
331
1BB
  5
1C0
331
1BF
  5
1C4
331
1C0
  5
1C5
331
1C1
  5
1C6
331
1C2
  5
1C7
331
1C3
  5
1C8
331
1C4
  5
1C9
331
1C5
  5
1CA
331
1C6
  5
1CB
331
1C7
  5
1CC
331
1C8
  5
1CD
331
1C9
  5
1CE
331
1CA
  5
1CF
331
1CB
  5
1D0
331
1CC
  5
1D1
331
1CD
  5
1D2
331
1CE
  5
1D3
331
1CF
  5
1D4
331
1D0
  5
1D5
331
1D1
  5
1D6
331
1D2
  5
1D7
331
1D3
  5
1D8
331
1D4
  5
1D9
331
1D5
  5
1DA
331
1D6
  5
1DB
331
1D7
  5
1DC
331
1D8
  5
1DD
331
1D9
  5
1DE
331
1DA
  5
1DF
331
1DB
  5
1E0
331
1DC
  5
1E1
331
1DD
  5
1E2
331
1DE
  5
1E3
331
1DF
  5
1E4
331
1E0
  5
1E5
331
1E1
  5
1E6
331
1E2
  5
1E7
331
1E3
  5
1E8
331
1E4
  5
1E9
331
1E5
  5
1EA
331
1E6
  5
1EB
331
1E7
  5
1EC
331
1E8
  5
1ED
331
1E9
  5
1EE
331
1EA
  5
1EF
331
1EB
  5
1F0
331
1EC
  5
1F1
331
1ED
  5
1F2
331
1EE
  5
1F3
331
1EF
  5
1F4
331
1F0
  5
1F5
331
1F1
  5
1F6
331
1F2
  5
1F7
331
1F3
  5
1F8
331
1F4
  5
1F9
331
1F5
  5
1FA
331
1F6
  5
1FB
331
1F8
  5
1FD
331
1F9
  5
1FE
331
1FA
  5
1FF
331
1FC
  5
201
331
1FD
  5
202
331
1FE
  5
203
331
1FF
  5
204
331
206
  5
20B
331
207
  5
20C
331
208
  5
20D
331
209
  5
20E
331
20A
  5
20F
331
20B
  5
210
331
20C
  5
211
331
20D
  5
212
331
20E
  5
213
331
20F
  5
214
331
210
  5
215
331
211
  5
216
331
212
  5
217
331
213
  5
218
331
214
  5
219
331
215
  5
21A
331
216
  5
21B
331
217
  5
21C
331
218
  5
21D
331
219
  5
21E
331
21A
  5
21F
331
21B
  5
220
331
21C
  5
221
331
21D
  5
222
331
21E
  5
223
331
21F
  5
224
331
220
  5
225
331
221
  5
226
331
222
  5
227
331
223
  5
228
331
224
  5
229
331
226
  5
22B
331
22A
  5
22F
331
22B
  5
230
331
22D
  5
232
331
230
  5
235
331
233
  5
238
331
236
  5
23B
331
237
  5
23C
331
238
  5
23D
331
239
  5
23E
331
23A
  5
23F
331
23B
  5
240
331
23C
  5
241
331
23D
  5
242
331
23E
  5
243
331
23F
  5
244
331
240
  5
245
331
241
  5
246
331
242
  5
247
331
243
  5
248
331
244
  5
249
331
245
  5
24A
331
246
  5
24B
331
247
  5
24C
331
248
  5
24D
331
249
  5
24E
331
24D
  5
252
331
24E
  5
253
331
24F
  5
254
331
250
  5
255
331
3D3
  5
3D8
331
3D4
  5
3D9
331
3D5
  5
3DA
331
3D6
  5
3DB
331
3D7
  5
3DC
331
3D8
  5
3DD
331
3D9
  5
3DE
331
3DA
  5
3DF
331
3DB
  5
3E0
331
3DC
  5
3E1
331
3DD
  5
3E2
331
3DE
  5
3E3
331
3DF
  5
3E4
331
3E0
  5
3E5
331
3E1
  5
3E6
331
3E2
  5
3E7
331
3E3
  5
3E8
331
3E4
  5
3E9
331
3E5
  5
3EA
331
3E6
  5
3EB
331
3E7
  5
3EC
331
3E8
  5
3ED
331
3E9
  5
3EE
331
3EA
  5
3EF
331
3EB
  5
3F0
331
3EC
  5
3F1
331
3ED
  5
3F2
331
3EE
  5
3F3
331
3EF
  5
3F4
331
3F0
  5
3F5
331
3F1
  5
3F6
331
3F2
  5
3F7
331
3F3
  5
3F8
331
3F4
  5
3F9
331
3F5
  5
3FA
331
3F6
  5
3FB
331
3F7
  5
3FC
331
3F8
  5
3FD
331
3F9
  5
3FE
331
3FA
  5
3FF
331
3FB
  5
400
331
3FC
  5
401
331
3FD
  5
402
331
3FE
  5
403
331
3FF
  5
404
331
400
  5
405
331
401
  5
406
331
402
  5
407
331
403
  5
408
331
404
  5
409
331
405
  5
40A
331
406
  5
40B
331
407
  5
40C
331
408
  5
40D
331
409
  5
40E
331
40A
  5
40F
331
40B
  5
410
331
40C
  5
411
331
40D
  5
412
331
40E
  5
413
331
40F
  5
414
331
410
  5
415
331
411
  5
416
331
412
  5
417
331
413
  5
418
331
414
  5
419
331
415
  5
41A
331
416
  5
41B
331
417
  5
41C
331
418
  5
41D
331
419
  5
41E
331
41A
  5
41F
331
41B
  5
420
331
41C
  5
421
331
41D
  5
422
331
41E
  5
423
331
41F
  5
424
331
420
  5
425
331
421
  5
426
331
422
  5
427
331
423
  5
449
331
424
  5
44A
331
425
  5
44B
331
426
  5
44C
331
427
  5
44D
331
467
  5
168
331
468
  5
171
  0
LAYOUT
  5
1B
102
{ACAD_REACTORS
330
1C
102
}
330
1C
100
AcDbPlotSettings
  1

  2
Bullzip PDF Printer.pc3
  4
A3
  6

 40
0.2
 41
0.0
 42
0.0
 43
0.0
 44
420.2
 45
297.1
 46
25.0
 47
12.0
 48
44.99999995999997
 49
5.0
140
617.9999986475001
141
413.74999904625
142
1.0
143
1.5
 70
 11936
 72
     1
 73
     0
 74
     4
  7
monochrome.ctb
 75
     0
147
0.6666666666666666
148
-44.99999995999997
149
-5.0
100
AcDbLayout
  1
Model
 70
     0
 71
     0
 10
0.0
 20
0.0
 11
12.0
 21
9.0
 12
0.0
 22
0.0
 32
0.0
 14
92.28243040092161
 24
11.62927985284247
 34
0.0
 15
579.1365675974483
 25
508.5210463107562
 35
0.0
146
0.0
 13
0.0
 23
0.0
 33
0.0
 16
1.0
 26
0.0
 36
0.0
 17
0.0
 27
1.0
 37
0.0
 76
     0
330
15
331
2B
1001
ACAD_PSEXT
1000
Bullzip PDF Printer.pc3
1000
Bullzip PDF Printer
1000
BULLZIP
1000
Bullzip PDF Printer 10.1.0.1871
1070
     0
  0
LAYOUT
  5
22
102
{ACAD_REACTORS
330
1C
102
}
330
1C
100
AcDbPlotSettings
  1

  2
SR-LP8300F
  4

  6

 40
0.0
 41
0.0
 42
0.0
 43
0.0
 44
0.0
 45
0.0
 46
0.0
 47
0.0
 48
0.0
 49
0.0
140
0.0
141
0.0
142
1.0
143
1.0
 70
   688
 72
     0
 73
     0
 74
     5
  7
monochrome.ctb
 75
    16
147
1.0
148
0.0
149
0.0
100
AcDbLayout
  1
ﾚｲｱｳﾄ1
 70
     0
 71
     1
 10
0.0
 20
0.0
 11
12.0
 21
9.0
 12
0.0
 22
0.0
 32
0.0
 14
1.000000000000000E+20
 24
1.000000000000000E+20
 34
1.000000000000000E+20
 15
-1.000000000000000E+20
 25
-1.000000000000000E+20
 35
-1.000000000000000E+20
146
0.0
 13
0.0
 23
0.0
 33
0.0
 16
1.0
 26
0.0
 36
0.0
 17
0.0
 27
1.0
 37
0.0
 76
     0
330
1F
  0
MATERIAL
  5
70
102
{ACAD_REACTORS
330
7
102
}
102
{ACAD_XDICTIONARY
360
4E2
102
}
330
7
100
AcDbMaterial
  1
ByBlock
  0
MATERIAL
  5
E
102
{ACAD_REACTORS
330
7
102
}
102
{ACAD_XDICTIONARY
360
4DE
102
}
330
7
100
AcDbMaterial
  1
ByLayer
  0
MATERIAL
  5
6
102
{ACAD_REACTORS
330
7
102
}
102
{ACAD_XDICTIONARY
360
4E0
102
}
330
7
100
AcDbMaterial
  1
Global
  0
MLEADERSTYLE
  5
446
102
{ACAD_REACTORS
330
42B
102
}
102
{ACAD_XDICTIONARY
360
514
102
}
330
42B
100
AcDbMLeaderStyle
170
     2
171
     1
172
     0
 90
        2
 40
0.0
 41
0.0
173
     1
 91
-1056964608
340
B
 92
       -2
290
     1
 42
0.09
291
     1
 43
0.36
  3
Standard
341
0
 44
0.18
300

342
C
174
     1
178
     6
175
     1
176
     0
 93
-1056964608
 45
0.18
292
     0
297
     0
 46
0.18
343
0
 94
-1056964608
 47
1.0
 49
1.0
140
1.0
293
     1
141
0.0
294
     1
177
     0
142
1.0
295
     0
296
     0
143
0.125
1001
ACAD_MLEADERVER
1070
     2
  0
MLINESTYLE
  5
12
102
{ACAD_REACTORS
330
13
102
}
330
13
100
AcDbMlineStyle
  2
STANDARD
 70
     0
  3

 62
     0
 51
90.0
 52
90.0
 71
     2
 49
0.5
 62
   256
  6
BYLAYER
 49
-0.5
 62
   256
  6
BYLAYER
  0
ACDBPLACEHOLDER
  5
3
102
{ACAD_REACTORS
330
4
102
}
330
4
  0
SCALE
  5
4F
102
{ACAD_REACTORS
330
2D
102
}
330
2D
100
AcDbScale
 70
     0
300
1:1
140
1.0
141
1.0
290
     1
  0
SCALE
  5
58
102
{ACAD_REACTORS
330
2D
102
}
330
2D
100
AcDbScale
 70
     0
300
1:40
140
1.0
141
40.0
290
     0
  0
SCALE
  5
59
102
{ACAD_REACTORS
330
2D
102
}
330
2D
100
AcDbScale
 70
     0
300
1:50
140
1.0
141
50.0
290
     0
  0
SCALE
  5
5A
102
{ACAD_REACTORS
330
2D
102
}
330
2D
100
AcDbScale
 70
     0
300
1:100
140
1.0
141
100.0
290
     0
  0
SCALE
  5
5B
102
{ACAD_REACTORS
330
2D
102
}
330
2D
100
AcDbScale
 70
     0
300
2:1
140
2.0
141
1.0
290
     0
  0
SCALE
  5
5C
102
{ACAD_REACTORS
330
2D
102
}
330
2D
100
AcDbScale
 70
     0
300
4:1
140
4.0
141
1.0
290
     0
  0
SCALE
  5
5D
102
{ACAD_REACTORS
330
2D
102
}
330
2D
100
AcDbScale
 70
     0
300
8:1
140
8.0
141
1.0
290
     0
  0
SCALE
  5
5E
102
{ACAD_REACTORS
330
2D
102
}
330
2D
100
AcDbScale
 70
     0
300
10:1
140
10.0
141
1.0
290
     0
  0
SCALE
  5
5F
102
{ACAD_REACTORS
330
2D
102
}
330
2D
100
AcDbScale
 70
     0
300
100:1
140
100.0
141
1.0
290
     0
  0
SCALE
  5
60
102
{ACAD_REACTORS
330
2D
102
}
330
2D
100
AcDbScale
 70
     0
300
1/128" = 1'-0"
140
0.0078125
141
12.0
290
     0
  0
SCALE
  5
61
102
{ACAD_REACTORS
330
2D
102
}
330
2D
100
AcDbScale
 70
     0
300
1/64" = 1'-0"
140
0.015625
141
12.0
290
     0
  0
SCALE
  5
50
102
{ACAD_REACTORS
330
2D
102
}
330
2D
100
AcDbScale
 70
     0
300
1:2
140
1.0
141
2.0
290
     0
  0
SCALE
  5
62
102
{ACAD_REACTORS
330
2D
102
}
330
2D
100
AcDbScale
 70
     0
300
1/32" = 1'-0"
140
0.03125
141
12.0
290
     0
  0
SCALE
  5
63
102
{ACAD_REACTORS
330
2D
102
}
330
2D
100
AcDbScale
 70
     0
300
1/16" = 1'-0"
140
0.0625
141
12.0
290
     0
  0
SCALE
  5
64
102
{ACAD_REACTORS
330
2D
102
}
330
2D
100
AcDbScale
 70
     0
300
3/32" = 1'-0"
140
0.09375
141
12.0
290
     0
  0
SCALE
  5
65
102
{ACAD_REACTORS
330
2D
102
}
330
2D
100
AcDbScale
 70
     0
300
1/8" = 1'-0"
140
0.125
141
12.0
290
     0
  0
SCALE
  5
66
102
{ACAD_REACTORS
330
2D
102
}
330
2D
100
AcDbScale
 70
     0
300
3/16" = 1'-0"
140
0.1875
141
12.0
290
     0
  0
SCALE
  5
67
102
{ACAD_REACTORS
330
2D
102
}
330
2D
100
AcDbScale
 70
     0
300
1/4" = 1'-0"
140
0.25
141
12.0
290
     0
  0
SCALE
  5
68
102
{ACAD_REACTORS
330
2D
102
}
330
2D
100
AcDbScale
 70
     0
300
3/8" = 1'-0"
140
0.375
141
12.0
290
     0
  0
SCALE
  5
69
102
{ACAD_REACTORS
330
2D
102
}
330
2D
100
AcDbScale
 70
     0
300
1/2" = 1'-0"
140
0.5
141
12.0
290
     0
  0
SCALE
  5
6A
102
{ACAD_REACTORS
330
2D
102
}
330
2D
100
AcDbScale
 70
     0
300
3/4" = 1'-0"
140
0.75
141
12.0
290
     0
  0
SCALE
  5
6B
102
{ACAD_REACTORS
330
2D
102
}
330
2D
100
AcDbScale
 70
     0
300
1" = 1'-0"
140
1.0
141
12.0
290
     0
  0
SCALE
  5
51
102
{ACAD_REACTORS
330
2D
102
}
330
2D
100
AcDbScale
 70
     0
300
1:4
140
1.0
141
4.0
290
     0
  0
SCALE
  5
6C
102
{ACAD_REACTORS
330
2D
102
}
330
2D
100
AcDbScale
 70
     0
300
1-1/2" = 1'-0"
140
1.5
141
12.0
290
     0
  0
SCALE
  5
6D
102
{ACAD_REACTORS
330
2D
102
}
330
2D
100
AcDbScale
 70
     0
300
3" = 1'-0"
140
3.0
141
12.0
290
     0
  0
SCALE
  5
6E
102
{ACAD_REACTORS
330
2D
102
}
330
2D
100
AcDbScale
 70
     0
300
6" = 1'-0"
140
6.0
141
12.0
290
     0
  0
SCALE
  5
6F
102
{ACAD_REACTORS
330
2D
102
}
330
2D
100
AcDbScale
 70
     0
300
1'-0" = 1'-0"
140
12.0
141
12.0
290
     0
  0
SCALE
  5
52
102
{ACAD_REACTORS
330
2D
102
}
330
2D
100
AcDbScale
 70
     0
300
1:5
140
1.0
141
5.0
290
     0
  0
SCALE
  5
53
102
{ACAD_REACTORS
330
2D
102
}
330
2D
100
AcDbScale
 70
     0
300
1:8
140
1.0
141
8.0
290
     0
  0
SCALE
  5
54
102
{ACAD_REACTORS
330
2D
102
}
330
2D
100
AcDbScale
 70
     0
300
1:10
140
1.0
141
10.0
290
     0
  0
SCALE
  5
55
102
{ACAD_REACTORS
330
2D
102
}
330
2D
100
AcDbScale
 70
     0
300
1:16
140
1.0
141
16.0
290
     0
  0
SCALE
  5
56
102
{ACAD_REACTORS
330
2D
102
}
330
2D
100
AcDbScale
 70
     0
300
1:20
140
1.0
141
20.0
290
     0
  0
SCALE
  5
57
102
{ACAD_REACTORS
330
2D
102
}
330
2D
100
AcDbScale
 70
     0
300
1:30
140
1.0
141
30.0
290
     0
  0
TABLESTYLE
  5
4D3
102
{ACAD_REACTORS
330
42A
102
}
330
42A
100
AcDbTableStyle
  3
Standard
 70
     0
 71
     0
 40
0.06
 41
0.06
280
     0
281
     0
  7
STANDARD
140
0.18
170
     2
 62
     0
 63
   257
283
     0
274
    -2
284
     1
 64
     0
275
    -2
285
     1
 65
     0
276
    -2
286
     1
 66
     0
277
    -2
287
     1
 67
     0
278
    -2
288
     1
 68
     0
279
    -2
289
     1
 69
     0
  7
STANDARD
140
0.25
170
     5
 62
     0
 63
   257
283
     0
274
    -2
284
     1
 64
     0
275
    -2
285
     1
 65
     0
276
    -2
286
     1
 66
     0
277
    -2
287
     1
 67
     0
278
    -2
288
     1
 68
     0
279
    -2
289
     1
 69
     0
  7
STANDARD
140
0.18
170
     5
 62
     0
 63
   257
283
     0
274
    -2
284
     1
 64
     0
275
    -2
285
     1
 65
     0
276
    -2
286
     1
 66
     0
277
    -2
287
     1
 67
     0
278
    -2
288
     1
 68
     0
279
    -2
289
     1
 69
     0
  0
VISUALSTYLE
  5
432
102
{ACAD_REACTORS
330
29
102
}
102
{ACAD_XDICTIONARY
360
4EC
102
}
330
29
100
AcDbVisualStyle
  2
2dWireframe
 70
     4
 71
     0
 72
     2
 73
     0
 90
        0
 40
0.6
 41
30.0
 62
     5
 63
     7
 74
     1
 91
        4
 64
     7
 65
   257
 75
     1
175
     1
 42
1.0
 92
        0
 66
   257
 43
1.0
 76
     1
 77
     6
 78
     2
 67
     7
 79
     5
170
     0
171
     0
290
     0
174
     0
 93
        1
 44
0.0
173
     0
291
     0
 45
0.0
1001
ACAD
1000
AcDbSavedByObjectVersion
1070
     0
  0
VISUALSTYLE
  5
435
102
{ACAD_REACTORS
330
29
102
}
102
{ACAD_XDICTIONARY
360
4F2
102
}
330
29
100
AcDbVisualStyle
  2
Basic
 70
     7
 71
     1
 72
     0
 73
     1
 90
        0
 40
0.6
 41
30.0
 62
     5
 63
     7
 74
     0
 91
        4
 64
     7
 65
   257
 75
     1
175
     1
 42
1.0
 92
        8
 66
     7
 43
1.0
 76
     1
 77
     6
 78
     2
 67
     7
 79
     5
170
     0
171
     0
290
     0
174
     0
 93
        1
 44
0.0
173
     0
291
     1
 45
0.0
1001
ACAD
1000
AcDbSavedByObjectVersion
1070
     0
  0
VISUALSTYLE
  5
439
102
{ACAD_REACTORS
330
29
102
}
102
{ACAD_XDICTIONARY
360
4FA
102
}
330
29
100
AcDbVisualStyle
  2
Brighten
 70
    12
 71
     2
 72
     2
 73
     0
 90
        0
 40
0.6
 41
30.0
 62
     5
 63
     7
 74
     1
 91
        4
 64
     7
 65
   257
 75
     1
175
     1
 42
1.0
 92
        8
 66
     7
 43
1.0
 76
     1
 77
     6
 78
     2
 67
     7
 79
     5
170
     0
171
     0
290
     0
174
     0
 93
        1
 44
50.0
173
     0
291
     1
 45
0.0
1001
ACAD
1000
AcDbSavedByObjectVersion
1070
     0
  0
VISUALSTYLE
  5
43D
102
{ACAD_REACTORS
330
29
102
}
102
{ACAD_XDICTIONARY
360
502
102
}
330
29
100
AcDbVisualStyle
  2
ColorChange
 70
    16
 71
     2
 72
     2
 73
     3
 90
        0
 40
0.6
 41
30.0
 62
     5
 63
     8
 74
     1
 91
        4
 64
     7
 65
   257
 75
     1
175
     1
 42
1.0
 92
        8
 66
     8
 43
1.0
 76
     1
 77
     6
 78
     2
 67
     7
 79
     5
170
     0
171
     0
290
     0
174
     0
 93
        1
 44
0.0
173
     0
291
     1
 45
0.0
1001
ACAD
1000
AcDbSavedByObjectVersion
1070
     0
  0
VISUALSTYLE
  5
437
102
{ACAD_REACTORS
330
29
102
}
102
{ACAD_XDICTIONARY
360
4F6
102
}
330
29
100
AcDbVisualStyle
  2
Conceptual
 70
     9
 71
     3
 72
     2
 73
     0
 90
        0
 40
0.6
 41
30.0
 62
     5
 63
     7
 74
     2
 91
        2
 64
     7
 65
   257
 75
     1
175
     1
 42
40.0
 92
        8
 66
     7
 43
1.0
 76
     1
 77
     6
 78
     2
 67
     7
 79
     3
170
     0
171
     0
290
     0
174
     0
 93
        1
 44
0.0
173
     0
291
     0
 45
0.0
1001
ACAD
1000
AcDbSavedByObjectVersion
1070
     0
  0
VISUALSTYLE
  5
438
102
{ACAD_REACTORS
330
29
102
}
102
{ACAD_XDICTIONARY
360
4F8
102
}
330
29
100
AcDbVisualStyle
  2
Dim
 70
    11
 71
     2
 72
     2
 73
     0
 90
        0
 40
0.6
 41
30.0
 62
     5
 63
     7
 74
     1
 91
        4
 64
     7
 65
   257
 75
     1
175
     1
 42
1.0
 92
        8
 66
     7
 43
1.0
 76
     1
 77
     6
 78
     2
 67
     7
 79
     5
170
     0
171
     0
290
     0
174
     0
 93
        1
 44
-50.0
173
     0
291
     1
 45
0.0
1001
ACAD
1000
AcDbSavedByObjectVersion
1070
     0
  0
VISUALSTYLE
  5
440
102
{ACAD_REACTORS
330
29
102
}
102
{ACAD_XDICTIONARY
360
508
102
}
330
29
100
AcDbVisualStyle
  2
EdgeColorOff
 70
    22
 71
     2
 72
     2
 73
     0
 90
        0
 40
0.6
 41
30.0
 62
     5
 63
     7
 74
     1
 91
        4
 64
     7
 65
   257
 75
     1
175
     1
 42
1.0
 92
        8
 66
     7
 43
1.0
 76
     1
 77
     6
 78
     2
 67
     7
 79
     5
170
     0
171
     0
290
     0
174
     0
 93
        1
 44
0.0
173
     0
291
     1
 45
0.0
1001
ACAD
1000
AcDbSavedByObjectVersion
1070
     0
  0
VISUALSTYLE
  5
43C
102
{ACAD_REACTORS
330
29
102
}
102
{ACAD_XDICTIONARY
360
500
102
}
330
29
100
AcDbVisualStyle
  2
Facepattern
 70
    15
 71
     2
 72
     2
 73
     0
 90
        0
 40
0.6
 41
30.0
 62
     5
 63
     7
 74
     1
 91
        4
 64
     7
 65
   257
 75
     1
175
     1
 42
1.0
 92
        8
 66
     7
 43
1.0
 76
     1
 77
     6
 78
     2
 67
     7
 79
     5
170
     0
171
     0
290
     0
174
     0
 93
        1
 44
0.0
173
     0
291
     1
 45
0.0
1001
ACAD
1000
AcDbSavedByObjectVersion
1070
     0
  0
VISUALSTYLE
  5
42E
102
{ACAD_REACTORS
330
29
102
}
102
{ACAD_XDICTIONARY
360
4E4
102
}
330
29
100
AcDbVisualStyle
  2
Flat
 70
     0
 71
     2
 72
     1
 73
     1
 90
        2
 40
0.6
 41
30.0
 62
     5
 63
     7
 74
     0
 91
        4
 64
     7
 65
   257
 75
     1
175
     1
 42
1.0
 92
        8
 66
     7
 43
1.0
 76
     1
 77
     6
 78
     2
 67
     7
 79
     5
170
     0
171
     0
290
     0
174
     0
 93
       13
 44
0.0
173
     0
291
     1
 45
0.0
1001
ACAD
1000
AcDbSavedByObjectVersion
1070
     0
  0
VISUALSTYLE
  5
42F
102
{ACAD_REACTORS
330
29
102
}
102
{ACAD_XDICTIONARY
360
4E6
102
}
330
29
100
AcDbVisualStyle
  2
FlatWithEdges
 70
     1
 71
     2
 72
     1
 73
     1
 90
        2
 40
0.6
 41
30.0
 62
     5
 63
     7
 74
     1
 91
        4
 64
     7
 65
   257
 75
     1
175
     1
 42
1.0
 92
        0
 66
   257
 43
1.0
 76
     1
 77
     6
 78
     2
 67
     7
 79
     5
170
     0
171
     0
290
     0
174
     0
 93
       13
 44
0.0
173
     0
291
     1
 45
0.0
1001
ACAD
1000
AcDbSavedByObjectVersion
1070
     0
  0
VISUALSTYLE
  5
430
102
{ACAD_REACTORS
330
29
102
}
102
{ACAD_XDICTIONARY
360
4E8
102
}
330
29
100
AcDbVisualStyle
  2
Gouraud
 70
     2
 71
     2
 72
     2
 73
     1
 90
        2
 40
0.6
 41
30.0
 62
     5
 63
     7
 74
     0
 91
        4
 64
     7
 65
   257
 75
     1
175
     1
 42
1.0
 92
        0
 66
     7
 43
1.0
 76
     1
 77
     6
 78
     2
 67
     7
 79
     5
170
     0
171
     0
290
     0
174
     0
 93
       13
 44
0.0
173
     0
291
     1
 45
0.0
1001
ACAD
1000
AcDbSavedByObjectVersion
1070
     0
  0
VISUALSTYLE
  5
431
102
{ACAD_REACTORS
330
29
102
}
102
{ACAD_XDICTIONARY
360
4EA
102
}
330
29
100
AcDbVisualStyle
  2
GouraudWithEdges
 70
     3
 71
     2
 72
     2
 73
     1
 90
        2
 40
0.6
 41
30.0
 62
     5
 63
     7
 74
     1
 91
        4
 64
     7
 65
   257
 75
     1
175
     1
 42
1.0
 92
        0
 66
   257
 43
1.0
 76
     1
 77
     6
 78
     2
 67
     7
 79
     5
170
     0
171
     0
290
     0
174
     0
 93
       13
 44
0.0
173
     0
291
     1
 45
0.0
1001
ACAD
1000
AcDbSavedByObjectVersion
1070
     0
  0
VISUALSTYLE
  5
434
102
{ACAD_REACTORS
330
29
102
}
102
{ACAD_XDICTIONARY
360
4F0
102
}
330
29
100
AcDbVisualStyle
  2
Hidden
 70
     6
 71
     1
 72
     2
 73
     2
 90
        0
 40
0.6
 41
30.0
 62
     5
 63
     7
 74
     2
 91
        2
 64
     7
 65
   257
 75
     2
175
     1
 42
40.0
 92
        0
 66
   257
 43
1.0
 76
     1
 77
     6
 78
     2
 67
     7
 79
     3
170
     0
171
     0
290
     0
174
     0
 93
        1
 44
0.0
173
     0
291
     0
 45
0.0
1001
ACAD
1000
AcDbSavedByObjectVersion
1070
     0
  0
VISUALSTYLE
  5
43E
102
{ACAD_REACTORS
330
29
102
}
102
{ACAD_XDICTIONARY
360
504
102
}
330
29
100
AcDbVisualStyle
  2
JitterOff
 70
    20
 71
     2
 72
     2
 73
     0
 90
        0
 40
0.6
 41
30.0
 62
     5
 63
     7
 74
     1
 91
        4
 64
     7
 65
   257
 75
     1
175
     1
 42
1.0
 92
       10
 66
     7
 43
1.0
 76
     1
 77
     6
 78
     2
 67
     7
 79
     5
170
     0
171
     0
290
     0
174
     0
 93
        1
 44
0.0
173
     0
291
     1
 45
0.0
1001
ACAD
1000
AcDbSavedByObjectVersion
1070
     0
  0
VISUALSTYLE
  5
43B
102
{ACAD_REACTORS
330
29
102
}
102
{ACAD_XDICTIONARY
360
4FE
102
}
330
29
100
AcDbVisualStyle
  2
Linepattern
 70
    14
 71
     2
 72
     2
 73
     0
 90
        0
 40
0.6
 41
30.0
 62
     5
 63
     7
 74
     1
 91
        4
 64
     7
 65
   257
 75
     7
175
     7
 42
1.0
 92
        8
 66
     7
 43
1.0
 76
     1
 77
     6
 78
     2
 67
     7
 79
     5
170
     0
171
     0
290
     0
174
     0
 93
        1
 44
0.0
173
     0
291
     1
 45
0.0
1001
ACAD
1000
AcDbSavedByObjectVersion
1070
     0
  0
VISUALSTYLE
  5
43F
102
{ACAD_REACTORS
330
29
102
}
102
{ACAD_XDICTIONARY
360
506
102
}
330
29
100
AcDbVisualStyle
  2
OverhangOff
 70
    21
 71
     2
 72
     2
 73
     0
 90
        0
 40
0.6
 41
30.0
 62
     5
 63
     7
 74
     1
 91
        4
 64
     7
 65
   257
 75
     1
175
     1
 42
1.0
 92
        9
 66
     7
 43
1.0
 76
     1
 77
     6
 78
     2
 67
     7
 79
     5
170
     0
171
     0
290
     0
174
     0
 93
        1
 44
0.0
173
     0
291
     1
 45
0.0
1001
ACAD
1000
AcDbSavedByObjectVersion
1070
     0
  0
VISUALSTYLE
  5
436
102
{ACAD_REACTORS
330
29
102
}
102
{ACAD_XDICTIONARY
360
4F4
102
}
330
29
100
AcDbVisualStyle
  2
Realistic
 70
     8
 71
     2
 72
     3
 73
     0
 90
        2
 40
0.6
 41
30.0
 62
     5
 63
     7
 74
     0
 91
        0
 64
     7
 65
   257
 75
     1
175
     1
 42
1.0
 92
        8
 66
   257
 43
1.0
 76
     1
 77
     6
 78
     2
 67
     7
 79
     3
170
     0
171
     0
290
     0
174
     0
 93
       13
 44
0.0
173
     0
291
     0
 45
0.0
1001
ACAD
1000
AcDbSavedByObjectVersion
1070
     0
  0
VISUALSTYLE
  5
445
102
{ACAD_REACTORS
330
29
102
}
102
{ACAD_XDICTIONARY
360
512
102
}
330
29
100
AcDbVisualStyle
  2
Shaded
 70
    27
 71
     2
 72
     2
 73
     1
 90
        2
 40
0.6
 41
30.0
 62
     5
 63
     7
 74
     0
 91
        4
 64
     7
 65
   257
 75
     1
175
     1
 42
1.0
 92
        8
 66
   257
 43
1.0
 76
     1
 77
     6
 78
     2
 67
   251
 79
     3
170
     0
171
     0
290
     0
174
     0
 93
        5
 44
0.0
173
     0
291
     0
 45
0.0
1001
ACAD
1000
AcDbSavedByObjectVersion
1070
     0
  0
VISUALSTYLE
  5
444
102
{ACAD_REACTORS
330
29
102
}
102
{ACAD_XDICTIONARY
360
510
102
}
330
29
100
AcDbVisualStyle
  2
Shaded with edges
 70
    26
 71
     2
 72
     2
 73
     1
 90
        2
 40
0.6
 41
30.0
 62
     5
 63
     7
 74
     1
 91
       10
 64
     7
 65
   257
 75
     2
175
     1
 42
1.0
 92
        8
 66
   257
 43
1.0
 76
     1
 77
     6
 78
     2
 67
     7
 79
     3
170
     0
171
     0
290
     0
174
     0
 93
        5
 44
0.0
173
     0
291
     0
 45
0.0
1001
ACAD
1000
AcDbSavedByObjectVersion
1070
     0
  0
VISUALSTYLE
  5
441
102
{ACAD_REACTORS
330
29
102
}
102
{ACAD_XDICTIONARY
360
50A
102
}
330
29
100
AcDbVisualStyle
  2
Shades of Gray
 70
    23
 71
     2
 72
     2
 73
     3
 90
        0
 40
0.6
 41
30.0
 62
     5
 63
     7
 74
     2
 91
        2
 64
     7
 65
     7
 75
     1
175
     1
 42
40.0
 92
        8
 66
     7
 43
1.0
 76
     1
 77
     6
 78
     2
 67
     7
 79
     3
170
     0
171
     0
290
     0
174
     0
 93
        1
 44
0.0
173
     0
291
     0
 45
0.0
1001
ACAD
1000
AcDbSavedByObjectVersion
1070
     0
  0
VISUALSTYLE
  5
442
102
{ACAD_REACTORS
330
29
102
}
102
{ACAD_XDICTIONARY
360
50C
102
}
330
29
100
AcDbVisualStyle
  2
Sketchy
 70
    24
 71
     1
 72
     2
 73
     2
 90
        0
 40
0.6
 41
30.0
 62
     5
 63
     7
 74
     2
 91
        2
 64
     7
 65
     7
 75
     1
175
     1
 42
40.0
 92
       11
 66
     7
 43
1.0
 76
     1
 77
     6
 78
     2
 67
     7
 79
     6
170
     0
171
     0
290
     0
174
     0
 93
        1
 44
0.0
173
     0
291
     0
 45
0.0
1001
ACAD
1000
AcDbSavedByObjectVersion
1070
     0
  0
VISUALSTYLE
  5
43A
102
{ACAD_REACTORS
330
29
102
}
102
{ACAD_XDICTIONARY
360
4FC
102
}
330
29
100
AcDbVisualStyle
  2
Thicken
 70
    13
 71
     2
 72
     2
 73
     0
 90
        0
 40
0.6
 41
30.0
 62
     5
 63
     7
 74
     1
 91
        4
 64
     7
 65
   257
 75
     1
175
     1
 42
1.0
 92
       12
 66
     7
 43
1.0
 76
     1
 77
     6
 78
     2
 67
     7
 79
     5
170
     0
171
     0
290
     0
174
     0
 93
        1
 44
0.0
173
     0
291
     1
 45
0.0
1001
ACAD
1000
AcDbSavedByObjectVersion
1070
     0
  0
VISUALSTYLE
  5
433
102
{ACAD_REACTORS
330
29
102
}
102
{ACAD_XDICTIONARY
360
4EE
102
}
330
29
100
AcDbVisualStyle
  2
Wireframe
 70
     5
 71
     0
 72
     2
 73
     0
 90
        0
 40
0.6
 41
30.0
 62
     5
 63
     7
 74
     1
 91
        4
 64
     7
 65
   257
 75
     1
175
     1
 42
1.0
 92
        0
 66
   257
 43
1.0
 76
     1
 77
     6
 78
     2
 67
     7
 79
     5
170
     0
171
     0
290
     0
174
     0
 93
        1
 44
0.0
173
     0
291
     0
 45
0.0
1001
ACAD
1000
AcDbSavedByObjectVersion
1070
     0
  0
VISUALSTYLE
  5
443
102
{ACAD_REACTORS
330
29
102
}
102
{ACAD_XDICTIONARY
360
50E
102
}
330
29
100
AcDbVisualStyle
  2
X-Ray
 70
    25
 71
     2
 72
     2
 73
     1
 90
        1
 40
0.5
 41
30.0
 62
     5
 63
     7
 74
     1
 91
        0
 64
     7
 65
   257
 75
     1
175
     1
 42
1.0
 92
        8
 66
     7
 43
1.0
 76
     1
 77
     6
 78
     2
 67
     7
 79
     3
170
     0
171
     0
290
     0
174
     0
 93
       13
 44
0.0
173
     0
291
     0
 45
0.0
1001
ACAD
1000
AcDbSavedByObjectVersion
1070
     0
  0
XRECORD
  5
4D8
102
{ACAD_REACTORS
330
4D7
102
}
330
4D7
100
AcDbXrecord
280
     1
340
28
  0
XRECORD
  5
4D9
102
{ACAD_REACTORS
330
4D7
102
}
330
4D7
100
AcDbXrecord
280
     1
340
7
  0
DICTIONARYVAR
  5
429
102
{ACAD_REACTORS
330
428
102
}
330
428
100
DictionaryVariables
280
     0
  1
1:1
  0
DICTIONARYVAR
  5
448
102
{ACAD_REACTORS
330
428
102
}
330
428
100
DictionaryVariables
280
     0
  1
Standard
  0
DICTIONARYVAR
  5
4D4
102
{ACAD_REACTORS
330
428
102
}
330
428
100
DictionaryVariables
280
     0
  1
Standard
  0
DICTIONARYVAR
  5
4D5
102
{ACAD_REACTORS
330
428
102
}
330
428
100
DictionaryVariables
280
     0
  1
0
  0
DICTIONARYVAR
  5
4D6
102
{ACAD_REACTORS
330
428
102
}
330
428
100
DictionaryVariables
280
     0
  1
1
  0
DICTIONARYVAR
  5
4DD
102
{ACAD_REACTORS
330
428
102
}
330
428
100
DictionaryVariables
280
     0
  1
1
  0
DICTIONARY
  5
4E2
330
70
100
AcDbDictionary
280
     1
281
     1
  3
ACAD_XREC_ROUNDTRIP
360
4E3
  0
DICTIONARY
  5
4DE
330
E
100
AcDbDictionary
280
     1
281
     1
  3
ACAD_XREC_ROUNDTRIP
360
4DF
  0
DICTIONARY
  5
4E0
330
6
100
AcDbDictionary
280
     1
281
     1
  3
ACAD_XREC_ROUNDTRIP
360
4E1
  0
DICTIONARY
  5
514
330
446
100
AcDbDictionary
280
     1
281
     1
  3
ACAD_XREC_ROUNDTRIP
360
515
  0
DICTIONARY
  5
4EC
330
432
100
AcDbDictionary
280
     1
281
     1
  3
ACAD_XREC_ROUNDTRIP
360
4ED
  0
DICTIONARY
  5
4F2
330
435
100
AcDbDictionary
280
     1
281
     1
  3
ACAD_XREC_ROUNDTRIP
360
4F3
  0
DICTIONARY
  5
4FA
330
439
100
AcDbDictionary
280
     1
281
     1
  3
ACAD_XREC_ROUNDTRIP
360
4FB
  0
DICTIONARY
  5
502
330
43D
100
AcDbDictionary
280
     1
281
     1
  3
ACAD_XREC_ROUNDTRIP
360
503
  0
DICTIONARY
  5
4F6
330
437
100
AcDbDictionary
280
     1
281
     1
  3
ACAD_XREC_ROUNDTRIP
360
4F7
  0
DICTIONARY
  5
4F8
330
438
100
AcDbDictionary
280
     1
281
     1
  3
ACAD_XREC_ROUNDTRIP
360
4F9
  0
DICTIONARY
  5
508
330
440
100
AcDbDictionary
280
     1
281
     1
  3
ACAD_XREC_ROUNDTRIP
360
509
  0
DICTIONARY
  5
500
330
43C
100
AcDbDictionary
280
     1
281
     1
  3
ACAD_XREC_ROUNDTRIP
360
501
  0
DICTIONARY
  5
4E4
330
42E
100
AcDbDictionary
280
     1
281
     1
  3
ACAD_XREC_ROUNDTRIP
360
4E5
  0
DICTIONARY
  5
4E6
330
42F
100
AcDbDictionary
280
     1
281
     1
  3
ACAD_XREC_ROUNDTRIP
360
4E7
  0
DICTIONARY
  5
4E8
330
430
100
AcDbDictionary
280
     1
281
     1
  3
ACAD_XREC_ROUNDTRIP
360
4E9
  0
DICTIONARY
  5
4EA
330
431
100
AcDbDictionary
280
     1
281
     1
  3
ACAD_XREC_ROUNDTRIP
360
4EB
  0
DICTIONARY
  5
4F0
330
434
100
AcDbDictionary
280
     1
281
     1
  3
ACAD_XREC_ROUNDTRIP
360
4F1
  0
DICTIONARY
  5
504
330
43E
100
AcDbDictionary
280
     1
281
     1
  3
ACAD_XREC_ROUNDTRIP
360
505
  0
DICTIONARY
  5
4FE
330
43B
100
AcDbDictionary
280
     1
281
     1
  3
ACAD_XREC_ROUNDTRIP
360
4FF
  0
DICTIONARY
  5
506
330
43F
100
AcDbDictionary
280
     1
281
     1
  3
ACAD_XREC_ROUNDTRIP
360
507
  0
DICTIONARY
  5
4F4
330
436
100
AcDbDictionary
280
     1
281
     1
  3
ACAD_XREC_ROUNDTRIP
360
4F5
  0
DICTIONARY
  5
512
330
445
100
AcDbDictionary
280
     1
281
     1
  3
ACAD_XREC_ROUNDTRIP
360
513
  0
DICTIONARY
  5
510
330
444
100
AcDbDictionary
280
     1
281
     1
  3
ACAD_XREC_ROUNDTRIP
360
511
  0
DICTIONARY
  5
50A
330
441
100
AcDbDictionary
280
     1
281
     1
  3
ACAD_XREC_ROUNDTRIP
360
50B
  0
DICTIONARY
  5
50C
330
442
100
AcDbDictionary
280
     1
281
     1
  3
ACAD_XREC_ROUNDTRIP
360
50D
  0
DICTIONARY
  5
4FC
330
43A
100
AcDbDictionary
280
     1
281
     1
  3
ACAD_XREC_ROUNDTRIP
360
4FD
  0
DICTIONARY
  5
4EE
330
433
100
AcDbDictionary
280
     1
281
     1
  3
ACAD_XREC_ROUNDTRIP
360
4EF
  0
DICTIONARY
  5
50E
330
443
100
AcDbDictionary
280
     1
281
     1
  3
ACAD_XREC_ROUNDTRIP
360
50F
  0
XRECORD
  5
4E3
102
{ACAD_REACTORS
330
4E2
102
}
330
4E2
100
AcDbXrecord
280
     1
102
MATERIAL
148
0.0
149
0.0
149
0.0
 93
        0
 94
      127
282
     0
 72
     1
 77
     1
171
     1
175
     1
179
     1
273
     0
  0
XRECORD
  5
4DF
102
{ACAD_REACTORS
330
4DE
102
}
330
4DE
100
AcDbXrecord
280
     1
102
MATERIAL
148
0.0
149
0.0
149
0.0
 93
        0
 94
      127
282
     0
 72
     1
 77
     1
171
     1
175
     1
179
     1
273
     0
  0
XRECORD
  5
4E1
102
{ACAD_REACTORS
330
4E0
102
}
330
4E0
100
AcDbXrecord
280
     1
102
MATERIAL
148
0.0
149
0.0
149
0.0
 93
        0
 94
      127
282
     0
 72
     1
 77
     1
171
     1
175
     1
179
     1
273
     0
  0
XRECORD
  5
515
102
{ACAD_REACTORS
330
514
102
}
330
514
100
AcDbXrecord
280
     1
102
ACAD_ROUNDTRIP_2010_MLEADER_STYLE
  0
XRECORD
  5
4ED
102
{ACAD_REACTORS
330
4EC
102
}
330
4EC
100
AcDbXrecord
280
     1
102
RTVSPropertyOp0
 70
     1
102
RTVSPropertyOp1
 70
     1
102
RTVSPropertyOp2
 70
     1
102
RTVSPropertyOp3
 70
     1
102
RTVSPropertyOp4
 70
     1
102
RTVSPropertyOp5
 70
     1
102
RTVSPropertyOp6
 70
     1
102
RTVSPropertyOp7
 70
     1
102
RTVSPropertyOp8
 70
     1
102
RTVSPropertyOp9
 70
     1
102
RTVSPropertyOp10
 70
     1
102
RTVSPropertyOp11
 70
     1
102
RTVSPropertyOp12
 70
     1
102
RTVSPropertyOp13
 70
     1
102
RTVSPropertyOp14
 70
     1
102
RTVSPropertyOp15
 70
     1
102
RTVSPropertyOp16
 70
     1
102
RTVSPropertyOp17
 70
     1
102
RTVSPropertyOp18
 70
     1
102
RTVSPropertyOp19
 70
     1
102
RTVSPropertyOp20
 70
     1
102
RTVSPropertyOp21
 70
     1
102
RTVSPropertyOp22
 70
     1
102
RTVSPropertyOp23
 70
     1
102
RTVSPropertyOp24
 70
     1
102
RTVSPropertyOp25
 70
     1
102
RTVSPropertyOp26
 70
     1
102
RTVSPropertyOp27
 70
     1
102
RTVSPropertyOp28
 70
     1
102
RTVSPropertyOp29
 70
     1
102
RTVSPropertyOp30
 70
     1
102
RTVSPropertyOp31
 70
     1
102
RTVSPropertyOp32
 70
     1
102
RTVSPropertyOp33
 70
     1
102
RTVSPropertyOp34
 70
     1
102
RTVSPropertyOp35
 70
     1
102
RTVSPropertyOp36
 70
     1
102
RTVSPropertyOp37
 70
     1
102
RTVSPropertyOp38
 70
     1
102
RTVSPropertyOp39
 70
     1
102
RTVSPropertyOp40
 70
     1
102
RTVSPropertyOp41
 70
     1
102
RTVSPropertyOp42
 70
     1
102
RTVSPropertyOp43
 70
     1
102
RTVSPropertyOp44
 70
     1
102
RTVSPropertyOp45
 70
     1
102
RTVSPropertyOp46
 70
     1
102
RTVSPropertyOp47
 70
     1
102
RTVSPropertyOp48
 70
     1
102
RTVSPropertyOp49
 70
     1
102
RTVSPropertyOp50
 70
     1
102
RTVSPropertyOp51
 70
     0
102
RTVSPropertyOp52
 70
     0
102
RTVSPropertyOp53
 70
     1
102
RTVSPropertyOp54
 70
     1
102
RTVSPropertyOp55
 70
     1
102
RTVSPropertyOp56
 70
     1
102
RTVSPropertyOp57
 70
     1
102
RTVSPost2010Prop28
280
     1
102
RTVSPost2010PropOp28
 70
     1
102
RTVSPost2010Prop29
280
     1
102
RTVSPost2010PropOp29
 70
     1
102
RTVSPost2010Prop30
280
     0
102
RTVSPost2010PropOp30
 70
     1
102
RTVSPost2010Prop31
280
     0
102
RTVSPost2010PropOp31
 70
     1
102
RTVSPost2010Prop32
280
     0
102
RTVSPost2010PropOp32
 70
     1
102
RTVSPost2010Prop33
280
     0
102
RTVSPost2010PropOp33
 70
     1
102
RTVSPost2010Prop34
280
     0
102
RTVSPost2010PropOp34
 70
     1
102
RTVSPost2010Prop35
280
     0
102
RTVSPost2010PropOp35
 70
     1
102
RTVSPost2010Prop36
280
     0
102
RTVSPost2010PropOp36
 70
     1
102
RTVSPost2010Prop37
 90
       50
102
RTVSPost2010PropOp37
 70
     1
102
RTVSPost2010Prop38
140
0.0
102
RTVSPost2010PropOp38
 70
     1
102
RTVSPost2010Prop39
140
1.0
102
RTVSPost2010PropOp39
 70
     1
102
RTVSPost2010Prop40
 90
        0
102
RTVSPost2010PropOp40
 70
     1
102
RTVSPost2010Prop41ColorIndex
 90
       18
102
RTVSPost2010Prop41ColorRGB
 90
        0
102
RTVSPost2010PropOp41
 70
     1
102
RTVSPost2010Prop42
 90
       50
102
RTVSPost2010PropOp42
 70
     1
102
RTVSPost2010Prop43
 90
        3
102
RTVSPost2010PropOp43
 70
     1
102
RTVSPost2010Prop44ColorIndex
 90
        5
102
RTVSPost2010Prop44ColorRGB
 90
      255
102
RTVSPost2010PropOp44
 70
     1
102
RTVSPost2010Prop45
280
     0
102
RTVSPost2010PropOp45
 70
     1
102
RTVSPost2010Prop46
 90
       50
102
RTVSPost2010PropOp46
 70
     1
102
RTVSPost2010Prop47
 90
       50
102
RTVSPost2010PropOp47
 70
     1
102
RTVSPost2010Prop48
 90
       50
102
RTVSPost2010PropOp48
 70
     1
102
RTVSPost2010Prop49
280
     0
102
RTVSPost2010PropOp49
 70
     1
102
RTVSPost2010Prop50
 90
       50
102
RTVSPost2010PropOp50
 70
     1
102
RTVSPost2010Prop51ColorIndex
 90
      256
102
RTVSPost2010Prop51ColorRGB
 90
-16777216
102
RTVSPost2010PropOp51
 70
     0
102
RTVSPost2010Prop52
140
1.0
102
RTVSPost2010PropOp52
 70
     0
102
RTVSPost2010Prop53
 90
        2
102
RTVSPost2010PropOp53
 70
     1
102
RTVSPost2010Prop54
  1
strokes_ogs.tif
102
RTVSPost2010PropOp54
 70
     1
102
RTVSPost2010Prop55
280
     0
102
RTVSPost2010PropOp55
 70
     1
102
RTVSPost2010Prop56
140
1.0
102
RTVSPost2010PropOp56
 70
     1
102
RTVSPost2010Prop57
140
1.0
102
RTVSPost2010PropOp57
 70
     1
  0
XRECORD
  5
4F3
102
{ACAD_REACTORS
330
4F2
102
}
330
4F2
100
AcDbXrecord
280
     1
102
RTVSPropertyOp0
 70
     1
102
RTVSPropertyOp1
 70
     1
102
RTVSPropertyOp2
 70
     1
102
RTVSPropertyOp3
 70
     1
102
RTVSPropertyOp4
 70
     1
102
RTVSPropertyOp5
 70
     1
102
RTVSPropertyOp6
 70
     1
102
RTVSPropertyOp7
 70
     1
102
RTVSPropertyOp8
 70
     1
102
RTVSPropertyOp9
 70
     1
102
RTVSPropertyOp10
 70
     1
102
RTVSPropertyOp11
 70
     1
102
RTVSPropertyOp12
 70
     1
102
RTVSPropertyOp13
 70
     1
102
RTVSPropertyOp14
 70
     1
102
RTVSPropertyOp15
 70
     1
102
RTVSPropertyOp16
 70
     1
102
RTVSPropertyOp17
 70
     1
102
RTVSPropertyOp18
 70
     1
102
RTVSPropertyOp19
 70
     1
102
RTVSPropertyOp20
 70
     1
102
RTVSPropertyOp21
 70
     1
102
RTVSPropertyOp22
 70
     1
102
RTVSPropertyOp23
 70
     1
102
RTVSPropertyOp24
 70
     1
102
RTVSPropertyOp25
 70
     1
102
RTVSPropertyOp26
 70
     1
102
RTVSPropertyOp27
 70
     1
102
RTVSPropertyOp28
 70
     1
102
RTVSPropertyOp29
 70
     1
102
RTVSPropertyOp30
 70
     1
102
RTVSPropertyOp31
 70
     1
102
RTVSPropertyOp32
 70
     1
102
RTVSPropertyOp33
 70
     1
102
RTVSPropertyOp34
 70
     1
102
RTVSPropertyOp35
 70
     1
102
RTVSPropertyOp36
 70
     1
102
RTVSPropertyOp37
 70
     1
102
RTVSPropertyOp38
 70
     1
102
RTVSPropertyOp39
 70
     1
102
RTVSPropertyOp40
 70
     1
102
RTVSPropertyOp41
 70
     1
102
RTVSPropertyOp42
 70
     1
102
RTVSPropertyOp43
 70
     1
102
RTVSPropertyOp44
 70
     1
102
RTVSPropertyOp45
 70
     1
102
RTVSPropertyOp46
 70
     1
102
RTVSPropertyOp47
 70
     1
102
RTVSPropertyOp48
 70
     1
102
RTVSPropertyOp49
 70
     1
102
RTVSPropertyOp50
 70
     1
102
RTVSPropertyOp51
 70
     0
102
RTVSPropertyOp52
 70
     0
102
RTVSPropertyOp53
 70
     1
102
RTVSPropertyOp54
 70
     1
102
RTVSPropertyOp55
 70
     1
102
RTVSPropertyOp56
 70
     1
102
RTVSPropertyOp57
 70
     1
102
RTVSPost2010Prop28
280
     0
102
RTVSPost2010PropOp28
 70
     1
102
RTVSPost2010Prop29
280
     1
102
RTVSPost2010PropOp29
 70
     1
102
RTVSPost2010Prop30
280
     1
102
RTVSPost2010PropOp30
 70
     1
102
RTVSPost2010Prop31
280
     0
102
RTVSPost2010PropOp31
 70
     1
102
RTVSPost2010Prop32
280
     0
102
RTVSPost2010PropOp32
 70
     1
102
RTVSPost2010Prop33
280
     0
102
RTVSPost2010PropOp33
 70
     1
102
RTVSPost2010Prop34
280
     0
102
RTVSPost2010PropOp34
 70
     1
102
RTVSPost2010Prop35
280
     0
102
RTVSPost2010PropOp35
 70
     1
102
RTVSPost2010Prop36
280
     0
102
RTVSPost2010PropOp36
 70
     1
102
RTVSPost2010Prop37
 90
       50
102
RTVSPost2010PropOp37
 70
     1
102
RTVSPost2010Prop38
140
0.0
102
RTVSPost2010PropOp38
 70
     1
102
RTVSPost2010Prop39
140
1.0
102
RTVSPost2010PropOp39
 70
     1
102
RTVSPost2010Prop40
 90
        0
102
RTVSPost2010PropOp40
 70
     1
102
RTVSPost2010Prop41ColorIndex
 90
       18
102
RTVSPost2010Prop41ColorRGB
 90
        0
102
RTVSPost2010PropOp41
 70
     1
102
RTVSPost2010Prop42
 90
       50
102
RTVSPost2010PropOp42
 70
     1
102
RTVSPost2010Prop43
 90
        3
102
RTVSPost2010PropOp43
 70
     1
102
RTVSPost2010Prop44ColorIndex
 90
        5
102
RTVSPost2010Prop44ColorRGB
 90
      255
102
RTVSPost2010PropOp44
 70
     1
102
RTVSPost2010Prop45
280
     0
102
RTVSPost2010PropOp45
 70
     1
102
RTVSPost2010Prop46
 90
       50
102
RTVSPost2010PropOp46
 70
     1
102
RTVSPost2010Prop47
 90
       50
102
RTVSPost2010PropOp47
 70
     1
102
RTVSPost2010Prop48
 90
       50
102
RTVSPost2010PropOp48
 70
     1
102
RTVSPost2010Prop49
280
     0
102
RTVSPost2010PropOp49
 70
     1
102
RTVSPost2010Prop50
 90
       50
102
RTVSPost2010PropOp50
 70
     1
102
RTVSPost2010Prop51ColorIndex
 90
      256
102
RTVSPost2010Prop51ColorRGB
 90
-16777216
102
RTVSPost2010PropOp51
 70
     0
102
RTVSPost2010Prop52
140
1.0
102
RTVSPost2010PropOp52
 70
     0
102
RTVSPost2010Prop53
 90
        2
102
RTVSPost2010PropOp53
 70
     1
102
RTVSPost2010Prop54
  1
strokes_ogs.tif
102
RTVSPost2010PropOp54
 70
     1
102
RTVSPost2010Prop55
280
     0
102
RTVSPost2010PropOp55
 70
     1
102
RTVSPost2010Prop56
140
1.0
102
RTVSPost2010PropOp56
 70
     1
102
RTVSPost2010Prop57
140
1.0
102
RTVSPost2010PropOp57
 70
     1
  0
XRECORD
  5
4FB
102
{ACAD_REACTORS
330
4FA
102
}
330
4FA
100
AcDbXrecord
280
     1
102
RTVSPropertyOp0
 70
     1
102
RTVSPropertyOp1
 70
     1
102
RTVSPropertyOp2
 70
     1
102
RTVSPropertyOp3
 70
     1
102
RTVSPropertyOp4
 70
     1
102
RTVSPropertyOp5
 70
     1
102
RTVSPropertyOp6
 70
     1
102
RTVSPropertyOp7
 70
     1
102
RTVSPropertyOp8
 70
     1
102
RTVSPropertyOp9
 70
     1
102
RTVSPropertyOp10
 70
     1
102
RTVSPropertyOp11
 70
     1
102
RTVSPropertyOp12
 70
     1
102
RTVSPropertyOp13
 70
     1
102
RTVSPropertyOp14
 70
     1
102
RTVSPropertyOp15
 70
     1
102
RTVSPropertyOp16
 70
     1
102
RTVSPropertyOp17
 70
     1
102
RTVSPropertyOp18
 70
     1
102
RTVSPropertyOp19
 70
     1
102
RTVSPropertyOp20
 70
     1
102
RTVSPropertyOp21
 70
     1
102
RTVSPropertyOp22
 70
     1
102
RTVSPropertyOp23
 70
     1
102
RTVSPropertyOp24
 70
     1
102
RTVSPropertyOp25
 70
     1
102
RTVSPropertyOp26
 70
     1
102
RTVSPropertyOp27
 70
     1
102
RTVSPropertyOp28
 70
     1
102
RTVSPropertyOp29
 70
     1
102
RTVSPropertyOp30
 70
     1
102
RTVSPropertyOp31
 70
     1
102
RTVSPropertyOp32
 70
     1
102
RTVSPropertyOp33
 70
     1
102
RTVSPropertyOp34
 70
     1
102
RTVSPropertyOp35
 70
     1
102
RTVSPropertyOp36
 70
     1
102
RTVSPropertyOp37
 70
     1
102
RTVSPropertyOp38
 70
     1
102
RTVSPropertyOp39
 70
     1
102
RTVSPropertyOp40
 70
     1
102
RTVSPropertyOp41
 70
     1
102
RTVSPropertyOp42
 70
     1
102
RTVSPropertyOp43
 70
     1
102
RTVSPropertyOp44
 70
     1
102
RTVSPropertyOp45
 70
     1
102
RTVSPropertyOp46
 70
     1
102
RTVSPropertyOp47
 70
     1
102
RTVSPropertyOp48
 70
     1
102
RTVSPropertyOp49
 70
     1
102
RTVSPropertyOp50
 70
     1
102
RTVSPropertyOp51
 70
     0
102
RTVSPropertyOp52
 70
     0
102
RTVSPropertyOp53
 70
     1
102
RTVSPropertyOp54
 70
     1
102
RTVSPropertyOp55
 70
     1
102
RTVSPropertyOp56
 70
     1
102
RTVSPropertyOp57
 70
     1
102
RTVSPost2010Prop28
280
     0
102
RTVSPost2010PropOp28
 70
     1
102
RTVSPost2010Prop29
280
     1
102
RTVSPost2010PropOp29
 70
     1
102
RTVSPost2010Prop30
280
     1
102
RTVSPost2010PropOp30
 70
     1
102
RTVSPost2010Prop31
280
     0
102
RTVSPost2010PropOp31
 70
     1
102
RTVSPost2010Prop32
280
     0
102
RTVSPost2010PropOp32
 70
     1
102
RTVSPost2010Prop33
280
     0
102
RTVSPost2010PropOp33
 70
     1
102
RTVSPost2010Prop34
280
     0
102
RTVSPost2010PropOp34
 70
     1
102
RTVSPost2010Prop35
280
     0
102
RTVSPost2010PropOp35
 70
     1
102
RTVSPost2010Prop36
280
     0
102
RTVSPost2010PropOp36
 70
     1
102
RTVSPost2010Prop37
 90
       50
102
RTVSPost2010PropOp37
 70
     1
102
RTVSPost2010Prop38
140
0.0
102
RTVSPost2010PropOp38
 70
     1
102
RTVSPost2010Prop39
140
1.0
102
RTVSPost2010PropOp39
 70
     1
102
RTVSPost2010Prop40
 90
        0
102
RTVSPost2010PropOp40
 70
     1
102
RTVSPost2010Prop41ColorIndex
 90
       18
102
RTVSPost2010Prop41ColorRGB
 90
        0
102
RTVSPost2010PropOp41
 70
     1
102
RTVSPost2010Prop42
 90
       50
102
RTVSPost2010PropOp42
 70
     1
102
RTVSPost2010Prop43
 90
        3
102
RTVSPost2010PropOp43
 70
     1
102
RTVSPost2010Prop44ColorIndex
 90
        5
102
RTVSPost2010Prop44ColorRGB
 90
      255
102
RTVSPost2010PropOp44
 70
     1
102
RTVSPost2010Prop45
280
     0
102
RTVSPost2010PropOp45
 70
     1
102
RTVSPost2010Prop46
 90
       50
102
RTVSPost2010PropOp46
 70
     1
102
RTVSPost2010Prop47
 90
       50
102
RTVSPost2010PropOp47
 70
     1
102
RTVSPost2010Prop48
 90
       50
102
RTVSPost2010PropOp48
 70
     1
102
RTVSPost2010Prop49
280
     0
102
RTVSPost2010PropOp49
 70
     1
102
RTVSPost2010Prop50
 90
       50
102
RTVSPost2010PropOp50
 70
     1
102
RTVSPost2010Prop51ColorIndex
 90
      256
102
RTVSPost2010Prop51ColorRGB
 90
-16777216
102
RTVSPost2010PropOp51
 70
     0
102
RTVSPost2010Prop52
140
1.0
102
RTVSPost2010PropOp52
 70
     0
102
RTVSPost2010Prop53
 90
        2
102
RTVSPost2010PropOp53
 70
     1
102
RTVSPost2010Prop54
  1
strokes_ogs.tif
102
RTVSPost2010PropOp54
 70
     1
102
RTVSPost2010Prop55
280
     0
102
RTVSPost2010PropOp55
 70
     1
102
RTVSPost2010Prop56
140
1.0
102
RTVSPost2010PropOp56
 70
     1
102
RTVSPost2010Prop57
140
1.0
102
RTVSPost2010PropOp57
 70
     1
  0
XRECORD
  5
503
102
{ACAD_REACTORS
330
502
102
}
330
502
100
AcDbXrecord
280
     1
102
RTVSPropertyOp0
 70
     1
102
RTVSPropertyOp1
 70
     1
102
RTVSPropertyOp2
 70
     1
102
RTVSPropertyOp3
 70
     1
102
RTVSPropertyOp4
 70
     1
102
RTVSPropertyOp5
 70
     1
102
RTVSPropertyOp6
 70
     1
102
RTVSPropertyOp7
 70
     1
102
RTVSPropertyOp8
 70
     1
102
RTVSPropertyOp9
 70
     1
102
RTVSPropertyOp10
 70
     1
102
RTVSPropertyOp11
 70
     1
102
RTVSPropertyOp12
 70
     1
102
RTVSPropertyOp13
 70
     1
102
RTVSPropertyOp14
 70
     1
102
RTVSPropertyOp15
 70
     1
102
RTVSPropertyOp16
 70
     1
102
RTVSPropertyOp17
 70
     1
102
RTVSPropertyOp18
 70
     1
102
RTVSPropertyOp19
 70
     1
102
RTVSPropertyOp20
 70
     1
102
RTVSPropertyOp21
 70
     1
102
RTVSPropertyOp22
 70
     1
102
RTVSPropertyOp23
 70
     1
102
RTVSPropertyOp24
 70
     1
102
RTVSPropertyOp25
 70
     1
102
RTVSPropertyOp26
 70
     1
102
RTVSPropertyOp27
 70
     1
102
RTVSPropertyOp28
 70
     1
102
RTVSPropertyOp29
 70
     1
102
RTVSPropertyOp30
 70
     1
102
RTVSPropertyOp31
 70
     1
102
RTVSPropertyOp32
 70
     1
102
RTVSPropertyOp33
 70
     1
102
RTVSPropertyOp34
 70
     1
102
RTVSPropertyOp35
 70
     1
102
RTVSPropertyOp36
 70
     1
102
RTVSPropertyOp37
 70
     1
102
RTVSPropertyOp38
 70
     1
102
RTVSPropertyOp39
 70
     1
102
RTVSPropertyOp40
 70
     1
102
RTVSPropertyOp41
 70
     1
102
RTVSPropertyOp42
 70
     1
102
RTVSPropertyOp43
 70
     1
102
RTVSPropertyOp44
 70
     1
102
RTVSPropertyOp45
 70
     1
102
RTVSPropertyOp46
 70
     1
102
RTVSPropertyOp47
 70
     1
102
RTVSPropertyOp48
 70
     1
102
RTVSPropertyOp49
 70
     1
102
RTVSPropertyOp50
 70
     1
102
RTVSPropertyOp51
 70
     0
102
RTVSPropertyOp52
 70
     0
102
RTVSPropertyOp53
 70
     1
102
RTVSPropertyOp54
 70
     1
102
RTVSPropertyOp55
 70
     1
102
RTVSPropertyOp56
 70
     1
102
RTVSPropertyOp57
 70
     1
102
RTVSPost2010Prop28
280
     0
102
RTVSPost2010PropOp28
 70
     1
102
RTVSPost2010Prop29
280
     1
102
RTVSPost2010PropOp29
 70
     1
102
RTVSPost2010Prop30
280
     1
102
RTVSPost2010PropOp30
 70
     1
102
RTVSPost2010Prop31
280
     0
102
RTVSPost2010PropOp31
 70
     1
102
RTVSPost2010Prop32
280
     0
102
RTVSPost2010PropOp32
 70
     1
102
RTVSPost2010Prop33
280
     0
102
RTVSPost2010PropOp33
 70
     1
102
RTVSPost2010Prop34
280
     0
102
RTVSPost2010PropOp34
 70
     1
102
RTVSPost2010Prop35
280
     0
102
RTVSPost2010PropOp35
 70
     1
102
RTVSPost2010Prop36
280
     0
102
RTVSPost2010PropOp36
 70
     1
102
RTVSPost2010Prop37
 90
       50
102
RTVSPost2010PropOp37
 70
     1
102
RTVSPost2010Prop38
140
0.0
102
RTVSPost2010PropOp38
 70
     1
102
RTVSPost2010Prop39
140
1.0
102
RTVSPost2010PropOp39
 70
     1
102
RTVSPost2010Prop40
 90
        0
102
RTVSPost2010PropOp40
 70
     1
102
RTVSPost2010Prop41ColorIndex
 90
       18
102
RTVSPost2010Prop41ColorRGB
 90
        0
102
RTVSPost2010PropOp41
 70
     1
102
RTVSPost2010Prop42
 90
       50
102
RTVSPost2010PropOp42
 70
     1
102
RTVSPost2010Prop43
 90
        3
102
RTVSPost2010PropOp43
 70
     1
102
RTVSPost2010Prop44ColorIndex
 90
        5
102
RTVSPost2010Prop44ColorRGB
 90
      255
102
RTVSPost2010PropOp44
 70
     1
102
RTVSPost2010Prop45
280
     0
102
RTVSPost2010PropOp45
 70
     1
102
RTVSPost2010Prop46
 90
       50
102
RTVSPost2010PropOp46
 70
     1
102
RTVSPost2010Prop47
 90
       50
102
RTVSPost2010PropOp47
 70
     1
102
RTVSPost2010Prop48
 90
       50
102
RTVSPost2010PropOp48
 70
     1
102
RTVSPost2010Prop49
280
     0
102
RTVSPost2010PropOp49
 70
     1
102
RTVSPost2010Prop50
 90
       50
102
RTVSPost2010PropOp50
 70
     1
102
RTVSPost2010Prop51ColorIndex
 90
      256
102
RTVSPost2010Prop51ColorRGB
 90
-16777216
102
RTVSPost2010PropOp51
 70
     0
102
RTVSPost2010Prop52
140
1.0
102
RTVSPost2010PropOp52
 70
     0
102
RTVSPost2010Prop53
 90
        2
102
RTVSPost2010PropOp53
 70
     1
102
RTVSPost2010Prop54
  1
strokes_ogs.tif
102
RTVSPost2010PropOp54
 70
     1
102
RTVSPost2010Prop55
280
     0
102
RTVSPost2010PropOp55
 70
     1
102
RTVSPost2010Prop56
140
1.0
102
RTVSPost2010PropOp56
 70
     1
102
RTVSPost2010Prop57
140
1.0
102
RTVSPost2010PropOp57
 70
     1
  0
XRECORD
  5
4F7
102
{ACAD_REACTORS
330
4F6
102
}
330
4F6
100
AcDbXrecord
280
     1
102
RTVSPropertyOp0
 70
     1
102
RTVSPropertyOp1
 70
     1
102
RTVSPropertyOp2
 70
     1
102
RTVSPropertyOp3
 70
     1
102
RTVSPropertyOp4
 70
     1
102
RTVSPropertyOp5
 70
     1
102
RTVSPropertyOp6
 70
     1
102
RTVSPropertyOp7
 70
     1
102
RTVSPropertyOp8
 70
     1
102
RTVSPropertyOp9
 70
     1
102
RTVSPropertyOp10
 70
     1
102
RTVSPropertyOp11
 70
     1
102
RTVSPropertyOp12
 70
     1
102
RTVSPropertyOp13
 70
     1
102
RTVSPropertyOp14
 70
     1
102
RTVSPropertyOp15
 70
     1
102
RTVSPropertyOp16
 70
     1
102
RTVSPropertyOp17
 70
     1
102
RTVSPropertyOp18
 70
     1
102
RTVSPropertyOp19
 70
     1
102
RTVSPropertyOp20
 70
     1
102
RTVSPropertyOp21
 70
     1
102
RTVSPropertyOp22
 70
     1
102
RTVSPropertyOp23
 70
     1
102
RTVSPropertyOp24
 70
     1
102
RTVSPropertyOp25
 70
     1
102
RTVSPropertyOp26
 70
     1
102
RTVSPropertyOp27
 70
     1
102
RTVSPropertyOp28
 70
     1
102
RTVSPropertyOp29
 70
     1
102
RTVSPropertyOp30
 70
     1
102
RTVSPropertyOp31
 70
     1
102
RTVSPropertyOp32
 70
     1
102
RTVSPropertyOp33
 70
     1
102
RTVSPropertyOp34
 70
     1
102
RTVSPropertyOp35
 70
     1
102
RTVSPropertyOp36
 70
     1
102
RTVSPropertyOp37
 70
     1
102
RTVSPropertyOp38
 70
     1
102
RTVSPropertyOp39
 70
     1
102
RTVSPropertyOp40
 70
     1
102
RTVSPropertyOp41
 70
     1
102
RTVSPropertyOp42
 70
     1
102
RTVSPropertyOp43
 70
     1
102
RTVSPropertyOp44
 70
     1
102
RTVSPropertyOp45
 70
     1
102
RTVSPropertyOp46
 70
     1
102
RTVSPropertyOp47
 70
     1
102
RTVSPropertyOp48
 70
     1
102
RTVSPropertyOp49
 70
     1
102
RTVSPropertyOp50
 70
     1
102
RTVSPropertyOp51
 70
     0
102
RTVSPropertyOp52
 70
     0
102
RTVSPropertyOp53
 70
     1
102
RTVSPropertyOp54
 70
     1
102
RTVSPropertyOp55
 70
     1
102
RTVSPropertyOp56
 70
     1
102
RTVSPropertyOp57
 70
     1
102
RTVSPost2010Prop28
280
     0
102
RTVSPost2010PropOp28
 70
     1
102
RTVSPost2010Prop29
280
     1
102
RTVSPost2010PropOp29
 70
     1
102
RTVSPost2010Prop30
280
     1
102
RTVSPost2010PropOp30
 70
     1
102
RTVSPost2010Prop31
280
     0
102
RTVSPost2010PropOp31
 70
     1
102
RTVSPost2010Prop32
280
     0
102
RTVSPost2010PropOp32
 70
     1
102
RTVSPost2010Prop33
280
     0
102
RTVSPost2010PropOp33
 70
     1
102
RTVSPost2010Prop34
280
     0
102
RTVSPost2010PropOp34
 70
     1
102
RTVSPost2010Prop35
280
     0
102
RTVSPost2010PropOp35
 70
     1
102
RTVSPost2010Prop36
280
     0
102
RTVSPost2010PropOp36
 70
     1
102
RTVSPost2010Prop37
 90
       50
102
RTVSPost2010PropOp37
 70
     1
102
RTVSPost2010Prop38
140
0.0
102
RTVSPost2010PropOp38
 70
     1
102
RTVSPost2010Prop39
140
1.0
102
RTVSPost2010PropOp39
 70
     1
102
RTVSPost2010Prop40
 90
        0
102
RTVSPost2010PropOp40
 70
     1
102
RTVSPost2010Prop41ColorIndex
 90
       18
102
RTVSPost2010Prop41ColorRGB
 90
        0
102
RTVSPost2010PropOp41
 70
     1
102
RTVSPost2010Prop42
 90
       50
102
RTVSPost2010PropOp42
 70
     1
102
RTVSPost2010Prop43
 90
        3
102
RTVSPost2010PropOp43
 70
     1
102
RTVSPost2010Prop44ColorIndex
 90
        5
102
RTVSPost2010Prop44ColorRGB
 90
      255
102
RTVSPost2010PropOp44
 70
     1
102
RTVSPost2010Prop45
280
     0
102
RTVSPost2010PropOp45
 70
     1
102
RTVSPost2010Prop46
 90
       50
102
RTVSPost2010PropOp46
 70
     1
102
RTVSPost2010Prop47
 90
       50
102
RTVSPost2010PropOp47
 70
     1
102
RTVSPost2010Prop48
 90
       50
102
RTVSPost2010PropOp48
 70
     1
102
RTVSPost2010Prop49
280
     0
102
RTVSPost2010PropOp49
 70
     1
102
RTVSPost2010Prop50
 90
       50
102
RTVSPost2010PropOp50
 70
     1
102
RTVSPost2010Prop51ColorIndex
 90
      256
102
RTVSPost2010Prop51ColorRGB
 90
-16777216
102
RTVSPost2010PropOp51
 70
     0
102
RTVSPost2010Prop52
140
1.0
102
RTVSPost2010PropOp52
 70
     0
102
RTVSPost2010Prop53
 90
        2
102
RTVSPost2010PropOp53
 70
     1
102
RTVSPost2010Prop54
  1
strokes_ogs.tif
102
RTVSPost2010PropOp54
 70
     1
102
RTVSPost2010Prop55
280
     0
102
RTVSPost2010PropOp55
 70
     1
102
RTVSPost2010Prop56
140
1.0
102
RTVSPost2010PropOp56
 70
     1
102
RTVSPost2010Prop57
140
1.0
102
RTVSPost2010PropOp57
 70
     1
  0
XRECORD
  5
4F9
102
{ACAD_REACTORS
330
4F8
102
}
330
4F8
100
AcDbXrecord
280
     1
102
RTVSPropertyOp0
 70
     1
102
RTVSPropertyOp1
 70
     1
102
RTVSPropertyOp2
 70
     1
102
RTVSPropertyOp3
 70
     1
102
RTVSPropertyOp4
 70
     1
102
RTVSPropertyOp5
 70
     1
102
RTVSPropertyOp6
 70
     1
102
RTVSPropertyOp7
 70
     1
102
RTVSPropertyOp8
 70
     1
102
RTVSPropertyOp9
 70
     1
102
RTVSPropertyOp10
 70
     1
102
RTVSPropertyOp11
 70
     1
102
RTVSPropertyOp12
 70
     1
102
RTVSPropertyOp13
 70
     1
102
RTVSPropertyOp14
 70
     1
102
RTVSPropertyOp15
 70
     1
102
RTVSPropertyOp16
 70
     1
102
RTVSPropertyOp17
 70
     1
102
RTVSPropertyOp18
 70
     1
102
RTVSPropertyOp19
 70
     1
102
RTVSPropertyOp20
 70
     1
102
RTVSPropertyOp21
 70
     1
102
RTVSPropertyOp22
 70
     1
102
RTVSPropertyOp23
 70
     1
102
RTVSPropertyOp24
 70
     1
102
RTVSPropertyOp25
 70
     1
102
RTVSPropertyOp26
 70
     1
102
RTVSPropertyOp27
 70
     1
102
RTVSPropertyOp28
 70
     1
102
RTVSPropertyOp29
 70
     1
102
RTVSPropertyOp30
 70
     1
102
RTVSPropertyOp31
 70
     1
102
RTVSPropertyOp32
 70
     1
102
RTVSPropertyOp33
 70
     1
102
RTVSPropertyOp34
 70
     1
102
RTVSPropertyOp35
 70
     1
102
RTVSPropertyOp36
 70
     1
102
RTVSPropertyOp37
 70
     1
102
RTVSPropertyOp38
 70
     1
102
RTVSPropertyOp39
 70
     1
102
RTVSPropertyOp40
 70
     1
102
RTVSPropertyOp41
 70
     1
102
RTVSPropertyOp42
 70
     1
102
RTVSPropertyOp43
 70
     1
102
RTVSPropertyOp44
 70
     1
102
RTVSPropertyOp45
 70
     1
102
RTVSPropertyOp46
 70
     1
102
RTVSPropertyOp47
 70
     1
102
RTVSPropertyOp48
 70
     1
102
RTVSPropertyOp49
 70
     1
102
RTVSPropertyOp50
 70
     1
102
RTVSPropertyOp51
 70
     0
102
RTVSPropertyOp52
 70
     0
102
RTVSPropertyOp53
 70
     1
102
RTVSPropertyOp54
 70
     1
102
RTVSPropertyOp55
 70
     1
102
RTVSPropertyOp56
 70
     1
102
RTVSPropertyOp57
 70
     1
102
RTVSPost2010Prop28
280
     0
102
RTVSPost2010PropOp28
 70
     1
102
RTVSPost2010Prop29
280
     1
102
RTVSPost2010PropOp29
 70
     1
102
RTVSPost2010Prop30
280
     1
102
RTVSPost2010PropOp30
 70
     1
102
RTVSPost2010Prop31
280
     0
102
RTVSPost2010PropOp31
 70
     1
102
RTVSPost2010Prop32
280
     0
102
RTVSPost2010PropOp32
 70
     1
102
RTVSPost2010Prop33
280
     0
102
RTVSPost2010PropOp33
 70
     1
102
RTVSPost2010Prop34
280
     0
102
RTVSPost2010PropOp34
 70
     1
102
RTVSPost2010Prop35
280
     0
102
RTVSPost2010PropOp35
 70
     1
102
RTVSPost2010Prop36
280
     0
102
RTVSPost2010PropOp36
 70
     1
102
RTVSPost2010Prop37
 90
       50
102
RTVSPost2010PropOp37
 70
     1
102
RTVSPost2010Prop38
140
0.0
102
RTVSPost2010PropOp38
 70
     1
102
RTVSPost2010Prop39
140
1.0
102
RTVSPost2010PropOp39
 70
     1
102
RTVSPost2010Prop40
 90
        0
102
RTVSPost2010PropOp40
 70
     1
102
RTVSPost2010Prop41ColorIndex
 90
       18
102
RTVSPost2010Prop41ColorRGB
 90
        0
102
RTVSPost2010PropOp41
 70
     1
102
RTVSPost2010Prop42
 90
       50
102
RTVSPost2010PropOp42
 70
     1
102
RTVSPost2010Prop43
 90
        3
102
RTVSPost2010PropOp43
 70
     1
102
RTVSPost2010Prop44ColorIndex
 90
        5
102
RTVSPost2010Prop44ColorRGB
 90
      255
102
RTVSPost2010PropOp44
 70
     1
102
RTVSPost2010Prop45
280
     0
102
RTVSPost2010PropOp45
 70
     1
102
RTVSPost2010Prop46
 90
       50
102
RTVSPost2010PropOp46
 70
     1
102
RTVSPost2010Prop47
 90
       50
102
RTVSPost2010PropOp47
 70
     1
102
RTVSPost2010Prop48
 90
       50
102
RTVSPost2010PropOp48
 70
     1
102
RTVSPost2010Prop49
280
     0
102
RTVSPost2010PropOp49
 70
     1
102
RTVSPost2010Prop50
 90
       50
102
RTVSPost2010PropOp50
 70
     1
102
RTVSPost2010Prop51ColorIndex
 90
      256
102
RTVSPost2010Prop51ColorRGB
 90
-16777216
102
RTVSPost2010PropOp51
 70
     0
102
RTVSPost2010Prop52
140
1.0
102
RTVSPost2010PropOp52
 70
     0
102
RTVSPost2010Prop53
 90
        2
102
RTVSPost2010PropOp53
 70
     1
102
RTVSPost2010Prop54
  1
strokes_ogs.tif
102
RTVSPost2010PropOp54
 70
     1
102
RTVSPost2010Prop55
280
     0
102
RTVSPost2010PropOp55
 70
     1
102
RTVSPost2010Prop56
140
1.0
102
RTVSPost2010PropOp56
 70
     1
102
RTVSPost2010Prop57
140
1.0
102
RTVSPost2010PropOp57
 70
     1
  0
XRECORD
  5
509
102
{ACAD_REACTORS
330
508
102
}
330
508
100
AcDbXrecord
280
     1
102
RTVSPropertyOp0
 70
     0
102
RTVSPropertyOp1
 70
     0
102
RTVSPropertyOp2
 70
     0
102
RTVSPropertyOp3
 70
     0
102
RTVSPropertyOp4
 70
     0
102
RTVSPropertyOp5
 70
     0
102
RTVSPropertyOp6
 70
     0
102
RTVSPropertyOp7
 70
     0
102
RTVSPropertyOp8
 70
     0
102
RTVSPropertyOp9
 70
     0
102
RTVSPropertyOp10
 70
     0
102
RTVSPropertyOp11
 70
     0
102
RTVSPropertyOp12
 70
     0
102
RTVSPropertyOp13
 70
     0
102
RTVSPropertyOp14
 70
     0
102
RTVSPropertyOp15
 70
     0
102
RTVSPropertyOp16
 70
     0
102
RTVSPropertyOp17
 70
     0
102
RTVSPropertyOp18
 70
     0
102
RTVSPropertyOp19
 70
     0
102
RTVSPropertyOp20
 70
     0
102
RTVSPropertyOp21
 70
     0
102
RTVSPropertyOp22
 70
     0
102
RTVSPropertyOp23
 70
     0
102
RTVSPropertyOp24
 70
     0
102
RTVSPropertyOp25
 70
     0
102
RTVSPropertyOp26
 70
     0
102
RTVSPropertyOp27
 70
     0
102
RTVSPropertyOp28
 70
     1
102
RTVSPropertyOp29
 70
     1
102
RTVSPropertyOp30
 70
     1
102
RTVSPropertyOp31
 70
     1
102
RTVSPropertyOp32
 70
     1
102
RTVSPropertyOp33
 70
     1
102
RTVSPropertyOp34
 70
     1
102
RTVSPropertyOp35
 70
     1
102
RTVSPropertyOp36
 70
     1
102
RTVSPropertyOp37
 70
     1
102
RTVSPropertyOp38
 70
     1
102
RTVSPropertyOp39
 70
     1
102
RTVSPropertyOp40
 70
     1
102
RTVSPropertyOp41
 70
     1
102
RTVSPropertyOp42
 70
     1
102
RTVSPropertyOp43
 70
     1
102
RTVSPropertyOp44
 70
     1
102
RTVSPropertyOp45
 70
     1
102
RTVSPropertyOp46
 70
     1
102
RTVSPropertyOp47
 70
     1
102
RTVSPropertyOp48
 70
     1
102
RTVSPropertyOp49
 70
     1
102
RTVSPropertyOp50
 70
     1
102
RTVSPropertyOp51
 70
     0
102
RTVSPropertyOp52
 70
     0
102
RTVSPropertyOp53
 70
     1
102
RTVSPropertyOp54
 70
     1
102
RTVSPropertyOp55
 70
     1
102
RTVSPropertyOp56
 70
     1
102
RTVSPropertyOp57
 70
     1
102
RTVSPost2010Prop28
280
     0
102
RTVSPost2010PropOp28
 70
     1
102
RTVSPost2010Prop29
280
     1
102
RTVSPost2010PropOp29
 70
     1
102
RTVSPost2010Prop30
280
     1
102
RTVSPost2010PropOp30
 70
     1
102
RTVSPost2010Prop31
280
     0
102
RTVSPost2010PropOp31
 70
     1
102
RTVSPost2010Prop32
280
     0
102
RTVSPost2010PropOp32
 70
     1
102
RTVSPost2010Prop33
280
     0
102
RTVSPost2010PropOp33
 70
     1
102
RTVSPost2010Prop34
280
     0
102
RTVSPost2010PropOp34
 70
     1
102
RTVSPost2010Prop35
280
     0
102
RTVSPost2010PropOp35
 70
     1
102
RTVSPost2010Prop36
280
     0
102
RTVSPost2010PropOp36
 70
     1
102
RTVSPost2010Prop37
 90
       50
102
RTVSPost2010PropOp37
 70
     1
102
RTVSPost2010Prop38
140
0.0
102
RTVSPost2010PropOp38
 70
     1
102
RTVSPost2010Prop39
140
1.0
102
RTVSPost2010PropOp39
 70
     1
102
RTVSPost2010Prop40
 90
        0
102
RTVSPost2010PropOp40
 70
     1
102
RTVSPost2010Prop41ColorIndex
 90
       18
102
RTVSPost2010Prop41ColorRGB
 90
        0
102
RTVSPost2010PropOp41
 70
     1
102
RTVSPost2010Prop42
 90
       50
102
RTVSPost2010PropOp42
 70
     1
102
RTVSPost2010Prop43
 90
        3
102
RTVSPost2010PropOp43
 70
     1
102
RTVSPost2010Prop44ColorIndex
 90
        5
102
RTVSPost2010Prop44ColorRGB
 90
      255
102
RTVSPost2010PropOp44
 70
     1
102
RTVSPost2010Prop45
280
     0
102
RTVSPost2010PropOp45
 70
     1
102
RTVSPost2010Prop46
 90
       50
102
RTVSPost2010PropOp46
 70
     1
102
RTVSPost2010Prop47
 90
       50
102
RTVSPost2010PropOp47
 70
     1
102
RTVSPost2010Prop48
 90
       50
102
RTVSPost2010PropOp48
 70
     1
102
RTVSPost2010Prop49
280
     0
102
RTVSPost2010PropOp49
 70
     1
102
RTVSPost2010Prop50
 90
       50
102
RTVSPost2010PropOp50
 70
     1
102
RTVSPost2010Prop51ColorIndex
 90
      256
102
RTVSPost2010Prop51ColorRGB
 90
-16777216
102
RTVSPost2010PropOp51
 70
     0
102
RTVSPost2010Prop52
140
1.0
102
RTVSPost2010PropOp52
 70
     0
102
RTVSPost2010Prop53
 90
        2
102
RTVSPost2010PropOp53
 70
     1
102
RTVSPost2010Prop54
  1
strokes_ogs.tif
102
RTVSPost2010PropOp54
 70
     1
102
RTVSPost2010Prop55
280
     0
102
RTVSPost2010PropOp55
 70
     1
102
RTVSPost2010Prop56
140
1.0
102
RTVSPost2010PropOp56
 70
     1
102
RTVSPost2010Prop57
140
1.0
102
RTVSPost2010PropOp57
 70
     1
  0
XRECORD
  5
501
102
{ACAD_REACTORS
330
500
102
}
330
500
100
AcDbXrecord
280
     1
102
RTVSPropertyOp0
 70
     1
102
RTVSPropertyOp1
 70
     1
102
RTVSPropertyOp2
 70
     1
102
RTVSPropertyOp3
 70
     1
102
RTVSPropertyOp4
 70
     1
102
RTVSPropertyOp5
 70
     1
102
RTVSPropertyOp6
 70
     1
102
RTVSPropertyOp7
 70
     1
102
RTVSPropertyOp8
 70
     1
102
RTVSPropertyOp9
 70
     1
102
RTVSPropertyOp10
 70
     1
102
RTVSPropertyOp11
 70
     1
102
RTVSPropertyOp12
 70
     1
102
RTVSPropertyOp13
 70
     1
102
RTVSPropertyOp14
 70
     1
102
RTVSPropertyOp15
 70
     1
102
RTVSPropertyOp16
 70
     1
102
RTVSPropertyOp17
 70
     1
102
RTVSPropertyOp18
 70
     1
102
RTVSPropertyOp19
 70
     1
102
RTVSPropertyOp20
 70
     1
102
RTVSPropertyOp21
 70
     1
102
RTVSPropertyOp22
 70
     1
102
RTVSPropertyOp23
 70
     1
102
RTVSPropertyOp24
 70
     1
102
RTVSPropertyOp25
 70
     1
102
RTVSPropertyOp26
 70
     1
102
RTVSPropertyOp27
 70
     1
102
RTVSPropertyOp28
 70
     1
102
RTVSPropertyOp29
 70
     1
102
RTVSPropertyOp30
 70
     1
102
RTVSPropertyOp31
 70
     1
102
RTVSPropertyOp32
 70
     1
102
RTVSPropertyOp33
 70
     1
102
RTVSPropertyOp34
 70
     1
102
RTVSPropertyOp35
 70
     1
102
RTVSPropertyOp36
 70
     1
102
RTVSPropertyOp37
 70
     1
102
RTVSPropertyOp38
 70
     1
102
RTVSPropertyOp39
 70
     1
102
RTVSPropertyOp40
 70
     1
102
RTVSPropertyOp41
 70
     1
102
RTVSPropertyOp42
 70
     1
102
RTVSPropertyOp43
 70
     1
102
RTVSPropertyOp44
 70
     1
102
RTVSPropertyOp45
 70
     1
102
RTVSPropertyOp46
 70
     1
102
RTVSPropertyOp47
 70
     1
102
RTVSPropertyOp48
 70
     1
102
RTVSPropertyOp49
 70
     1
102
RTVSPropertyOp50
 70
     1
102
RTVSPropertyOp51
 70
     0
102
RTVSPropertyOp52
 70
     0
102
RTVSPropertyOp53
 70
     1
102
RTVSPropertyOp54
 70
     1
102
RTVSPropertyOp55
 70
     1
102
RTVSPropertyOp56
 70
     1
102
RTVSPropertyOp57
 70
     1
102
RTVSPost2010Prop28
280
     0
102
RTVSPost2010PropOp28
 70
     1
102
RTVSPost2010Prop29
280
     1
102
RTVSPost2010PropOp29
 70
     1
102
RTVSPost2010Prop30
280
     1
102
RTVSPost2010PropOp30
 70
     1
102
RTVSPost2010Prop31
280
     0
102
RTVSPost2010PropOp31
 70
     1
102
RTVSPost2010Prop32
280
     0
102
RTVSPost2010PropOp32
 70
     1
102
RTVSPost2010Prop33
280
     0
102
RTVSPost2010PropOp33
 70
     1
102
RTVSPost2010Prop34
280
     0
102
RTVSPost2010PropOp34
 70
     1
102
RTVSPost2010Prop35
280
     0
102
RTVSPost2010PropOp35
 70
     1
102
RTVSPost2010Prop36
280
     0
102
RTVSPost2010PropOp36
 70
     1
102
RTVSPost2010Prop37
 90
       50
102
RTVSPost2010PropOp37
 70
     1
102
RTVSPost2010Prop38
140
0.0
102
RTVSPost2010PropOp38
 70
     1
102
RTVSPost2010Prop39
140
1.0
102
RTVSPost2010PropOp39
 70
     1
102
RTVSPost2010Prop40
 90
        0
102
RTVSPost2010PropOp40
 70
     1
102
RTVSPost2010Prop41ColorIndex
 90
       18
102
RTVSPost2010Prop41ColorRGB
 90
        0
102
RTVSPost2010PropOp41
 70
     1
102
RTVSPost2010Prop42
 90
       50
102
RTVSPost2010PropOp42
 70
     1
102
RTVSPost2010Prop43
 90
        3
102
RTVSPost2010PropOp43
 70
     1
102
RTVSPost2010Prop44ColorIndex
 90
        5
102
RTVSPost2010Prop44ColorRGB
 90
      255
102
RTVSPost2010PropOp44
 70
     1
102
RTVSPost2010Prop45
280
     0
102
RTVSPost2010PropOp45
 70
     1
102
RTVSPost2010Prop46
 90
       50
102
RTVSPost2010PropOp46
 70
     1
102
RTVSPost2010Prop47
 90
       50
102
RTVSPost2010PropOp47
 70
     1
102
RTVSPost2010Prop48
 90
       50
102
RTVSPost2010PropOp48
 70
     1
102
RTVSPost2010Prop49
280
     0
102
RTVSPost2010PropOp49
 70
     1
102
RTVSPost2010Prop50
 90
       50
102
RTVSPost2010PropOp50
 70
     1
102
RTVSPost2010Prop51ColorIndex
 90
      256
102
RTVSPost2010Prop51ColorRGB
 90
-16777216
102
RTVSPost2010PropOp51
 70
     0
102
RTVSPost2010Prop52
140
1.0
102
RTVSPost2010PropOp52
 70
     0
102
RTVSPost2010Prop53
 90
        2
102
RTVSPost2010PropOp53
 70
     1
102
RTVSPost2010Prop54
  1
strokes_ogs.tif
102
RTVSPost2010PropOp54
 70
     1
102
RTVSPost2010Prop55
280
     0
102
RTVSPost2010PropOp55
 70
     1
102
RTVSPost2010Prop56
140
1.0
102
RTVSPost2010PropOp56
 70
     1
102
RTVSPost2010Prop57
140
1.0
102
RTVSPost2010PropOp57
 70
     1
  0
XRECORD
  5
4E5
102
{ACAD_REACTORS
330
4E4
102
}
330
4E4
100
AcDbXrecord
280
     1
102
RTVSPropertyOp0
 70
     1
102
RTVSPropertyOp1
 70
     1
102
RTVSPropertyOp2
 70
     1
102
RTVSPropertyOp3
 70
     1
102
RTVSPropertyOp4
 70
     1
102
RTVSPropertyOp5
 70
     1
102
RTVSPropertyOp6
 70
     1
102
RTVSPropertyOp7
 70
     1
102
RTVSPropertyOp8
 70
     1
102
RTVSPropertyOp9
 70
     1
102
RTVSPropertyOp10
 70
     1
102
RTVSPropertyOp11
 70
     1
102
RTVSPropertyOp12
 70
     1
102
RTVSPropertyOp13
 70
     1
102
RTVSPropertyOp14
 70
     1
102
RTVSPropertyOp15
 70
     1
102
RTVSPropertyOp16
 70
     1
102
RTVSPropertyOp17
 70
     1
102
RTVSPropertyOp18
 70
     1
102
RTVSPropertyOp19
 70
     1
102
RTVSPropertyOp20
 70
     1
102
RTVSPropertyOp21
 70
     1
102
RTVSPropertyOp22
 70
     1
102
RTVSPropertyOp23
 70
     1
102
RTVSPropertyOp24
 70
     1
102
RTVSPropertyOp25
 70
     1
102
RTVSPropertyOp26
 70
     1
102
RTVSPropertyOp27
 70
     1
102
RTVSPropertyOp28
 70
     1
102
RTVSPropertyOp29
 70
     1
102
RTVSPropertyOp30
 70
     1
102
RTVSPropertyOp31
 70
     1
102
RTVSPropertyOp32
 70
     1
102
RTVSPropertyOp33
 70
     1
102
RTVSPropertyOp34
 70
     1
102
RTVSPropertyOp35
 70
     1
102
RTVSPropertyOp36
 70
     1
102
RTVSPropertyOp37
 70
     1
102
RTVSPropertyOp38
 70
     1
102
RTVSPropertyOp39
 70
     1
102
RTVSPropertyOp40
 70
     1
102
RTVSPropertyOp41
 70
     1
102
RTVSPropertyOp42
 70
     1
102
RTVSPropertyOp43
 70
     1
102
RTVSPropertyOp44
 70
     1
102
RTVSPropertyOp45
 70
     1
102
RTVSPropertyOp46
 70
     1
102
RTVSPropertyOp47
 70
     1
102
RTVSPropertyOp48
 70
     1
102
RTVSPropertyOp49
 70
     1
102
RTVSPropertyOp50
 70
     1
102
RTVSPropertyOp51
 70
     0
102
RTVSPropertyOp52
 70
     0
102
RTVSPropertyOp53
 70
     1
102
RTVSPropertyOp54
 70
     1
102
RTVSPropertyOp55
 70
     1
102
RTVSPropertyOp56
 70
     1
102
RTVSPropertyOp57
 70
     1
102
RTVSPost2010Prop28
280
     0
102
RTVSPost2010PropOp28
 70
     1
102
RTVSPost2010Prop29
280
     1
102
RTVSPost2010PropOp29
 70
     1
102
RTVSPost2010Prop30
280
     1
102
RTVSPost2010PropOp30
 70
     1
102
RTVSPost2010Prop31
280
     0
102
RTVSPost2010PropOp31
 70
     1
102
RTVSPost2010Prop32
280
     0
102
RTVSPost2010PropOp32
 70
     1
102
RTVSPost2010Prop33
280
     0
102
RTVSPost2010PropOp33
 70
     1
102
RTVSPost2010Prop34
280
     0
102
RTVSPost2010PropOp34
 70
     1
102
RTVSPost2010Prop35
280
     0
102
RTVSPost2010PropOp35
 70
     1
102
RTVSPost2010Prop36
280
     0
102
RTVSPost2010PropOp36
 70
     1
102
RTVSPost2010Prop37
 90
       50
102
RTVSPost2010PropOp37
 70
     1
102
RTVSPost2010Prop38
140
0.0
102
RTVSPost2010PropOp38
 70
     1
102
RTVSPost2010Prop39
140
1.0
102
RTVSPost2010PropOp39
 70
     1
102
RTVSPost2010Prop40
 90
        0
102
RTVSPost2010PropOp40
 70
     1
102
RTVSPost2010Prop41ColorIndex
 90
       18
102
RTVSPost2010Prop41ColorRGB
 90
        0
102
RTVSPost2010PropOp41
 70
     1
102
RTVSPost2010Prop42
 90
       50
102
RTVSPost2010PropOp42
 70
     1
102
RTVSPost2010Prop43
 90
        3
102
RTVSPost2010PropOp43
 70
     1
102
RTVSPost2010Prop44ColorIndex
 90
        5
102
RTVSPost2010Prop44ColorRGB
 90
      255
102
RTVSPost2010PropOp44
 70
     1
102
RTVSPost2010Prop45
280
     0
102
RTVSPost2010PropOp45
 70
     1
102
RTVSPost2010Prop46
 90
       50
102
RTVSPost2010PropOp46
 70
     1
102
RTVSPost2010Prop47
 90
       50
102
RTVSPost2010PropOp47
 70
     1
102
RTVSPost2010Prop48
 90
       50
102
RTVSPost2010PropOp48
 70
     1
102
RTVSPost2010Prop49
280
     0
102
RTVSPost2010PropOp49
 70
     1
102
RTVSPost2010Prop50
 90
       50
102
RTVSPost2010PropOp50
 70
     1
102
RTVSPost2010Prop51ColorIndex
 90
      256
102
RTVSPost2010Prop51ColorRGB
 90
-16777216
102
RTVSPost2010PropOp51
 70
     0
102
RTVSPost2010Prop52
140
1.0
102
RTVSPost2010PropOp52
 70
     0
102
RTVSPost2010Prop53
 90
        2
102
RTVSPost2010PropOp53
 70
     1
102
RTVSPost2010Prop54
  1
strokes_ogs.tif
102
RTVSPost2010PropOp54
 70
     1
102
RTVSPost2010Prop55
280
     0
102
RTVSPost2010PropOp55
 70
     1
102
RTVSPost2010Prop56
140
1.0
102
RTVSPost2010PropOp56
 70
     1
102
RTVSPost2010Prop57
140
1.0
102
RTVSPost2010PropOp57
 70
     1
  0
XRECORD
  5
4E7
102
{ACAD_REACTORS
330
4E6
102
}
330
4E6
100
AcDbXrecord
280
     1
102
RTVSPropertyOp0
 70
     1
102
RTVSPropertyOp1
 70
     1
102
RTVSPropertyOp2
 70
     1
102
RTVSPropertyOp3
 70
     1
102
RTVSPropertyOp4
 70
     1
102
RTVSPropertyOp5
 70
     1
102
RTVSPropertyOp6
 70
     1
102
RTVSPropertyOp7
 70
     1
102
RTVSPropertyOp8
 70
     1
102
RTVSPropertyOp9
 70
     1
102
RTVSPropertyOp10
 70
     1
102
RTVSPropertyOp11
 70
     1
102
RTVSPropertyOp12
 70
     1
102
RTVSPropertyOp13
 70
     1
102
RTVSPropertyOp14
 70
     1
102
RTVSPropertyOp15
 70
     1
102
RTVSPropertyOp16
 70
     1
102
RTVSPropertyOp17
 70
     1
102
RTVSPropertyOp18
 70
     1
102
RTVSPropertyOp19
 70
     1
102
RTVSPropertyOp20
 70
     1
102
RTVSPropertyOp21
 70
     1
102
RTVSPropertyOp22
 70
     1
102
RTVSPropertyOp23
 70
     1
102
RTVSPropertyOp24
 70
     1
102
RTVSPropertyOp25
 70
     1
102
RTVSPropertyOp26
 70
     1
102
RTVSPropertyOp27
 70
     1
102
RTVSPropertyOp28
 70
     1
102
RTVSPropertyOp29
 70
     1
102
RTVSPropertyOp30
 70
     1
102
RTVSPropertyOp31
 70
     1
102
RTVSPropertyOp32
 70
     1
102
RTVSPropertyOp33
 70
     1
102
RTVSPropertyOp34
 70
     1
102
RTVSPropertyOp35
 70
     1
102
RTVSPropertyOp36
 70
     1
102
RTVSPropertyOp37
 70
     1
102
RTVSPropertyOp38
 70
     1
102
RTVSPropertyOp39
 70
     1
102
RTVSPropertyOp40
 70
     1
102
RTVSPropertyOp41
 70
     1
102
RTVSPropertyOp42
 70
     1
102
RTVSPropertyOp43
 70
     1
102
RTVSPropertyOp44
 70
     1
102
RTVSPropertyOp45
 70
     1
102
RTVSPropertyOp46
 70
     1
102
RTVSPropertyOp47
 70
     1
102
RTVSPropertyOp48
 70
     1
102
RTVSPropertyOp49
 70
     1
102
RTVSPropertyOp50
 70
     1
102
RTVSPropertyOp51
 70
     0
102
RTVSPropertyOp52
 70
     0
102
RTVSPropertyOp53
 70
     1
102
RTVSPropertyOp54
 70
     1
102
RTVSPropertyOp55
 70
     1
102
RTVSPropertyOp56
 70
     1
102
RTVSPropertyOp57
 70
     1
102
RTVSPost2010Prop28
280
     0
102
RTVSPost2010PropOp28
 70
     1
102
RTVSPost2010Prop29
280
     1
102
RTVSPost2010PropOp29
 70
     1
102
RTVSPost2010Prop30
280
     1
102
RTVSPost2010PropOp30
 70
     1
102
RTVSPost2010Prop31
280
     0
102
RTVSPost2010PropOp31
 70
     1
102
RTVSPost2010Prop32
280
     0
102
RTVSPost2010PropOp32
 70
     1
102
RTVSPost2010Prop33
280
     0
102
RTVSPost2010PropOp33
 70
     1
102
RTVSPost2010Prop34
280
     0
102
RTVSPost2010PropOp34
 70
     1
102
RTVSPost2010Prop35
280
     0
102
RTVSPost2010PropOp35
 70
     1
102
RTVSPost2010Prop36
280
     0
102
RTVSPost2010PropOp36
 70
     1
102
RTVSPost2010Prop37
 90
       50
102
RTVSPost2010PropOp37
 70
     1
102
RTVSPost2010Prop38
140
0.0
102
RTVSPost2010PropOp38
 70
     1
102
RTVSPost2010Prop39
140
1.0
102
RTVSPost2010PropOp39
 70
     1
102
RTVSPost2010Prop40
 90
        0
102
RTVSPost2010PropOp40
 70
     1
102
RTVSPost2010Prop41ColorIndex
 90
       18
102
RTVSPost2010Prop41ColorRGB
 90
        0
102
RTVSPost2010PropOp41
 70
     1
102
RTVSPost2010Prop42
 90
       50
102
RTVSPost2010PropOp42
 70
     1
102
RTVSPost2010Prop43
 90
        3
102
RTVSPost2010PropOp43
 70
     1
102
RTVSPost2010Prop44ColorIndex
 90
        5
102
RTVSPost2010Prop44ColorRGB
 90
      255
102
RTVSPost2010PropOp44
 70
     1
102
RTVSPost2010Prop45
280
     0
102
RTVSPost2010PropOp45
 70
     1
102
RTVSPost2010Prop46
 90
       50
102
RTVSPost2010PropOp46
 70
     1
102
RTVSPost2010Prop47
 90
       50
102
RTVSPost2010PropOp47
 70
     1
102
RTVSPost2010Prop48
 90
       50
102
RTVSPost2010PropOp48
 70
     1
102
RTVSPost2010Prop49
280
     0
102
RTVSPost2010PropOp49
 70
     1
102
RTVSPost2010Prop50
 90
       50
102
RTVSPost2010PropOp50
 70
     1
102
RTVSPost2010Prop51ColorIndex
 90
      256
102
RTVSPost2010Prop51ColorRGB
 90
-16777216
102
RTVSPost2010PropOp51
 70
     0
102
RTVSPost2010Prop52
140
1.0
102
RTVSPost2010PropOp52
 70
     0
102
RTVSPost2010Prop53
 90
        2
102
RTVSPost2010PropOp53
 70
     1
102
RTVSPost2010Prop54
  1
strokes_ogs.tif
102
RTVSPost2010PropOp54
 70
     1
102
RTVSPost2010Prop55
280
     0
102
RTVSPost2010PropOp55
 70
     1
102
RTVSPost2010Prop56
140
1.0
102
RTVSPost2010PropOp56
 70
     1
102
RTVSPost2010Prop57
140
1.0
102
RTVSPost2010PropOp57
 70
     1
  0
XRECORD
  5
4E9
102
{ACAD_REACTORS
330
4E8
102
}
330
4E8
100
AcDbXrecord
280
     1
102
RTVSPropertyOp0
 70
     1
102
RTVSPropertyOp1
 70
     1
102
RTVSPropertyOp2
 70
     1
102
RTVSPropertyOp3
 70
     1
102
RTVSPropertyOp4
 70
     1
102
RTVSPropertyOp5
 70
     1
102
RTVSPropertyOp6
 70
     1
102
RTVSPropertyOp7
 70
     1
102
RTVSPropertyOp8
 70
     1
102
RTVSPropertyOp9
 70
     1
102
RTVSPropertyOp10
 70
     1
102
RTVSPropertyOp11
 70
     1
102
RTVSPropertyOp12
 70
     1
102
RTVSPropertyOp13
 70
     1
102
RTVSPropertyOp14
 70
     1
102
RTVSPropertyOp15
 70
     1
102
RTVSPropertyOp16
 70
     1
102
RTVSPropertyOp17
 70
     1
102
RTVSPropertyOp18
 70
     1
102
RTVSPropertyOp19
 70
     1
102
RTVSPropertyOp20
 70
     1
102
RTVSPropertyOp21
 70
     1
102
RTVSPropertyOp22
 70
     1
102
RTVSPropertyOp23
 70
     1
102
RTVSPropertyOp24
 70
     1
102
RTVSPropertyOp25
 70
     1
102
RTVSPropertyOp26
 70
     1
102
RTVSPropertyOp27
 70
     1
102
RTVSPropertyOp28
 70
     1
102
RTVSPropertyOp29
 70
     1
102
RTVSPropertyOp30
 70
     1
102
RTVSPropertyOp31
 70
     1
102
RTVSPropertyOp32
 70
     1
102
RTVSPropertyOp33
 70
     1
102
RTVSPropertyOp34
 70
     1
102
RTVSPropertyOp35
 70
     1
102
RTVSPropertyOp36
 70
     1
102
RTVSPropertyOp37
 70
     1
102
RTVSPropertyOp38
 70
     1
102
RTVSPropertyOp39
 70
     1
102
RTVSPropertyOp40
 70
     1
102
RTVSPropertyOp41
 70
     1
102
RTVSPropertyOp42
 70
     1
102
RTVSPropertyOp43
 70
     1
102
RTVSPropertyOp44
 70
     1
102
RTVSPropertyOp45
 70
     1
102
RTVSPropertyOp46
 70
     1
102
RTVSPropertyOp47
 70
     1
102
RTVSPropertyOp48
 70
     1
102
RTVSPropertyOp49
 70
     1
102
RTVSPropertyOp50
 70
     1
102
RTVSPropertyOp51
 70
     0
102
RTVSPropertyOp52
 70
     0
102
RTVSPropertyOp53
 70
     1
102
RTVSPropertyOp54
 70
     1
102
RTVSPropertyOp55
 70
     1
102
RTVSPropertyOp56
 70
     1
102
RTVSPropertyOp57
 70
     1
102
RTVSPost2010Prop28
280
     0
102
RTVSPost2010PropOp28
 70
     1
102
RTVSPost2010Prop29
280
     1
102
RTVSPost2010PropOp29
 70
     1
102
RTVSPost2010Prop30
280
     1
102
RTVSPost2010PropOp30
 70
     1
102
RTVSPost2010Prop31
280
     0
102
RTVSPost2010PropOp31
 70
     1
102
RTVSPost2010Prop32
280
     0
102
RTVSPost2010PropOp32
 70
     1
102
RTVSPost2010Prop33
280
     0
102
RTVSPost2010PropOp33
 70
     1
102
RTVSPost2010Prop34
280
     0
102
RTVSPost2010PropOp34
 70
     1
102
RTVSPost2010Prop35
280
     0
102
RTVSPost2010PropOp35
 70
     1
102
RTVSPost2010Prop36
280
     0
102
RTVSPost2010PropOp36
 70
     1
102
RTVSPost2010Prop37
 90
       50
102
RTVSPost2010PropOp37
 70
     1
102
RTVSPost2010Prop38
140
0.0
102
RTVSPost2010PropOp38
 70
     1
102
RTVSPost2010Prop39
140
1.0
102
RTVSPost2010PropOp39
 70
     1
102
RTVSPost2010Prop40
 90
        0
102
RTVSPost2010PropOp40
 70
     1
102
RTVSPost2010Prop41ColorIndex
 90
       18
102
RTVSPost2010Prop41ColorRGB
 90
        0
102
RTVSPost2010PropOp41
 70
     1
102
RTVSPost2010Prop42
 90
       50
102
RTVSPost2010PropOp42
 70
     1
102
RTVSPost2010Prop43
 90
        3
102
RTVSPost2010PropOp43
 70
     1
102
RTVSPost2010Prop44ColorIndex
 90
        5
102
RTVSPost2010Prop44ColorRGB
 90
      255
102
RTVSPost2010PropOp44
 70
     1
102
RTVSPost2010Prop45
280
     0
102
RTVSPost2010PropOp45
 70
     1
102
RTVSPost2010Prop46
 90
       50
102
RTVSPost2010PropOp46
 70
     1
102
RTVSPost2010Prop47
 90
       50
102
RTVSPost2010PropOp47
 70
     1
102
RTVSPost2010Prop48
 90
       50
102
RTVSPost2010PropOp48
 70
     1
102
RTVSPost2010Prop49
280
     0
102
RTVSPost2010PropOp49
 70
     1
102
RTVSPost2010Prop50
 90
       50
102
RTVSPost2010PropOp50
 70
     1
102
RTVSPost2010Prop51ColorIndex
 90
      256
102
RTVSPost2010Prop51ColorRGB
 90
-16777216
102
RTVSPost2010PropOp51
 70
     0
102
RTVSPost2010Prop52
140
1.0
102
RTVSPost2010PropOp52
 70
     0
102
RTVSPost2010Prop53
 90
        2
102
RTVSPost2010PropOp53
 70
     1
102
RTVSPost2010Prop54
  1
strokes_ogs.tif
102
RTVSPost2010PropOp54
 70
     1
102
RTVSPost2010Prop55
280
     0
102
RTVSPost2010PropOp55
 70
     1
102
RTVSPost2010Prop56
140
1.0
102
RTVSPost2010PropOp56
 70
     1
102
RTVSPost2010Prop57
140
1.0
102
RTVSPost2010PropOp57
 70
     1
  0
XRECORD
  5
4EB
102
{ACAD_REACTORS
330
4EA
102
}
330
4EA
100
AcDbXrecord
280
     1
102
RTVSPropertyOp0
 70
     1
102
RTVSPropertyOp1
 70
     1
102
RTVSPropertyOp2
 70
     1
102
RTVSPropertyOp3
 70
     1
102
RTVSPropertyOp4
 70
     1
102
RTVSPropertyOp5
 70
     1
102
RTVSPropertyOp6
 70
     1
102
RTVSPropertyOp7
 70
     1
102
RTVSPropertyOp8
 70
     1
102
RTVSPropertyOp9
 70
     1
102
RTVSPropertyOp10
 70
     1
102
RTVSPropertyOp11
 70
     1
102
RTVSPropertyOp12
 70
     1
102
RTVSPropertyOp13
 70
     1
102
RTVSPropertyOp14
 70
     1
102
RTVSPropertyOp15
 70
     1
102
RTVSPropertyOp16
 70
     1
102
RTVSPropertyOp17
 70
     1
102
RTVSPropertyOp18
 70
     1
102
RTVSPropertyOp19
 70
     1
102
RTVSPropertyOp20
 70
     1
102
RTVSPropertyOp21
 70
     1
102
RTVSPropertyOp22
 70
     1
102
RTVSPropertyOp23
 70
     1
102
RTVSPropertyOp24
 70
     1
102
RTVSPropertyOp25
 70
     1
102
RTVSPropertyOp26
 70
     1
102
RTVSPropertyOp27
 70
     1
102
RTVSPropertyOp28
 70
     1
102
RTVSPropertyOp29
 70
     1
102
RTVSPropertyOp30
 70
     1
102
RTVSPropertyOp31
 70
     1
102
RTVSPropertyOp32
 70
     1
102
RTVSPropertyOp33
 70
     1
102
RTVSPropertyOp34
 70
     1
102
RTVSPropertyOp35
 70
     1
102
RTVSPropertyOp36
 70
     1
102
RTVSPropertyOp37
 70
     1
102
RTVSPropertyOp38
 70
     1
102
RTVSPropertyOp39
 70
     1
102
RTVSPropertyOp40
 70
     1
102
RTVSPropertyOp41
 70
     1
102
RTVSPropertyOp42
 70
     1
102
RTVSPropertyOp43
 70
     1
102
RTVSPropertyOp44
 70
     1
102
RTVSPropertyOp45
 70
     1
102
RTVSPropertyOp46
 70
     1
102
RTVSPropertyOp47
 70
     1
102
RTVSPropertyOp48
 70
     1
102
RTVSPropertyOp49
 70
     1
102
RTVSPropertyOp50
 70
     1
102
RTVSPropertyOp51
 70
     0
102
RTVSPropertyOp52
 70
     0
102
RTVSPropertyOp53
 70
     1
102
RTVSPropertyOp54
 70
     1
102
RTVSPropertyOp55
 70
     1
102
RTVSPropertyOp56
 70
     1
102
RTVSPropertyOp57
 70
     1
102
RTVSPost2010Prop28
280
     0
102
RTVSPost2010PropOp28
 70
     1
102
RTVSPost2010Prop29
280
     1
102
RTVSPost2010PropOp29
 70
     1
102
RTVSPost2010Prop30
280
     1
102
RTVSPost2010PropOp30
 70
     1
102
RTVSPost2010Prop31
280
     0
102
RTVSPost2010PropOp31
 70
     1
102
RTVSPost2010Prop32
280
     0
102
RTVSPost2010PropOp32
 70
     1
102
RTVSPost2010Prop33
280
     0
102
RTVSPost2010PropOp33
 70
     1
102
RTVSPost2010Prop34
280
     0
102
RTVSPost2010PropOp34
 70
     1
102
RTVSPost2010Prop35
280
     0
102
RTVSPost2010PropOp35
 70
     1
102
RTVSPost2010Prop36
280
     0
102
RTVSPost2010PropOp36
 70
     1
102
RTVSPost2010Prop37
 90
       50
102
RTVSPost2010PropOp37
 70
     1
102
RTVSPost2010Prop38
140
0.0
102
RTVSPost2010PropOp38
 70
     1
102
RTVSPost2010Prop39
140
1.0
102
RTVSPost2010PropOp39
 70
     1
102
RTVSPost2010Prop40
 90
        0
102
RTVSPost2010PropOp40
 70
     1
102
RTVSPost2010Prop41ColorIndex
 90
       18
102
RTVSPost2010Prop41ColorRGB
 90
        0
102
RTVSPost2010PropOp41
 70
     1
102
RTVSPost2010Prop42
 90
       50
102
RTVSPost2010PropOp42
 70
     1
102
RTVSPost2010Prop43
 90
        3
102
RTVSPost2010PropOp43
 70
     1
102
RTVSPost2010Prop44ColorIndex
 90
        5
102
RTVSPost2010Prop44ColorRGB
 90
      255
102
RTVSPost2010PropOp44
 70
     1
102
RTVSPost2010Prop45
280
     0
102
RTVSPost2010PropOp45
 70
     1
102
RTVSPost2010Prop46
 90
       50
102
RTVSPost2010PropOp46
 70
     1
102
RTVSPost2010Prop47
 90
       50
102
RTVSPost2010PropOp47
 70
     1
102
RTVSPost2010Prop48
 90
       50
102
RTVSPost2010PropOp48
 70
     1
102
RTVSPost2010Prop49
280
     0
102
RTVSPost2010PropOp49
 70
     1
102
RTVSPost2010Prop50
 90
       50
102
RTVSPost2010PropOp50
 70
     1
102
RTVSPost2010Prop51ColorIndex
 90
      256
102
RTVSPost2010Prop51ColorRGB
 90
-16777216
102
RTVSPost2010PropOp51
 70
     0
102
RTVSPost2010Prop52
140
1.0
102
RTVSPost2010PropOp52
 70
     0
102
RTVSPost2010Prop53
 90
        2
102
RTVSPost2010PropOp53
 70
     1
102
RTVSPost2010Prop54
  1
strokes_ogs.tif
102
RTVSPost2010PropOp54
 70
     1
102
RTVSPost2010Prop55
280
     0
102
RTVSPost2010PropOp55
 70
     1
102
RTVSPost2010Prop56
140
1.0
102
RTVSPost2010PropOp56
 70
     1
102
RTVSPost2010Prop57
140
1.0
102
RTVSPost2010PropOp57
 70
     1
  0
XRECORD
  5
4F1
102
{ACAD_REACTORS
330
4F0
102
}
330
4F0
100
AcDbXrecord
280
     1
102
RTVSPropertyOp0
 70
     1
102
RTVSPropertyOp1
 70
     1
102
RTVSPropertyOp2
 70
     1
102
RTVSPropertyOp3
 70
     1
102
RTVSPropertyOp4
 70
     1
102
RTVSPropertyOp5
 70
     1
102
RTVSPropertyOp6
 70
     1
102
RTVSPropertyOp7
 70
     1
102
RTVSPropertyOp8
 70
     1
102
RTVSPropertyOp9
 70
     1
102
RTVSPropertyOp10
 70
     1
102
RTVSPropertyOp11
 70
     1
102
RTVSPropertyOp12
 70
     1
102
RTVSPropertyOp13
 70
     1
102
RTVSPropertyOp14
 70
     1
102
RTVSPropertyOp15
 70
     1
102
RTVSPropertyOp16
 70
     1
102
RTVSPropertyOp17
 70
     1
102
RTVSPropertyOp18
 70
     1
102
RTVSPropertyOp19
 70
     1
102
RTVSPropertyOp20
 70
     1
102
RTVSPropertyOp21
 70
     1
102
RTVSPropertyOp22
 70
     1
102
RTVSPropertyOp23
 70
     1
102
RTVSPropertyOp24
 70
     1
102
RTVSPropertyOp25
 70
     1
102
RTVSPropertyOp26
 70
     1
102
RTVSPropertyOp27
 70
     1
102
RTVSPropertyOp28
 70
     1
102
RTVSPropertyOp29
 70
     1
102
RTVSPropertyOp30
 70
     1
102
RTVSPropertyOp31
 70
     1
102
RTVSPropertyOp32
 70
     1
102
RTVSPropertyOp33
 70
     1
102
RTVSPropertyOp34
 70
     1
102
RTVSPropertyOp35
 70
     1
102
RTVSPropertyOp36
 70
     1
102
RTVSPropertyOp37
 70
     1
102
RTVSPropertyOp38
 70
     1
102
RTVSPropertyOp39
 70
     1
102
RTVSPropertyOp40
 70
     1
102
RTVSPropertyOp41
 70
     1
102
RTVSPropertyOp42
 70
     1
102
RTVSPropertyOp43
 70
     1
102
RTVSPropertyOp44
 70
     1
102
RTVSPropertyOp45
 70
     1
102
RTVSPropertyOp46
 70
     1
102
RTVSPropertyOp47
 70
     1
102
RTVSPropertyOp48
 70
     1
102
RTVSPropertyOp49
 70
     1
102
RTVSPropertyOp50
 70
     1
102
RTVSPropertyOp51
 70
     0
102
RTVSPropertyOp52
 70
     0
102
RTVSPropertyOp53
 70
     1
102
RTVSPropertyOp54
 70
     1
102
RTVSPropertyOp55
 70
     1
102
RTVSPropertyOp56
 70
     1
102
RTVSPropertyOp57
 70
     1
102
RTVSPost2010Prop28
280
     0
102
RTVSPost2010PropOp28
 70
     1
102
RTVSPost2010Prop29
280
     1
102
RTVSPost2010PropOp29
 70
     1
102
RTVSPost2010Prop30
280
     1
102
RTVSPost2010PropOp30
 70
     1
102
RTVSPost2010Prop31
280
     0
102
RTVSPost2010PropOp31
 70
     1
102
RTVSPost2010Prop32
280
     0
102
RTVSPost2010PropOp32
 70
     1
102
RTVSPost2010Prop33
280
     0
102
RTVSPost2010PropOp33
 70
     1
102
RTVSPost2010Prop34
280
     0
102
RTVSPost2010PropOp34
 70
     1
102
RTVSPost2010Prop35
280
     0
102
RTVSPost2010PropOp35
 70
     1
102
RTVSPost2010Prop36
280
     0
102
RTVSPost2010PropOp36
 70
     1
102
RTVSPost2010Prop37
 90
       50
102
RTVSPost2010PropOp37
 70
     1
102
RTVSPost2010Prop38
140
0.0
102
RTVSPost2010PropOp38
 70
     1
102
RTVSPost2010Prop39
140
1.0
102
RTVSPost2010PropOp39
 70
     1
102
RTVSPost2010Prop40
 90
        0
102
RTVSPost2010PropOp40
 70
     1
102
RTVSPost2010Prop41ColorIndex
 90
       18
102
RTVSPost2010Prop41ColorRGB
 90
        0
102
RTVSPost2010PropOp41
 70
     1
102
RTVSPost2010Prop42
 90
       50
102
RTVSPost2010PropOp42
 70
     1
102
RTVSPost2010Prop43
 90
        3
102
RTVSPost2010PropOp43
 70
     1
102
RTVSPost2010Prop44ColorIndex
 90
        5
102
RTVSPost2010Prop44ColorRGB
 90
      255
102
RTVSPost2010PropOp44
 70
     1
102
RTVSPost2010Prop45
280
     0
102
RTVSPost2010PropOp45
 70
     1
102
RTVSPost2010Prop46
 90
       50
102
RTVSPost2010PropOp46
 70
     1
102
RTVSPost2010Prop47
 90
       50
102
RTVSPost2010PropOp47
 70
     1
102
RTVSPost2010Prop48
 90
       50
102
RTVSPost2010PropOp48
 70
     1
102
RTVSPost2010Prop49
280
     0
102
RTVSPost2010PropOp49
 70
     1
102
RTVSPost2010Prop50
 90
       50
102
RTVSPost2010PropOp50
 70
     1
102
RTVSPost2010Prop51ColorIndex
 90
      256
102
RTVSPost2010Prop51ColorRGB
 90
-16777216
102
RTVSPost2010PropOp51
 70
     0
102
RTVSPost2010Prop52
140
1.0
102
RTVSPost2010PropOp52
 70
     0
102
RTVSPost2010Prop53
 90
        2
102
RTVSPost2010PropOp53
 70
     1
102
RTVSPost2010Prop54
  1
strokes_ogs.tif
102
RTVSPost2010PropOp54
 70
     1
102
RTVSPost2010Prop55
280
     0
102
RTVSPost2010PropOp55
 70
     1
102
RTVSPost2010Prop56
140
1.0
102
RTVSPost2010PropOp56
 70
     1
102
RTVSPost2010Prop57
140
1.0
102
RTVSPost2010PropOp57
 70
     1
  0
XRECORD
  5
505
102
{ACAD_REACTORS
330
504
102
}
330
504
100
AcDbXrecord
280
     1
102
RTVSPropertyOp0
 70
     0
102
RTVSPropertyOp1
 70
     0
102
RTVSPropertyOp2
 70
     0
102
RTVSPropertyOp3
 70
     0
102
RTVSPropertyOp4
 70
     0
102
RTVSPropertyOp5
 70
     0
102
RTVSPropertyOp6
 70
     0
102
RTVSPropertyOp7
 70
     0
102
RTVSPropertyOp8
 70
     0
102
RTVSPropertyOp9
 70
     0
102
RTVSPropertyOp10
 70
     0
102
RTVSPropertyOp11
 70
     0
102
RTVSPropertyOp12
 70
     0
102
RTVSPropertyOp13
 70
     0
102
RTVSPropertyOp14
 70
     0
102
RTVSPropertyOp15
 70
     0
102
RTVSPropertyOp16
 70
     0
102
RTVSPropertyOp17
 70
     0
102
RTVSPropertyOp18
 70
     0
102
RTVSPropertyOp19
 70
     0
102
RTVSPropertyOp20
 70
     0
102
RTVSPropertyOp21
 70
     0
102
RTVSPropertyOp22
 70
     0
102
RTVSPropertyOp23
 70
     0
102
RTVSPropertyOp24
 70
     0
102
RTVSPropertyOp25
 70
     0
102
RTVSPropertyOp26
 70
     0
102
RTVSPropertyOp27
 70
     0
102
RTVSPropertyOp28
 70
     1
102
RTVSPropertyOp29
 70
     1
102
RTVSPropertyOp30
 70
     1
102
RTVSPropertyOp31
 70
     1
102
RTVSPropertyOp32
 70
     1
102
RTVSPropertyOp33
 70
     1
102
RTVSPropertyOp34
 70
     1
102
RTVSPropertyOp35
 70
     1
102
RTVSPropertyOp36
 70
     1
102
RTVSPropertyOp37
 70
     1
102
RTVSPropertyOp38
 70
     1
102
RTVSPropertyOp39
 70
     1
102
RTVSPropertyOp40
 70
     1
102
RTVSPropertyOp41
 70
     1
102
RTVSPropertyOp42
 70
     1
102
RTVSPropertyOp43
 70
     1
102
RTVSPropertyOp44
 70
     1
102
RTVSPropertyOp45
 70
     1
102
RTVSPropertyOp46
 70
     1
102
RTVSPropertyOp47
 70
     1
102
RTVSPropertyOp48
 70
     1
102
RTVSPropertyOp49
 70
     1
102
RTVSPropertyOp50
 70
     1
102
RTVSPropertyOp51
 70
     0
102
RTVSPropertyOp52
 70
     0
102
RTVSPropertyOp53
 70
     1
102
RTVSPropertyOp54
 70
     1
102
RTVSPropertyOp55
 70
     1
102
RTVSPropertyOp56
 70
     1
102
RTVSPropertyOp57
 70
     1
102
RTVSPost2010Prop28
280
     0
102
RTVSPost2010PropOp28
 70
     1
102
RTVSPost2010Prop29
280
     1
102
RTVSPost2010PropOp29
 70
     1
102
RTVSPost2010Prop30
280
     1
102
RTVSPost2010PropOp30
 70
     1
102
RTVSPost2010Prop31
280
     0
102
RTVSPost2010PropOp31
 70
     1
102
RTVSPost2010Prop32
280
     0
102
RTVSPost2010PropOp32
 70
     1
102
RTVSPost2010Prop33
280
     0
102
RTVSPost2010PropOp33
 70
     1
102
RTVSPost2010Prop34
280
     0
102
RTVSPost2010PropOp34
 70
     1
102
RTVSPost2010Prop35
280
     0
102
RTVSPost2010PropOp35
 70
     1
102
RTVSPost2010Prop36
280
     0
102
RTVSPost2010PropOp36
 70
     1
102
RTVSPost2010Prop37
 90
       50
102
RTVSPost2010PropOp37
 70
     1
102
RTVSPost2010Prop38
140
0.0
102
RTVSPost2010PropOp38
 70
     1
102
RTVSPost2010Prop39
140
1.0
102
RTVSPost2010PropOp39
 70
     1
102
RTVSPost2010Prop40
 90
        0
102
RTVSPost2010PropOp40
 70
     1
102
RTVSPost2010Prop41ColorIndex
 90
       18
102
RTVSPost2010Prop41ColorRGB
 90
        0
102
RTVSPost2010PropOp41
 70
     1
102
RTVSPost2010Prop42
 90
       50
102
RTVSPost2010PropOp42
 70
     1
102
RTVSPost2010Prop43
 90
        3
102
RTVSPost2010PropOp43
 70
     1
102
RTVSPost2010Prop44ColorIndex
 90
        5
102
RTVSPost2010Prop44ColorRGB
 90
      255
102
RTVSPost2010PropOp44
 70
     1
102
RTVSPost2010Prop45
280
     0
102
RTVSPost2010PropOp45
 70
     1
102
RTVSPost2010Prop46
 90
       50
102
RTVSPost2010PropOp46
 70
     1
102
RTVSPost2010Prop47
 90
       50
102
RTVSPost2010PropOp47
 70
     1
102
RTVSPost2010Prop48
 90
       50
102
RTVSPost2010PropOp48
 70
     1
102
RTVSPost2010Prop49
280
     0
102
RTVSPost2010PropOp49
 70
     1
102
RTVSPost2010Prop50
 90
       50
102
RTVSPost2010PropOp50
 70
     1
102
RTVSPost2010Prop51ColorIndex
 90
      256
102
RTVSPost2010Prop51ColorRGB
 90
-16777216
102
RTVSPost2010PropOp51
 70
     0
102
RTVSPost2010Prop52
140
1.0
102
RTVSPost2010PropOp52
 70
     0
102
RTVSPost2010Prop53
 90
        2
102
RTVSPost2010PropOp53
 70
     1
102
RTVSPost2010Prop54
  1
strokes_ogs.tif
102
RTVSPost2010PropOp54
 70
     1
102
RTVSPost2010Prop55
280
     0
102
RTVSPost2010PropOp55
 70
     1
102
RTVSPost2010Prop56
140
1.0
102
RTVSPost2010PropOp56
 70
     1
102
RTVSPost2010Prop57
140
1.0
102
RTVSPost2010PropOp57
 70
     1
  0
XRECORD
  5
4FF
102
{ACAD_REACTORS
330
4FE
102
}
330
4FE
100
AcDbXrecord
280
     1
102
RTVSPropertyOp0
 70
     1
102
RTVSPropertyOp1
 70
     1
102
RTVSPropertyOp2
 70
     1
102
RTVSPropertyOp3
 70
     1
102
RTVSPropertyOp4
 70
     1
102
RTVSPropertyOp5
 70
     1
102
RTVSPropertyOp6
 70
     1
102
RTVSPropertyOp7
 70
     1
102
RTVSPropertyOp8
 70
     1
102
RTVSPropertyOp9
 70
     1
102
RTVSPropertyOp10
 70
     1
102
RTVSPropertyOp11
 70
     1
102
RTVSPropertyOp12
 70
     1
102
RTVSPropertyOp13
 70
     1
102
RTVSPropertyOp14
 70
     1
102
RTVSPropertyOp15
 70
     1
102
RTVSPropertyOp16
 70
     1
102
RTVSPropertyOp17
 70
     1
102
RTVSPropertyOp18
 70
     1
102
RTVSPropertyOp19
 70
     1
102
RTVSPropertyOp20
 70
     1
102
RTVSPropertyOp21
 70
     1
102
RTVSPropertyOp22
 70
     1
102
RTVSPropertyOp23
 70
     1
102
RTVSPropertyOp24
 70
     1
102
RTVSPropertyOp25
 70
     1
102
RTVSPropertyOp26
 70
     1
102
RTVSPropertyOp27
 70
     1
102
RTVSPropertyOp28
 70
     1
102
RTVSPropertyOp29
 70
     1
102
RTVSPropertyOp30
 70
     1
102
RTVSPropertyOp31
 70
     1
102
RTVSPropertyOp32
 70
     1
102
RTVSPropertyOp33
 70
     1
102
RTVSPropertyOp34
 70
     1
102
RTVSPropertyOp35
 70
     1
102
RTVSPropertyOp36
 70
     1
102
RTVSPropertyOp37
 70
     1
102
RTVSPropertyOp38
 70
     1
102
RTVSPropertyOp39
 70
     1
102
RTVSPropertyOp40
 70
     1
102
RTVSPropertyOp41
 70
     1
102
RTVSPropertyOp42
 70
     1
102
RTVSPropertyOp43
 70
     1
102
RTVSPropertyOp44
 70
     1
102
RTVSPropertyOp45
 70
     1
102
RTVSPropertyOp46
 70
     1
102
RTVSPropertyOp47
 70
     1
102
RTVSPropertyOp48
 70
     1
102
RTVSPropertyOp49
 70
     1
102
RTVSPropertyOp50
 70
     1
102
RTVSPropertyOp51
 70
     0
102
RTVSPropertyOp52
 70
     0
102
RTVSPropertyOp53
 70
     1
102
RTVSPropertyOp54
 70
     1
102
RTVSPropertyOp55
 70
     1
102
RTVSPropertyOp56
 70
     1
102
RTVSPropertyOp57
 70
     1
102
RTVSPost2010Prop28
280
     0
102
RTVSPost2010PropOp28
 70
     1
102
RTVSPost2010Prop29
280
     1
102
RTVSPost2010PropOp29
 70
     1
102
RTVSPost2010Prop30
280
     1
102
RTVSPost2010PropOp30
 70
     1
102
RTVSPost2010Prop31
280
     0
102
RTVSPost2010PropOp31
 70
     1
102
RTVSPost2010Prop32
280
     0
102
RTVSPost2010PropOp32
 70
     1
102
RTVSPost2010Prop33
280
     0
102
RTVSPost2010PropOp33
 70
     1
102
RTVSPost2010Prop34
280
     0
102
RTVSPost2010PropOp34
 70
     1
102
RTVSPost2010Prop35
280
     0
102
RTVSPost2010PropOp35
 70
     1
102
RTVSPost2010Prop36
280
     0
102
RTVSPost2010PropOp36
 70
     1
102
RTVSPost2010Prop37
 90
       50
102
RTVSPost2010PropOp37
 70
     1
102
RTVSPost2010Prop38
140
0.0
102
RTVSPost2010PropOp38
 70
     1
102
RTVSPost2010Prop39
140
1.0
102
RTVSPost2010PropOp39
 70
     1
102
RTVSPost2010Prop40
 90
        0
102
RTVSPost2010PropOp40
 70
     1
102
RTVSPost2010Prop41ColorIndex
 90
       18
102
RTVSPost2010Prop41ColorRGB
 90
        0
102
RTVSPost2010PropOp41
 70
     1
102
RTVSPost2010Prop42
 90
       50
102
RTVSPost2010PropOp42
 70
     1
102
RTVSPost2010Prop43
 90
        3
102
RTVSPost2010PropOp43
 70
     1
102
RTVSPost2010Prop44ColorIndex
 90
        5
102
RTVSPost2010Prop44ColorRGB
 90
      255
102
RTVSPost2010PropOp44
 70
     1
102
RTVSPost2010Prop45
280
     0
102
RTVSPost2010PropOp45
 70
     1
102
RTVSPost2010Prop46
 90
       50
102
RTVSPost2010PropOp46
 70
     1
102
RTVSPost2010Prop47
 90
       50
102
RTVSPost2010PropOp47
 70
     1
102
RTVSPost2010Prop48
 90
       50
102
RTVSPost2010PropOp48
 70
     1
102
RTVSPost2010Prop49
280
     0
102
RTVSPost2010PropOp49
 70
     1
102
RTVSPost2010Prop50
 90
       50
102
RTVSPost2010PropOp50
 70
     1
102
RTVSPost2010Prop51ColorIndex
 90
      256
102
RTVSPost2010Prop51ColorRGB
 90
-16777216
102
RTVSPost2010PropOp51
 70
     0
102
RTVSPost2010Prop52
140
1.0
102
RTVSPost2010PropOp52
 70
     0
102
RTVSPost2010Prop53
 90
        2
102
RTVSPost2010PropOp53
 70
     1
102
RTVSPost2010Prop54
  1
strokes_ogs.tif
102
RTVSPost2010PropOp54
 70
     1
102
RTVSPost2010Prop55
280
     0
102
RTVSPost2010PropOp55
 70
     1
102
RTVSPost2010Prop56
140
1.0
102
RTVSPost2010PropOp56
 70
     1
102
RTVSPost2010Prop57
140
1.0
102
RTVSPost2010PropOp57
 70
     1
  0
XRECORD
  5
507
102
{ACAD_REACTORS
330
506
102
}
330
506
100
AcDbXrecord
280
     1
102
RTVSPropertyOp0
 70
     0
102
RTVSPropertyOp1
 70
     0
102
RTVSPropertyOp2
 70
     0
102
RTVSPropertyOp3
 70
     0
102
RTVSPropertyOp4
 70
     0
102
RTVSPropertyOp5
 70
     0
102
RTVSPropertyOp6
 70
     0
102
RTVSPropertyOp7
 70
     0
102
RTVSPropertyOp8
 70
     0
102
RTVSPropertyOp9
 70
     0
102
RTVSPropertyOp10
 70
     0
102
RTVSPropertyOp11
 70
     0
102
RTVSPropertyOp12
 70
     0
102
RTVSPropertyOp13
 70
     0
102
RTVSPropertyOp14
 70
     0
102
RTVSPropertyOp15
 70
     0
102
RTVSPropertyOp16
 70
     0
102
RTVSPropertyOp17
 70
     0
102
RTVSPropertyOp18
 70
     0
102
RTVSPropertyOp19
 70
     0
102
RTVSPropertyOp20
 70
     0
102
RTVSPropertyOp21
 70
     0
102
RTVSPropertyOp22
 70
     0
102
RTVSPropertyOp23
 70
     0
102
RTVSPropertyOp24
 70
     0
102
RTVSPropertyOp25
 70
     0
102
RTVSPropertyOp26
 70
     0
102
RTVSPropertyOp27
 70
     0
102
RTVSPropertyOp28
 70
     1
102
RTVSPropertyOp29
 70
     1
102
RTVSPropertyOp30
 70
     1
102
RTVSPropertyOp31
 70
     1
102
RTVSPropertyOp32
 70
     1
102
RTVSPropertyOp33
 70
     1
102
RTVSPropertyOp34
 70
     1
102
RTVSPropertyOp35
 70
     1
102
RTVSPropertyOp36
 70
     1
102
RTVSPropertyOp37
 70
     1
102
RTVSPropertyOp38
 70
     1
102
RTVSPropertyOp39
 70
     1
102
RTVSPropertyOp40
 70
     1
102
RTVSPropertyOp41
 70
     1
102
RTVSPropertyOp42
 70
     1
102
RTVSPropertyOp43
 70
     1
102
RTVSPropertyOp44
 70
     1
102
RTVSPropertyOp45
 70
     1
102
RTVSPropertyOp46
 70
     1
102
RTVSPropertyOp47
 70
     1
102
RTVSPropertyOp48
 70
     1
102
RTVSPropertyOp49
 70
     1
102
RTVSPropertyOp50
 70
     1
102
RTVSPropertyOp51
 70
     0
102
RTVSPropertyOp52
 70
     0
102
RTVSPropertyOp53
 70
     1
102
RTVSPropertyOp54
 70
     1
102
RTVSPropertyOp55
 70
     1
102
RTVSPropertyOp56
 70
     1
102
RTVSPropertyOp57
 70
     1
102
RTVSPost2010Prop28
280
     0
102
RTVSPost2010PropOp28
 70
     1
102
RTVSPost2010Prop29
280
     1
102
RTVSPost2010PropOp29
 70
     1
102
RTVSPost2010Prop30
280
     1
102
RTVSPost2010PropOp30
 70
     1
102
RTVSPost2010Prop31
280
     0
102
RTVSPost2010PropOp31
 70
     1
102
RTVSPost2010Prop32
280
     0
102
RTVSPost2010PropOp32
 70
     1
102
RTVSPost2010Prop33
280
     0
102
RTVSPost2010PropOp33
 70
     1
102
RTVSPost2010Prop34
280
     0
102
RTVSPost2010PropOp34
 70
     1
102
RTVSPost2010Prop35
280
     0
102
RTVSPost2010PropOp35
 70
     1
102
RTVSPost2010Prop36
280
     0
102
RTVSPost2010PropOp36
 70
     1
102
RTVSPost2010Prop37
 90
       50
102
RTVSPost2010PropOp37
 70
     1
102
RTVSPost2010Prop38
140
0.0
102
RTVSPost2010PropOp38
 70
     1
102
RTVSPost2010Prop39
140
1.0
102
RTVSPost2010PropOp39
 70
     1
102
RTVSPost2010Prop40
 90
        0
102
RTVSPost2010PropOp40
 70
     1
102
RTVSPost2010Prop41ColorIndex
 90
       18
102
RTVSPost2010Prop41ColorRGB
 90
        0
102
RTVSPost2010PropOp41
 70
     1
102
RTVSPost2010Prop42
 90
       50
102
RTVSPost2010PropOp42
 70
     1
102
RTVSPost2010Prop43
 90
        3
102
RTVSPost2010PropOp43
 70
     1
102
RTVSPost2010Prop44ColorIndex
 90
        5
102
RTVSPost2010Prop44ColorRGB
 90
      255
102
RTVSPost2010PropOp44
 70
     1
102
RTVSPost2010Prop45
280
     0
102
RTVSPost2010PropOp45
 70
     1
102
RTVSPost2010Prop46
 90
       50
102
RTVSPost2010PropOp46
 70
     1
102
RTVSPost2010Prop47
 90
       50
102
RTVSPost2010PropOp47
 70
     1
102
RTVSPost2010Prop48
 90
       50
102
RTVSPost2010PropOp48
 70
     1
102
RTVSPost2010Prop49
280
     0
102
RTVSPost2010PropOp49
 70
     1
102
RTVSPost2010Prop50
 90
       50
102
RTVSPost2010PropOp50
 70
     1
102
RTVSPost2010Prop51ColorIndex
 90
      256
102
RTVSPost2010Prop51ColorRGB
 90
-16777216
102
RTVSPost2010PropOp51
 70
     0
102
RTVSPost2010Prop52
140
1.0
102
RTVSPost2010PropOp52
 70
     0
102
RTVSPost2010Prop53
 90
        2
102
RTVSPost2010PropOp53
 70
     1
102
RTVSPost2010Prop54
  1
strokes_ogs.tif
102
RTVSPost2010PropOp54
 70
     1
102
RTVSPost2010Prop55
280
     0
102
RTVSPost2010PropOp55
 70
     1
102
RTVSPost2010Prop56
140
1.0
102
RTVSPost2010PropOp56
 70
     1
102
RTVSPost2010Prop57
140
1.0
102
RTVSPost2010PropOp57
 70
     1
  0
XRECORD
  5
4F5
102
{ACAD_REACTORS
330
4F4
102
}
330
4F4
100
AcDbXrecord
280
     1
102
RTVSPropertyOp0
 70
     1
102
RTVSPropertyOp1
 70
     1
102
RTVSPropertyOp2
 70
     1
102
RTVSPropertyOp3
 70
     1
102
RTVSPropertyOp4
 70
     1
102
RTVSPropertyOp5
 70
     1
102
RTVSPropertyOp6
 70
     1
102
RTVSPropertyOp7
 70
     1
102
RTVSPropertyOp8
 70
     1
102
RTVSPropertyOp9
 70
     1
102
RTVSPropertyOp10
 70
     1
102
RTVSPropertyOp11
 70
     1
102
RTVSPropertyOp12
 70
     1
102
RTVSPropertyOp13
 70
     1
102
RTVSPropertyOp14
 70
     1
102
RTVSPropertyOp15
 70
     1
102
RTVSPropertyOp16
 70
     1
102
RTVSPropertyOp17
 70
     1
102
RTVSPropertyOp18
 70
     1
102
RTVSPropertyOp19
 70
     1
102
RTVSPropertyOp20
 70
     1
102
RTVSPropertyOp21
 70
     1
102
RTVSPropertyOp22
 70
     1
102
RTVSPropertyOp23
 70
     1
102
RTVSPropertyOp24
 70
     1
102
RTVSPropertyOp25
 70
     1
102
RTVSPropertyOp26
 70
     1
102
RTVSPropertyOp27
 70
     1
102
RTVSPropertyOp28
 70
     1
102
RTVSPropertyOp29
 70
     1
102
RTVSPropertyOp30
 70
     1
102
RTVSPropertyOp31
 70
     1
102
RTVSPropertyOp32
 70
     1
102
RTVSPropertyOp33
 70
     1
102
RTVSPropertyOp34
 70
     1
102
RTVSPropertyOp35
 70
     1
102
RTVSPropertyOp36
 70
     1
102
RTVSPropertyOp37
 70
     1
102
RTVSPropertyOp38
 70
     1
102
RTVSPropertyOp39
 70
     1
102
RTVSPropertyOp40
 70
     1
102
RTVSPropertyOp41
 70
     1
102
RTVSPropertyOp42
 70
     1
102
RTVSPropertyOp43
 70
     1
102
RTVSPropertyOp44
 70
     1
102
RTVSPropertyOp45
 70
     1
102
RTVSPropertyOp46
 70
     1
102
RTVSPropertyOp47
 70
     1
102
RTVSPropertyOp48
 70
     1
102
RTVSPropertyOp49
 70
     1
102
RTVSPropertyOp50
 70
     1
102
RTVSPropertyOp51
 70
     0
102
RTVSPropertyOp52
 70
     0
102
RTVSPropertyOp53
 70
     1
102
RTVSPropertyOp54
 70
     1
102
RTVSPropertyOp55
 70
     1
102
RTVSPropertyOp56
 70
     1
102
RTVSPropertyOp57
 70
     1
102
RTVSPost2010Prop28
280
     0
102
RTVSPost2010PropOp28
 70
     1
102
RTVSPost2010Prop29
280
     1
102
RTVSPost2010PropOp29
 70
     1
102
RTVSPost2010Prop30
280
     1
102
RTVSPost2010PropOp30
 70
     1
102
RTVSPost2010Prop31
280
     0
102
RTVSPost2010PropOp31
 70
     1
102
RTVSPost2010Prop32
280
     0
102
RTVSPost2010PropOp32
 70
     1
102
RTVSPost2010Prop33
280
     0
102
RTVSPost2010PropOp33
 70
     1
102
RTVSPost2010Prop34
280
     0
102
RTVSPost2010PropOp34
 70
     1
102
RTVSPost2010Prop35
280
     0
102
RTVSPost2010PropOp35
 70
     1
102
RTVSPost2010Prop36
280
     0
102
RTVSPost2010PropOp36
 70
     1
102
RTVSPost2010Prop37
 90
       50
102
RTVSPost2010PropOp37
 70
     1
102
RTVSPost2010Prop38
140
0.0
102
RTVSPost2010PropOp38
 70
     1
102
RTVSPost2010Prop39
140
1.0
102
RTVSPost2010PropOp39
 70
     1
102
RTVSPost2010Prop40
 90
        0
102
RTVSPost2010PropOp40
 70
     1
102
RTVSPost2010Prop41ColorIndex
 90
       18
102
RTVSPost2010Prop41ColorRGB
 90
        0
102
RTVSPost2010PropOp41
 70
     1
102
RTVSPost2010Prop42
 90
       50
102
RTVSPost2010PropOp42
 70
     1
102
RTVSPost2010Prop43
 90
        3
102
RTVSPost2010PropOp43
 70
     1
102
RTVSPost2010Prop44ColorIndex
 90
        5
102
RTVSPost2010Prop44ColorRGB
 90
      255
102
RTVSPost2010PropOp44
 70
     1
102
RTVSPost2010Prop45
280
     0
102
RTVSPost2010PropOp45
 70
     1
102
RTVSPost2010Prop46
 90
       50
102
RTVSPost2010PropOp46
 70
     1
102
RTVSPost2010Prop47
 90
       50
102
RTVSPost2010PropOp47
 70
     1
102
RTVSPost2010Prop48
 90
       50
102
RTVSPost2010PropOp48
 70
     1
102
RTVSPost2010Prop49
280
     0
102
RTVSPost2010PropOp49
 70
     1
102
RTVSPost2010Prop50
 90
       50
102
RTVSPost2010PropOp50
 70
     1
102
RTVSPost2010Prop51ColorIndex
 90
      256
102
RTVSPost2010Prop51ColorRGB
 90
-16777216
102
RTVSPost2010PropOp51
 70
     0
102
RTVSPost2010Prop52
140
1.0
102
RTVSPost2010PropOp52
 70
     0
102
RTVSPost2010Prop53
 90
        2
102
RTVSPost2010PropOp53
 70
     1
102
RTVSPost2010Prop54
  1
strokes_ogs.tif
102
RTVSPost2010PropOp54
 70
     1
102
RTVSPost2010Prop55
280
     0
102
RTVSPost2010PropOp55
 70
     1
102
RTVSPost2010Prop56
140
1.0
102
RTVSPost2010PropOp56
 70
     1
102
RTVSPost2010Prop57
140
1.0
102
RTVSPost2010PropOp57
 70
     1
  0
XRECORD
  5
513
102
{ACAD_REACTORS
330
512
102
}
330
512
100
AcDbXrecord
280
     1
102
RTVSPropertyOp0
 70
     1
102
RTVSPropertyOp1
 70
     1
102
RTVSPropertyOp2
 70
     1
102
RTVSPropertyOp3
 70
     1
102
RTVSPropertyOp4
 70
     1
102
RTVSPropertyOp5
 70
     1
102
RTVSPropertyOp6
 70
     1
102
RTVSPropertyOp7
 70
     1
102
RTVSPropertyOp8
 70
     1
102
RTVSPropertyOp9
 70
     1
102
RTVSPropertyOp10
 70
     1
102
RTVSPropertyOp11
 70
     1
102
RTVSPropertyOp12
 70
     1
102
RTVSPropertyOp13
 70
     1
102
RTVSPropertyOp14
 70
     1
102
RTVSPropertyOp15
 70
     1
102
RTVSPropertyOp16
 70
     1
102
RTVSPropertyOp17
 70
     1
102
RTVSPropertyOp18
 70
     1
102
RTVSPropertyOp19
 70
     1
102
RTVSPropertyOp20
 70
     1
102
RTVSPropertyOp21
 70
     1
102
RTVSPropertyOp22
 70
     1
102
RTVSPropertyOp23
 70
     1
102
RTVSPropertyOp24
 70
     1
102
RTVSPropertyOp25
 70
     1
102
RTVSPropertyOp26
 70
     1
102
RTVSPropertyOp27
 70
     1
102
RTVSPropertyOp28
 70
     1
102
RTVSPropertyOp29
 70
     1
102
RTVSPropertyOp30
 70
     1
102
RTVSPropertyOp31
 70
     1
102
RTVSPropertyOp32
 70
     1
102
RTVSPropertyOp33
 70
     1
102
RTVSPropertyOp34
 70
     1
102
RTVSPropertyOp35
 70
     1
102
RTVSPropertyOp36
 70
     1
102
RTVSPropertyOp37
 70
     1
102
RTVSPropertyOp38
 70
     1
102
RTVSPropertyOp39
 70
     1
102
RTVSPropertyOp40
 70
     1
102
RTVSPropertyOp41
 70
     1
102
RTVSPropertyOp42
 70
     1
102
RTVSPropertyOp43
 70
     1
102
RTVSPropertyOp44
 70
     1
102
RTVSPropertyOp45
 70
     1
102
RTVSPropertyOp46
 70
     1
102
RTVSPropertyOp47
 70
     1
102
RTVSPropertyOp48
 70
     1
102
RTVSPropertyOp49
 70
     1
102
RTVSPropertyOp50
 70
     1
102
RTVSPropertyOp51
 70
     0
102
RTVSPropertyOp52
 70
     0
102
RTVSPropertyOp53
 70
     1
102
RTVSPropertyOp54
 70
     1
102
RTVSPropertyOp55
 70
     1
102
RTVSPropertyOp56
 70
     1
102
RTVSPropertyOp57
 70
     1
102
RTVSPost2010Prop28
280
     0
102
RTVSPost2010PropOp28
 70
     1
102
RTVSPost2010Prop29
280
     1
102
RTVSPost2010PropOp29
 70
     1
102
RTVSPost2010Prop30
280
     1
102
RTVSPost2010PropOp30
 70
     1
102
RTVSPost2010Prop31
280
     0
102
RTVSPost2010PropOp31
 70
     1
102
RTVSPost2010Prop32
280
     0
102
RTVSPost2010PropOp32
 70
     1
102
RTVSPost2010Prop33
280
     0
102
RTVSPost2010PropOp33
 70
     1
102
RTVSPost2010Prop34
280
     0
102
RTVSPost2010PropOp34
 70
     1
102
RTVSPost2010Prop35
280
     0
102
RTVSPost2010PropOp35
 70
     1
102
RTVSPost2010Prop36
280
     0
102
RTVSPost2010PropOp36
 70
     1
102
RTVSPost2010Prop37
 90
       50
102
RTVSPost2010PropOp37
 70
     1
102
RTVSPost2010Prop38
140
0.0
102
RTVSPost2010PropOp38
 70
     1
102
RTVSPost2010Prop39
140
1.0
102
RTVSPost2010PropOp39
 70
     1
102
RTVSPost2010Prop40
 90
        0
102
RTVSPost2010PropOp40
 70
     1
102
RTVSPost2010Prop41ColorIndex
 90
       18
102
RTVSPost2010Prop41ColorRGB
 90
        0
102
RTVSPost2010PropOp41
 70
     1
102
RTVSPost2010Prop42
 90
       50
102
RTVSPost2010PropOp42
 70
     1
102
RTVSPost2010Prop43
 90
        3
102
RTVSPost2010PropOp43
 70
     1
102
RTVSPost2010Prop44ColorIndex
 90
        5
102
RTVSPost2010Prop44ColorRGB
 90
      255
102
RTVSPost2010PropOp44
 70
     1
102
RTVSPost2010Prop45
280
     0
102
RTVSPost2010PropOp45
 70
     1
102
RTVSPost2010Prop46
 90
       50
102
RTVSPost2010PropOp46
 70
     1
102
RTVSPost2010Prop47
 90
       50
102
RTVSPost2010PropOp47
 70
     1
102
RTVSPost2010Prop48
 90
       50
102
RTVSPost2010PropOp48
 70
     1
102
RTVSPost2010Prop49
280
     0
102
RTVSPost2010PropOp49
 70
     1
102
RTVSPost2010Prop50
 90
       50
102
RTVSPost2010PropOp50
 70
     1
102
RTVSPost2010Prop51ColorIndex
 90
      256
102
RTVSPost2010Prop51ColorRGB
 90
-16777216
102
RTVSPost2010PropOp51
 70
     0
102
RTVSPost2010Prop52
140
1.0
102
RTVSPost2010PropOp52
 70
     0
102
RTVSPost2010Prop53
 90
        2
102
RTVSPost2010PropOp53
 70
     1
102
RTVSPost2010Prop54
  1
strokes_ogs.tif
102
RTVSPost2010PropOp54
 70
     1
102
RTVSPost2010Prop55
280
     0
102
RTVSPost2010PropOp55
 70
     1
102
RTVSPost2010Prop56
140
1.0
102
RTVSPost2010PropOp56
 70
     1
102
RTVSPost2010Prop57
140
1.0
102
RTVSPost2010PropOp57
 70
     1
  0
XRECORD
  5
511
102
{ACAD_REACTORS
330
510
102
}
330
510
100
AcDbXrecord
280
     1
102
RTVSPropertyOp0
 70
     1
102
RTVSPropertyOp1
 70
     1
102
RTVSPropertyOp2
 70
     1
102
RTVSPropertyOp3
 70
     1
102
RTVSPropertyOp4
 70
     1
102
RTVSPropertyOp5
 70
     1
102
RTVSPropertyOp6
 70
     1
102
RTVSPropertyOp7
 70
     1
102
RTVSPropertyOp8
 70
     1
102
RTVSPropertyOp9
 70
     1
102
RTVSPropertyOp10
 70
     1
102
RTVSPropertyOp11
 70
     1
102
RTVSPropertyOp12
 70
     1
102
RTVSPropertyOp13
 70
     1
102
RTVSPropertyOp14
 70
     1
102
RTVSPropertyOp15
 70
     1
102
RTVSPropertyOp16
 70
     1
102
RTVSPropertyOp17
 70
     1
102
RTVSPropertyOp18
 70
     1
102
RTVSPropertyOp19
 70
     1
102
RTVSPropertyOp20
 70
     1
102
RTVSPropertyOp21
 70
     1
102
RTVSPropertyOp22
 70
     1
102
RTVSPropertyOp23
 70
     1
102
RTVSPropertyOp24
 70
     1
102
RTVSPropertyOp25
 70
     1
102
RTVSPropertyOp26
 70
     1
102
RTVSPropertyOp27
 70
     1
102
RTVSPropertyOp28
 70
     1
102
RTVSPropertyOp29
 70
     1
102
RTVSPropertyOp30
 70
     1
102
RTVSPropertyOp31
 70
     1
102
RTVSPropertyOp32
 70
     1
102
RTVSPropertyOp33
 70
     1
102
RTVSPropertyOp34
 70
     1
102
RTVSPropertyOp35
 70
     1
102
RTVSPropertyOp36
 70
     1
102
RTVSPropertyOp37
 70
     1
102
RTVSPropertyOp38
 70
     1
102
RTVSPropertyOp39
 70
     1
102
RTVSPropertyOp40
 70
     1
102
RTVSPropertyOp41
 70
     1
102
RTVSPropertyOp42
 70
     1
102
RTVSPropertyOp43
 70
     1
102
RTVSPropertyOp44
 70
     1
102
RTVSPropertyOp45
 70
     1
102
RTVSPropertyOp46
 70
     1
102
RTVSPropertyOp47
 70
     1
102
RTVSPropertyOp48
 70
     1
102
RTVSPropertyOp49
 70
     1
102
RTVSPropertyOp50
 70
     1
102
RTVSPropertyOp51
 70
     0
102
RTVSPropertyOp52
 70
     0
102
RTVSPropertyOp53
 70
     1
102
RTVSPropertyOp54
 70
     1
102
RTVSPropertyOp55
 70
     1
102
RTVSPropertyOp56
 70
     1
102
RTVSPropertyOp57
 70
     1
102
RTVSPost2010Prop28
280
     0
102
RTVSPost2010PropOp28
 70
     1
102
RTVSPost2010Prop29
280
     1
102
RTVSPost2010PropOp29
 70
     1
102
RTVSPost2010Prop30
280
     1
102
RTVSPost2010PropOp30
 70
     1
102
RTVSPost2010Prop31
280
     0
102
RTVSPost2010PropOp31
 70
     1
102
RTVSPost2010Prop32
280
     0
102
RTVSPost2010PropOp32
 70
     1
102
RTVSPost2010Prop33
280
     0
102
RTVSPost2010PropOp33
 70
     1
102
RTVSPost2010Prop34
280
     0
102
RTVSPost2010PropOp34
 70
     1
102
RTVSPost2010Prop35
280
     0
102
RTVSPost2010PropOp35
 70
     1
102
RTVSPost2010Prop36
280
     0
102
RTVSPost2010PropOp36
 70
     1
102
RTVSPost2010Prop37
 90
       50
102
RTVSPost2010PropOp37
 70
     1
102
RTVSPost2010Prop38
140
0.0
102
RTVSPost2010PropOp38
 70
     1
102
RTVSPost2010Prop39
140
1.0
102
RTVSPost2010PropOp39
 70
     1
102
RTVSPost2010Prop40
 90
        0
102
RTVSPost2010PropOp40
 70
     1
102
RTVSPost2010Prop41ColorIndex
 90
       18
102
RTVSPost2010Prop41ColorRGB
 90
        0
102
RTVSPost2010PropOp41
 70
     1
102
RTVSPost2010Prop42
 90
       50
102
RTVSPost2010PropOp42
 70
     1
102
RTVSPost2010Prop43
 90
        3
102
RTVSPost2010PropOp43
 70
     1
102
RTVSPost2010Prop44ColorIndex
 90
        5
102
RTVSPost2010Prop44ColorRGB
 90
      255
102
RTVSPost2010PropOp44
 70
     1
102
RTVSPost2010Prop45
280
     0
102
RTVSPost2010PropOp45
 70
     1
102
RTVSPost2010Prop46
 90
       50
102
RTVSPost2010PropOp46
 70
     1
102
RTVSPost2010Prop47
 90
       50
102
RTVSPost2010PropOp47
 70
     1
102
RTVSPost2010Prop48
 90
       50
102
RTVSPost2010PropOp48
 70
     1
102
RTVSPost2010Prop49
280
     0
102
RTVSPost2010PropOp49
 70
     1
102
RTVSPost2010Prop50
 90
       50
102
RTVSPost2010PropOp50
 70
     1
102
RTVSPost2010Prop51ColorIndex
 90
      256
102
RTVSPost2010Prop51ColorRGB
 90
-16777216
102
RTVSPost2010PropOp51
 70
     0
102
RTVSPost2010Prop52
140
1.0
102
RTVSPost2010PropOp52
 70
     0
102
RTVSPost2010Prop53
 90
        2
102
RTVSPost2010PropOp53
 70
     1
102
RTVSPost2010Prop54
  1
strokes_ogs.tif
102
RTVSPost2010PropOp54
 70
     1
102
RTVSPost2010Prop55
280
     0
102
RTVSPost2010PropOp55
 70
     1
102
RTVSPost2010Prop56
140
1.0
102
RTVSPost2010PropOp56
 70
     1
102
RTVSPost2010Prop57
140
1.0
102
RTVSPost2010PropOp57
 70
     1
  0
XRECORD
  5
50B
102
{ACAD_REACTORS
330
50A
102
}
330
50A
100
AcDbXrecord
280
     1
102
RTVSPropertyOp0
 70
     1
102
RTVSPropertyOp1
 70
     1
102
RTVSPropertyOp2
 70
     1
102
RTVSPropertyOp3
 70
     1
102
RTVSPropertyOp4
 70
     1
102
RTVSPropertyOp5
 70
     1
102
RTVSPropertyOp6
 70
     1
102
RTVSPropertyOp7
 70
     1
102
RTVSPropertyOp8
 70
     1
102
RTVSPropertyOp9
 70
     1
102
RTVSPropertyOp10
 70
     1
102
RTVSPropertyOp11
 70
     1
102
RTVSPropertyOp12
 70
     1
102
RTVSPropertyOp13
 70
     1
102
RTVSPropertyOp14
 70
     1
102
RTVSPropertyOp15
 70
     1
102
RTVSPropertyOp16
 70
     1
102
RTVSPropertyOp17
 70
     1
102
RTVSPropertyOp18
 70
     1
102
RTVSPropertyOp19
 70
     1
102
RTVSPropertyOp20
 70
     1
102
RTVSPropertyOp21
 70
     1
102
RTVSPropertyOp22
 70
     1
102
RTVSPropertyOp23
 70
     1
102
RTVSPropertyOp24
 70
     1
102
RTVSPropertyOp25
 70
     1
102
RTVSPropertyOp26
 70
     1
102
RTVSPropertyOp27
 70
     1
102
RTVSPropertyOp28
 70
     1
102
RTVSPropertyOp29
 70
     1
102
RTVSPropertyOp30
 70
     1
102
RTVSPropertyOp31
 70
     1
102
RTVSPropertyOp32
 70
     1
102
RTVSPropertyOp33
 70
     1
102
RTVSPropertyOp34
 70
     1
102
RTVSPropertyOp35
 70
     1
102
RTVSPropertyOp36
 70
     1
102
RTVSPropertyOp37
 70
     1
102
RTVSPropertyOp38
 70
     1
102
RTVSPropertyOp39
 70
     1
102
RTVSPropertyOp40
 70
     1
102
RTVSPropertyOp41
 70
     1
102
RTVSPropertyOp42
 70
     1
102
RTVSPropertyOp43
 70
     1
102
RTVSPropertyOp44
 70
     1
102
RTVSPropertyOp45
 70
     1
102
RTVSPropertyOp46
 70
     1
102
RTVSPropertyOp47
 70
     1
102
RTVSPropertyOp48
 70
     1
102
RTVSPropertyOp49
 70
     1
102
RTVSPropertyOp50
 70
     1
102
RTVSPropertyOp51
 70
     0
102
RTVSPropertyOp52
 70
     0
102
RTVSPropertyOp53
 70
     1
102
RTVSPropertyOp54
 70
     1
102
RTVSPropertyOp55
 70
     1
102
RTVSPropertyOp56
 70
     1
102
RTVSPropertyOp57
 70
     1
102
RTVSPost2010Prop28
280
     0
102
RTVSPost2010PropOp28
 70
     1
102
RTVSPost2010Prop29
280
     1
102
RTVSPost2010PropOp29
 70
     1
102
RTVSPost2010Prop30
280
     1
102
RTVSPost2010PropOp30
 70
     1
102
RTVSPost2010Prop31
280
     0
102
RTVSPost2010PropOp31
 70
     1
102
RTVSPost2010Prop32
280
     0
102
RTVSPost2010PropOp32
 70
     1
102
RTVSPost2010Prop33
280
     0
102
RTVSPost2010PropOp33
 70
     1
102
RTVSPost2010Prop34
280
     0
102
RTVSPost2010PropOp34
 70
     1
102
RTVSPost2010Prop35
280
     0
102
RTVSPost2010PropOp35
 70
     1
102
RTVSPost2010Prop36
280
     0
102
RTVSPost2010PropOp36
 70
     1
102
RTVSPost2010Prop37
 90
       50
102
RTVSPost2010PropOp37
 70
     1
102
RTVSPost2010Prop38
140
0.0
102
RTVSPost2010PropOp38
 70
     1
102
RTVSPost2010Prop39
140
1.0
102
RTVSPost2010PropOp39
 70
     1
102
RTVSPost2010Prop40
 90
        0
102
RTVSPost2010PropOp40
 70
     1
102
RTVSPost2010Prop41ColorIndex
 90
       18
102
RTVSPost2010Prop41ColorRGB
 90
        0
102
RTVSPost2010PropOp41
 70
     1
102
RTVSPost2010Prop42
 90
       50
102
RTVSPost2010PropOp42
 70
     1
102
RTVSPost2010Prop43
 90
        3
102
RTVSPost2010PropOp43
 70
     1
102
RTVSPost2010Prop44ColorIndex
 90
        5
102
RTVSPost2010Prop44ColorRGB
 90
      255
102
RTVSPost2010PropOp44
 70
     1
102
RTVSPost2010Prop45
280
     0
102
RTVSPost2010PropOp45
 70
     1
102
RTVSPost2010Prop46
 90
       50
102
RTVSPost2010PropOp46
 70
     1
102
RTVSPost2010Prop47
 90
       50
102
RTVSPost2010PropOp47
 70
     1
102
RTVSPost2010Prop48
 90
       50
102
RTVSPost2010PropOp48
 70
     1
102
RTVSPost2010Prop49
280
     0
102
RTVSPost2010PropOp49
 70
     1
102
RTVSPost2010Prop50
 90
       50
102
RTVSPost2010PropOp50
 70
     1
102
RTVSPost2010Prop51ColorIndex
 90
      256
102
RTVSPost2010Prop51ColorRGB
 90
-16777216
102
RTVSPost2010PropOp51
 70
     0
102
RTVSPost2010Prop52
140
1.0
102
RTVSPost2010PropOp52
 70
     0
102
RTVSPost2010Prop53
 90
        2
102
RTVSPost2010PropOp53
 70
     1
102
RTVSPost2010Prop54
  1
strokes_ogs.tif
102
RTVSPost2010PropOp54
 70
     1
102
RTVSPost2010Prop55
280
     0
102
RTVSPost2010PropOp55
 70
     1
102
RTVSPost2010Prop56
140
1.0
102
RTVSPost2010PropOp56
 70
     1
102
RTVSPost2010Prop57
140
1.0
102
RTVSPost2010PropOp57
 70
     1
  0
XRECORD
  5
50D
102
{ACAD_REACTORS
330
50C
102
}
330
50C
100
AcDbXrecord
280
     1
102
RTVSPropertyOp0
 70
     1
102
RTVSPropertyOp1
 70
     1
102
RTVSPropertyOp2
 70
     1
102
RTVSPropertyOp3
 70
     1
102
RTVSPropertyOp4
 70
     1
102
RTVSPropertyOp5
 70
     1
102
RTVSPropertyOp6
 70
     1
102
RTVSPropertyOp7
 70
     1
102
RTVSPropertyOp8
 70
     1
102
RTVSPropertyOp9
 70
     1
102
RTVSPropertyOp10
 70
     1
102
RTVSPropertyOp11
 70
     1
102
RTVSPropertyOp12
 70
     1
102
RTVSPropertyOp13
 70
     1
102
RTVSPropertyOp14
 70
     1
102
RTVSPropertyOp15
 70
     1
102
RTVSPropertyOp16
 70
     1
102
RTVSPropertyOp17
 70
     1
102
RTVSPropertyOp18
 70
     1
102
RTVSPropertyOp19
 70
     1
102
RTVSPropertyOp20
 70
     1
102
RTVSPropertyOp21
 70
     1
102
RTVSPropertyOp22
 70
     1
102
RTVSPropertyOp23
 70
     1
102
RTVSPropertyOp24
 70
     1
102
RTVSPropertyOp25
 70
     1
102
RTVSPropertyOp26
 70
     1
102
RTVSPropertyOp27
 70
     1
102
RTVSPropertyOp28
 70
     1
102
RTVSPropertyOp29
 70
     1
102
RTVSPropertyOp30
 70
     1
102
RTVSPropertyOp31
 70
     1
102
RTVSPropertyOp32
 70
     1
102
RTVSPropertyOp33
 70
     1
102
RTVSPropertyOp34
 70
     1
102
RTVSPropertyOp35
 70
     1
102
RTVSPropertyOp36
 70
     1
102
RTVSPropertyOp37
 70
     1
102
RTVSPropertyOp38
 70
     1
102
RTVSPropertyOp39
 70
     1
102
RTVSPropertyOp40
 70
     1
102
RTVSPropertyOp41
 70
     1
102
RTVSPropertyOp42
 70
     1
102
RTVSPropertyOp43
 70
     1
102
RTVSPropertyOp44
 70
     1
102
RTVSPropertyOp45
 70
     1
102
RTVSPropertyOp46
 70
     1
102
RTVSPropertyOp47
 70
     1
102
RTVSPropertyOp48
 70
     1
102
RTVSPropertyOp49
 70
     1
102
RTVSPropertyOp50
 70
     1
102
RTVSPropertyOp51
 70
     0
102
RTVSPropertyOp52
 70
     0
102
RTVSPropertyOp53
 70
     1
102
RTVSPropertyOp54
 70
     1
102
RTVSPropertyOp55
 70
     1
102
RTVSPropertyOp56
 70
     1
102
RTVSPropertyOp57
 70
     1
102
RTVSPost2010Prop28
280
     0
102
RTVSPost2010PropOp28
 70
     1
102
RTVSPost2010Prop29
280
     1
102
RTVSPost2010PropOp29
 70
     1
102
RTVSPost2010Prop30
280
     1
102
RTVSPost2010PropOp30
 70
     1
102
RTVSPost2010Prop31
280
     0
102
RTVSPost2010PropOp31
 70
     1
102
RTVSPost2010Prop32
280
     0
102
RTVSPost2010PropOp32
 70
     1
102
RTVSPost2010Prop33
280
     0
102
RTVSPost2010PropOp33
 70
     1
102
RTVSPost2010Prop34
280
     0
102
RTVSPost2010PropOp34
 70
     1
102
RTVSPost2010Prop35
280
     0
102
RTVSPost2010PropOp35
 70
     1
102
RTVSPost2010Prop36
280
     0
102
RTVSPost2010PropOp36
 70
     1
102
RTVSPost2010Prop37
 90
       50
102
RTVSPost2010PropOp37
 70
     1
102
RTVSPost2010Prop38
140
0.0
102
RTVSPost2010PropOp38
 70
     1
102
RTVSPost2010Prop39
140
1.0
102
RTVSPost2010PropOp39
 70
     1
102
RTVSPost2010Prop40
 90
        0
102
RTVSPost2010PropOp40
 70
     1
102
RTVSPost2010Prop41ColorIndex
 90
       18
102
RTVSPost2010Prop41ColorRGB
 90
        0
102
RTVSPost2010PropOp41
 70
     1
102
RTVSPost2010Prop42
 90
       50
102
RTVSPost2010PropOp42
 70
     1
102
RTVSPost2010Prop43
 90
        3
102
RTVSPost2010PropOp43
 70
     1
102
RTVSPost2010Prop44ColorIndex
 90
        5
102
RTVSPost2010Prop44ColorRGB
 90
      255
102
RTVSPost2010PropOp44
 70
     1
102
RTVSPost2010Prop45
280
     0
102
RTVSPost2010PropOp45
 70
     1
102
RTVSPost2010Prop46
 90
       50
102
RTVSPost2010PropOp46
 70
     1
102
RTVSPost2010Prop47
 90
       50
102
RTVSPost2010PropOp47
 70
     1
102
RTVSPost2010Prop48
 90
       50
102
RTVSPost2010PropOp48
 70
     1
102
RTVSPost2010Prop49
280
     0
102
RTVSPost2010PropOp49
 70
     1
102
RTVSPost2010Prop50
 90
       50
102
RTVSPost2010PropOp50
 70
     1
102
RTVSPost2010Prop51ColorIndex
 90
      256
102
RTVSPost2010Prop51ColorRGB
 90
-16777216
102
RTVSPost2010PropOp51
 70
     0
102
RTVSPost2010Prop52
140
1.0
102
RTVSPost2010PropOp52
 70
     0
102
RTVSPost2010Prop53
 90
        2
102
RTVSPost2010PropOp53
 70
     1
102
RTVSPost2010Prop54
  1
strokes_ogs.tif
102
RTVSPost2010PropOp54
 70
     1
102
RTVSPost2010Prop55
280
     0
102
RTVSPost2010PropOp55
 70
     1
102
RTVSPost2010Prop56
140
1.0
102
RTVSPost2010PropOp56
 70
     1
102
RTVSPost2010Prop57
140
1.0
102
RTVSPost2010PropOp57
 70
     1
  0
XRECORD
  5
4FD
102
{ACAD_REACTORS
330
4FC
102
}
330
4FC
100
AcDbXrecord
280
     1
102
RTVSPropertyOp0
 70
     1
102
RTVSPropertyOp1
 70
     1
102
RTVSPropertyOp2
 70
     1
102
RTVSPropertyOp3
 70
     1
102
RTVSPropertyOp4
 70
     1
102
RTVSPropertyOp5
 70
     1
102
RTVSPropertyOp6
 70
     1
102
RTVSPropertyOp7
 70
     1
102
RTVSPropertyOp8
 70
     1
102
RTVSPropertyOp9
 70
     1
102
RTVSPropertyOp10
 70
     1
102
RTVSPropertyOp11
 70
     1
102
RTVSPropertyOp12
 70
     1
102
RTVSPropertyOp13
 70
     1
102
RTVSPropertyOp14
 70
     1
102
RTVSPropertyOp15
 70
     1
102
RTVSPropertyOp16
 70
     1
102
RTVSPropertyOp17
 70
     1
102
RTVSPropertyOp18
 70
     1
102
RTVSPropertyOp19
 70
     1
102
RTVSPropertyOp20
 70
     1
102
RTVSPropertyOp21
 70
     1
102
RTVSPropertyOp22
 70
     1
102
RTVSPropertyOp23
 70
     1
102
RTVSPropertyOp24
 70
     1
102
RTVSPropertyOp25
 70
     1
102
RTVSPropertyOp26
 70
     1
102
RTVSPropertyOp27
 70
     1
102
RTVSPropertyOp28
 70
     1
102
RTVSPropertyOp29
 70
     1
102
RTVSPropertyOp30
 70
     1
102
RTVSPropertyOp31
 70
     1
102
RTVSPropertyOp32
 70
     1
102
RTVSPropertyOp33
 70
     1
102
RTVSPropertyOp34
 70
     1
102
RTVSPropertyOp35
 70
     1
102
RTVSPropertyOp36
 70
     1
102
RTVSPropertyOp37
 70
     1
102
RTVSPropertyOp38
 70
     1
102
RTVSPropertyOp39
 70
     1
102
RTVSPropertyOp40
 70
     1
102
RTVSPropertyOp41
 70
     1
102
RTVSPropertyOp42
 70
     1
102
RTVSPropertyOp43
 70
     1
102
RTVSPropertyOp44
 70
     1
102
RTVSPropertyOp45
 70
     1
102
RTVSPropertyOp46
 70
     1
102
RTVSPropertyOp47
 70
     1
102
RTVSPropertyOp48
 70
     1
102
RTVSPropertyOp49
 70
     1
102
RTVSPropertyOp50
 70
     1
102
RTVSPropertyOp51
 70
     0
102
RTVSPropertyOp52
 70
     0
102
RTVSPropertyOp53
 70
     1
102
RTVSPropertyOp54
 70
     1
102
RTVSPropertyOp55
 70
     1
102
RTVSPropertyOp56
 70
     1
102
RTVSPropertyOp57
 70
     1
102
RTVSPost2010Prop28
280
     0
102
RTVSPost2010PropOp28
 70
     1
102
RTVSPost2010Prop29
280
     1
102
RTVSPost2010PropOp29
 70
     1
102
RTVSPost2010Prop30
280
     1
102
RTVSPost2010PropOp30
 70
     1
102
RTVSPost2010Prop31
280
     0
102
RTVSPost2010PropOp31
 70
     1
102
RTVSPost2010Prop32
280
     0
102
RTVSPost2010PropOp32
 70
     1
102
RTVSPost2010Prop33
280
     0
102
RTVSPost2010PropOp33
 70
     1
102
RTVSPost2010Prop34
280
     0
102
RTVSPost2010PropOp34
 70
     1
102
RTVSPost2010Prop35
280
     0
102
RTVSPost2010PropOp35
 70
     1
102
RTVSPost2010Prop36
280
     0
102
RTVSPost2010PropOp36
 70
     1
102
RTVSPost2010Prop37
 90
       50
102
RTVSPost2010PropOp37
 70
     1
102
RTVSPost2010Prop38
140
0.0
102
RTVSPost2010PropOp38
 70
     1
102
RTVSPost2010Prop39
140
1.0
102
RTVSPost2010PropOp39
 70
     1
102
RTVSPost2010Prop40
 90
        0
102
RTVSPost2010PropOp40
 70
     1
102
RTVSPost2010Prop41ColorIndex
 90
       18
102
RTVSPost2010Prop41ColorRGB
 90
        0
102
RTVSPost2010PropOp41
 70
     1
102
RTVSPost2010Prop42
 90
       50
102
RTVSPost2010PropOp42
 70
     1
102
RTVSPost2010Prop43
 90
        3
102
RTVSPost2010PropOp43
 70
     1
102
RTVSPost2010Prop44ColorIndex
 90
        5
102
RTVSPost2010Prop44ColorRGB
 90
      255
102
RTVSPost2010PropOp44
 70
     1
102
RTVSPost2010Prop45
280
     0
102
RTVSPost2010PropOp45
 70
     1
102
RTVSPost2010Prop46
 90
       50
102
RTVSPost2010PropOp46
 70
     1
102
RTVSPost2010Prop47
 90
       50
102
RTVSPost2010PropOp47
 70
     1
102
RTVSPost2010Prop48
 90
       50
102
RTVSPost2010PropOp48
 70
     1
102
RTVSPost2010Prop49
280
     0
102
RTVSPost2010PropOp49
 70
     1
102
RTVSPost2010Prop50
 90
       50
102
RTVSPost2010PropOp50
 70
     1
102
RTVSPost2010Prop51ColorIndex
 90
      256
102
RTVSPost2010Prop51ColorRGB
 90
-16777216
102
RTVSPost2010PropOp51
 70
     0
102
RTVSPost2010Prop52
140
1.0
102
RTVSPost2010PropOp52
 70
     0
102
RTVSPost2010Prop53
 90
        2
102
RTVSPost2010PropOp53
 70
     1
102
RTVSPost2010Prop54
  1
strokes_ogs.tif
102
RTVSPost2010PropOp54
 70
     1
102
RTVSPost2010Prop55
280
     0
102
RTVSPost2010PropOp55
 70
     1
102
RTVSPost2010Prop56
140
1.0
102
RTVSPost2010PropOp56
 70
     1
102
RTVSPost2010Prop57
140
1.0
102
RTVSPost2010PropOp57
 70
     1
  0
XRECORD
  5
4EF
102
{ACAD_REACTORS
330
4EE
102
}
330
4EE
100
AcDbXrecord
280
     1
102
RTVSPropertyOp0
 70
     1
102
RTVSPropertyOp1
 70
     1
102
RTVSPropertyOp2
 70
     1
102
RTVSPropertyOp3
 70
     1
102
RTVSPropertyOp4
 70
     1
102
RTVSPropertyOp5
 70
     1
102
RTVSPropertyOp6
 70
     1
102
RTVSPropertyOp7
 70
     1
102
RTVSPropertyOp8
 70
     1
102
RTVSPropertyOp9
 70
     1
102
RTVSPropertyOp10
 70
     1
102
RTVSPropertyOp11
 70
     1
102
RTVSPropertyOp12
 70
     1
102
RTVSPropertyOp13
 70
     1
102
RTVSPropertyOp14
 70
     1
102
RTVSPropertyOp15
 70
     1
102
RTVSPropertyOp16
 70
     1
102
RTVSPropertyOp17
 70
     1
102
RTVSPropertyOp18
 70
     1
102
RTVSPropertyOp19
 70
     1
102
RTVSPropertyOp20
 70
     1
102
RTVSPropertyOp21
 70
     1
102
RTVSPropertyOp22
 70
     1
102
RTVSPropertyOp23
 70
     1
102
RTVSPropertyOp24
 70
     1
102
RTVSPropertyOp25
 70
     1
102
RTVSPropertyOp26
 70
     1
102
RTVSPropertyOp27
 70
     1
102
RTVSPropertyOp28
 70
     1
102
RTVSPropertyOp29
 70
     1
102
RTVSPropertyOp30
 70
     1
102
RTVSPropertyOp31
 70
     1
102
RTVSPropertyOp32
 70
     1
102
RTVSPropertyOp33
 70
     1
102
RTVSPropertyOp34
 70
     1
102
RTVSPropertyOp35
 70
     1
102
RTVSPropertyOp36
 70
     1
102
RTVSPropertyOp37
 70
     1
102
RTVSPropertyOp38
 70
     1
102
RTVSPropertyOp39
 70
     1
102
RTVSPropertyOp40
 70
     1
102
RTVSPropertyOp41
 70
     1
102
RTVSPropertyOp42
 70
     1
102
RTVSPropertyOp43
 70
     1
102
RTVSPropertyOp44
 70
     1
102
RTVSPropertyOp45
 70
     1
102
RTVSPropertyOp46
 70
     1
102
RTVSPropertyOp47
 70
     1
102
RTVSPropertyOp48
 70
     1
102
RTVSPropertyOp49
 70
     1
102
RTVSPropertyOp50
 70
     1
102
RTVSPropertyOp51
 70
     0
102
RTVSPropertyOp52
 70
     0
102
RTVSPropertyOp53
 70
     1
102
RTVSPropertyOp54
 70
     1
102
RTVSPropertyOp55
 70
     1
102
RTVSPropertyOp56
 70
     1
102
RTVSPropertyOp57
 70
     1
102
RTVSPost2010Prop28
280
     0
102
RTVSPost2010PropOp28
 70
     1
102
RTVSPost2010Prop29
280
     1
102
RTVSPost2010PropOp29
 70
     1
102
RTVSPost2010Prop30
280
     1
102
RTVSPost2010PropOp30
 70
     1
102
RTVSPost2010Prop31
280
     0
102
RTVSPost2010PropOp31
 70
     1
102
RTVSPost2010Prop32
280
     0
102
RTVSPost2010PropOp32
 70
     1
102
RTVSPost2010Prop33
280
     0
102
RTVSPost2010PropOp33
 70
     1
102
RTVSPost2010Prop34
280
     0
102
RTVSPost2010PropOp34
 70
     1
102
RTVSPost2010Prop35
280
     0
102
RTVSPost2010PropOp35
 70
     1
102
RTVSPost2010Prop36
280
     0
102
RTVSPost2010PropOp36
 70
     1
102
RTVSPost2010Prop37
 90
       50
102
RTVSPost2010PropOp37
 70
     1
102
RTVSPost2010Prop38
140
0.0
102
RTVSPost2010PropOp38
 70
     1
102
RTVSPost2010Prop39
140
1.0
102
RTVSPost2010PropOp39
 70
     1
102
RTVSPost2010Prop40
 90
        0
102
RTVSPost2010PropOp40
 70
     1
102
RTVSPost2010Prop41ColorIndex
 90
       18
102
RTVSPost2010Prop41ColorRGB
 90
        0
102
RTVSPost2010PropOp41
 70
     1
102
RTVSPost2010Prop42
 90
       50
102
RTVSPost2010PropOp42
 70
     1
102
RTVSPost2010Prop43
 90
        3
102
RTVSPost2010PropOp43
 70
     1
102
RTVSPost2010Prop44ColorIndex
 90
        5
102
RTVSPost2010Prop44ColorRGB
 90
      255
102
RTVSPost2010PropOp44
 70
     1
102
RTVSPost2010Prop45
280
     0
102
RTVSPost2010PropOp45
 70
     1
102
RTVSPost2010Prop46
 90
       50
102
RTVSPost2010PropOp46
 70
     1
102
RTVSPost2010Prop47
 90
       50
102
RTVSPost2010PropOp47
 70
     1
102
RTVSPost2010Prop48
 90
       50
102
RTVSPost2010PropOp48
 70
     1
102
RTVSPost2010Prop49
280
     0
102
RTVSPost2010PropOp49
 70
     1
102
RTVSPost2010Prop50
 90
       50
102
RTVSPost2010PropOp50
 70
     1
102
RTVSPost2010Prop51ColorIndex
 90
      256
102
RTVSPost2010Prop51ColorRGB
 90
-16777216
102
RTVSPost2010PropOp51
 70
     0
102
RTVSPost2010Prop52
140
1.0
102
RTVSPost2010PropOp52
 70
     0
102
RTVSPost2010Prop53
 90
        2
102
RTVSPost2010PropOp53
 70
     1
102
RTVSPost2010Prop54
  1
strokes_ogs.tif
102
RTVSPost2010PropOp54
 70
     1
102
RTVSPost2010Prop55
280
     0
102
RTVSPost2010PropOp55
 70
     1
102
RTVSPost2010Prop56
140
1.0
102
RTVSPost2010PropOp56
 70
     1
102
RTVSPost2010Prop57
140
1.0
102
RTVSPost2010PropOp57
 70
     1
  0
XRECORD
  5
50F
102
{ACAD_REACTORS
330
50E
102
}
330
50E
100
AcDbXrecord
280
     1
102
RTVSPropertyOp0
 70
     1
102
RTVSPropertyOp1
 70
     1
102
RTVSPropertyOp2
 70
     1
102
RTVSPropertyOp3
 70
     1
102
RTVSPropertyOp4
 70
     1
102
RTVSPropertyOp5
 70
     1
102
RTVSPropertyOp6
 70
     1
102
RTVSPropertyOp7
 70
     1
102
RTVSPropertyOp8
 70
     1
102
RTVSPropertyOp9
 70
     1
102
RTVSPropertyOp10
 70
     1
102
RTVSPropertyOp11
 70
     1
102
RTVSPropertyOp12
 70
     1
102
RTVSPropertyOp13
 70
     1
102
RTVSPropertyOp14
 70
     1
102
RTVSPropertyOp15
 70
     1
102
RTVSPropertyOp16
 70
     1
102
RTVSPropertyOp17
 70
     1
102
RTVSPropertyOp18
 70
     1
102
RTVSPropertyOp19
 70
     1
102
RTVSPropertyOp20
 70
     1
102
RTVSPropertyOp21
 70
     1
102
RTVSPropertyOp22
 70
     1
102
RTVSPropertyOp23
 70
     1
102
RTVSPropertyOp24
 70
     1
102
RTVSPropertyOp25
 70
     1
102
RTVSPropertyOp26
 70
     1
102
RTVSPropertyOp27
 70
     1
102
RTVSPropertyOp28
 70
     1
102
RTVSPropertyOp29
 70
     1
102
RTVSPropertyOp30
 70
     1
102
RTVSPropertyOp31
 70
     1
102
RTVSPropertyOp32
 70
     1
102
RTVSPropertyOp33
 70
     1
102
RTVSPropertyOp34
 70
     1
102
RTVSPropertyOp35
 70
     1
102
RTVSPropertyOp36
 70
     1
102
RTVSPropertyOp37
 70
     1
102
RTVSPropertyOp38
 70
     1
102
RTVSPropertyOp39
 70
     1
102
RTVSPropertyOp40
 70
     1
102
RTVSPropertyOp41
 70
     1
102
RTVSPropertyOp42
 70
     1
102
RTVSPropertyOp43
 70
     1
102
RTVSPropertyOp44
 70
     1
102
RTVSPropertyOp45
 70
     1
102
RTVSPropertyOp46
 70
     1
102
RTVSPropertyOp47
 70
     1
102
RTVSPropertyOp48
 70
     1
102
RTVSPropertyOp49
 70
     1
102
RTVSPropertyOp50
 70
     1
102
RTVSPropertyOp51
 70
     0
102
RTVSPropertyOp52
 70
     0
102
RTVSPropertyOp53
 70
     1
102
RTVSPropertyOp54
 70
     1
102
RTVSPropertyOp55
 70
     1
102
RTVSPropertyOp56
 70
     1
102
RTVSPropertyOp57
 70
     1
102
RTVSPost2010Prop28
280
     0
102
RTVSPost2010PropOp28
 70
     1
102
RTVSPost2010Prop29
280
     1
102
RTVSPost2010PropOp29
 70
     1
102
RTVSPost2010Prop30
280
     1
102
RTVSPost2010PropOp30
 70
     1
102
RTVSPost2010Prop31
280
     0
102
RTVSPost2010PropOp31
 70
     1
102
RTVSPost2010Prop32
280
     0
102
RTVSPost2010PropOp32
 70
     1
102
RTVSPost2010Prop33
280
     0
102
RTVSPost2010PropOp33
 70
     1
102
RTVSPost2010Prop34
280
     0
102
RTVSPost2010PropOp34
 70
     1
102
RTVSPost2010Prop35
280
     0
102
RTVSPost2010PropOp35
 70
     1
102
RTVSPost2010Prop36
280
     0
102
RTVSPost2010PropOp36
 70
     1
102
RTVSPost2010Prop37
 90
       50
102
RTVSPost2010PropOp37
 70
     1
102
RTVSPost2010Prop38
140
0.0
102
RTVSPost2010PropOp38
 70
     1
102
RTVSPost2010Prop39
140
1.0
102
RTVSPost2010PropOp39
 70
     1
102
RTVSPost2010Prop40
 90
        0
102
RTVSPost2010PropOp40
 70
     1
102
RTVSPost2010Prop41ColorIndex
 90
       18
102
RTVSPost2010Prop41ColorRGB
 90
        0
102
RTVSPost2010PropOp41
 70
     1
102
RTVSPost2010Prop42
 90
       50
102
RTVSPost2010PropOp42
 70
     1
102
RTVSPost2010Prop43
 90
        3
102
RTVSPost2010PropOp43
 70
     1
102
RTVSPost2010Prop44ColorIndex
 90
        5
102
RTVSPost2010Prop44ColorRGB
 90
      255
102
RTVSPost2010PropOp44
 70
     1
102
RTVSPost2010Prop45
280
     0
102
RTVSPost2010PropOp45
 70
     1
102
RTVSPost2010Prop46
 90
       50
102
RTVSPost2010PropOp46
 70
     1
102
RTVSPost2010Prop47
 90
       50
102
RTVSPost2010PropOp47
 70
     1
102
RTVSPost2010Prop48
 90
       50
102
RTVSPost2010PropOp48
 70
     1
102
RTVSPost2010Prop49
280
     0
102
RTVSPost2010PropOp49
 70
     1
102
RTVSPost2010Prop50
 90
       50
102
RTVSPost2010PropOp50
 70
     1
102
RTVSPost2010Prop51ColorIndex
 90
      256
102
RTVSPost2010Prop51ColorRGB
 90
-16777216
102
RTVSPost2010PropOp51
 70
     0
102
RTVSPost2010Prop52
140
1.0
102
RTVSPost2010PropOp52
 70
     0
102
RTVSPost2010Prop53
 90
        2
102
RTVSPost2010PropOp53
 70
     1
102
RTVSPost2010Prop54
  1
strokes_ogs.tif
102
RTVSPost2010PropOp54
 70
     1
102
RTVSPost2010Prop55
280
     0
102
RTVSPost2010PropOp55
 70
     1
102
RTVSPost2010Prop56
140
1.0
102
RTVSPost2010PropOp56
 70
     1
102
RTVSPost2010Prop57
140
1.0
102
RTVSPost2010PropOp57
 70
     1
  0
ENDSEC
  0
EOF
