  0
SECTION
  2
HEADER
  9
$ACADVER
  1
AC1015
  9
$ACADMAINTVER
 70
     6
  9
$DWGCODEPAGE
  3
ANSI_932
  9
$INSBASE
 10
821.6635006931615
 20
227.9504064979209
 30
0.0
  9
$EXTMIN
 10
74.2976757846726
 20
15.91534593119782
 30
0.0
  9
$EXTMAX
 10
563.0791104764851
 20
454.9682153483494
 30
0.0
  9
$LIMMIN
 10
0.0
 20
0.0
  9
$LIMMAX
 10
816.5000000000001
 20
565.0
  9
$ORTHOMODE
 70
     0
  9
$REGENMODE
 70
     1
  9
$FILLMODE
 70
     1
  9
$QTEXTMODE
 70
     0
  9
$MIRRTEXT
 70
     1
  9
$LTSCALE
 40
20.0
  9
$ATTMODE
 70
     1
  9
$TEXTSIZE
 40
4.5
  9
$TRACEWID
 40
0.05
  9
$TEXTSTYLE
  7
KANJI
  9
$CLAYER
  8
2
  9
$CELTYPE
  6
BYLAYER
  9
$CECOLOR
 62
   256
  9
$CELTSCALE
 40
1.0
  9
$DISPSILH
 70
     0
  9
$DIMSCALE
 40
1.5
  9
$DIMASZ
 40
2.0
  9
$DIMEXO
 40
0.5
  9
$DIMDLI
 40
0.0
  9
$DIMRND
 40
0.0
  9
$DIMDLE
 40
0.0
  9
$DIMEXE
 40
1.0
  9
$DIMTP
 40
0.0
  9
$DIMTM
 40
0.0
  9
$DIMTXT
 40
3.0
  9
$DIMCEN
 40
0.09
  9
$DIMTSZ
 40
0.0
  9
$DIMTOL
 70
     0
  9
$DIMLIM
 70
     0
  9
$DIMTIH
 70
     0
  9
$DIMTOH
 70
     0
  9
$DIMSE1
 70
     0
  9
$DIMSE2
 70
     0
  9
$DIMTAD
 70
     0
  9
$DIMZIN
 70
     8
  9
$DIMBLK
  1

  9
$DIMASO
 70
     0
  9
$DIMSHO
 70
     0
  9
$DIMPOST
  1

  9
$DIMAPOST
  1

  9
$DIMALT
 70
     0
  9
$DIMALTD
 70
     2
  9
$DIMALTF
 40
25.4
  9
$DIMLFAC
 40
1.0
  9
$DIMTOFL
 70
     1
  9
$DIMTVP
 40
1.0
  9
$DIMTIX
 70
     1
  9
$DIMSOXD
 70
     1
  9
$DIMSAH
 70
     0
  9
$DIMBLK1
  1

  9
$DIMBLK2
  1

  9
$DIMSTYLE
  2
STANDARD
  9
$DIMCLRD
 70
   256
  9
$DIMCLRE
 70
   256
  9
$DIMCLRT
 70
   256
  9
$DIMTFAC
 40
1.0
  9
$DIMGAP
 40
0.09
  9
$DIMJUST
 70
     0
  9
$DIMSD1
 70
     0
  9
$DIMSD2
 70
     0
  9
$DIMTOLJ
 70
     1
  9
$DIMTZIN
 70
     0
  9
$DIMALTZ
 70
     0
  9
$DIMALTTZ
 70
     0
  9
$DIMUPT
 70
     0
  9
$DIMDEC
 70
     1
  9
$DIMTDEC
 70
     4
  9
$DIMALTU
 70
     2
  9
$DIMALTTD
 70
     2
  9
$DIMTXSTY
  7
STANDARD
  9
$DIMAUNIT
 70
     0
  9
$DIMADEC
 70
     0
  9
$DIMALTRND
 40
0.0
  9
$DIMAZIN
 70
     0
  9
$DIMDSEP
 70
    46
  9
$DIMATFIT
 70
     3
  9
$DIMFRAC
 70
     0
  9
$DIMLDRBLK
  1

  9
$DIMLUNIT
 70
     2
  9
$DIMLWD
 70
    -2
  9
$DIMLWE
 70
    -2
  9
$DIMTMOVE
 70
     0
  9
$LUNITS
 70
     2
  9
$LUPREC
 70
     3
  9
$SKETCHINC
 40
0.1
  9
$FILLETRAD
 40
1.0
  9
$AUNITS
 70
     0
  9
$AUPREC
 70
     3
  9
$MENU
  1
C:\R13\WIN\SUPPORT\ACADFULL
  9
$ELEVATION
 40
0.0
  9
$PELEVATION
 40
0.0
  9
$THICKNESS
 40
0.0
  9
$LIMCHECK
 70
     0
  9
$CHAMFERA
 40
0.0
  9
$CHAMFERB
 40
0.0
  9
$CHAMFERC
 40
0.0
  9
$CHAMFERD
 40
0.0
  9
$SKPOLY
 70
     0
  9
$TDCREATE
 40
2449813.131805555
  9
$TDUCREATE
 40
2449812.756805555
  9
$TDUPDATE
 40
2457871.82720993
  9
$TDUUPDATE
 40
2457871.45220993
  9
$TDINDWG
 40
1.1379153935
  9
$TDUSRTIMER
 40
1.137915
  9
$USRTIMER
 70
     1
  9
$ANGBASE
 50
0.0
  9
$ANGDIR
 70
     0
  9
$PDMODE
 70
     0
  9
$PDSIZE
 40
0.0
  9
$PLINEWID
 40
0.0
  9
$SPLFRAME
 70
     0
  9
$SPLINETYPE
 70
     6
  9
$SPLINESEGS
 70
     8
  9
$HANDSEED
  5
546
  9
$SURFTAB1
 70
     6
  9
$SURFTAB2
 70
     6
  9
$SURFTYPE
 70
     6
  9
$SURFU
 70
     6
  9
$SURFV
 70
     6
  9
$UCSBASE
  2

  9
$UCSNAME
  2

  9
$UCSORG
 10
0.0
 20
0.0
 30
0.0
  9
$UCSXDIR
 10
1.0
 20
0.0
 30
0.0
  9
$UCSYDIR
 10
0.0
 20
1.0
 30
0.0
  9
$UCSORTHOREF
  2

  9
$UCSORTHOVIEW
 70
     0
  9
$UCSORGTOP
 10
0.0
 20
0.0
 30
0.0
  9
$UCSORGBOTTOM
 10
0.0
 20
0.0
 30
0.0
  9
$UCSORGLEFT
 10
0.0
 20
0.0
 30
0.0
  9
$UCSORGRIGHT
 10
0.0
 20
0.0
 30
0.0
  9
$UCSORGFRONT
 10
0.0
 20
0.0
 30
0.0
  9
$UCSORGBACK
 10
0.0
 20
0.0
 30
0.0
  9
$PUCSBASE
  2

  9
$PUCSNAME
  2

  9
$PUCSORG
 10
0.0
 20
0.0
 30
0.0
  9
$PUCSXDIR
 10
1.0
 20
0.0
 30
0.0
  9
$PUCSYDIR
 10
0.0
 20
1.0
 30
0.0
  9
$PUCSORTHOREF
  2

  9
$PUCSORTHOVIEW
 70
     0
  9
$PUCSORGTOP
 10
0.0
 20
0.0
 30
0.0
  9
$PUCSORGBOTTOM
 10
0.0
 20
0.0
 30
0.0
  9
$PUCSORGLEFT
 10
0.0
 20
0.0
 30
0.0
  9
$PUCSORGRIGHT
 10
0.0
 20
0.0
 30
0.0
  9
$PUCSORGFRONT
 10
0.0
 20
0.0
 30
0.0
  9
$PUCSORGBACK
 10
0.0
 20
0.0
 30
0.0
  9
$USERI1
 70
     0
  9
$USERI2
 70
     0
  9
$USERI3
 70
     0
  9
$USERI4
 70
     0
  9
$USERI5
 70
     0
  9
$USERR1
 40
0.0
  9
$USERR2
 40
0.0
  9
$USERR3
 40
0.0
  9
$USERR4
 40
2448925.372986111
  9
$USERR5
 40
0.04166667
  9
$WORLDVIEW
 70
     1
  9
$SHADEDGE
 70
     3
  9
$SHADEDIF
 70
    70
  9
$TILEMODE
 70
     1
  9
$MAXACTVP
 70
    16
  9
$PINSBASE
 10
0.0
 20
0.0
 30
0.0
  9
$PLIMCHECK
 70
     0
  9
$PEXTMIN
 10
1.000000000000000E+20
 20
1.000000000000000E+20
 30
1.000000000000000E+20
  9
$PEXTMAX
 10
-1.000000000000000E+20
 20
-1.000000000000000E+20
 30
-1.000000000000000E+20
  9
$PLIMMIN
 10
0.0
 20
0.0
  9
$PLIMMAX
 10
12.0
 20
9.0
  9
$UNITMODE
 70
     0
  9
$VISRETAIN
 70
     0
  9
$PLINEGEN
 70
     0
  9
$PSLTSCALE
 70
     0
  9
$TREEDEPTH
 70
  3020
  9
$CMLSTYLE
  2
STANDARD
  9
$CMLJUST
 70
     0
  9
$CMLSCALE
 40
1.0
  9
$PROXYGRAPHICS
 70
     1
  9
$MEASUREMENT
 70
     0
  9
$CELWEIGHT
370
    -1
  9
$ENDCAPS
280
     0
  9
$JOINSTYLE
280
     0
  9
$LWDISPLAY
290
     0
  9
$INSUNITS
 70
     0
  9
$HYPERLINKBASE
  1

  9
$STYLESHEET
  1

  9
$XEDIT
290
     1
  9
$CEPSNTYPE
380
     0
  9
$PSTYLEMODE
290
     1
  9
$FINGERPRINTGUID
  2
{1207B529-6B91-43A1-A6FF-1655EF8C041E}
  9
$VERSIONGUID
  2
{729004AC-B4DE-4596-A085-33E087AD932D}
  9
$EXTNAMES
290
     1
  9
$PSVPSCALE
 40
0.0
  9
$OLESTARTUP
290
     0
  0
ENDSEC
  0
SECTION
  2
CLASSES
  0
CLASS
  1
ACDBDICTIONARYWDFLT
  2
AcDbDictionaryWithDefault
  3
ObjectDBX Classes
 90
        0
280
     0
281
     0
  0
CLASS
  1
MATERIAL
  2
AcDbMaterial
  3
ObjectDBX Classes
 90
     1153
280
     0
281
     0
  0
CLASS
  1
SORTENTSTABLE
  2
AcDbSortentsTable
  3
ObjectDBX Classes
 90
        0
280
     0
281
     0
  0
CLASS
  1
SCALE
  2
AcDbScale
  3
ObjectDBX Classes
 90
     1153
280
     0
281
     0
  0
CLASS
  1
DICTIONARYVAR
  2
AcDbDictionaryVar
  3
ObjectDBX Classes
 90
        0
280
     0
281
     0
  0
CLASS
  1
VISUALSTYLE
  2
AcDbVisualStyle
  3
ObjectDBX Classes
 90
     4095
280
     0
281
     0
  0
CLASS
  1
MLEADERSTYLE
  2
AcDbMLeaderStyle
  3
ACDB_MLEADERSTYLE_CLASS
 90
     4095
280
     0
281
     0
  0
CLASS
  1
TABLESTYLE
  2
AcDbTableStyle
  3
ObjectDBX Classes
 90
     4095
280
     0
281
     0
  0
CLASS
  1
ACDBPLACEHOLDER
  2
AcDbPlaceHolder
  3
ObjectDBX Classes
 90
        0
280
     0
281
     0
  0
CLASS
  1
LAYOUT
  2
AcDbLayout
  3
ObjectDBX Classes
 90
        0
280
     0
281
     0
  0
ENDSEC
  0
SECTION
  2
TABLES
  0
TABLE
  2
VPORT
  5
25
102
{ACAD_XDICTIONARY
360
50B
102
}
330
0
100
AcDbSymbolTable
 70
     7
  0
VPORT
  5
2B
330
25
100
AcDbSymbolTableRecord
100
AcDbViewportTableRecord
  2
*ACTIVE
 70
     0
 10
0.0
 20
0.0
 11
1.0
 21
1.0
 12
485.161662648315
 22
232.5833567361415
 13
0.0
 23
0.0
 14
1.0
 24
1.0
 15
50.0
 25
50.0
 16
0.0
 26
0.0
 36
1.0
 17
0.0
 27
0.0
 37
0.0
 40
539.9133767329081
 41
2.171641791044776
 42
50.0
 43
0.0
 44
0.0
 50
0.0
 51
0.0
 71
     0
 72
  5000
 73
     1
 74
     0
 75
     0
 76
     0
 77
     0
 78
     0
281
     0
 65
     1
110
0.0
120
0.0
130
0.0
111
1.0
121
0.0
131
0.0
112
0.0
122
1.0
132
0.0
 79
     0
146
0.0
  0
ENDTAB
  0
TABLE
  2
LTYPE
  5
9
330
0
100
AcDbSymbolTable
 70
     2
  0
LTYPE
  5
A
330
9
100
AcDbSymbolTableRecord
100
AcDbLinetypeTableRecord
  2
BYBLOCK
 70
     0
  3

 72
    65
 73
     0
 40
0.0
  0
LTYPE
  5
B
330
9
100
AcDbSymbolTableRecord
100
AcDbLinetypeTableRecord
  2
BYLAYER
 70
     0
  3

 72
    65
 73
     0
 40
0.0
  0
LTYPE
  5
8
330
9
100
AcDbSymbolTableRecord
100
AcDbLinetypeTableRecord
  2
CONTINUOUS
 70
     0
  3
Solid line
 72
    65
 73
     0
 40
0.0
  0
LTYPE
  5
7A
330
9
100
AcDbSymbolTableRecord
100
AcDbLinetypeTableRecord
  2
CENTER
 70
     0
  3
Center ____ _ ____ _ ____ _ ____ _ ____ _ ____
 72
    65
 73
     4
 40
2.0
 49
1.25
 74
     0
 49
-0.25
 74
     0
 49
0.25
 74
     0
 49
-0.25
 74
     0
  0
ENDTAB
  0
TABLE
  2
LAYER
  5
2
330
0
100
AcDbSymbolTable
 70
     8
  0
LAYER
  5
19
330
2
100
AcDbSymbolTableRecord
100
AcDbLayerTableRecord
  2
0
 70
     0
 62
     7
  6
CONTINUOUS
370
    -3
390
3
  0
LAYER
  5
2B0
330
2
100
AcDbSymbolTableRecord
100
AcDbLayerTableRecord
  2
1
 70
     0
 62
     9
  6
CONTINUOUS
370
    -3
390
3
  0
LAYER
  5
1
330
2
100
AcDbSymbolTableRecord
100
AcDbLayerTableRecord
  2
2
 70
     0
 62
     4
  6
CONTINUOUS
370
    -3
390
3
  0
LAYER
  5
74
330
2
100
AcDbSymbolTableRecord
100
AcDbLayerTableRecord
  2
4
 70
     0
 62
     3
  6
CONTINUOUS
370
    -3
390
3
  0
LAYER
  5
79
330
2
100
AcDbSymbolTableRecord
100
AcDbLayerTableRecord
  2
L-CENTER
 70
     0
 62
     1
  6
CENTER
370
    -3
390
3
  0
LAYER
  5
72
330
2
100
AcDbSymbolTableRecord
100
AcDbLayerTableRecord
  2
3
 70
     0
 62
     2
  6
CONTINUOUS
370
    -3
390
3
  0
LAYER
  5
2AA
330
2
100
AcDbSymbolTableRecord
100
AcDbLayerTableRecord
  2
5
 70
     0
 62
     6
  6
CONTINUOUS
370
    -3
390
3
  0
LAYER
  5
46A
330
2
100
AcDbSymbolTableRecord
100
AcDbLayerTableRecord
  2
Defpoints
 70
     0
 62
     7
  6
CONTINUOUS
290
     0
370
    -3
390
3
  0
ENDTAB
  0
TABLE
  2
STYLE
  5
D
330
0
100
AcDbSymbolTable
 70
     2
  0
STYLE
  5
11
330
D
100
AcDbSymbolTableRecord
100
AcDbTextStyleTableRecord
  2
STANDARD
 70
     0
 40
0.0
 41
1.0
 50
0.0
 71
     0
 42
2.7
  3
TXT
  4

  0
STYLE
  5
C
330
D
100
AcDbSymbolTableRecord
100
AcDbTextStyleTableRecord
  2
KANJI
 70
     0
 40
0.0
 41
1.0
 50
0.0
 71
     0
 42
4.5
  3
TXT
  4
BIGFONT
  0
ENDTAB
  0
TABLE
  2
VIEW
  5
23
330
0
100
AcDbSymbolTable
 70
     0
  0
ENDTAB
  0
TABLE
  2
UCS
  5
24
330
0
100
AcDbSymbolTable
 70
     0
  0
ENDTAB
  0
TABLE
  2
APPID
  5
1E
330
0
100
AcDbSymbolTable
 70
     5
  0
APPID
  5
2A
330
1E
100
AcDbSymbolTableRecord
100
AcDbRegAppTableRecord
  2
ACAD
 70
     0
  0
APPID
  5
1D
330
1E
100
AcDbSymbolTableRecord
100
AcDbRegAppTableRecord
  2
ACAD_PSEXT
 70
     0
  0
APPID
  5
447
330
1E
100
AcDbSymbolTableRecord
100
AcDbRegAppTableRecord
  2
ACAD_MLEADERVER
 70
     0
  0
ENDTAB
  0
TABLE
  2
DIMSTYLE
  5
10
330
0
100
AcDbSymbolTable
 70
     1
100
AcDbDimStyleTable
  0
DIMSTYLE
105
F
330
10
100
AcDbSymbolTableRecord
100
AcDbDimStyleTableRecord
  2
STANDARD
 70
     0
178
     0
340
11
  0
ENDTAB
  0
TABLE
  2
BLOCK_RECORD
  5
14
330
0
100
AcDbSymbolTable
 70
     0
  0
BLOCK_RECORD
  5
15
102
{ACAD_XDICTIONARY
360
16
102
}
330
14
100
AcDbSymbolTableRecord
100
AcDbBlockTableRecord
  2
*MODEL_SPACE
340
1B
  0
BLOCK_RECORD
  5
1F
330
14
100
AcDbSymbolTableRecord
100
AcDbBlockTableRecord
  2
*PAPER_SPACE
340
22
  0
ENDTAB
  0
ENDSEC
  0
SECTION
  2
BLOCKS
  0
BLOCK
  5
18
330
15
100
AcDbEntity
  8
0
100
AcDbBlockBegin
  2
*MODEL_SPACE
 70
     0
 10
0.0
 20
0.0
 30
0.0
  3
*MODEL_SPACE
  1

  0
ENDBLK
  5
1A
330
15
100
AcDbEntity
  8
0
100
AcDbBlockEnd
  0
BLOCK
  5
20
330
1F
100
AcDbEntity
 67
     1
  8
0
100
AcDbBlockBegin
  2
*PAPER_SPACE
 70
     0
 10
0.0
 20
0.0
 30
0.0
  3
*PAPER_SPACE
  1

  0
ENDBLK
  5
21
330
1F
100
AcDbEntity
 67
     1
  8
0
100
AcDbBlockEnd
  0
ENDSEC
  0
SECTION
  2
ENTITIES
  0
LINE
  5
73
330
15
100
AcDbEntity
  8
4
100
AcDbLine
 10
470.6343488032729
 20
162.5481732241316
 30
0.0
 11
469.634348303273
 21
162.5481732241316
 31
0.0
  0
LINE
  5
75
330
15
100
AcDbEntity
  8
4
100
AcDbLine
 10
449.134347803273
 20
28.54834172413163
 30
0.0
 11
559.1343488032729
 21
28.54834172413163
 31
0.0
  0
LINE
  5
76
330
15
100
AcDbEntity
  8
4
100
AcDbLine
 10
452.134347803273
 20
49.54834172413163
 30
0.0
 11
556.1343488032729
 21
49.54834172413163
 31
0.0
  0
ARC
  5
77
330
15
100
AcDbEntity
  8
4
100
AcDbCircle
 10
463.634348303273
 20
56.5483422241316
 30
0.0
 40
7.000000499999999
100
AcDbArc
 50
270.0
 51
0.0
  0
LINE
  5
78
330
15
100
AcDbEntity
  8
L-CENTER
 48
0.5
100
AcDbLine
 10
396.6900375402382
 20
98.54817422413163
 30
0.0
 11
563.0791104764851
 21
98.54817422413163
 31
0.0
  0
LINE
  5
7B
330
15
100
AcDbEntity
  8
L-CENTER
 48
0.5
100
AcDbLine
 10
541.5018203575288
 20
158.5481742241317
 30
0.0
 11
466.7668762490172
 21
158.5481742241317
 31
0.0
  0
LINE
  5
81
330
15
100
AcDbEntity
  8
4
100
AcDbLine
 10
469.634348303273
 20
52.94279072413164
 30
0.0
 11
469.634348303273
 21
162.5481732241316
 31
0.0
  0
ARC
  5
85
330
15
100
AcDbEntity
  8
4
100
AcDbCircle
 10
297.1040686353998
 20
155.4488082241316
 30
0.0
 40
2.999976
100
AcDbArc
 50
8.239470000000304
 51
81.76042699999894
  0
ARC
  5
86
330
15
100
AcDbEntity
  8
4
100
AcDbCircle
 10
183.3027541353998
 20
155.4488082241316
 30
0.0
 40
2.999976
100
AcDbArc
 50
98.23957300000106
 51
171.7605299999996
  0
CIRCLE
  5
87
330
15
100
AcDbEntity
  8
4
100
AcDbCircle
 10
240.2033581353999
 20
98.54817422413163
 30
0.0
 40
63.0
  0
LINE
  5
88
330
15
100
AcDbEntity
  8
L-CENTER
 48
0.5
100
AcDbLine
 10
240.2033581353999
 20
196.8078522241316
 30
0.0
 11
240.2033581353999
 21
30.41689438578874
 31
0.0
  0
LINE
  5
89
330
15
100
AcDbEntity
  8
4
100
AcDbLine
 10
176.2036321353999
 20
126.0481737241316
 30
0.0
 11
176.2036321353999
 21
192.0481737241316
 31
0.0
  0
LINE
  5
8A
330
15
100
AcDbEntity
  8
4
100
AcDbLine
 10
172.2036331353999
 20
191.0481732241316
 30
0.0
 11
172.2036331353999
 21
126.0481737241316
 31
0.0
  0
LINE
  5
8B
330
15
100
AcDbEntity
  8
4
100
AcDbLine
 10
171.2036326353998
 20
182.0481732241316
 30
0.0
 11
171.2036326353998
 21
135.0481737241316
 31
0.0
  0
LINE
  5
8C
330
15
100
AcDbEntity
  8
4
100
AcDbLine
 10
308.2031896353998
 20
191.0481732241316
 30
0.0
 11
308.2031896353998
 21
126.0481737241316
 31
0.0
  0
LINE
  5
8D
330
15
100
AcDbEntity
  8
4
100
AcDbLine
 10
304.2031891353998
 20
126.0481737241316
 30
0.0
 11
304.2031891353998
 21
192.0481737241316
 31
0.0
  0
LINE
  5
8E
330
15
100
AcDbEntity
  8
4
100
AcDbLine
 10
309.2031901353998
 20
182.0481732241316
 30
0.0
 11
309.2031901353998
 21
135.0481737241316
 31
0.0
  0
LINE
  5
92
330
15
100
AcDbEntity
  8
4
100
AcDbLine
 10
463.634348303273
 20
49.54834172413163
 30
0.0
 11
463.634348303273
 21
160.5481737241316
 31
0.0
  0
ARC
  5
95
330
15
100
AcDbEntity
  8
4
100
AcDbCircle
 10
240.2036326353998
 20
171.5484177241316
 30
0.0
 40
99.999999
100
AcDbArc
 50
257.1514829999999
 51
282.849507
  0
ARC
  5
96
330
15
100
AcDbEntity
  8
4
100
AcDbCircle
 10
240.2033881353999
 20
434.5486617241316
 30
0.0
 40
400.000002
100
AcDbArc
 50
262.9446470000001
 51
277.05536
  0
LINE
  5
97
330
15
100
AcDbEntity
  8
4
100
AcDbLine
 10
192.7036321353999
 20
34.54834172413163
 30
0.0
 11
287.7031891353998
 21
34.54834172413163
 31
0.0
  0
ARC
  5
98
330
15
100
AcDbEntity
  8
4
100
AcDbCircle
 10
240.2036326353998
 20
169.5484182241316
 30
0.0
 40
100.000002
100
AcDbArc
 50
256.1701249999999
 51
283.830872
  0
LINE
  5
99
330
15
100
AcDbEntity
  8
L-CENTER
 48
0.5
100
AcDbLine
 10
172.0720782970569
 20
98.54817422413163
 30
0.0
 11
308.3346379737428
 21
98.54817422413163
 31
0.0
  0
ARC
  5
9A
330
15
100
AcDbEntity
  8
4
100
AcDbCircle
 10
240.2033581353999
 20
27.54835622413162
 30
0.0
 40
99.99998550000001
100
AcDbArc
 50
76.169548
 51
103.830422
  0
ARC
  5
9B
330
15
100
AcDbEntity
  8
4
100
AcDbCircle
 10
240.2036326353998
 20
25.54835672413162
 30
0.0
 40
100.0000395
100
AcDbArc
 50
77.15112500000002
 51
102.849151
  0
ARC
  5
9E
330
15
100
AcDbEntity
  8
4
100
AcDbCircle
 10
240.2033581353998
 20
98.54817422413163
 30
0.0
 40
48.0
100
AcDbArc
 50
108.7420477253906
 51
71.25795227460911
  0
ARC
  5
9F
330
15
100
AcDbEntity
  8
4
100
AcDbCircle
 10
180.2828986353999
 20
52.54834172413163
 30
0.0
 40
3.0
100
AcDbArc
 50
270.0
 51
17.49679700000084
  0
LINE
  5
A0
330
15
100
AcDbEntity
  8
4
100
AcDbLine
 10
176.2036321353999
 20
98.54817422413163
 30
0.0
 11
176.2036321353999
 21
51.54834122413166
 31
0.0
  0
LINE
  5
A1
330
15
100
AcDbEntity
  8
L-CENTER
 48
0.5
100
AcDbLine
 10
165.2036326353998
 20
56.54834172413163
 30
0.0
 11
165.2036326353998
 21
21.54834172413163
 31
0.0
  0
LINE
  5
A2
330
15
100
AcDbEntity
  8
4
100
AcDbLine
 10
173.2036321353999
 20
49.54834172413163
 30
0.0
 11
173.2036321353999
 21
68.5483422241316
 31
0.0
  0
LINE
  5
A3
330
15
100
AcDbEntity
  8
4
100
AcDbLine
 10
155.7036331353999
 20
49.54834172413163
 30
0.0
 11
184.7036326353998
 21
49.54834172413163
 31
0.0
  0
LINE
  5
A4
330
15
100
AcDbEntity
  8
4
100
AcDbLine
 10
189.7036321353999
 20
28.54834172413163
 30
0.0
 11
152.7036331353999
 21
28.54834172413163
 31
0.0
  0
LINE
  5
A9
330
15
100
AcDbEntity
  8
4
100
AcDbLine
 10
152.7036331353999
 20
46.54834172413163
 30
0.0
 11
152.7036331353999
 21
28.54834172413163
 31
0.0
  0
ARC
  5
AA
330
15
100
AcDbEntity
  8
4
100
AcDbCircle
 10
155.7036331353999
 20
46.54834172413163
 30
0.0
 40
3.0
100
AcDbArc
 50
90.0
 51
180.0002860014283
  0
ARC
  5
AB
330
15
100
AcDbEntity
  8
4
100
AcDbCircle
 10
174.2036326353998
 20
51.54834122413166
 30
0.0
 40
1.9999995
100
AcDbArc
 50
270.0
 51
0.0
  0
LINE
  5
AC
330
15
100
AcDbEntity
  8
4
100
AcDbLine
 10
187.7036326353998
 20
46.54834172413163
 30
0.0
 11
187.7036326353998
 21
28.54834172413163
 31
0.0
  0
ARC
  5
AD
330
15
100
AcDbEntity
  8
4
100
AcDbCircle
 10
190.7036326353998
 20
34.60019522413165
 30
0.0
 40
3.0
100
AcDbArc
 50
82.94464700000124
 51
180.0
  0
ARC
  5
AE
330
15
100
AcDbEntity
  8
4
100
AcDbCircle
 10
192.7036321353999
 20
31.54834172413163
 30
0.0
 40
3.0
100
AcDbArc
 50
90.0
 51
180.0002860014283
  0
LINE
  5
AF
330
15
100
AcDbEntity
  8
4
100
AcDbLine
 10
189.7036321353999
 20
31.54834172413163
 30
0.0
 11
189.7036321353999
 21
28.54834172413163
 31
0.0
  0
ARC
  5
B0
330
15
100
AcDbEntity
  8
4
100
AcDbCircle
 10
184.7036326353998
 20
46.54834172413163
 30
0.0
 40
3.0
100
AcDbArc
 50
0.0
 51
90.0
  0
LINE
  5
B1
330
15
100
AcDbEntity
  8
L-CENTER
 48
0.5
100
AcDbLine
 10
162.1863436353998
 20
89.5483422241316
 30
0.0
 11
183.5043826353998
 21
89.5483422241316
 31
0.0
  0
LINE
  5
B2
330
15
100
AcDbEntity
  8
4
100
AcDbLine
 10
164.7036331353999
 20
77.04832622413164
 30
0.0
 11
171.7036321353999
 21
77.04832622413164
 31
0.0
  0
LINE
  5
B3
330
15
100
AcDbEntity
  8
4
100
AcDbLine
 10
169.7036326353998
 20
83.29834172413163
 30
0.0
 11
164.7036331353999
 21
83.29834172413163
 31
0.0
  0
LINE
  5
B4
330
15
100
AcDbEntity
  8
4
100
AcDbLine
 10
171.7036321353999
 20
102.0481737241316
 30
0.0
 11
164.7036331353999
 21
102.0481737241316
 31
0.0
  0
LINE
  5
B5
330
15
100
AcDbEntity
  8
4
100
AcDbLine
 10
169.7036326353998
 20
95.79817322413163
 30
0.0
 11
164.7036331353999
 21
95.79817322413163
 31
0.0
  0
LINE
  5
B6
330
15
100
AcDbEntity
  8
4
100
AcDbLine
 10
164.7036331353999
 20
77.04832622413164
 30
0.0
 11
164.7036331353999
 21
102.0481737241316
 31
0.0
  0
ARC
  5
B7
330
15
100
AcDbEntity
  8
4
100
AcDbCircle
 10
576.2039221353999
 20
98.54817422413163
 30
0.0
 40
400.000002
100
AcDbArc
 50
171.760082
 51
180.0003849998515
  0
ARC
  5
B8
330
15
100
AcDbEntity
  8
4
100
AcDbCircle
 10
173.3044291353998
 20
107.5481742241317
 30
0.0
 40
3.0
100
AcDbArc
 50
270.0
 51
358.7203350000001
  0
ARC
  5
B9
330
15
100
AcDbEntity
  8
4
100
AcDbCircle
 10
313.2036781353999
 20
98.54841722413164
 30
0.0
 40
100.000011
100
AcDbArc
 50
167.151551
 51
192.848918
  0
ARC
  5
BA
330
15
100
AcDbEntity
  8
4
100
AcDbCircle
 10
311.2036771353999
 20
98.54841722413164
 30
0.0
 40
99.999999
100
AcDbArc
 50
166.170225
 51
193.830278
  0
LINE
  5
BB
330
15
100
AcDbEntity
  8
4
100
AcDbLine
 10
173.2036321353999
 20
104.5481742241316
 30
0.0
 11
173.2036321353999
 21
74.5483422241316
 31
0.0
  0
LINE
  5
BC
330
15
100
AcDbEntity
  8
4
100
AcDbLine
 10
171.7036321353999
 20
77.04832622413164
 30
0.0
 11
171.7036321353999
 21
102.0481737241316
 31
0.0
  0
LINE
  5
BD
330
15
100
AcDbEntity
  8
4
100
AcDbLine
 10
169.7036326353998
 20
77.04832622413164
 30
0.0
 11
169.7036326353998
 21
102.0481737241316
 31
0.0
  0
ARC
  5
BE
330
15
100
AcDbEntity
  8
4
100
AcDbCircle
 10
326.2041661354
 20
98.54817422413163
 30
0.0
 40
150.000003
100
AcDbArc
 50
180.0003729994306
 51
197.496797
  0
LINE
  5
BF
330
15
100
AcDbEntity
  8
L-CENTER
 48
0.5
100
AcDbLine
 10
171.0779611353998
 20
58.54834172413163
 30
0.0
 11
178.9738351353999
 21
58.54834172413163
 31
0.0
  0
LINE
  5
C0
330
15
100
AcDbEntity
  8
4
100
AcDbLine
 10
172.2036331353999
 20
54.04834172413163
 30
0.0
 11
172.2036331353999
 21
63.04834172413163
 31
0.0
  0
LINE
  5
C1
330
15
100
AcDbEntity
  8
4
100
AcDbLine
 10
172.2036331353999
 20
54.04834172413163
 30
0.0
 11
173.2036321353999
 21
54.04834172413163
 31
0.0
  0
LINE
  5
C2
330
15
100
AcDbEntity
  8
4
100
AcDbLine
 10
172.2036331353999
 20
63.04834172413163
 30
0.0
 11
173.2036321353999
 21
63.04834172413163
 31
0.0
  0
LINE
  5
C3
330
15
100
AcDbEntity
  8
4
100
AcDbLine
 10
173.2036321353999
 20
68.5483422241316
 30
0.0
 11
174.2036326353998
 21
68.5483422241316
 31
0.0
  0
LINE
  5
C4
330
15
100
AcDbEntity
  8
4
100
AcDbLine
 10
174.2036326353998
 20
74.5483422241316
 30
0.0
 11
173.2036321353999
 21
74.5483422241316
 31
0.0
  0
LINE
  5
C5
330
15
100
AcDbEntity
  8
4
100
AcDbLine
 10
173.2036321353999
 20
78.04832672413164
 30
0.0
 11
171.7036321353999
 21
78.04832672413164
 31
0.0
  0
LINE
  5
C6
330
15
100
AcDbEntity
  8
4
100
AcDbLine
 10
175.2036331353999
 20
73.54834172413163
 30
0.0
 11
175.2036331353999
 21
69.54834122413166
 31
0.0
  0
ARC
  5
C7
330
15
100
AcDbEntity
  8
4
100
AcDbCircle
 10
174.2036326353998
 20
69.54834122413166
 30
0.0
 40
1.0000005
100
AcDbArc
 50
270.0
 51
0.0
  0
ARC
  5
C8
330
15
100
AcDbEntity
  8
4
100
AcDbCircle
 10
174.2036326353998
 20
73.54834172413163
 30
0.0
 40
1.0000005
100
AcDbArc
 50
0.0
 51
90.0
  0
LINE
  5
C9
330
15
100
AcDbEntity
  8
4
100
AcDbLine
 10
173.3044291353998
 20
104.5481742241316
 30
0.0
 11
173.2036321353999
 21
104.5481742241316
 31
0.0
  0
LINE
  5
CA
330
15
100
AcDbEntity
  8
4
100
AcDbLine
 10
173.2036321353999
 20
101.0481732241316
 30
0.0
 11
171.7036321353999
 21
101.0481732241316
 31
0.0
  0
ARC
  5
CB
330
15
100
AcDbEntity
  8
4
100
AcDbCircle
 10
217.0158871353998
 20
75.36068822413165
 30
0.0
 40
3.0
100
AcDbArc
 50
193.8304299999992
 51
256.1698709999997
  0
ARC
  5
CC
330
15
100
AcDbEntity
  8
4
100
AcDbCircle
 10
218.6323441353998
 20
76.97734322413163
 30
0.0
 40
2.9999985
100
AcDbArc
 50
192.8489500000003
 51
257.1516080000007
  0
LINE
  5
CD
330
15
100
AcDbEntity
  8
4
100
AcDbLine
 10
177.1503526353998
 20
126.0481737241316
 30
0.0
 11
172.2036331353999
 21
126.0481737241316
 31
0.0
  0
LINE
  5
CE
330
15
100
AcDbEntity
  8
4
100
AcDbLine
 10
171.2036326353998
 20
135.0481737241316
 30
0.0
 11
172.2036331353999
 21
135.0481737241316
 31
0.0
  0
ARC
  5
CF
330
15
100
AcDbEntity
  8
4
100
AcDbCircle
 10
217.0158871353998
 20
121.7359182241316
 30
0.0
 40
3.0000195
100
AcDbArc
 50
103.8301290000002
 51
166.171554
  0
ARC
  5
D0
330
15
100
AcDbEntity
  8
4
100
AcDbCircle
 10
218.6323441353998
 20
120.1192182241317
 30
0.0
 40
2.9999745
100
AcDbArc
 50
102.8492730000006
 51
167.149355
  0
TEXT
  5
D2
330
15
100
AcDbEntity
  8
3
100
AcDbText
 10
370.1260720227205
 20
15.91534593119782
 30
0.0
 40
4.684553993753926
  1
LB1.5-03
  7
KANJI
100
AcDbText
  0
ARC
  5
D3
330
15
100
AcDbEntity
  8
4
100
AcDbCircle
 10
300.1241296353999
 20
52.54834172413163
 30
0.0
 40
3.0
100
AcDbArc
 50
162.5032019999999
 51
270.0
  0
LINE
  5
D4
330
15
100
AcDbEntity
  8
4
100
AcDbLine
 10
304.2031891353998
 20
98.54817422413163
 30
0.0
 11
304.2031891353998
 21
51.54834122413166
 31
0.0
  0
LINE
  5
D5
330
15
100
AcDbEntity
  8
L-CENTER
 48
0.5
100
AcDbLine
 10
315.2031901353998
 20
56.54834172413163
 30
0.0
 11
315.2031901353998
 21
21.54834172413163
 31
0.0
  0
LINE
  5
D6
330
15
100
AcDbEntity
  8
4
100
AcDbLine
 10
290.7031891353998
 20
28.54834172413163
 30
0.0
 11
327.7031896353998
 21
28.54834172413163
 31
0.0
  0
ARC
  5
D7
330
15
100
AcDbEntity
  8
4
100
AcDbCircle
 10
289.7031901353998
 20
34.60020122413164
 30
0.0
 40
3.0
100
AcDbArc
 50
0.0
 51
97.05535999999952
  0
ARC
  5
D8
330
15
100
AcDbEntity
  8
4
100
AcDbCircle
 10
295.7031901353998
 20
46.54834172413163
 30
0.0
 40
3.0
100
AcDbArc
 50
90.0
 51
180.0
  0
LINE
  5
DB
330
15
100
AcDbEntity
  8
4
100
AcDbLine
 10
292.7031901353998
 20
46.54834172413163
 30
0.0
 11
292.7031901353998
 21
28.54834172413163
 31
0.0
  0
LINE
  5
DC
330
15
100
AcDbEntity
  8
4
100
AcDbLine
 10
290.7031891353998
 20
31.54834172413163
 30
0.0
 11
290.7031891353998
 21
28.54834172413163
 31
0.0
  0
ARC
  5
DD
330
15
100
AcDbEntity
  8
4
100
AcDbCircle
 10
287.7031891353998
 20
31.54834172413163
 30
0.0
 40
3.0
100
AcDbArc
 50
0.0
 51
90.0
  0
ARC
  5
E0
330
15
100
AcDbEntity
  8
4
100
AcDbCircle
 10
324.7031896353998
 20
46.54834172413163
 30
0.0
 40
3.0
100
AcDbArc
 50
0.0
 51
90.0
  0
LINE
  5
E5
330
15
100
AcDbEntity
  8
4
100
AcDbLine
 10
324.7031896353998
 20
49.54834172413163
 30
0.0
 11
295.7031901353998
 21
49.54834172413163
 31
0.0
  0
LWPOLYLINE
  5
E6
330
15
100
AcDbEntity
  8
4
100
AcDbPolyline
 90
       35
 70
     0
 43
0.0
 10
300.5883916353998
 20
49.54834172413163
 10
300.5715676353999
 20
49.10612822413165
 10
300.5588791353998
 20
48.66491522413162
 10
300.5526526353999
 20
48.22526522413165
 10
300.5960356353999
 20
46.92132272413161
 10
300.7814116353998
 20
45.65171822413163
 10
300.8856241353998
 20
45.23877422413165
 10
301.0149286353999
 20
44.83189922413163
 10
301.1716531353998
 20
44.43165422413165
 10
301.3575406353998
 20
44.03560172413162
 10
301.5643366353999
 20
43.64497022413161
 10
301.7828056353998
 20
43.25789522413163
 10
302.4158626353998
 20
42.09931922413165
 10
302.5886416353998
 20
41.70778622413164
 10
302.7269026353998
 20
41.31046922413162
 10
302.8214116353998
 20
40.90550072413163
 10
302.8654786353999
 20
40.50580022413163
 10
302.8697311353999
 20
40.09858022413161
 10
302.8438021353999
 20
39.68519972413165
 10
302.6812561353998
 20
38.42172722413164
 10
302.6309296353999
 20
37.99733072413164
 10
302.5985851353998
 20
37.57358522413165
 10
302.5938571353998
 20
37.15185122413163
 10
302.6355256353999
 20
36.63447422413165
 10
302.7220201353998
 20
36.12159872413162
 10
302.8411786353998
 20
35.61256322413161
 10
303.2730106353998
 20
34.10188922413161
 10
303.4011961353998
 20
33.60160622413161
 10
303.5012326353998
 20
33.1018587241316
 10
303.5609566353997
 20
32.60198522413162
 10
303.5540476353998
 20
31.79387372413163
 10
303.4351411353998
 20
30.98408372413164
 10
303.2289031353998
 20
30.17298422413165
 10
302.9600011353998
 20
29.36094722413165
 10
302.6530981353998
 20
28.54834172413163
  0
ARC
  5
E7
330
15
100
AcDbEntity
  8
4
100
AcDbCircle
 10
306.2031901353998
 20
51.54834122413166
 30
0.0
 40
1.9999995
100
AcDbArc
 50
180.0
 51
270.0
  0
LINE
  5
E8
330
15
100
AcDbEntity
  8
4
100
AcDbLine
 10
320.7031891353998
 20
49.54834172413163
 30
0.0
 11
320.7031891353998
 21
28.54834172413163
 31
0.0
  0
LINE
  5
E9
330
15
100
AcDbEntity
  8
4
100
AcDbLine
 10
309.7031896353998
 20
49.54834172413163
 30
0.0
 11
309.7031896353998
 21
28.54834172413163
 31
0.0
  0
LINE
  5
EC
330
15
100
AcDbEntity
  8
4
100
AcDbLine
 10
327.7031896353998
 20
46.54834172413163
 30
0.0
 11
327.7031896353998
 21
28.54834172413163
 31
0.0
  0
ARC
  5
F1
330
15
100
AcDbEntity
  8
4
100
AcDbCircle
 10
169.2033571353999
 20
98.54841722413164
 30
0.0
 40
100.000002
100
AcDbArc
 50
346.170649
 51
13.83034999999999
  0
ARC
  5
F2
330
15
100
AcDbEntity
  8
4
100
AcDbCircle
 10
167.2033576353998
 20
98.54841722413164
 30
0.0
 40
99.999993
100
AcDbArc
 50
347.15196
 51
12.84888399999998
  0
ARC
  5
F3
330
15
100
AcDbEntity
  8
4
100
AcDbCircle
 10
263.3910871353999
 20
75.36068822413165
 30
0.0
 40
3.0
100
AcDbArc
 50
283.8310550000002
 51
346.1704959999998
  0
ARC
  5
F4
330
15
100
AcDbEntity
  8
4
100
AcDbCircle
 10
261.7744321353998
 20
76.97734322413163
 30
0.0
 40
3.0
100
AcDbArc
 50
282.8495910000005
 51
347.1519739999997
  0
ARC
  5
F5
330
15
100
AcDbEntity
  8
4
100
AcDbCircle
 10
261.7744486353998
 20
120.1192182241317
 30
0.0
 40
2.9999745
100
AcDbArc
 50
12.85064500000002
 51
77.15074599999964
  0
ARC
  5
F6
330
15
100
AcDbEntity
  8
4
100
AcDbCircle
 10
263.3911021353998
 20
121.7359182241316
 30
0.0
 40
3.0000195
100
AcDbArc
 50
13.82844100000011
 51
76.16985299999992
  0
ARC
  5
F7
330
15
100
AcDbEntity
  8
4
100
AcDbCircle
 10
-95.79711586460019
 20
98.54817422413163
 30
0.0
 40
399.99999
100
AcDbArc
 50
0.000035015129822
 51
8.24041300000001
  0
ARC
  5
F8
330
15
100
AcDbEntity
  8
4
100
AcDbCircle
 10
154.2028696353998
 20
98.54817422413163
 30
0.0
 40
149.9999955
100
AcDbArc
 50
342.5032019999999
 51
0.0
  0
LINE
  5
FA
330
15
100
AcDbEntity
  8
4
100
AcDbLine
 10
308.2031896353998
 20
126.0481737241316
 30
0.0
 11
303.2564416353998
 21
126.0481737241316
 31
0.0
  0
LINE
  5
FC
330
15
100
AcDbEntity
  8
4
100
AcDbLine
 10
309.2031901353998
 20
135.0481737241316
 30
0.0
 11
308.2031896353998
 21
135.0481737241316
 31
0.0
  0
LINE
  5
FE
330
15
100
AcDbEntity
  8
4
100
AcDbLine
 10
453.6347153032729
 20
69.5481162241316
 30
0.0
 11
463.634348303273
 21
52.27549922413164
 31
0.0
  0
LINE
  5
109
330
15
100
AcDbEntity
  8
L-CENTER
 48
0.5
100
AcDbLine
 10
464.134347803273
 20
21.54834172413163
 30
0.0
 11
464.134347803273
 21
56.54834172413163
 31
0.0
  0
LINE
  5
10C
330
15
100
AcDbEntity
  8
4
100
AcDbLine
 10
449.134347803273
 20
28.54834172413163
 30
0.0
 11
449.134347803273
 21
46.54834172413163
 31
0.0
  0
ARC
  5
10D
330
15
100
AcDbEntity
  8
4
100
AcDbCircle
 10
452.134347803273
 20
46.54834172413163
 30
0.0
 40
3.0
100
AcDbArc
 50
90.0
 51
180.0002860014283
  0
LINE
  5
110
330
15
100
AcDbEntity
  8
4
100
AcDbLine
 10
453.6347153032729
 20
127.5482307241317
 30
0.0
 11
453.6347153032729
 21
69.54836222413164
 31
0.0
  0
LINE
  5
111
330
15
100
AcDbEntity
  8
4
100
AcDbLine
 10
448.634348303273
 20
125.5481742241317
 30
0.0
 11
448.634348303273
 21
71.54841722413164
 31
0.0
  0
LINE
  5
118
330
15
100
AcDbEntity
  8
4
100
AcDbLine
 10
453.6347153032729
 20
69.54836222413164
 30
0.0
 11
448.634348303273
 21
71.54841722413164
 31
0.0
  0
LINE
  5
11A
330
15
100
AcDbEntity
  8
4
100
AcDbLine
 10
453.6347153032729
 20
127.5482307241317
 30
0.0
 11
463.634348303273
 21
144.8208492241316
 31
0.0
  0
LINE
  5
11B
330
15
100
AcDbEntity
  8
4
100
AcDbLine
 10
453.6347153032729
 20
127.5482307241317
 30
0.0
 11
448.634348303273
 21
125.5481742241317
 31
0.0
  0
LINE
  5
11C
330
15
100
AcDbEntity
  8
4
100
AcDbLine
 10
176.2036321353999
 20
192.0481737241316
 30
0.0
 11
304.2031891353998
 21
192.0481737241316
 31
0.0
  0
LINE
  5
11F
330
15
100
AcDbEntity
  8
L-CENTER
 48
0.5
100
AcDbLine
 10
120.5088784521831
 20
394.1359353727545
 30
0.0
 11
329.3896483312424
 21
394.1359353727545
 31
0.0
  0
LINE
  5
120
330
15
100
AcDbEntity
  8
4
100
AcDbLine
 10
174.206446721197
 20
427.6359353727545
 30
0.0
 11
302.206446721197
 21
427.6359353727545
 31
0.0
  0
LINE
  5
121
330
15
100
AcDbEntity
  8
4
100
AcDbLine
 10
174.206446721197
 20
360.6359353727547
 30
0.0
 11
302.206446721197
 21
360.6359353727545
 31
0.0
  0
LINE
  5
122
330
15
100
AcDbEntity
  8
4
100
AcDbLine
 10
247.7033581354002
 20
358.6359353727546
 30
0.0
 11
297.2033581353995
 21
358.6359353727545
 31
0.0
  0
LINE
  5
123
330
15
100
AcDbEntity
  8
4
100
AcDbLine
 10
174.206446721197
 20
428.6359353727545
 30
0.0
 11
302.206446721197
 21
428.6359353727545
 31
0.0
  0
LINE
  5
124
330
15
100
AcDbEntity
  8
4
100
AcDbLine
 10
174.206446721197
 20
359.6359353727547
 30
0.0
 11
246.7033581354002
 21
359.6359353727546
 31
0.0
  0
LINE
  5
125
330
15
100
AcDbEntity
  8
4
100
AcDbLine
 10
298.2033581353995
 20
359.6359353727545
 30
0.0
 11
302.206446721197
 21
359.6359353727545
 31
0.0
  0
LINE
  5
126
330
15
100
AcDbEntity
  8
2
100
AcDbLine
 10
175.206446721197
 20
433.6359353727545
 30
0.0
 11
301.206446721197
 21
433.6359353727545
 31
0.0
  0
LINE
  5
127
330
15
100
AcDbEntity
  8
4
100
AcDbLine
 10
175.206446721197
 20
353.6359353727547
 30
0.0
 11
301.206446721197
 21
353.6359353727547
 31
0.0
  0
LINE
  5
128
330
15
100
AcDbEntity
  8
4
100
AcDbLine
 10
209.206446721197
 20
343.6359353727546
 30
0.0
 11
267.2064467211969
 21
343.6359353727547
 31
0.0
  0
LINE
  5
129
330
15
100
AcDbEntity
  8
4
100
AcDbLine
 10
211.206446721197
 20
338.6359353727547
 30
0.0
 11
265.206446721197
 21
338.6359353727547
 31
0.0
  0
LINE
  5
12A
330
15
100
AcDbEntity
  8
2
100
AcDbLine
 10
175.206446721197
 20
433.9359353727544
 30
0.0
 11
301.2064467211972
 21
433.9359353727544
 31
0.0
  0
LINE
  5
12B
330
15
100
AcDbEntity
  8
4
100
AcDbLine
 10
176.206446721197
 20
442.5359353727546
 30
0.0
 11
300.2064467211972
 21
442.5359353727546
 31
0.0
  0
LINE
  5
12C
330
15
100
AcDbEntity
  8
4
100
AcDbLine
 10
214.8252488747138
 20
443.5359353727546
 30
0.0
 11
261.9564467211973
 21
443.5359353727546
 31
0.0
  0
LINE
  5
12D
330
15
100
AcDbEntity
  8
4
100
AcDbLine
 10
214.706446721197
 20
450.5359353727544
 30
0.0
 11
261.7064467211972
 21
450.5359353727546
 31
0.0
  0
LINE
  5
12E
330
15
100
AcDbEntity
  8
4
100
AcDbLine
 10
211.9272059412532
 20
449.5359353727546
 30
0.0
 11
264.485687501141
 21
449.5359353727546
 31
0.0
  0
LINE
  5
132
330
15
100
AcDbEntity
  8
L-CENTER
 48
0.5
100
AcDbLine
 10
122.505789866386
 20
158.5481742241317
 30
0.0
 11
311.9087466862955
 21
158.5481742241317
 31
0.0
  0
ARC
  5
133
330
15
100
AcDbEntity
  8
4
100
AcDbCircle
 10
240.2033881353999
 20
-237.4521167758684
 30
0.0
 40
399.9999885
100
AcDbArc
 50
81.759606
 51
98.240582
  0
LINE
  5
134
330
15
100
AcDbEntity
  8
4
100
AcDbLine
 10
150.706446721197
 20
446.1359353727543
 30
0.0
 11
150.706446721197
 21
402.1359348727544
 31
0.0
  0
LINE
  5
135
330
15
100
AcDbEntity
  8
4
100
AcDbLine
 10
174.206446721197
 20
359.6359353727548
 30
0.0
 11
174.206446721197
 21
428.6359353727545
 31
0.0
  0
LINE
  5
136
330
15
100
AcDbEntity
  8
4
100
AcDbLine
 10
170.206446721197
 20
361.6359353727547
 30
0.0
 11
170.206446721197
 21
426.6359353727545
 31
0.0
  0
LINE
  5
137
330
15
100
AcDbEntity
  8
4
100
AcDbLine
 10
169.206721221197
 20
417.6359343727544
 30
0.0
 11
169.206721221197
 21
370.6359348727545
 31
0.0
  0
LINE
  5
138
330
15
100
AcDbEntity
  8
L-CENTER
 48
0.5
100
AcDbLine
 10
203.206446721197
 20
375.9692347668612
 30
0.0
 11
203.206446721197
 21
412.3026359786478
 31
0.0
  0
LINE
  5
13A
330
15
100
AcDbEntity
  8
4
100
AcDbLine
 10
191.2033576353998
 20
193.0481742241317
 30
0.0
 11
219.2033581353998
 21
193.0481742241317
 31
0.0
  0
LINE
  5
13B
330
15
100
AcDbEntity
  8
4
100
AcDbLine
 10
193.7031436353998
 20
193.0484172241316
 30
0.0
 11
216.7031431353998
 21
193.0484172241316
 31
0.0
  0
LINE
  5
13C
330
15
100
AcDbEntity
  8
4
100
AcDbLine
 10
192.7031431353998
 20
194.5484172241316
 30
0.0
 11
217.7031436353998
 21
194.5484172241316
 31
0.0
  0
LINE
  5
13D
330
15
100
AcDbEntity
  8
4
100
AcDbLine
 10
192.7031431353998
 20
196.5484182241316
 30
0.0
 11
217.7031436353998
 21
196.5484182241316
 31
0.0
  0
LINE
  5
13E
330
15
100
AcDbEntity
  8
4
100
AcDbLine
 10
192.7031431353998
 20
200.5484172241316
 30
0.0
 11
217.7031436353998
 21
200.5484172241316
 31
0.0
  0
LINE
  5
13F
330
15
100
AcDbEntity
  8
4
100
AcDbLine
 10
172.2036331353999
 20
182.0481732241316
 30
0.0
 11
171.2036326353998
 21
182.0481732241316
 31
0.0
  0
LINE
  5
140
330
15
100
AcDbEntity
  8
4
100
AcDbLine
 10
176.2036321353999
 20
191.0481732241316
 30
0.0
 11
172.2036331353999
 21
191.0481732241316
 31
0.0
  0
LINE
  5
141
330
15
100
AcDbEntity
  8
4
100
AcDbLine
 10
192.7031431353998
 20
194.5484172241316
 30
0.0
 11
192.7031431353998
 21
200.5484172241316
 31
0.0
  0
ARC
  5
142
330
15
100
AcDbEntity
  8
4
100
AcDbCircle
 10
190.2033571353999
 20
193.0481742241317
 30
0.0
 40
1.0000005
100
AcDbArc
 50
270.0
 51
0.0
  0
LINE
  5
143
330
15
100
AcDbEntity
  8
4
100
AcDbLine
 10
191.2033576353998
 20
193.0481742241317
 30
0.0
 11
191.2033576353998
 21
193.0481742241317
 31
0.0
  0
LINE
  5
144
330
15
100
AcDbEntity
  8
4
100
AcDbLine
 10
193.7031436353998
 20
193.0484172241316
 30
0.0
 11
193.7031436353998
 21
194.5484172241316
 31
0.0
  0
LINE
  5
145
330
15
100
AcDbEntity
  8
L-CENTER
 48
0.5
100
AcDbLine
 10
205.2033571353999
 20
203.5052547241316
 30
0.0
 11
205.2033571353999
 21
189.3886692241316
 31
0.0
  0
LINE
  5
146
330
15
100
AcDbEntity
  8
4
100
AcDbLine
 10
198.9531436353998
 20
196.5484182241316
 30
0.0
 11
198.9531436353998
 21
200.5484172241316
 31
0.0
  0
LINE
  5
147
330
15
100
AcDbEntity
  8
4
100
AcDbLine
 10
211.4531431353998
 20
196.5484182241316
 30
0.0
 11
211.4531431353998
 21
200.5484172241316
 31
0.0
  0
LINE
  5
148
330
15
100
AcDbEntity
  8
4
100
AcDbLine
 10
217.7031436353998
 20
194.5484172241316
 30
0.0
 11
217.7031436353998
 21
200.5484172241316
 31
0.0
  0
ARC
  5
149
330
15
100
AcDbEntity
  8
4
100
AcDbCircle
 10
220.2033571353999
 20
193.0481742241317
 30
0.0
 40
1.0000005
100
AcDbArc
 50
180.0
 51
270.0
  0
LINE
  5
14A
330
15
100
AcDbEntity
  8
4
100
AcDbLine
 10
219.2033581353998
 20
193.0481742241317
 30
0.0
 11
219.2033581353998
 21
193.0481742241317
 31
0.0
  0
LINE
  5
14B
330
15
100
AcDbEntity
  8
4
100
AcDbLine
 10
216.7031431353998
 20
193.0484172241316
 30
0.0
 11
216.7031431353998
 21
194.5484172241316
 31
0.0
  0
LINE
  5
150
330
15
100
AcDbEntity
  8
L-CENTER
 48
0.5
100
AcDbLine
 10
151.6073535140237
 20
354.1359353727546
 30
0.0
 11
174.8055399283704
 21
354.1359353727546
 31
0.0
  0
LINE
  5
151
330
15
100
AcDbEntity
  8
4
100
AcDbLine
 10
153.706446721197
 20
339.1359353727546
 30
0.0
 11
182.706446721197
 21
339.1359353727547
 31
0.0
  0
CIRCLE
  5
152
330
15
100
AcDbEntity
  8
4
100
AcDbCircle
 10
163.206446721197
 20
354.1359353727546
 30
0.0
 40
5.5
  0
LINE
  5
153
330
15
100
AcDbEntity
  8
L-CENTER
 48
0.5
100
AcDbLine
 10
163.206446721197
 20
365.7350285799279
 30
0.0
 11
163.206446721197
 21
342.5368421655812
 31
0.0
  0
ARC
  5
154
330
15
100
AcDbEntity
  8
4
100
AcDbCircle
 10
153.706446721197
 20
342.1359353727546
 30
0.0
 40
3.0
100
AcDbArc
 50
180.0
 51
270.0
  0
LINE
  5
155
330
15
100
AcDbEntity
  8
4
100
AcDbLine
 10
209.206446721197
 20
343.6359353727547
 30
0.0
 11
191.9337194484698
 21
353.6359353727546
 31
0.0
  0
LINE
  5
156
330
15
100
AcDbEntity
  8
4
100
AcDbLine
 10
185.706446721197
 20
342.1359353727547
 30
0.0
 11
185.706446721197
 21
353.6359353727547
 31
0.0
  0
ARC
  5
157
330
15
100
AcDbEntity
  8
4
100
AcDbCircle
 10
182.706446721197
 20
342.1359353727547
 30
0.0
 40
3.0
100
AcDbArc
 50
270.0
 51
0.0
  0
LINE
  5
158
330
15
100
AcDbEntity
  8
4
100
AcDbLine
 10
170.206446721197
 20
361.6359353727547
 30
0.0
 11
174.206446721197
 21
361.6359353727545
 31
0.0
  0
LINE
  5
159
330
15
100
AcDbEntity
  8
4
100
AcDbLine
 10
175.206446721197
 20
353.6359353727547
 30
0.0
 11
175.206446721197
 21
359.6359353727548
 31
0.0
  0
LINE
  5
15A
330
15
100
AcDbEntity
  8
4
100
AcDbLine
 10
169.206721221197
 20
370.6359348727545
 30
0.0
 11
170.206721721197
 21
370.6359348727545
 31
0.0
  0
LINE
  5
15B
330
15
100
AcDbEntity
  8
4
100
AcDbLine
 10
213.9564467211979
 20
343.6359353727547
 30
0.0
 11
213.9564467211979
 21
353.6359353727546
 31
0.0
  0
LINE
  5
15C
330
15
100
AcDbEntity
  8
4
100
AcDbLine
 10
209.206446721197
 20
343.6359353727547
 30
0.0
 11
211.206446721197
 21
338.6359353727547
 31
0.0
  0
LINE
  5
15E
330
15
100
AcDbEntity
  8
L-CENTER
 48
0.5
100
AcDbLine
 10
151.6073535140237
 20
434.1359353727543
 30
0.0
 11
174.8055399283704
 21
434.1359353727543
 31
0.0
  0
LINE
  5
15F
330
15
100
AcDbEntity
  8
4
100
AcDbLine
 10
153.706446721197
 20
449.1359353727543
 30
0.0
 11
182.706446721197
 21
449.1359353727543
 31
0.0
  0
CIRCLE
  5
160
330
15
100
AcDbEntity
  8
4
100
AcDbCircle
 10
163.206446721197
 20
434.1359353727543
 30
0.0
 40
5.5
  0
LWPOLYLINE
  5
161
330
15
100
AcDbEntity
  8
4
100
AcDbPolyline
 90
        2
 70
     0
 43
0.0
 10
167.7067217211971
 20
404.96125292006
 10
162.7067217211971
 20
404.96125292006
  0
LWPOLYLINE
  5
162
330
15
100
AcDbEntity
  8
4
100
AcDbPolyline
 90
        2
 70
     0
 43
0.0
 10
162.7067217211971
 20
383.310617825449
 10
167.7067217211971
 20
383.310617825449
  0
LINE
  5
163
330
15
100
AcDbEntity
  8
L-CENTER
 48
0.5
100
AcDbLine
 10
163.206446721197
 20
445.7350285799276
 30
0.0
 11
163.206446721197
 21
422.5368421655809
 31
0.0
  0
LINE
  5
164
330
15
100
AcDbEntity
  8
4
100
AcDbLine
 10
162.7067217211971
 20
383.310617825449
 30
0.0
 11
162.7067217211971
 21
385.6359348727544
 31
0.0
  0
ARC
  5
165
330
15
100
AcDbEntity
  8
4
100
AcDbCircle
 10
153.706446721197
 20
446.1359353727543
 30
0.0
 40
3.0
100
AcDbArc
 50
90.0
 51
180.0
  0
LINE
  5
166
330
15
100
AcDbEntity
  8
4
100
AcDbLine
 10
175.206446721197
 20
428.6359353727545
 30
0.0
 11
175.206446721197
 21
441.5359353727546
 31
0.0
  0
LINE
  5
167
330
15
100
AcDbEntity
  8
L-CENTER
 48
0.5
100
AcDbLine
 10
182.2064467211968
 20
450.2569863171522
 30
0.0
 11
182.2064467211968
 21
428.1363447264579
 31
0.0
  0
LINE
  5
168
330
15
100
AcDbEntity
  8
L-CENTER
 48
0.5
100
AcDbLine
 10
210.2064467211968
 20
450.2569863171522
 30
0.0
 11
210.2064467211968
 21
428.1363447264579
 31
0.0
  0
CIRCLE
  5
169
330
15
100
AcDbEntity
  8
4
100
AcDbCircle
 10
203.206446721197
 20
394.1359353727545
 30
0.0
 40
14.0
  0
CIRCLE
  5
16A
330
15
100
AcDbEntity
  8
4
100
AcDbCircle
 10
203.206446721197
 20
394.1359353727545
 30
0.0
 40
12.5
  0
LWPOLYLINE
  5
16B
330
15
100
AcDbEntity
  8
4
100
AcDbPolyline
 90
        6
 70
     1
 43
0.0
 10
190.706446721197
 20
394.1359353727545
 10
196.956446721197
 20
383.310617825449
 10
209.456446721197
 20
383.310617825449
 10
215.706446721197
 20
394.1359353727545
 10
209.456446721197
 20
404.96125292006
 10
196.956446721197
 20
404.96125292006
  0
LINE
  5
16C
330
15
100
AcDbEntity
  8
4
100
AcDbLine
 10
167.7067217211971
 20
381.6359353727545
 30
0.0
 11
167.7067217211971
 21
385.6359348727544
 31
0.0
  0
LINE
  5
16D
330
15
100
AcDbEntity
  8
4
100
AcDbLine
 10
167.7067217211971
 20
381.6359353727545
 30
0.0
 11
169.206721221197
 21
381.6359353727545
 31
0.0
  0
LINE
  5
16E
330
15
100
AcDbEntity
  8
4
100
AcDbLine
 10
167.7067217211973
 20
406.6359353727545
 30
0.0
 11
169.206721221197
 21
406.6359353727545
 31
0.0
  0
LINE
  5
16F
330
15
100
AcDbEntity
  8
4
100
AcDbLine
 10
170.206446721197
 20
426.6359353727545
 30
0.0
 11
174.206446721197
 21
426.6359353727545
 31
0.0
  0
LINE
  5
170
330
15
100
AcDbEntity
  8
4
100
AcDbLine
 10
170.206721721197
 20
417.6359343727544
 30
0.0
 11
169.206721221197
 21
417.6359343727544
 31
0.0
  0
LINE
  5
171
330
15
100
AcDbEntity
  8
4
100
AcDbLine
 10
188.706446721197
 20
443.5359353727546
 30
0.0
 11
205.9564467211968
 21
443.5359353727546
 31
0.0
  0
LINE
  5
172
330
15
100
AcDbEntity
  8
4
100
AcDbLine
 10
186.4564467211968
 20
443.8359353727545
 30
0.0
 11
177.9564467211968
 21
443.8359353727545
 31
0.0
  0
LINE
  5
173
330
15
100
AcDbEntity
  8
4
100
AcDbLine
 10
186.4564467211968
 20
448.8359353727545
 30
0.0
 11
177.9564467211968
 21
448.8359353727545
 31
0.0
  0
LINE
  5
174
330
15
100
AcDbEntity
  8
4
100
AcDbLine
 10
177.9564467211968
 20
448.8359353727545
 30
0.0
 11
177.9564467211968
 21
442.5359353727546
 31
0.0
  0
ARC
  5
175
330
15
100
AcDbEntity
  8
4
100
AcDbCircle
 10
176.206446721197
 20
441.5359353727546
 30
0.0
 40
1.0
100
AcDbArc
 50
90.0
 51
180.0
  0
LINE
  5
176
330
15
100
AcDbEntity
  8
4
100
AcDbLine
 10
186.4564467211968
 20
448.8359353727545
 30
0.0
 11
186.4564467211968
 21
442.5359353727546
 31
0.0
  0
LINE
  5
177
330
15
100
AcDbEntity
  8
4
100
AcDbLine
 10
188.706446721197
 20
442.5359353727546
 30
0.0
 11
188.706446721197
 21
443.5359353727546
 31
0.0
  0
ARC
  5
178
330
15
100
AcDbEntity
  8
4
100
AcDbCircle
 10
182.706446721197
 20
446.1359353727543
 30
0.0
 40
3.0
100
AcDbArc
 50
64.15806723684081
 51
90.0
  0
LINE
  5
17A
330
15
100
AcDbEntity
  8
4
100
AcDbLine
 10
214.4564467211968
 20
443.8359353727545
 30
0.0
 11
205.9564467211968
 21
443.8359353727545
 31
0.0
  0
LINE
  5
17B
330
15
100
AcDbEntity
  8
4
100
AcDbLine
 10
214.4564467211968
 20
448.8359353727545
 30
0.0
 11
205.9564467211968
 21
448.8359353727545
 31
0.0
  0
ARC
  5
17C
330
15
100
AcDbEntity
  8
4
100
AcDbCircle
 10
211.9272059412532
 20
448.5359353727546
 30
0.0
 40
1.0
100
AcDbArc
 50
90.0
 51
161.5650511770857
  0
LINE
  5
17D
330
15
100
AcDbEntity
  8
4
100
AcDbLine
 10
205.9564467211968
 20
448.8359353727545
 30
0.0
 11
205.9564467211968
 21
442.5359353727546
 31
0.0
  0
LINE
  5
17E
330
15
100
AcDbEntity
  8
4
100
AcDbLine
 10
198.9826063759115
 20
442.5359353727544
 30
0.0
 11
205.9564467211968
 21
443.2145780349564
 31
0.0
  0
LINE
  5
17F
330
15
100
AcDbEntity
  8
4
100
AcDbLine
 10
210.9785226432026
 20
448.8521631387713
 30
0.0
 11
210.9731133878637
 21
448.8359353727545
 31
0.0
  0
LINE
  5
180
330
15
100
AcDbEntity
  8
4
100
AcDbLine
 10
214.4564467211968
 20
448.8359353727545
 30
0.0
 11
214.4564467211968
 21
442.5359353727546
 31
0.0
  0
LINE
  5
181
330
15
100
AcDbEntity
  8
4
100
AcDbLine
 10
214.706446721197
 20
450.5359353727544
 30
0.0
 11
214.706446721197
 21
449.5359353727548
 31
0.0
  0
LINE
  5
185
330
15
100
AcDbEntity
  8
L-CENTER
 48
0.5
100
AcDbLine
 10
238.206446721197
 20
284.9082059438434
 30
0.0
 11
238.206446721197
 21
454.9682153483495
 31
0.0
  0
LINE
  5
186
330
15
100
AcDbEntity
  8
4
100
AcDbLine
 10
302.206446721197
 20
359.6359353727547
 30
0.0
 11
302.206446721197
 21
428.6359353727545
 31
0.0
  0
LINE
  5
187
330
15
100
AcDbEntity
  8
4
100
AcDbLine
 10
306.206446721197
 20
361.6359353727545
 30
0.0
 11
306.206446721197
 21
426.6359353727547
 31
0.0
  0
LINE
  5
188
330
15
100
AcDbEntity
  8
4
100
AcDbLine
 10
307.206278721197
 20
417.6359343727544
 30
0.0
 11
307.206278721197
 21
370.6359348727545
 31
0.0
  0
LINE
  5
197
330
15
100
AcDbEntity
  8
4
100
AcDbLine
 10
308.2031896353998
 20
182.0481732241316
 30
0.0
 11
309.2031901353998
 21
182.0481732241316
 31
0.0
  0
LINE
  5
199
330
15
100
AcDbEntity
  8
4
100
AcDbLine
 10
304.2031891353998
 20
191.0481732241316
 30
0.0
 11
308.2031896353998
 21
191.0481732241316
 31
0.0
  0
ARC
  5
1A2
330
15
100
AcDbEntity
  8
4
100
AcDbCircle
 10
293.7064467211968
 20
342.1359353727549
 30
0.0
 40
3.0
100
AcDbArc
 50
180.0
 51
270.0
  0
LINE
  5
1A3
330
15
100
AcDbEntity
  8
4
100
AcDbLine
 10
290.7064467211968
 20
342.1359353727549
 30
0.0
 11
290.7064467211968
 21
353.6359353727547
 31
0.0
  0
LINE
  5
1A4
330
15
100
AcDbEntity
  8
4
100
AcDbLine
 10
267.206446721197
 20
343.6359353727547
 30
0.0
 11
284.4791739939242
 21
353.6359353727547
 31
0.0
  0
LINE
  5
1A5
330
15
100
AcDbEntity
  8
4
100
AcDbLine
 10
262.4564467211964
 20
343.6359353727548
 30
0.0
 11
262.4564467211964
 21
353.6359353727547
 31
0.0
  0
LINE
  5
1A6
330
15
100
AcDbEntity
  8
4
100
AcDbLine
 10
267.206446721197
 20
343.6359353727547
 30
0.0
 11
265.206446721197
 21
338.6359353727547
 31
0.0
  0
LINE
  5
1A7
330
15
100
AcDbEntity
  8
L-CENTER
 48
0.5
100
AcDbLine
 10
301.6073535140237
 20
354.1359353727546
 30
0.0
 11
324.8055399283704
 21
354.1359353727546
 31
0.0
  0
ARC
  5
1A8
330
15
100
AcDbEntity
  8
4
100
AcDbCircle
 10
322.7064467211968
 20
342.1359353727546
 30
0.0
 40
3.0
100
AcDbArc
 50
270.0
 51
0.0
  0
CIRCLE
  5
1A9
330
15
100
AcDbEntity
  8
4
100
AcDbCircle
 10
313.206446721197
 20
354.1359353727546
 30
0.0
 40
5.5
  0
LINE
  5
1AA
330
15
100
AcDbEntity
  8
L-CENTER
 48
0.5
100
AcDbLine
 10
313.206446721197
 20
365.7350285799279
 30
0.0
 11
313.206446721197
 21
342.5368421655812
 31
0.0
  0
LINE
  5
1AB
330
15
100
AcDbEntity
  8
4
100
AcDbLine
 10
293.7064467211968
 20
339.1359353727549
 30
0.0
 11
322.7064467211968
 21
339.1359353727546
 31
0.0
  0
LINE
  5
1AC
330
15
100
AcDbEntity
  8
4
100
AcDbLine
 10
302.206446721197
 20
361.6359353727545
 30
0.0
 11
306.206446721197
 21
361.6359353727545
 31
0.0
  0
LINE
  5
1AD
330
15
100
AcDbEntity
  8
4
100
AcDbLine
 10
301.206446721197
 20
353.6359353727547
 30
0.0
 11
301.206446721197
 21
359.6359353727547
 31
0.0
  0
LINE
  5
1AE
330
15
100
AcDbEntity
  8
4
100
AcDbLine
 10
307.206278721197
 20
370.6359348727545
 30
0.0
 11
306.206278221197
 21
370.6359348727545
 31
0.0
  0
ARC
  5
1BA
330
15
100
AcDbEntity
  8
4
100
AcDbCircle
 10
464.6343488032729
 20
160.5481737241316
 30
0.0
 40
1.0000005
100
AcDbArc
 50
90.0
 51
180.0
  0
LINE
  5
1BB
330
15
100
AcDbEntity
  8
4
100
AcDbLine
 10
469.634348303273
 20
161.5481742241317
 30
0.0
 11
464.6343488032729
 21
161.5481742241317
 31
0.0
  0
LINE
  5
1C2
330
15
100
AcDbEntity
  8
4
100
AcDbLine
 10
289.9564467211973
 20
443.8359353727545
 30
0.0
 11
298.4564467211973
 21
443.8359353727545
 31
0.0
  0
LINE
  5
1C3
330
15
100
AcDbEntity
  8
4
100
AcDbLine
 10
289.9564467211973
 20
448.8359353727545
 30
0.0
 11
298.4564467211973
 21
448.8359353727545
 31
0.0
  0
LINE
  5
1C4
330
15
100
AcDbEntity
  8
L-CENTER
 48
0.5
100
AcDbLine
 10
266.2064467211973
 20
450.2569863171522
 30
0.0
 11
266.2064467211973
 21
428.1363447264579
 31
0.0
  0
LINE
  5
1C8
330
15
100
AcDbEntity
  8
4
100
AcDbLine
 10
277.4302870664833
 20
442.5359353727544
 30
0.0
 11
270.4564467211973
 21
443.2145780349562
 31
0.0
  0
LINE
  5
1C9
330
15
100
AcDbEntity
  8
4
100
AcDbLine
 10
261.9564467211973
 20
448.8359353727545
 30
0.0
 11
261.9564467211973
 21
442.5359353727546
 31
0.0
  0
LINE
  5
1CA
330
15
100
AcDbEntity
  8
4
100
AcDbLine
 10
270.4564467211973
 20
448.8359353727545
 30
0.0
 11
270.4564467211973
 21
442.5359353727546
 31
0.0
  0
LINE
  5
1CB
330
15
100
AcDbEntity
  8
4
100
AcDbLine
 10
261.9564467211973
 20
448.8359353727545
 30
0.0
 11
270.4564467211973
 21
448.8359353727545
 31
0.0
  0
LINE
  5
1CC
330
15
100
AcDbEntity
  8
4
100
AcDbLine
 10
261.9564467211973
 20
443.8359353727545
 30
0.0
 11
270.4564467211973
 21
443.8359353727545
 31
0.0
  0
LINE
  5
1CD
330
15
100
AcDbEntity
  8
4
100
AcDbLine
 10
265.4343707991915
 20
448.8521631387713
 30
0.0
 11
265.4397800545304
 21
448.8359353727545
 31
0.0
  0
LINE
  5
1CE
330
15
100
AcDbEntity
  8
4
100
AcDbLine
 10
261.7064467211972
 20
450.5359353727546
 30
0.0
 11
261.7064467211972
 21
449.5359353727546
 31
0.0
  0
ARC
  5
1CF
330
15
100
AcDbEntity
  8
4
100
AcDbCircle
 10
264.485687501141
 20
448.5359353727546
 30
0.0
 40
1.0
100
AcDbArc
 50
18.43494882291375
 51
90.0
  0
LINE
  5
1D0
330
15
100
AcDbEntity
  8
4
100
AcDbLine
 10
265.4343707991916
 20
448.8521631387713
 30
0.0
 11
265.4397800545305
 21
448.8359353727545
 31
0.0
  0
LINE
  5
1D1
330
15
100
AcDbEntity
  8
4
100
AcDbLine
 10
289.9564467211973
 20
448.8359353727545
 30
0.0
 11
289.9564467211973
 21
442.5359353727546
 31
0.0
  0
LINE
  5
1D2
330
15
100
AcDbEntity
  8
L-CENTER
 48
0.5
100
AcDbLine
 10
294.2064467211973
 20
450.2569863171522
 30
0.0
 11
294.2064467211973
 21
428.1363447264579
 31
0.0
  0
LINE
  5
1D3
330
15
100
AcDbEntity
  8
4
100
AcDbLine
 10
325.706446721197
 20
446.1359353727543
 30
0.0
 11
325.706446721197
 21
342.1359353727546
 31
0.0
  0
CIRCLE
  5
1D4
330
15
100
AcDbEntity
  8
4
100
AcDbCircle
 10
313.206446721197
 20
434.1359353727543
 30
0.0
 40
5.5
  0
LINE
  5
1D5
330
15
100
AcDbEntity
  8
L-CENTER
 48
0.5
100
AcDbLine
 10
313.206446721197
 20
445.7350285799276
 30
0.0
 11
313.206446721197
 21
422.5368421655809
 31
0.0
  0
LINE
  5
1D6
330
15
100
AcDbEntity
  8
4
100
AcDbLine
 10
301.206446721197
 20
428.6359353727545
 30
0.0
 11
301.2064467211969
 21
441.5359353727546
 31
0.0
  0
LINE
  5
1DD
330
15
100
AcDbEntity
  8
4
100
AcDbLine
 10
302.206446721197
 20
426.6359353727545
 30
0.0
 11
306.206446721197
 21
426.6359353727547
 31
0.0
  0
LINE
  5
1DE
330
15
100
AcDbEntity
  8
4
100
AcDbLine
 10
306.206278221197
 20
417.6359343727544
 30
0.0
 11
307.206278721197
 21
417.6359343727544
 31
0.0
  0
LINE
  5
1E6
330
15
100
AcDbEntity
  8
L-CENTER
 48
0.5
100
AcDbLine
 10
301.6073535140237
 20
434.1359353727543
 30
0.0
 11
324.8055399283704
 21
434.1359353727543
 31
0.0
  0
ARC
  5
1E7
330
15
100
AcDbEntity
  8
4
100
AcDbCircle
 10
322.706446721197
 20
446.1359353727543
 30
0.0
 40
3.0
100
AcDbArc
 50
0.0
 51
90.0
  0
LINE
  5
1E8
330
15
100
AcDbEntity
  8
4
100
AcDbLine
 10
293.7064467211968
 20
449.1359353727543
 30
0.0
 11
322.706446721197
 21
449.1359353727543
 31
0.0
  0
LINE
  5
1E9
330
15
100
AcDbEntity
  8
4
100
AcDbLine
 10
298.4564467211973
 20
448.8359353727545
 30
0.0
 11
298.4564467211973
 21
442.5359353727546
 31
0.0
  0
ARC
  5
1EA
330
15
100
AcDbEntity
  8
4
100
AcDbCircle
 10
300.206446721197
 20
441.5359353727546
 30
0.0
 40
1.0
100
AcDbArc
 50
0.0
 51
90.0
  0
ARC
  5
1EB
330
15
100
AcDbEntity
  8
4
100
AcDbCircle
 10
293.7064467211968
 20
446.1359353727543
 30
0.0
 40
3.0
100
AcDbArc
 50
90.0
 51
115.8419327631544
  0
LINE
  5
1EE
330
15
100
AcDbEntity
  8
4
100
AcDbLine
 10
537.634347803273
 20
158.5481742241317
 30
0.0
 11
537.634347803273
 21
56.5483422241316
 31
0.0
  0
LINE
  5
1EF
330
15
100
AcDbEntity
  8
4
100
AcDbLine
 10
470.6343488032729
 20
158.5481742241317
 30
0.0
 11
470.6343488032729
 21
56.5483422241316
 31
0.0
  0
LINE
  5
1F0
330
15
100
AcDbEntity
  8
4
100
AcDbLine
 10
538.634348303273
 20
52.94279072413164
 30
0.0
 11
538.634348303273
 21
162.5481732241316
 31
0.0
  0
LINE
  5
1F1
330
15
100
AcDbEntity
  8
4
100
AcDbLine
 10
543.634347803273
 20
49.54834172413163
 30
0.0
 11
543.634347803273
 21
161.5481742241317
 31
0.0
  0
LINE
  5
1F2
330
15
100
AcDbEntity
  8
L-CENTER
 48
0.5
100
AcDbLine
 10
504.134348303273
 20
204.6155037241316
 30
0.0
 11
504.134348303273
 21
24.77567522413165
 31
0.0
  0
LINE
  5
1F3
330
15
100
AcDbEntity
  8
4
100
AcDbLine
 10
552.534251303273
 20
49.54834172413163
 30
0.0
 11
552.534251303273
 21
160.5481737241316
 31
0.0
  0
CIRCLE
  5
1F4
330
15
100
AcDbEntity
  8
4
100
AcDbCircle
 10
504.134348303273
 20
158.5481742241317
 30
0.0
 40
32.5000005
  0
CIRCLE
  5
1F5
330
15
100
AcDbEntity
  8
4
100
AcDbCircle
 10
504.134348303273
 20
158.5481742241317
 30
0.0
 40
23.5000005
  0
LINE
  5
1FC
330
15
100
AcDbEntity
  8
4
100
AcDbLine
 10
553.8342513032729
 20
49.54834172413166
 30
0.0
 11
553.8342513032729
 21
54.30075161220182
 31
0.0
  0
LINE
  5
1FD
330
15
100
AcDbEntity
  8
4
100
AcDbLine
 10
558.8342513032729
 20
47.85621270037259
 30
0.0
 11
558.8342513032729
 21
54.30075161220182
 31
0.0
  0
LINE
  5
1FE
330
15
100
AcDbEntity
  8
L-CENTER
 48
0.5
100
AcDbLine
 10
544.1343488032729
 20
21.54834172413163
 30
0.0
 11
544.1343488032729
 21
56.54834172413163
 31
0.0
  0
ARC
  5
1FF
330
15
100
AcDbEntity
  8
4
100
AcDbCircle
 10
544.634348303273
 20
56.5483422241316
 30
0.0
 40
7.000000499999999
100
AcDbArc
 50
180.0
 51
270.0
  0
LINE
  5
206
330
15
100
AcDbEntity
  8
L-CENTER
 48
0.5
100
AcDbLine
 10
560.7026225433248
 20
50.05075161220148
 30
0.0
 11
538.1346606569745
 21
50.05075161220242
 31
0.0
  0
LINE
  5
207
330
15
100
AcDbEntity
  8
4
100
AcDbLine
 10
559.1343488032729
 20
28.54834172413163
 30
0.0
 11
559.1343488032729
 21
46.54834172413163
 31
0.0
  0
ARC
  5
208
330
15
100
AcDbEntity
  8
4
100
AcDbCircle
 10
556.1343488032729
 20
46.54834172413163
 30
0.0
 40
3.0
100
AcDbArc
 50
0.0
 51
90.0
  0
LINE
  5
209
330
15
100
AcDbEntity
  8
2
100
AcDbLine
 10
552.534251303273
 20
50.05075161220182
 30
0.0
 11
553.8342513032729
 21
51.35075161220183
 31
0.0
  0
LINE
  5
20A
330
15
100
AcDbEntity
  8
4
100
AcDbLine
 10
553.7343488032731
 20
127.5481737241316
 30
0.0
 11
553.7343488032731
 21
102.7981742241316
 31
0.0
  0
LINE
  5
20B
330
15
100
AcDbEntity
  8
4
100
AcDbLine
 10
559.5343478032729
 20
125.5481742241317
 30
0.0
 11
559.5343478032729
 21
71.54841722413164
 31
0.0
  0
LINE
  5
20D
330
15
100
AcDbEntity
  8
4
100
AcDbLine
 10
560.5343483032731
 20
122.0481732241316
 30
0.0
 11
560.5343483032731
 21
75.04817372413163
 31
0.0
  0
LINE
  5
20F
330
15
100
AcDbEntity
  8
4
100
AcDbLine
 10
553.7343488032731
 20
94.29817422413163
 30
0.0
 11
553.7343488032731
 21
69.54817322413163
 31
0.0
  0
LINE
  5
210
330
15
100
AcDbEntity
  8
4
100
AcDbLine
 10
553.7343488032731
 20
69.54817322413163
 30
0.0
 11
552.534251303273
 21
61.09331822413162
 31
0.0
  0
LINE
  5
211
330
15
100
AcDbEntity
  8
4
100
AcDbLine
 10
558.8342513032729
 20
54.30075161220182
 30
0.0
 11
552.534251303273
 21
54.30075161220182
 31
0.0
  0
LINE
  5
212
330
15
100
AcDbEntity
  8
4
100
AcDbLine
 10
559.5343478032729
 20
71.54817422413163
 30
0.0
 11
553.7343488032731
 21
69.54817322413163
 31
0.0
  0
LINE
  5
213
330
15
100
AcDbEntity
  8
4
100
AcDbLine
 10
560.5343483032731
 20
75.04817372413163
 30
0.0
 11
559.5343478032729
 21
75.04817372413163
 31
0.0
  0
LINE
  5
214
330
15
100
AcDbEntity
  8
4
100
AcDbLine
 10
558.8342513032729
 20
102.7981742241316
 30
0.0
 11
552.534251303273
 21
102.7981742241316
 31
0.0
  0
LINE
  5
215
330
15
100
AcDbEntity
  8
4
100
AcDbLine
 10
558.8342513032729
 20
94.29817422413163
 30
0.0
 11
552.534251303273
 21
94.29817422413163
 31
0.0
  0
LINE
  5
216
330
15
100
AcDbEntity
  8
2
100
AcDbLine
 10
552.534251303273
 20
98.54817422413163
 30
0.0
 11
553.8342513032729
 21
99.84817422413164
 31
0.0
  0
LINE
  5
217
330
15
100
AcDbEntity
  8
2
100
AcDbLine
 10
552.534251303273
 20
96.70969659304666
 30
0.0
 11
553.8342513032729
 21
98.00969659304667
 31
0.0
  0
LINE
  5
218
330
15
100
AcDbEntity
  8
4
100
AcDbLine
 10
553.8342513032729
 20
94.29817422413163
 30
0.0
 11
553.8342513032729
 21
102.7981742241316
 31
0.0
  0
LINE
  5
219
330
15
100
AcDbEntity
  8
4
100
AcDbLine
 10
558.8342513032729
 20
94.29817422413163
 30
0.0
 11
558.8342513032729
 21
102.7981742241316
 31
0.0
  0
LINE
  5
21B
330
15
100
AcDbEntity
  8
4
100
AcDbLine
 10
553.7343488032731
 20
127.5481737241316
 30
0.0
 11
552.534251303273
 21
136.0030302241316
 31
0.0
  0
LINE
  5
21C
330
15
100
AcDbEntity
  8
4
100
AcDbLine
 10
559.5343478032729
 20
125.5481742241317
 30
0.0
 11
553.7343488032731
 21
127.5481737241316
 31
0.0
  0
LINE
  5
21D
330
15
100
AcDbEntity
  8
4
100
AcDbLine
 10
559.5343478032729
 20
122.0481732241316
 30
0.0
 11
560.5343483032731
 21
122.0481732241316
 31
0.0
  0
LINE
  5
21E
330
15
100
AcDbEntity
  8
L-CENTER
 48
0.5
100
AcDbLine
 10
560.618922643143
 20
147.0455968360602
 30
0.0
 11
538.1346606569763
 21
147.0455968360602
 31
0.0
  0
LINE
  5
21F
330
15
100
AcDbEntity
  8
4
100
AcDbLine
 10
558.8342513032729
 20
142.7955968360602
 30
0.0
 11
558.8342513032729
 21
151.2955968360602
 31
0.0
  0
LINE
  5
220
330
15
100
AcDbEntity
  8
4
100
AcDbLine
 10
553.8342513032729
 20
142.7955968360602
 30
0.0
 11
553.8342513032729
 21
151.2955968360602
 31
0.0
  0
LINE
  5
221
330
15
100
AcDbEntity
  8
4
100
AcDbLine
 10
558.8342513032729
 20
142.7955968360602
 30
0.0
 11
552.534251303273
 21
142.7955968360602
 31
0.0
  0
LINE
  5
222
330
15
100
AcDbEntity
  8
4
100
AcDbLine
 10
558.8342513032729
 20
151.2955968360602
 30
0.0
 11
552.534251303273
 21
151.2955968360602
 31
0.0
  0
LINE
  5
223
330
15
100
AcDbEntity
  8
2
100
AcDbLine
 10
552.534251303273
 20
145.2071192049752
 30
0.0
 11
553.8342513032729
 21
146.5071192049752
 31
0.0
  0
LINE
  5
224
330
15
100
AcDbEntity
  8
2
100
AcDbLine
 10
552.534251303273
 20
147.0455968360602
 30
0.0
 11
553.8342513032729
 21
148.3455968360602
 31
0.0
  0
ARC
  5
233
330
15
100
AcDbEntity
  8
4
100
AcDbCircle
 10
532.9479758032729
 20
187.3617852241316
 30
0.0
 40
3.0
100
AcDbArc
 50
6.69905199999956
 51
83.30094400000176
  0
LINE
  5
236
330
15
100
AcDbEntity
  8
4
100
AcDbLine
 10
518.134347803273
 20
193.0481742241317
 30
0.0
 11
490.1343488032729
 21
193.0481742241317
 31
0.0
  0
ARC
  5
237
330
15
100
AcDbEntity
  8
4
100
AcDbCircle
 10
504.134348303273
 20
-57.9518267758684
 30
0.0
 40
249.9999855
100
AcDbArc
 50
83.300944
 51
96.699056
  0
LINE
  5
238
330
15
100
AcDbEntity
  8
4
100
AcDbLine
 10
515.6343488032729
 20
193.0484172241316
 30
0.0
 11
492.634347803273
 21
193.0484172241316
 31
0.0
  0
LINE
  5
239
330
15
100
AcDbEntity
  8
4
100
AcDbLine
 10
516.634347803273
 20
194.5484172241316
 30
0.0
 11
491.6343488032729
 21
194.5484172241316
 31
0.0
  0
LINE
  5
23A
330
15
100
AcDbEntity
  8
4
100
AcDbLine
 10
516.634347803273
 20
196.5484182241316
 30
0.0
 11
491.6343488032729
 21
196.5484182241316
 31
0.0
  0
LINE
  5
23B
330
15
100
AcDbEntity
  8
4
100
AcDbLine
 10
514.959543803273
 20
200.5484172241316
 30
0.0
 11
493.308909803273
 21
200.5484172241316
 31
0.0
  0
ARC
  5
23C
330
15
100
AcDbEntity
  8
4
100
AcDbCircle
 10
720.634347803273
 20
158.5481742241317
 30
0.0
 40
250.0000005
100
AcDbArc
 50
173.300948
 51
180.0
  0
ARC
  5
23D
330
15
100
AcDbEntity
  8
4
100
AcDbCircle
 10
475.320720803273
 20
187.3617852241316
 30
0.0
 40
3.0
100
AcDbArc
 50
96.69905600000257
 51
173.3009480000005
  0
LINE
  5
23E
330
15
100
AcDbEntity
  8
4
100
AcDbLine
 10
493.308909803273
 20
196.5484182241316
 30
0.0
 11
493.308909803273
 21
200.5484172241316
 31
0.0
  0
LINE
  5
23F
330
15
100
AcDbEntity
  8
4
100
AcDbLine
 10
491.6343488032729
 20
194.5484172241316
 30
0.0
 11
491.6343488032729
 21
196.5484182241316
 31
0.0
  0
LINE
  5
240
330
15
100
AcDbEntity
  8
4
100
AcDbLine
 10
490.1343488032729
 20
193.0481742241317
 30
0.0
 11
490.1343488032729
 21
191.6558397241316
 31
0.0
  0
LINE
  5
241
330
15
100
AcDbEntity
  8
4
100
AcDbLine
 10
492.634347803273
 20
193.0484172241316
 30
0.0
 11
492.634347803273
 21
194.5484172241316
 31
0.0
  0
LINE
  5
246
330
15
100
AcDbEntity
  8
4
100
AcDbLine
 10
514.959543803273
 20
196.5484182241316
 30
0.0
 11
514.959543803273
 21
200.5484172241316
 31
0.0
  0
LINE
  5
247
330
15
100
AcDbEntity
  8
4
100
AcDbLine
 10
516.634347803273
 20
194.5484172241316
 30
0.0
 11
516.634347803273
 21
196.5484182241316
 31
0.0
  0
LINE
  5
248
330
15
100
AcDbEntity
  8
4
100
AcDbLine
 10
515.6343488032729
 20
193.0484172241316
 30
0.0
 11
515.6343488032729
 21
194.5484172241316
 31
0.0
  0
LINE
  5
249
330
15
100
AcDbEntity
  8
4
100
AcDbLine
 10
518.134347803273
 20
193.0481742241317
 30
0.0
 11
518.134347803273
 21
191.6558397241316
 31
0.0
  0
ARC
  5
24D
330
15
100
AcDbEntity
  8
4
100
AcDbCircle
 10
287.634348803273
 20
158.5481742241317
 30
0.0
 40
250.0000005
100
AcDbArc
 50
0.0
 51
6.699051999999996
  0
LINE
  5
24E
330
15
100
AcDbEntity
  8
4
100
AcDbLine
 10
551.534250803273
 20
161.5481742241317
 30
0.0
 11
538.634348303273
 21
161.5481742241317
 31
0.0
  0
LINE
  5
24F
330
15
100
AcDbEntity
  8
4
100
AcDbLine
 10
537.602346803273
 20
162.5481732241316
 30
0.0
 11
538.634348303273
 21
162.5481732241316
 31
0.0
  0
ARC
  5
250
330
15
100
AcDbEntity
  8
4
100
AcDbCircle
 10
551.534250803273
 20
160.5481737241316
 30
0.0
 40
1.0000005
100
AcDbArc
 50
0.0
 51
90.0
  0
LINE
  5
289
330
15
100
AcDbEntity
  8
4
100
AcDbLine
 10
88.66897704719656
 20
168.5481732241317
 30
0.0
 11
88.66897704719656
 21
163.5481737241317
 31
0.0
  0
LINE
  5
28F
330
15
100
AcDbEntity
  8
4
100
AcDbLine
 10
83.6689775471965
 20
168.5481732241317
 30
0.0
 11
83.6689775471965
 21
163.5481737241317
 31
0.0
  0
LINE
  5
297
330
15
100
AcDbEntity
  8
L-CENTER
 48
1.5
100
AcDbLine
 10
98.04027730972064
 20
158.5481742241317
 30
0.0
 11
74.2976757846726
 21
158.5481742241317
 31
0.0
  0
LINE
  5
298
330
15
100
AcDbEntity
  8
4
100
AcDbLine
 10
88.66897704719656
 20
163.5481737241317
 30
0.0
 11
83.6689775471965
 21
163.5481737241317
 31
0.0
  0
LINE
  5
299
330
15
100
AcDbEntity
  8
4
100
AcDbLine
 10
88.66897704719656
 20
168.5481732241317
 30
0.0
 11
83.6689775471965
 21
168.5481732241317
 31
0.0
  0
LINE
  5
29E
330
15
100
AcDbEntity
  8
L-CENTER
 48
1.5
100
AcDbLine
 10
86.16897654719662
 20
146.6768734616077
 30
0.0
 11
86.16897654719662
 21
170.4194749866557
 31
0.0
  0
ARC
  5
29F
330
15
100
AcDbEntity
  8
4
100
AcDbCircle
 10
86.16897654719662
 20
158.5481742241317
 30
0.0
 40
7.999996499999999
100
AcDbArc
 50
108.2099575711188
 51
71.7900270000005
  0
LINE
  5
3D3
330
15
100
AcDbEntity
  8
4
100
AcDbLine
 10
470.7921820297464
 20
186.0881759931658
 30
0.0
 11
472.1480166193836
 21
186.0171197132478
 31
0.0
  0
ARC
  5
3D4
330
15
100
AcDbEntity
  8
4
100
AcDbCircle
 10
470.7398460735034
 20
185.0895464584112
 30
0.0
 40
1.0
100
AcDbArc
 50
86.99999999999442
 51
177.0000000000009
  0
LINE
  5
3D5
330
15
100
AcDbEntity
  8
4
100
AcDbLine
 10
469.8501348173733
 20
168.1128443675834
 30
0.0
 11
470.8154493407588
 21
168.0622543771032
 31
0.0
  0
ARC
  5
3D6
330
15
100
AcDbEntity
  8
4
100
AcDbCircle
 10
469.9024707736163
 20
169.1114739023379
 30
0.0
 40
1.0
100
AcDbArc
 50
176.9999999999976
 51
266.9999999999944
  0
LINE
  5
3D7
330
15
100
AcDbEntity
  8
4
100
AcDbLine
 10
468.9038412388617
 20
169.163809858581
 30
0.0
 11
469.7412165387487
 21
185.1418824146541
 31
0.0
  0
LINE
  5
3D8
330
15
100
AcDbEntity
  8
4
100
AcDbLine
 10
295.2033581353996
 20
182.5481742241319
 30
0.0
 11
295.2033581353999
 21
180.5481742241317
 31
0.0
  0
ARC
  5
3D9
330
15
100
AcDbEntity
  8
4
100
AcDbCircle
 10
294.7033581353999
 20
180.5481742241317
 30
0.0
 40
0.5
100
AcDbArc
 50
270.0
 51
0.0
  0
LINE
  5
3DA
330
15
100
AcDbEntity
  8
4
100
AcDbLine
 10
294.7033581353998
 20
180.0481742241317
 30
0.0
 11
294.7033581353999
 21
180.0481742241317
 31
0.0
  0
ARC
  5
3DB
330
15
100
AcDbEntity
  8
4
100
AcDbCircle
 10
294.7033581353996
 20
182.5481742241317
 30
0.0
 40
0.5
100
AcDbArc
 50
0.0
 51
90.0
  0
ARC
  5
3DC
330
15
100
AcDbEntity
  8
4
100
AcDbCircle
 10
297.2033581353995
 20
185.0481742241317
 30
0.0
 40
1.0
100
AcDbArc
 50
0.0
 51
90.0
  0
LINE
  5
3DD
330
15
100
AcDbEntity
  8
4
100
AcDbLine
 10
293.2033581353998
 20
178.5481742241315
 30
0.0
 11
293.2033581353999
 21
178.0122758392698
 31
0.0
  0
LINE
  5
3DE
330
15
100
AcDbEntity
  8
4
100
AcDbLine
 10
286.7033581353996
 20
183.0481742241317
 30
0.0
 11
294.7033581353996
 21
183.0481742241317
 31
0.0
  0
ARC
  5
3DF
330
15
100
AcDbEntity
  8
4
100
AcDbCircle
 10
294.7033581353998
 20
178.5481742241317
 30
0.0
 40
1.5
100
AcDbArc
 50
90.0
 51
180.0
  0
ARC
  5
3E0
330
15
100
AcDbEntity
  8
4
100
AcDbCircle
 10
297.2033581353995
 20
169.0481742241319
 30
0.0
 40
1.0
100
AcDbArc
 50
270.0
 51
0.0
  0
LINE
  5
3E1
330
15
100
AcDbEntity
  8
4
100
AcDbLine
 10
295.2033581354005
 20
174.5481742241319
 30
0.0
 11
295.2033581354008
 21
173.5481742241321
 31
0.0
  0
LINE
  5
3E2
330
15
100
AcDbEntity
  8
4
100
AcDbLine
 10
286.7033581354012
 20
171.0481742241317
 30
0.0
 11
292.7033581354008
 21
171.0481742241317
 31
0.0
  0
ARC
  5
3E3
330
15
100
AcDbEntity
  8
4
100
AcDbCircle
 10
292.7033581354008
 20
173.5481742241317
 30
0.0
 40
2.5
100
AcDbArc
 50
270.0
 51
0.0
  0
ARC
  5
3E4
330
15
100
AcDbEntity
  8
4
100
AcDbCircle
 10
292.7033581354005
 20
174.5481742241317
 30
0.0
 40
2.5
100
AcDbArc
 50
0.0
 51
60.00000000001174
  0
ARC
  5
3E5
330
15
100
AcDbEntity
  8
4
100
AcDbCircle
 10
286.2033581354005
 20
176.0481742241317
 30
0.0
 40
2.0
100
AcDbArc
 50
289.4712206345208
 51
70.52877936549675
  0
LINE
  5
3E6
330
15
100
AcDbEntity
  8
4
100
AcDbLine
 10
298.2033581354011
 20
169.0481742241318
 30
0.0
 11
298.2033581353993
 21
185.0481742241318
 31
0.0
  0
ARC
  5
3E7
330
15
100
AcDbEntity
  8
4
100
AcDbCircle
 10
294.7033581353999
 20
178.0122758392698
 30
0.0
 40
1.5
100
AcDbArc
 50
180.0
 51
240.0000000000102
  0
ARC
  5
3E8
330
15
100
AcDbEntity
  8
4
100
AcDbCircle
 10
279.7033581353996
 20
182.5481742241317
 30
0.0
 40
0.5
100
AcDbArc
 50
0.0
 51
90.0
  0
LINE
  5
3E9
330
15
100
AcDbEntity
  8
4
100
AcDbLine
 10
286.2033581353996
 20
182.5481742241317
 30
0.0
 11
286.2033581354001
 21
178.8766013488746
 31
0.0
  0
LINE
  5
3EA
330
15
100
AcDbEntity
  8
4
100
AcDbLine
 10
272.7033581354002
 20
178.5481742241317
 30
0.0
 11
274.7033581354001
 21
178.5481742241317
 31
0.0
  0
ARC
  5
3EB
330
15
100
AcDbEntity
  8
4
100
AcDbCircle
 10
272.7033581354002
 20
178.0481742241317
 30
0.0
 40
0.5
100
AcDbArc
 50
90.0
 51
180.0
  0
ARC
  5
3EC
330
15
100
AcDbEntity
  8
4
100
AcDbCircle
 10
274.7033581354001
 20
178.0481742241317
 30
0.0
 40
0.5
100
AcDbArc
 50
0.0
 51
90.0
  0
ARC
  5
3ED
330
15
100
AcDbEntity
  8
4
100
AcDbCircle
 10
277.7033581353999
 20
182.5481742241317
 30
0.0
 40
0.5
100
AcDbArc
 50
90.0
 51
180.0
  0
LINE
  5
3EE
330
15
100
AcDbEntity
  8
4
100
AcDbLine
 10
277.7033581353999
 20
183.0481742241317
 30
0.0
 11
279.7033581353996
 21
183.0481742241317
 31
0.0
  0
LINE
  5
3EF
330
15
100
AcDbEntity
  8
4
100
AcDbLine
 10
282.2033581354008
 20
172.5481742241317
 30
0.0
 11
282.2033581354008
 21
171.5481742241317
 31
0.0
  0
LINE
  5
3F0
330
15
100
AcDbEntity
  8
4
100
AcDbLine
 10
284.203358135401
 20
172.5481742241319
 30
0.0
 11
284.203358135401
 21
171.5481742241317
 31
0.0
  0
LINE
  5
3F1
330
15
100
AcDbEntity
  8
4
100
AcDbLine
 10
286.203358135401
 20
173.2197470993888
 30
0.0
 11
286.2033581354012
 21
171.5481742241317
 31
0.0
  0
ARC
  5
3F2
330
15
100
AcDbEntity
  8
4
100
AcDbCircle
 10
282.7033581354008
 20
171.5481742241317
 30
0.0
 40
0.5
100
AcDbArc
 50
180.0
 51
270.0
  0
ARC
  5
3F3
330
15
100
AcDbEntity
  8
4
100
AcDbCircle
 10
279.703358135401
 20
171.5481742241317
 30
0.0
 40
0.5
100
AcDbArc
 50
270.0
 51
0.0
  0
ARC
  5
3F4
330
15
100
AcDbEntity
  8
4
100
AcDbCircle
 10
283.703358135401
 20
171.5481742241317
 30
0.0
 40
0.5
100
AcDbArc
 50
270.0
 51
0.0
  0
LINE
  5
3F5
330
15
100
AcDbEntity
  8
4
100
AcDbLine
 10
282.7033581354008
 20
171.0481742241317
 30
0.0
 11
283.703358135401
 21
171.0481742241317
 31
0.0
  0
ARC
  5
3F6
330
15
100
AcDbEntity
  8
4
100
AcDbCircle
 10
282.7033581354008
 20
172.5481742241317
 30
0.0
 40
0.5
100
AcDbArc
 50
90.0
 51
180.0
  0
ARC
  5
3F7
330
15
100
AcDbEntity
  8
4
100
AcDbCircle
 10
283.703358135401
 20
172.5481742241317
 30
0.0
 40
0.5
100
AcDbArc
 50
0.0
 51
90.0
  0
LINE
  5
3F8
330
15
100
AcDbEntity
  8
4
100
AcDbLine
 10
282.7033581354008
 20
173.0481742241317
 30
0.0
 11
283.703358135401
 21
173.0481742241317
 31
0.0
  0
LINE
  5
3F9
330
15
100
AcDbEntity
  8
4
100
AcDbLine
 10
272.7033581354001
 20
175.5481742241317
 30
0.0
 11
274.7033581354002
 21
175.5481742241317
 31
0.0
  0
ARC
  5
3FA
330
15
100
AcDbEntity
  8
4
100
AcDbCircle
 10
272.7033581354001
 20
176.0481742241317
 30
0.0
 40
0.5
100
AcDbArc
 50
180.0
 51
270.0
  0
ARC
  5
3FB
330
15
100
AcDbEntity
  8
4
100
AcDbCircle
 10
274.7033581354002
 20
176.0481742241317
 30
0.0
 40
0.5
100
AcDbArc
 50
270.0
 51
0.0
  0
ARC
  5
3FC
330
15
100
AcDbEntity
  8
4
100
AcDbCircle
 10
277.7033581354005
 20
171.5481742241317
 30
0.0
 40
0.5
100
AcDbArc
 50
180.0
 51
270.0
  0
LINE
  5
3FD
330
15
100
AcDbEntity
  8
4
100
AcDbLine
 10
277.7033581354005
 20
171.0481742241317
 30
0.0
 11
279.703358135401
 21
171.0481742241317
 31
0.0
  0
LINE
  5
3FE
330
15
100
AcDbEntity
  8
4
100
AcDbLine
 10
272.2033581354002
 20
178.0481742241317
 30
0.0
 11
272.2033581354001
 21
176.0481742241317
 31
0.0
  0
LINE
  5
3FF
330
15
100
AcDbEntity
  8
4
100
AcDbLine
 10
275.2033581354001
 20
178.0481742241317
 30
0.0
 11
275.2033581354002
 21
176.0481742241317
 31
0.0
  0
LINE
  5
400
330
15
100
AcDbEntity
  8
4
100
AcDbLine
 10
280.2033581353996
 20
182.5481742241319
 30
0.0
 11
280.203358135401
 21
171.5481742241317
 31
0.0
  0
LINE
  5
401
330
15
100
AcDbEntity
  8
4
100
AcDbLine
 10
277.2033581353999
 20
182.5481742241317
 30
0.0
 11
277.2033581354005
 21
171.5481742241317
 31
0.0
  0
ARC
  5
402
330
15
100
AcDbEntity
  8
4
100
AcDbCircle
 10
267.2033581354002
 20
180.5481742241317
 30
0.0
 40
2.5
100
AcDbArc
 50
0.0
 51
90.0
  0
ARC
  5
403
330
15
100
AcDbEntity
  8
4
100
AcDbCircle
 10
267.2033581354002
 20
179.5481742241317
 30
0.0
 40
2.5
100
AcDbArc
 50
321.3178125465138
 51
0.0
  0
LINE
  5
404
330
15
100
AcDbEntity
  8
4
100
AcDbLine
 10
269.7033581354002
 20
180.5481742241317
 30
0.0
 11
269.7033581354002
 21
179.5481742241319
 31
0.0
  0
ARC
  5
405
330
15
100
AcDbEntity
  8
4
100
AcDbCircle
 10
261.2033581354002
 20
182.5481742241317
 30
0.0
 40
0.5
100
AcDbArc
 50
90.0
 51
180.0
  0
LINE
  5
406
330
15
100
AcDbEntity
  8
4
100
AcDbLine
 10
261.2033581354002
 20
183.0481742241317
 30
0.0
 11
267.2033581354002
 21
183.0481742241317
 31
0.0
  0
ARC
  5
407
330
15
100
AcDbEntity
  8
4
100
AcDbCircle
 10
267.2033581354003
 20
173.5481742241317
 30
0.0
 40
2.5
100
AcDbArc
 50
270.0
 51
0.0
  0
ARC
  5
408
330
15
100
AcDbEntity
  8
4
100
AcDbCircle
 10
267.2033581354003
 20
174.5481742241317
 30
0.0
 40
2.5
100
AcDbArc
 50
0.0
 51
38.68218745348979
  0
LINE
  5
409
330
15
100
AcDbEntity
  8
4
100
AcDbLine
 10
269.7033581354003
 20
174.5481742241317
 30
0.0
 11
269.7033581354003
 21
173.5481742241317
 31
0.0
  0
ARC
  5
40A
330
15
100
AcDbEntity
  8
4
100
AcDbCircle
 10
261.2033581354002
 20
171.5481742241317
 30
0.0
 40
0.5
100
AcDbArc
 50
180.0
 51
270.0
  0
LINE
  5
40B
330
15
100
AcDbEntity
  8
4
100
AcDbLine
 10
258.2033581354001
 20
173.5481742241317
 30
0.0
 11
258.2033581354001
 21
171.5481742241317
 31
0.0
  0
ARC
  5
40C
330
15
100
AcDbEntity
  8
4
100
AcDbCircle
 10
257.7033581354001
 20
171.5481742241317
 30
0.0
 40
0.5
100
AcDbArc
 50
270.0
 51
0.0
  0
ARC
  5
40D
330
15
100
AcDbEntity
  8
4
100
AcDbCircle
 10
257.7033581354001
 20
173.5481742241317
 30
0.0
 40
0.5
100
AcDbArc
 50
0.0
 51
90.0
  0
LINE
  5
40E
330
15
100
AcDbEntity
  8
4
100
AcDbLine
 10
261.2033581354002
 20
171.0481742241317
 30
0.0
 11
267.2033581354003
 21
171.0481742241317
 31
0.0
  0
LINE
  5
40F
330
15
100
AcDbEntity
  8
4
100
AcDbLine
 10
260.7033581354002
 20
182.5481742241317
 30
0.0
 11
260.7033581354002
 21
171.5481742241317
 31
0.0
  0
ARC
  5
410
330
15
100
AcDbEntity
  8
4
100
AcDbCircle
 10
270.3258571345995
 20
177.0481742241319
 30
0.0
 40
1.5
100
AcDbArc
 50
141.3178125465097
 51
218.682187453492
  0
ARC
  5
411
330
15
100
AcDbEntity
  8
4
100
AcDbCircle
 10
252.2033581354002
 20
182.5481742241317
 30
0.0
 40
0.5
100
AcDbArc
 50
0.0
 51
90.0
  0
LINE
  5
412
330
15
100
AcDbEntity
  8
4
100
AcDbLine
 10
250.2033581354002
 20
183.0481742241317
 30
0.0
 11
252.2033581354002
 21
183.0481742241317
 31
0.0
  0
ARC
  5
413
330
15
100
AcDbEntity
  8
4
100
AcDbCircle
 10
250.2033581354002
 20
182.5481742241317
 30
0.0
 40
0.5
100
AcDbArc
 50
90.0
 51
180.0
  0
ARC
  5
414
330
15
100
AcDbEntity
  8
4
100
AcDbCircle
 10
247.7033581354002
 20
185.0481742241317
 30
0.0
 40
1.0
100
AcDbArc
 50
90.0
 51
180.0
  0
ARC
  5
415
330
15
100
AcDbEntity
  8
4
100
AcDbCircle
 10
250.2033581354002
 20
171.5481742241317
 30
0.0
 40
0.5
100
AcDbArc
 50
180.0
 51
270.0
  0
ARC
  5
416
330
15
100
AcDbEntity
  8
4
100
AcDbCircle
 10
253.2033581354001
 20
174.5481742241317
 30
0.0
 40
0.5
100
AcDbArc
 50
180.0
 51
270.0
  0
ARC
  5
417
330
15
100
AcDbEntity
  8
4
100
AcDbCircle
 10
247.7033581354002
 20
169.0481742241319
 30
0.0
 40
1.0
100
AcDbArc
 50
180.0
 51
270.0
  0
LINE
  5
418
330
15
100
AcDbEntity
  8
4
100
AcDbLine
 10
246.7033581354002
 20
169.0481742241319
 30
0.0
 11
246.7033581354002
 21
185.0481742241317
 31
0.0
  0
LINE
  5
419
330
15
100
AcDbEntity
  8
4
100
AcDbLine
 10
249.7033581354002
 20
182.5481742241317
 30
0.0
 11
249.7033581354002
 21
171.5481742241317
 31
0.0
  0
LINE
  5
41A
330
15
100
AcDbEntity
  8
4
100
AcDbLine
 10
252.7033581354002
 20
182.5481742241317
 30
0.0
 11
252.7033581354001
 21
174.5481742241317
 31
0.0
  0
LINE
  5
41B
330
15
100
AcDbEntity
  8
4
100
AcDbLine
 10
250.2033581354002
 20
171.0481742241317
 30
0.0
 11
257.7033581354001
 21
171.0481742241317
 31
0.0
  0
LINE
  5
41C
330
15
100
AcDbEntity
  8
4
100
AcDbLine
 10
253.2033581354001
 20
174.0481742241317
 30
0.0
 11
257.7033581354001
 21
174.0481742241317
 31
0.0
  0
ARC
  5
41D
330
15
100
AcDbEntity
  8
4
100
AcDbCircle
 10
240.2033581353999
 20
145.5481742241317
 30
0.0
 40
15.5
100
AcDbArc
 50
185.7213855853658
 51
354.2786144146338
  0
LINE
  5
41E
330
15
100
AcDbEntity
  8
4
100
AcDbLine
 10
247.7033581354002
 20
168.0481742241317
 30
0.0
 11
297.2033581353995
 21
168.0481742241317
 31
0.0
  0
LINE
  5
41F
330
15
100
AcDbEntity
  8
4
100
AcDbLine
 10
247.7033581354002
 20
186.0481742241317
 30
0.0
 11
297.2033581353995
 21
186.0481742241317
 31
0.0
  0
ARC
  5
420
330
15
100
AcDbEntity
  8
4
100
AcDbCircle
 10
286.7033581354012
 20
171.5481742241317
 30
0.0
 40
0.5
100
AcDbArc
 50
180.0
 51
270.0
  0
ARC
  5
421
330
15
100
AcDbEntity
  8
4
100
AcDbCircle
 10
287.203358135401
 20
173.2197470993889
 30
0.0
 40
1.0
100
AcDbArc
 50
109.4712206345136
 51
180.0
  0
ARC
  5
422
330
15
100
AcDbEntity
  8
4
100
AcDbCircle
 10
287.2033581354001
 20
178.8766013488747
 30
0.0
 40
1.0
100
AcDbArc
 50
180.0
 51
250.5287793654998
  0
ARC
  5
423
330
15
100
AcDbEntity
  8
4
100
AcDbCircle
 10
286.7033581353996
 20
182.5481742241317
 30
0.0
 40
0.5
100
AcDbArc
 50
90.0
 51
180.0
  0
LINE
  5
424
330
15
100
AcDbEntity
  8
4
100
AcDbLine
 10
298.2033581353995
 20
359.6359353727547
 30
0.0
 11
298.2033581353994
 21
360.6359353727545
 31
0.0
  0
LINE
  5
425
330
15
100
AcDbEntity
  8
4
100
AcDbLine
 10
246.7033581354002
 20
359.6359353727546
 30
0.0
 11
246.7033581354002
 21
360.6359353727546
 31
0.0
  0
ARC
  5
426
330
15
100
AcDbEntity
  8
4
100
AcDbCircle
 10
247.7033581354002
 20
359.6359353727546
 30
0.0
 40
1.0
100
AcDbArc
 50
180.0
 51
270.0
  0
ARC
  5
427
330
15
100
AcDbEntity
  8
4
100
AcDbCircle
 10
297.2033581353995
 20
359.6359353727545
 30
0.0
 40
1.0
100
AcDbArc
 50
270.0
 51
0.0
  0
LINE
  5
44D
330
15
100
AcDbEntity
  8
4
100
AcDbLine
 10
160.2033586353999
 20
167.0481732241316
 30
0.0
 11
160.2033586353999
 21
150.0481737241316
 31
0.0
  0
LINE
  5
44E
330
15
100
AcDbEntity
  8
4
100
AcDbLine
 10
125.2035271353999
 20
168.5481732241316
 30
0.0
 11
125.2035271353999
 21
151.5481737241316
 31
0.0
  0
LINE
  5
44F
330
15
100
AcDbEntity
  8
4
100
AcDbLine
 10
126.2035261354
 20
166.5481737241316
 30
0.0
 11
126.2035261354
 21
150.5481732241316
 31
0.0
  0
LINE
  5
450
330
15
100
AcDbEntity
  8
4
100
AcDbLine
 10
160.2033586353999
 20
150.5481732241316
 30
0.0
 11
126.2035261354
 21
150.5481732241316
 31
0.0
  0
LINE
  5
451
330
15
100
AcDbEntity
  8
4
100
AcDbLine
 10
160.2033586353999
 20
150.0481737241316
 30
0.0
 11
171.2035261353999
 21
150.0481737241316
 31
0.0
  0
LINE
  5
452
330
15
100
AcDbEntity
  8
4
100
AcDbLine
 10
126.2035261354
 20
150.5481732241316
 30
0.0
 11
125.2035271353999
 21
151.5481737241316
 31
0.0
  0
LINE
  5
453
330
15
100
AcDbEntity
  8
4
100
AcDbLine
 10
157.2033586353999
 20
168.5481732241316
 30
0.0
 11
125.2035271353999
 21
168.5481732241316
 31
0.0
  0
LINE
  5
454
330
15
100
AcDbEntity
  8
4
100
AcDbLine
 10
160.2033586353999
 20
166.5481737241316
 30
0.0
 11
126.2035261354
 21
166.5481737241316
 31
0.0
  0
LINE
  5
455
330
15
100
AcDbEntity
  8
4
100
AcDbLine
 10
171.2035261353999
 20
167.0481732241316
 30
0.0
 11
160.2033586353999
 21
167.0481732241316
 31
0.0
  0
LINE
  5
456
330
15
100
AcDbEntity
  8
4
100
AcDbLine
 10
157.2033586353999
 20
168.5481732241316
 30
0.0
 11
157.2033586353999
 21
166.5481737241316
 31
0.0
  0
LINE
  5
457
330
15
100
AcDbEntity
  8
4
100
AcDbLine
 10
125.2035271353999
 20
165.5481732241316
 30
0.0
 11
126.2035261354
 21
166.5481737241316
 31
0.0
  0
LINE
  5
45A
330
15
100
AcDbEntity
  8
4
100
AcDbLine
 10
158.206447221197
 20
402.1359348727544
 30
0.0
 11
124.206614721197
 21
402.1359348727543
 31
0.0
  0
LINE
  5
45B
330
15
100
AcDbEntity
  8
4
100
AcDbLine
 10
158.2064472211971
 20
386.1359343727543
 30
0.0
 11
124.2066147211971
 21
386.1359343727541
 31
0.0
  0
ARC
  5
45C
330
15
100
AcDbEntity
  8
4
100
AcDbCircle
 10
152.7064472211971
 20
394.1359353727544
 30
0.0
 40
2.5
100
AcDbArc
 50
270.0
 51
90.0
  0
LINE
  5
45D
330
15
100
AcDbEntity
  8
4
100
AcDbLine
 10
169.206614721197
 20
402.6359343727543
 30
0.0
 11
158.206447221197
 21
402.6359343727543
 31
0.0
  0
LINE
  5
45E
330
15
100
AcDbEntity
  8
4
100
AcDbLine
 10
158.2064472211971
 20
385.6359348727544
 30
0.0
 11
169.2066147211971
 21
385.6359348727544
 31
0.0
  0
LINE
  5
45F
330
15
100
AcDbEntity
  8
4
100
AcDbLine
 10
158.206447221197
 20
402.6359343727543
 30
0.0
 11
158.2064472211971
 21
385.6359348727544
 31
0.0
  0
LINE
  5
460
330
15
100
AcDbEntity
  8
4
100
AcDbLine
 10
152.7064472211971
 20
396.6359353727546
 30
0.0
 11
123.206615721197
 21
396.6359353727545
 31
0.0
  0
LINE
  5
461
330
15
100
AcDbEntity
  8
4
100
AcDbLine
 10
152.7064472211971
 20
391.6359353727546
 30
0.0
 11
123.206615721197
 21
391.6359353727545
 31
0.0
  0
LINE
  5
462
330
15
100
AcDbEntity
  8
4
100
AcDbLine
 10
124.2066147211971
 20
391.6359353727543
 30
0.0
 11
124.2066147211971
 21
386.1359343727541
 31
0.0
  0
LINE
  5
463
330
15
100
AcDbEntity
  8
4
100
AcDbLine
 10
123.2066157211971
 20
401.1359343727541
 30
0.0
 11
123.206615721197
 21
387.1359348727543
 31
0.0
  0
LINE
  5
464
330
15
100
AcDbEntity
  8
4
100
AcDbLine
 10
124.2066147211971
 20
386.1359343727541
 30
0.0
 11
123.206615721197
 21
387.1359348727543
 31
0.0
  0
LINE
  5
465
330
15
100
AcDbEntity
  8
4
100
AcDbLine
 10
124.206614721197
 20
402.1359348727543
 30
0.0
 11
124.2066147211971
 21
396.6359353727543
 31
0.0
  0
LINE
  5
466
330
15
100
AcDbEntity
  8
4
100
AcDbLine
 10
123.2066157211969
 20
401.1359343727541
 30
0.0
 11
124.206614721197
 21
402.1359348727543
 31
0.0
  0
LINE
  5
467
330
15
100
AcDbEntity
  8
4
100
AcDbLine
 10
162.7067217211971
 20
402.6359343727543
 30
0.0
 11
162.7067217211971
 21
404.96125292006
 31
0.0
  0
LINE
  5
468
330
15
100
AcDbEntity
  8
4
100
AcDbLine
 10
167.7067217211971
 20
402.6359343727543
 30
0.0
 11
167.7067217211971
 21
406.6359353727545
 31
0.0
  0
LINE
  5
469
330
15
100
AcDbEntity
  8
4
100
AcDbLine
 10
150.706446721197
 20
386.1359343727543
 30
0.0
 11
150.706446721197
 21
342.1359353727546
 31
0.0
  0
LINE
  5
484
330
15
100
AcDbEntity
  8
4
100
AcDbLine
 10
439.1343488032729
 20
86.54817422413163
 30
0.0
 11
400.1343488032729
 21
86.54817422413163
 31
0.0
  0
LINE
  5
485
330
15
100
AcDbEntity
  8
4
100
AcDbLine
 10
439.1343488032729
 20
110.5481742241317
 30
0.0
 11
400.1343488032729
 21
110.5481742241317
 31
0.0
  0
LINE
  5
486
330
15
100
AcDbEntity
  8
4
100
AcDbLine
 10
399.134348303273
 20
113.5481742241317
 30
0.0
 11
436.1343488032729
 21
113.5481742241317
 31
0.0
  0
LINE
  5
487
330
15
100
AcDbEntity
  8
4
100
AcDbLine
 10
439.1343488032729
 20
111.0481737241316
 30
0.0
 11
439.1343488032729
 21
86.04817322413163
 31
0.0
  0
LINE
  5
488
330
15
100
AcDbEntity
  8
4
100
AcDbLine
 10
447.6343478032728
 20
122.0481732241316
 30
0.0
 11
447.6343478032728
 21
75.04817372413163
 31
0.0
  0
LINE
  5
489
330
15
100
AcDbEntity
  8
4
100
AcDbLine
 10
447.6343478032728
 20
86.04817322413163
 30
0.0
 11
439.1343488032729
 21
86.04817322413163
 31
0.0
  0
LINE
  5
48A
330
15
100
AcDbEntity
  8
4
100
AcDbLine
 10
447.6343478032728
 20
75.04817372413163
 30
0.0
 11
448.634348303273
 21
75.04817372413163
 31
0.0
  0
LINE
  5
48B
330
15
100
AcDbEntity
  8
4
100
AcDbLine
 10
447.6343478032728
 20
111.0481737241316
 30
0.0
 11
439.1343488032729
 21
111.0481737241316
 31
0.0
  0
LINE
  5
48C
330
15
100
AcDbEntity
  8
4
100
AcDbLine
 10
448.634348303273
 20
122.0481732241316
 30
0.0
 11
447.6343478032728
 21
122.0481732241316
 31
0.0
  0
LINE
  5
48D
330
15
100
AcDbEntity
  8
4
100
AcDbLine
 10
436.1343488032729
 20
113.5481742241317
 30
0.0
 11
436.1343488032729
 21
110.5481742241317
 31
0.0
  0
LINE
  5
48E
330
15
100
AcDbEntity
  8
4
100
AcDbLine
 10
399.134348303273
 20
113.5481742241317
 30
0.0
 11
399.134348303273
 21
87.54817322413163
 31
0.0
  0
LINE
  5
48F
330
15
100
AcDbEntity
  8
4
100
AcDbLine
 10
400.1343488032729
 20
86.54817422413163
 30
0.0
 11
400.1343488032729
 21
110.5481742241317
 31
0.0
  0
LINE
  5
490
330
15
100
AcDbEntity
  8
4
100
AcDbLine
 10
400.1343488032729
 20
86.54817422413163
 30
0.0
 11
399.134348303273
 21
87.54817322413163
 31
0.0
  0
LINE
  5
491
330
15
100
AcDbEntity
  8
4
100
AcDbLine
 10
399.134348303273
 20
109.5481737241316
 30
0.0
 11
400.1343488032729
 21
110.5481742241317
 31
0.0
  0
LINE
  5
4AA
330
15
100
AcDbEntity
  8
4
100
AcDbLine
 10
243.7033576353999
 20
106.5481737241317
 30
0.0
 11
243.7033576353999
 21
113.5481742241317
 31
0.0
  0
LINE
  5
4AB
330
15
100
AcDbEntity
  8
4
100
AcDbLine
 10
236.7033571353999
 20
106.5481737241317
 30
0.0
 11
236.7033571353999
 21
113.5481742241317
 31
0.0
  0
LINE
  5
4AC
330
15
100
AcDbEntity
  8
4
100
AcDbLine
 10
236.7033571353999
 20
113.5481742241317
 30
0.0
 11
243.7033576353999
 21
113.5481742241317
 31
0.0
  0
LINE
  5
4AD
330
15
100
AcDbEntity
  8
4
100
AcDbLine
 10
243.7033576353999
 20
106.5481737241317
 30
0.0
 11
236.7033571353999
 21
106.5481737241317
 31
0.0
  0
ARC
  5
4AE
330
15
100
AcDbEntity
  8
4
100
AcDbCircle
 10
240.2033581353998
 20
98.54817422413166
 30
0.0
 40
11.999997
100
AcDbArc
 50
106.9577726594187
 51
73.04207799999938
  0
CIRCLE
  5
4B0
330
15
100
AcDbEntity
  8
4
100
AcDbCircle
 10
240.2033581353999
 20
98.54817422413163
 30
0.0
 40
23.49999899999995
  0
LINE
  5
4B1
330
15
100
AcDbEntity
  8
4
100
AcDbLine
 10
214.706446721197
 20
337.6359353727549
 30
0.0
 11
261.7064467211972
 21
337.6359353727547
 31
0.0
  0
LINE
  5
4B2
330
15
100
AcDbEntity
  8
4
100
AcDbLine
 10
227.206446721197
 20
289.1359353727545
 30
0.0
 11
249.206446721197
 21
289.1359353727545
 31
0.0
  0
LINE
  5
4B3
330
15
100
AcDbEntity
  8
4
100
AcDbLine
 10
225.706446721197
 20
329.1359353727545
 30
0.0
 11
250.706446721197
 21
329.1359353727545
 31
0.0
  0
LINE
  5
4B4
330
15
100
AcDbEntity
  8
4
100
AcDbLine
 10
226.206446721197
 20
290.1359353727545
 30
0.0
 11
234.706446721197
 21
290.1359353727545
 31
0.0
  0
LINE
  5
4B5
330
15
100
AcDbEntity
  8
4
100
AcDbLine
 10
226.206446721197
 20
328.6359353727545
 30
0.0
 11
226.206446721197
 21
290.1359353727545
 31
0.0
  0
LINE
  5
4B6
330
15
100
AcDbEntity
  8
4
100
AcDbLine
 10
225.706446721197
 20
337.6359353727549
 30
0.0
 11
225.706446721197
 21
329.1359353727545
 31
0.0
  0
LINE
  5
4B7
330
15
100
AcDbEntity
  8
4
100
AcDbLine
 10
214.706446721197
 20
337.6359353727549
 30
0.0
 11
214.706446721197
 21
338.6359353727545
 31
0.0
  0
LINE
  5
4B8
330
15
100
AcDbEntity
  8
4
100
AcDbLine
 10
225.706446721197
 20
329.1359353727545
 30
0.0
 11
225.706446721197
 21
329.1359353727545
 31
0.0
  0
ARC
  5
4B9
330
15
100
AcDbEntity
  8
4
100
AcDbCircle
 10
225.706446721197
 20
328.6359353727545
 30
0.0
 40
0.5
100
AcDbArc
 50
0.0
 51
90.0
  0
LINE
  5
4BA
330
15
100
AcDbEntity
  8
4
100
AcDbLine
 10
226.206446721197
 20
290.1359353727545
 30
0.0
 11
227.206446721197
 21
289.1359353727545
 31
0.0
  0
LINE
  5
4BB
330
15
100
AcDbEntity
  8
4
100
AcDbLine
 10
241.706446721197
 20
322.6359353727545
 30
0.0
 11
241.706446721197
 21
289.1359353727545
 31
0.0
  0
LINE
  5
4BC
330
15
100
AcDbEntity
  8
4
100
AcDbLine
 10
250.206446721197
 20
328.6359353727545
 30
0.0
 11
250.206446721197
 21
290.1359353727545
 31
0.0
  0
LINE
  5
4BD
330
15
100
AcDbEntity
  8
4
100
AcDbLine
 10
234.706446721197
 20
322.6359353727545
 30
0.0
 11
234.706446721197
 21
289.1359353727545
 31
0.0
  0
LINE
  5
4BE
330
15
100
AcDbEntity
  8
4
100
AcDbLine
 10
250.706446721197
 20
337.6359353727548
 30
0.0
 11
250.706446721197
 21
329.1359353727545
 31
0.0
  0
ARC
  5
4BF
330
15
100
AcDbEntity
  8
4
100
AcDbCircle
 10
238.206446721197
 20
322.6359353727545
 30
0.0
 40
3.5
100
AcDbArc
 50
0.0
 51
180.0
  0
ARC
  5
4C0
330
15
100
AcDbEntity
  8
4
100
AcDbCircle
 10
250.706446721197
 20
328.6359353727545
 30
0.0
 40
0.5
100
AcDbArc
 50
90.0
 51
180.0
  0
LINE
  5
4C1
330
15
100
AcDbEntity
  8
4
100
AcDbLine
 10
261.7064467211972
 20
337.6359353727547
 30
0.0
 11
261.7064467211972
 21
338.6359353727547
 31
0.0
  0
LINE
  5
4C2
330
15
100
AcDbEntity
  8
4
100
AcDbLine
 10
241.706446721197
 20
290.1359353727545
 30
0.0
 11
250.206446721197
 21
290.1359353727545
 31
0.0
  0
LINE
  5
4C3
330
15
100
AcDbEntity
  8
4
100
AcDbLine
 10
250.206446721197
 20
290.1359353727545
 30
0.0
 11
249.206446721197
 21
289.1359353727545
 31
0.0
  0
ENDSEC
  0
SECTION
  2
OBJECTS
  0
DICTIONARY
  5
5
330
0
100
AcDbDictionary
281
     1
  3
ACAD_COLOR
350
28
  3
ACAD_GROUP
350
26
  3
ACAD_LAYOUT
350
1C
  3
ACAD_MATERIAL
350
7
  3
ACAD_MLEADERSTYLE
350
42B
  3
ACAD_MLINESTYLE
350
13
  3
ACAD_PLOTSETTINGS
350
27
  3
ACAD_PLOTSTYLENAME
350
4
  3
ACAD_SCALELIST
350
2D
  3
ACAD_TABLESTYLE
350
42A
  3
ACAD_VISUALSTYLE
350
29
  3
ACDBHEADERROUNDTRIPXREC
350
507
  3
AcDbVariableDictionary
350
428
  3
DWGPROPS
350
50A
  0
DICTIONARY
  5
50B
330
25
100
AcDbDictionary
280
     1
281
     1
  3
ACAD_XREC_ROUNDTRIP
360
50C
  0
DICTIONARY
  5
16
330
15
100
AcDbDictionary
280
     1
281
     1
  3
ACAD_SORTENTS
360
17
  0
DICTIONARY
  5
28
102
{ACAD_REACTORS
330
5
102
}
330
5
100
AcDbDictionary
281
     1
  0
DICTIONARY
  5
26
102
{ACAD_REACTORS
330
5
102
}
330
5
100
AcDbDictionary
281
     1
  0
DICTIONARY
  5
1C
102
{ACAD_REACTORS
330
5
102
}
330
5
100
AcDbDictionary
281
     1
  3
Model
350
1B
  3
ﾚｲｱｳﾄ1
350
22
  0
DICTIONARY
  5
7
102
{ACAD_REACTORS
330
5
102
}
330
5
100
AcDbDictionary
281
     1
  3
ByBlock
350
70
  3
ByLayer
350
E
  3
Global
350
6
  0
DICTIONARY
  5
42B
102
{ACAD_REACTORS
330
5
102
}
330
5
100
AcDbDictionary
281
     1
  3
Standard
350
446
  0
DICTIONARY
  5
13
102
{ACAD_REACTORS
330
5
102
}
330
5
100
AcDbDictionary
281
     1
  3
STANDARD
350
12
  0
DICTIONARY
  5
27
102
{ACAD_REACTORS
330
5
102
}
330
5
100
AcDbDictionary
281
     1
  0
ACDBDICTIONARYWDFLT
  5
4
102
{ACAD_REACTORS
330
5
102
}
330
5
100
AcDbDictionary
281
     1
  3
Normal
350
3
100
AcDbDictionaryWithDefault
340
3
  0
DICTIONARY
  5
2D
102
{ACAD_REACTORS
330
5
102
}
330
5
100
AcDbDictionary
281
     1
  3
*A1
350
4F
  3
*A10
350
58
  3
*A11
350
59
  3
*A12
350
5A
  3
*A13
350
5B
  3
*A14
350
5C
  3
*A15
350
5D
  3
*A16
350
5E
  3
*A17
350
5F
  3
*A18
350
60
  3
*A19
350
61
  3
*A2
350
50
  3
*A20
350
62
  3
*A21
350
63
  3
*A22
350
64
  3
*A23
350
65
  3
*A24
350
66
  3
*A25
350
67
  3
*A26
350
68
  3
*A27
350
69
  3
*A28
350
6A
  3
*A29
350
6B
  3
*A3
350
51
  3
*A30
350
6C
  3
*A31
350
6D
  3
*A32
350
6E
  3
*A33
350
6F
  3
*A4
350
52
  3
*A5
350
53
  3
*A6
350
54
  3
*A7
350
55
  3
*A8
350
56
  3
*A9
350
57
  0
DICTIONARY
  5
42A
102
{ACAD_REACTORS
330
5
102
}
330
5
100
AcDbDictionary
281
     1
  3
Standard
350
503
  0
DICTIONARY
  5
29
102
{ACAD_REACTORS
330
5
102
}
330
5
100
AcDbDictionary
281
     1
  3
2dWireframe
350
432
  3
Basic
350
435
  3
Brighten
350
439
  3
ColorChange
350
43D
  3
Conceptual
350
437
  3
Dim
350
438
  3
EdgeColorOff
350
440
  3
Facepattern
350
43C
  3
Flat
350
42E
  3
FlatWithEdges
350
42F
  3
Gouraud
350
430
  3
GouraudWithEdges
350
431
  3
Hidden
350
434
  3
JitterOff
350
43E
  3
Linepattern
350
43B
  3
OverhangOff
350
43F
  3
Realistic
350
436
  3
Shaded
350
445
  3
Shaded with edges
350
444
  3
Shades of Gray
350
441
  3
Sketchy
350
442
  3
Thicken
350
43A
  3
Wireframe
350
433
  3
X-Ray
350
443
  0
DICTIONARY
  5
507
102
{ACAD_REACTORS
330
5
102
}
330
5
100
AcDbDictionary
281
     1
  3
COLORDICT
350
508
  3
MATERIALDICT
350
509
  0
DICTIONARY
  5
428
102
{ACAD_REACTORS
330
5
102
}
330
5
100
AcDbDictionary
281
     1
  3
CANNOSCALE
350
429
  3
CMLEADERSTYLE
350
448
  3
CTABLESTYLE
350
504
  3
DIMASSOC
350
505
  3
HIDETEXT
350
506
  3
MSLTSCALE
350
50D
  0
XRECORD
  5
50A
102
{ACAD_REACTORS
330
5
102
}
330
5
100
AcDbXrecord
280
     1
  1
DWGPROPS COOKIE
  2

  3

  4

  6

  7

  8
sg-d04
  9

300
=
301
=
302
=
303
=
304
=
305
=
306
=
307
=
308
=
309
=
 40
0.0
 41
2449812.756805555
 42
2457871.45220993
  1

 90
        0
  0
XRECORD
  5
50C
102
{ACAD_REACTORS
330
50B
102
}
330
50B
100
AcDbXrecord
280
     1
102
VTR_0.000_0.000_1.000_1.000_VISUALSTYLE
340
432
102
VTR_0.000_0.000_1.000_1.000_GRIDDISPLAY
 70
     3
102
VTR_0.000_0.000_1.000_1.000_GRIDMAJOR
 70
     5
102
VTR_0.000_0.000_1.000_1.000_DEFAULTLIGHTING
280
     1
102
VTR_0.000_0.000_1.000_1.000_DEFAULTLIGHTINGTYPE
 70
     1
102
VTR_0.000_0.000_1.000_1.000_BRIGHTNESS
141
0.0
102
VTR_0.000_0.000_1.000_1.000_CONTRAST
142
0.0
  0
SORTENTSTABLE
  5
17
102
{ACAD_REACTORS
330
16
102
}
330
16
100
AcDbSortentsTable
330
15
331
0
  5
FB
331
A4
  5
A5
331
A9
  5
AB
331
AA
  5
AC
331
AB
  5
AD
331
AC
  5
AE
331
AD
  5
AF
331
AE
  5
B0
331
AF
  5
B1
331
B0
  5
B2
331
B1
  5
B3
331
B2
  5
B4
331
B3
  5
B5
331
B4
  5
B6
331
B5
  5
B7
331
B6
  5
B8
331
B7
  5
B9
331
B8
  5
BA
331
B9
  5
BB
331
BA
  5
BC
331
BB
  5
BD
331
BC
  5
BE
331
BD
  5
BF
331
BE
  5
C0
331
BF
  5
C1
331
C0
  5
C2
331
C1
  5
C3
331
C2
  5
C4
331
C3
  5
C5
331
C4
  5
C6
331
C5
  5
C7
331
C6
  5
C8
331
C7
  5
C9
331
C8
  5
CA
331
C9
  5
CB
331
CA
  5
CC
331
CB
  5
CD
331
CC
  5
CE
331
CD
  5
CF
331
CE
  5
D0
331
CF
  5
D1
331
D0
  5
D2
331
D2
  5
D4
331
D3
  5
D5
331
D4
  5
D6
331
D5
  5
D7
331
D6
  5
D8
331
D7
  5
D9
331
D8
  5
DA
331
DB
  5
DD
331
DC
  5
DE
331
DD
  5
DF
331
E0
  5
E2
331
E5
  5
E7
331
E6
  5
E8
331
E7
  5
E9
331
E8
  5
EA
331
E9
  5
EB
331
EC
  5
EE
331
F1
  5
F3
331
F2
  5
F4
331
F3
  5
F5
331
F4
  5
F6
331
F5
  5
F7
331
F6
  5
F8
331
F7
  5
F9
331
F8
  5
FA
331
FA
  5
FC
331
FC
  5
FE
331
FE
  5
100
331
109
  5
10B
331
10C
  5
10E
331
10D
  5
10F
331
110
  5
112
331
111
  5
113
331
118
  5
11A
331
11A
  5
11C
331
11B
  5
11D
331
11C
  5
11E
331
11F
  5
121
331
120
  5
122
331
121
  5
123
331
122
  5
124
331
123
  5
125
331
124
  5
126
331
125
  5
127
331
126
  5
128
331
127
  5
129
331
128
  5
12A
331
129
  5
12B
331
12A
  5
12C
331
12B
  5
12D
331
12C
  5
12E
331
12D
  5
12F
331
12E
  5
130
331
132
  5
134
331
133
  5
136
331
134
  5
137
331
135
  5
139
331
136
  5
13A
331
137
  5
13B
331
138
  5
13D
331
13A
  5
13E
331
13B
  5
13F
331
13C
  5
140
331
13D
  5
141
331
13E
  5
142
331
13F
  5
143
331
140
  5
144
331
141
  5
145
331
142
  5
146
331
143
  5
147
331
144
  5
148
331
145
  5
149
331
146
  5
14A
331
147
  5
14B
331
148
  5
14C
331
149
  5
14D
331
14A
  5
14E
331
14B
  5
153
331
150
  5
154
331
151
  5
155
331
152
  5
156
331
153
  5
157
331
154
  5
158
331
155
  5
159
331
156
  5
15A
331
157
  5
15B
331
158
  5
15C
331
159
  5
15D
331
15A
  5
15E
331
15B
  5
15F
331
15C
  5
161
331
15E
  5
162
331
15F
  5
163
331
160
  5
164
331
161
  5
165
331
162
  5
166
331
163
  5
167
331
164
  5
168
331
165
  5
16A
331
166
  5
16B
331
167
  5
16C
331
168
  5
16D
331
169
  5
16E
331
16A
  5
16F
331
16B
  5
170
331
16C
  5
171
331
16D
  5
173
331
16E
  5
174
331
16F
  5
175
331
170
  5
176
331
171
  5
177
331
172
  5
178
331
173
  5
179
331
174
  5
17A
331
175
  5
17B
331
176
  5
17C
331
177
  5
17D
331
178
  5
17F
331
17A
  5
180
331
17B
  5
181
331
17C
  5
182
331
17D
  5
183
331
17E
  5
184
331
17F
  5
185
331
180
  5
186
331
181
  5
18A
331
185
  5
18B
331
186
  5
18C
331
187
  5
18D
331
188
  5
18E
331
197
  5
19D
331
199
  5
19F
331
1A2
  5
1A8
331
1A3
  5
1A9
331
1A4
  5
1AA
331
1A5
  5
1AB
331
1A6
  5
1AC
331
1A7
  5
1AD
331
1A8
  5
1AE
331
1A9
  5
1AF
331
1AA
  5
1B0
331
1AB
  5
1B1
331
1AC
  5
1B2
331
1AD
  5
1B3
331
1AE
  5
1B6
331
1BA
  5
1C0
331
1BB
  5
1C7
331
1C2
  5
1C8
331
1C3
  5
1C9
331
1C4
  5
1CD
331
1C8
  5
1CE
331
1C9
  5
1CF
331
1CA
  5
1D0
331
1CB
  5
1D1
331
1CC
  5
1D2
331
1CD
  5
1D3
331
1CE
  5
1D4
331
1CF
  5
1D5
331
1D0
  5
1D6
331
1D1
  5
1D7
331
1D2
  5
1D8
331
1D3
  5
1D9
331
1D4
  5
1DA
331
1D5
  5
1DB
331
1D6
  5
1DC
331
1DD
  5
1E3
331
1DE
  5
1E4
331
1E6
  5
1EC
331
1E7
  5
1ED
331
1E8
  5
1EE
331
1E9
  5
1EF
331
1EA
  5
1F0
331
1EB
  5
1F3
331
1EE
  5
1F4
331
1EF
  5
1F5
331
1F0
  5
1F6
331
1F1
  5
1F7
331
1F2
  5
1F8
331
1F3
  5
1F9
331
1F4
  5
1FA
331
1F5
  5
1FB
331
1FC
  5
202
331
1FD
  5
203
331
1FE
  5
204
331
1FF
  5
205
331
206
  5
20C
331
207
  5
20D
331
208
  5
20E
331
209
  5
20F
331
20A
  5
210
331
20B
  5
212
331
20D
  5
214
331
20F
  5
215
331
210
  5
216
331
211
  5
217
331
212
  5
218
331
213
  5
219
331
214
  5
21A
331
215
  5
21B
331
216
  5
21C
331
217
  5
21D
331
218
  5
21E
331
219
  5
220
331
21B
  5
221
331
21C
  5
222
331
21D
  5
223
331
21E
  5
224
331
21F
  5
225
331
220
  5
226
331
221
  5
227
331
222
  5
228
331
223
  5
229
331
224
  5
238
331
233
  5
23A
331
236
  5
23C
331
237
  5
23D
331
238
  5
23E
331
239
  5
23F
331
23A
  5
240
331
23B
  5
241
331
23C
  5
242
331
23D
  5
243
331
23E
  5
244
331
23F
  5
245
331
240
  5
246
331
241
  5
247
331
246
  5
24C
331
247
  5
24D
331
248
  5
24E
331
249
  5
251
331
24D
  5
253
331
24E
  5
254
331
24F
  5
255
331
250
  5
25A
331
289
  5
28F
331
28F
  5
295
331
297
  5
29D
331
298
  5
29E
331
299
  5
29F
331
29E
  5
2A4
331
29F
  5
2A5
331
3D3
  5
3D9
331
3D4
  5
3DA
331
3D5
  5
3DB
331
3D6
  5
3DC
331
3D7
  5
3DD
331
3D8
  5
3DE
331
3D9
  5
3DF
331
3DA
  5
3E0
331
3DB
  5
3E1
331
3DC
  5
3E2
331
3DD
  5
3E3
331
3DE
  5
3E4
331
3DF
  5
3E5
331
3E0
  5
3E6
331
3E1
  5
3E7
331
3E2
  5
3E8
331
3E3
  5
3E9
331
3E4
  5
3EA
331
3E5
  5
3EB
331
3E6
  5
3EC
331
3E7
  5
3ED
331
3E8
  5
3EE
331
3E9
  5
3EF
331
3EA
  5
3F0
331
3EB
  5
3F1
331
3EC
  5
3F2
331
3ED
  5
3F3
331
3EE
  5
3F4
331
3EF
  5
3F5
331
3F0
  5
3F6
331
3F1
  5
3F7
331
3F2
  5
3F8
331
3F3
  5
3F9
331
3F4
  5
3FA
331
3F5
  5
3FB
331
3F6
  5
3FC
331
3F7
  5
3FD
331
3F8
  5
3FE
331
3F9
  5
3FF
331
3FA
  5
400
331
3FB
  5
401
331
3FC
  5
402
331
3FD
  5
403
331
3FE
  5
404
331
3FF
  5
405
331
400
  5
406
331
401
  5
407
331
402
  5
408
331
403
  5
409
331
404
  5
40A
331
405
  5
40B
331
406
  5
40C
331
407
  5
40D
331
408
  5
40E
331
409
  5
40F
331
40A
  5
410
331
40B
  5
411
331
40C
  5
412
331
40D
  5
413
331
40E
  5
414
331
40F
  5
415
331
410
  5
416
331
411
  5
417
331
412
  5
418
331
413
  5
419
331
414
  5
41A
331
415
  5
41B
331
416
  5
41C
331
417
  5
41D
331
418
  5
41E
331
419
  5
41F
331
41A
  5
420
331
41B
  5
421
331
41C
  5
422
331
41D
  5
423
331
41E
  5
424
331
41F
  5
425
331
420
  5
426
331
421
  5
427
331
422
  5
449
331
423
  5
44A
331
424
  5
44B
331
425
  5
44C
331
426
  5
44D
331
427
  5
44E
331
44D
  5
451
331
44E
  5
454
331
44F
  5
455
331
450
  5
456
331
451
  5
457
331
452
  5
458
331
453
  5
459
331
454
  5
45A
331
455
  5
45D
331
456
  5
45E
331
457
  5
45F
331
45A
  5
460
331
45B
  5
461
331
45C
  5
462
331
45D
  5
463
331
45E
  5
464
331
45F
  5
465
331
460
  5
466
331
461
  5
467
331
462
  5
468
331
463
  5
469
331
464
  5
46B
331
465
  5
46C
331
466
  5
46D
331
467
  5
169
331
468
  5
172
331
469
  5
138
331
484
  5
487
331
485
  5
488
331
486
  5
489
331
487
  5
48A
331
488
  5
48B
331
489
  5
48C
331
48A
  5
48D
331
48B
  5
48E
331
48C
  5
48F
331
48D
  5
490
331
48E
  5
491
331
48F
  5
493
331
490
  5
494
331
491
  5
495
331
4AA
  5
4AD
331
4AB
  5
4AE
331
4AC
  5
4B0
331
4AD
  5
4B1
331
4AE
  5
4B2
331
4B0
  5
4B3
331
4B1
  5
4B4
331
4B2
  5
4B5
331
4B3
  5
4B6
331
4B4
  5
4B7
331
4B5
  5
4B8
331
4B6
  5
4B9
331
4B7
  5
4BA
331
4B8
  5
4BB
331
4B9
  5
4BC
331
4BA
  5
4BD
331
4BB
  5
4BE
331
4BC
  5
4BF
331
4BD
  5
4C0
331
4BE
  5
4C1
331
4BF
  5
4C2
331
4C0
  5
4C3
331
4C1
  5
4C7
331
4C2
  5
4C8
331
4C3
  5
4C9
  0
LAYOUT
  5
1B
102
{ACAD_REACTORS
330
1C
102
}
330
1C
100
AcDbPlotSettings
  1

  2
Bullzip PDF Printer.pc3
  4
A3
  6

 40
0.2
 41
0.0
 42
0.0
 43
0.0
 44
420.2
 45
297.1
 46
25.0
 47
12.0
 48
44.99999995999997
 49
5.0
140
617.9999986475001
141
413.74999904625
142
1.0
143
1.5
 70
 11936
 72
     1
 73
     0
 74
     4
  7
monochrome.ctb
 75
     0
147
0.6666666666666666
148
-44.99999995999997
149
-5.0
100
AcDbLayout
  1
Model
 70
     0
 71
     0
 10
0.0
 20
0.0
 11
12.0
 21
9.0
 12
0.0
 22
0.0
 32
0.0
 14
74.2976757846726
 24
15.91534593119782
 34
0.0
 15
563.0791104764851
 25
454.9682153483494
 35
0.0
146
0.0
 13
0.0
 23
0.0
 33
0.0
 16
1.0
 26
0.0
 36
0.0
 17
0.0
 27
1.0
 37
0.0
 76
     0
330
15
331
2B
1001
ACAD_PSEXT
1000
Bullzip PDF Printer.pc3
1000
Bullzip PDF Printer
1000
BULLZIP
1000
Bullzip PDF Printer 10.1.0.1871
1070
     0
  0
LAYOUT
  5
22
102
{ACAD_REACTORS
330
1C
102
}
330
1C
100
AcDbPlotSettings
  1

  2
SR-LP8300F
  4

  6

 40
0.0
 41
0.0
 42
0.0
 43
0.0
 44
0.0
 45
0.0
 46
0.0
 47
0.0
 48
0.0
 49
0.0
140
0.0
141
0.0
142
1.0
143
1.0
 70
   688
 72
     0
 73
     0
 74
     5
  7
monochrome.ctb
 75
    16
147
1.0
148
0.0
149
0.0
100
AcDbLayout
  1
ﾚｲｱｳﾄ1
 70
     0
 71
     1
 10
0.0
 20
0.0
 11
12.0
 21
9.0
 12
0.0
 22
0.0
 32
0.0
 14
1.000000000000000E+20
 24
1.000000000000000E+20
 34
1.000000000000000E+20
 15
-1.000000000000000E+20
 25
-1.000000000000000E+20
 35
-1.000000000000000E+20
146
0.0
 13
0.0
 23
0.0
 33
0.0
 16
1.0
 26
0.0
 36
0.0
 17
0.0
 27
1.0
 37
0.0
 76
     0
330
1F
  0
MATERIAL
  5
70
102
{ACAD_REACTORS
330
7
102
}
102
{ACAD_XDICTIONARY
360
512
102
}
330
7
100
AcDbMaterial
  1
ByBlock
  0
MATERIAL
  5
E
102
{ACAD_REACTORS
330
7
102
}
102
{ACAD_XDICTIONARY
360
50E
102
}
330
7
100
AcDbMaterial
  1
ByLayer
  0
MATERIAL
  5
6
102
{ACAD_REACTORS
330
7
102
}
102
{ACAD_XDICTIONARY
360
510
102
}
330
7
100
AcDbMaterial
  1
Global
  0
MLEADERSTYLE
  5
446
102
{ACAD_REACTORS
330
42B
102
}
102
{ACAD_XDICTIONARY
360
544
102
}
330
42B
100
AcDbMLeaderStyle
170
     2
171
     1
172
     0
 90
        2
 40
0.0
 41
0.0
173
     1
 91
-1056964608
340
B
 92
       -2
290
     1
 42
0.09
291
     1
 43
0.36
  3
Standard
341
0
 44
0.18
300

342
C
174
     1
178
     6
175
     1
176
     0
 93
-1056964608
 45
0.18
292
     0
297
     0
 46
0.18
343
0
 94
-1056964608
 47
1.0
 49
1.0
140
1.0
293
     1
141
0.0
294
     1
177
     0
142
1.0
295
     0
296
     0
143
0.125
1001
ACAD_MLEADERVER
1070
     2
  0
MLINESTYLE
  5
12
102
{ACAD_REACTORS
330
13
102
}
330
13
100
AcDbMlineStyle
  2
STANDARD
 70
     0
  3

 62
     0
 51
90.0
 52
90.0
 71
     2
 49
0.5
 62
   256
  6
BYLAYER
 49
-0.5
 62
   256
  6
BYLAYER
  0
ACDBPLACEHOLDER
  5
3
102
{ACAD_REACTORS
330
4
102
}
330
4
  0
SCALE
  5
4F
102
{ACAD_REACTORS
330
2D
102
}
330
2D
100
AcDbScale
 70
     0
300
1:1
140
1.0
141
1.0
290
     1
  0
SCALE
  5
58
102
{ACAD_REACTORS
330
2D
102
}
330
2D
100
AcDbScale
 70
     0
300
1:40
140
1.0
141
40.0
290
     0
  0
SCALE
  5
59
102
{ACAD_REACTORS
330
2D
102
}
330
2D
100
AcDbScale
 70
     0
300
1:50
140
1.0
141
50.0
290
     0
  0
SCALE
  5
5A
102
{ACAD_REACTORS
330
2D
102
}
330
2D
100
AcDbScale
 70
     0
300
1:100
140
1.0
141
100.0
290
     0
  0
SCALE
  5
5B
102
{ACAD_REACTORS
330
2D
102
}
330
2D
100
AcDbScale
 70
     0
300
2:1
140
2.0
141
1.0
290
     0
  0
SCALE
  5
5C
102
{ACAD_REACTORS
330
2D
102
}
330
2D
100
AcDbScale
 70
     0
300
4:1
140
4.0
141
1.0
290
     0
  0
SCALE
  5
5D
102
{ACAD_REACTORS
330
2D
102
}
330
2D
100
AcDbScale
 70
     0
300
8:1
140
8.0
141
1.0
290
     0
  0
SCALE
  5
5E
102
{ACAD_REACTORS
330
2D
102
}
330
2D
100
AcDbScale
 70
     0
300
10:1
140
10.0
141
1.0
290
     0
  0
SCALE
  5
5F
102
{ACAD_REACTORS
330
2D
102
}
330
2D
100
AcDbScale
 70
     0
300
100:1
140
100.0
141
1.0
290
     0
  0
SCALE
  5
60
102
{ACAD_REACTORS
330
2D
102
}
330
2D
100
AcDbScale
 70
     0
300
1/128" = 1'-0"
140
0.0078125
141
12.0
290
     0
  0
SCALE
  5
61
102
{ACAD_REACTORS
330
2D
102
}
330
2D
100
AcDbScale
 70
     0
300
1/64" = 1'-0"
140
0.015625
141
12.0
290
     0
  0
SCALE
  5
50
102
{ACAD_REACTORS
330
2D
102
}
330
2D
100
AcDbScale
 70
     0
300
1:2
140
1.0
141
2.0
290
     0
  0
SCALE
  5
62
102
{ACAD_REACTORS
330
2D
102
}
330
2D
100
AcDbScale
 70
     0
300
1/32" = 1'-0"
140
0.03125
141
12.0
290
     0
  0
SCALE
  5
63
102
{ACAD_REACTORS
330
2D
102
}
330
2D
100
AcDbScale
 70
     0
300
1/16" = 1'-0"
140
0.0625
141
12.0
290
     0
  0
SCALE
  5
64
102
{ACAD_REACTORS
330
2D
102
}
330
2D
100
AcDbScale
 70
     0
300
3/32" = 1'-0"
140
0.09375
141
12.0
290
     0
  0
SCALE
  5
65
102
{ACAD_REACTORS
330
2D
102
}
330
2D
100
AcDbScale
 70
     0
300
1/8" = 1'-0"
140
0.125
141
12.0
290
     0
  0
SCALE
  5
66
102
{ACAD_REACTORS
330
2D
102
}
330
2D
100
AcDbScale
 70
     0
300
3/16" = 1'-0"
140
0.1875
141
12.0
290
     0
  0
SCALE
  5
67
102
{ACAD_REACTORS
330
2D
102
}
330
2D
100
AcDbScale
 70
     0
300
1/4" = 1'-0"
140
0.25
141
12.0
290
     0
  0
SCALE
  5
68
102
{ACAD_REACTORS
330
2D
102
}
330
2D
100
AcDbScale
 70
     0
300
3/8" = 1'-0"
140
0.375
141
12.0
290
     0
  0
SCALE
  5
69
102
{ACAD_REACTORS
330
2D
102
}
330
2D
100
AcDbScale
 70
     0
300
1/2" = 1'-0"
140
0.5
141
12.0
290
     0
  0
SCALE
  5
6A
102
{ACAD_REACTORS
330
2D
102
}
330
2D
100
AcDbScale
 70
     0
300
3/4" = 1'-0"
140
0.75
141
12.0
290
     0
  0
SCALE
  5
6B
102
{ACAD_REACTORS
330
2D
102
}
330
2D
100
AcDbScale
 70
     0
300
1" = 1'-0"
140
1.0
141
12.0
290
     0
  0
SCALE
  5
51
102
{ACAD_REACTORS
330
2D
102
}
330
2D
100
AcDbScale
 70
     0
300
1:4
140
1.0
141
4.0
290
     0
  0
SCALE
  5
6C
102
{ACAD_REACTORS
330
2D
102
}
330
2D
100
AcDbScale
 70
     0
300
1-1/2" = 1'-0"
140
1.5
141
12.0
290
     0
  0
SCALE
  5
6D
102
{ACAD_REACTORS
330
2D
102
}
330
2D
100
AcDbScale
 70
     0
300
3" = 1'-0"
140
3.0
141
12.0
290
     0
  0
SCALE
  5
6E
102
{ACAD_REACTORS
330
2D
102
}
330
2D
100
AcDbScale
 70
     0
300
6" = 1'-0"
140
6.0
141
12.0
290
     0
  0
SCALE
  5
6F
102
{ACAD_REACTORS
330
2D
102
}
330
2D
100
AcDbScale
 70
     0
300
1'-0" = 1'-0"
140
12.0
141
12.0
290
     0
  0
SCALE
  5
52
102
{ACAD_REACTORS
330
2D
102
}
330
2D
100
AcDbScale
 70
     0
300
1:5
140
1.0
141
5.0
290
     0
  0
SCALE
  5
53
102
{ACAD_REACTORS
330
2D
102
}
330
2D
100
AcDbScale
 70
     0
300
1:8
140
1.0
141
8.0
290
     0
  0
SCALE
  5
54
102
{ACAD_REACTORS
330
2D
102
}
330
2D
100
AcDbScale
 70
     0
300
1:10
140
1.0
141
10.0
290
     0
  0
SCALE
  5
55
102
{ACAD_REACTORS
330
2D
102
}
330
2D
100
AcDbScale
 70
     0
300
1:16
140
1.0
141
16.0
290
     0
  0
SCALE
  5
56
102
{ACAD_REACTORS
330
2D
102
}
330
2D
100
AcDbScale
 70
     0
300
1:20
140
1.0
141
20.0
290
     0
  0
SCALE
  5
57
102
{ACAD_REACTORS
330
2D
102
}
330
2D
100
AcDbScale
 70
     0
300
1:30
140
1.0
141
30.0
290
     0
  0
TABLESTYLE
  5
503
102
{ACAD_REACTORS
330
42A
102
}
330
42A
100
AcDbTableStyle
  3
Standard
 70
     0
 71
     0
 40
0.06
 41
0.06
280
     0
281
     0
  7
STANDARD
140
0.18
170
     2
 62
     0
 63
   257
283
     0
274
    -2
284
     1
 64
     0
275
    -2
285
     1
 65
     0
276
    -2
286
     1
 66
     0
277
    -2
287
     1
 67
     0
278
    -2
288
     1
 68
     0
279
    -2
289
     1
 69
     0
  7
STANDARD
140
0.25
170
     5
 62
     0
 63
   257
283
     0
274
    -2
284
     1
 64
     0
275
    -2
285
     1
 65
     0
276
    -2
286
     1
 66
     0
277
    -2
287
     1
 67
     0
278
    -2
288
     1
 68
     0
279
    -2
289
     1
 69
     0
  7
STANDARD
140
0.18
170
     5
 62
     0
 63
   257
283
     0
274
    -2
284
     1
 64
     0
275
    -2
285
     1
 65
     0
276
    -2
286
     1
 66
     0
277
    -2
287
     1
 67
     0
278
    -2
288
     1
 68
     0
279
    -2
289
     1
 69
     0
  0
VISUALSTYLE
  5
432
102
{ACAD_REACTORS
330
29
102
}
102
{ACAD_XDICTIONARY
360
51C
102
}
330
29
100
AcDbVisualStyle
  2
2dWireframe
 70
     4
 71
     0
 72
     2
 73
     0
 90
        0
 40
0.6
 41
30.0
 62
     5
 63
     7
 74
     1
 91
        4
 64
     7
 65
   257
 75
     1
175
     1
 42
1.0
 92
        0
 66
   257
 43
1.0
 76
     1
 77
     6
 78
     2
 67
     7
 79
     5
170
     0
171
     0
290
     0
174
     0
 93
        1
 44
0.0
173
     0
291
     0
 45
0.0
1001
ACAD
1000
AcDbSavedByObjectVersion
1070
     0
  0
VISUALSTYLE
  5
435
102
{ACAD_REACTORS
330
29
102
}
102
{ACAD_XDICTIONARY
360
522
102
}
330
29
100
AcDbVisualStyle
  2
Basic
 70
     7
 71
     1
 72
     0
 73
     1
 90
        0
 40
0.6
 41
30.0
 62
     5
 63
     7
 74
     0
 91
        4
 64
     7
 65
   257
 75
     1
175
     1
 42
1.0
 92
        8
 66
     7
 43
1.0
 76
     1
 77
     6
 78
     2
 67
     7
 79
     5
170
     0
171
     0
290
     0
174
     0
 93
        1
 44
0.0
173
     0
291
     1
 45
0.0
1001
ACAD
1000
AcDbSavedByObjectVersion
1070
     0
  0
VISUALSTYLE
  5
439
102
{ACAD_REACTORS
330
29
102
}
102
{ACAD_XDICTIONARY
360
52A
102
}
330
29
100
AcDbVisualStyle
  2
Brighten
 70
    12
 71
     2
 72
     2
 73
     0
 90
        0
 40
0.6
 41
30.0
 62
     5
 63
     7
 74
     1
 91
        4
 64
     7
 65
   257
 75
     1
175
     1
 42
1.0
 92
        8
 66
     7
 43
1.0
 76
     1
 77
     6
 78
     2
 67
     7
 79
     5
170
     0
171
     0
290
     0
174
     0
 93
        1
 44
50.0
173
     0
291
     1
 45
0.0
1001
ACAD
1000
AcDbSavedByObjectVersion
1070
     0
  0
VISUALSTYLE
  5
43D
102
{ACAD_REACTORS
330
29
102
}
102
{ACAD_XDICTIONARY
360
532
102
}
330
29
100
AcDbVisualStyle
  2
ColorChange
 70
    16
 71
     2
 72
     2
 73
     3
 90
        0
 40
0.6
 41
30.0
 62
     5
 63
     8
 74
     1
 91
        4
 64
     7
 65
   257
 75
     1
175
     1
 42
1.0
 92
        8
 66
     8
 43
1.0
 76
     1
 77
     6
 78
     2
 67
     7
 79
     5
170
     0
171
     0
290
     0
174
     0
 93
        1
 44
0.0
173
     0
291
     1
 45
0.0
1001
ACAD
1000
AcDbSavedByObjectVersion
1070
     0
  0
VISUALSTYLE
  5
437
102
{ACAD_REACTORS
330
29
102
}
102
{ACAD_XDICTIONARY
360
526
102
}
330
29
100
AcDbVisualStyle
  2
Conceptual
 70
     9
 71
     3
 72
     2
 73
     0
 90
        0
 40
0.6
 41
30.0
 62
     5
 63
     7
 74
     2
 91
        2
 64
     7
 65
   257
 75
     1
175
     1
 42
40.0
 92
        8
 66
     7
 43
1.0
 76
     1
 77
     6
 78
     2
 67
     7
 79
     3
170
     0
171
     0
290
     0
174
     0
 93
        1
 44
0.0
173
     0
291
     0
 45
0.0
1001
ACAD
1000
AcDbSavedByObjectVersion
1070
     0
  0
VISUALSTYLE
  5
438
102
{ACAD_REACTORS
330
29
102
}
102
{ACAD_XDICTIONARY
360
528
102
}
330
29
100
AcDbVisualStyle
  2
Dim
 70
    11
 71
     2
 72
     2
 73
     0
 90
        0
 40
0.6
 41
30.0
 62
     5
 63
     7
 74
     1
 91
        4
 64
     7
 65
   257
 75
     1
175
     1
 42
1.0
 92
        8
 66
     7
 43
1.0
 76
     1
 77
     6
 78
     2
 67
     7
 79
     5
170
     0
171
     0
290
     0
174
     0
 93
        1
 44
-50.0
173
     0
291
     1
 45
0.0
1001
ACAD
1000
AcDbSavedByObjectVersion
1070
     0
  0
VISUALSTYLE
  5
440
102
{ACAD_REACTORS
330
29
102
}
102
{ACAD_XDICTIONARY
360
538
102
}
330
29
100
AcDbVisualStyle
  2
EdgeColorOff
 70
    22
 71
     2
 72
     2
 73
     0
 90
        0
 40
0.6
 41
30.0
 62
     5
 63
     7
 74
     1
 91
        4
 64
     7
 65
   257
 75
     1
175
     1
 42
1.0
 92
        8
 66
     7
 43
1.0
 76
     1
 77
     6
 78
     2
 67
     7
 79
     5
170
     0
171
     0
290
     0
174
     0
 93
        1
 44
0.0
173
     0
291
     1
 45
0.0
1001
ACAD
1000
AcDbSavedByObjectVersion
1070
     0
  0
VISUALSTYLE
  5
43C
102
{ACAD_REACTORS
330
29
102
}
102
{ACAD_XDICTIONARY
360
530
102
}
330
29
100
AcDbVisualStyle
  2
Facepattern
 70
    15
 71
     2
 72
     2
 73
     0
 90
        0
 40
0.6
 41
30.0
 62
     5
 63
     7
 74
     1
 91
        4
 64
     7
 65
   257
 75
     1
175
     1
 42
1.0
 92
        8
 66
     7
 43
1.0
 76
     1
 77
     6
 78
     2
 67
     7
 79
     5
170
     0
171
     0
290
     0
174
     0
 93
        1
 44
0.0
173
     0
291
     1
 45
0.0
1001
ACAD
1000
AcDbSavedByObjectVersion
1070
     0
  0
VISUALSTYLE
  5
42E
102
{ACAD_REACTORS
330
29
102
}
102
{ACAD_XDICTIONARY
360
514
102
}
330
29
100
AcDbVisualStyle
  2
Flat
 70
     0
 71
     2
 72
     1
 73
     1
 90
        2
 40
0.6
 41
30.0
 62
     5
 63
     7
 74
     0
 91
        4
 64
     7
 65
   257
 75
     1
175
     1
 42
1.0
 92
        8
 66
     7
 43
1.0
 76
     1
 77
     6
 78
     2
 67
     7
 79
     5
170
     0
171
     0
290
     0
174
     0
 93
       13
 44
0.0
173
     0
291
     1
 45
0.0
1001
ACAD
1000
AcDbSavedByObjectVersion
1070
     0
  0
VISUALSTYLE
  5
42F
102
{ACAD_REACTORS
330
29
102
}
102
{ACAD_XDICTIONARY
360
516
102
}
330
29
100
AcDbVisualStyle
  2
FlatWithEdges
 70
     1
 71
     2
 72
     1
 73
     1
 90
        2
 40
0.6
 41
30.0
 62
     5
 63
     7
 74
     1
 91
        4
 64
     7
 65
   257
 75
     1
175
     1
 42
1.0
 92
        0
 66
   257
 43
1.0
 76
     1
 77
     6
 78
     2
 67
     7
 79
     5
170
     0
171
     0
290
     0
174
     0
 93
       13
 44
0.0
173
     0
291
     1
 45
0.0
1001
ACAD
1000
AcDbSavedByObjectVersion
1070
     0
  0
VISUALSTYLE
  5
430
102
{ACAD_REACTORS
330
29
102
}
102
{ACAD_XDICTIONARY
360
518
102
}
330
29
100
AcDbVisualStyle
  2
Gouraud
 70
     2
 71
     2
 72
     2
 73
     1
 90
        2
 40
0.6
 41
30.0
 62
     5
 63
     7
 74
     0
 91
        4
 64
     7
 65
   257
 75
     1
175
     1
 42
1.0
 92
        0
 66
     7
 43
1.0
 76
     1
 77
     6
 78
     2
 67
     7
 79
     5
170
     0
171
     0
290
     0
174
     0
 93
       13
 44
0.0
173
     0
291
     1
 45
0.0
1001
ACAD
1000
AcDbSavedByObjectVersion
1070
     0
  0
VISUALSTYLE
  5
431
102
{ACAD_REACTORS
330
29
102
}
102
{ACAD_XDICTIONARY
360
51A
102
}
330
29
100
AcDbVisualStyle
  2
GouraudWithEdges
 70
     3
 71
     2
 72
     2
 73
     1
 90
        2
 40
0.6
 41
30.0
 62
     5
 63
     7
 74
     1
 91
        4
 64
     7
 65
   257
 75
     1
175
     1
 42
1.0
 92
        0
 66
   257
 43
1.0
 76
     1
 77
     6
 78
     2
 67
     7
 79
     5
170
     0
171
     0
290
     0
174
     0
 93
       13
 44
0.0
173
     0
291
     1
 45
0.0
1001
ACAD
1000
AcDbSavedByObjectVersion
1070
     0
  0
VISUALSTYLE
  5
434
102
{ACAD_REACTORS
330
29
102
}
102
{ACAD_XDICTIONARY
360
520
102
}
330
29
100
AcDbVisualStyle
  2
Hidden
 70
     6
 71
     1
 72
     2
 73
     2
 90
        0
 40
0.6
 41
30.0
 62
     5
 63
     7
 74
     2
 91
        2
 64
     7
 65
   257
 75
     2
175
     1
 42
40.0
 92
        0
 66
   257
 43
1.0
 76
     1
 77
     6
 78
     2
 67
     7
 79
     3
170
     0
171
     0
290
     0
174
     0
 93
        1
 44
0.0
173
     0
291
     0
 45
0.0
1001
ACAD
1000
AcDbSavedByObjectVersion
1070
     0
  0
VISUALSTYLE
  5
43E
102
{ACAD_REACTORS
330
29
102
}
102
{ACAD_XDICTIONARY
360
534
102
}
330
29
100
AcDbVisualStyle
  2
JitterOff
 70
    20
 71
     2
 72
     2
 73
     0
 90
        0
 40
0.6
 41
30.0
 62
     5
 63
     7
 74
     1
 91
        4
 64
     7
 65
   257
 75
     1
175
     1
 42
1.0
 92
       10
 66
     7
 43
1.0
 76
     1
 77
     6
 78
     2
 67
     7
 79
     5
170
     0
171
     0
290
     0
174
     0
 93
        1
 44
0.0
173
     0
291
     1
 45
0.0
1001
ACAD
1000
AcDbSavedByObjectVersion
1070
     0
  0
VISUALSTYLE
  5
43B
102
{ACAD_REACTORS
330
29
102
}
102
{ACAD_XDICTIONARY
360
52E
102
}
330
29
100
AcDbVisualStyle
  2
Linepattern
 70
    14
 71
     2
 72
     2
 73
     0
 90
        0
 40
0.6
 41
30.0
 62
     5
 63
     7
 74
     1
 91
        4
 64
     7
 65
   257
 75
     7
175
     7
 42
1.0
 92
        8
 66
     7
 43
1.0
 76
     1
 77
     6
 78
     2
 67
     7
 79
     5
170
     0
171
     0
290
     0
174
     0
 93
        1
 44
0.0
173
     0
291
     1
 45
0.0
1001
ACAD
1000
AcDbSavedByObjectVersion
1070
     0
  0
VISUALSTYLE
  5
43F
102
{ACAD_REACTORS
330
29
102
}
102
{ACAD_XDICTIONARY
360
536
102
}
330
29
100
AcDbVisualStyle
  2
OverhangOff
 70
    21
 71
     2
 72
     2
 73
     0
 90
        0
 40
0.6
 41
30.0
 62
     5
 63
     7
 74
     1
 91
        4
 64
     7
 65
   257
 75
     1
175
     1
 42
1.0
 92
        9
 66
     7
 43
1.0
 76
     1
 77
     6
 78
     2
 67
     7
 79
     5
170
     0
171
     0
290
     0
174
     0
 93
        1
 44
0.0
173
     0
291
     1
 45
0.0
1001
ACAD
1000
AcDbSavedByObjectVersion
1070
     0
  0
VISUALSTYLE
  5
436
102
{ACAD_REACTORS
330
29
102
}
102
{ACAD_XDICTIONARY
360
524
102
}
330
29
100
AcDbVisualStyle
  2
Realistic
 70
     8
 71
     2
 72
     3
 73
     0
 90
        2
 40
0.6
 41
30.0
 62
     5
 63
     7
 74
     0
 91
        0
 64
     7
 65
   257
 75
     1
175
     1
 42
1.0
 92
        8
 66
   257
 43
1.0
 76
     1
 77
     6
 78
     2
 67
     7
 79
     3
170
     0
171
     0
290
     0
174
     0
 93
       13
 44
0.0
173
     0
291
     0
 45
0.0
1001
ACAD
1000
AcDbSavedByObjectVersion
1070
     0
  0
VISUALSTYLE
  5
445
102
{ACAD_REACTORS
330
29
102
}
102
{ACAD_XDICTIONARY
360
542
102
}
330
29
100
AcDbVisualStyle
  2
Shaded
 70
    27
 71
     2
 72
     2
 73
     1
 90
        2
 40
0.6
 41
30.0
 62
     5
 63
     7
 74
     0
 91
        4
 64
     7
 65
   257
 75
     1
175
     1
 42
1.0
 92
        8
 66
   257
 43
1.0
 76
     1
 77
     6
 78
     2
 67
   251
 79
     3
170
     0
171
     0
290
     0
174
     0
 93
        5
 44
0.0
173
     0
291
     0
 45
0.0
1001
ACAD
1000
AcDbSavedByObjectVersion
1070
     0
  0
VISUALSTYLE
  5
444
102
{ACAD_REACTORS
330
29
102
}
102
{ACAD_XDICTIONARY
360
540
102
}
330
29
100
AcDbVisualStyle
  2
Shaded with edges
 70
    26
 71
     2
 72
     2
 73
     1
 90
        2
 40
0.6
 41
30.0
 62
     5
 63
     7
 74
     1
 91
       10
 64
     7
 65
   257
 75
     2
175
     1
 42
1.0
 92
        8
 66
   257
 43
1.0
 76
     1
 77
     6
 78
     2
 67
     7
 79
     3
170
     0
171
     0
290
     0
174
     0
 93
        5
 44
0.0
173
     0
291
     0
 45
0.0
1001
ACAD
1000
AcDbSavedByObjectVersion
1070
     0
  0
VISUALSTYLE
  5
441
102
{ACAD_REACTORS
330
29
102
}
102
{ACAD_XDICTIONARY
360
53A
102
}
330
29
100
AcDbVisualStyle
  2
Shades of Gray
 70
    23
 71
     2
 72
     2
 73
     3
 90
        0
 40
0.6
 41
30.0
 62
     5
 63
     7
 74
     2
 91
        2
 64
     7
 65
     7
 75
     1
175
     1
 42
40.0
 92
        8
 66
     7
 43
1.0
 76
     1
 77
     6
 78
     2
 67
     7
 79
     3
170
     0
171
     0
290
     0
174
     0
 93
        1
 44
0.0
173
     0
291
     0
 45
0.0
1001
ACAD
1000
AcDbSavedByObjectVersion
1070
     0
  0
VISUALSTYLE
  5
442
102
{ACAD_REACTORS
330
29
102
}
102
{ACAD_XDICTIONARY
360
53C
102
}
330
29
100
AcDbVisualStyle
  2
Sketchy
 70
    24
 71
     1
 72
     2
 73
     2
 90
        0
 40
0.6
 41
30.0
 62
     5
 63
     7
 74
     2
 91
        2
 64
     7
 65
     7
 75
     1
175
     1
 42
40.0
 92
       11
 66
     7
 43
1.0
 76
     1
 77
     6
 78
     2
 67
     7
 79
     6
170
     0
171
     0
290
     0
174
     0
 93
        1
 44
0.0
173
     0
291
     0
 45
0.0
1001
ACAD
1000
AcDbSavedByObjectVersion
1070
     0
  0
VISUALSTYLE
  5
43A
102
{ACAD_REACTORS
330
29
102
}
102
{ACAD_XDICTIONARY
360
52C
102
}
330
29
100
AcDbVisualStyle
  2
Thicken
 70
    13
 71
     2
 72
     2
 73
     0
 90
        0
 40
0.6
 41
30.0
 62
     5
 63
     7
 74
     1
 91
        4
 64
     7
 65
   257
 75
     1
175
     1
 42
1.0
 92
       12
 66
     7
 43
1.0
 76
     1
 77
     6
 78
     2
 67
     7
 79
     5
170
     0
171
     0
290
     0
174
     0
 93
        1
 44
0.0
173
     0
291
     1
 45
0.0
1001
ACAD
1000
AcDbSavedByObjectVersion
1070
     0
  0
VISUALSTYLE
  5
433
102
{ACAD_REACTORS
330
29
102
}
102
{ACAD_XDICTIONARY
360
51E
102
}
330
29
100
AcDbVisualStyle
  2
Wireframe
 70
     5
 71
     0
 72
     2
 73
     0
 90
        0
 40
0.6
 41
30.0
 62
     5
 63
     7
 74
     1
 91
        4
 64
     7
 65
   257
 75
     1
175
     1
 42
1.0
 92
        0
 66
   257
 43
1.0
 76
     1
 77
     6
 78
     2
 67
     7
 79
     5
170
     0
171
     0
290
     0
174
     0
 93
        1
 44
0.0
173
     0
291
     0
 45
0.0
1001
ACAD
1000
AcDbSavedByObjectVersion
1070
     0
  0
VISUALSTYLE
  5
443
102
{ACAD_REACTORS
330
29
102
}
102
{ACAD_XDICTIONARY
360
53E
102
}
330
29
100
AcDbVisualStyle
  2
X-Ray
 70
    25
 71
     2
 72
     2
 73
     1
 90
        1
 40
0.5
 41
30.0
 62
     5
 63
     7
 74
     1
 91
        0
 64
     7
 65
   257
 75
     1
175
     1
 42
1.0
 92
        8
 66
     7
 43
1.0
 76
     1
 77
     6
 78
     2
 67
     7
 79
     3
170
     0
171
     0
290
     0
174
     0
 93
       13
 44
0.0
173
     0
291
     0
 45
0.0
1001
ACAD
1000
AcDbSavedByObjectVersion
1070
     0
  0
XRECORD
  5
508
102
{ACAD_REACTORS
330
507
102
}
330
507
100
AcDbXrecord
280
     1
340
28
  0
XRECORD
  5
509
102
{ACAD_REACTORS
330
507
102
}
330
507
100
AcDbXrecord
280
     1
340
7
  0
DICTIONARYVAR
  5
429
102
{ACAD_REACTORS
330
428
102
}
330
428
100
DictionaryVariables
280
     0
  1
1:1
  0
DICTIONARYVAR
  5
448
102
{ACAD_REACTORS
330
428
102
}
330
428
100
DictionaryVariables
280
     0
  1
Standard
  0
DICTIONARYVAR
  5
504
102
{ACAD_REACTORS
330
428
102
}
330
428
100
DictionaryVariables
280
     0
  1
Standard
  0
DICTIONARYVAR
  5
505
102
{ACAD_REACTORS
330
428
102
}
330
428
100
DictionaryVariables
280
     0
  1
0
  0
DICTIONARYVAR
  5
506
102
{ACAD_REACTORS
330
428
102
}
330
428
100
DictionaryVariables
280
     0
  1
1
  0
DICTIONARYVAR
  5
50D
102
{ACAD_REACTORS
330
428
102
}
330
428
100
DictionaryVariables
280
     0
  1
1
  0
DICTIONARY
  5
512
330
70
100
AcDbDictionary
280
     1
281
     1
  3
ACAD_XREC_ROUNDTRIP
360
513
  0
DICTIONARY
  5
50E
330
E
100
AcDbDictionary
280
     1
281
     1
  3
ACAD_XREC_ROUNDTRIP
360
50F
  0
DICTIONARY
  5
510
330
6
100
AcDbDictionary
280
     1
281
     1
  3
ACAD_XREC_ROUNDTRIP
360
511
  0
DICTIONARY
  5
544
330
446
100
AcDbDictionary
280
     1
281
     1
  3
ACAD_XREC_ROUNDTRIP
360
545
  0
DICTIONARY
  5
51C
330
432
100
AcDbDictionary
280
     1
281
     1
  3
ACAD_XREC_ROUNDTRIP
360
51D
  0
DICTIONARY
  5
522
330
435
100
AcDbDictionary
280
     1
281
     1
  3
ACAD_XREC_ROUNDTRIP
360
523
  0
DICTIONARY
  5
52A
330
439
100
AcDbDictionary
280
     1
281
     1
  3
ACAD_XREC_ROUNDTRIP
360
52B
  0
DICTIONARY
  5
532
330
43D
100
AcDbDictionary
280
     1
281
     1
  3
ACAD_XREC_ROUNDTRIP
360
533
  0
DICTIONARY
  5
526
330
437
100
AcDbDictionary
280
     1
281
     1
  3
ACAD_XREC_ROUNDTRIP
360
527
  0
DICTIONARY
  5
528
330
438
100
AcDbDictionary
280
     1
281
     1
  3
ACAD_XREC_ROUNDTRIP
360
529
  0
DICTIONARY
  5
538
330
440
100
AcDbDictionary
280
     1
281
     1
  3
ACAD_XREC_ROUNDTRIP
360
539
  0
DICTIONARY
  5
530
330
43C
100
AcDbDictionary
280
     1
281
     1
  3
ACAD_XREC_ROUNDTRIP
360
531
  0
DICTIONARY
  5
514
330
42E
100
AcDbDictionary
280
     1
281
     1
  3
ACAD_XREC_ROUNDTRIP
360
515
  0
DICTIONARY
  5
516
330
42F
100
AcDbDictionary
280
     1
281
     1
  3
ACAD_XREC_ROUNDTRIP
360
517
  0
DICTIONARY
  5
518
330
430
100
AcDbDictionary
280
     1
281
     1
  3
ACAD_XREC_ROUNDTRIP
360
519
  0
DICTIONARY
  5
51A
330
431
100
AcDbDictionary
280
     1
281
     1
  3
ACAD_XREC_ROUNDTRIP
360
51B
  0
DICTIONARY
  5
520
330
434
100
AcDbDictionary
280
     1
281
     1
  3
ACAD_XREC_ROUNDTRIP
360
521
  0
DICTIONARY
  5
534
330
43E
100
AcDbDictionary
280
     1
281
     1
  3
ACAD_XREC_ROUNDTRIP
360
535
  0
DICTIONARY
  5
52E
330
43B
100
AcDbDictionary
280
     1
281
     1
  3
ACAD_XREC_ROUNDTRIP
360
52F
  0
DICTIONARY
  5
536
330
43F
100
AcDbDictionary
280
     1
281
     1
  3
ACAD_XREC_ROUNDTRIP
360
537
  0
DICTIONARY
  5
524
330
436
100
AcDbDictionary
280
     1
281
     1
  3
ACAD_XREC_ROUNDTRIP
360
525
  0
DICTIONARY
  5
542
330
445
100
AcDbDictionary
280
     1
281
     1
  3
ACAD_XREC_ROUNDTRIP
360
543
  0
DICTIONARY
  5
540
330
444
100
AcDbDictionary
280
     1
281
     1
  3
ACAD_XREC_ROUNDTRIP
360
541
  0
DICTIONARY
  5
53A
330
441
100
AcDbDictionary
280
     1
281
     1
  3
ACAD_XREC_ROUNDTRIP
360
53B
  0
DICTIONARY
  5
53C
330
442
100
AcDbDictionary
280
     1
281
     1
  3
ACAD_XREC_ROUNDTRIP
360
53D
  0
DICTIONARY
  5
52C
330
43A
100
AcDbDictionary
280
     1
281
     1
  3
ACAD_XREC_ROUNDTRIP
360
52D
  0
DICTIONARY
  5
51E
330
433
100
AcDbDictionary
280
     1
281
     1
  3
ACAD_XREC_ROUNDTRIP
360
51F
  0
DICTIONARY
  5
53E
330
443
100
AcDbDictionary
280
     1
281
     1
  3
ACAD_XREC_ROUNDTRIP
360
53F
  0
XRECORD
  5
513
102
{ACAD_REACTORS
330
512
102
}
330
512
100
AcDbXrecord
280
     1
102
MATERIAL
148
0.0
149
0.0
149
0.0
 93
        0
 94
      127
282
     0
 72
     1
 77
     1
171
     1
175
     1
179
     1
273
     0
  0
XRECORD
  5
50F
102
{ACAD_REACTORS
330
50E
102
}
330
50E
100
AcDbXrecord
280
     1
102
MATERIAL
148
0.0
149
0.0
149
0.0
 93
        0
 94
      127
282
     0
 72
     1
 77
     1
171
     1
175
     1
179
     1
273
     0
  0
XRECORD
  5
511
102
{ACAD_REACTORS
330
510
102
}
330
510
100
AcDbXrecord
280
     1
102
MATERIAL
148
0.0
149
0.0
149
0.0
 93
        0
 94
      127
282
     0
 72
     1
 77
     1
171
     1
175
     1
179
     1
273
     0
  0
XRECORD
  5
545
102
{ACAD_REACTORS
330
544
102
}
330
544
100
AcDbXrecord
280
     1
102
ACAD_ROUNDTRIP_2010_MLEADER_STYLE
  0
XRECORD
  5
51D
102
{ACAD_REACTORS
330
51C
102
}
330
51C
100
AcDbXrecord
280
     1
102
RTVSPropertyOp0
 70
     1
102
RTVSPropertyOp1
 70
     1
102
RTVSPropertyOp2
 70
     1
102
RTVSPropertyOp3
 70
     1
102
RTVSPropertyOp4
 70
     1
102
RTVSPropertyOp5
 70
     1
102
RTVSPropertyOp6
 70
     1
102
RTVSPropertyOp7
 70
     1
102
RTVSPropertyOp8
 70
     1
102
RTVSPropertyOp9
 70
     1
102
RTVSPropertyOp10
 70
     1
102
RTVSPropertyOp11
 70
     1
102
RTVSPropertyOp12
 70
     1
102
RTVSPropertyOp13
 70
     1
102
RTVSPropertyOp14
 70
     1
102
RTVSPropertyOp15
 70
     1
102
RTVSPropertyOp16
 70
     1
102
RTVSPropertyOp17
 70
     1
102
RTVSPropertyOp18
 70
     1
102
RTVSPropertyOp19
 70
     1
102
RTVSPropertyOp20
 70
     1
102
RTVSPropertyOp21
 70
     1
102
RTVSPropertyOp22
 70
     1
102
RTVSPropertyOp23
 70
     1
102
RTVSPropertyOp24
 70
     1
102
RTVSPropertyOp25
 70
     1
102
RTVSPropertyOp26
 70
     1
102
RTVSPropertyOp27
 70
     1
102
RTVSPropertyOp28
 70
     1
102
RTVSPropertyOp29
 70
     1
102
RTVSPropertyOp30
 70
     1
102
RTVSPropertyOp31
 70
     1
102
RTVSPropertyOp32
 70
     1
102
RTVSPropertyOp33
 70
     1
102
RTVSPropertyOp34
 70
     1
102
RTVSPropertyOp35
 70
     1
102
RTVSPropertyOp36
 70
     1
102
RTVSPropertyOp37
 70
     1
102
RTVSPropertyOp38
 70
     1
102
RTVSPropertyOp39
 70
     1
102
RTVSPropertyOp40
 70
     1
102
RTVSPropertyOp41
 70
     1
102
RTVSPropertyOp42
 70
     1
102
RTVSPropertyOp43
 70
     1
102
RTVSPropertyOp44
 70
     1
102
RTVSPropertyOp45
 70
     1
102
RTVSPropertyOp46
 70
     1
102
RTVSPropertyOp47
 70
     1
102
RTVSPropertyOp48
 70
     1
102
RTVSPropertyOp49
 70
     1
102
RTVSPropertyOp50
 70
     1
102
RTVSPropertyOp51
 70
     0
102
RTVSPropertyOp52
 70
     0
102
RTVSPropertyOp53
 70
     1
102
RTVSPropertyOp54
 70
     1
102
RTVSPropertyOp55
 70
     1
102
RTVSPropertyOp56
 70
     1
102
RTVSPropertyOp57
 70
     1
102
RTVSPost2010Prop28
280
     1
102
RTVSPost2010PropOp28
 70
     1
102
RTVSPost2010Prop29
280
     1
102
RTVSPost2010PropOp29
 70
     1
102
RTVSPost2010Prop30
280
     0
102
RTVSPost2010PropOp30
 70
     1
102
RTVSPost2010Prop31
280
     0
102
RTVSPost2010PropOp31
 70
     1
102
RTVSPost2010Prop32
280
     0
102
RTVSPost2010PropOp32
 70
     1
102
RTVSPost2010Prop33
280
     0
102
RTVSPost2010PropOp33
 70
     1
102
RTVSPost2010Prop34
280
     0
102
RTVSPost2010PropOp34
 70
     1
102
RTVSPost2010Prop35
280
     0
102
RTVSPost2010PropOp35
 70
     1
102
RTVSPost2010Prop36
280
     0
102
RTVSPost2010PropOp36
 70
     1
102
RTVSPost2010Prop37
 90
       50
102
RTVSPost2010PropOp37
 70
     1
102
RTVSPost2010Prop38
140
0.0
102
RTVSPost2010PropOp38
 70
     1
102
RTVSPost2010Prop39
140
1.0
102
RTVSPost2010PropOp39
 70
     1
102
RTVSPost2010Prop40
 90
        0
102
RTVSPost2010PropOp40
 70
     1
102
RTVSPost2010Prop41ColorIndex
 90
       18
102
RTVSPost2010Prop41ColorRGB
 90
        0
102
RTVSPost2010PropOp41
 70
     1
102
RTVSPost2010Prop42
 90
       50
102
RTVSPost2010PropOp42
 70
     1
102
RTVSPost2010Prop43
 90
        3
102
RTVSPost2010PropOp43
 70
     1
102
RTVSPost2010Prop44ColorIndex
 90
        5
102
RTVSPost2010Prop44ColorRGB
 90
      255
102
RTVSPost2010PropOp44
 70
     1
102
RTVSPost2010Prop45
280
     0
102
RTVSPost2010PropOp45
 70
     1
102
RTVSPost2010Prop46
 90
       50
102
RTVSPost2010PropOp46
 70
     1
102
RTVSPost2010Prop47
 90
       50
102
RTVSPost2010PropOp47
 70
     1
102
RTVSPost2010Prop48
 90
       50
102
RTVSPost2010PropOp48
 70
     1
102
RTVSPost2010Prop49
280
     0
102
RTVSPost2010PropOp49
 70
     1
102
RTVSPost2010Prop50
 90
       50
102
RTVSPost2010PropOp50
 70
     1
102
RTVSPost2010Prop51ColorIndex
 90
      256
102
RTVSPost2010Prop51ColorRGB
 90
-16777216
102
RTVSPost2010PropOp51
 70
     0
102
RTVSPost2010Prop52
140
1.0
102
RTVSPost2010PropOp52
 70
     0
102
RTVSPost2010Prop53
 90
        2
102
RTVSPost2010PropOp53
 70
     1
102
RTVSPost2010Prop54
  1
strokes_ogs.tif
102
RTVSPost2010PropOp54
 70
     1
102
RTVSPost2010Prop55
280
     0
102
RTVSPost2010PropOp55
 70
     1
102
RTVSPost2010Prop56
140
1.0
102
RTVSPost2010PropOp56
 70
     1
102
RTVSPost2010Prop57
140
1.0
102
RTVSPost2010PropOp57
 70
     1
  0
XRECORD
  5
523
102
{ACAD_REACTORS
330
522
102
}
330
522
100
AcDbXrecord
280
     1
102
RTVSPropertyOp0
 70
     1
102
RTVSPropertyOp1
 70
     1
102
RTVSPropertyOp2
 70
     1
102
RTVSPropertyOp3
 70
     1
102
RTVSPropertyOp4
 70
     1
102
RTVSPropertyOp5
 70
     1
102
RTVSPropertyOp6
 70
     1
102
RTVSPropertyOp7
 70
     1
102
RTVSPropertyOp8
 70
     1
102
RTVSPropertyOp9
 70
     1
102
RTVSPropertyOp10
 70
     1
102
RTVSPropertyOp11
 70
     1
102
RTVSPropertyOp12
 70
     1
102
RTVSPropertyOp13
 70
     1
102
RTVSPropertyOp14
 70
     1
102
RTVSPropertyOp15
 70
     1
102
RTVSPropertyOp16
 70
     1
102
RTVSPropertyOp17
 70
     1
102
RTVSPropertyOp18
 70
     1
102
RTVSPropertyOp19
 70
     1
102
RTVSPropertyOp20
 70
     1
102
RTVSPropertyOp21
 70
     1
102
RTVSPropertyOp22
 70
     1
102
RTVSPropertyOp23
 70
     1
102
RTVSPropertyOp24
 70
     1
102
RTVSPropertyOp25
 70
     1
102
RTVSPropertyOp26
 70
     1
102
RTVSPropertyOp27
 70
     1
102
RTVSPropertyOp28
 70
     1
102
RTVSPropertyOp29
 70
     1
102
RTVSPropertyOp30
 70
     1
102
RTVSPropertyOp31
 70
     1
102
RTVSPropertyOp32
 70
     1
102
RTVSPropertyOp33
 70
     1
102
RTVSPropertyOp34
 70
     1
102
RTVSPropertyOp35
 70
     1
102
RTVSPropertyOp36
 70
     1
102
RTVSPropertyOp37
 70
     1
102
RTVSPropertyOp38
 70
     1
102
RTVSPropertyOp39
 70
     1
102
RTVSPropertyOp40
 70
     1
102
RTVSPropertyOp41
 70
     1
102
RTVSPropertyOp42
 70
     1
102
RTVSPropertyOp43
 70
     1
102
RTVSPropertyOp44
 70
     1
102
RTVSPropertyOp45
 70
     1
102
RTVSPropertyOp46
 70
     1
102
RTVSPropertyOp47
 70
     1
102
RTVSPropertyOp48
 70
     1
102
RTVSPropertyOp49
 70
     1
102
RTVSPropertyOp50
 70
     1
102
RTVSPropertyOp51
 70
     0
102
RTVSPropertyOp52
 70
     0
102
RTVSPropertyOp53
 70
     1
102
RTVSPropertyOp54
 70
     1
102
RTVSPropertyOp55
 70
     1
102
RTVSPropertyOp56
 70
     1
102
RTVSPropertyOp57
 70
     1
102
RTVSPost2010Prop28
280
     0
102
RTVSPost2010PropOp28
 70
     1
102
RTVSPost2010Prop29
280
     1
102
RTVSPost2010PropOp29
 70
     1
102
RTVSPost2010Prop30
280
     1
102
RTVSPost2010PropOp30
 70
     1
102
RTVSPost2010Prop31
280
     0
102
RTVSPost2010PropOp31
 70
     1
102
RTVSPost2010Prop32
280
     0
102
RTVSPost2010PropOp32
 70
     1
102
RTVSPost2010Prop33
280
     0
102
RTVSPost2010PropOp33
 70
     1
102
RTVSPost2010Prop34
280
     0
102
RTVSPost2010PropOp34
 70
     1
102
RTVSPost2010Prop35
280
     0
102
RTVSPost2010PropOp35
 70
     1
102
RTVSPost2010Prop36
280
     0
102
RTVSPost2010PropOp36
 70
     1
102
RTVSPost2010Prop37
 90
       50
102
RTVSPost2010PropOp37
 70
     1
102
RTVSPost2010Prop38
140
0.0
102
RTVSPost2010PropOp38
 70
     1
102
RTVSPost2010Prop39
140
1.0
102
RTVSPost2010PropOp39
 70
     1
102
RTVSPost2010Prop40
 90
        0
102
RTVSPost2010PropOp40
 70
     1
102
RTVSPost2010Prop41ColorIndex
 90
       18
102
RTVSPost2010Prop41ColorRGB
 90
        0
102
RTVSPost2010PropOp41
 70
     1
102
RTVSPost2010Prop42
 90
       50
102
RTVSPost2010PropOp42
 70
     1
102
RTVSPost2010Prop43
 90
        3
102
RTVSPost2010PropOp43
 70
     1
102
RTVSPost2010Prop44ColorIndex
 90
        5
102
RTVSPost2010Prop44ColorRGB
 90
      255
102
RTVSPost2010PropOp44
 70
     1
102
RTVSPost2010Prop45
280
     0
102
RTVSPost2010PropOp45
 70
     1
102
RTVSPost2010Prop46
 90
       50
102
RTVSPost2010PropOp46
 70
     1
102
RTVSPost2010Prop47
 90
       50
102
RTVSPost2010PropOp47
 70
     1
102
RTVSPost2010Prop48
 90
       50
102
RTVSPost2010PropOp48
 70
     1
102
RTVSPost2010Prop49
280
     0
102
RTVSPost2010PropOp49
 70
     1
102
RTVSPost2010Prop50
 90
       50
102
RTVSPost2010PropOp50
 70
     1
102
RTVSPost2010Prop51ColorIndex
 90
      256
102
RTVSPost2010Prop51ColorRGB
 90
-16777216
102
RTVSPost2010PropOp51
 70
     0
102
RTVSPost2010Prop52
140
1.0
102
RTVSPost2010PropOp52
 70
     0
102
RTVSPost2010Prop53
 90
        2
102
RTVSPost2010PropOp53
 70
     1
102
RTVSPost2010Prop54
  1
strokes_ogs.tif
102
RTVSPost2010PropOp54
 70
     1
102
RTVSPost2010Prop55
280
     0
102
RTVSPost2010PropOp55
 70
     1
102
RTVSPost2010Prop56
140
1.0
102
RTVSPost2010PropOp56
 70
     1
102
RTVSPost2010Prop57
140
1.0
102
RTVSPost2010PropOp57
 70
     1
  0
XRECORD
  5
52B
102
{ACAD_REACTORS
330
52A
102
}
330
52A
100
AcDbXrecord
280
     1
102
RTVSPropertyOp0
 70
     1
102
RTVSPropertyOp1
 70
     1
102
RTVSPropertyOp2
 70
     1
102
RTVSPropertyOp3
 70
     1
102
RTVSPropertyOp4
 70
     1
102
RTVSPropertyOp5
 70
     1
102
RTVSPropertyOp6
 70
     1
102
RTVSPropertyOp7
 70
     1
102
RTVSPropertyOp8
 70
     1
102
RTVSPropertyOp9
 70
     1
102
RTVSPropertyOp10
 70
     1
102
RTVSPropertyOp11
 70
     1
102
RTVSPropertyOp12
 70
     1
102
RTVSPropertyOp13
 70
     1
102
RTVSPropertyOp14
 70
     1
102
RTVSPropertyOp15
 70
     1
102
RTVSPropertyOp16
 70
     1
102
RTVSPropertyOp17
 70
     1
102
RTVSPropertyOp18
 70
     1
102
RTVSPropertyOp19
 70
     1
102
RTVSPropertyOp20
 70
     1
102
RTVSPropertyOp21
 70
     1
102
RTVSPropertyOp22
 70
     1
102
RTVSPropertyOp23
 70
     1
102
RTVSPropertyOp24
 70
     1
102
RTVSPropertyOp25
 70
     1
102
RTVSPropertyOp26
 70
     1
102
RTVSPropertyOp27
 70
     1
102
RTVSPropertyOp28
 70
     1
102
RTVSPropertyOp29
 70
     1
102
RTVSPropertyOp30
 70
     1
102
RTVSPropertyOp31
 70
     1
102
RTVSPropertyOp32
 70
     1
102
RTVSPropertyOp33
 70
     1
102
RTVSPropertyOp34
 70
     1
102
RTVSPropertyOp35
 70
     1
102
RTVSPropertyOp36
 70
     1
102
RTVSPropertyOp37
 70
     1
102
RTVSPropertyOp38
 70
     1
102
RTVSPropertyOp39
 70
     1
102
RTVSPropertyOp40
 70
     1
102
RTVSPropertyOp41
 70
     1
102
RTVSPropertyOp42
 70
     1
102
RTVSPropertyOp43
 70
     1
102
RTVSPropertyOp44
 70
     1
102
RTVSPropertyOp45
 70
     1
102
RTVSPropertyOp46
 70
     1
102
RTVSPropertyOp47
 70
     1
102
RTVSPropertyOp48
 70
     1
102
RTVSPropertyOp49
 70
     1
102
RTVSPropertyOp50
 70
     1
102
RTVSPropertyOp51
 70
     0
102
RTVSPropertyOp52
 70
     0
102
RTVSPropertyOp53
 70
     1
102
RTVSPropertyOp54
 70
     1
102
RTVSPropertyOp55
 70
     1
102
RTVSPropertyOp56
 70
     1
102
RTVSPropertyOp57
 70
     1
102
RTVSPost2010Prop28
280
     0
102
RTVSPost2010PropOp28
 70
     1
102
RTVSPost2010Prop29
280
     1
102
RTVSPost2010PropOp29
 70
     1
102
RTVSPost2010Prop30
280
     1
102
RTVSPost2010PropOp30
 70
     1
102
RTVSPost2010Prop31
280
     0
102
RTVSPost2010PropOp31
 70
     1
102
RTVSPost2010Prop32
280
     0
102
RTVSPost2010PropOp32
 70
     1
102
RTVSPost2010Prop33
280
     0
102
RTVSPost2010PropOp33
 70
     1
102
RTVSPost2010Prop34
280
     0
102
RTVSPost2010PropOp34
 70
     1
102
RTVSPost2010Prop35
280
     0
102
RTVSPost2010PropOp35
 70
     1
102
RTVSPost2010Prop36
280
     0
102
RTVSPost2010PropOp36
 70
     1
102
RTVSPost2010Prop37
 90
       50
102
RTVSPost2010PropOp37
 70
     1
102
RTVSPost2010Prop38
140
0.0
102
RTVSPost2010PropOp38
 70
     1
102
RTVSPost2010Prop39
140
1.0
102
RTVSPost2010PropOp39
 70
     1
102
RTVSPost2010Prop40
 90
        0
102
RTVSPost2010PropOp40
 70
     1
102
RTVSPost2010Prop41ColorIndex
 90
       18
102
RTVSPost2010Prop41ColorRGB
 90
        0
102
RTVSPost2010PropOp41
 70
     1
102
RTVSPost2010Prop42
 90
       50
102
RTVSPost2010PropOp42
 70
     1
102
RTVSPost2010Prop43
 90
        3
102
RTVSPost2010PropOp43
 70
     1
102
RTVSPost2010Prop44ColorIndex
 90
        5
102
RTVSPost2010Prop44ColorRGB
 90
      255
102
RTVSPost2010PropOp44
 70
     1
102
RTVSPost2010Prop45
280
     0
102
RTVSPost2010PropOp45
 70
     1
102
RTVSPost2010Prop46
 90
       50
102
RTVSPost2010PropOp46
 70
     1
102
RTVSPost2010Prop47
 90
       50
102
RTVSPost2010PropOp47
 70
     1
102
RTVSPost2010Prop48
 90
       50
102
RTVSPost2010PropOp48
 70
     1
102
RTVSPost2010Prop49
280
     0
102
RTVSPost2010PropOp49
 70
     1
102
RTVSPost2010Prop50
 90
       50
102
RTVSPost2010PropOp50
 70
     1
102
RTVSPost2010Prop51ColorIndex
 90
      256
102
RTVSPost2010Prop51ColorRGB
 90
-16777216
102
RTVSPost2010PropOp51
 70
     0
102
RTVSPost2010Prop52
140
1.0
102
RTVSPost2010PropOp52
 70
     0
102
RTVSPost2010Prop53
 90
        2
102
RTVSPost2010PropOp53
 70
     1
102
RTVSPost2010Prop54
  1
strokes_ogs.tif
102
RTVSPost2010PropOp54
 70
     1
102
RTVSPost2010Prop55
280
     0
102
RTVSPost2010PropOp55
 70
     1
102
RTVSPost2010Prop56
140
1.0
102
RTVSPost2010PropOp56
 70
     1
102
RTVSPost2010Prop57
140
1.0
102
RTVSPost2010PropOp57
 70
     1
  0
XRECORD
  5
533
102
{ACAD_REACTORS
330
532
102
}
330
532
100
AcDbXrecord
280
     1
102
RTVSPropertyOp0
 70
     1
102
RTVSPropertyOp1
 70
     1
102
RTVSPropertyOp2
 70
     1
102
RTVSPropertyOp3
 70
     1
102
RTVSPropertyOp4
 70
     1
102
RTVSPropertyOp5
 70
     1
102
RTVSPropertyOp6
 70
     1
102
RTVSPropertyOp7
 70
     1
102
RTVSPropertyOp8
 70
     1
102
RTVSPropertyOp9
 70
     1
102
RTVSPropertyOp10
 70
     1
102
RTVSPropertyOp11
 70
     1
102
RTVSPropertyOp12
 70
     1
102
RTVSPropertyOp13
 70
     1
102
RTVSPropertyOp14
 70
     1
102
RTVSPropertyOp15
 70
     1
102
RTVSPropertyOp16
 70
     1
102
RTVSPropertyOp17
 70
     1
102
RTVSPropertyOp18
 70
     1
102
RTVSPropertyOp19
 70
     1
102
RTVSPropertyOp20
 70
     1
102
RTVSPropertyOp21
 70
     1
102
RTVSPropertyOp22
 70
     1
102
RTVSPropertyOp23
 70
     1
102
RTVSPropertyOp24
 70
     1
102
RTVSPropertyOp25
 70
     1
102
RTVSPropertyOp26
 70
     1
102
RTVSPropertyOp27
 70
     1
102
RTVSPropertyOp28
 70
     1
102
RTVSPropertyOp29
 70
     1
102
RTVSPropertyOp30
 70
     1
102
RTVSPropertyOp31
 70
     1
102
RTVSPropertyOp32
 70
     1
102
RTVSPropertyOp33
 70
     1
102
RTVSPropertyOp34
 70
     1
102
RTVSPropertyOp35
 70
     1
102
RTVSPropertyOp36
 70
     1
102
RTVSPropertyOp37
 70
     1
102
RTVSPropertyOp38
 70
     1
102
RTVSPropertyOp39
 70
     1
102
RTVSPropertyOp40
 70
     1
102
RTVSPropertyOp41
 70
     1
102
RTVSPropertyOp42
 70
     1
102
RTVSPropertyOp43
 70
     1
102
RTVSPropertyOp44
 70
     1
102
RTVSPropertyOp45
 70
     1
102
RTVSPropertyOp46
 70
     1
102
RTVSPropertyOp47
 70
     1
102
RTVSPropertyOp48
 70
     1
102
RTVSPropertyOp49
 70
     1
102
RTVSPropertyOp50
 70
     1
102
RTVSPropertyOp51
 70
     0
102
RTVSPropertyOp52
 70
     0
102
RTVSPropertyOp53
 70
     1
102
RTVSPropertyOp54
 70
     1
102
RTVSPropertyOp55
 70
     1
102
RTVSPropertyOp56
 70
     1
102
RTVSPropertyOp57
 70
     1
102
RTVSPost2010Prop28
280
     0
102
RTVSPost2010PropOp28
 70
     1
102
RTVSPost2010Prop29
280
     1
102
RTVSPost2010PropOp29
 70
     1
102
RTVSPost2010Prop30
280
     1
102
RTVSPost2010PropOp30
 70
     1
102
RTVSPost2010Prop31
280
     0
102
RTVSPost2010PropOp31
 70
     1
102
RTVSPost2010Prop32
280
     0
102
RTVSPost2010PropOp32
 70
     1
102
RTVSPost2010Prop33
280
     0
102
RTVSPost2010PropOp33
 70
     1
102
RTVSPost2010Prop34
280
     0
102
RTVSPost2010PropOp34
 70
     1
102
RTVSPost2010Prop35
280
     0
102
RTVSPost2010PropOp35
 70
     1
102
RTVSPost2010Prop36
280
     0
102
RTVSPost2010PropOp36
 70
     1
102
RTVSPost2010Prop37
 90
       50
102
RTVSPost2010PropOp37
 70
     1
102
RTVSPost2010Prop38
140
0.0
102
RTVSPost2010PropOp38
 70
     1
102
RTVSPost2010Prop39
140
1.0
102
RTVSPost2010PropOp39
 70
     1
102
RTVSPost2010Prop40
 90
        0
102
RTVSPost2010PropOp40
 70
     1
102
RTVSPost2010Prop41ColorIndex
 90
       18
102
RTVSPost2010Prop41ColorRGB
 90
        0
102
RTVSPost2010PropOp41
 70
     1
102
RTVSPost2010Prop42
 90
       50
102
RTVSPost2010PropOp42
 70
     1
102
RTVSPost2010Prop43
 90
        3
102
RTVSPost2010PropOp43
 70
     1
102
RTVSPost2010Prop44ColorIndex
 90
        5
102
RTVSPost2010Prop44ColorRGB
 90
      255
102
RTVSPost2010PropOp44
 70
     1
102
RTVSPost2010Prop45
280
     0
102
RTVSPost2010PropOp45
 70
     1
102
RTVSPost2010Prop46
 90
       50
102
RTVSPost2010PropOp46
 70
     1
102
RTVSPost2010Prop47
 90
       50
102
RTVSPost2010PropOp47
 70
     1
102
RTVSPost2010Prop48
 90
       50
102
RTVSPost2010PropOp48
 70
     1
102
RTVSPost2010Prop49
280
     0
102
RTVSPost2010PropOp49
 70
     1
102
RTVSPost2010Prop50
 90
       50
102
RTVSPost2010PropOp50
 70
     1
102
RTVSPost2010Prop51ColorIndex
 90
      256
102
RTVSPost2010Prop51ColorRGB
 90
-16777216
102
RTVSPost2010PropOp51
 70
     0
102
RTVSPost2010Prop52
140
1.0
102
RTVSPost2010PropOp52
 70
     0
102
RTVSPost2010Prop53
 90
        2
102
RTVSPost2010PropOp53
 70
     1
102
RTVSPost2010Prop54
  1
strokes_ogs.tif
102
RTVSPost2010PropOp54
 70
     1
102
RTVSPost2010Prop55
280
     0
102
RTVSPost2010PropOp55
 70
     1
102
RTVSPost2010Prop56
140
1.0
102
RTVSPost2010PropOp56
 70
     1
102
RTVSPost2010Prop57
140
1.0
102
RTVSPost2010PropOp57
 70
     1
  0
XRECORD
  5
527
102
{ACAD_REACTORS
330
526
102
}
330
526
100
AcDbXrecord
280
     1
102
RTVSPropertyOp0
 70
     1
102
RTVSPropertyOp1
 70
     1
102
RTVSPropertyOp2
 70
     1
102
RTVSPropertyOp3
 70
     1
102
RTVSPropertyOp4
 70
     1
102
RTVSPropertyOp5
 70
     1
102
RTVSPropertyOp6
 70
     1
102
RTVSPropertyOp7
 70
     1
102
RTVSPropertyOp8
 70
     1
102
RTVSPropertyOp9
 70
     1
102
RTVSPropertyOp10
 70
     1
102
RTVSPropertyOp11
 70
     1
102
RTVSPropertyOp12
 70
     1
102
RTVSPropertyOp13
 70
     1
102
RTVSPropertyOp14
 70
     1
102
RTVSPropertyOp15
 70
     1
102
RTVSPropertyOp16
 70
     1
102
RTVSPropertyOp17
 70
     1
102
RTVSPropertyOp18
 70
     1
102
RTVSPropertyOp19
 70
     1
102
RTVSPropertyOp20
 70
     1
102
RTVSPropertyOp21
 70
     1
102
RTVSPropertyOp22
 70
     1
102
RTVSPropertyOp23
 70
     1
102
RTVSPropertyOp24
 70
     1
102
RTVSPropertyOp25
 70
     1
102
RTVSPropertyOp26
 70
     1
102
RTVSPropertyOp27
 70
     1
102
RTVSPropertyOp28
 70
     1
102
RTVSPropertyOp29
 70
     1
102
RTVSPropertyOp30
 70
     1
102
RTVSPropertyOp31
 70
     1
102
RTVSPropertyOp32
 70
     1
102
RTVSPropertyOp33
 70
     1
102
RTVSPropertyOp34
 70
     1
102
RTVSPropertyOp35
 70
     1
102
RTVSPropertyOp36
 70
     1
102
RTVSPropertyOp37
 70
     1
102
RTVSPropertyOp38
 70
     1
102
RTVSPropertyOp39
 70
     1
102
RTVSPropertyOp40
 70
     1
102
RTVSPropertyOp41
 70
     1
102
RTVSPropertyOp42
 70
     1
102
RTVSPropertyOp43
 70
     1
102
RTVSPropertyOp44
 70
     1
102
RTVSPropertyOp45
 70
     1
102
RTVSPropertyOp46
 70
     1
102
RTVSPropertyOp47
 70
     1
102
RTVSPropertyOp48
 70
     1
102
RTVSPropertyOp49
 70
     1
102
RTVSPropertyOp50
 70
     1
102
RTVSPropertyOp51
 70
     0
102
RTVSPropertyOp52
 70
     0
102
RTVSPropertyOp53
 70
     1
102
RTVSPropertyOp54
 70
     1
102
RTVSPropertyOp55
 70
     1
102
RTVSPropertyOp56
 70
     1
102
RTVSPropertyOp57
 70
     1
102
RTVSPost2010Prop28
280
     0
102
RTVSPost2010PropOp28
 70
     1
102
RTVSPost2010Prop29
280
     1
102
RTVSPost2010PropOp29
 70
     1
102
RTVSPost2010Prop30
280
     1
102
RTVSPost2010PropOp30
 70
     1
102
RTVSPost2010Prop31
280
     0
102
RTVSPost2010PropOp31
 70
     1
102
RTVSPost2010Prop32
280
     0
102
RTVSPost2010PropOp32
 70
     1
102
RTVSPost2010Prop33
280
     0
102
RTVSPost2010PropOp33
 70
     1
102
RTVSPost2010Prop34
280
     0
102
RTVSPost2010PropOp34
 70
     1
102
RTVSPost2010Prop35
280
     0
102
RTVSPost2010PropOp35
 70
     1
102
RTVSPost2010Prop36
280
     0
102
RTVSPost2010PropOp36
 70
     1
102
RTVSPost2010Prop37
 90
       50
102
RTVSPost2010PropOp37
 70
     1
102
RTVSPost2010Prop38
140
0.0
102
RTVSPost2010PropOp38
 70
     1
102
RTVSPost2010Prop39
140
1.0
102
RTVSPost2010PropOp39
 70
     1
102
RTVSPost2010Prop40
 90
        0
102
RTVSPost2010PropOp40
 70
     1
102
RTVSPost2010Prop41ColorIndex
 90
       18
102
RTVSPost2010Prop41ColorRGB
 90
        0
102
RTVSPost2010PropOp41
 70
     1
102
RTVSPost2010Prop42
 90
       50
102
RTVSPost2010PropOp42
 70
     1
102
RTVSPost2010Prop43
 90
        3
102
RTVSPost2010PropOp43
 70
     1
102
RTVSPost2010Prop44ColorIndex
 90
        5
102
RTVSPost2010Prop44ColorRGB
 90
      255
102
RTVSPost2010PropOp44
 70
     1
102
RTVSPost2010Prop45
280
     0
102
RTVSPost2010PropOp45
 70
     1
102
RTVSPost2010Prop46
 90
       50
102
RTVSPost2010PropOp46
 70
     1
102
RTVSPost2010Prop47
 90
       50
102
RTVSPost2010PropOp47
 70
     1
102
RTVSPost2010Prop48
 90
       50
102
RTVSPost2010PropOp48
 70
     1
102
RTVSPost2010Prop49
280
     0
102
RTVSPost2010PropOp49
 70
     1
102
RTVSPost2010Prop50
 90
       50
102
RTVSPost2010PropOp50
 70
     1
102
RTVSPost2010Prop51ColorIndex
 90
      256
102
RTVSPost2010Prop51ColorRGB
 90
-16777216
102
RTVSPost2010PropOp51
 70
     0
102
RTVSPost2010Prop52
140
1.0
102
RTVSPost2010PropOp52
 70
     0
102
RTVSPost2010Prop53
 90
        2
102
RTVSPost2010PropOp53
 70
     1
102
RTVSPost2010Prop54
  1
strokes_ogs.tif
102
RTVSPost2010PropOp54
 70
     1
102
RTVSPost2010Prop55
280
     0
102
RTVSPost2010PropOp55
 70
     1
102
RTVSPost2010Prop56
140
1.0
102
RTVSPost2010PropOp56
 70
     1
102
RTVSPost2010Prop57
140
1.0
102
RTVSPost2010PropOp57
 70
     1
  0
XRECORD
  5
529
102
{ACAD_REACTORS
330
528
102
}
330
528
100
AcDbXrecord
280
     1
102
RTVSPropertyOp0
 70
     1
102
RTVSPropertyOp1
 70
     1
102
RTVSPropertyOp2
 70
     1
102
RTVSPropertyOp3
 70
     1
102
RTVSPropertyOp4
 70
     1
102
RTVSPropertyOp5
 70
     1
102
RTVSPropertyOp6
 70
     1
102
RTVSPropertyOp7
 70
     1
102
RTVSPropertyOp8
 70
     1
102
RTVSPropertyOp9
 70
     1
102
RTVSPropertyOp10
 70
     1
102
RTVSPropertyOp11
 70
     1
102
RTVSPropertyOp12
 70
     1
102
RTVSPropertyOp13
 70
     1
102
RTVSPropertyOp14
 70
     1
102
RTVSPropertyOp15
 70
     1
102
RTVSPropertyOp16
 70
     1
102
RTVSPropertyOp17
 70
     1
102
RTVSPropertyOp18
 70
     1
102
RTVSPropertyOp19
 70
     1
102
RTVSPropertyOp20
 70
     1
102
RTVSPropertyOp21
 70
     1
102
RTVSPropertyOp22
 70
     1
102
RTVSPropertyOp23
 70
     1
102
RTVSPropertyOp24
 70
     1
102
RTVSPropertyOp25
 70
     1
102
RTVSPropertyOp26
 70
     1
102
RTVSPropertyOp27
 70
     1
102
RTVSPropertyOp28
 70
     1
102
RTVSPropertyOp29
 70
     1
102
RTVSPropertyOp30
 70
     1
102
RTVSPropertyOp31
 70
     1
102
RTVSPropertyOp32
 70
     1
102
RTVSPropertyOp33
 70
     1
102
RTVSPropertyOp34
 70
     1
102
RTVSPropertyOp35
 70
     1
102
RTVSPropertyOp36
 70
     1
102
RTVSPropertyOp37
 70
     1
102
RTVSPropertyOp38
 70
     1
102
RTVSPropertyOp39
 70
     1
102
RTVSPropertyOp40
 70
     1
102
RTVSPropertyOp41
 70
     1
102
RTVSPropertyOp42
 70
     1
102
RTVSPropertyOp43
 70
     1
102
RTVSPropertyOp44
 70
     1
102
RTVSPropertyOp45
 70
     1
102
RTVSPropertyOp46
 70
     1
102
RTVSPropertyOp47
 70
     1
102
RTVSPropertyOp48
 70
     1
102
RTVSPropertyOp49
 70
     1
102
RTVSPropertyOp50
 70
     1
102
RTVSPropertyOp51
 70
     0
102
RTVSPropertyOp52
 70
     0
102
RTVSPropertyOp53
 70
     1
102
RTVSPropertyOp54
 70
     1
102
RTVSPropertyOp55
 70
     1
102
RTVSPropertyOp56
 70
     1
102
RTVSPropertyOp57
 70
     1
102
RTVSPost2010Prop28
280
     0
102
RTVSPost2010PropOp28
 70
     1
102
RTVSPost2010Prop29
280
     1
102
RTVSPost2010PropOp29
 70
     1
102
RTVSPost2010Prop30
280
     1
102
RTVSPost2010PropOp30
 70
     1
102
RTVSPost2010Prop31
280
     0
102
RTVSPost2010PropOp31
 70
     1
102
RTVSPost2010Prop32
280
     0
102
RTVSPost2010PropOp32
 70
     1
102
RTVSPost2010Prop33
280
     0
102
RTVSPost2010PropOp33
 70
     1
102
RTVSPost2010Prop34
280
     0
102
RTVSPost2010PropOp34
 70
     1
102
RTVSPost2010Prop35
280
     0
102
RTVSPost2010PropOp35
 70
     1
102
RTVSPost2010Prop36
280
     0
102
RTVSPost2010PropOp36
 70
     1
102
RTVSPost2010Prop37
 90
       50
102
RTVSPost2010PropOp37
 70
     1
102
RTVSPost2010Prop38
140
0.0
102
RTVSPost2010PropOp38
 70
     1
102
RTVSPost2010Prop39
140
1.0
102
RTVSPost2010PropOp39
 70
     1
102
RTVSPost2010Prop40
 90
        0
102
RTVSPost2010PropOp40
 70
     1
102
RTVSPost2010Prop41ColorIndex
 90
       18
102
RTVSPost2010Prop41ColorRGB
 90
        0
102
RTVSPost2010PropOp41
 70
     1
102
RTVSPost2010Prop42
 90
       50
102
RTVSPost2010PropOp42
 70
     1
102
RTVSPost2010Prop43
 90
        3
102
RTVSPost2010PropOp43
 70
     1
102
RTVSPost2010Prop44ColorIndex
 90
        5
102
RTVSPost2010Prop44ColorRGB
 90
      255
102
RTVSPost2010PropOp44
 70
     1
102
RTVSPost2010Prop45
280
     0
102
RTVSPost2010PropOp45
 70
     1
102
RTVSPost2010Prop46
 90
       50
102
RTVSPost2010PropOp46
 70
     1
102
RTVSPost2010Prop47
 90
       50
102
RTVSPost2010PropOp47
 70
     1
102
RTVSPost2010Prop48
 90
       50
102
RTVSPost2010PropOp48
 70
     1
102
RTVSPost2010Prop49
280
     0
102
RTVSPost2010PropOp49
 70
     1
102
RTVSPost2010Prop50
 90
       50
102
RTVSPost2010PropOp50
 70
     1
102
RTVSPost2010Prop51ColorIndex
 90
      256
102
RTVSPost2010Prop51ColorRGB
 90
-16777216
102
RTVSPost2010PropOp51
 70
     0
102
RTVSPost2010Prop52
140
1.0
102
RTVSPost2010PropOp52
 70
     0
102
RTVSPost2010Prop53
 90
        2
102
RTVSPost2010PropOp53
 70
     1
102
RTVSPost2010Prop54
  1
strokes_ogs.tif
102
RTVSPost2010PropOp54
 70
     1
102
RTVSPost2010Prop55
280
     0
102
RTVSPost2010PropOp55
 70
     1
102
RTVSPost2010Prop56
140
1.0
102
RTVSPost2010PropOp56
 70
     1
102
RTVSPost2010Prop57
140
1.0
102
RTVSPost2010PropOp57
 70
     1
  0
XRECORD
  5
539
102
{ACAD_REACTORS
330
538
102
}
330
538
100
AcDbXrecord
280
     1
102
RTVSPropertyOp0
 70
     0
102
RTVSPropertyOp1
 70
     0
102
RTVSPropertyOp2
 70
     0
102
RTVSPropertyOp3
 70
     0
102
RTVSPropertyOp4
 70
     0
102
RTVSPropertyOp5
 70
     0
102
RTVSPropertyOp6
 70
     0
102
RTVSPropertyOp7
 70
     0
102
RTVSPropertyOp8
 70
     0
102
RTVSPropertyOp9
 70
     0
102
RTVSPropertyOp10
 70
     0
102
RTVSPropertyOp11
 70
     0
102
RTVSPropertyOp12
 70
     0
102
RTVSPropertyOp13
 70
     0
102
RTVSPropertyOp14
 70
     0
102
RTVSPropertyOp15
 70
     0
102
RTVSPropertyOp16
 70
     0
102
RTVSPropertyOp17
 70
     0
102
RTVSPropertyOp18
 70
     0
102
RTVSPropertyOp19
 70
     0
102
RTVSPropertyOp20
 70
     0
102
RTVSPropertyOp21
 70
     0
102
RTVSPropertyOp22
 70
     0
102
RTVSPropertyOp23
 70
     0
102
RTVSPropertyOp24
 70
     0
102
RTVSPropertyOp25
 70
     0
102
RTVSPropertyOp26
 70
     0
102
RTVSPropertyOp27
 70
     0
102
RTVSPropertyOp28
 70
     1
102
RTVSPropertyOp29
 70
     1
102
RTVSPropertyOp30
 70
     1
102
RTVSPropertyOp31
 70
     1
102
RTVSPropertyOp32
 70
     1
102
RTVSPropertyOp33
 70
     1
102
RTVSPropertyOp34
 70
     1
102
RTVSPropertyOp35
 70
     1
102
RTVSPropertyOp36
 70
     1
102
RTVSPropertyOp37
 70
     1
102
RTVSPropertyOp38
 70
     1
102
RTVSPropertyOp39
 70
     1
102
RTVSPropertyOp40
 70
     1
102
RTVSPropertyOp41
 70
     1
102
RTVSPropertyOp42
 70
     1
102
RTVSPropertyOp43
 70
     1
102
RTVSPropertyOp44
 70
     1
102
RTVSPropertyOp45
 70
     1
102
RTVSPropertyOp46
 70
     1
102
RTVSPropertyOp47
 70
     1
102
RTVSPropertyOp48
 70
     1
102
RTVSPropertyOp49
 70
     1
102
RTVSPropertyOp50
 70
     1
102
RTVSPropertyOp51
 70
     0
102
RTVSPropertyOp52
 70
     0
102
RTVSPropertyOp53
 70
     1
102
RTVSPropertyOp54
 70
     1
102
RTVSPropertyOp55
 70
     1
102
RTVSPropertyOp56
 70
     1
102
RTVSPropertyOp57
 70
     1
102
RTVSPost2010Prop28
280
     0
102
RTVSPost2010PropOp28
 70
     1
102
RTVSPost2010Prop29
280
     1
102
RTVSPost2010PropOp29
 70
     1
102
RTVSPost2010Prop30
280
     1
102
RTVSPost2010PropOp30
 70
     1
102
RTVSPost2010Prop31
280
     0
102
RTVSPost2010PropOp31
 70
     1
102
RTVSPost2010Prop32
280
     0
102
RTVSPost2010PropOp32
 70
     1
102
RTVSPost2010Prop33
280
     0
102
RTVSPost2010PropOp33
 70
     1
102
RTVSPost2010Prop34
280
     0
102
RTVSPost2010PropOp34
 70
     1
102
RTVSPost2010Prop35
280
     0
102
RTVSPost2010PropOp35
 70
     1
102
RTVSPost2010Prop36
280
     0
102
RTVSPost2010PropOp36
 70
     1
102
RTVSPost2010Prop37
 90
       50
102
RTVSPost2010PropOp37
 70
     1
102
RTVSPost2010Prop38
140
0.0
102
RTVSPost2010PropOp38
 70
     1
102
RTVSPost2010Prop39
140
1.0
102
RTVSPost2010PropOp39
 70
     1
102
RTVSPost2010Prop40
 90
        0
102
RTVSPost2010PropOp40
 70
     1
102
RTVSPost2010Prop41ColorIndex
 90
       18
102
RTVSPost2010Prop41ColorRGB
 90
        0
102
RTVSPost2010PropOp41
 70
     1
102
RTVSPost2010Prop42
 90
       50
102
RTVSPost2010PropOp42
 70
     1
102
RTVSPost2010Prop43
 90
        3
102
RTVSPost2010PropOp43
 70
     1
102
RTVSPost2010Prop44ColorIndex
 90
        5
102
RTVSPost2010Prop44ColorRGB
 90
      255
102
RTVSPost2010PropOp44
 70
     1
102
RTVSPost2010Prop45
280
     0
102
RTVSPost2010PropOp45
 70
     1
102
RTVSPost2010Prop46
 90
       50
102
RTVSPost2010PropOp46
 70
     1
102
RTVSPost2010Prop47
 90
       50
102
RTVSPost2010PropOp47
 70
     1
102
RTVSPost2010Prop48
 90
       50
102
RTVSPost2010PropOp48
 70
     1
102
RTVSPost2010Prop49
280
     0
102
RTVSPost2010PropOp49
 70
     1
102
RTVSPost2010Prop50
 90
       50
102
RTVSPost2010PropOp50
 70
     1
102
RTVSPost2010Prop51ColorIndex
 90
      256
102
RTVSPost2010Prop51ColorRGB
 90
-16777216
102
RTVSPost2010PropOp51
 70
     0
102
RTVSPost2010Prop52
140
1.0
102
RTVSPost2010PropOp52
 70
     0
102
RTVSPost2010Prop53
 90
        2
102
RTVSPost2010PropOp53
 70
     1
102
RTVSPost2010Prop54
  1
strokes_ogs.tif
102
RTVSPost2010PropOp54
 70
     1
102
RTVSPost2010Prop55
280
     0
102
RTVSPost2010PropOp55
 70
     1
102
RTVSPost2010Prop56
140
1.0
102
RTVSPost2010PropOp56
 70
     1
102
RTVSPost2010Prop57
140
1.0
102
RTVSPost2010PropOp57
 70
     1
  0
XRECORD
  5
531
102
{ACAD_REACTORS
330
530
102
}
330
530
100
AcDbXrecord
280
     1
102
RTVSPropertyOp0
 70
     1
102
RTVSPropertyOp1
 70
     1
102
RTVSPropertyOp2
 70
     1
102
RTVSPropertyOp3
 70
     1
102
RTVSPropertyOp4
 70
     1
102
RTVSPropertyOp5
 70
     1
102
RTVSPropertyOp6
 70
     1
102
RTVSPropertyOp7
 70
     1
102
RTVSPropertyOp8
 70
     1
102
RTVSPropertyOp9
 70
     1
102
RTVSPropertyOp10
 70
     1
102
RTVSPropertyOp11
 70
     1
102
RTVSPropertyOp12
 70
     1
102
RTVSPropertyOp13
 70
     1
102
RTVSPropertyOp14
 70
     1
102
RTVSPropertyOp15
 70
     1
102
RTVSPropertyOp16
 70
     1
102
RTVSPropertyOp17
 70
     1
102
RTVSPropertyOp18
 70
     1
102
RTVSPropertyOp19
 70
     1
102
RTVSPropertyOp20
 70
     1
102
RTVSPropertyOp21
 70
     1
102
RTVSPropertyOp22
 70
     1
102
RTVSPropertyOp23
 70
     1
102
RTVSPropertyOp24
 70
     1
102
RTVSPropertyOp25
 70
     1
102
RTVSPropertyOp26
 70
     1
102
RTVSPropertyOp27
 70
     1
102
RTVSPropertyOp28
 70
     1
102
RTVSPropertyOp29
 70
     1
102
RTVSPropertyOp30
 70
     1
102
RTVSPropertyOp31
 70
     1
102
RTVSPropertyOp32
 70
     1
102
RTVSPropertyOp33
 70
     1
102
RTVSPropertyOp34
 70
     1
102
RTVSPropertyOp35
 70
     1
102
RTVSPropertyOp36
 70
     1
102
RTVSPropertyOp37
 70
     1
102
RTVSPropertyOp38
 70
     1
102
RTVSPropertyOp39
 70
     1
102
RTVSPropertyOp40
 70
     1
102
RTVSPropertyOp41
 70
     1
102
RTVSPropertyOp42
 70
     1
102
RTVSPropertyOp43
 70
     1
102
RTVSPropertyOp44
 70
     1
102
RTVSPropertyOp45
 70
     1
102
RTVSPropertyOp46
 70
     1
102
RTVSPropertyOp47
 70
     1
102
RTVSPropertyOp48
 70
     1
102
RTVSPropertyOp49
 70
     1
102
RTVSPropertyOp50
 70
     1
102
RTVSPropertyOp51
 70
     0
102
RTVSPropertyOp52
 70
     0
102
RTVSPropertyOp53
 70
     1
102
RTVSPropertyOp54
 70
     1
102
RTVSPropertyOp55
 70
     1
102
RTVSPropertyOp56
 70
     1
102
RTVSPropertyOp57
 70
     1
102
RTVSPost2010Prop28
280
     0
102
RTVSPost2010PropOp28
 70
     1
102
RTVSPost2010Prop29
280
     1
102
RTVSPost2010PropOp29
 70
     1
102
RTVSPost2010Prop30
280
     1
102
RTVSPost2010PropOp30
 70
     1
102
RTVSPost2010Prop31
280
     0
102
RTVSPost2010PropOp31
 70
     1
102
RTVSPost2010Prop32
280
     0
102
RTVSPost2010PropOp32
 70
     1
102
RTVSPost2010Prop33
280
     0
102
RTVSPost2010PropOp33
 70
     1
102
RTVSPost2010Prop34
280
     0
102
RTVSPost2010PropOp34
 70
     1
102
RTVSPost2010Prop35
280
     0
102
RTVSPost2010PropOp35
 70
     1
102
RTVSPost2010Prop36
280
     0
102
RTVSPost2010PropOp36
 70
     1
102
RTVSPost2010Prop37
 90
       50
102
RTVSPost2010PropOp37
 70
     1
102
RTVSPost2010Prop38
140
0.0
102
RTVSPost2010PropOp38
 70
     1
102
RTVSPost2010Prop39
140
1.0
102
RTVSPost2010PropOp39
 70
     1
102
RTVSPost2010Prop40
 90
        0
102
RTVSPost2010PropOp40
 70
     1
102
RTVSPost2010Prop41ColorIndex
 90
       18
102
RTVSPost2010Prop41ColorRGB
 90
        0
102
RTVSPost2010PropOp41
 70
     1
102
RTVSPost2010Prop42
 90
       50
102
RTVSPost2010PropOp42
 70
     1
102
RTVSPost2010Prop43
 90
        3
102
RTVSPost2010PropOp43
 70
     1
102
RTVSPost2010Prop44ColorIndex
 90
        5
102
RTVSPost2010Prop44ColorRGB
 90
      255
102
RTVSPost2010PropOp44
 70
     1
102
RTVSPost2010Prop45
280
     0
102
RTVSPost2010PropOp45
 70
     1
102
RTVSPost2010Prop46
 90
       50
102
RTVSPost2010PropOp46
 70
     1
102
RTVSPost2010Prop47
 90
       50
102
RTVSPost2010PropOp47
 70
     1
102
RTVSPost2010Prop48
 90
       50
102
RTVSPost2010PropOp48
 70
     1
102
RTVSPost2010Prop49
280
     0
102
RTVSPost2010PropOp49
 70
     1
102
RTVSPost2010Prop50
 90
       50
102
RTVSPost2010PropOp50
 70
     1
102
RTVSPost2010Prop51ColorIndex
 90
      256
102
RTVSPost2010Prop51ColorRGB
 90
-16777216
102
RTVSPost2010PropOp51
 70
     0
102
RTVSPost2010Prop52
140
1.0
102
RTVSPost2010PropOp52
 70
     0
102
RTVSPost2010Prop53
 90
        2
102
RTVSPost2010PropOp53
 70
     1
102
RTVSPost2010Prop54
  1
strokes_ogs.tif
102
RTVSPost2010PropOp54
 70
     1
102
RTVSPost2010Prop55
280
     0
102
RTVSPost2010PropOp55
 70
     1
102
RTVSPost2010Prop56
140
1.0
102
RTVSPost2010PropOp56
 70
     1
102
RTVSPost2010Prop57
140
1.0
102
RTVSPost2010PropOp57
 70
     1
  0
XRECORD
  5
515
102
{ACAD_REACTORS
330
514
102
}
330
514
100
AcDbXrecord
280
     1
102
RTVSPropertyOp0
 70
     1
102
RTVSPropertyOp1
 70
     1
102
RTVSPropertyOp2
 70
     1
102
RTVSPropertyOp3
 70
     1
102
RTVSPropertyOp4
 70
     1
102
RTVSPropertyOp5
 70
     1
102
RTVSPropertyOp6
 70
     1
102
RTVSPropertyOp7
 70
     1
102
RTVSPropertyOp8
 70
     1
102
RTVSPropertyOp9
 70
     1
102
RTVSPropertyOp10
 70
     1
102
RTVSPropertyOp11
 70
     1
102
RTVSPropertyOp12
 70
     1
102
RTVSPropertyOp13
 70
     1
102
RTVSPropertyOp14
 70
     1
102
RTVSPropertyOp15
 70
     1
102
RTVSPropertyOp16
 70
     1
102
RTVSPropertyOp17
 70
     1
102
RTVSPropertyOp18
 70
     1
102
RTVSPropertyOp19
 70
     1
102
RTVSPropertyOp20
 70
     1
102
RTVSPropertyOp21
 70
     1
102
RTVSPropertyOp22
 70
     1
102
RTVSPropertyOp23
 70
     1
102
RTVSPropertyOp24
 70
     1
102
RTVSPropertyOp25
 70
     1
102
RTVSPropertyOp26
 70
     1
102
RTVSPropertyOp27
 70
     1
102
RTVSPropertyOp28
 70
     1
102
RTVSPropertyOp29
 70
     1
102
RTVSPropertyOp30
 70
     1
102
RTVSPropertyOp31
 70
     1
102
RTVSPropertyOp32
 70
     1
102
RTVSPropertyOp33
 70
     1
102
RTVSPropertyOp34
 70
     1
102
RTVSPropertyOp35
 70
     1
102
RTVSPropertyOp36
 70
     1
102
RTVSPropertyOp37
 70
     1
102
RTVSPropertyOp38
 70
     1
102
RTVSPropertyOp39
 70
     1
102
RTVSPropertyOp40
 70
     1
102
RTVSPropertyOp41
 70
     1
102
RTVSPropertyOp42
 70
     1
102
RTVSPropertyOp43
 70
     1
102
RTVSPropertyOp44
 70
     1
102
RTVSPropertyOp45
 70
     1
102
RTVSPropertyOp46
 70
     1
102
RTVSPropertyOp47
 70
     1
102
RTVSPropertyOp48
 70
     1
102
RTVSPropertyOp49
 70
     1
102
RTVSPropertyOp50
 70
     1
102
RTVSPropertyOp51
 70
     0
102
RTVSPropertyOp52
 70
     0
102
RTVSPropertyOp53
 70
     1
102
RTVSPropertyOp54
 70
     1
102
RTVSPropertyOp55
 70
     1
102
RTVSPropertyOp56
 70
     1
102
RTVSPropertyOp57
 70
     1
102
RTVSPost2010Prop28
280
     0
102
RTVSPost2010PropOp28
 70
     1
102
RTVSPost2010Prop29
280
     1
102
RTVSPost2010PropOp29
 70
     1
102
RTVSPost2010Prop30
280
     1
102
RTVSPost2010PropOp30
 70
     1
102
RTVSPost2010Prop31
280
     0
102
RTVSPost2010PropOp31
 70
     1
102
RTVSPost2010Prop32
280
     0
102
RTVSPost2010PropOp32
 70
     1
102
RTVSPost2010Prop33
280
     0
102
RTVSPost2010PropOp33
 70
     1
102
RTVSPost2010Prop34
280
     0
102
RTVSPost2010PropOp34
 70
     1
102
RTVSPost2010Prop35
280
     0
102
RTVSPost2010PropOp35
 70
     1
102
RTVSPost2010Prop36
280
     0
102
RTVSPost2010PropOp36
 70
     1
102
RTVSPost2010Prop37
 90
       50
102
RTVSPost2010PropOp37
 70
     1
102
RTVSPost2010Prop38
140
0.0
102
RTVSPost2010PropOp38
 70
     1
102
RTVSPost2010Prop39
140
1.0
102
RTVSPost2010PropOp39
 70
     1
102
RTVSPost2010Prop40
 90
        0
102
RTVSPost2010PropOp40
 70
     1
102
RTVSPost2010Prop41ColorIndex
 90
       18
102
RTVSPost2010Prop41ColorRGB
 90
        0
102
RTVSPost2010PropOp41
 70
     1
102
RTVSPost2010Prop42
 90
       50
102
RTVSPost2010PropOp42
 70
     1
102
RTVSPost2010Prop43
 90
        3
102
RTVSPost2010PropOp43
 70
     1
102
RTVSPost2010Prop44ColorIndex
 90
        5
102
RTVSPost2010Prop44ColorRGB
 90
      255
102
RTVSPost2010PropOp44
 70
     1
102
RTVSPost2010Prop45
280
     0
102
RTVSPost2010PropOp45
 70
     1
102
RTVSPost2010Prop46
 90
       50
102
RTVSPost2010PropOp46
 70
     1
102
RTVSPost2010Prop47
 90
       50
102
RTVSPost2010PropOp47
 70
     1
102
RTVSPost2010Prop48
 90
       50
102
RTVSPost2010PropOp48
 70
     1
102
RTVSPost2010Prop49
280
     0
102
RTVSPost2010PropOp49
 70
     1
102
RTVSPost2010Prop50
 90
       50
102
RTVSPost2010PropOp50
 70
     1
102
RTVSPost2010Prop51ColorIndex
 90
      256
102
RTVSPost2010Prop51ColorRGB
 90
-16777216
102
RTVSPost2010PropOp51
 70
     0
102
RTVSPost2010Prop52
140
1.0
102
RTVSPost2010PropOp52
 70
     0
102
RTVSPost2010Prop53
 90
        2
102
RTVSPost2010PropOp53
 70
     1
102
RTVSPost2010Prop54
  1
strokes_ogs.tif
102
RTVSPost2010PropOp54
 70
     1
102
RTVSPost2010Prop55
280
     0
102
RTVSPost2010PropOp55
 70
     1
102
RTVSPost2010Prop56
140
1.0
102
RTVSPost2010PropOp56
 70
     1
102
RTVSPost2010Prop57
140
1.0
102
RTVSPost2010PropOp57
 70
     1
  0
XRECORD
  5
517
102
{ACAD_REACTORS
330
516
102
}
330
516
100
AcDbXrecord
280
     1
102
RTVSPropertyOp0
 70
     1
102
RTVSPropertyOp1
 70
     1
102
RTVSPropertyOp2
 70
     1
102
RTVSPropertyOp3
 70
     1
102
RTVSPropertyOp4
 70
     1
102
RTVSPropertyOp5
 70
     1
102
RTVSPropertyOp6
 70
     1
102
RTVSPropertyOp7
 70
     1
102
RTVSPropertyOp8
 70
     1
102
RTVSPropertyOp9
 70
     1
102
RTVSPropertyOp10
 70
     1
102
RTVSPropertyOp11
 70
     1
102
RTVSPropertyOp12
 70
     1
102
RTVSPropertyOp13
 70
     1
102
RTVSPropertyOp14
 70
     1
102
RTVSPropertyOp15
 70
     1
102
RTVSPropertyOp16
 70
     1
102
RTVSPropertyOp17
 70
     1
102
RTVSPropertyOp18
 70
     1
102
RTVSPropertyOp19
 70
     1
102
RTVSPropertyOp20
 70
     1
102
RTVSPropertyOp21
 70
     1
102
RTVSPropertyOp22
 70
     1
102
RTVSPropertyOp23
 70
     1
102
RTVSPropertyOp24
 70
     1
102
RTVSPropertyOp25
 70
     1
102
RTVSPropertyOp26
 70
     1
102
RTVSPropertyOp27
 70
     1
102
RTVSPropertyOp28
 70
     1
102
RTVSPropertyOp29
 70
     1
102
RTVSPropertyOp30
 70
     1
102
RTVSPropertyOp31
 70
     1
102
RTVSPropertyOp32
 70
     1
102
RTVSPropertyOp33
 70
     1
102
RTVSPropertyOp34
 70
     1
102
RTVSPropertyOp35
 70
     1
102
RTVSPropertyOp36
 70
     1
102
RTVSPropertyOp37
 70
     1
102
RTVSPropertyOp38
 70
     1
102
RTVSPropertyOp39
 70
     1
102
RTVSPropertyOp40
 70
     1
102
RTVSPropertyOp41
 70
     1
102
RTVSPropertyOp42
 70
     1
102
RTVSPropertyOp43
 70
     1
102
RTVSPropertyOp44
 70
     1
102
RTVSPropertyOp45
 70
     1
102
RTVSPropertyOp46
 70
     1
102
RTVSPropertyOp47
 70
     1
102
RTVSPropertyOp48
 70
     1
102
RTVSPropertyOp49
 70
     1
102
RTVSPropertyOp50
 70
     1
102
RTVSPropertyOp51
 70
     0
102
RTVSPropertyOp52
 70
     0
102
RTVSPropertyOp53
 70
     1
102
RTVSPropertyOp54
 70
     1
102
RTVSPropertyOp55
 70
     1
102
RTVSPropertyOp56
 70
     1
102
RTVSPropertyOp57
 70
     1
102
RTVSPost2010Prop28
280
     0
102
RTVSPost2010PropOp28
 70
     1
102
RTVSPost2010Prop29
280
     1
102
RTVSPost2010PropOp29
 70
     1
102
RTVSPost2010Prop30
280
     1
102
RTVSPost2010PropOp30
 70
     1
102
RTVSPost2010Prop31
280
     0
102
RTVSPost2010PropOp31
 70
     1
102
RTVSPost2010Prop32
280
     0
102
RTVSPost2010PropOp32
 70
     1
102
RTVSPost2010Prop33
280
     0
102
RTVSPost2010PropOp33
 70
     1
102
RTVSPost2010Prop34
280
     0
102
RTVSPost2010PropOp34
 70
     1
102
RTVSPost2010Prop35
280
     0
102
RTVSPost2010PropOp35
 70
     1
102
RTVSPost2010Prop36
280
     0
102
RTVSPost2010PropOp36
 70
     1
102
RTVSPost2010Prop37
 90
       50
102
RTVSPost2010PropOp37
 70
     1
102
RTVSPost2010Prop38
140
0.0
102
RTVSPost2010PropOp38
 70
     1
102
RTVSPost2010Prop39
140
1.0
102
RTVSPost2010PropOp39
 70
     1
102
RTVSPost2010Prop40
 90
        0
102
RTVSPost2010PropOp40
 70
     1
102
RTVSPost2010Prop41ColorIndex
 90
       18
102
RTVSPost2010Prop41ColorRGB
 90
        0
102
RTVSPost2010PropOp41
 70
     1
102
RTVSPost2010Prop42
 90
       50
102
RTVSPost2010PropOp42
 70
     1
102
RTVSPost2010Prop43
 90
        3
102
RTVSPost2010PropOp43
 70
     1
102
RTVSPost2010Prop44ColorIndex
 90
        5
102
RTVSPost2010Prop44ColorRGB
 90
      255
102
RTVSPost2010PropOp44
 70
     1
102
RTVSPost2010Prop45
280
     0
102
RTVSPost2010PropOp45
 70
     1
102
RTVSPost2010Prop46
 90
       50
102
RTVSPost2010PropOp46
 70
     1
102
RTVSPost2010Prop47
 90
       50
102
RTVSPost2010PropOp47
 70
     1
102
RTVSPost2010Prop48
 90
       50
102
RTVSPost2010PropOp48
 70
     1
102
RTVSPost2010Prop49
280
     0
102
RTVSPost2010PropOp49
 70
     1
102
RTVSPost2010Prop50
 90
       50
102
RTVSPost2010PropOp50
 70
     1
102
RTVSPost2010Prop51ColorIndex
 90
      256
102
RTVSPost2010Prop51ColorRGB
 90
-16777216
102
RTVSPost2010PropOp51
 70
     0
102
RTVSPost2010Prop52
140
1.0
102
RTVSPost2010PropOp52
 70
     0
102
RTVSPost2010Prop53
 90
        2
102
RTVSPost2010PropOp53
 70
     1
102
RTVSPost2010Prop54
  1
strokes_ogs.tif
102
RTVSPost2010PropOp54
 70
     1
102
RTVSPost2010Prop55
280
     0
102
RTVSPost2010PropOp55
 70
     1
102
RTVSPost2010Prop56
140
1.0
102
RTVSPost2010PropOp56
 70
     1
102
RTVSPost2010Prop57
140
1.0
102
RTVSPost2010PropOp57
 70
     1
  0
XRECORD
  5
519
102
{ACAD_REACTORS
330
518
102
}
330
518
100
AcDbXrecord
280
     1
102
RTVSPropertyOp0
 70
     1
102
RTVSPropertyOp1
 70
     1
102
RTVSPropertyOp2
 70
     1
102
RTVSPropertyOp3
 70
     1
102
RTVSPropertyOp4
 70
     1
102
RTVSPropertyOp5
 70
     1
102
RTVSPropertyOp6
 70
     1
102
RTVSPropertyOp7
 70
     1
102
RTVSPropertyOp8
 70
     1
102
RTVSPropertyOp9
 70
     1
102
RTVSPropertyOp10
 70
     1
102
RTVSPropertyOp11
 70
     1
102
RTVSPropertyOp12
 70
     1
102
RTVSPropertyOp13
 70
     1
102
RTVSPropertyOp14
 70
     1
102
RTVSPropertyOp15
 70
     1
102
RTVSPropertyOp16
 70
     1
102
RTVSPropertyOp17
 70
     1
102
RTVSPropertyOp18
 70
     1
102
RTVSPropertyOp19
 70
     1
102
RTVSPropertyOp20
 70
     1
102
RTVSPropertyOp21
 70
     1
102
RTVSPropertyOp22
 70
     1
102
RTVSPropertyOp23
 70
     1
102
RTVSPropertyOp24
 70
     1
102
RTVSPropertyOp25
 70
     1
102
RTVSPropertyOp26
 70
     1
102
RTVSPropertyOp27
 70
     1
102
RTVSPropertyOp28
 70
     1
102
RTVSPropertyOp29
 70
     1
102
RTVSPropertyOp30
 70
     1
102
RTVSPropertyOp31
 70
     1
102
RTVSPropertyOp32
 70
     1
102
RTVSPropertyOp33
 70
     1
102
RTVSPropertyOp34
 70
     1
102
RTVSPropertyOp35
 70
     1
102
RTVSPropertyOp36
 70
     1
102
RTVSPropertyOp37
 70
     1
102
RTVSPropertyOp38
 70
     1
102
RTVSPropertyOp39
 70
     1
102
RTVSPropertyOp40
 70
     1
102
RTVSPropertyOp41
 70
     1
102
RTVSPropertyOp42
 70
     1
102
RTVSPropertyOp43
 70
     1
102
RTVSPropertyOp44
 70
     1
102
RTVSPropertyOp45
 70
     1
102
RTVSPropertyOp46
 70
     1
102
RTVSPropertyOp47
 70
     1
102
RTVSPropertyOp48
 70
     1
102
RTVSPropertyOp49
 70
     1
102
RTVSPropertyOp50
 70
     1
102
RTVSPropertyOp51
 70
     0
102
RTVSPropertyOp52
 70
     0
102
RTVSPropertyOp53
 70
     1
102
RTVSPropertyOp54
 70
     1
102
RTVSPropertyOp55
 70
     1
102
RTVSPropertyOp56
 70
     1
102
RTVSPropertyOp57
 70
     1
102
RTVSPost2010Prop28
280
     0
102
RTVSPost2010PropOp28
 70
     1
102
RTVSPost2010Prop29
280
     1
102
RTVSPost2010PropOp29
 70
     1
102
RTVSPost2010Prop30
280
     1
102
RTVSPost2010PropOp30
 70
     1
102
RTVSPost2010Prop31
280
     0
102
RTVSPost2010PropOp31
 70
     1
102
RTVSPost2010Prop32
280
     0
102
RTVSPost2010PropOp32
 70
     1
102
RTVSPost2010Prop33
280
     0
102
RTVSPost2010PropOp33
 70
     1
102
RTVSPost2010Prop34
280
     0
102
RTVSPost2010PropOp34
 70
     1
102
RTVSPost2010Prop35
280
     0
102
RTVSPost2010PropOp35
 70
     1
102
RTVSPost2010Prop36
280
     0
102
RTVSPost2010PropOp36
 70
     1
102
RTVSPost2010Prop37
 90
       50
102
RTVSPost2010PropOp37
 70
     1
102
RTVSPost2010Prop38
140
0.0
102
RTVSPost2010PropOp38
 70
     1
102
RTVSPost2010Prop39
140
1.0
102
RTVSPost2010PropOp39
 70
     1
102
RTVSPost2010Prop40
 90
        0
102
RTVSPost2010PropOp40
 70
     1
102
RTVSPost2010Prop41ColorIndex
 90
       18
102
RTVSPost2010Prop41ColorRGB
 90
        0
102
RTVSPost2010PropOp41
 70
     1
102
RTVSPost2010Prop42
 90
       50
102
RTVSPost2010PropOp42
 70
     1
102
RTVSPost2010Prop43
 90
        3
102
RTVSPost2010PropOp43
 70
     1
102
RTVSPost2010Prop44ColorIndex
 90
        5
102
RTVSPost2010Prop44ColorRGB
 90
      255
102
RTVSPost2010PropOp44
 70
     1
102
RTVSPost2010Prop45
280
     0
102
RTVSPost2010PropOp45
 70
     1
102
RTVSPost2010Prop46
 90
       50
102
RTVSPost2010PropOp46
 70
     1
102
RTVSPost2010Prop47
 90
       50
102
RTVSPost2010PropOp47
 70
     1
102
RTVSPost2010Prop48
 90
       50
102
RTVSPost2010PropOp48
 70
     1
102
RTVSPost2010Prop49
280
     0
102
RTVSPost2010PropOp49
 70
     1
102
RTVSPost2010Prop50
 90
       50
102
RTVSPost2010PropOp50
 70
     1
102
RTVSPost2010Prop51ColorIndex
 90
      256
102
RTVSPost2010Prop51ColorRGB
 90
-16777216
102
RTVSPost2010PropOp51
 70
     0
102
RTVSPost2010Prop52
140
1.0
102
RTVSPost2010PropOp52
 70
     0
102
RTVSPost2010Prop53
 90
        2
102
RTVSPost2010PropOp53
 70
     1
102
RTVSPost2010Prop54
  1
strokes_ogs.tif
102
RTVSPost2010PropOp54
 70
     1
102
RTVSPost2010Prop55
280
     0
102
RTVSPost2010PropOp55
 70
     1
102
RTVSPost2010Prop56
140
1.0
102
RTVSPost2010PropOp56
 70
     1
102
RTVSPost2010Prop57
140
1.0
102
RTVSPost2010PropOp57
 70
     1
  0
XRECORD
  5
51B
102
{ACAD_REACTORS
330
51A
102
}
330
51A
100
AcDbXrecord
280
     1
102
RTVSPropertyOp0
 70
     1
102
RTVSPropertyOp1
 70
     1
102
RTVSPropertyOp2
 70
     1
102
RTVSPropertyOp3
 70
     1
102
RTVSPropertyOp4
 70
     1
102
RTVSPropertyOp5
 70
     1
102
RTVSPropertyOp6
 70
     1
102
RTVSPropertyOp7
 70
     1
102
RTVSPropertyOp8
 70
     1
102
RTVSPropertyOp9
 70
     1
102
RTVSPropertyOp10
 70
     1
102
RTVSPropertyOp11
 70
     1
102
RTVSPropertyOp12
 70
     1
102
RTVSPropertyOp13
 70
     1
102
RTVSPropertyOp14
 70
     1
102
RTVSPropertyOp15
 70
     1
102
RTVSPropertyOp16
 70
     1
102
RTVSPropertyOp17
 70
     1
102
RTVSPropertyOp18
 70
     1
102
RTVSPropertyOp19
 70
     1
102
RTVSPropertyOp20
 70
     1
102
RTVSPropertyOp21
 70
     1
102
RTVSPropertyOp22
 70
     1
102
RTVSPropertyOp23
 70
     1
102
RTVSPropertyOp24
 70
     1
102
RTVSPropertyOp25
 70
     1
102
RTVSPropertyOp26
 70
     1
102
RTVSPropertyOp27
 70
     1
102
RTVSPropertyOp28
 70
     1
102
RTVSPropertyOp29
 70
     1
102
RTVSPropertyOp30
 70
     1
102
RTVSPropertyOp31
 70
     1
102
RTVSPropertyOp32
 70
     1
102
RTVSPropertyOp33
 70
     1
102
RTVSPropertyOp34
 70
     1
102
RTVSPropertyOp35
 70
     1
102
RTVSPropertyOp36
 70
     1
102
RTVSPropertyOp37
 70
     1
102
RTVSPropertyOp38
 70
     1
102
RTVSPropertyOp39
 70
     1
102
RTVSPropertyOp40
 70
     1
102
RTVSPropertyOp41
 70
     1
102
RTVSPropertyOp42
 70
     1
102
RTVSPropertyOp43
 70
     1
102
RTVSPropertyOp44
 70
     1
102
RTVSPropertyOp45
 70
     1
102
RTVSPropertyOp46
 70
     1
102
RTVSPropertyOp47
 70
     1
102
RTVSPropertyOp48
 70
     1
102
RTVSPropertyOp49
 70
     1
102
RTVSPropertyOp50
 70
     1
102
RTVSPropertyOp51
 70
     0
102
RTVSPropertyOp52
 70
     0
102
RTVSPropertyOp53
 70
     1
102
RTVSPropertyOp54
 70
     1
102
RTVSPropertyOp55
 70
     1
102
RTVSPropertyOp56
 70
     1
102
RTVSPropertyOp57
 70
     1
102
RTVSPost2010Prop28
280
     0
102
RTVSPost2010PropOp28
 70
     1
102
RTVSPost2010Prop29
280
     1
102
RTVSPost2010PropOp29
 70
     1
102
RTVSPost2010Prop30
280
     1
102
RTVSPost2010PropOp30
 70
     1
102
RTVSPost2010Prop31
280
     0
102
RTVSPost2010PropOp31
 70
     1
102
RTVSPost2010Prop32
280
     0
102
RTVSPost2010PropOp32
 70
     1
102
RTVSPost2010Prop33
280
     0
102
RTVSPost2010PropOp33
 70
     1
102
RTVSPost2010Prop34
280
     0
102
RTVSPost2010PropOp34
 70
     1
102
RTVSPost2010Prop35
280
     0
102
RTVSPost2010PropOp35
 70
     1
102
RTVSPost2010Prop36
280
     0
102
RTVSPost2010PropOp36
 70
     1
102
RTVSPost2010Prop37
 90
       50
102
RTVSPost2010PropOp37
 70
     1
102
RTVSPost2010Prop38
140
0.0
102
RTVSPost2010PropOp38
 70
     1
102
RTVSPost2010Prop39
140
1.0
102
RTVSPost2010PropOp39
 70
     1
102
RTVSPost2010Prop40
 90
        0
102
RTVSPost2010PropOp40
 70
     1
102
RTVSPost2010Prop41ColorIndex
 90
       18
102
RTVSPost2010Prop41ColorRGB
 90
        0
102
RTVSPost2010PropOp41
 70
     1
102
RTVSPost2010Prop42
 90
       50
102
RTVSPost2010PropOp42
 70
     1
102
RTVSPost2010Prop43
 90
        3
102
RTVSPost2010PropOp43
 70
     1
102
RTVSPost2010Prop44ColorIndex
 90
        5
102
RTVSPost2010Prop44ColorRGB
 90
      255
102
RTVSPost2010PropOp44
 70
     1
102
RTVSPost2010Prop45
280
     0
102
RTVSPost2010PropOp45
 70
     1
102
RTVSPost2010Prop46
 90
       50
102
RTVSPost2010PropOp46
 70
     1
102
RTVSPost2010Prop47
 90
       50
102
RTVSPost2010PropOp47
 70
     1
102
RTVSPost2010Prop48
 90
       50
102
RTVSPost2010PropOp48
 70
     1
102
RTVSPost2010Prop49
280
     0
102
RTVSPost2010PropOp49
 70
     1
102
RTVSPost2010Prop50
 90
       50
102
RTVSPost2010PropOp50
 70
     1
102
RTVSPost2010Prop51ColorIndex
 90
      256
102
RTVSPost2010Prop51ColorRGB
 90
-16777216
102
RTVSPost2010PropOp51
 70
     0
102
RTVSPost2010Prop52
140
1.0
102
RTVSPost2010PropOp52
 70
     0
102
RTVSPost2010Prop53
 90
        2
102
RTVSPost2010PropOp53
 70
     1
102
RTVSPost2010Prop54
  1
strokes_ogs.tif
102
RTVSPost2010PropOp54
 70
     1
102
RTVSPost2010Prop55
280
     0
102
RTVSPost2010PropOp55
 70
     1
102
RTVSPost2010Prop56
140
1.0
102
RTVSPost2010PropOp56
 70
     1
102
RTVSPost2010Prop57
140
1.0
102
RTVSPost2010PropOp57
 70
     1
  0
XRECORD
  5
521
102
{ACAD_REACTORS
330
520
102
}
330
520
100
AcDbXrecord
280
     1
102
RTVSPropertyOp0
 70
     1
102
RTVSPropertyOp1
 70
     1
102
RTVSPropertyOp2
 70
     1
102
RTVSPropertyOp3
 70
     1
102
RTVSPropertyOp4
 70
     1
102
RTVSPropertyOp5
 70
     1
102
RTVSPropertyOp6
 70
     1
102
RTVSPropertyOp7
 70
     1
102
RTVSPropertyOp8
 70
     1
102
RTVSPropertyOp9
 70
     1
102
RTVSPropertyOp10
 70
     1
102
RTVSPropertyOp11
 70
     1
102
RTVSPropertyOp12
 70
     1
102
RTVSPropertyOp13
 70
     1
102
RTVSPropertyOp14
 70
     1
102
RTVSPropertyOp15
 70
     1
102
RTVSPropertyOp16
 70
     1
102
RTVSPropertyOp17
 70
     1
102
RTVSPropertyOp18
 70
     1
102
RTVSPropertyOp19
 70
     1
102
RTVSPropertyOp20
 70
     1
102
RTVSPropertyOp21
 70
     1
102
RTVSPropertyOp22
 70
     1
102
RTVSPropertyOp23
 70
     1
102
RTVSPropertyOp24
 70
     1
102
RTVSPropertyOp25
 70
     1
102
RTVSPropertyOp26
 70
     1
102
RTVSPropertyOp27
 70
     1
102
RTVSPropertyOp28
 70
     1
102
RTVSPropertyOp29
 70
     1
102
RTVSPropertyOp30
 70
     1
102
RTVSPropertyOp31
 70
     1
102
RTVSPropertyOp32
 70
     1
102
RTVSPropertyOp33
 70
     1
102
RTVSPropertyOp34
 70
     1
102
RTVSPropertyOp35
 70
     1
102
RTVSPropertyOp36
 70
     1
102
RTVSPropertyOp37
 70
     1
102
RTVSPropertyOp38
 70
     1
102
RTVSPropertyOp39
 70
     1
102
RTVSPropertyOp40
 70
     1
102
RTVSPropertyOp41
 70
     1
102
RTVSPropertyOp42
 70
     1
102
RTVSPropertyOp43
 70
     1
102
RTVSPropertyOp44
 70
     1
102
RTVSPropertyOp45
 70
     1
102
RTVSPropertyOp46
 70
     1
102
RTVSPropertyOp47
 70
     1
102
RTVSPropertyOp48
 70
     1
102
RTVSPropertyOp49
 70
     1
102
RTVSPropertyOp50
 70
     1
102
RTVSPropertyOp51
 70
     0
102
RTVSPropertyOp52
 70
     0
102
RTVSPropertyOp53
 70
     1
102
RTVSPropertyOp54
 70
     1
102
RTVSPropertyOp55
 70
     1
102
RTVSPropertyOp56
 70
     1
102
RTVSPropertyOp57
 70
     1
102
RTVSPost2010Prop28
280
     0
102
RTVSPost2010PropOp28
 70
     1
102
RTVSPost2010Prop29
280
     1
102
RTVSPost2010PropOp29
 70
     1
102
RTVSPost2010Prop30
280
     1
102
RTVSPost2010PropOp30
 70
     1
102
RTVSPost2010Prop31
280
     0
102
RTVSPost2010PropOp31
 70
     1
102
RTVSPost2010Prop32
280
     0
102
RTVSPost2010PropOp32
 70
     1
102
RTVSPost2010Prop33
280
     0
102
RTVSPost2010PropOp33
 70
     1
102
RTVSPost2010Prop34
280
     0
102
RTVSPost2010PropOp34
 70
     1
102
RTVSPost2010Prop35
280
     0
102
RTVSPost2010PropOp35
 70
     1
102
RTVSPost2010Prop36
280
     0
102
RTVSPost2010PropOp36
 70
     1
102
RTVSPost2010Prop37
 90
       50
102
RTVSPost2010PropOp37
 70
     1
102
RTVSPost2010Prop38
140
0.0
102
RTVSPost2010PropOp38
 70
     1
102
RTVSPost2010Prop39
140
1.0
102
RTVSPost2010PropOp39
 70
     1
102
RTVSPost2010Prop40
 90
        0
102
RTVSPost2010PropOp40
 70
     1
102
RTVSPost2010Prop41ColorIndex
 90
       18
102
RTVSPost2010Prop41ColorRGB
 90
        0
102
RTVSPost2010PropOp41
 70
     1
102
RTVSPost2010Prop42
 90
       50
102
RTVSPost2010PropOp42
 70
     1
102
RTVSPost2010Prop43
 90
        3
102
RTVSPost2010PropOp43
 70
     1
102
RTVSPost2010Prop44ColorIndex
 90
        5
102
RTVSPost2010Prop44ColorRGB
 90
      255
102
RTVSPost2010PropOp44
 70
     1
102
RTVSPost2010Prop45
280
     0
102
RTVSPost2010PropOp45
 70
     1
102
RTVSPost2010Prop46
 90
       50
102
RTVSPost2010PropOp46
 70
     1
102
RTVSPost2010Prop47
 90
       50
102
RTVSPost2010PropOp47
 70
     1
102
RTVSPost2010Prop48
 90
       50
102
RTVSPost2010PropOp48
 70
     1
102
RTVSPost2010Prop49
280
     0
102
RTVSPost2010PropOp49
 70
     1
102
RTVSPost2010Prop50
 90
       50
102
RTVSPost2010PropOp50
 70
     1
102
RTVSPost2010Prop51ColorIndex
 90
      256
102
RTVSPost2010Prop51ColorRGB
 90
-16777216
102
RTVSPost2010PropOp51
 70
     0
102
RTVSPost2010Prop52
140
1.0
102
RTVSPost2010PropOp52
 70
     0
102
RTVSPost2010Prop53
 90
        2
102
RTVSPost2010PropOp53
 70
     1
102
RTVSPost2010Prop54
  1
strokes_ogs.tif
102
RTVSPost2010PropOp54
 70
     1
102
RTVSPost2010Prop55
280
     0
102
RTVSPost2010PropOp55
 70
     1
102
RTVSPost2010Prop56
140
1.0
102
RTVSPost2010PropOp56
 70
     1
102
RTVSPost2010Prop57
140
1.0
102
RTVSPost2010PropOp57
 70
     1
  0
XRECORD
  5
535
102
{ACAD_REACTORS
330
534
102
}
330
534
100
AcDbXrecord
280
     1
102
RTVSPropertyOp0
 70
     0
102
RTVSPropertyOp1
 70
     0
102
RTVSPropertyOp2
 70
     0
102
RTVSPropertyOp3
 70
     0
102
RTVSPropertyOp4
 70
     0
102
RTVSPropertyOp5
 70
     0
102
RTVSPropertyOp6
 70
     0
102
RTVSPropertyOp7
 70
     0
102
RTVSPropertyOp8
 70
     0
102
RTVSPropertyOp9
 70
     0
102
RTVSPropertyOp10
 70
     0
102
RTVSPropertyOp11
 70
     0
102
RTVSPropertyOp12
 70
     0
102
RTVSPropertyOp13
 70
     0
102
RTVSPropertyOp14
 70
     0
102
RTVSPropertyOp15
 70
     0
102
RTVSPropertyOp16
 70
     0
102
RTVSPropertyOp17
 70
     0
102
RTVSPropertyOp18
 70
     0
102
RTVSPropertyOp19
 70
     0
102
RTVSPropertyOp20
 70
     0
102
RTVSPropertyOp21
 70
     0
102
RTVSPropertyOp22
 70
     0
102
RTVSPropertyOp23
 70
     0
102
RTVSPropertyOp24
 70
     0
102
RTVSPropertyOp25
 70
     0
102
RTVSPropertyOp26
 70
     0
102
RTVSPropertyOp27
 70
     0
102
RTVSPropertyOp28
 70
     1
102
RTVSPropertyOp29
 70
     1
102
RTVSPropertyOp30
 70
     1
102
RTVSPropertyOp31
 70
     1
102
RTVSPropertyOp32
 70
     1
102
RTVSPropertyOp33
 70
     1
102
RTVSPropertyOp34
 70
     1
102
RTVSPropertyOp35
 70
     1
102
RTVSPropertyOp36
 70
     1
102
RTVSPropertyOp37
 70
     1
102
RTVSPropertyOp38
 70
     1
102
RTVSPropertyOp39
 70
     1
102
RTVSPropertyOp40
 70
     1
102
RTVSPropertyOp41
 70
     1
102
RTVSPropertyOp42
 70
     1
102
RTVSPropertyOp43
 70
     1
102
RTVSPropertyOp44
 70
     1
102
RTVSPropertyOp45
 70
     1
102
RTVSPropertyOp46
 70
     1
102
RTVSPropertyOp47
 70
     1
102
RTVSPropertyOp48
 70
     1
102
RTVSPropertyOp49
 70
     1
102
RTVSPropertyOp50
 70
     1
102
RTVSPropertyOp51
 70
     0
102
RTVSPropertyOp52
 70
     0
102
RTVSPropertyOp53
 70
     1
102
RTVSPropertyOp54
 70
     1
102
RTVSPropertyOp55
 70
     1
102
RTVSPropertyOp56
 70
     1
102
RTVSPropertyOp57
 70
     1
102
RTVSPost2010Prop28
280
     0
102
RTVSPost2010PropOp28
 70
     1
102
RTVSPost2010Prop29
280
     1
102
RTVSPost2010PropOp29
 70
     1
102
RTVSPost2010Prop30
280
     1
102
RTVSPost2010PropOp30
 70
     1
102
RTVSPost2010Prop31
280
     0
102
RTVSPost2010PropOp31
 70
     1
102
RTVSPost2010Prop32
280
     0
102
RTVSPost2010PropOp32
 70
     1
102
RTVSPost2010Prop33
280
     0
102
RTVSPost2010PropOp33
 70
     1
102
RTVSPost2010Prop34
280
     0
102
RTVSPost2010PropOp34
 70
     1
102
RTVSPost2010Prop35
280
     0
102
RTVSPost2010PropOp35
 70
     1
102
RTVSPost2010Prop36
280
     0
102
RTVSPost2010PropOp36
 70
     1
102
RTVSPost2010Prop37
 90
       50
102
RTVSPost2010PropOp37
 70
     1
102
RTVSPost2010Prop38
140
0.0
102
RTVSPost2010PropOp38
 70
     1
102
RTVSPost2010Prop39
140
1.0
102
RTVSPost2010PropOp39
 70
     1
102
RTVSPost2010Prop40
 90
        0
102
RTVSPost2010PropOp40
 70
     1
102
RTVSPost2010Prop41ColorIndex
 90
       18
102
RTVSPost2010Prop41ColorRGB
 90
        0
102
RTVSPost2010PropOp41
 70
     1
102
RTVSPost2010Prop42
 90
       50
102
RTVSPost2010PropOp42
 70
     1
102
RTVSPost2010Prop43
 90
        3
102
RTVSPost2010PropOp43
 70
     1
102
RTVSPost2010Prop44ColorIndex
 90
        5
102
RTVSPost2010Prop44ColorRGB
 90
      255
102
RTVSPost2010PropOp44
 70
     1
102
RTVSPost2010Prop45
280
     0
102
RTVSPost2010PropOp45
 70
     1
102
RTVSPost2010Prop46
 90
       50
102
RTVSPost2010PropOp46
 70
     1
102
RTVSPost2010Prop47
 90
       50
102
RTVSPost2010PropOp47
 70
     1
102
RTVSPost2010Prop48
 90
       50
102
RTVSPost2010PropOp48
 70
     1
102
RTVSPost2010Prop49
280
     0
102
RTVSPost2010PropOp49
 70
     1
102
RTVSPost2010Prop50
 90
       50
102
RTVSPost2010PropOp50
 70
     1
102
RTVSPost2010Prop51ColorIndex
 90
      256
102
RTVSPost2010Prop51ColorRGB
 90
-16777216
102
RTVSPost2010PropOp51
 70
     0
102
RTVSPost2010Prop52
140
1.0
102
RTVSPost2010PropOp52
 70
     0
102
RTVSPost2010Prop53
 90
        2
102
RTVSPost2010PropOp53
 70
     1
102
RTVSPost2010Prop54
  1
strokes_ogs.tif
102
RTVSPost2010PropOp54
 70
     1
102
RTVSPost2010Prop55
280
     0
102
RTVSPost2010PropOp55
 70
     1
102
RTVSPost2010Prop56
140
1.0
102
RTVSPost2010PropOp56
 70
     1
102
RTVSPost2010Prop57
140
1.0
102
RTVSPost2010PropOp57
 70
     1
  0
XRECORD
  5
52F
102
{ACAD_REACTORS
330
52E
102
}
330
52E
100
AcDbXrecord
280
     1
102
RTVSPropertyOp0
 70
     1
102
RTVSPropertyOp1
 70
     1
102
RTVSPropertyOp2
 70
     1
102
RTVSPropertyOp3
 70
     1
102
RTVSPropertyOp4
 70
     1
102
RTVSPropertyOp5
 70
     1
102
RTVSPropertyOp6
 70
     1
102
RTVSPropertyOp7
 70
     1
102
RTVSPropertyOp8
 70
     1
102
RTVSPropertyOp9
 70
     1
102
RTVSPropertyOp10
 70
     1
102
RTVSPropertyOp11
 70
     1
102
RTVSPropertyOp12
 70
     1
102
RTVSPropertyOp13
 70
     1
102
RTVSPropertyOp14
 70
     1
102
RTVSPropertyOp15
 70
     1
102
RTVSPropertyOp16
 70
     1
102
RTVSPropertyOp17
 70
     1
102
RTVSPropertyOp18
 70
     1
102
RTVSPropertyOp19
 70
     1
102
RTVSPropertyOp20
 70
     1
102
RTVSPropertyOp21
 70
     1
102
RTVSPropertyOp22
 70
     1
102
RTVSPropertyOp23
 70
     1
102
RTVSPropertyOp24
 70
     1
102
RTVSPropertyOp25
 70
     1
102
RTVSPropertyOp26
 70
     1
102
RTVSPropertyOp27
 70
     1
102
RTVSPropertyOp28
 70
     1
102
RTVSPropertyOp29
 70
     1
102
RTVSPropertyOp30
 70
     1
102
RTVSPropertyOp31
 70
     1
102
RTVSPropertyOp32
 70
     1
102
RTVSPropertyOp33
 70
     1
102
RTVSPropertyOp34
 70
     1
102
RTVSPropertyOp35
 70
     1
102
RTVSPropertyOp36
 70
     1
102
RTVSPropertyOp37
 70
     1
102
RTVSPropertyOp38
 70
     1
102
RTVSPropertyOp39
 70
     1
102
RTVSPropertyOp40
 70
     1
102
RTVSPropertyOp41
 70
     1
102
RTVSPropertyOp42
 70
     1
102
RTVSPropertyOp43
 70
     1
102
RTVSPropertyOp44
 70
     1
102
RTVSPropertyOp45
 70
     1
102
RTVSPropertyOp46
 70
     1
102
RTVSPropertyOp47
 70
     1
102
RTVSPropertyOp48
 70
     1
102
RTVSPropertyOp49
 70
     1
102
RTVSPropertyOp50
 70
     1
102
RTVSPropertyOp51
 70
     0
102
RTVSPropertyOp52
 70
     0
102
RTVSPropertyOp53
 70
     1
102
RTVSPropertyOp54
 70
     1
102
RTVSPropertyOp55
 70
     1
102
RTVSPropertyOp56
 70
     1
102
RTVSPropertyOp57
 70
     1
102
RTVSPost2010Prop28
280
     0
102
RTVSPost2010PropOp28
 70
     1
102
RTVSPost2010Prop29
280
     1
102
RTVSPost2010PropOp29
 70
     1
102
RTVSPost2010Prop30
280
     1
102
RTVSPost2010PropOp30
 70
     1
102
RTVSPost2010Prop31
280
     0
102
RTVSPost2010PropOp31
 70
     1
102
RTVSPost2010Prop32
280
     0
102
RTVSPost2010PropOp32
 70
     1
102
RTVSPost2010Prop33
280
     0
102
RTVSPost2010PropOp33
 70
     1
102
RTVSPost2010Prop34
280
     0
102
RTVSPost2010PropOp34
 70
     1
102
RTVSPost2010Prop35
280
     0
102
RTVSPost2010PropOp35
 70
     1
102
RTVSPost2010Prop36
280
     0
102
RTVSPost2010PropOp36
 70
     1
102
RTVSPost2010Prop37
 90
       50
102
RTVSPost2010PropOp37
 70
     1
102
RTVSPost2010Prop38
140
0.0
102
RTVSPost2010PropOp38
 70
     1
102
RTVSPost2010Prop39
140
1.0
102
RTVSPost2010PropOp39
 70
     1
102
RTVSPost2010Prop40
 90
        0
102
RTVSPost2010PropOp40
 70
     1
102
RTVSPost2010Prop41ColorIndex
 90
       18
102
RTVSPost2010Prop41ColorRGB
 90
        0
102
RTVSPost2010PropOp41
 70
     1
102
RTVSPost2010Prop42
 90
       50
102
RTVSPost2010PropOp42
 70
     1
102
RTVSPost2010Prop43
 90
        3
102
RTVSPost2010PropOp43
 70
     1
102
RTVSPost2010Prop44ColorIndex
 90
        5
102
RTVSPost2010Prop44ColorRGB
 90
      255
102
RTVSPost2010PropOp44
 70
     1
102
RTVSPost2010Prop45
280
     0
102
RTVSPost2010PropOp45
 70
     1
102
RTVSPost2010Prop46
 90
       50
102
RTVSPost2010PropOp46
 70
     1
102
RTVSPost2010Prop47
 90
       50
102
RTVSPost2010PropOp47
 70
     1
102
RTVSPost2010Prop48
 90
       50
102
RTVSPost2010PropOp48
 70
     1
102
RTVSPost2010Prop49
280
     0
102
RTVSPost2010PropOp49
 70
     1
102
RTVSPost2010Prop50
 90
       50
102
RTVSPost2010PropOp50
 70
     1
102
RTVSPost2010Prop51ColorIndex
 90
      256
102
RTVSPost2010Prop51ColorRGB
 90
-16777216
102
RTVSPost2010PropOp51
 70
     0
102
RTVSPost2010Prop52
140
1.0
102
RTVSPost2010PropOp52
 70
     0
102
RTVSPost2010Prop53
 90
        2
102
RTVSPost2010PropOp53
 70
     1
102
RTVSPost2010Prop54
  1
strokes_ogs.tif
102
RTVSPost2010PropOp54
 70
     1
102
RTVSPost2010Prop55
280
     0
102
RTVSPost2010PropOp55
 70
     1
102
RTVSPost2010Prop56
140
1.0
102
RTVSPost2010PropOp56
 70
     1
102
RTVSPost2010Prop57
140
1.0
102
RTVSPost2010PropOp57
 70
     1
  0
XRECORD
  5
537
102
{ACAD_REACTORS
330
536
102
}
330
536
100
AcDbXrecord
280
     1
102
RTVSPropertyOp0
 70
     0
102
RTVSPropertyOp1
 70
     0
102
RTVSPropertyOp2
 70
     0
102
RTVSPropertyOp3
 70
     0
102
RTVSPropertyOp4
 70
     0
102
RTVSPropertyOp5
 70
     0
102
RTVSPropertyOp6
 70
     0
102
RTVSPropertyOp7
 70
     0
102
RTVSPropertyOp8
 70
     0
102
RTVSPropertyOp9
 70
     0
102
RTVSPropertyOp10
 70
     0
102
RTVSPropertyOp11
 70
     0
102
RTVSPropertyOp12
 70
     0
102
RTVSPropertyOp13
 70
     0
102
RTVSPropertyOp14
 70
     0
102
RTVSPropertyOp15
 70
     0
102
RTVSPropertyOp16
 70
     0
102
RTVSPropertyOp17
 70
     0
102
RTVSPropertyOp18
 70
     0
102
RTVSPropertyOp19
 70
     0
102
RTVSPropertyOp20
 70
     0
102
RTVSPropertyOp21
 70
     0
102
RTVSPropertyOp22
 70
     0
102
RTVSPropertyOp23
 70
     0
102
RTVSPropertyOp24
 70
     0
102
RTVSPropertyOp25
 70
     0
102
RTVSPropertyOp26
 70
     0
102
RTVSPropertyOp27
 70
     0
102
RTVSPropertyOp28
 70
     1
102
RTVSPropertyOp29
 70
     1
102
RTVSPropertyOp30
 70
     1
102
RTVSPropertyOp31
 70
     1
102
RTVSPropertyOp32
 70
     1
102
RTVSPropertyOp33
 70
     1
102
RTVSPropertyOp34
 70
     1
102
RTVSPropertyOp35
 70
     1
102
RTVSPropertyOp36
 70
     1
102
RTVSPropertyOp37
 70
     1
102
RTVSPropertyOp38
 70
     1
102
RTVSPropertyOp39
 70
     1
102
RTVSPropertyOp40
 70
     1
102
RTVSPropertyOp41
 70
     1
102
RTVSPropertyOp42
 70
     1
102
RTVSPropertyOp43
 70
     1
102
RTVSPropertyOp44
 70
     1
102
RTVSPropertyOp45
 70
     1
102
RTVSPropertyOp46
 70
     1
102
RTVSPropertyOp47
 70
     1
102
RTVSPropertyOp48
 70
     1
102
RTVSPropertyOp49
 70
     1
102
RTVSPropertyOp50
 70
     1
102
RTVSPropertyOp51
 70
     0
102
RTVSPropertyOp52
 70
     0
102
RTVSPropertyOp53
 70
     1
102
RTVSPropertyOp54
 70
     1
102
RTVSPropertyOp55
 70
     1
102
RTVSPropertyOp56
 70
     1
102
RTVSPropertyOp57
 70
     1
102
RTVSPost2010Prop28
280
     0
102
RTVSPost2010PropOp28
 70
     1
102
RTVSPost2010Prop29
280
     1
102
RTVSPost2010PropOp29
 70
     1
102
RTVSPost2010Prop30
280
     1
102
RTVSPost2010PropOp30
 70
     1
102
RTVSPost2010Prop31
280
     0
102
RTVSPost2010PropOp31
 70
     1
102
RTVSPost2010Prop32
280
     0
102
RTVSPost2010PropOp32
 70
     1
102
RTVSPost2010Prop33
280
     0
102
RTVSPost2010PropOp33
 70
     1
102
RTVSPost2010Prop34
280
     0
102
RTVSPost2010PropOp34
 70
     1
102
RTVSPost2010Prop35
280
     0
102
RTVSPost2010PropOp35
 70
     1
102
RTVSPost2010Prop36
280
     0
102
RTVSPost2010PropOp36
 70
     1
102
RTVSPost2010Prop37
 90
       50
102
RTVSPost2010PropOp37
 70
     1
102
RTVSPost2010Prop38
140
0.0
102
RTVSPost2010PropOp38
 70
     1
102
RTVSPost2010Prop39
140
1.0
102
RTVSPost2010PropOp39
 70
     1
102
RTVSPost2010Prop40
 90
        0
102
RTVSPost2010PropOp40
 70
     1
102
RTVSPost2010Prop41ColorIndex
 90
       18
102
RTVSPost2010Prop41ColorRGB
 90
        0
102
RTVSPost2010PropOp41
 70
     1
102
RTVSPost2010Prop42
 90
       50
102
RTVSPost2010PropOp42
 70
     1
102
RTVSPost2010Prop43
 90
        3
102
RTVSPost2010PropOp43
 70
     1
102
RTVSPost2010Prop44ColorIndex
 90
        5
102
RTVSPost2010Prop44ColorRGB
 90
      255
102
RTVSPost2010PropOp44
 70
     1
102
RTVSPost2010Prop45
280
     0
102
RTVSPost2010PropOp45
 70
     1
102
RTVSPost2010Prop46
 90
       50
102
RTVSPost2010PropOp46
 70
     1
102
RTVSPost2010Prop47
 90
       50
102
RTVSPost2010PropOp47
 70
     1
102
RTVSPost2010Prop48
 90
       50
102
RTVSPost2010PropOp48
 70
     1
102
RTVSPost2010Prop49
280
     0
102
RTVSPost2010PropOp49
 70
     1
102
RTVSPost2010Prop50
 90
       50
102
RTVSPost2010PropOp50
 70
     1
102
RTVSPost2010Prop51ColorIndex
 90
      256
102
RTVSPost2010Prop51ColorRGB
 90
-16777216
102
RTVSPost2010PropOp51
 70
     0
102
RTVSPost2010Prop52
140
1.0
102
RTVSPost2010PropOp52
 70
     0
102
RTVSPost2010Prop53
 90
        2
102
RTVSPost2010PropOp53
 70
     1
102
RTVSPost2010Prop54
  1
strokes_ogs.tif
102
RTVSPost2010PropOp54
 70
     1
102
RTVSPost2010Prop55
280
     0
102
RTVSPost2010PropOp55
 70
     1
102
RTVSPost2010Prop56
140
1.0
102
RTVSPost2010PropOp56
 70
     1
102
RTVSPost2010Prop57
140
1.0
102
RTVSPost2010PropOp57
 70
     1
  0
XRECORD
  5
525
102
{ACAD_REACTORS
330
524
102
}
330
524
100
AcDbXrecord
280
     1
102
RTVSPropertyOp0
 70
     1
102
RTVSPropertyOp1
 70
     1
102
RTVSPropertyOp2
 70
     1
102
RTVSPropertyOp3
 70
     1
102
RTVSPropertyOp4
 70
     1
102
RTVSPropertyOp5
 70
     1
102
RTVSPropertyOp6
 70
     1
102
RTVSPropertyOp7
 70
     1
102
RTVSPropertyOp8
 70
     1
102
RTVSPropertyOp9
 70
     1
102
RTVSPropertyOp10
 70
     1
102
RTVSPropertyOp11
 70
     1
102
RTVSPropertyOp12
 70
     1
102
RTVSPropertyOp13
 70
     1
102
RTVSPropertyOp14
 70
     1
102
RTVSPropertyOp15
 70
     1
102
RTVSPropertyOp16
 70
     1
102
RTVSPropertyOp17
 70
     1
102
RTVSPropertyOp18
 70
     1
102
RTVSPropertyOp19
 70
     1
102
RTVSPropertyOp20
 70
     1
102
RTVSPropertyOp21
 70
     1
102
RTVSPropertyOp22
 70
     1
102
RTVSPropertyOp23
 70
     1
102
RTVSPropertyOp24
 70
     1
102
RTVSPropertyOp25
 70
     1
102
RTVSPropertyOp26
 70
     1
102
RTVSPropertyOp27
 70
     1
102
RTVSPropertyOp28
 70
     1
102
RTVSPropertyOp29
 70
     1
102
RTVSPropertyOp30
 70
     1
102
RTVSPropertyOp31
 70
     1
102
RTVSPropertyOp32
 70
     1
102
RTVSPropertyOp33
 70
     1
102
RTVSPropertyOp34
 70
     1
102
RTVSPropertyOp35
 70
     1
102
RTVSPropertyOp36
 70
     1
102
RTVSPropertyOp37
 70
     1
102
RTVSPropertyOp38
 70
     1
102
RTVSPropertyOp39
 70
     1
102
RTVSPropertyOp40
 70
     1
102
RTVSPropertyOp41
 70
     1
102
RTVSPropertyOp42
 70
     1
102
RTVSPropertyOp43
 70
     1
102
RTVSPropertyOp44
 70
     1
102
RTVSPropertyOp45
 70
     1
102
RTVSPropertyOp46
 70
     1
102
RTVSPropertyOp47
 70
     1
102
RTVSPropertyOp48
 70
     1
102
RTVSPropertyOp49
 70
     1
102
RTVSPropertyOp50
 70
     1
102
RTVSPropertyOp51
 70
     0
102
RTVSPropertyOp52
 70
     0
102
RTVSPropertyOp53
 70
     1
102
RTVSPropertyOp54
 70
     1
102
RTVSPropertyOp55
 70
     1
102
RTVSPropertyOp56
 70
     1
102
RTVSPropertyOp57
 70
     1
102
RTVSPost2010Prop28
280
     0
102
RTVSPost2010PropOp28
 70
     1
102
RTVSPost2010Prop29
280
     1
102
RTVSPost2010PropOp29
 70
     1
102
RTVSPost2010Prop30
280
     1
102
RTVSPost2010PropOp30
 70
     1
102
RTVSPost2010Prop31
280
     0
102
RTVSPost2010PropOp31
 70
     1
102
RTVSPost2010Prop32
280
     0
102
RTVSPost2010PropOp32
 70
     1
102
RTVSPost2010Prop33
280
     0
102
RTVSPost2010PropOp33
 70
     1
102
RTVSPost2010Prop34
280
     0
102
RTVSPost2010PropOp34
 70
     1
102
RTVSPost2010Prop35
280
     0
102
RTVSPost2010PropOp35
 70
     1
102
RTVSPost2010Prop36
280
     0
102
RTVSPost2010PropOp36
 70
     1
102
RTVSPost2010Prop37
 90
       50
102
RTVSPost2010PropOp37
 70
     1
102
RTVSPost2010Prop38
140
0.0
102
RTVSPost2010PropOp38
 70
     1
102
RTVSPost2010Prop39
140
1.0
102
RTVSPost2010PropOp39
 70
     1
102
RTVSPost2010Prop40
 90
        0
102
RTVSPost2010PropOp40
 70
     1
102
RTVSPost2010Prop41ColorIndex
 90
       18
102
RTVSPost2010Prop41ColorRGB
 90
        0
102
RTVSPost2010PropOp41
 70
     1
102
RTVSPost2010Prop42
 90
       50
102
RTVSPost2010PropOp42
 70
     1
102
RTVSPost2010Prop43
 90
        3
102
RTVSPost2010PropOp43
 70
     1
102
RTVSPost2010Prop44ColorIndex
 90
        5
102
RTVSPost2010Prop44ColorRGB
 90
      255
102
RTVSPost2010PropOp44
 70
     1
102
RTVSPost2010Prop45
280
     0
102
RTVSPost2010PropOp45
 70
     1
102
RTVSPost2010Prop46
 90
       50
102
RTVSPost2010PropOp46
 70
     1
102
RTVSPost2010Prop47
 90
       50
102
RTVSPost2010PropOp47
 70
     1
102
RTVSPost2010Prop48
 90
       50
102
RTVSPost2010PropOp48
 70
     1
102
RTVSPost2010Prop49
280
     0
102
RTVSPost2010PropOp49
 70
     1
102
RTVSPost2010Prop50
 90
       50
102
RTVSPost2010PropOp50
 70
     1
102
RTVSPost2010Prop51ColorIndex
 90
      256
102
RTVSPost2010Prop51ColorRGB
 90
-16777216
102
RTVSPost2010PropOp51
 70
     0
102
RTVSPost2010Prop52
140
1.0
102
RTVSPost2010PropOp52
 70
     0
102
RTVSPost2010Prop53
 90
        2
102
RTVSPost2010PropOp53
 70
     1
102
RTVSPost2010Prop54
  1
strokes_ogs.tif
102
RTVSPost2010PropOp54
 70
     1
102
RTVSPost2010Prop55
280
     0
102
RTVSPost2010PropOp55
 70
     1
102
RTVSPost2010Prop56
140
1.0
102
RTVSPost2010PropOp56
 70
     1
102
RTVSPost2010Prop57
140
1.0
102
RTVSPost2010PropOp57
 70
     1
  0
XRECORD
  5
543
102
{ACAD_REACTORS
330
542
102
}
330
542
100
AcDbXrecord
280
     1
102
RTVSPropertyOp0
 70
     1
102
RTVSPropertyOp1
 70
     1
102
RTVSPropertyOp2
 70
     1
102
RTVSPropertyOp3
 70
     1
102
RTVSPropertyOp4
 70
     1
102
RTVSPropertyOp5
 70
     1
102
RTVSPropertyOp6
 70
     1
102
RTVSPropertyOp7
 70
     1
102
RTVSPropertyOp8
 70
     1
102
RTVSPropertyOp9
 70
     1
102
RTVSPropertyOp10
 70
     1
102
RTVSPropertyOp11
 70
     1
102
RTVSPropertyOp12
 70
     1
102
RTVSPropertyOp13
 70
     1
102
RTVSPropertyOp14
 70
     1
102
RTVSPropertyOp15
 70
     1
102
RTVSPropertyOp16
 70
     1
102
RTVSPropertyOp17
 70
     1
102
RTVSPropertyOp18
 70
     1
102
RTVSPropertyOp19
 70
     1
102
RTVSPropertyOp20
 70
     1
102
RTVSPropertyOp21
 70
     1
102
RTVSPropertyOp22
 70
     1
102
RTVSPropertyOp23
 70
     1
102
RTVSPropertyOp24
 70
     1
102
RTVSPropertyOp25
 70
     1
102
RTVSPropertyOp26
 70
     1
102
RTVSPropertyOp27
 70
     1
102
RTVSPropertyOp28
 70
     1
102
RTVSPropertyOp29
 70
     1
102
RTVSPropertyOp30
 70
     1
102
RTVSPropertyOp31
 70
     1
102
RTVSPropertyOp32
 70
     1
102
RTVSPropertyOp33
 70
     1
102
RTVSPropertyOp34
 70
     1
102
RTVSPropertyOp35
 70
     1
102
RTVSPropertyOp36
 70
     1
102
RTVSPropertyOp37
 70
     1
102
RTVSPropertyOp38
 70
     1
102
RTVSPropertyOp39
 70
     1
102
RTVSPropertyOp40
 70
     1
102
RTVSPropertyOp41
 70
     1
102
RTVSPropertyOp42
 70
     1
102
RTVSPropertyOp43
 70
     1
102
RTVSPropertyOp44
 70
     1
102
RTVSPropertyOp45
 70
     1
102
RTVSPropertyOp46
 70
     1
102
RTVSPropertyOp47
 70
     1
102
RTVSPropertyOp48
 70
     1
102
RTVSPropertyOp49
 70
     1
102
RTVSPropertyOp50
 70
     1
102
RTVSPropertyOp51
 70
     0
102
RTVSPropertyOp52
 70
     0
102
RTVSPropertyOp53
 70
     1
102
RTVSPropertyOp54
 70
     1
102
RTVSPropertyOp55
 70
     1
102
RTVSPropertyOp56
 70
     1
102
RTVSPropertyOp57
 70
     1
102
RTVSPost2010Prop28
280
     0
102
RTVSPost2010PropOp28
 70
     1
102
RTVSPost2010Prop29
280
     1
102
RTVSPost2010PropOp29
 70
     1
102
RTVSPost2010Prop30
280
     1
102
RTVSPost2010PropOp30
 70
     1
102
RTVSPost2010Prop31
280
     0
102
RTVSPost2010PropOp31
 70
     1
102
RTVSPost2010Prop32
280
     0
102
RTVSPost2010PropOp32
 70
     1
102
RTVSPost2010Prop33
280
     0
102
RTVSPost2010PropOp33
 70
     1
102
RTVSPost2010Prop34
280
     0
102
RTVSPost2010PropOp34
 70
     1
102
RTVSPost2010Prop35
280
     0
102
RTVSPost2010PropOp35
 70
     1
102
RTVSPost2010Prop36
280
     0
102
RTVSPost2010PropOp36
 70
     1
102
RTVSPost2010Prop37
 90
       50
102
RTVSPost2010PropOp37
 70
     1
102
RTVSPost2010Prop38
140
0.0
102
RTVSPost2010PropOp38
 70
     1
102
RTVSPost2010Prop39
140
1.0
102
RTVSPost2010PropOp39
 70
     1
102
RTVSPost2010Prop40
 90
        0
102
RTVSPost2010PropOp40
 70
     1
102
RTVSPost2010Prop41ColorIndex
 90
       18
102
RTVSPost2010Prop41ColorRGB
 90
        0
102
RTVSPost2010PropOp41
 70
     1
102
RTVSPost2010Prop42
 90
       50
102
RTVSPost2010PropOp42
 70
     1
102
RTVSPost2010Prop43
 90
        3
102
RTVSPost2010PropOp43
 70
     1
102
RTVSPost2010Prop44ColorIndex
 90
        5
102
RTVSPost2010Prop44ColorRGB
 90
      255
102
RTVSPost2010PropOp44
 70
     1
102
RTVSPost2010Prop45
280
     0
102
RTVSPost2010PropOp45
 70
     1
102
RTVSPost2010Prop46
 90
       50
102
RTVSPost2010PropOp46
 70
     1
102
RTVSPost2010Prop47
 90
       50
102
RTVSPost2010PropOp47
 70
     1
102
RTVSPost2010Prop48
 90
       50
102
RTVSPost2010PropOp48
 70
     1
102
RTVSPost2010Prop49
280
     0
102
RTVSPost2010PropOp49
 70
     1
102
RTVSPost2010Prop50
 90
       50
102
RTVSPost2010PropOp50
 70
     1
102
RTVSPost2010Prop51ColorIndex
 90
      256
102
RTVSPost2010Prop51ColorRGB
 90
-16777216
102
RTVSPost2010PropOp51
 70
     0
102
RTVSPost2010Prop52
140
1.0
102
RTVSPost2010PropOp52
 70
     0
102
RTVSPost2010Prop53
 90
        2
102
RTVSPost2010PropOp53
 70
     1
102
RTVSPost2010Prop54
  1
strokes_ogs.tif
102
RTVSPost2010PropOp54
 70
     1
102
RTVSPost2010Prop55
280
     0
102
RTVSPost2010PropOp55
 70
     1
102
RTVSPost2010Prop56
140
1.0
102
RTVSPost2010PropOp56
 70
     1
102
RTVSPost2010Prop57
140
1.0
102
RTVSPost2010PropOp57
 70
     1
  0
XRECORD
  5
541
102
{ACAD_REACTORS
330
540
102
}
330
540
100
AcDbXrecord
280
     1
102
RTVSPropertyOp0
 70
     1
102
RTVSPropertyOp1
 70
     1
102
RTVSPropertyOp2
 70
     1
102
RTVSPropertyOp3
 70
     1
102
RTVSPropertyOp4
 70
     1
102
RTVSPropertyOp5
 70
     1
102
RTVSPropertyOp6
 70
     1
102
RTVSPropertyOp7
 70
     1
102
RTVSPropertyOp8
 70
     1
102
RTVSPropertyOp9
 70
     1
102
RTVSPropertyOp10
 70
     1
102
RTVSPropertyOp11
 70
     1
102
RTVSPropertyOp12
 70
     1
102
RTVSPropertyOp13
 70
     1
102
RTVSPropertyOp14
 70
     1
102
RTVSPropertyOp15
 70
     1
102
RTVSPropertyOp16
 70
     1
102
RTVSPropertyOp17
 70
     1
102
RTVSPropertyOp18
 70
     1
102
RTVSPropertyOp19
 70
     1
102
RTVSPropertyOp20
 70
     1
102
RTVSPropertyOp21
 70
     1
102
RTVSPropertyOp22
 70
     1
102
RTVSPropertyOp23
 70
     1
102
RTVSPropertyOp24
 70
     1
102
RTVSPropertyOp25
 70
     1
102
RTVSPropertyOp26
 70
     1
102
RTVSPropertyOp27
 70
     1
102
RTVSPropertyOp28
 70
     1
102
RTVSPropertyOp29
 70
     1
102
RTVSPropertyOp30
 70
     1
102
RTVSPropertyOp31
 70
     1
102
RTVSPropertyOp32
 70
     1
102
RTVSPropertyOp33
 70
     1
102
RTVSPropertyOp34
 70
     1
102
RTVSPropertyOp35
 70
     1
102
RTVSPropertyOp36
 70
     1
102
RTVSPropertyOp37
 70
     1
102
RTVSPropertyOp38
 70
     1
102
RTVSPropertyOp39
 70
     1
102
RTVSPropertyOp40
 70
     1
102
RTVSPropertyOp41
 70
     1
102
RTVSPropertyOp42
 70
     1
102
RTVSPropertyOp43
 70
     1
102
RTVSPropertyOp44
 70
     1
102
RTVSPropertyOp45
 70
     1
102
RTVSPropertyOp46
 70
     1
102
RTVSPropertyOp47
 70
     1
102
RTVSPropertyOp48
 70
     1
102
RTVSPropertyOp49
 70
     1
102
RTVSPropertyOp50
 70
     1
102
RTVSPropertyOp51
 70
     0
102
RTVSPropertyOp52
 70
     0
102
RTVSPropertyOp53
 70
     1
102
RTVSPropertyOp54
 70
     1
102
RTVSPropertyOp55
 70
     1
102
RTVSPropertyOp56
 70
     1
102
RTVSPropertyOp57
 70
     1
102
RTVSPost2010Prop28
280
     0
102
RTVSPost2010PropOp28
 70
     1
102
RTVSPost2010Prop29
280
     1
102
RTVSPost2010PropOp29
 70
     1
102
RTVSPost2010Prop30
280
     1
102
RTVSPost2010PropOp30
 70
     1
102
RTVSPost2010Prop31
280
     0
102
RTVSPost2010PropOp31
 70
     1
102
RTVSPost2010Prop32
280
     0
102
RTVSPost2010PropOp32
 70
     1
102
RTVSPost2010Prop33
280
     0
102
RTVSPost2010PropOp33
 70
     1
102
RTVSPost2010Prop34
280
     0
102
RTVSPost2010PropOp34
 70
     1
102
RTVSPost2010Prop35
280
     0
102
RTVSPost2010PropOp35
 70
     1
102
RTVSPost2010Prop36
280
     0
102
RTVSPost2010PropOp36
 70
     1
102
RTVSPost2010Prop37
 90
       50
102
RTVSPost2010PropOp37
 70
     1
102
RTVSPost2010Prop38
140
0.0
102
RTVSPost2010PropOp38
 70
     1
102
RTVSPost2010Prop39
140
1.0
102
RTVSPost2010PropOp39
 70
     1
102
RTVSPost2010Prop40
 90
        0
102
RTVSPost2010PropOp40
 70
     1
102
RTVSPost2010Prop41ColorIndex
 90
       18
102
RTVSPost2010Prop41ColorRGB
 90
        0
102
RTVSPost2010PropOp41
 70
     1
102
RTVSPost2010Prop42
 90
       50
102
RTVSPost2010PropOp42
 70
     1
102
RTVSPost2010Prop43
 90
        3
102
RTVSPost2010PropOp43
 70
     1
102
RTVSPost2010Prop44ColorIndex
 90
        5
102
RTVSPost2010Prop44ColorRGB
 90
      255
102
RTVSPost2010PropOp44
 70
     1
102
RTVSPost2010Prop45
280
     0
102
RTVSPost2010PropOp45
 70
     1
102
RTVSPost2010Prop46
 90
       50
102
RTVSPost2010PropOp46
 70
     1
102
RTVSPost2010Prop47
 90
       50
102
RTVSPost2010PropOp47
 70
     1
102
RTVSPost2010Prop48
 90
       50
102
RTVSPost2010PropOp48
 70
     1
102
RTVSPost2010Prop49
280
     0
102
RTVSPost2010PropOp49
 70
     1
102
RTVSPost2010Prop50
 90
       50
102
RTVSPost2010PropOp50
 70
     1
102
RTVSPost2010Prop51ColorIndex
 90
      256
102
RTVSPost2010Prop51ColorRGB
 90
-16777216
102
RTVSPost2010PropOp51
 70
     0
102
RTVSPost2010Prop52
140
1.0
102
RTVSPost2010PropOp52
 70
     0
102
RTVSPost2010Prop53
 90
        2
102
RTVSPost2010PropOp53
 70
     1
102
RTVSPost2010Prop54
  1
strokes_ogs.tif
102
RTVSPost2010PropOp54
 70
     1
102
RTVSPost2010Prop55
280
     0
102
RTVSPost2010PropOp55
 70
     1
102
RTVSPost2010Prop56
140
1.0
102
RTVSPost2010PropOp56
 70
     1
102
RTVSPost2010Prop57
140
1.0
102
RTVSPost2010PropOp57
 70
     1
  0
XRECORD
  5
53B
102
{ACAD_REACTORS
330
53A
102
}
330
53A
100
AcDbXrecord
280
     1
102
RTVSPropertyOp0
 70
     1
102
RTVSPropertyOp1
 70
     1
102
RTVSPropertyOp2
 70
     1
102
RTVSPropertyOp3
 70
     1
102
RTVSPropertyOp4
 70
     1
102
RTVSPropertyOp5
 70
     1
102
RTVSPropertyOp6
 70
     1
102
RTVSPropertyOp7
 70
     1
102
RTVSPropertyOp8
 70
     1
102
RTVSPropertyOp9
 70
     1
102
RTVSPropertyOp10
 70
     1
102
RTVSPropertyOp11
 70
     1
102
RTVSPropertyOp12
 70
     1
102
RTVSPropertyOp13
 70
     1
102
RTVSPropertyOp14
 70
     1
102
RTVSPropertyOp15
 70
     1
102
RTVSPropertyOp16
 70
     1
102
RTVSPropertyOp17
 70
     1
102
RTVSPropertyOp18
 70
     1
102
RTVSPropertyOp19
 70
     1
102
RTVSPropertyOp20
 70
     1
102
RTVSPropertyOp21
 70
     1
102
RTVSPropertyOp22
 70
     1
102
RTVSPropertyOp23
 70
     1
102
RTVSPropertyOp24
 70
     1
102
RTVSPropertyOp25
 70
     1
102
RTVSPropertyOp26
 70
     1
102
RTVSPropertyOp27
 70
     1
102
RTVSPropertyOp28
 70
     1
102
RTVSPropertyOp29
 70
     1
102
RTVSPropertyOp30
 70
     1
102
RTVSPropertyOp31
 70
     1
102
RTVSPropertyOp32
 70
     1
102
RTVSPropertyOp33
 70
     1
102
RTVSPropertyOp34
 70
     1
102
RTVSPropertyOp35
 70
     1
102
RTVSPropertyOp36
 70
     1
102
RTVSPropertyOp37
 70
     1
102
RTVSPropertyOp38
 70
     1
102
RTVSPropertyOp39
 70
     1
102
RTVSPropertyOp40
 70
     1
102
RTVSPropertyOp41
 70
     1
102
RTVSPropertyOp42
 70
     1
102
RTVSPropertyOp43
 70
     1
102
RTVSPropertyOp44
 70
     1
102
RTVSPropertyOp45
 70
     1
102
RTVSPropertyOp46
 70
     1
102
RTVSPropertyOp47
 70
     1
102
RTVSPropertyOp48
 70
     1
102
RTVSPropertyOp49
 70
     1
102
RTVSPropertyOp50
 70
     1
102
RTVSPropertyOp51
 70
     0
102
RTVSPropertyOp52
 70
     0
102
RTVSPropertyOp53
 70
     1
102
RTVSPropertyOp54
 70
     1
102
RTVSPropertyOp55
 70
     1
102
RTVSPropertyOp56
 70
     1
102
RTVSPropertyOp57
 70
     1
102
RTVSPost2010Prop28
280
     0
102
RTVSPost2010PropOp28
 70
     1
102
RTVSPost2010Prop29
280
     1
102
RTVSPost2010PropOp29
 70
     1
102
RTVSPost2010Prop30
280
     1
102
RTVSPost2010PropOp30
 70
     1
102
RTVSPost2010Prop31
280
     0
102
RTVSPost2010PropOp31
 70
     1
102
RTVSPost2010Prop32
280
     0
102
RTVSPost2010PropOp32
 70
     1
102
RTVSPost2010Prop33
280
     0
102
RTVSPost2010PropOp33
 70
     1
102
RTVSPost2010Prop34
280
     0
102
RTVSPost2010PropOp34
 70
     1
102
RTVSPost2010Prop35
280
     0
102
RTVSPost2010PropOp35
 70
     1
102
RTVSPost2010Prop36
280
     0
102
RTVSPost2010PropOp36
 70
     1
102
RTVSPost2010Prop37
 90
       50
102
RTVSPost2010PropOp37
 70
     1
102
RTVSPost2010Prop38
140
0.0
102
RTVSPost2010PropOp38
 70
     1
102
RTVSPost2010Prop39
140
1.0
102
RTVSPost2010PropOp39
 70
     1
102
RTVSPost2010Prop40
 90
        0
102
RTVSPost2010PropOp40
 70
     1
102
RTVSPost2010Prop41ColorIndex
 90
       18
102
RTVSPost2010Prop41ColorRGB
 90
        0
102
RTVSPost2010PropOp41
 70
     1
102
RTVSPost2010Prop42
 90
       50
102
RTVSPost2010PropOp42
 70
     1
102
RTVSPost2010Prop43
 90
        3
102
RTVSPost2010PropOp43
 70
     1
102
RTVSPost2010Prop44ColorIndex
 90
        5
102
RTVSPost2010Prop44ColorRGB
 90
      255
102
RTVSPost2010PropOp44
 70
     1
102
RTVSPost2010Prop45
280
     0
102
RTVSPost2010PropOp45
 70
     1
102
RTVSPost2010Prop46
 90
       50
102
RTVSPost2010PropOp46
 70
     1
102
RTVSPost2010Prop47
 90
       50
102
RTVSPost2010PropOp47
 70
     1
102
RTVSPost2010Prop48
 90
       50
102
RTVSPost2010PropOp48
 70
     1
102
RTVSPost2010Prop49
280
     0
102
RTVSPost2010PropOp49
 70
     1
102
RTVSPost2010Prop50
 90
       50
102
RTVSPost2010PropOp50
 70
     1
102
RTVSPost2010Prop51ColorIndex
 90
      256
102
RTVSPost2010Prop51ColorRGB
 90
-16777216
102
RTVSPost2010PropOp51
 70
     0
102
RTVSPost2010Prop52
140
1.0
102
RTVSPost2010PropOp52
 70
     0
102
RTVSPost2010Prop53
 90
        2
102
RTVSPost2010PropOp53
 70
     1
102
RTVSPost2010Prop54
  1
strokes_ogs.tif
102
RTVSPost2010PropOp54
 70
     1
102
RTVSPost2010Prop55
280
     0
102
RTVSPost2010PropOp55
 70
     1
102
RTVSPost2010Prop56
140
1.0
102
RTVSPost2010PropOp56
 70
     1
102
RTVSPost2010Prop57
140
1.0
102
RTVSPost2010PropOp57
 70
     1
  0
XRECORD
  5
53D
102
{ACAD_REACTORS
330
53C
102
}
330
53C
100
AcDbXrecord
280
     1
102
RTVSPropertyOp0
 70
     1
102
RTVSPropertyOp1
 70
     1
102
RTVSPropertyOp2
 70
     1
102
RTVSPropertyOp3
 70
     1
102
RTVSPropertyOp4
 70
     1
102
RTVSPropertyOp5
 70
     1
102
RTVSPropertyOp6
 70
     1
102
RTVSPropertyOp7
 70
     1
102
RTVSPropertyOp8
 70
     1
102
RTVSPropertyOp9
 70
     1
102
RTVSPropertyOp10
 70
     1
102
RTVSPropertyOp11
 70
     1
102
RTVSPropertyOp12
 70
     1
102
RTVSPropertyOp13
 70
     1
102
RTVSPropertyOp14
 70
     1
102
RTVSPropertyOp15
 70
     1
102
RTVSPropertyOp16
 70
     1
102
RTVSPropertyOp17
 70
     1
102
RTVSPropertyOp18
 70
     1
102
RTVSPropertyOp19
 70
     1
102
RTVSPropertyOp20
 70
     1
102
RTVSPropertyOp21
 70
     1
102
RTVSPropertyOp22
 70
     1
102
RTVSPropertyOp23
 70
     1
102
RTVSPropertyOp24
 70
     1
102
RTVSPropertyOp25
 70
     1
102
RTVSPropertyOp26
 70
     1
102
RTVSPropertyOp27
 70
     1
102
RTVSPropertyOp28
 70
     1
102
RTVSPropertyOp29
 70
     1
102
RTVSPropertyOp30
 70
     1
102
RTVSPropertyOp31
 70
     1
102
RTVSPropertyOp32
 70
     1
102
RTVSPropertyOp33
 70
     1
102
RTVSPropertyOp34
 70
     1
102
RTVSPropertyOp35
 70
     1
102
RTVSPropertyOp36
 70
     1
102
RTVSPropertyOp37
 70
     1
102
RTVSPropertyOp38
 70
     1
102
RTVSPropertyOp39
 70
     1
102
RTVSPropertyOp40
 70
     1
102
RTVSPropertyOp41
 70
     1
102
RTVSPropertyOp42
 70
     1
102
RTVSPropertyOp43
 70
     1
102
RTVSPropertyOp44
 70
     1
102
RTVSPropertyOp45
 70
     1
102
RTVSPropertyOp46
 70
     1
102
RTVSPropertyOp47
 70
     1
102
RTVSPropertyOp48
 70
     1
102
RTVSPropertyOp49
 70
     1
102
RTVSPropertyOp50
 70
     1
102
RTVSPropertyOp51
 70
     0
102
RTVSPropertyOp52
 70
     0
102
RTVSPropertyOp53
 70
     1
102
RTVSPropertyOp54
 70
     1
102
RTVSPropertyOp55
 70
     1
102
RTVSPropertyOp56
 70
     1
102
RTVSPropertyOp57
 70
     1
102
RTVSPost2010Prop28
280
     0
102
RTVSPost2010PropOp28
 70
     1
102
RTVSPost2010Prop29
280
     1
102
RTVSPost2010PropOp29
 70
     1
102
RTVSPost2010Prop30
280
     1
102
RTVSPost2010PropOp30
 70
     1
102
RTVSPost2010Prop31
280
     0
102
RTVSPost2010PropOp31
 70
     1
102
RTVSPost2010Prop32
280
     0
102
RTVSPost2010PropOp32
 70
     1
102
RTVSPost2010Prop33
280
     0
102
RTVSPost2010PropOp33
 70
     1
102
RTVSPost2010Prop34
280
     0
102
RTVSPost2010PropOp34
 70
     1
102
RTVSPost2010Prop35
280
     0
102
RTVSPost2010PropOp35
 70
     1
102
RTVSPost2010Prop36
280
     0
102
RTVSPost2010PropOp36
 70
     1
102
RTVSPost2010Prop37
 90
       50
102
RTVSPost2010PropOp37
 70
     1
102
RTVSPost2010Prop38
140
0.0
102
RTVSPost2010PropOp38
 70
     1
102
RTVSPost2010Prop39
140
1.0
102
RTVSPost2010PropOp39
 70
     1
102
RTVSPost2010Prop40
 90
        0
102
RTVSPost2010PropOp40
 70
     1
102
RTVSPost2010Prop41ColorIndex
 90
       18
102
RTVSPost2010Prop41ColorRGB
 90
        0
102
RTVSPost2010PropOp41
 70
     1
102
RTVSPost2010Prop42
 90
       50
102
RTVSPost2010PropOp42
 70
     1
102
RTVSPost2010Prop43
 90
        3
102
RTVSPost2010PropOp43
 70
     1
102
RTVSPost2010Prop44ColorIndex
 90
        5
102
RTVSPost2010Prop44ColorRGB
 90
      255
102
RTVSPost2010PropOp44
 70
     1
102
RTVSPost2010Prop45
280
     0
102
RTVSPost2010PropOp45
 70
     1
102
RTVSPost2010Prop46
 90
       50
102
RTVSPost2010PropOp46
 70
     1
102
RTVSPost2010Prop47
 90
       50
102
RTVSPost2010PropOp47
 70
     1
102
RTVSPost2010Prop48
 90
       50
102
RTVSPost2010PropOp48
 70
     1
102
RTVSPost2010Prop49
280
     0
102
RTVSPost2010PropOp49
 70
     1
102
RTVSPost2010Prop50
 90
       50
102
RTVSPost2010PropOp50
 70
     1
102
RTVSPost2010Prop51ColorIndex
 90
      256
102
RTVSPost2010Prop51ColorRGB
 90
-16777216
102
RTVSPost2010PropOp51
 70
     0
102
RTVSPost2010Prop52
140
1.0
102
RTVSPost2010PropOp52
 70
     0
102
RTVSPost2010Prop53
 90
        2
102
RTVSPost2010PropOp53
 70
     1
102
RTVSPost2010Prop54
  1
strokes_ogs.tif
102
RTVSPost2010PropOp54
 70
     1
102
RTVSPost2010Prop55
280
     0
102
RTVSPost2010PropOp55
 70
     1
102
RTVSPost2010Prop56
140
1.0
102
RTVSPost2010PropOp56
 70
     1
102
RTVSPost2010Prop57
140
1.0
102
RTVSPost2010PropOp57
 70
     1
  0
XRECORD
  5
52D
102
{ACAD_REACTORS
330
52C
102
}
330
52C
100
AcDbXrecord
280
     1
102
RTVSPropertyOp0
 70
     1
102
RTVSPropertyOp1
 70
     1
102
RTVSPropertyOp2
 70
     1
102
RTVSPropertyOp3
 70
     1
102
RTVSPropertyOp4
 70
     1
102
RTVSPropertyOp5
 70
     1
102
RTVSPropertyOp6
 70
     1
102
RTVSPropertyOp7
 70
     1
102
RTVSPropertyOp8
 70
     1
102
RTVSPropertyOp9
 70
     1
102
RTVSPropertyOp10
 70
     1
102
RTVSPropertyOp11
 70
     1
102
RTVSPropertyOp12
 70
     1
102
RTVSPropertyOp13
 70
     1
102
RTVSPropertyOp14
 70
     1
102
RTVSPropertyOp15
 70
     1
102
RTVSPropertyOp16
 70
     1
102
RTVSPropertyOp17
 70
     1
102
RTVSPropertyOp18
 70
     1
102
RTVSPropertyOp19
 70
     1
102
RTVSPropertyOp20
 70
     1
102
RTVSPropertyOp21
 70
     1
102
RTVSPropertyOp22
 70
     1
102
RTVSPropertyOp23
 70
     1
102
RTVSPropertyOp24
 70
     1
102
RTVSPropertyOp25
 70
     1
102
RTVSPropertyOp26
 70
     1
102
RTVSPropertyOp27
 70
     1
102
RTVSPropertyOp28
 70
     1
102
RTVSPropertyOp29
 70
     1
102
RTVSPropertyOp30
 70
     1
102
RTVSPropertyOp31
 70
     1
102
RTVSPropertyOp32
 70
     1
102
RTVSPropertyOp33
 70
     1
102
RTVSPropertyOp34
 70
     1
102
RTVSPropertyOp35
 70
     1
102
RTVSPropertyOp36
 70
     1
102
RTVSPropertyOp37
 70
     1
102
RTVSPropertyOp38
 70
     1
102
RTVSPropertyOp39
 70
     1
102
RTVSPropertyOp40
 70
     1
102
RTVSPropertyOp41
 70
     1
102
RTVSPropertyOp42
 70
     1
102
RTVSPropertyOp43
 70
     1
102
RTVSPropertyOp44
 70
     1
102
RTVSPropertyOp45
 70
     1
102
RTVSPropertyOp46
 70
     1
102
RTVSPropertyOp47
 70
     1
102
RTVSPropertyOp48
 70
     1
102
RTVSPropertyOp49
 70
     1
102
RTVSPropertyOp50
 70
     1
102
RTVSPropertyOp51
 70
     0
102
RTVSPropertyOp52
 70
     0
102
RTVSPropertyOp53
 70
     1
102
RTVSPropertyOp54
 70
     1
102
RTVSPropertyOp55
 70
     1
102
RTVSPropertyOp56
 70
     1
102
RTVSPropertyOp57
 70
     1
102
RTVSPost2010Prop28
280
     0
102
RTVSPost2010PropOp28
 70
     1
102
RTVSPost2010Prop29
280
     1
102
RTVSPost2010PropOp29
 70
     1
102
RTVSPost2010Prop30
280
     1
102
RTVSPost2010PropOp30
 70
     1
102
RTVSPost2010Prop31
280
     0
102
RTVSPost2010PropOp31
 70
     1
102
RTVSPost2010Prop32
280
     0
102
RTVSPost2010PropOp32
 70
     1
102
RTVSPost2010Prop33
280
     0
102
RTVSPost2010PropOp33
 70
     1
102
RTVSPost2010Prop34
280
     0
102
RTVSPost2010PropOp34
 70
     1
102
RTVSPost2010Prop35
280
     0
102
RTVSPost2010PropOp35
 70
     1
102
RTVSPost2010Prop36
280
     0
102
RTVSPost2010PropOp36
 70
     1
102
RTVSPost2010Prop37
 90
       50
102
RTVSPost2010PropOp37
 70
     1
102
RTVSPost2010Prop38
140
0.0
102
RTVSPost2010PropOp38
 70
     1
102
RTVSPost2010Prop39
140
1.0
102
RTVSPost2010PropOp39
 70
     1
102
RTVSPost2010Prop40
 90
        0
102
RTVSPost2010PropOp40
 70
     1
102
RTVSPost2010Prop41ColorIndex
 90
       18
102
RTVSPost2010Prop41ColorRGB
 90
        0
102
RTVSPost2010PropOp41
 70
     1
102
RTVSPost2010Prop42
 90
       50
102
RTVSPost2010PropOp42
 70
     1
102
RTVSPost2010Prop43
 90
        3
102
RTVSPost2010PropOp43
 70
     1
102
RTVSPost2010Prop44ColorIndex
 90
        5
102
RTVSPost2010Prop44ColorRGB
 90
      255
102
RTVSPost2010PropOp44
 70
     1
102
RTVSPost2010Prop45
280
     0
102
RTVSPost2010PropOp45
 70
     1
102
RTVSPost2010Prop46
 90
       50
102
RTVSPost2010PropOp46
 70
     1
102
RTVSPost2010Prop47
 90
       50
102
RTVSPost2010PropOp47
 70
     1
102
RTVSPost2010Prop48
 90
       50
102
RTVSPost2010PropOp48
 70
     1
102
RTVSPost2010Prop49
280
     0
102
RTVSPost2010PropOp49
 70
     1
102
RTVSPost2010Prop50
 90
       50
102
RTVSPost2010PropOp50
 70
     1
102
RTVSPost2010Prop51ColorIndex
 90
      256
102
RTVSPost2010Prop51ColorRGB
 90
-16777216
102
RTVSPost2010PropOp51
 70
     0
102
RTVSPost2010Prop52
140
1.0
102
RTVSPost2010PropOp52
 70
     0
102
RTVSPost2010Prop53
 90
        2
102
RTVSPost2010PropOp53
 70
     1
102
RTVSPost2010Prop54
  1
strokes_ogs.tif
102
RTVSPost2010PropOp54
 70
     1
102
RTVSPost2010Prop55
280
     0
102
RTVSPost2010PropOp55
 70
     1
102
RTVSPost2010Prop56
140
1.0
102
RTVSPost2010PropOp56
 70
     1
102
RTVSPost2010Prop57
140
1.0
102
RTVSPost2010PropOp57
 70
     1
  0
XRECORD
  5
51F
102
{ACAD_REACTORS
330
51E
102
}
330
51E
100
AcDbXrecord
280
     1
102
RTVSPropertyOp0
 70
     1
102
RTVSPropertyOp1
 70
     1
102
RTVSPropertyOp2
 70
     1
102
RTVSPropertyOp3
 70
     1
102
RTVSPropertyOp4
 70
     1
102
RTVSPropertyOp5
 70
     1
102
RTVSPropertyOp6
 70
     1
102
RTVSPropertyOp7
 70
     1
102
RTVSPropertyOp8
 70
     1
102
RTVSPropertyOp9
 70
     1
102
RTVSPropertyOp10
 70
     1
102
RTVSPropertyOp11
 70
     1
102
RTVSPropertyOp12
 70
     1
102
RTVSPropertyOp13
 70
     1
102
RTVSPropertyOp14
 70
     1
102
RTVSPropertyOp15
 70
     1
102
RTVSPropertyOp16
 70
     1
102
RTVSPropertyOp17
 70
     1
102
RTVSPropertyOp18
 70
     1
102
RTVSPropertyOp19
 70
     1
102
RTVSPropertyOp20
 70
     1
102
RTVSPropertyOp21
 70
     1
102
RTVSPropertyOp22
 70
     1
102
RTVSPropertyOp23
 70
     1
102
RTVSPropertyOp24
 70
     1
102
RTVSPropertyOp25
 70
     1
102
RTVSPropertyOp26
 70
     1
102
RTVSPropertyOp27
 70
     1
102
RTVSPropertyOp28
 70
     1
102
RTVSPropertyOp29
 70
     1
102
RTVSPropertyOp30
 70
     1
102
RTVSPropertyOp31
 70
     1
102
RTVSPropertyOp32
 70
     1
102
RTVSPropertyOp33
 70
     1
102
RTVSPropertyOp34
 70
     1
102
RTVSPropertyOp35
 70
     1
102
RTVSPropertyOp36
 70
     1
102
RTVSPropertyOp37
 70
     1
102
RTVSPropertyOp38
 70
     1
102
RTVSPropertyOp39
 70
     1
102
RTVSPropertyOp40
 70
     1
102
RTVSPropertyOp41
 70
     1
102
RTVSPropertyOp42
 70
     1
102
RTVSPropertyOp43
 70
     1
102
RTVSPropertyOp44
 70
     1
102
RTVSPropertyOp45
 70
     1
102
RTVSPropertyOp46
 70
     1
102
RTVSPropertyOp47
 70
     1
102
RTVSPropertyOp48
 70
     1
102
RTVSPropertyOp49
 70
     1
102
RTVSPropertyOp50
 70
     1
102
RTVSPropertyOp51
 70
     0
102
RTVSPropertyOp52
 70
     0
102
RTVSPropertyOp53
 70
     1
102
RTVSPropertyOp54
 70
     1
102
RTVSPropertyOp55
 70
     1
102
RTVSPropertyOp56
 70
     1
102
RTVSPropertyOp57
 70
     1
102
RTVSPost2010Prop28
280
     0
102
RTVSPost2010PropOp28
 70
     1
102
RTVSPost2010Prop29
280
     1
102
RTVSPost2010PropOp29
 70
     1
102
RTVSPost2010Prop30
280
     1
102
RTVSPost2010PropOp30
 70
     1
102
RTVSPost2010Prop31
280
     0
102
RTVSPost2010PropOp31
 70
     1
102
RTVSPost2010Prop32
280
     0
102
RTVSPost2010PropOp32
 70
     1
102
RTVSPost2010Prop33
280
     0
102
RTVSPost2010PropOp33
 70
     1
102
RTVSPost2010Prop34
280
     0
102
RTVSPost2010PropOp34
 70
     1
102
RTVSPost2010Prop35
280
     0
102
RTVSPost2010PropOp35
 70
     1
102
RTVSPost2010Prop36
280
     0
102
RTVSPost2010PropOp36
 70
     1
102
RTVSPost2010Prop37
 90
       50
102
RTVSPost2010PropOp37
 70
     1
102
RTVSPost2010Prop38
140
0.0
102
RTVSPost2010PropOp38
 70
     1
102
RTVSPost2010Prop39
140
1.0
102
RTVSPost2010PropOp39
 70
     1
102
RTVSPost2010Prop40
 90
        0
102
RTVSPost2010PropOp40
 70
     1
102
RTVSPost2010Prop41ColorIndex
 90
       18
102
RTVSPost2010Prop41ColorRGB
 90
        0
102
RTVSPost2010PropOp41
 70
     1
102
RTVSPost2010Prop42
 90
       50
102
RTVSPost2010PropOp42
 70
     1
102
RTVSPost2010Prop43
 90
        3
102
RTVSPost2010PropOp43
 70
     1
102
RTVSPost2010Prop44ColorIndex
 90
        5
102
RTVSPost2010Prop44ColorRGB
 90
      255
102
RTVSPost2010PropOp44
 70
     1
102
RTVSPost2010Prop45
280
     0
102
RTVSPost2010PropOp45
 70
     1
102
RTVSPost2010Prop46
 90
       50
102
RTVSPost2010PropOp46
 70
     1
102
RTVSPost2010Prop47
 90
       50
102
RTVSPost2010PropOp47
 70
     1
102
RTVSPost2010Prop48
 90
       50
102
RTVSPost2010PropOp48
 70
     1
102
RTVSPost2010Prop49
280
     0
102
RTVSPost2010PropOp49
 70
     1
102
RTVSPost2010Prop50
 90
       50
102
RTVSPost2010PropOp50
 70
     1
102
RTVSPost2010Prop51ColorIndex
 90
      256
102
RTVSPost2010Prop51ColorRGB
 90
-16777216
102
RTVSPost2010PropOp51
 70
     0
102
RTVSPost2010Prop52
140
1.0
102
RTVSPost2010PropOp52
 70
     0
102
RTVSPost2010Prop53
 90
        2
102
RTVSPost2010PropOp53
 70
     1
102
RTVSPost2010Prop54
  1
strokes_ogs.tif
102
RTVSPost2010PropOp54
 70
     1
102
RTVSPost2010Prop55
280
     0
102
RTVSPost2010PropOp55
 70
     1
102
RTVSPost2010Prop56
140
1.0
102
RTVSPost2010PropOp56
 70
     1
102
RTVSPost2010Prop57
140
1.0
102
RTVSPost2010PropOp57
 70
     1
  0
XRECORD
  5
53F
102
{ACAD_REACTORS
330
53E
102
}
330
53E
100
AcDbXrecord
280
     1
102
RTVSPropertyOp0
 70
     1
102
RTVSPropertyOp1
 70
     1
102
RTVSPropertyOp2
 70
     1
102
RTVSPropertyOp3
 70
     1
102
RTVSPropertyOp4
 70
     1
102
RTVSPropertyOp5
 70
     1
102
RTVSPropertyOp6
 70
     1
102
RTVSPropertyOp7
 70
     1
102
RTVSPropertyOp8
 70
     1
102
RTVSPropertyOp9
 70
     1
102
RTVSPropertyOp10
 70
     1
102
RTVSPropertyOp11
 70
     1
102
RTVSPropertyOp12
 70
     1
102
RTVSPropertyOp13
 70
     1
102
RTVSPropertyOp14
 70
     1
102
RTVSPropertyOp15
 70
     1
102
RTVSPropertyOp16
 70
     1
102
RTVSPropertyOp17
 70
     1
102
RTVSPropertyOp18
 70
     1
102
RTVSPropertyOp19
 70
     1
102
RTVSPropertyOp20
 70
     1
102
RTVSPropertyOp21
 70
     1
102
RTVSPropertyOp22
 70
     1
102
RTVSPropertyOp23
 70
     1
102
RTVSPropertyOp24
 70
     1
102
RTVSPropertyOp25
 70
     1
102
RTVSPropertyOp26
 70
     1
102
RTVSPropertyOp27
 70
     1
102
RTVSPropertyOp28
 70
     1
102
RTVSPropertyOp29
 70
     1
102
RTVSPropertyOp30
 70
     1
102
RTVSPropertyOp31
 70
     1
102
RTVSPropertyOp32
 70
     1
102
RTVSPropertyOp33
 70
     1
102
RTVSPropertyOp34
 70
     1
102
RTVSPropertyOp35
 70
     1
102
RTVSPropertyOp36
 70
     1
102
RTVSPropertyOp37
 70
     1
102
RTVSPropertyOp38
 70
     1
102
RTVSPropertyOp39
 70
     1
102
RTVSPropertyOp40
 70
     1
102
RTVSPropertyOp41
 70
     1
102
RTVSPropertyOp42
 70
     1
102
RTVSPropertyOp43
 70
     1
102
RTVSPropertyOp44
 70
     1
102
RTVSPropertyOp45
 70
     1
102
RTVSPropertyOp46
 70
     1
102
RTVSPropertyOp47
 70
     1
102
RTVSPropertyOp48
 70
     1
102
RTVSPropertyOp49
 70
     1
102
RTVSPropertyOp50
 70
     1
102
RTVSPropertyOp51
 70
     0
102
RTVSPropertyOp52
 70
     0
102
RTVSPropertyOp53
 70
     1
102
RTVSPropertyOp54
 70
     1
102
RTVSPropertyOp55
 70
     1
102
RTVSPropertyOp56
 70
     1
102
RTVSPropertyOp57
 70
     1
102
RTVSPost2010Prop28
280
     0
102
RTVSPost2010PropOp28
 70
     1
102
RTVSPost2010Prop29
280
     1
102
RTVSPost2010PropOp29
 70
     1
102
RTVSPost2010Prop30
280
     1
102
RTVSPost2010PropOp30
 70
     1
102
RTVSPost2010Prop31
280
     0
102
RTVSPost2010PropOp31
 70
     1
102
RTVSPost2010Prop32
280
     0
102
RTVSPost2010PropOp32
 70
     1
102
RTVSPost2010Prop33
280
     0
102
RTVSPost2010PropOp33
 70
     1
102
RTVSPost2010Prop34
280
     0
102
RTVSPost2010PropOp34
 70
     1
102
RTVSPost2010Prop35
280
     0
102
RTVSPost2010PropOp35
 70
     1
102
RTVSPost2010Prop36
280
     0
102
RTVSPost2010PropOp36
 70
     1
102
RTVSPost2010Prop37
 90
       50
102
RTVSPost2010PropOp37
 70
     1
102
RTVSPost2010Prop38
140
0.0
102
RTVSPost2010PropOp38
 70
     1
102
RTVSPost2010Prop39
140
1.0
102
RTVSPost2010PropOp39
 70
     1
102
RTVSPost2010Prop40
 90
        0
102
RTVSPost2010PropOp40
 70
     1
102
RTVSPost2010Prop41ColorIndex
 90
       18
102
RTVSPost2010Prop41ColorRGB
 90
        0
102
RTVSPost2010PropOp41
 70
     1
102
RTVSPost2010Prop42
 90
       50
102
RTVSPost2010PropOp42
 70
     1
102
RTVSPost2010Prop43
 90
        3
102
RTVSPost2010PropOp43
 70
     1
102
RTVSPost2010Prop44ColorIndex
 90
        5
102
RTVSPost2010Prop44ColorRGB
 90
      255
102
RTVSPost2010PropOp44
 70
     1
102
RTVSPost2010Prop45
280
     0
102
RTVSPost2010PropOp45
 70
     1
102
RTVSPost2010Prop46
 90
       50
102
RTVSPost2010PropOp46
 70
     1
102
RTVSPost2010Prop47
 90
       50
102
RTVSPost2010PropOp47
 70
     1
102
RTVSPost2010Prop48
 90
       50
102
RTVSPost2010PropOp48
 70
     1
102
RTVSPost2010Prop49
280
     0
102
RTVSPost2010PropOp49
 70
     1
102
RTVSPost2010Prop50
 90
       50
102
RTVSPost2010PropOp50
 70
     1
102
RTVSPost2010Prop51ColorIndex
 90
      256
102
RTVSPost2010Prop51ColorRGB
 90
-16777216
102
RTVSPost2010PropOp51
 70
     0
102
RTVSPost2010Prop52
140
1.0
102
RTVSPost2010PropOp52
 70
     0
102
RTVSPost2010Prop53
 90
        2
102
RTVSPost2010PropOp53
 70
     1
102
RTVSPost2010Prop54
  1
strokes_ogs.tif
102
RTVSPost2010PropOp54
 70
     1
102
RTVSPost2010Prop55
280
     0
102
RTVSPost2010PropOp55
 70
     1
102
RTVSPost2010Prop56
140
1.0
102
RTVSPost2010PropOp56
 70
     1
102
RTVSPost2010Prop57
140
1.0
102
RTVSPost2010PropOp57
 70
     1
  0
ENDSEC
  0
EOF
