  0
SECTION
  2
HEADER
  9
$ACADVER
  1
AC1015
  9
$ACADMAINTVER
 70
     6
  9
$DWGCODEPAGE
  3
ANSI_932
  9
$INSBASE
 10
3112.055554466871
 20
1891.955333212003
 30
0.0
  9
$EXTMIN
 10
189.4844409593979
 20
11.37420154948791
 30
0.0
  9
$EXTMAX
 10
2128.797887563359
 20
2013.69356697536
 30
0.0
  9
$LIMMIN
 10
0.0
 20
0.0
  9
$LIMMAX
 10
816.5000000000001
 20
565.0
  9
$ORTHOMODE
 70
     0
  9
$REGENMODE
 70
     1
  9
$FILLMODE
 70
     1
  9
$QTEXTMODE
 70
     0
  9
$MIRRTEXT
 70
     1
  9
$LTSCALE
 40
20.0
  9
$ATTMODE
 70
     1
  9
$TEXTSIZE
 40
21.0
  9
$TRACEWID
 40
0.05
  9
$TEXTSTYLE
  7
KANJI
  9
$CLAYER
  8
2
  9
$CELTYPE
  6
BYLAYER
  9
$CECOLOR
 62
   256
  9
$CELTSCALE
 40
1.0
  9
$DISPSILH
 70
     0
  9
$DIMSCALE
 40
7.0
  9
$DIMASZ
 40
2.0
  9
$DIMEXO
 40
0.5
  9
$DIMDLI
 40
0.0
  9
$DIMRND
 40
0.0
  9
$DIMDLE
 40
0.0
  9
$DIMEXE
 40
1.0
  9
$DIMTP
 40
0.0
  9
$DIMTM
 40
0.0
  9
$DIMTXT
 40
3.0
  9
$DIMCEN
 40
0.09
  9
$DIMTSZ
 40
0.0
  9
$DIMTOL
 70
     0
  9
$DIMLIM
 70
     0
  9
$DIMTIH
 70
     0
  9
$DIMTOH
 70
     0
  9
$DIMSE1
 70
     0
  9
$DIMSE2
 70
     0
  9
$DIMTAD
 70
     0
  9
$DIMZIN
 70
     8
  9
$DIMBLK
  1

  9
$DIMASO
 70
     0
  9
$DIMSHO
 70
     0
  9
$DIMPOST
  1

  9
$DIMAPOST
  1

  9
$DIMALT
 70
     0
  9
$DIMALTD
 70
     2
  9
$DIMALTF
 40
25.4
  9
$DIMLFAC
 40
1.0
  9
$DIMTOFL
 70
     1
  9
$DIMTVP
 40
1.0
  9
$DIMTIX
 70
     1
  9
$DIMSOXD
 70
     1
  9
$DIMSAH
 70
     0
  9
$DIMBLK1
  1

  9
$DIMBLK2
  1

  9
$DIMSTYLE
  2
STANDARD
  9
$DIMCLRD
 70
   256
  9
$DIMCLRE
 70
   256
  9
$DIMCLRT
 70
   256
  9
$DIMTFAC
 40
1.0
  9
$DIMGAP
 40
0.09
  9
$DIMJUST
 70
     0
  9
$DIMSD1
 70
     0
  9
$DIMSD2
 70
     0
  9
$DIMTOLJ
 70
     1
  9
$DIMTZIN
 70
     0
  9
$DIMALTZ
 70
     0
  9
$DIMALTTZ
 70
     0
  9
$DIMUPT
 70
     0
  9
$DIMDEC
 70
     1
  9
$DIMTDEC
 70
     4
  9
$DIMALTU
 70
     2
  9
$DIMALTTD
 70
     2
  9
$DIMTXSTY
  7
STANDARD
  9
$DIMAUNIT
 70
     0
  9
$DIMADEC
 70
     0
  9
$DIMALTRND
 40
0.0
  9
$DIMAZIN
 70
     0
  9
$DIMDSEP
 70
    46
  9
$DIMATFIT
 70
     3
  9
$DIMFRAC
 70
     0
  9
$DIMLDRBLK
  1

  9
$DIMLUNIT
 70
     2
  9
$DIMLWD
 70
    -2
  9
$DIMLWE
 70
    -2
  9
$DIMTMOVE
 70
     0
  9
$LUNITS
 70
     2
  9
$LUPREC
 70
     3
  9
$SKETCHINC
 40
0.1
  9
$FILLETRAD
 40
3.0
  9
$AUNITS
 70
     0
  9
$AUPREC
 70
     3
  9
$MENU
  1
C:\R13\WIN\SUPPORT\ACADFULL
  9
$ELEVATION
 40
0.0
  9
$PELEVATION
 40
0.0
  9
$THICKNESS
 40
0.0
  9
$LIMCHECK
 70
     0
  9
$CHAMFERA
 40
0.0
  9
$CHAMFERB
 40
0.0
  9
$CHAMFERC
 40
0.0
  9
$CHAMFERD
 40
0.0
  9
$SKPOLY
 70
     0
  9
$TDCREATE
 40
2457240.490428437
  9
$TDUCREATE
 40
2457240.115428437
  9
$TDUPDATE
 40
2457871.835924665
  9
$TDUUPDATE
 40
2457871.460924665
  9
$TDINDWG
 40
0.0434655903
  9
$TDUSRTIMER
 40
0.0434647685
  9
$USRTIMER
 70
     1
  9
$ANGBASE
 50
0.0
  9
$ANGDIR
 70
     0
  9
$PDMODE
 70
     0
  9
$PDSIZE
 40
0.0
  9
$PLINEWID
 40
0.0
  9
$SPLFRAME
 70
     0
  9
$SPLINETYPE
 70
     6
  9
$SPLINESEGS
 70
     8
  9
$HANDSEED
  5
6A4
  9
$SURFTAB1
 70
     6
  9
$SURFTAB2
 70
     6
  9
$SURFTYPE
 70
     6
  9
$SURFU
 70
     6
  9
$SURFV
 70
     6
  9
$UCSBASE
  2

  9
$UCSNAME
  2

  9
$UCSORG
 10
0.0
 20
0.0
 30
0.0
  9
$UCSXDIR
 10
1.0
 20
0.0
 30
0.0
  9
$UCSYDIR
 10
0.0
 20
1.0
 30
0.0
  9
$UCSORTHOREF
  2

  9
$UCSORTHOVIEW
 70
     0
  9
$UCSORGTOP
 10
0.0
 20
0.0
 30
0.0
  9
$UCSORGBOTTOM
 10
0.0
 20
0.0
 30
0.0
  9
$UCSORGLEFT
 10
0.0
 20
0.0
 30
0.0
  9
$UCSORGRIGHT
 10
0.0
 20
0.0
 30
0.0
  9
$UCSORGFRONT
 10
0.0
 20
0.0
 30
0.0
  9
$UCSORGBACK
 10
0.0
 20
0.0
 30
0.0
  9
$PUCSBASE
  2

  9
$PUCSNAME
  2

  9
$PUCSORG
 10
0.0
 20
0.0
 30
0.0
  9
$PUCSXDIR
 10
1.0
 20
0.0
 30
0.0
  9
$PUCSYDIR
 10
0.0
 20
1.0
 30
0.0
  9
$PUCSORTHOREF
  2

  9
$PUCSORTHOVIEW
 70
     0
  9
$PUCSORGTOP
 10
0.0
 20
0.0
 30
0.0
  9
$PUCSORGBOTTOM
 10
0.0
 20
0.0
 30
0.0
  9
$PUCSORGLEFT
 10
0.0
 20
0.0
 30
0.0
  9
$PUCSORGRIGHT
 10
0.0
 20
0.0
 30
0.0
  9
$PUCSORGFRONT
 10
0.0
 20
0.0
 30
0.0
  9
$PUCSORGBACK
 10
0.0
 20
0.0
 30
0.0
  9
$USERI1
 70
     0
  9
$USERI2
 70
     0
  9
$USERI3
 70
     0
  9
$USERI4
 70
     0
  9
$USERI5
 70
     0
  9
$USERR1
 40
0.0
  9
$USERR2
 40
0.0
  9
$USERR3
 40
0.0
  9
$USERR4
 40
2448925.372986111
  9
$USERR5
 40
0.04166667
  9
$WORLDVIEW
 70
     1
  9
$SHADEDGE
 70
     3
  9
$SHADEDIF
 70
    70
  9
$TILEMODE
 70
     1
  9
$MAXACTVP
 70
    16
  9
$PINSBASE
 10
0.0
 20
0.0
 30
0.0
  9
$PLIMCHECK
 70
     0
  9
$PEXTMIN
 10
1.000000000000000E+20
 20
1.000000000000000E+20
 30
1.000000000000000E+20
  9
$PEXTMAX
 10
-1.000000000000000E+20
 20
-1.000000000000000E+20
 30
-1.000000000000000E+20
  9
$PLIMMIN
 10
0.0
 20
0.0
  9
$PLIMMAX
 10
12.0
 20
9.0
  9
$UNITMODE
 70
     0
  9
$VISRETAIN
 70
     0
  9
$PLINEGEN
 70
     0
  9
$PSLTSCALE
 70
     0
  9
$TREEDEPTH
 70
  3020
  9
$CMLSTYLE
  2
STANDARD
  9
$CMLJUST
 70
     0
  9
$CMLSCALE
 40
1.0
  9
$PROXYGRAPHICS
 70
     1
  9
$MEASUREMENT
 70
     0
  9
$CELWEIGHT
370
    -1
  9
$ENDCAPS
280
     0
  9
$JOINSTYLE
280
     0
  9
$LWDISPLAY
290
     0
  9
$INSUNITS
 70
     0
  9
$HYPERLINKBASE
  1

  9
$STYLESHEET
  1

  9
$XEDIT
290
     1
  9
$CEPSNTYPE
380
     0
  9
$PSTYLEMODE
290
     1
  9
$FINGERPRINTGUID
  2
{55E465B5-3B9E-478D-8045-983A30E7D355}
  9
$VERSIONGUID
  2
{83B6759B-213C-411F-B8FB-BC17A64F6077}
  9
$EXTNAMES
290
     1
  9
$PSVPSCALE
 40
0.0
  9
$OLESTARTUP
290
     0
  0
ENDSEC
  0
SECTION
  2
CLASSES
  0
CLASS
  1
ACDBDICTIONARYWDFLT
  2
AcDbDictionaryWithDefault
  3
ObjectDBX Classes
 90
        0
280
     0
281
     0
  0
CLASS
  1
MATERIAL
  2
AcDbMaterial
  3
ObjectDBX Classes
 90
     1153
280
     0
281
     0
  0
CLASS
  1
SORTENTSTABLE
  2
AcDbSortentsTable
  3
ObjectDBX Classes
 90
        0
280
     0
281
     0
  0
CLASS
  1
SCALE
  2
AcDbScale
  3
ObjectDBX Classes
 90
     1153
280
     0
281
     0
  0
CLASS
  1
DICTIONARYVAR
  2
AcDbDictionaryVar
  3
ObjectDBX Classes
 90
        0
280
     0
281
     0
  0
CLASS
  1
VISUALSTYLE
  2
AcDbVisualStyle
  3
ObjectDBX Classes
 90
     4095
280
     0
281
     0
  0
CLASS
  1
MLEADERSTYLE
  2
AcDbMLeaderStyle
  3
ACDB_MLEADERSTYLE_CLASS
 90
     4095
280
     0
281
     0
  0
CLASS
  1
TABLESTYLE
  2
AcDbTableStyle
  3
ObjectDBX Classes
 90
     4095
280
     0
281
     0
  0
CLASS
  1
ACDBPLACEHOLDER
  2
AcDbPlaceHolder
  3
ObjectDBX Classes
 90
        0
280
     0
281
     0
  0
CLASS
  1
LAYOUT
  2
AcDbLayout
  3
ObjectDBX Classes
 90
        0
280
     0
281
     0
  0
ENDSEC
  0
SECTION
  2
TABLES
  0
TABLE
  2
VPORT
  5
26
102
{ACAD_XDICTIONARY
360
669
102
}
330
0
100
AcDbSymbolTable
 70
     2
  0
VPORT
  5
2B
330
26
100
AcDbSymbolTableRecord
100
AcDbViewportTableRecord
  2
*Active
 70
     0
 10
0.0
 20
0.0
 11
1.0
 21
1.0
 12
2050.155693879681
 22
1091.654539919477
 13
0.0
 23
0.0
 14
1.0
 24
1.0
 15
50.0
 25
50.0
 16
0.0
 26
0.0
 36
1.0
 17
0.0
 27
0.0
 37
0.0
 40
2221.124983492112
 41
2.174107142857143
 42
50.0
 43
0.0
 44
0.0
 50
0.0
 51
0.0
 71
     0
 72
  5000
 73
     1
 74
     0
 75
     0
 76
     0
 77
     0
 78
     1
281
     0
 65
     1
110
0.0
120
0.0
130
0.0
111
1.0
121
0.0
131
0.0
112
0.0
122
1.0
132
0.0
 79
     0
146
0.0
  0
ENDTAB
  0
TABLE
  2
LTYPE
  5
B
330
0
100
AcDbSymbolTable
 70
     2
  0
LTYPE
  5
C
330
B
100
AcDbSymbolTableRecord
100
AcDbLinetypeTableRecord
  2
BYBLOCK
 70
     0
  3

 72
    65
 73
     0
 40
0.0
  0
LTYPE
  5
D
330
B
100
AcDbSymbolTableRecord
100
AcDbLinetypeTableRecord
  2
BYLAYER
 70
     0
  3

 72
    65
 73
     0
 40
0.0
  0
LTYPE
  5
A
330
B
100
AcDbSymbolTableRecord
100
AcDbLinetypeTableRecord
  2
CONTINUOUS
 70
     0
  3
Solid line
 72
    65
 73
     0
 40
0.0
  0
LTYPE
  5
82
330
B
100
AcDbSymbolTableRecord
100
AcDbLinetypeTableRecord
  2
CENTER
 70
     0
  3
____ _ ____ _ ____ _ ____ _ ____ _ ____ _ ____
 72
    65
 73
     4
 40
2.0
 49
1.25
 74
     0
 49
-0.25
 74
     0
 49
0.25
 74
     0
 49
-0.25
 74
     0
  0
ENDTAB
  0
TABLE
  2
LAYER
  5
2
330
0
100
AcDbSymbolTable
 70
     9
  0
LAYER
  5
1B
330
2
100
AcDbSymbolTableRecord
100
AcDbLayerTableRecord
  2
0
 70
     0
 62
     7
  6
CONTINUOUS
370
    -3
390
3
  0
LAYER
  5
445
330
2
100
AcDbSymbolTableRecord
100
AcDbLayerTableRecord
  2
1
 70
     0
 62
     9
  6
CONTINUOUS
370
    -3
390
3
  0
LAYER
  5
1
330
2
100
AcDbSymbolTableRecord
100
AcDbLayerTableRecord
  2
2
 70
     0
 62
     4
  6
CONTINUOUS
370
    -3
390
3
  0
LAYER
  5
72
330
2
100
AcDbSymbolTableRecord
100
AcDbLayerTableRecord
  2
4
 70
     0
 62
     3
  6
CONTINUOUS
370
    -3
390
3
  0
LAYER
  5
81
330
2
100
AcDbSymbolTableRecord
100
AcDbLayerTableRecord
  2
L-CENTER
 70
     0
 62
     1
  6
CENTER
370
    -3
390
3
  0
LAYER
  5
9D
330
2
100
AcDbSymbolTableRecord
100
AcDbLayerTableRecord
  2
3
 70
     0
 62
     2
  6
CONTINUOUS
370
    -3
390
3
  0
LAYER
  5
43E
330
2
100
AcDbSymbolTableRecord
100
AcDbLayerTableRecord
  2
5
 70
     0
 62
     6
  6
CONTINUOUS
370
    -3
390
3
  0
LAYER
  5
5F0
330
2
100
AcDbSymbolTableRecord
100
AcDbLayerTableRecord
  2
Defpoints
 70
     0
 62
     7
  6
CONTINUOUS
290
     0
370
    -3
390
3
  0
ENDTAB
  0
TABLE
  2
STYLE
  5
F
330
0
100
AcDbSymbolTable
 70
     2
  0
STYLE
  5
13
330
F
100
AcDbSymbolTableRecord
100
AcDbTextStyleTableRecord
  2
STANDARD
 70
     0
 40
0.0
 41
1.0
 50
0.0
 71
     0
 42
12.6
  3
TXT
  4

  0
STYLE
  5
E
330
F
100
AcDbSymbolTableRecord
100
AcDbTextStyleTableRecord
  2
KANJI
 70
     0
 40
0.0
 41
1.0
 50
0.0
 71
     0
 42
21.0
  3
TXT
  4
BIGFONT
  0
ENDTAB
  0
TABLE
  2
VIEW
  5
24
330
0
100
AcDbSymbolTable
 70
     0
  0
ENDTAB
  0
TABLE
  2
UCS
  5
25
330
0
100
AcDbSymbolTable
 70
     0
  0
ENDTAB
  0
TABLE
  2
APPID
  5
9
330
0
100
AcDbSymbolTable
 70
     3
  0
APPID
  5
8
330
9
100
AcDbSymbolTableRecord
100
AcDbRegAppTableRecord
  2
ACAD
 70
     0
  0
APPID
  5
1F
330
9
100
AcDbSymbolTableRecord
100
AcDbRegAppTableRecord
  2
ACAD_PSEXT
 70
     0
  0
APPID
  5
5C7
330
9
100
AcDbSymbolTableRecord
100
AcDbRegAppTableRecord
  2
ACAD_MLEADERVER
 70
     0
  0
ENDTAB
  0
TABLE
  2
DIMSTYLE
  5
12
330
0
100
AcDbSymbolTable
 70
     1
100
AcDbDimStyleTable
  0
DIMSTYLE
105
11
330
12
100
AcDbSymbolTableRecord
100
AcDbDimStyleTableRecord
  2
STANDARD
 70
     0
178
     0
340
13
  0
ENDTAB
  0
TABLE
  2
BLOCK_RECORD
  5
16
330
0
100
AcDbSymbolTable
 70
     0
  0
BLOCK_RECORD
  5
17
102
{ACAD_XDICTIONARY
360
18
102
}
330
16
100
AcDbSymbolTableRecord
100
AcDbBlockTableRecord
  2
*MODEL_SPACE
340
1D
  0
BLOCK_RECORD
  5
20
330
16
100
AcDbSymbolTableRecord
100
AcDbBlockTableRecord
  2
*PAPER_SPACE
340
23
  0
ENDTAB
  0
ENDSEC
  0
SECTION
  2
BLOCKS
  0
BLOCK
  5
1A
330
17
100
AcDbEntity
  8
0
100
AcDbBlockBegin
  2
*MODEL_SPACE
 70
     0
 10
0.0
 20
0.0
 30
0.0
  3
*MODEL_SPACE
  1

  0
ENDBLK
  5
1C
330
17
100
AcDbEntity
  8
0
100
AcDbBlockEnd
  0
BLOCK
  5
21
330
20
100
AcDbEntity
 67
     1
  8
0
100
AcDbBlockBegin
  2
*PAPER_SPACE
 70
     0
 10
0.0
 20
0.0
 30
0.0
  3
*PAPER_SPACE
  1

  0
ENDBLK
  5
22
330
20
100
AcDbEntity
 67
     1
  8
0
100
AcDbBlockEnd
  0
ENDSEC
  0
SECTION
  2
ENTITIES
  0
LINE
  5
71
330
17
100
AcDbEntity
  8
4
100
AcDbLine
 10
605.1931849607618
 20
1998.817571322912
 30
0.0
 11
639.6931849607618
 21
1998.817571322912
 31
0.0
  0
LINE
  5
73
330
17
100
AcDbEntity
  8
4
100
AcDbLine
 10
607.1931849607618
 20
2000.817571322912
 30
0.0
 11
696.1931849607618
 21
2000.817571322912
 31
0.0
  0
LINE
  5
74
330
17
100
AcDbEntity
  8
4
100
AcDbLine
 10
663.6931849607618
 20
1998.817571322912
 30
0.0
 11
698.1931849607618
 21
1998.817571322912
 31
0.0
  0
LINE
  5
75
330
17
100
AcDbEntity
  8
4
100
AcDbLine
 10
698.1931849607618
 20
1998.817571322912
 30
0.0
 11
696.1931849607618
 21
2000.817571322912
 31
0.0
  0
LINE
  5
76
330
17
100
AcDbEntity
  8
4
100
AcDbLine
 10
605.1931849607618
 20
1998.817571322912
 30
0.0
 11
607.1931849607618
 21
2000.817571322912
 31
0.0
  0
LINE
  5
77
330
17
100
AcDbEntity
  8
4
100
AcDbLine
 10
942.6931879607628
 20
268.637628549488
 30
0.0
 11
942.6931879607628
 21
98.37420654948801
 31
0.0
  0
ARC
  5
78
330
17
100
AcDbEntity
  8
4
100
AcDbCircle
 10
-51.80681503923779
 20
373.374204549488
 30
0.0
 40
999.9999799999999
100
AcDbArc
 50
344.997174
 51
15.00329100000002
  0
LINE
  5
79
330
17
100
AcDbEntity
  8
4
100
AcDbLine
 10
871.6931819607626
 20
133.374206549488
 30
0.0
 11
871.6931819607626
 21
88.37420254948802
 31
0.0
  0
LINE
  5
7A
330
17
100
AcDbEntity
  8
4
100
AcDbLine
 10
723.8889869607619
 20
256.077570549488
 30
0.0
 11
709.7815649607628
 21
121.8239125494881
 31
0.0
  0
LINE
  5
7B
330
17
100
AcDbEntity
  8
4
100
AcDbLine
 10
431.6931879607623
 20
133.374206549488
 30
0.0
 11
431.6931879607623
 21
88.37420254948802
 31
0.0
  0
LINE
  5
7C
330
17
100
AcDbEntity
  8
4
100
AcDbLine
 10
579.497382960762
 20
256.077570549488
 30
0.0
 11
593.6048049607621
 21
121.8239125494881
 31
0.0
  0
LINE
  5
7D
330
17
100
AcDbEntity
  8
4
100
AcDbLine
 10
360.6931819607621
 20
268.637628549488
 30
0.0
 11
360.6931819607621
 21
98.37420654948801
 31
0.0
  0
ARC
  5
7E
330
17
100
AcDbEntity
  8
4
100
AcDbCircle
 10
1355.193184960762
 20
373.374204549488
 30
0.0
 40
999.9999869999999
100
AcDbArc
 50
164.997041
 51
195.003216
  0
ARC
  5
7F
330
17
100
AcDbEntity
  8
4
100
AcDbCircle
 10
651.6931849607618
 20
373.374204549488
 30
0.0
 40
263.499999
100
AcDbArc
 50
95.61760396893148
 51
84.38239603106854
  0
LINE
  5
80
330
17
100
AcDbEntity
  8
L-CENTER
 48
2.0
100
AcDbLine
 10
651.6931849607618
 20
888.3742075494886
 30
0.0
 11
651.6931849607618
 21
61.93182784449868
 31
0.0
  0
LINE
  5
83
330
17
100
AcDbEntity
  8
4
100
AcDbLine
 10
446.6931869607624
 20
133.374206549488
 30
0.0
 11
446.6931869607624
 21
33.37420154948791
 31
0.0
  0
LINE
  5
84
330
17
100
AcDbEntity
  8
4
100
AcDbLine
 10
856.6931829607629
 20
133.374206549488
 30
0.0
 11
856.6931829607629
 21
33.37420154948791
 31
0.0
  0
CIRCLE
  5
85
330
17
100
AcDbEntity
  8
4
100
AcDbCircle
 10
651.6931849607618
 20
373.374204549488
 30
0.0
 40
293.499997
  0
ARC
  5
86
330
17
100
AcDbEntity
  8
4
100
AcDbCircle
 10
651.6934299607628
 20
1076.874449549488
 30
0.0
 40
999.999952
100
AcDbArc
 50
254.9967529999999
 51
257.29121
  0
LINE
  5
87
330
17
100
AcDbEntity
  8
4
100
AcDbLine
 10
443.693182960762
 20
88.37420254948802
 30
0.0
 11
314.6931859607621
 21
88.37420254948802
 31
0.0
  0
LINE
  5
88
330
17
100
AcDbEntity
  8
4
100
AcDbLine
 10
481.693186960762
 20
33.37420154948791
 30
0.0
 11
311.6931819607621
 21
33.37420154948791
 31
0.0
  0
LINE
  5
8F
330
17
100
AcDbEntity
  8
4
100
AcDbLine
 10
311.6931819607621
 20
33.37420154948791
 30
0.0
 11
311.6931819607621
 21
85.37420554948812
 31
0.0
  0
LINE
  5
90
330
17
100
AcDbEntity
  8
L-CENTER
 48
2.0
100
AcDbLine
 10
371.6931849607622
 20
110.374202549488
 30
0.0
 11
371.6931849607622
 21
11.37420154948791
 31
0.0
  0
ARC
  5
91
330
17
100
AcDbEntity
  8
4
100
AcDbCircle
 10
314.6931859607621
 20
85.37420554948812
 30
0.0
 40
2.999997
100
AcDbArc
 50
90.0
 51
180.0
  0
ARC
  5
92
330
17
100
AcDbEntity
  8
4
100
AcDbCircle
 10
350.6931849607622
 20
98.37420654948801
 30
0.0
 40
9.999996999999999
100
AcDbArc
 50
270.0
 51
0.0
  0
LINE
  5
93
330
17
100
AcDbEntity
  8
4
100
AcDbLine
 10
357.6931849607622
 20
91.2327785494881
 30
0.0
 11
357.6931849607622
 21
103.3742015494879
 31
0.0
  0
LINE
  5
94
330
17
100
AcDbEntity
  8
4
100
AcDbLine
 10
357.6931849607622
 20
95.87420554948812
 30
0.0
 11
356.193182960762
 21
95.87420554948812
 31
0.0
  0
LINE
  5
95
330
17
100
AcDbEntity
  8
4
100
AcDbLine
 10
356.193182960762
 20
90.02255554948783
 30
0.0
 11
356.193182960762
 21
95.87420554948812
 31
0.0
  0
LINE
  5
96
330
17
100
AcDbEntity
  8
4
100
AcDbLine
 10
357.6931849607622
 20
103.3742015494879
 30
0.0
 11
360.6931819607621
 21
103.3742015494879
 31
0.0
  0
ARC
  5
97
330
17
100
AcDbEntity
  8
4
100
AcDbCircle
 10
394.1118889607619
 20
115.793391549488
 30
0.0
 40
5.000016
100
AcDbArc
 50
195.0038580000004
 51
254.9988459999981
  0
ARC
  5
98
330
17
100
AcDbEntity
  8
4
100
AcDbCircle
 10
651.6929399607625
 20
1076.874449549488
 30
0.0
 40
999.999952
100
AcDbArc
 50
282.709235
 51
285.0036810000001
  0
LINE
  5
99
330
17
100
AcDbEntity
  8
4
100
AcDbLine
 10
859.6931869607624
 20
88.37420254948802
 30
0.0
 11
988.6931839607614
 21
88.37420254948802
 31
0.0
  0
LINE
  5
9A
330
17
100
AcDbEntity
  8
4
100
AcDbLine
 10
821.6931829607629
 20
33.37420154948791
 30
0.0
 11
991.6931879607628
 21
33.37420154948791
 31
0.0
  0
LINE
  5
9B
330
17
100
AcDbEntity
  8
4
100
AcDbLine
 10
747.6931869607624
 20
73.3742035494879
 30
0.0
 11
555.6931829607624
 21
73.3742035494879
 31
0.0
  0
ARC
  5
9F
330
17
100
AcDbEntity
  8
4
100
AcDbCircle
 10
651.6934299607628
 20
1076.874449549488
 30
0.0
 40
999.9999590000002
100
AcDbArc
 50
258.170657
 51
281.829485
  0
LINE
  5
A0
330
17
100
AcDbEntity
  8
4
100
AcDbLine
 10
489.0840529607622
 20
55.37176454948803
 30
0.0
 11
555.6931829607624
 21
73.3742035494879
 31
0.0
  0
ARC
  5
A1
330
17
100
AcDbEntity
  8
4
100
AcDbCircle
 10
491.6931839607623
 20
45.71819754948797
 30
0.0
 40
9.999969
100
AcDbArc
 50
105.1243370000003
 51
180.0
  0
LINE
  5
A2
330
17
100
AcDbEntity
  8
4
100
AcDbLine
 10
481.693186960762
 20
45.71819754948797
 30
0.0
 11
481.693186960762
 21
33.37420154948791
 31
0.0
  0
ARC
  5
A3
330
17
100
AcDbEntity
  8
4
100
AcDbCircle
 10
443.693182960762
 20
85.37420554948812
 30
0.0
 40
2.999997
100
AcDbArc
 50
0.0
 51
90.0
  0
ARC
  5
A4
330
17
100
AcDbEntity
  8
4
100
AcDbCircle
 10
589.6267819607624
 20
121.4059425494881
 30
0.0
 40
3.999919
100
AcDbArc
 50
256.1605359999976
 51
5.998026999999534
  0
LINE
  5
A5
330
17
100
AcDbEntity
  8
4
100
AcDbLine
 10
814.3023169607623
 20
55.37176454948803
 30
0.0
 11
747.6931869607624
 21
73.3742035494879
 31
0.0
  0
ARC
  5
A6
330
17
100
AcDbEntity
  8
4
100
AcDbCircle
 10
713.7595949607621
 20
121.4059425494881
 30
0.0
 40
3.999919
100
AcDbArc
 50
174.0019740000006
 51
283.8394640000024
  0
ARC
  5
A7
330
17
100
AcDbEntity
  8
4
100
AcDbCircle
 10
811.6931859607621
 20
45.71819754948797
 30
0.0
 40
9.999969
100
AcDbArc
 50
0.0
 51
74.87566299999703
  0
LWPOLYLINE
  5
A8
330
17
100
AcDbEntity
  8
4
100
AcDbPolyline
 90
       43
 70
     0
 43
0.0
 10
900.5864169607621
 20
88.37420254948802
 10
900.1471459607628
 20
87.61934354948812
 10
899.7660729607624
 20
86.84970054948803
 10
899.4502049607627
 20
86.06350254948802
 10
899.2065489607621
 20
85.25897154948802
 10
899.0421049607621
 20
84.43432254948789
 10
898.9638939607621
 20
83.5877845494881
 10
899.0040109607626
 20
82.29063554948789
 10
899.1654239607624
 20
80.9633165494879
 10
899.3636849607619
 20
79.62792654948794
 10
899.5143459607616
 20
78.30653654948787
 10
899.5329659607623
 20
77.021231549488
 10
899.3350899607622
 20
75.7940965494879
 10
898.9667709607629
 20
74.84507854948811
 10
898.4329159607623
 20
73.94088154948804
 10
897.7695469607615
 20
73.07258754948793
 10
895.3624149607622
 20
70.59398554948802
 10
893.0859449607624
 20
68.11752554948794
 10
892.5242089607627
 20
67.25089754948817
 10
892.1210229607623
 20
66.34883554948806
 10
891.9124089607621
 20
65.40242854948792
 10
891.9651329607623
 20
64.04035454948803
 10
892.2938319607629
 20
62.61185754948815
 10
892.749930960762
 20
61.14857054948811
 10
893.1848689607623
 20
59.68214754948804
 10
893.4500709607628
 20
58.24422154948797
 10
893.3969829607622
 20
56.86645354948791
 10
892.8027459607629
 20
55.35075754948798
 10
891.7822299607624
 20
53.92357654948796
 10
890.5550669607628
 20
52.54643154948803
 10
889.3408819607621
 20
51.18085054948801
 10
888.3593069607623
 20
49.78835454948808
 10
887.8299669607622
 20
48.33046454948794
 10
887.870062960762
 20
46.91948154948795
 10
888.2911899607616
 20
45.44687054948804
 10
888.9149529607621
 20
43.93749554948795
 10
889.5629289607623
 20
42.41620654948815
 10
890.0567159607626
 20
40.90787454948781
 10
890.2554809607618
 20
39.33379854948794
 10
890.1165449607624
 20
37.798110549488
 10
889.6814739607626
 20
36.29609954948796
 10
888.991798960762
 20
34.82304054948804
 10
888.0890649607618
 20
33.37420154948791
  0
LINE
  5
A9
330
17
100
AcDbEntity
  8
4
100
AcDbLine
 10
821.6931829607629
 20
45.71819754948797
 30
0.0
 11
821.6931829607629
 21
33.37420154948791
 31
0.0
  0
ARC
  5
AA
330
17
100
AcDbEntity
  8
4
100
AcDbCircle
 10
859.6931869607624
 20
85.37420554948812
 30
0.0
 40
2.999997
100
AcDbArc
 50
90.0
 51
180.0
  0
TEXT
  5
AC
330
17
100
AcDbEntity
  8
3
100
AcDbText
 10
1225.16726598637
 20
30.39125210982797
 30
0.0
 40
21.0
  1
LB10-06
  7
KANJI
100
AcDbText
  0
LINE
  5
B4
330
17
100
AcDbEntity
  8
4
100
AcDbLine
 10
991.6931879607628
 20
33.37420154948791
 30
0.0
 11
991.6931879607628
 21
85.37420554948812
 31
0.0
  0
LINE
  5
B5
330
17
100
AcDbEntity
  8
4
100
AcDbLine
 10
918.6931839607614
 20
88.37420254948802
 30
0.0
 11
918.6931839607614
 21
33.37420154948791
 31
0.0
  0
LINE
  5
B6
330
17
100
AcDbEntity
  8
L-CENTER
100
AcDbLine
 10
931.6931849607618
 20
110.374202549488
 30
0.0
 11
931.6931849607618
 21
11.37420154948791
 31
0.0
  0
LINE
  5
B7
330
17
100
AcDbEntity
  8
4
100
AcDbLine
 10
944.6931859607621
 20
88.37420254948802
 30
0.0
 11
944.6931859607621
 21
33.37420154948791
 31
0.0
  0
ARC
  5
B9
330
17
100
AcDbEntity
  8
4
100
AcDbCircle
 10
952.6931849607618
 20
98.37420654948801
 30
0.0
 40
9.999996999999999
100
AcDbArc
 50
180.0
 51
270.0
  0
ARC
  5
BA
330
17
100
AcDbEntity
  8
4
100
AcDbCircle
 10
909.274480960762
 20
115.793391549488
 30
0.0
 40
5.000016
100
AcDbArc
 50
285.0011650000034
 51
344.9961450000004
  0
ARC
  5
BB
330
17
100
AcDbEntity
  8
4
100
AcDbCircle
 10
988.6931839607614
 20
85.37420554948812
 30
0.0
 40
2.999997
100
AcDbArc
 50
0.0
 51
90.0
  0
LINE
  5
C2
330
17
100
AcDbEntity
  8
4
100
AcDbLine
 10
398.6931859607621
 20
816.3742025494878
 30
0.0
 11
414.6931839607623
 21
816.3742025494878
 31
0.0
  0
LINE
  5
C3
330
17
100
AcDbEntity
  8
4
100
AcDbLine
 10
414.6931839607623
 20
818.3742075494881
 30
0.0
 11
398.6931859607621
 21
818.3742075494881
 31
0.0
  0
LINE
  5
C4
330
17
100
AcDbEntity
  8
4
100
AcDbLine
 10
414.6931839607623
 20
819.3742065494882
 30
0.0
 11
400.6931839607623
 21
819.3742065494882
 31
0.0
  0
LINE
  5
C5
330
17
100
AcDbEntity
  8
4
100
AcDbLine
 10
418.9431849607622
 20
792.3742055494884
 30
0.0
 11
410.443182960762
 21
792.3742055494884
 31
0.0
  0
ARC
  5
C6
330
17
100
AcDbEntity
  8
4
100
AcDbCircle
 10
410.443182960762
 20
782.8429565494882
 30
0.0
 40
9.531249
100
AcDbArc
 50
63.51896000000171
 51
116.4810399999983
  0
LINE
  5
C7
330
17
100
AcDbEntity
  8
4
100
AcDbLine
 10
414.6931839607623
 20
800.374204549488
 30
0.0
 11
399.6931849607622
 21
800.374204549488
 31
0.0
  0
LINE
  5
C8
330
17
100
AcDbEntity
  8
4
100
AcDbLine
 10
534.3965509607619
 20
301.1784025494881
 30
0.0
 11
400.1428929607623
 21
315.2858245494881
 31
0.0
  0
LINE
  5
C9
330
17
100
AcDbEntity
  8
4
100
AcDbLine
 10
534.3965509607619
 20
445.5700065494882
 30
0.0
 11
400.1428929607623
 21
431.4625845494882
 31
0.0
  0
LINE
  5
CA
330
17
100
AcDbEntity
  8
L-CENTER
 48
2.0
100
AcDbLine
 10
963.135561665752
 20
373.374204549488
 30
0.0
 11
340.2508082557729
 21
373.374204549488
 31
0.0
  0
ARC
  5
CB
330
17
100
AcDbEntity
  8
4
100
AcDbCircle
 10
651.6934299607628
 20
-330.1260404505119
 30
0.0
 40
999.999945
100
AcDbArc
 50
74.99665200000001
 51
105.0035540000001
  0
LINE
  5
CC
330
17
100
AcDbEntity
  8
4
100
AcDbLine
 10
938.6931849607618
 20
785.3742055494884
 30
0.0
 11
364.6931849607622
 21
785.3742055494884
 31
0.0
  0
LINE
  5
CD
330
17
100
AcDbEntity
  8
L-CENTER
 48
2.0
100
AcDbLine
 10
1113.899495960762
 20
668.3742035494877
 30
0.0
 11
189.4868739607618
 21
668.3742035494877
 31
0.0
  0
LINE
  5
CF
330
17
100
AcDbEntity
  8
4
100
AcDbLine
 10
359.693182960762
 20
553.8742025494878
 30
0.0
 11
359.693182960762
 21
782.874204549488
 31
0.0
  0
LINE
  5
D0
330
17
100
AcDbEntity
  8
4
100
AcDbLine
 10
364.6931849607622
 20
695.8742075494881
 30
0.0
 11
364.6931849607622
 21
785.3742055494884
 31
0.0
  0
LINE
  5
D1
330
17
100
AcDbEntity
  8
4
100
AcDbLine
 10
339.2932849607623
 20
554.8742015494879
 30
0.0
 11
339.2932849607623
 21
781.8742055494874
 31
0.0
  0
LINE
  5
D2
330
17
100
AcDbEntity
  8
4
100
AcDbLine
 10
352.1931869607624
 20
262.3742035494879
 30
0.0
 11
347.1931849607622
 21
262.3742035494879
 31
0.0
  0
LINE
  5
D3
330
17
100
AcDbEntity
  8
L-CENTER
 48
2.0
100
AcDbLine
 10
340.9249509607621
 20
253.3742055494881
 30
0.0
 11
391.6850175870582
 21
253.3742055494881
 31
0.0
  0
LINE
  5
D4
330
17
100
AcDbEntity
  8
4
100
AcDbLine
 10
354.1931849607622
 20
271.3742015494879
 30
0.0
 11
347.1931849607622
 21
271.3742015494879
 31
0.0
  0
LINE
  5
D5
330
17
100
AcDbEntity
  8
4
100
AcDbLine
 10
354.1931849607622
 20
235.3742025494882
 30
0.0
 11
347.1931849607622
 21
235.3742025494882
 31
0.0
  0
LINE
  5
D6
330
17
100
AcDbEntity
  8
4
100
AcDbLine
 10
352.1931869607624
 20
244.3742075494881
 30
0.0
 11
347.1931849607622
 21
244.3742075494881
 31
0.0
  0
LINE
  5
D7
330
17
100
AcDbEntity
  8
4
100
AcDbLine
 10
347.1931849607622
 20
235.3742025494882
 30
0.0
 11
347.1931849607622
 21
271.3742015494879
 31
0.0
  0
LINE
  5
D8
330
17
100
AcDbEntity
  8
4
100
AcDbLine
 10
355.6931869607624
 20
273.3742065494878
 30
0.0
 11
355.6931869607624
 21
233.374204549488
 31
0.0
  0
LINE
  5
D9
330
17
100
AcDbEntity
  8
4
100
AcDbLine
 10
352.1931869607624
 20
235.3742025494882
 30
0.0
 11
352.1931869607624
 21
271.3742015494879
 31
0.0
  0
LINE
  5
DA
330
17
100
AcDbEntity
  8
4
100
AcDbLine
 10
354.1931849607622
 20
235.3742025494882
 30
0.0
 11
354.1931849607622
 21
271.3742015494879
 31
0.0
  0
LINE
  5
DB
330
17
100
AcDbEntity
  8
4
100
AcDbLine
 10
355.6931869607624
 20
236.3742015494879
 30
0.0
 11
355.6931869607624
 21
270.3742025494882
 31
0.0
  0
LINE
  5
DC
330
17
100
AcDbEntity
  8
4
100
AcDbLine
 10
354.1931849607622
 20
236.3742015494879
 30
0.0
 11
355.6931869607624
 21
236.3742015494879
 31
0.0
  0
LINE
  5
DD
330
17
100
AcDbEntity
  8
4
100
AcDbLine
 10
360.6931819607621
 20
233.374204549488
 30
0.0
 11
355.6931869607624
 21
233.374204549488
 31
0.0
  0
LINE
  5
DE
330
17
100
AcDbEntity
  8
4
100
AcDbLine
 10
355.6931869607624
 20
270.3742025494882
 30
0.0
 11
354.1931849607622
 21
270.3742025494882
 31
0.0
  0
LINE
  5
DF
330
17
100
AcDbEntity
  8
4
100
AcDbLine
 10
355.6931869607624
 20
273.3742065494878
 30
0.0
 11
360.2056389607619
 21
273.3742065494878
 31
0.0
  0
ARC
  5
E0
330
17
100
AcDbEntity
  8
4
100
AcDbCircle
 10
399.7249229607623
 20
311.3077945494881
 30
0.0
 40
3.999919
100
AcDbArc
 50
84.00198900000268
 51
193.8394639999988
  0
ARC
  5
E1
330
17
100
AcDbEntity
  8
4
100
AcDbCircle
 10
399.7249229607623
 20
435.4406075494878
 30
0.0
 40
3.999919
100
AcDbArc
 50
166.1605360000012
 51
275.9980130000007
  0
LINE
  5
E2
330
17
100
AcDbEntity
  8
4
100
AcDbLine
 10
364.6931849607622
 20
510.8869015494881
 30
0.0
 11
364.6931849607622
 21
640.8742065494882
 31
0.0
  0
LINE
  5
E3
330
17
100
AcDbEntity
  8
4
100
AcDbLine
 10
340.2932809607623
 20
553.8742055494874
 30
0.0
 11
364.6931849607627
 21
553.874205549487
 31
0.0
  0
ARC
  5
E4
330
17
100
AcDbEntity
  8
4
100
AcDbCircle
 10
340.2932809607623
 20
554.8742015494879
 30
0.0
 40
1.000002
100
AcDbArc
 50
180.0
 51
270.0
  0
ARC
  5
E5
330
17
100
AcDbEntity
  8
4
100
AcDbCircle
 10
359.693182960762
 20
640.8742065494882
 30
0.0
 40
5.000002
100
AcDbArc
 50
0.0
 51
90.0
  0
ARC
  5
E6
330
17
100
AcDbEntity
  8
4
100
AcDbCircle
 10
394.1121339607621
 20
630.9552555494881
 30
0.0
 40
5.000051000000001
100
AcDbArc
 50
105.0038660000003
 51
164.9961340000001
  0
ARC
  5
E7
330
17
100
AcDbEntity
  8
4
100
AcDbCircle
 10
359.693182960762
 20
695.8742075494881
 30
0.0
 40
5.000002
100
AcDbArc
 50
270.0
 51
0.0
  0
LINE
  5
E8
330
17
100
AcDbEntity
  8
4
100
AcDbLine
 10
340.2932809607623
 20
782.8742015494879
 30
0.0
 11
364.7490949607622
 21
782.8742015494879
 31
0.0
  0
ARC
  5
E9
330
17
100
AcDbEntity
  8
4
100
AcDbCircle
 10
340.2932809607623
 20
781.8742055494874
 30
0.0
 40
1.000002
100
AcDbArc
 50
90.0
 51
180.0
  0
LINE
  5
EA
330
17
100
AcDbEntity
  8
4
100
AcDbLine
 10
399.6931849607622
 20
800.374204549488
 30
0.0
 11
399.6931849607622
 21
816.3742025494878
 31
0.0
  0
ARC
  5
EB
330
17
100
AcDbEntity
  8
4
100
AcDbCircle
 10
400.1931879607623
 20
794.3742035494877
 30
0.0
 40
6.000001
100
AcDbArc
 50
0.0
 51
90.0
  0
LINE
  5
EC
330
17
100
AcDbEntity
  8
4
100
AcDbLine
 10
406.1931819607621
 20
794.3742035494877
 30
0.0
 11
406.1931819607621
 21
785.3742055494884
 31
0.0
  0
LINE
  5
ED
330
17
100
AcDbEntity
  8
4
100
AcDbLine
 10
400.6931839607623
 20
819.3742065494882
 30
0.0
 11
398.6931859607621
 21
818.3742075494881
 31
0.0
  0
LINE
  5
EE
330
17
100
AcDbEntity
  8
4
100
AcDbLine
 10
398.6931859607621
 20
816.3742025494878
 30
0.0
 11
398.6931859607621
 21
818.3742075494881
 31
0.0
  0
LINE
  5
F2
330
17
100
AcDbEntity
  8
L-CENTER
 48
2.0
100
AcDbLine
 10
491.6931839607623
 20
806.4242625494878
 30
0.0
 11
491.6931839607623
 21
765.382170975168
 31
0.0
  0
LINE
  5
F3
330
17
100
AcDbEntity
  8
L-CENTER
 48
2.0
100
AcDbLine
 10
414.6931839607623
 20
824.9237085494881
 30
0.0
 11
414.6931839607623
 21
770.5159281735957
 31
0.0
  0
LINE
  5
F5
330
17
100
AcDbEntity
  8
4
100
AcDbLine
 10
943.6931869607624
 20
553.8742025494878
 30
0.0
 11
943.6931869607624
 21
782.874204549488
 31
0.0
  0
LINE
  5
F7
330
17
100
AcDbEntity
  8
4
100
AcDbLine
 10
964.0930849607621
 20
781.8742055494874
 30
0.0
 11
964.0930849607621
 21
554.8742015494879
 31
0.0
  0
LINE
  5
F8
330
17
100
AcDbEntity
  8
4
100
AcDbLine
 10
938.6931849607627
 20
695.8742075494881
 30
0.0
 11
938.6931849607618
 21
785.3742055494884
 31
0.0
  0
ARC
  5
F9
330
17
100
AcDbEntity
  8
4
100
AcDbCircle
 10
903.6614469607621
 20
435.4406075494878
 30
0.0
 40
3.999919
100
AcDbArc
 50
264.0019730000022
 51
13.8394639999992
  0
ARC
  5
FA
330
17
100
AcDbEntity
  8
4
100
AcDbCircle
 10
903.6614469607621
 20
311.3077945494881
 30
0.0
 40
3.999919
100
AcDbArc
 50
346.1605360000008
 51
95.99802599999295
  0
ARC
  5
FB
330
17
100
AcDbEntity
  8
4
100
AcDbCircle
 10
1036.693184960762
 20
373.3739595494881
 30
0.0
 40
499.999997
100
AcDbArc
 50
168.365257
 51
191.634886
  0
ARC
  5
FC
330
17
100
AcDbEntity
  8
4
100
AcDbCircle
 10
1043.693184960762
 20
373.3739595494881
 30
0.0
 40
499.999934
100
AcDbArc
 50
169.0540530000001
 51
190.946089
  0
ARC
  5
FD
330
17
100
AcDbEntity
  8
4
100
AcDbCircle
 10
266.6931849607622
 20
373.3739595494881
 30
0.0
 40
500.000018
100
AcDbArc
 50
348.365427
 51
11.63493999999998
  0
ARC
  5
FE
330
17
100
AcDbEntity
  8
4
100
AcDbCircle
 10
259.6931849607622
 20
373.3739595494881
 30
0.0
 40
499.999934
100
AcDbArc
 50
349.054196
 51
10.946232
  0
ARC
  5
FF
330
17
100
AcDbEntity
  8
4
100
AcDbCircle
 10
651.6931849607618
 20
765.374204549488
 30
0.0
 40
500.000018
100
AcDbArc
 50
259.053998
 51
280.9461720000001
  0
ARC
  5
100
330
17
100
AcDbEntity
  8
4
100
AcDbCircle
 10
651.6931849607618
 20
758.374204549488
 30
0.0
 40
500.000018
100
AcDbArc
 50
258.3652299999999
 51
281.63492
  0
LINE
  5
101
330
17
100
AcDbEntity
  8
4
100
AcDbLine
 10
431.6931879607623
 20
133.374206549488
 30
0.0
 11
446.6931869607624
 21
133.374206549488
 31
0.0
  0
ARC
  5
102
330
17
100
AcDbEntity
  8
4
100
AcDbCircle
 10
551.8640849607623
 20
273.5451045494881
 30
0.0
 40
4.999939
100
AcDbArc
 50
191.6342
 51
258.3658
  0
ARC
  5
103
330
17
100
AcDbEntity
  8
4
100
AcDbCircle
 10
557.6992919607624
 20
279.3803045494881
 30
0.0
 40
4.999910999999999
100
AcDbArc
 50
190.9467090000004
 51
259.0532890000006
  0
ARC
  5
104
330
17
100
AcDbEntity
  8
4
100
AcDbCircle
 10
569.552314960762
 20
255.032407549488
 30
0.0
 40
10.000011
100
AcDbArc
 50
5.999267999999933
 51
80.73153799999903
  0
ARC
  5
105
330
17
100
AcDbEntity
  8
4
100
AcDbCircle
 10
533.3516329607623
 20
455.5150745494882
 30
0.0
 40
9.999996999999999
100
AcDbArc
 50
275.9978719999987
 51
350.731537
  0
ARC
  5
106
330
17
100
AcDbEntity
  8
4
100
AcDbCircle
 10
533.3513879607622
 20
291.2333345494881
 30
0.0
 40
10.000011
100
AcDbArc
 50
9.26845599999964
 51
84.0007320000007
  0
ARC
  5
107
330
17
100
AcDbEntity
  8
4
100
AcDbCircle
 10
733.8340549607628
 20
255.032407549488
 30
0.0
 40
10.000011
100
AcDbArc
 50
99.2684560000036
 51
174.0007320000008
  0
ARC
  5
108
330
17
100
AcDbEntity
  8
4
100
AcDbCircle
 10
745.6870849607621
 20
279.3803045494881
 30
0.0
 40
4.999910999999999
100
AcDbArc
 50
280.9467110000047
 51
349.0532890000007
  0
ARC
  5
109
330
17
100
AcDbEntity
  8
4
100
AcDbCircle
 10
751.5222849607626
 20
273.5451045494881
 30
0.0
 40
4.999939
100
AcDbArc
 50
281.6341999999893
 51
348.3658
  0
LINE
  5
10A
330
17
100
AcDbEntity
  8
4
100
AcDbLine
 10
871.6931819607626
 20
133.374206549488
 30
0.0
 11
856.6931829607629
 21
133.374206549488
 31
0.0
  0
LINE
  5
10B
330
17
100
AcDbEntity
  8
4
100
AcDbLine
 10
768.989818960762
 20
445.5700065494882
 30
0.0
 11
903.2434769607617
 21
431.4625845494882
 31
0.0
  0
LINE
  5
10C
330
17
100
AcDbEntity
  8
4
100
AcDbLine
 10
768.989818960762
 20
301.1784025494881
 30
0.0
 11
903.2434769607617
 21
315.2858245494881
 31
0.0
  0
ARC
  5
10D
330
17
100
AcDbEntity
  8
4
100
AcDbCircle
 10
770.0349819607627
 20
291.2333345494881
 30
0.0
 40
10.000011
100
AcDbArc
 50
95.99926800000198
 51
170.7315440000017
  0
ARC
  5
10E
330
17
100
AcDbEntity
  8
4
100
AcDbCircle
 10
770.0347369607616
 20
455.5150745494882
 30
0.0
 40
9.999996999999999
100
AcDbArc
 50
189.2684620000003
 51
264.0021230000042
  0
ARC
  5
10F
330
17
100
AcDbEntity
  8
4
100
AcDbCircle
 10
651.6931849607618
 20
-18.62579545051199
 30
0.0
 40
500.000032
100
AcDbArc
 50
79.05382799999997
 51
100.946314
  0
ARC
  5
110
330
17
100
AcDbEntity
  8
4
100
AcDbCircle
 10
651.6931849607618
 20
-11.62579545051199
 30
0.0
 40
499.999976
100
AcDbArc
 50
78.36510699999998
 51
101.634858
  0
ARC
  5
111
330
17
100
AcDbEntity
  8
4
100
AcDbCircle
 10
551.864329960762
 20
473.2033045494879
 30
0.0
 40
4.999967000000001
100
AcDbArc
 50
101.6369389999988
 51
168.365800000001
  0
ARC
  5
112
330
17
100
AcDbEntity
  8
4
100
AcDbCircle
 10
557.6992919607624
 20
467.3680975494879
 30
0.0
 40
4.999910999999999
100
AcDbArc
 50
100.9467089999976
 51
169.0532909999996
  0
ARC
  5
113
330
17
100
AcDbEntity
  8
4
100
AcDbCircle
 10
745.6870849607621
 20
467.3680975494879
 30
0.0
 40
4.999910999999999
100
AcDbArc
 50
10.94671099999932
 51
79.05329099999679
  0
ARC
  5
114
330
17
100
AcDbEntity
  8
4
100
AcDbCircle
 10
751.5220399607624
 20
473.2033045494879
 30
0.0
 40
4.999967000000001
100
AcDbArc
 50
11.63419999999898
 51
78.36306099999615
  0
LINE
  5
116
330
17
100
AcDbEntity
  8
4
100
AcDbLine
 10
965.0930869607628
 20
623.3742055494874
 30
0.0
 11
965.0930869607628
 21
657.4045484348851
 31
0.0
  0
LINE
  5
117
330
17
100
AcDbEntity
  8
4
100
AcDbLine
 10
938.6931849607618
 20
510.8869015494881
 30
0.0
 11
938.6931849607618
 21
640.8742065494882
 31
0.0
  0
LINE
  5
118
330
17
100
AcDbEntity
  8
L-CENTER
 48
2.0
100
AcDbLine
 10
981.0920569607615
 20
583.9369475494875
 30
0.0
 11
918.5110549607625
 21
583.9369475494875
 31
0.0
  0
ARC
  5
119
330
17
100
AcDbEntity
  8
4
100
AcDbCircle
 10
963.0930889607616
 20
554.8742015494879
 30
0.0
 40
1.000002
100
AcDbArc
 50
270.0
 51
0.0
  0
LINE
  5
11A
330
17
100
AcDbEntity
  8
4
100
AcDbLine
 10
963.0930889607616
 20
553.8742055494874
 30
0.0
 11
938.6931849607618
 21
553.8742055494874
 31
0.0
  0
LINE
  5
11B
330
17
100
AcDbEntity
  8
4
100
AcDbLine
 10
964.0930849607621
 20
623.3742055494874
 30
0.0
 11
965.0930869607628
 21
623.3742055494874
 31
0.0
  0
LINE
  5
11C
330
17
100
AcDbEntity
  8
4
100
AcDbLine
 10
981.6931849607618
 20
636.8742035494877
 30
0.0
 11
1100.693182960763
 21
636.8742035494877
 31
0.0
  0
LINE
  5
11D
330
17
100
AcDbEntity
  8
4
100
AcDbLine
 10
1101.693184960762
 20
705.8742035494877
 30
0.0
 11
991.6931869607624
 21
705.8742035494877
 31
0.0
  0
LINE
  5
11E
330
17
100
AcDbEntity
  8
4
100
AcDbLine
 10
981.6931849607618
 20
699.8742035494877
 30
0.0
 11
1100.693182960763
 21
699.8742035494877
 31
0.0
  0
LINE
  5
11F
330
17
100
AcDbEntity
  8
4
100
AcDbLine
 10
991.6931869607624
 20
705.8742035494877
 30
0.0
 11
991.6931869607624
 21
699.8742035494877
 31
0.0
  0
LINE
  5
120
330
17
100
AcDbEntity
  8
4
100
AcDbLine
 10
965.0930869607628
 20
679.3438586640912
 30
0.0
 11
965.0930869607628
 21
713.3742015494879
 31
0.0
  0
LINE
  5
121
330
17
100
AcDbEntity
  8
4
100
AcDbLine
 10
981.6931849607618
 20
700.8742055494874
 30
0.0
 11
981.6931849607618
 21
635.8742015494879
 31
0.0
  0
LINE
  5
122
330
17
100
AcDbEntity
  8
4
100
AcDbLine
 10
981.6931849607618
 20
635.8742015494879
 30
0.0
 11
965.0930869607628
 21
635.8742015494879
 31
0.0
  0
ARC
  5
123
330
17
100
AcDbEntity
  8
4
100
AcDbCircle
 10
943.6931869607624
 20
640.8742065494882
 30
0.0
 40
5.000002
100
AcDbArc
 50
90.0
 51
180.0
  0
ARC
  5
124
330
17
100
AcDbEntity
  8
4
100
AcDbCircle
 10
909.2742429607615
 20
630.9552555494881
 30
0.0
 40
5.000051000000001
100
AcDbArc
 50
15.00386600000025
 51
74.996133999989
  0
ARC
  5
125
330
17
100
AcDbEntity
  8
4
100
AcDbCircle
 10
943.6931869607624
 20
695.8742075494881
 30
0.0
 40
5.000002
100
AcDbArc
 50
180.0
 51
270.0
  0
LINE
  5
126
330
17
100
AcDbEntity
  8
L-CENTER
 48
2.0
100
AcDbLine
 10
981.0920569607615
 20
752.8114595494878
 30
0.0
 11
918.5110549607625
 21
752.8114595494878
 31
0.0
  0
LINE
  5
127
330
17
100
AcDbEntity
  8
4
100
AcDbLine
 10
981.6931849607618
 20
700.8742055494874
 30
0.0
 11
965.0930869607628
 21
700.8742055494874
 31
0.0
  0
LINE
  5
128
330
17
100
AcDbEntity
  8
4
100
AcDbLine
 10
964.0930849607621
 20
713.3742015494879
 30
0.0
 11
965.0930869607628
 21
713.3742015494879
 31
0.0
  0
LINE
  5
129
330
17
100
AcDbEntity
  8
4
100
AcDbLine
 10
1101.693184960762
 20
705.8742035494877
 30
0.0
 11
1101.693184960762
 21
637.8742055494874
 31
0.0
  0
LINE
  5
12A
330
17
100
AcDbEntity
  8
4
100
AcDbLine
 10
1100.693182960763
 20
636.8742035494877
 30
0.0
 11
1100.693182960763
 21
699.8742035494877
 31
0.0
  0
LINE
  5
12B
330
17
100
AcDbEntity
  8
4
100
AcDbLine
 10
1100.693182960763
 20
636.8742035494877
 30
0.0
 11
1101.693184960762
 21
637.8742055494874
 31
0.0
  0
LINE
  5
12C
330
17
100
AcDbEntity
  8
4
100
AcDbLine
 10
1101.693184960762
 20
698.8742015494879
 30
0.0
 11
1100.693182960763
 21
699.8742035494877
 31
0.0
  0
LINE
  5
130
330
17
100
AcDbEntity
  8
4
100
AcDbLine
 10
634.407048960763
 20
806.3742055494884
 30
0.0
 11
668.9793209607624
 21
806.3742055494884
 31
0.0
  0
LINE
  5
131
330
17
100
AcDbEntity
  8
4
100
AcDbLine
 10
651.6931849607618
 20
808.3742035494877
 30
0.0
 11
669.1851279607627
 21
806.362242549488
 31
0.0
  0
CIRCLE
  5
132
330
17
100
AcDbEntity
  8
4
100
AcDbCircle
 10
651.6931849607618
 20
833.3742065494882
 30
0.0
 40
25.000003
  0
LINE
  5
133
330
17
100
AcDbEntity
  8
4
100
AcDbLine
 10
629.1931829607629
 20
788.3742025494878
 30
0.0
 11
674.1931869607624
 21
788.3742025494878
 31
0.0
  0
LINE
  5
134
330
17
100
AcDbEntity
  8
4
100
AcDbLine
 10
626.6931819607626
 20
788.3742025494878
 30
0.0
 11
676.6931879607628
 21
788.3742025494878
 31
0.0
  0
ARC
  5
135
330
17
100
AcDbEntity
  8
4
100
AcDbCircle
 10
651.6931849607618
 20
833.3742065494882
 30
0.0
 40
45.000011
100
AcDbArc
 50
307.2407440000011
 51
232.7601280000011
  0
LINE
  5
136
330
17
100
AcDbEntity
  8
L-CENTER
 48
2.0
100
AcDbLine
 10
596.6931839607619
 20
833.3742065494882
 30
0.0
 11
706.6931859607621
 21
833.3742065494882
 31
0.0
  0
LINE
  5
139
330
17
100
AcDbEntity
  8
4
100
AcDbLine
 10
468.6931859607621
 20
789.874204549488
 30
0.0
 11
514.6931819607621
 21
789.874204549488
 31
0.0
  0
LINE
  5
13A
330
17
100
AcDbEntity
  8
4
100
AcDbLine
 10
468.6931859607621
 20
793.8742075494881
 30
0.0
 11
514.6931819607621
 21
793.8742075494881
 31
0.0
  0
LINE
  5
13B
330
17
100
AcDbEntity
  8
4
100
AcDbLine
 10
466.6931879607623
 20
788.3742025494878
 30
0.0
 11
516.693186960762
 21
788.3742025494878
 31
0.0
  0
LINE
  5
13C
330
17
100
AcDbEntity
  8
4
100
AcDbLine
 10
469.6931849607622
 20
788.3742025494878
 30
0.0
 11
513.6931829607624
 21
788.3742025494878
 31
0.0
  0
LINE
  5
13D
330
17
100
AcDbEntity
  8
4
100
AcDbLine
 10
468.6931859607621
 20
798.8742025494878
 30
0.0
 11
514.6931819607621
 21
798.8742025494878
 31
0.0
  0
LINE
  5
13E
330
17
100
AcDbEntity
  8
4
100
AcDbLine
 10
429.693182960762
 20
800.374204549488
 30
0.0
 11
429.693182960762
 21
816.3742025494878
 31
0.0
  0
ARC
  5
13F
330
17
100
AcDbEntity
  8
4
100
AcDbCircle
 10
429.1931869607624
 20
794.3742035494877
 30
0.0
 40
6.000001
100
AcDbArc
 50
90.0
 51
180.0
  0
ARC
  5
140
330
17
100
AcDbEntity
  8
4
100
AcDbCircle
 10
418.9431849607622
 20
782.8429565494882
 30
0.0
 40
9.531249
100
AcDbArc
 50
63.51895999999864
 51
116.4810400000014
  0
LINE
  5
141
330
17
100
AcDbEntity
  8
4
100
AcDbLine
 10
423.1931859607621
 20
785.3742055494884
 30
0.0
 11
423.1931859607621
 21
794.3742035494877
 31
0.0
  0
LINE
  5
142
330
17
100
AcDbEntity
  8
4
100
AcDbLine
 10
414.6931839607623
 20
800.374204549488
 30
0.0
 11
429.693182960762
 21
800.374204549488
 31
0.0
  0
LINE
  5
143
330
17
100
AcDbEntity
  8
4
100
AcDbLine
 10
414.6931839607623
 20
819.3742065494882
 30
0.0
 11
428.6931839607623
 21
819.3742065494882
 31
0.0
  0
LINE
  5
144
330
17
100
AcDbEntity
  8
4
100
AcDbLine
 10
414.6931839607623
 20
818.3742075494881
 30
0.0
 11
430.6931819607621
 21
818.3742075494881
 31
0.0
  0
LINE
  5
145
330
17
100
AcDbEntity
  8
4
100
AcDbLine
 10
430.6931819607621
 20
816.3742025494878
 30
0.0
 11
414.6931839607623
 21
816.3742025494878
 31
0.0
  0
LINE
  5
146
330
17
100
AcDbEntity
  8
4
100
AcDbLine
 10
428.6931839607623
 20
819.3742065494882
 30
0.0
 11
430.6931819607621
 21
818.3742075494881
 31
0.0
  0
LINE
  5
147
330
17
100
AcDbEntity
  8
4
100
AcDbLine
 10
430.6931819607621
 20
816.3742025494878
 30
0.0
 11
430.6931819607621
 21
818.3742075494881
 31
0.0
  0
LINE
  5
148
330
17
100
AcDbEntity
  8
4
100
AcDbLine
 10
468.6931859607621
 20
789.874204549488
 30
0.0
 11
468.6931859607621
 21
798.8742025494878
 31
0.0
  0
LINE
  5
149
330
17
100
AcDbEntity
  8
4
100
AcDbLine
 10
469.6931849607622
 20
789.874204549488
 30
0.0
 11
469.6931849607622
 21
788.3742025494878
 31
0.0
  0
LINE
  5
14A
330
17
100
AcDbEntity
  8
4
100
AcDbLine
 10
466.6931879607623
 20
785.3742055494884
 30
0.0
 11
466.6931879607623
 21
788.3742025494878
 31
0.0
  0
LINE
  5
14B
330
17
100
AcDbEntity
  8
4
100
AcDbLine
 10
503.1931829607624
 20
793.8742075494881
 30
0.0
 11
503.1931829607624
 21
798.8742025494878
 31
0.0
  0
LINE
  5
14C
330
17
100
AcDbEntity
  8
4
100
AcDbLine
 10
480.1931849607622
 20
793.8742075494881
 30
0.0
 11
480.1931849607622
 21
798.8742025494878
 31
0.0
  0
LINE
  5
14D
330
17
100
AcDbEntity
  8
4
100
AcDbLine
 10
514.6931819607621
 20
789.874204549488
 30
0.0
 11
514.6931819607621
 21
798.8742025494878
 31
0.0
  0
LINE
  5
14E
330
17
100
AcDbEntity
  8
4
100
AcDbLine
 10
513.6931829607624
 20
789.874204549488
 30
0.0
 11
513.6931829607624
 21
788.3742025494878
 31
0.0
  0
LINE
  5
14F
330
17
100
AcDbEntity
  8
4
100
AcDbLine
 10
516.693186960762
 20
785.3742055494884
 30
0.0
 11
516.693186960762
 21
788.3742025494878
 31
0.0
  0
ARC
  5
150
330
17
100
AcDbEntity
  8
4
100
AcDbCircle
 10
617.1992919607628
 20
787.9962725494877
 30
0.0
 40
12.000051
100
AcDbArc
 50
1.804767000000549
 51
52.7594130000015
  0
LINE
  5
151
330
17
100
AcDbEntity
  8
4
100
AcDbLine
 10
626.6931819607626
 20
785.3742055494884
 30
0.0
 11
626.6931819607626
 21
788.3742025494878
 31
0.0
  0
LINE
  5
152
330
17
100
AcDbEntity
  8
4
100
AcDbLine
 10
632.6448479607616
 20
804.9413405494877
 30
0.0
 11
629.1931829607629
 21
788.3742025494878
 31
0.0
  0
LINE
  5
153
330
17
100
AcDbEntity
  8
4
100
AcDbLine
 10
651.6931849607618
 20
808.3742035494877
 30
0.0
 11
634.2012419607627
 21
806.362242549488
 31
0.0
  0
ARC
  5
154
330
17
100
AcDbEntity
  8
4
100
AcDbCircle
 10
634.407048960763
 20
804.5741555494881
 30
0.0
 40
1.80005
100
AcDbArc
 50
90.0
 51
168.2298250000008
  0
LINE
  5
159
330
17
100
AcDbEntity
  8
4
100
AcDbLine
 10
670.7415219607619
 20
804.9413405494877
 30
0.0
 11
674.1931869607624
 21
788.3742025494878
 31
0.0
  0
ARC
  5
15A
330
17
100
AcDbEntity
  8
4
100
AcDbCircle
 10
686.1870849607621
 20
787.9962725494877
 30
0.0
 40
12.000051
100
AcDbArc
 50
127.2405869999985
 51
178.1952329999995
  0
LINE
  5
15B
330
17
100
AcDbEntity
  8
4
100
AcDbLine
 10
676.6931879607628
 20
785.3742055494884
 30
0.0
 11
676.6931879607628
 21
788.3742025494878
 31
0.0
  0
ARC
  5
15C
330
17
100
AcDbEntity
  8
4
100
AcDbCircle
 10
668.9793209607624
 20
804.5741555494881
 30
0.0
 40
1.80005
100
AcDbArc
 50
11.7701750000063
 51
90.0
  0
LINE
  5
162
330
17
100
AcDbEntity
  8
4
100
AcDbLine
 10
963.0930889607616
 20
782.8742015494879
 30
0.0
 11
938.6372749607626
 21
782.8742015494879
 31
0.0
  0
ARC
  5
163
330
17
100
AcDbEntity
  8
4
100
AcDbCircle
 10
963.0930889607616
 20
781.8742055494874
 30
0.0
 40
1.000002
100
AcDbArc
 50
0.0
 51
90.0
  0
LINE
  5
16B
330
17
100
AcDbEntity
  8
4
100
AcDbLine
 10
1861.936490202631
 20
373.374204549488
 30
0.0
 11
1861.936490202631
 21
98.37420654948801
 31
0.0
  0
LINE
  5
16C
330
17
100
AcDbEntity
  8
4
100
AcDbLine
 10
1953.936489202633
 20
88.37420254948802
 30
0.0
 11
1871.436491202632
 21
134.2075355494878
 31
0.0
  0
LINE
  5
16D
330
17
100
AcDbEntity
  8
4
100
AcDbLine
 10
1903.236392202632
 20
116.5409235830242
 30
0.0
 11
1903.236392202632
 21
667.8742015494879
 31
0.0
  0
LINE
  5
16E
330
17
100
AcDbEntity
  8
4
100
AcDbLine
 10
1871.436491202632
 20
98.37420654948801
 30
0.0
 11
1871.436491202632
 21
668.3742035494877
 31
0.0
  0
LINE
  5
16F
330
17
100
AcDbEntity
  8
4
100
AcDbLine
 10
1559.936491202632
 20
88.37420254948802
 30
0.0
 11
1642.436489202631
 21
134.2075355494878
 31
0.0
  0
LINE
  5
170
330
17
100
AcDbEntity
  8
4
100
AcDbLine
 10
1651.936490202631
 20
373.374204549488
 30
0.0
 11
1651.936490202631
 21
98.37420654948801
 31
0.0
  0
LINE
  5
171
330
17
100
AcDbEntity
  8
4
100
AcDbLine
 10
1642.436489202631
 20
98.37420654948801
 30
0.0
 11
1642.436489202631
 21
668.3742035494877
 31
0.0
  0
LINE
  5
172
330
17
100
AcDbEntity
  8
4
100
AcDbLine
 10
1612.936487202632
 20
117.8186455494881
 30
0.0
 11
1612.936487202632
 21
666.8742015494879
 31
0.0
  0
LINE
  5
173
330
17
100
AcDbEntity
  8
L-CENTER
 48
2.0
100
AcDbLine
 10
1756.936490202631
 20
888.3742075494886
 30
0.0
 11
1756.936490202631
 21
14.91480254948806
 31
0.0
  0
LINE
  5
175
330
17
100
AcDbEntity
  8
4
100
AcDbLine
 10
1953.936489202633
 20
88.37420254948802
 30
0.0
 11
1559.936491202632
 21
88.37420254948802
 31
0.0
  0
LINE
  5
176
330
17
100
AcDbEntity
  8
4
100
AcDbLine
 10
1956.936493202631
 20
33.37420154948791
 30
0.0
 11
1556.936487202632
 21
33.37420154948791
 31
0.0
  0
LINE
  5
183
330
17
100
AcDbEntity
  8
4
100
AcDbLine
 10
1556.936487202632
 20
85.37420554948812
 30
0.0
 11
1556.936487202632
 21
33.37420154948791
 31
0.0
  0
LINE
  5
184
330
17
100
AcDbEntity
  8
L-CENTER
 48
2.0
100
AcDbLine
 10
1606.936493202632
 20
11.37420154948791
 30
0.0
 11
1606.936493202632
 21
110.374202549488
 31
0.0
  0
LINE
  5
185
330
17
100
AcDbEntity
  8
4
100
AcDbLine
 10
1640.936487202632
 20
88.37420254948802
 30
0.0
 11
1559.936491202632
 21
88.37420254948802
 31
0.0
  0
ARC
  5
186
330
17
100
AcDbEntity
  8
4
100
AcDbCircle
 10
1559.936491202632
 20
85.37420554948812
 30
0.0
 40
2.999997
100
AcDbArc
 50
90.0
 51
180.0
  0
ARC
  5
187
330
17
100
AcDbEntity
  8
4
100
AcDbCircle
 10
1641.936493202632
 20
98.37420654948801
 30
0.0
 40
9.999996999999999
100
AcDbArc
 50
270.0
 51
0.0
  0
ARC
  5
188
330
17
100
AcDbEntity
  8
4
100
AcDbCircle
 10
1632.436492202632
 20
98.37420654948801
 30
0.0
 40
9.999996999999999
100
AcDbArc
 50
270.0
 51
0.0
  0
LINE
  5
18D
330
17
100
AcDbEntity
  8
L-CENTER
 48
2.0
100
AcDbLine
 10
1906.936487202632
 20
11.37420154948791
 30
0.0
 11
1906.936487202632
 21
110.374202549488
 31
0.0
  0
ARC
  5
18E
330
17
100
AcDbEntity
  8
4
100
AcDbCircle
 10
1881.436488202631
 20
98.37420654948801
 30
0.0
 40
9.999996999999999
100
AcDbArc
 50
180.0
 51
270.0
  0
ARC
  5
18F
330
17
100
AcDbEntity
  8
4
100
AcDbCircle
 10
1871.936487202632
 20
98.37420654948801
 30
0.0
 40
9.999996999999999
100
AcDbArc
 50
180.0
 51
270.0
  0
LINE
  5
192
330
17
100
AcDbEntity
  8
4
100
AcDbLine
 10
1956.936493202631
 20
85.37420554948812
 30
0.0
 11
1956.936493202631
 21
33.37420154948791
 31
0.0
  0
ARC
  5
193
330
17
100
AcDbEntity
  8
4
100
AcDbCircle
 10
1953.936489202633
 20
85.37420554948812
 30
0.0
 40
2.999997
100
AcDbArc
 50
0.0
 51
90.0
  0
ARC
  5
199
330
17
100
AcDbEntity
  8
4
100
AcDbCircle
 10
1756.936490202631
 20
185.3742035494881
 30
0.0
 40
599.999953
100
AcDbArc
 50
80.281964
 51
99.71803699999995
  0
CIRCLE
  5
19A
330
17
100
AcDbEntity
  8
4
100
AcDbCircle
 10
1756.936490202631
 20
668.3742035494877
 30
0.0
 40
114.500001
  0
LINE
  5
19C
330
17
100
AcDbEntity
  8
L-CENTER
 48
2.0
100
AcDbLine
 10
1882.094174291374
 20
668.3742035494877
 30
0.0
 11
1631.778806113889
 21
668.3742035494877
 31
0.0
  0
LINE
  5
19D
330
17
100
AcDbEntity
  8
L-CENTER
 48
2.0
100
AcDbLine
 10
2128.797887563359
 20
373.374204549488
 30
0.0
 11
1385.075092841903
 21
373.374204549488
 31
0.0
  0
CIRCLE
  5
19E
330
17
100
AcDbEntity
  8
L-CENTER
 48
2.0
100
AcDbCircle
 10
1756.936490202631
 20
668.3742035494877
 30
0.0
 40
97.5
  0
LINE
  5
1A0
330
17
100
AcDbEntity
  8
4
100
AcDbLine
 10
1640.936487202632
 20
133.374206549488
 30
0.0
 11
1640.936487202632
 21
669.8742055494884
 31
0.0
  0
LINE
  5
1A1
330
17
100
AcDbEntity
  8
4
100
AcDbLine
 10
1592.936493202632
 20
258.3742075494881
 30
0.0
 11
1592.936493202632
 21
488.3742015494879
 31
0.0
  0
LINE
  5
1A2
330
17
100
AcDbEntity
  8
4
100
AcDbLine
 10
1566.936491202632
 20
265.3742075494881
 30
0.0
 11
1566.936491202632
 21
481.3742015494879
 31
0.0
  0
LINE
  5
1A6
330
17
100
AcDbEntity
  8
4
100
AcDbLine
 10
1612.936487202632
 20
129.243835549488
 30
0.0
 11
1592.936493202632
 21
258.3742075494881
 31
0.0
  0
LINE
  5
1A7
330
17
100
AcDbEntity
  8
4
100
AcDbLine
 10
1592.936493202632
 20
258.3742075494881
 30
0.0
 11
1566.936491202632
 21
265.3742075494881
 31
0.0
  0
LINE
  5
1AC
330
17
100
AcDbEntity
  8
4
100
AcDbLine
 10
1592.936493202632
 20
300.3742075494881
 30
0.0
 11
1612.936487202632
 21
315.8742025494882
 31
0.0
  0
LINE
  5
1AD
330
17
100
AcDbEntity
  8
4
100
AcDbLine
 10
1592.936493202632
 20
446.3742015494879
 30
0.0
 11
1612.936487202632
 21
430.8742065494878
 31
0.0
  0
LINE
  5
1B3
330
17
100
AcDbEntity
  8
4
100
AcDbLine
 10
1612.936487202632
 20
617.504573549488
 30
0.0
 11
1592.936493202632
 21
488.3742015494879
 31
0.0
  0
LINE
  5
1B4
330
17
100
AcDbEntity
  8
4
100
AcDbLine
 10
1592.936493202632
 20
488.3742015494879
 30
0.0
 11
1566.936491202632
 21
481.3742015494879
 31
0.0
  0
ARC
  5
1B7
330
17
100
AcDbEntity
  8
4
100
AcDbCircle
 10
2242.436491202632
 20
668.3742035494877
 30
0.0
 40
600.00003
100
AcDbArc
 50
169.986478
 51
180.0001859992476
  0
LINE
  5
1B8
330
17
100
AcDbEntity
  8
4
100
AcDbLine
 10
1640.936487202632
 20
666.8742015494879
 30
0.0
 11
1612.936487202632
 21
666.8742015494879
 31
0.0
  0
LINE
  5
1B9
330
17
100
AcDbEntity
  8
4
100
AcDbLine
 10
1642.438442202632
 20
669.8742055494884
 30
0.0
 11
1640.936487202632
 21
669.8742055494884
 31
0.0
  0
ARC
  5
1BA
330
17
100
AcDbEntity
  8
4
100
AcDbCircle
 10
1656.500700202632
 20
771.8361215494881
 30
0.0
 40
5.000002
100
AcDbArc
 50
99.71804499999627
 51
169.9839159999985
  0
LINE
  5
1BD
330
17
100
AcDbEntity
  8
4
100
AcDbLine
 10
1872.936493202632
 20
133.374206549488
 30
0.0
 11
1872.936493202632
 21
669.8742055494884
 31
0.0
  0
LINE
  5
1BE
330
17
100
AcDbEntity
  8
4
100
AcDbLine
 10
1875.936490202631
 20
131.7075345494879
 30
0.0
 11
1875.936490202631
 21
666.8742015494879
 31
0.0
  0
LINE
  5
1BF
330
17
100
AcDbEntity
  8
4
100
AcDbLine
 10
1876.236490202632
 20
131.7075345494879
 30
0.0
 11
1876.236490202632
 21
668.8742015494879
 31
0.0
  0
LINE
  5
1C0
330
17
100
AcDbEntity
  8
4
100
AcDbLine
 10
1947.236390202631
 20
481.3742015494879
 30
0.0
 11
1947.236390202631
 21
265.3742075494881
 31
0.0
  0
LINE
  5
1C1
330
17
100
AcDbEntity
  8
4
100
AcDbLine
 10
1921.236395202631
 20
488.3742015494879
 30
0.0
 11
1921.236395202631
 21
258.3742075494881
 31
0.0
  0
LINE
  5
1C2
330
17
100
AcDbEntity
  8
4
100
AcDbLine
 10
1947.236390202631
 20
265.3742075494881
 30
0.0
 11
1921.236395202631
 21
258.3742075494881
 31
0.0
  0
LINE
  5
1C3
330
17
100
AcDbEntity
  8
4
100
AcDbLine
 10
1904.942869661059
 20
143.1557847101241
 30
0.0
 11
1921.236395202631
 21
258.3742075494881
 31
0.0
  0
LINE
  5
1C4
330
17
100
AcDbEntity
  8
4
100
AcDbLine
 10
1903.236392202632
 20
315.8742025494882
 30
0.0
 11
1921.236395202631
 21
300.3742075494881
 31
0.0
  0
LINE
  5
1C5
330
17
100
AcDbEntity
  8
4
100
AcDbLine
 10
1903.236392202632
 20
430.8742065494878
 30
0.0
 11
1921.236395202631
 21
446.3742015494879
 31
0.0
  0
LINE
  5
1C6
330
17
100
AcDbEntity
  8
4
100
AcDbLine
 10
1956.936493202631
 20
419.8742035494879
 30
0.0
 11
2114.936489202633
 21
419.8742035494879
 31
0.0
  0
LINE
  5
1C7
330
17
100
AcDbEntity
  8
4
100
AcDbLine
 10
2116.936487202632
 20
427.874202549488
 30
0.0
 11
1966.936490202631
 21
427.874202549488
 31
0.0
  0
LINE
  5
1C8
330
17
100
AcDbEntity
  8
4
100
AcDbLine
 10
1956.936493202631
 20
326.8742055494881
 30
0.0
 11
2114.936489202633
 21
326.8742055494881
 31
0.0
  0
LINE
  5
1C9
330
17
100
AcDbEntity
  8
4
100
AcDbLine
 10
1948.236389202633
 20
438.3742075494881
 30
0.0
 11
1948.236389202633
 21
308.3742015494879
 31
0.0
  0
LINE
  5
1CA
330
17
100
AcDbEntity
  8
4
100
AcDbLine
 10
1956.936493202631
 20
420.874202549488
 30
0.0
 11
1956.936493202631
 21
325.874206549488
 31
0.0
  0
LINE
  5
1CB
330
17
100
AcDbEntity
  8
4
100
AcDbLine
 10
1948.236389202633
 20
325.874206549488
 30
0.0
 11
1956.936493202631
 21
325.874206549488
 31
0.0
  0
LINE
  5
1CD
330
17
100
AcDbEntity
  8
4
100
AcDbLine
 10
1956.936493202631
 20
420.874202549488
 30
0.0
 11
1948.236389202633
 21
420.874202549488
 31
0.0
  0
LINE
  5
1CF
330
17
100
AcDbEntity
  8
4
100
AcDbLine
 10
1966.936490202631
 20
427.874202549488
 30
0.0
 11
1966.936490202631
 21
419.8742035494879
 31
0.0
  0
LINE
  5
1D1
330
17
100
AcDbEntity
  8
4
100
AcDbLine
 10
2114.936489202633
 20
419.8742035494879
 30
0.0
 11
2114.936489202633
 21
326.8742055494881
 31
0.0
  0
LINE
  5
1D2
330
17
100
AcDbEntity
  8
4
100
AcDbLine
 10
2116.936487202632
 20
427.874202549488
 30
0.0
 11
2116.936487202632
 21
328.8742035494879
 31
0.0
  0
LINE
  5
1D3
330
17
100
AcDbEntity
  8
4
100
AcDbLine
 10
2114.936489202633
 20
326.8742055494881
 30
0.0
 11
2116.936487202632
 21
328.8742035494879
 31
0.0
  0
LINE
  5
1D4
330
17
100
AcDbEntity
  8
4
100
AcDbLine
 10
2116.936487202632
 20
417.8742055494881
 30
0.0
 11
2114.936489202633
 21
419.8742035494879
 31
0.0
  0
LINE
  5
1D5
330
17
100
AcDbEntity
  8
4
100
AcDbLine
 10
1947.236390202631
 20
481.3742015494879
 30
0.0
 11
1921.236395202631
 21
488.3742015494879
 31
0.0
  0
LINE
  5
1D6
330
17
100
AcDbEntity
  8
L-CENTER
 48
2.0
100
AcDbLine
 10
1815.765490723735
 20
566.4788375035168
 30
0.0
 11
1795.509330474842
 21
601.5636679139795
 31
0.0
  0
LINE
  5
1D7
330
17
100
AcDbEntity
  8
L-CENTER
 48
2.0
100
AcDbLine
 10
1718.363252202631
 20
601.5638975494874
 30
0.0
 11
1698.10703926164
 21
566.4790975535507
 31
0.0
  0
LINE
  5
1D8
330
17
100
AcDbEntity
  8
4
100
AcDbLine
 10
1904.942869661059
 20
603.5926243888518
 30
0.0
 11
1921.236395202631
 21
488.3742015494879
 31
0.0
  0
LINE
  5
1D9
330
17
100
AcDbEntity
  8
L-CENTER
 48
2.0
100
AcDbLine
 10
1795.606994175263
 20
735.3540773211971
 30
0.0
 11
1815.765436962279
 21
770.2696006344195
 31
0.0
  0
LINE
  5
1DA
330
17
100
AcDbEntity
  8
4
100
AcDbLine
 10
1765.936490202631
 20
693.8742035494877
 30
0.0
 11
1765.936490202631
 21
705.8742035494877
 31
0.0
  0
LINE
  5
1DB
330
17
100
AcDbEntity
  8
4
100
AcDbLine
 10
1747.936490202631
 20
705.8742035494877
 30
0.0
 11
1747.936490202631
 21
693.8742035494877
 31
0.0
  0
ARC
  5
1DC
330
17
100
AcDbEntity
  8
4
100
AcDbCircle
 10
1756.936490202631
 20
668.3742035494877
 30
0.0
 40
31.50009
100
AcDbArc
 50
106.6015009999999
 51
73.3984990000001
  0
LINE
  5
1DD
330
17
100
AcDbEntity
  8
4
100
AcDbLine
 10
1765.936490202631
 20
693.8742035494877
 30
0.0
 11
1747.936490202631
 21
693.8742035494877
 31
0.0
  0
LINE
  5
1DE
330
17
100
AcDbEntity
  8
L-CENTER
 48
2.0
100
AcDbLine
 10
1698.107020288698
 20
770.2692985911726
 30
0.0
 11
1718.265433604272
 21
735.3537582626593
 31
0.0
  0
LINE
  5
1DF
330
17
100
AcDbEntity
  8
4
100
AcDbLine
 10
1765.936490202631
 20
705.8742035494877
 30
0.0
 11
1747.936490202631
 21
705.8742035494877
 31
0.0
  0
ARC
  5
1E0
330
17
100
AcDbEntity
  8
4
100
AcDbCircle
 10
1271.436489202631
 20
668.3742035494877
 30
0.0
 40
600.000023
100
AcDbArc
 50
0.000047004096946
 51
10.01378299999999
  0
LINE
  5
1E1
330
17
100
AcDbEntity
  8
4
100
AcDbLine
 10
1876.236490202632
 20
666.8742015494879
 30
0.0
 11
1872.936493202632
 21
666.8742015494879
 31
0.0
  0
LINE
  5
1E2
330
17
100
AcDbEntity
  8
4
100
AcDbLine
 10
1902.236392202632
 20
668.8742015494879
 30
0.0
 11
1876.236490202632
 21
668.8742015494879
 31
0.0
  0
LINE
  5
1E3
330
17
100
AcDbEntity
  8
4
100
AcDbLine
 10
1871.434538202631
 20
669.8742055494884
 30
0.0
 11
1872.936493202632
 21
669.8742055494884
 31
0.0
  0
ARC
  5
1E4
330
17
100
AcDbEntity
  8
4
100
AcDbCircle
 10
1857.372280202631
 20
771.8361215494881
 30
0.0
 40
5.000002
100
AcDbArc
 50
10.0160839999959
 51
80.28195499999303
  0
LINE
  5
1F6
330
17
100
AcDbEntity
  8
4
100
AcDbLine
 10
1766.936487202632
 20
819.3742065494882
 30
0.0
 11
1766.936487202632
 21
868.3742065494882
 31
0.0
  0
LINE
  5
1F7
330
17
100
AcDbEntity
  8
4
100
AcDbLine
 10
1746.936493202632
 20
819.3742065494882
 30
0.0
 11
1746.936493202632
 21
868.3742065494882
 31
0.0
  0
LINE
  5
1F8
330
17
100
AcDbEntity
  8
4
100
AcDbLine
 10
1737.888153202631
 20
804.9413405494877
 30
0.0
 11
1734.436488202631
 21
788.3742025494878
 31
0.0
  0
LINE
  5
1F9
330
17
100
AcDbEntity
  8
4
100
AcDbLine
 10
1734.436488202631
 20
788.3742025494878
 30
0.0
 11
1747.136931202632
 21
788.3742025494878
 31
0.0
  0
LINE
  5
1FA
330
17
100
AcDbEntity
  8
4
100
AcDbLine
 10
1734.936491202632
 20
788.3742025494878
 30
0.0
 11
1747.136931202632
 21
788.3742025494878
 31
0.0
  0
LINE
  5
1FB
330
17
100
AcDbEntity
  8
4
100
AcDbLine
 10
1734.936491202632
 20
788.3742025494878
 30
0.0
 11
1747.136931202632
 21
788.3742025494878
 31
0.0
  0
LINE
  5
1FC
330
17
100
AcDbEntity
  8
4
100
AcDbLine
 10
1747.136931202632
 20
788.3742025494878
 30
0.0
 11
1731.936487202632
 21
788.3742025494878
 31
0.0
  0
LINE
  5
1FD
330
17
100
AcDbEntity
  8
4
100
AcDbLine
 10
1735.686492202632
 20
794.3742035494877
 30
0.0
 11
1733.936492202632
 21
794.3742035494877
 31
0.0
  0
LINE
  5
1FE
330
17
100
AcDbEntity
  8
4
100
AcDbLine
 10
1733.936492202632
 20
790.3742075494881
 30
0.0
 11
1733.936492202632
 21
794.3742035494877
 31
0.0
  0
LINE
  5
1FF
330
17
100
AcDbEntity
  8
4
100
AcDbLine
 10
1731.936487202632
 20
784.8532095494882
 30
0.0
 11
1731.936487202632
 21
788.3742025494878
 31
0.0
  0
LINE
  5
200
330
17
100
AcDbEntity
  8
4
100
AcDbLine
 10
1734.853240202632
 20
790.3742075494881
 30
0.0
 11
1733.936492202632
 21
790.3742075494881
 31
0.0
  0
ARC
  5
201
330
17
100
AcDbEntity
  8
4
100
AcDbCircle
 10
1771.436493202632
 20
794.3742035494877
 30
0.0
 40
6.000001
100
AcDbArc
 50
90.0
 51
180.0
  0
ARC
  5
202
330
17
100
AcDbEntity
  8
4
100
AcDbCircle
 10
1764.286588202632
 20
788.8729805494879
 30
0.0
 40
3.501197
100
AcDbArc
 50
45.59327200000384
 51
134.4067160000001
  0
LINE
  5
203
330
17
100
AcDbEntity
  8
4
100
AcDbLine
 10
1771.936489202631
 20
800.374204549488
 30
0.0
 11
1741.936491202632
 21
800.374204549488
 31
0.0
  0
LINE
  5
204
330
17
100
AcDbEntity
  8
4
100
AcDbLine
 10
1770.936490202631
 20
819.3742065494882
 30
0.0
 11
1742.936490202631
 21
819.3742065494882
 31
0.0
  0
LINE
  5
205
330
17
100
AcDbEntity
  8
4
100
AcDbLine
 10
1772.936488202631
 20
818.3742075494881
 30
0.0
 11
1740.936492202632
 21
818.3742075494881
 31
0.0
  0
LINE
  5
206
330
17
100
AcDbEntity
  8
4
100
AcDbLine
 10
1740.936492202632
 20
816.3742025494878
 30
0.0
 11
1772.936488202631
 21
816.3742025494878
 31
0.0
  0
LINE
  5
207
330
17
100
AcDbEntity
  8
4
100
AcDbLine
 10
1741.936491202632
 20
800.374204549488
 30
0.0
 11
1741.936491202632
 21
816.3742025494878
 31
0.0
  0
LINE
  5
208
330
17
100
AcDbEntity
  8
4
100
AcDbLine
 10
1765.436492202632
 20
792.1801095494882
 30
0.0
 11
1765.436492202632
 21
794.3742035494877
 31
0.0
  0
ARC
  5
209
330
17
100
AcDbEntity
  8
4
100
AcDbCircle
 10
1742.436487202632
 20
794.3742035494877
 30
0.0
 40
6.000001
100
AcDbArc
 50
0.0
 51
90.0
  0
LINE
  5
20A
330
17
100
AcDbEntity
  8
4
100
AcDbLine
 10
1749.586882202631
 20
792.3742055494884
 30
0.0
 11
1764.286588202632
 21
792.3742055494884
 31
0.0
  0
ARC
  5
20B
330
17
100
AcDbEntity
  8
4
100
AcDbCircle
 10
1756.936490202631
 20
779.8693215494884
 30
0.0
 40
12.50508
100
AcDbArc
 50
66.93139999999451
 51
113.0686039999956
  0
LINE
  5
20C
330
17
100
AcDbEntity
  8
4
100
AcDbLine
 10
1752.036833202631
 20
785.3742055494884
 30
0.0
 11
1752.036833202631
 21
791.3742065494882
 31
0.0
  0
LINE
  5
20D
330
17
100
AcDbEntity
  8
4
100
AcDbLine
 10
1748.436488202631
 20
792.1798715494881
 30
0.0
 11
1748.436488202631
 21
794.3742035494877
 31
0.0
  0
LINE
  5
20E
330
17
100
AcDbEntity
  8
4
100
AcDbLine
 10
1747.136931202632
 20
785.3742055494884
 30
0.0
 11
1747.136931202632
 21
791.3742065494882
 31
0.0
  0
ARC
  5
20F
330
17
100
AcDbEntity
  8
4
100
AcDbCircle
 10
1749.586882202631
 20
788.8729805494879
 30
0.0
 40
3.501197
100
AcDbArc
 50
45.59327199998539
 51
134.4067160000001
  0
LINE
  5
210
330
17
100
AcDbEntity
  8
4
100
AcDbLine
 10
1761.836637202632
 20
785.3742055494884
 30
0.0
 11
1761.836637202632
 21
791.3742065494882
 31
0.0
  0
LINE
  5
211
330
17
100
AcDbEntity
  8
4
100
AcDbLine
 10
1741.936491202632
 20
806.648864549488
 30
0.0
 11
1739.444547202632
 21
806.362242549488
 31
0.0
  0
LINE
  5
212
330
17
100
AcDbEntity
  8
4
100
AcDbLine
 10
1741.936491202632
 20
806.3742055494884
 30
0.0
 11
1739.650354202633
 21
806.3742055494884
 31
0.0
  0
LINE
  5
213
330
17
100
AcDbEntity
  8
4
100
AcDbLine
 10
1742.936490202631
 20
819.3742065494882
 30
0.0
 11
1740.936492202632
 21
818.3742075494881
 31
0.0
  0
LINE
  5
214
330
17
100
AcDbEntity
  8
4
100
AcDbLine
 10
1740.936492202632
 20
816.3742025494878
 30
0.0
 11
1740.936492202632
 21
818.3742075494881
 31
0.0
  0
ARC
  5
215
330
17
100
AcDbEntity
  8
4
100
AcDbCircle
 10
1739.650354202633
 20
804.5741555494881
 30
0.0
 40
1.80005
100
AcDbArc
 50
90.0
 51
168.2298250000008
  0
LINE
  5
216
330
17
100
AcDbEntity
  8
4
100
AcDbLine
 10
1775.984827202632
 20
804.9413405494877
 30
0.0
 11
1779.436492202632
 21
788.3742025494878
 31
0.0
  0
LINE
  5
217
330
17
100
AcDbEntity
  8
4
100
AcDbLine
 10
1771.936489202631
 20
800.374204549488
 30
0.0
 11
1771.936489202631
 21
816.3742025494878
 31
0.0
  0
LINE
  5
218
330
17
100
AcDbEntity
  8
4
100
AcDbLine
 10
1766.736539202633
 20
788.3742025494878
 30
0.0
 11
1779.436492202632
 21
788.3742025494878
 31
0.0
  0
LINE
  5
219
330
17
100
AcDbEntity
  8
4
100
AcDbLine
 10
1766.736539202633
 20
788.3742025494878
 30
0.0
 11
1778.936489202631
 21
788.3742025494878
 31
0.0
  0
LINE
  5
21A
330
17
100
AcDbEntity
  8
4
100
AcDbLine
 10
1766.736539202633
 20
788.3742025494878
 30
0.0
 11
1778.936489202631
 21
788.3742025494878
 31
0.0
  0
LINE
  5
21B
330
17
100
AcDbEntity
  8
4
100
AcDbLine
 10
1766.736539202633
 20
788.3742025494878
 30
0.0
 11
1781.936493202632
 21
788.3742025494878
 31
0.0
  0
LINE
  5
21C
330
17
100
AcDbEntity
  8
4
100
AcDbLine
 10
1766.736539202633
 20
785.3742055494884
 30
0.0
 11
1766.736539202633
 21
791.3742065494882
 31
0.0
  0
LINE
  5
21D
330
17
100
AcDbEntity
  8
4
100
AcDbLine
 10
1778.186488202631
 20
794.3742035494877
 30
0.0
 11
1779.936488202631
 21
794.3742035494877
 31
0.0
  0
LINE
  5
21E
330
17
100
AcDbEntity
  8
4
100
AcDbLine
 10
1779.019740202631
 20
790.3742075494881
 30
0.0
 11
1779.936488202631
 21
790.3742075494881
 31
0.0
  0
LINE
  5
21F
330
17
100
AcDbEntity
  8
4
100
AcDbLine
 10
1779.936488202631
 20
790.3742075494881
 30
0.0
 11
1779.936488202631
 21
794.3742035494877
 31
0.0
  0
LINE
  5
220
330
17
100
AcDbEntity
  8
4
100
AcDbLine
 10
1781.936493202632
 20
784.8532095494882
 30
0.0
 11
1781.936493202632
 21
788.3742025494878
 31
0.0
  0
ARC
  5
221
330
17
100
AcDbEntity
  8
4
100
AcDbCircle
 10
1774.222626202632
 20
804.5741555494881
 30
0.0
 40
1.80005
100
AcDbArc
 50
11.7701750000063
 51
90.0
  0
LINE
  5
222
330
17
100
AcDbEntity
  8
4
100
AcDbLine
 10
1771.936489202631
 20
806.648864549488
 30
0.0
 11
1774.428433202632
 21
806.362242549488
 31
0.0
  0
LINE
  5
223
330
17
100
AcDbEntity
  8
4
100
AcDbLine
 10
1771.936489202631
 20
806.3742055494884
 30
0.0
 11
1774.222626202632
 21
806.3742055494884
 31
0.0
  0
LINE
  5
224
330
17
100
AcDbEntity
  8
4
100
AcDbLine
 10
1772.936488202631
 20
816.3742025494878
 30
0.0
 11
1772.936488202631
 21
818.3742075494881
 31
0.0
  0
LINE
  5
225
330
17
100
AcDbEntity
  8
4
100
AcDbLine
 10
1770.936490202631
 20
819.3742065494882
 30
0.0
 11
1772.936488202631
 21
818.3742075494881
 31
0.0
  0
LINE
  5
226
330
17
100
AcDbEntity
  8
L-CENTER
 48
2.0
100
AcDbLine
 10
1778.1328406292
 20
833.3742065494882
 30
0.0
 11
1735.740139776063
 21
833.3742065494882
 31
0.0
  0
ARC
  5
227
330
17
100
AcDbEntity
  8
4
100
AcDbCircle
 10
1756.936490202631
 20
868.3742065494882
 30
0.0
 40
9.999996999999999
100
AcDbArc
 50
0.0
 51
180.0
  0
LINE
  5
230
330
17
100
AcDbEntity
  8
4
100
AcDbLine
 10
981.6931849607618
 20
1840.817571322912
 30
0.0
 11
866.6931849607618
 21
1840.817571322912
 31
0.0
  0
LINE
  5
231
330
17
100
AcDbEntity
  8
4
100
AcDbLine
 10
981.6931849607618
 20
1440.817571322912
 30
0.0
 11
866.6931849607618
 21
1440.817571322912
 31
0.0
  0
LINE
  5
232
330
17
100
AcDbEntity
  8
L-CENTER
 48
2.0
100
AcDbLine
 10
1113.901928962125
 20
1640.817571322912
 30
0.0
 11
189.4844409593985
 21
1640.817571322912
 31
0.0
  0
LINE
  5
233
330
17
100
AcDbEntity
  8
4
100
AcDbLine
 10
436.6931849607622
 20
1840.817571322911
 30
0.0
 11
321.6931849607622
 21
1840.817571322912
 31
0.0
  0
LINE
  5
234
330
17
100
AcDbEntity
  8
L-CENTER
 48
2.0
100
AcDbLine
 10
398.9931849607633
 20
1790.817571322912
 30
0.0
 11
344.3931849607629
 21
1790.817571322912
 31
0.0
  0
ARC
  5
235
330
17
100
AcDbEntity
  8
4
100
AcDbCircle
 10
371.6931849607622
 20
1790.817571322912
 30
0.0
 40
13.0
100
AcDbArc
 50
343.5777460805699
 51
16.42225391942804
  0
LINE
  5
236
330
17
100
AcDbEntity
  8
L-CENTER
 48
2.0
100
AcDbLine
 10
398.9931849607624
 20
1490.817571322912
 30
0.0
 11
344.393184960762
 21
1490.817571322912
 31
0.0
  0
LINE
  5
237
330
17
100
AcDbEntity
  8
4
100
AcDbLine
 10
436.6931849607622
 20
1440.817571322912
 30
0.0
 11
321.6931849607622
 21
1440.817571322912
 31
0.0
  0
ARC
  5
238
330
17
100
AcDbEntity
  8
4
100
AcDbCircle
 10
371.6931849607622
 20
1490.817571322912
 30
0.0
 40
13.0
100
AcDbArc
 50
152.5135737496188
 51
27.48642625038124
  0
LINE
  5
239
330
17
100
AcDbEntity
  8
4
100
AcDbLine
 10
311.6931849607622
 20
1830.817571322912
 30
0.0
 11
311.6931849607622
 21
1672.317571322912
 31
0.0
  0
ARC
  5
23A
330
17
100
AcDbEntity
  8
4
100
AcDbCircle
 10
321.6931849607622
 20
1450.817571322912
 30
0.0
 40
10.0
100
AcDbArc
 50
180.0
 51
270.0
  0
LINE
  5
23B
330
17
100
AcDbEntity
  8
L-CENTER
 48
2.0
100
AcDbLine
 10
371.6931849607622
 20
1518.117571322912
 30
0.0
 11
371.6931849607622
 21
1463.517571322912
 31
0.0
  0
LINE
  5
23C
330
17
100
AcDbEntity
  8
L-CENTER
 48
2.0
100
AcDbLine
 10
371.6931849607622
 20
1818.117571322912
 30
0.0
 11
371.6931849607622
 21
1763.517571322912
 31
0.0
  0
ARC
  5
23D
330
17
100
AcDbEntity
  8
4
100
AcDbCircle
 10
321.6931849607622
 20
1830.817571322912
 30
0.0
 40
10.0
100
AcDbArc
 50
90.0
 51
180.0
  0
LINE
  5
23E
330
17
100
AcDbEntity
  8
L-CENTER
 48
2.0
100
AcDbLine
 10
651.6931849607618
 20
2013.69356697536
 30
0.0
 11
651.6931849607618
 21
1267.941575670464
 31
0.0
  0
LINE
  5
23F
330
17
100
AcDbEntity
  8
4
100
AcDbLine
 10
545.2259406558137
 20
1450.817571322912
 30
0.0
 11
758.1604292657112
 21
1450.817571322912
 31
0.0
  0
LINE
  5
240
330
17
100
AcDbEntity
  8
4
100
AcDbLine
 10
358.1931849607622
 20
1496.817571322912
 30
0.0
 11
945.1931849607618
 21
1496.817571322912
 31
0.0
  0
LINE
  5
241
330
17
100
AcDbEntity
  8
4
100
AcDbLine
 10
407.5627501781541
 20
1496.817571322912
 30
0.0
 11
535.4065476651126
 21
1477.016848479814
 31
0.0
  0
LINE
  5
242
330
17
100
AcDbEntity
  8
4
100
AcDbLine
 10
394.4957424154136
 20
1496.817571322912
 30
0.0
 11
537.2617763796275
 21
1474.705660338555
 31
0.0
  0
LINE
  5
243
330
17
100
AcDbEntity
  8
4
100
AcDbLine
 10
446.6931849607622
 20
1488.733118942151
 30
0.0
 11
446.6931849607622
 21
1450.817571322912
 31
0.0
  0
ARC
  5
244
330
17
100
AcDbEntity
  8
4
100
AcDbCircle
 10
436.6931849607622
 20
1450.817571322912
 30
0.0
 40
10.0
100
AcDbArc
 50
270.0
 51
0.0
  0
LINE
  5
245
330
17
100
AcDbEntity
  8
4
100
AcDbLine
 10
543.2947091387728
 20
1452.297624376016
 30
0.0
 11
537.0316647240757
 21
1475.560360773463
 31
0.0
  0
ARC
  5
246
330
17
100
AcDbEntity
  8
4
100
AcDbCircle
 10
545.2259406558137
 20
1452.817571322912
 30
0.0
 40
2.0
100
AcDbArc
 50
195.0684881594783
 51
270.0
  0
ARC
  5
247
330
17
100
AcDbEntity
  8
4
100
AcDbCircle
 10
535.1004332070347
 20
1475.040413826567
 30
0.0
 40
2.0
100
AcDbArc
 50
15.06848815950598
 51
81.19586074785528
  0
LINE
  5
248
330
17
100
AcDbEntity
  8
4
100
AcDbLine
 10
760.0916607827521
 20
1452.297624376016
 30
0.0
 11
766.3547051974483
 21
1475.560360773463
 31
0.0
  0
LINE
  5
249
330
17
100
AcDbEntity
  8
4
100
AcDbLine
 10
856.6931849607618
 20
1488.733118942151
 30
0.0
 11
856.6931849607618
 21
1450.817571322912
 31
0.0
  0
ARC
  5
24A
330
17
100
AcDbEntity
  8
4
100
AcDbCircle
 10
758.1604292657112
 20
1452.817571322912
 30
0.0
 40
2.0
100
AcDbArc
 50
270.0
 51
344.9315118405218
  0
ARC
  5
24B
330
17
100
AcDbEntity
  8
4
100
AcDbCircle
 10
866.6931849607618
 20
1450.817571322912
 30
0.0
 40
10.0
100
AcDbArc
 50
180.0
 51
270.0
  0
LINE
  5
24C
330
17
100
AcDbEntity
  8
4
100
AcDbLine
 10
908.8906275061108
 20
1496.817571322912
 30
0.0
 11
766.1245935418965
 21
1474.705660338555
 31
0.0
  0
LINE
  5
24D
330
17
100
AcDbEntity
  8
4
100
AcDbLine
 10
895.8236197433698
 20
1496.817571322912
 30
0.0
 11
767.9798222564123
 21
1477.016848479814
 31
0.0
  0
ARC
  5
24E
330
17
100
AcDbEntity
  8
4
100
AcDbCircle
 10
768.2859367144893
 20
1475.040413826567
 30
0.0
 40
2.0
100
AcDbArc
 50
98.80413925211897
 51
164.931511840494
  0
LINE
  5
24F
330
17
100
AcDbEntity
  8
4
100
AcDbLine
 10
446.6931849607622
 20
1830.817571322911
 30
0.0
 11
446.6931849607622
 21
1800.117571322904
 31
0.0
  0
ARC
  5
250
330
17
100
AcDbEntity
  8
4
100
AcDbCircle
 10
436.6931849607622
 20
1830.817571322911
 30
0.0
 40
10.0
100
AcDbArc
 50
0.0
 51
90.0
  0
LINE
  5
251
330
17
100
AcDbEntity
  8
4
100
AcDbLine
 10
856.6931849607618
 20
1830.817571322912
 30
0.0
 11
856.6931849607618
 21
1794.4101975628
 31
0.0
  0
ARC
  5
252
330
17
100
AcDbEntity
  8
4
100
AcDbCircle
 10
866.6931849607618
 20
1830.817571322912
 30
0.0
 40
10.0
100
AcDbArc
 50
90.0
 51
180.0
  0
LINE
  5
253
330
17
100
AcDbEntity
  8
4
100
AcDbLine
 10
991.6931849607618
 20
1830.817571322912
 30
0.0
 11
991.6931849607618
 21
1672.317571322912
 31
0.0
  0
ARC
  5
254
330
17
100
AcDbEntity
  8
4
100
AcDbCircle
 10
981.6931849607618
 20
1450.817571322912
 30
0.0
 40
10.0
100
AcDbArc
 50
270.0
 51
0.0
  0
LINE
  5
255
330
17
100
AcDbEntity
  8
L-CENTER
 48
2.0
100
AcDbLine
 10
958.993184960761
 20
1490.817571322912
 30
0.0
 11
904.3931849607625
 21
1490.817571322912
 31
0.0
  0
ARC
  5
256
330
17
100
AcDbEntity
  8
4
100
AcDbCircle
 10
931.6931849607618
 20
1490.817571322912
 30
0.0
 40
13.0
100
AcDbArc
 50
152.5135737496163
 51
27.48642625037921
  0
LINE
  5
257
330
17
100
AcDbEntity
  8
L-CENTER
 48
2.0
100
AcDbLine
 10
931.6931849607618
 20
1518.117571322912
 30
0.0
 11
931.6931849607618
 21
1463.517571322912
 31
0.0
  0
ARC
  5
258
330
17
100
AcDbEntity
  8
4
100
AcDbCircle
 10
931.6931849607618
 20
1790.817571322912
 30
0.0
 40
13.0
100
AcDbArc
 50
343.4641403460575
 51
146.7543667683544
  0
LINE
  5
259
330
17
100
AcDbEntity
  8
L-CENTER
 48
2.0
100
AcDbLine
 10
931.6931849607618
 20
1818.117571322912
 30
0.0
 11
931.6931849607618
 21
1763.517571322912
 31
0.0
  0
LINE
  5
25A
330
17
100
AcDbEntity
  8
L-CENTER
 48
2.0
100
AcDbLine
 10
958.9931849607628
 20
1790.817571322912
 30
0.0
 11
904.3931849607625
 21
1790.817571322912
 31
0.0
  0
ARC
  5
25B
330
17
100
AcDbEntity
  8
4
100
AcDbCircle
 10
981.6931849607618
 20
1830.817571322912
 30
0.0
 40
10.0
100
AcDbArc
 50
0.0
 51
90.0
  0
LINE
  5
25C
330
17
100
AcDbEntity
  8
4
 48
2.0
100
AcDbLine
 10
943.6931849607618
 20
1755.317571322912
 30
0.0
 11
359.6931849607622
 21
1755.317571322912
 31
0.0
  0
LINE
  5
25D
330
17
100
AcDbEntity
  8
4
100
AcDbLine
 10
943.6931849607618
 20
1526.317571322912
 30
0.0
 11
359.6931849607622
 21
1526.317571322912
 31
0.0
  0
LINE
  5
25E
330
17
100
AcDbEntity
  8
4
100
AcDbLine
 10
359.6931849607622
 20
1755.317571322912
 30
0.0
 11
359.6931849607622
 21
1526.317571322912
 31
0.0
  0
LINE
  5
25F
330
17
100
AcDbEntity
  8
4
100
AcDbLine
 10
943.6931849607618
 20
1755.317571322912
 30
0.0
 11
943.6931849607618
 21
1526.317571322912
 31
0.0
  0
LINE
  5
260
330
17
100
AcDbEntity
  8
4
100
AcDbLine
 10
938.6931849607618
 20
1755.317571322912
 30
0.0
 11
938.6931849607618
 21
1526.317571322912
 31
0.0
  0
LINE
  5
261
330
17
100
AcDbEntity
  8
4
100
AcDbLine
 10
364.6931849607622
 20
1755.317571322912
 30
0.0
 11
364.6931849607622
 21
1526.317571322912
 31
0.0
  0
LINE
  5
262
330
17
100
AcDbEntity
  8
4
100
AcDbLine
 10
948.1931849607618
 20
1756.817571322912
 30
0.0
 11
355.1931849607622
 21
1756.817571322912
 31
0.0
  0
LINE
  5
263
330
17
100
AcDbEntity
  8
4
100
AcDbLine
 10
948.1931849607618
 20
1524.817571322912
 30
0.0
 11
355.1931849607622
 21
1524.817571322912
 31
0.0
  0
LINE
  5
264
330
17
100
AcDbEntity
  8
4
100
AcDbLine
 10
948.1931849607618
 20
1756.817571322912
 30
0.0
 11
948.1931849607618
 21
1755.317571322912
 31
0.0
  0
LINE
  5
265
330
17
100
AcDbEntity
  8
4
100
AcDbLine
 10
355.1931849607622
 20
1756.817571322912
 30
0.0
 11
355.1931849607622
 21
1755.317571322912
 31
0.0
  0
LINE
  5
266
330
17
100
AcDbEntity
  8
4
100
AcDbLine
 10
945.1931849607618
 20
1759.817571322912
 30
0.0
 11
358.1931849607622
 21
1759.817571322912
 31
0.0
  0
LINE
  5
267
330
17
100
AcDbEntity
  8
4
100
AcDbLine
 10
358.1931849607622
 20
1759.817571322912
 30
0.0
 11
358.1931849607622
 21
1756.817571322912
 31
0.0
  0
LINE
  5
268
330
17
100
AcDbEntity
  8
4
100
AcDbLine
 10
945.1931849607618
 20
1759.817571322912
 30
0.0
 11
945.1931849607618
 21
1756.817571322912
 31
0.0
  0
LINE
  5
269
330
17
100
AcDbEntity
  8
4
100
AcDbLine
 10
945.1931849607618
 20
1524.817571322912
 30
0.0
 11
945.1931849607618
 21
1496.817571322912
 31
0.0
  0
LINE
  5
26A
330
17
100
AcDbEntity
  8
4
100
AcDbLine
 10
358.1931849607622
 20
1524.817571322912
 30
0.0
 11
358.1931849607622
 21
1496.817571322912
 31
0.0
  0
LINE
  5
26B
330
17
100
AcDbEntity
  8
4
100
AcDbLine
 10
544.459562808288
 20
1805.117571322904
 30
0.0
 11
758.9268071132365
 21
1805.117571322904
 31
0.0
  0
LINE
  5
26C
330
17
100
AcDbEntity
  8
4
100
AcDbLine
 10
586.6931849607622
 20
1832.117571322904
 30
0.0
 11
716.6931849607627
 21
1832.117571322904
 31
0.0
  0
LINE
  5
26D
330
17
100
AcDbEntity
  8
4
100
AcDbLine
 10
544.459562808288
 20
1831.117571322904
 30
0.0
 11
758.9268071132365
 21
1831.117571322904
 31
0.0
  0
LINE
  5
26E
330
17
100
AcDbEntity
  8
4
100
AcDbLine
 10
357.1931849607618
 20
1787.117571322904
 30
0.0
 11
946.1931849607618
 21
1787.117571322904
 31
0.0
  0
LINE
  5
26F
330
17
100
AcDbEntity
  8
4
100
AcDbLine
 10
356.1931849607622
 20
1760.117571322904
 30
0.0
 11
947.1931849607618
 21
1760.117571322921
 31
0.0
  0
LINE
  5
270
330
17
100
AcDbEntity
  8
4
100
AcDbLine
 10
356.1931849607618
 20
1760.117571322904
 30
0.0
 11
356.1931849607618
 21
1786.117571322904
 31
0.0
  0
ARC
  5
271
330
17
100
AcDbEntity
  8
4
100
AcDbCircle
 10
357.1931849607618
 20
1786.117571322904
 30
0.0
 40
1.0
100
AcDbArc
 50
90.0
 51
180.0
  0
LINE
  5
272
330
17
100
AcDbEntity
  8
L-CENTER
 48
2.0
100
AcDbLine
 10
446.6931849607622
 20
1767.82615414396
 30
0.0
 11
446.6931849607622
 21
1809.12849368861
 31
0.0
  0
LINE
  5
273
330
17
100
AcDbEntity
  8
4
100
AcDbLine
 10
409.4074706750453
 20
1787.117571322904
 30
0.0
 11
535.3853743147961
 21
1804.932628403274
 31
0.0
  0
LINE
  5
274
330
17
100
AcDbEntity
  8
4
100
AcDbLine
 10
395.1238994072105
 20
1787.117571322904
 30
0.0
 11
536.4131429513095
 21
1807.097868389746
 31
0.0
  0
LINE
  5
275
330
17
100
AcDbEntity
  8
4
100
AcDbLine
 10
471.6931849607622
 20
1800.117571322904
 30
0.0
 11
421.6931849607622
 21
1800.117571322904
 31
0.0
  0
LINE
  5
276
330
17
100
AcDbEntity
  8
4
100
AcDbLine
 10
421.6931849607622
 20
1790.874844027446
 30
0.0
 11
421.6931849607622
 21
1800.117571322904
 31
0.0
  0
LINE
  5
277
330
17
100
AcDbEntity
  8
4
100
AcDbLine
 10
471.6931849607622
 20
1797.945551098154
 30
0.0
 11
471.6931849607622
 21
1800.117571322904
 31
0.0
  0
LINE
  5
278
330
17
100
AcDbEntity
  8
4
100
AcDbLine
 10
537.0365638223852
 20
1806.39297852322
 30
0.0
 11
543.493947049767
 21
1830.377544796353
 31
0.0
  0
ARC
  5
279
330
17
100
AcDbEntity
  8
4
100
AcDbCircle
 10
535.1053323053438
 20
1806.912925470115
 30
0.0
 40
2.0
100
AcDbArc
 50
278.0490617016718
 51
344.931511840494
  0
ARC
  5
27A
330
17
100
AcDbEntity
  8
4
100
AcDbCircle
 10
544.459562808288
 20
1830.117571322904
 30
0.0
 40
1.0
100
AcDbArc
 50
90.0
 51
164.9315118405208
  0
LINE
  5
27B
330
17
100
AcDbEntity
  8
4
100
AcDbLine
 10
586.6931849607622
 20
1831.117571322904
 30
0.0
 11
586.6931849607622
 21
1832.117571322904
 31
0.0
  0
LINE
  5
27C
330
17
100
AcDbEntity
  8
4
100
AcDbLine
 10
893.9788992464773
 20
1787.117571322904
 30
0.0
 11
768.0009956067279
 21
1804.932628403274
 31
0.0
  0
LINE
  5
27D
330
17
100
AcDbEntity
  8
4
100
AcDbLine
 10
908.2624705143153
 20
1787.117571322904
 30
0.0
 11
766.9732269702145
 21
1807.097868389746
 31
0.0
  0
LINE
  5
27E
330
17
100
AcDbEntity
  8
4
100
AcDbLine
 10
651.6931849607618
 20
1760.217571322904
 30
0.0
 11
651.6931849607618
 21
1760.217571322904
 31
0.0
  0
LINE
  5
27F
330
17
100
AcDbEntity
  8
4
100
AcDbLine
 10
651.6931849607618
 20
1760.217571322904
 30
0.0
 11
651.6931849607618
 21
1760.217571322904
 31
0.0
  0
LINE
  5
280
330
17
100
AcDbEntity
  8
4
100
AcDbLine
 10
676.6931849607618
 20
1789.460702613305
 30
0.0
 11
626.6931849607618
 21
1789.460702613305
 31
0.0
  0
LINE
  5
281
330
17
100
AcDbEntity
  8
4
100
AcDbLine
 10
676.6931849607618
 20
1797.117571322904
 30
0.0
 11
626.6931849607618
 21
1797.117571322904
 31
0.0
  0
LINE
  5
282
330
17
100
AcDbEntity
  8
4
100
AcDbLine
 10
626.6931849607618
 20
1797.117571322904
 30
0.0
 11
626.6931849607618
 21
1789.460702613305
 31
0.0
  0
LINE
  5
283
330
17
100
AcDbEntity
  8
4
100
AcDbLine
 10
676.6931849607618
 20
1797.117571322904
 30
0.0
 11
676.6931849607618
 21
1789.460702613305
 31
0.0
  0
LINE
  5
284
330
17
100
AcDbEntity
  8
4
100
AcDbLine
 10
716.6931849607636
 20
1831.117571322904
 30
0.0
 11
716.6931849607627
 21
1832.117571322904
 31
0.0
  0
LINE
  5
285
330
17
100
AcDbEntity
  8
4
100
AcDbLine
 10
766.3498060991387
 20
1806.39297852322
 30
0.0
 11
759.8924228717569
 21
1830.377544796353
 31
0.0
  0
ARC
  5
286
330
17
100
AcDbEntity
  8
4
100
AcDbCircle
 10
768.2810376161806
 20
1806.912925470115
 30
0.0
 40
2.0
100
AcDbArc
 50
195.068488159506
 51
261.9509382983153
  0
ARC
  5
287
330
17
100
AcDbEntity
  8
4
100
AcDbCircle
 10
758.9268071132365
 20
1830.117571322904
 30
0.0
 40
1.0
100
AcDbArc
 50
15.06848815947916
 51
90.0
  0
LINE
  5
288
330
17
100
AcDbEntity
  8
4
100
AcDbLine
 10
947.1931849607618
 20
1760.117571322904
 30
0.0
 11
947.1931849607618
 21
1786.117571322904
 31
0.0
  0
ARC
  5
289
330
17
100
AcDbEntity
  8
4
100
AcDbCircle
 10
946.1931849607618
 20
1786.117571322904
 30
0.0
 40
1.0
100
AcDbArc
 50
0.0
 51
90.0
  0
LINE
  5
28A
330
17
100
AcDbEntity
  8
4
100
AcDbLine
 10
1717.686226946485
 20
747.3267008696146
 30
0.0
 11
1717.686226946485
 21
758.2963559842171
 31
0.0
  0
LINE
  5
28B
330
17
100
AcDbEntity
  8
4
100
AcDbLine
 10
1698.686226946485
 20
758.2963559842171
 30
0.0
 11
1698.686226946485
 21
747.3267008696146
 31
0.0
  0
CIRCLE
  5
28C
330
17
100
AcDbEntity
  8
4
100
AcDbCircle
 10
1708.186226946485
 20
752.8115284269159
 30
0.0
 40
9.5
  0
LINE
  5
28D
330
17
100
AcDbEntity
  8
4
100
AcDbLine
 10
1708.186226946485
 20
763.7811835415184
 30
0.0
 11
1698.686226946485
 21
758.2963559842171
 31
0.0
  0
LINE
  5
28E
330
17
100
AcDbEntity
  8
4
100
AcDbLine
 10
1717.686226946485
 20
758.2963559842171
 30
0.0
 11
1708.186226946485
 21
763.7811835415184
 31
0.0
  0
LINE
  5
28F
330
17
100
AcDbEntity
  8
4
100
AcDbLine
 10
1708.186226946485
 20
741.8418733123124
 30
0.0
 11
1717.686226946485
 21
747.3267008696146
 31
0.0
  0
LINE
  5
290
330
17
100
AcDbEntity
  8
4
100
AcDbLine
 10
1698.686226946485
 20
747.3267008696146
 30
0.0
 11
1708.186226946485
 21
741.8418733123124
 31
0.0
  0
LINE
  5
291
330
17
100
AcDbEntity
  8
4
100
AcDbLine
 10
1815.18675345878
 20
747.3267008696146
 30
0.0
 11
1805.68675345878
 21
741.8418733123124
 31
0.0
  0
LINE
  5
292
330
17
100
AcDbEntity
  8
4
100
AcDbLine
 10
1805.68675345878
 20
763.7811835415184
 30
0.0
 11
1815.18675345878
 21
758.2963559842171
 31
0.0
  0
CIRCLE
  5
293
330
17
100
AcDbEntity
  8
4
100
AcDbCircle
 10
1805.68675345878
 20
752.8115284269159
 30
0.0
 40
9.5
  0
LINE
  5
294
330
17
100
AcDbEntity
  8
4
100
AcDbLine
 10
1815.18675345878
 20
758.2963559842171
 30
0.0
 11
1815.18675345878
 21
747.3267008696146
 31
0.0
  0
LINE
  5
295
330
17
100
AcDbEntity
  8
4
100
AcDbLine
 10
1805.68675345878
 20
741.8418733123124
 30
0.0
 11
1796.18675345878
 21
747.3267008696146
 31
0.0
  0
LINE
  5
296
330
17
100
AcDbEntity
  8
4
100
AcDbLine
 10
1796.18675345878
 20
758.2963559842171
 30
0.0
 11
1805.68675345878
 21
763.7811835415184
 31
0.0
  0
LINE
  5
297
330
17
100
AcDbEntity
  8
4
100
AcDbLine
 10
1796.18675345878
 20
747.3267008696146
 30
0.0
 11
1796.18675345878
 21
758.2963559842171
 31
0.0
  0
LINE
  5
298
330
17
100
AcDbEntity
  8
4
100
AcDbLine
 10
1844.937028092639
 20
673.8587205558965
 30
0.0
 11
1854.437028092639
 21
679.3435481131978
 31
0.0
  0
LINE
  5
299
330
17
100
AcDbEntity
  8
4
100
AcDbLine
 10
1854.437028092639
 20
657.4042378839918
 30
0.0
 11
1844.937028092639
 21
662.889065441294
 31
0.0
  0
CIRCLE
  5
29A
330
17
100
AcDbEntity
  8
4
100
AcDbCircle
 10
1854.437028092639
 20
668.3738929985952
 30
0.0
 40
9.5
  0
LINE
  5
29B
330
17
100
AcDbEntity
  8
4
100
AcDbLine
 10
1844.937028092639
 20
662.889065441294
 30
0.0
 11
1844.937028092639
 21
673.8587205558965
 31
0.0
  0
LINE
  5
29C
330
17
100
AcDbEntity
  8
4
100
AcDbLine
 10
1863.937028092639
 20
673.8587205558965
 30
0.0
 11
1863.937028092639
 21
662.889065441294
 31
0.0
  0
LINE
  5
29D
330
17
100
AcDbEntity
  8
4
100
AcDbLine
 10
1854.437028092639
 20
679.3435481131978
 30
0.0
 11
1863.937028092639
 21
673.8587205558965
 31
0.0
  0
LINE
  5
29E
330
17
100
AcDbEntity
  8
4
100
AcDbLine
 10
1863.937028092639
 20
662.889065441294
 30
0.0
 11
1854.437028092639
 21
657.4042378839918
 31
0.0
  0
LINE
  5
29F
330
17
100
AcDbEntity
  8
4
100
AcDbLine
 10
1649.936490202631
 20
662.8893759921864
 30
0.0
 11
1659.436490202631
 21
657.4045484348842
 31
0.0
  0
LINE
  5
2A0
330
17
100
AcDbEntity
  8
4
100
AcDbLine
 10
1659.436490202631
 20
679.3438586640902
 30
0.0
 11
1649.936490202631
 21
673.859031106789
 31
0.0
  0
CIRCLE
  5
2A1
330
17
100
AcDbEntity
  8
4
100
AcDbCircle
 10
1659.436490202631
 20
668.3742035494877
 30
0.0
 40
9.5
  0
LINE
  5
2A2
330
17
100
AcDbEntity
  8
4
100
AcDbLine
 10
1649.936490202631
 20
673.859031106789
 30
0.0
 11
1649.936490202631
 21
662.8893759921864
 31
0.0
  0
LINE
  5
2A3
330
17
100
AcDbEntity
  8
4
100
AcDbLine
 10
1659.436490202631
 20
657.4045484348842
 30
0.0
 11
1668.936490202631
 21
662.8893759921864
 31
0.0
  0
LINE
  5
2A4
330
17
100
AcDbEntity
  8
4
100
AcDbLine
 10
1668.936490202631
 20
673.859031106789
 30
0.0
 11
1659.436490202631
 21
679.3438586640902
 31
0.0
  0
LINE
  5
2A5
330
17
100
AcDbEntity
  8
4
100
AcDbLine
 10
1668.936490202631
 20
662.8893759921864
 30
0.0
 11
1668.936490202631
 21
673.859031106789
 31
0.0
  0
LINE
  5
2A6
330
17
100
AcDbEntity
  8
4
100
AcDbLine
 10
1698.686226946485
 20
589.4217062293608
 30
0.0
 11
1708.186226946485
 21
594.906533786663
 31
0.0
  0
LINE
  5
2A7
330
17
100
AcDbEntity
  8
4
100
AcDbLine
 10
1708.186226946485
 20
572.9672235574569
 30
0.0
 11
1698.686226946485
 21
578.4520511147582
 31
0.0
  0
CIRCLE
  5
2A8
330
17
100
AcDbEntity
  8
4
100
AcDbCircle
 10
1708.186226946485
 20
583.9368786720595
 30
0.0
 40
9.5
  0
LINE
  5
2A9
330
17
100
AcDbEntity
  8
4
100
AcDbLine
 10
1698.686226946485
 20
578.4520511147582
 30
0.0
 11
1698.686226946485
 21
589.4217062293608
 31
0.0
  0
LINE
  5
2AA
330
17
100
AcDbEntity
  8
4
100
AcDbLine
 10
1708.186226946485
 20
594.906533786663
 30
0.0
 11
1717.686226946485
 21
589.4217062293608
 31
0.0
  0
LINE
  5
2AB
330
17
100
AcDbEntity
  8
4
100
AcDbLine
 10
1717.686226946485
 20
578.4520511147582
 30
0.0
 11
1708.186226946485
 21
572.9672235574569
 31
0.0
  0
LINE
  5
2AC
330
17
100
AcDbEntity
  8
4
100
AcDbLine
 10
1717.686226946485
 20
589.4217062293608
 30
0.0
 11
1717.686226946485
 21
578.4520511147582
 31
0.0
  0
LINE
  5
2AD
330
17
100
AcDbEntity
  8
4
100
AcDbLine
 10
1796.18675345878
 20
578.4520511147582
 30
0.0
 11
1805.68675345878
 21
572.9672235574569
 31
0.0
  0
LINE
  5
2AE
330
17
100
AcDbEntity
  8
4
100
AcDbLine
 10
1805.68675345878
 20
594.906533786663
 30
0.0
 11
1796.18675345878
 21
589.4217062293608
 31
0.0
  0
CIRCLE
  5
2AF
330
17
100
AcDbEntity
  8
4
100
AcDbCircle
 10
1805.68675345878
 20
583.9368786720595
 30
0.0
 40
9.5
  0
LINE
  5
2B0
330
17
100
AcDbEntity
  8
4
100
AcDbLine
 10
1796.18675345878
 20
589.4217062293608
 30
0.0
 11
1796.18675345878
 21
578.4520511147582
 31
0.0
  0
LINE
  5
2B1
330
17
100
AcDbEntity
  8
4
100
AcDbLine
 10
1815.18675345878
 20
578.4520511147582
 30
0.0
 11
1815.18675345878
 21
589.4217062293608
 31
0.0
  0
LINE
  5
2B2
330
17
100
AcDbEntity
  8
4
100
AcDbLine
 10
1805.68675345878
 20
572.9672235574569
 30
0.0
 11
1815.18675345878
 21
578.4520511147582
 31
0.0
  0
LINE
  5
2B3
330
17
100
AcDbEntity
  8
4
100
AcDbLine
 10
1815.18675345878
 20
589.4217062293608
 30
0.0
 11
1805.68675345878
 21
594.906533786663
 31
0.0
  0
CIRCLE
  5
2B4
330
17
100
AcDbEntity
  8
4
100
AcDbCircle
 10
1756.936490202631
 20
668.3742035494877
 30
0.0
 40
45.0
  0
CIRCLE
  5
2B5
330
17
100
AcDbEntity
  8
4
100
AcDbCircle
 10
1756.936490202631
 20
668.3742035494877
 30
0.0
 40
50.0
  0
CIRCLE
  5
2B6
330
17
100
AcDbEntity
  8
4
100
AcDbCircle
 10
1756.936490202631
 20
668.3742035494877
 30
0.0
 40
72.0
  0
LINE
  5
2B7
330
17
100
AcDbEntity
  8
4
100
AcDbLine
 10
964.0931849607623
 20
1755.317571322912
 30
0.0
 11
964.0931849607623
 21
1526.317571322912
 31
0.0
  0
LINE
  5
2B8
330
17
100
AcDbEntity
  8
4
100
AcDbLine
 10
339.2931849607621
 20
1755.317571322912
 30
0.0
 11
339.2931849607621
 21
1526.317571322912
 31
0.0
  0
LINE
  5
2B9
330
17
100
AcDbEntity
  8
4
100
AcDbLine
 10
943.6931849607618
 20
1755.317571322912
 30
0.0
 11
964.0931849607623
 21
1755.317571322912
 31
0.0
  0
LINE
  5
2BA
330
17
100
AcDbEntity
  8
4
100
AcDbLine
 10
943.6931849607618
 20
1526.317571322912
 30
0.0
 11
964.0931849607623
 21
1526.317571322912
 31
0.0
  0
LINE
  5
2BB
330
17
100
AcDbEntity
  8
4
100
AcDbLine
 10
948.1931849607618
 20
1526.317571322912
 30
0.0
 11
948.1931849607618
 21
1524.817571322912
 31
0.0
  0
LINE
  5
2BC
330
17
100
AcDbEntity
  8
4
100
AcDbLine
 10
944.0931849607623
 20
1755.317571322912
 30
0.0
 11
944.0931849607623
 21
1526.317571322912
 31
0.0
  0
LINE
  5
2BD
330
17
100
AcDbEntity
  8
4
100
AcDbLine
 10
359.6931849607622
 20
1755.317571322912
 30
0.0
 11
339.2931849607621
 21
1755.317571322912
 31
0.0
  0
LINE
  5
2BE
330
17
100
AcDbEntity
  8
4
100
AcDbLine
 10
339.2931849607621
 20
1526.317571322912
 30
0.0
 11
359.6931849607622
 21
1526.317571322912
 31
0.0
  0
LINE
  5
2BF
330
17
100
AcDbEntity
  8
4
100
AcDbLine
 10
355.1931849607622
 20
1526.317571322912
 30
0.0
 11
355.1931849607622
 21
1524.817571322912
 31
0.0
  0
LINE
  5
2C0
330
17
100
AcDbEntity
  8
4
100
AcDbLine
 10
359.2931849607621
 20
1755.317571322912
 30
0.0
 11
359.2931849607621
 21
1526.317571322912
 31
0.0
  0
ARC
  5
2C1
330
17
100
AcDbEntity
  8
4
100
AcDbCircle
 10
961.297440825585
 20
1738.317571322912
 30
0.0
 40
13.7957441351769
100
AcDbArc
 50
336.5734024913729
 51
23.42659750862713
  0
LINE
  5
2C2
330
17
100
AcDbEntity
  8
4
100
AcDbLine
 10
975.0931849607623
 20
1730.090329986961
 30
0.0
 11
975.0931849607623
 21
1746.544812658864
 31
0.0
  0
LINE
  5
2C3
330
17
100
AcDbEntity
  8
4
100
AcDbLine
 10
964.0931849607623
 20
1749.287226437516
 30
0.0
 11
964.0931849607623
 21
1727.347916208309
 31
0.0
  0
LINE
  5
2C4
330
17
100
AcDbEntity
  8
4
100
AcDbLine
 10
967.0931849607623
 20
1749.287226437516
 30
0.0
 11
967.0931849607623
 21
1727.347916208309
 31
0.0
  0
LINE
  5
2C5
330
17
100
AcDbEntity
  8
4
100
AcDbLine
 10
973.9560040501356
 20
1743.802398880213
 30
0.0
 11
967.0931849607623
 21
1743.802398880213
 31
0.0
  0
LINE
  5
2C6
330
17
100
AcDbEntity
  8
4
100
AcDbLine
 10
973.9560040501356
 20
1749.287226437516
 30
0.0
 11
964.0931849607623
 21
1749.287226437516
 31
0.0
  0
ARC
  5
2C7
330
17
100
AcDbEntity
  8
4
100
AcDbCircle
 10
971.2178060854831
 20
1746.544812658864
 30
0.0
 40
3.875378875279244
100
AcDbArc
 50
314.9559267627452
 51
45.04407323726194
  0
LINE
  5
2C8
330
17
100
AcDbEntity
  8
4
100
AcDbLine
 10
973.9560040501356
 20
1732.832743765611
 30
0.0
 11
967.0931849607623
 21
1732.832743765611
 31
0.0
  0
LINE
  5
2C9
330
17
100
AcDbEntity
  8
4
100
AcDbLine
 10
964.0931849607623
 20
1727.347916208309
 30
0.0
 11
973.9560040501356
 21
1727.347916208309
 31
0.0
  0
LINE
  5
2CA
330
17
100
AcDbEntity
  8
L-CENTER
 48
2.0
100
AcDbLine
 10
978.6940248408664
 20
1738.317571322912
 30
0.0
 11
934.2529014851361
 21
1738.317571322912
 31
0.0
  0
ARC
  5
2CB
330
17
100
AcDbEntity
  8
4
100
AcDbCircle
 10
971.2178060854831
 20
1730.090329986961
 30
0.0
 40
3.875378875279264
100
AcDbArc
 50
314.9559267627452
 51
45.04407323726194
  0
ARC
  5
2CC
330
17
100
AcDbEntity
  8
4
100
AcDbCircle
 10
971.2178060854831
 20
1681.3400553531
 30
0.0
 40
3.875378875279264
100
AcDbArc
 50
314.9559267627452
 51
45.04407323726194
  0
LINE
  5
2CD
330
17
100
AcDbEntity
  8
4
100
AcDbLine
 10
964.0931849607623
 20
1700.536951803655
 30
0.0
 11
964.0931849607623
 21
1678.597641574449
 31
0.0
  0
LINE
  5
2CE
330
17
100
AcDbEntity
  8
4
100
AcDbLine
 10
967.0931849607623
 20
1700.536951803655
 30
0.0
 11
967.0931849607623
 21
1678.597641574449
 31
0.0
  0
LINE
  5
2CF
330
17
100
AcDbEntity
  8
4
100
AcDbLine
 10
964.0931849607623
 20
1678.597641574449
 30
0.0
 11
973.9560040501356
 21
1678.597641574449
 31
0.0
  0
LINE
  5
2D0
330
17
100
AcDbEntity
  8
L-CENTER
 48
2.0
100
AcDbLine
 10
978.6940248408664
 20
1689.567296689052
 30
0.0
 11
934.252901485137
 21
1689.567296689052
 31
0.0
  0
LINE
  5
2D1
330
17
100
AcDbEntity
  8
4
100
AcDbLine
 10
973.9560040501356
 20
1695.052124246353
 30
0.0
 11
967.0931849607623
 21
1695.052124246353
 31
0.0
  0
LINE
  5
2D2
330
17
100
AcDbEntity
  8
4
100
AcDbLine
 10
973.9560040501356
 20
1684.08246913175
 30
0.0
 11
967.0931849607623
 21
1684.08246913175
 31
0.0
  0
LINE
  5
2D3
330
17
100
AcDbEntity
  8
4
100
AcDbLine
 10
973.9560040501356
 20
1700.536951803655
 30
0.0
 11
964.0931849607623
 21
1700.536951803655
 31
0.0
  0
ARC
  5
2D4
330
17
100
AcDbEntity
  8
4
100
AcDbCircle
 10
961.297440825585
 20
1689.567296689052
 30
0.0
 40
13.7957441351769
100
AcDbArc
 50
336.5734024913729
 51
23.42659750862713
  0
LINE
  5
2D5
330
17
100
AcDbEntity
  8
4
100
AcDbLine
 10
975.0931849607623
 20
1681.3400553531
 30
0.0
 11
975.0931849607623
 21
1697.794538025004
 31
0.0
  0
ARC
  5
2D6
330
17
100
AcDbEntity
  8
4
100
AcDbCircle
 10
971.2178060854831
 20
1697.794538025004
 30
0.0
 40
3.875378875279244
100
AcDbArc
 50
314.9559267627452
 51
45.04407323726194
  0
ARC
  5
2D7
330
17
100
AcDbEntity
  8
4
100
AcDbCircle
 10
971.2178060854831
 20
1551.544812658863
 30
0.0
 40
3.875378875279264
100
AcDbArc
 50
314.9559267627452
 51
45.04407323726194
  0
LINE
  5
2D8
330
17
100
AcDbEntity
  8
4
100
AcDbLine
 10
964.0931849607623
 20
1532.347916208308
 30
0.0
 11
964.0931849607623
 21
1554.287226437514
 31
0.0
  0
LINE
  5
2D9
330
17
100
AcDbEntity
  8
4
100
AcDbLine
 10
967.0931849607623
 20
1532.347916208308
 30
0.0
 11
967.0931849607623
 21
1554.287226437514
 31
0.0
  0
LINE
  5
2DA
330
17
100
AcDbEntity
  8
4
100
AcDbLine
 10
973.9560040501356
 20
1581.098190842168
 30
0.0
 11
964.0931849607623
 21
1581.098190842168
 31
0.0
  0
LINE
  5
2DB
330
17
100
AcDbEntity
  8
4
100
AcDbLine
 10
973.9560040501356
 20
1597.552673514073
 30
0.0
 11
967.0931849607623
 21
1597.552673514073
 31
0.0
  0
LINE
  5
2DC
330
17
100
AcDbEntity
  8
4
100
AcDbLine
 10
973.9560040501356
 20
1586.58301839947
 30
0.0
 11
967.0931849607623
 21
1586.58301839947
 31
0.0
  0
LINE
  5
2DD
330
17
100
AcDbEntity
  8
L-CENTER
 48
2.0
100
AcDbLine
 10
978.6940248408664
 20
1592.067845956772
 30
0.0
 11
934.252901485137
 21
1592.067845956772
 31
0.0
  0
LINE
  5
2DE
330
17
100
AcDbEntity
  8
4
100
AcDbLine
 10
964.0931849607623
 20
1603.037501071374
 30
0.0
 11
973.9560040501356
 21
1603.037501071374
 31
0.0
  0
LINE
  5
2DF
330
17
100
AcDbEntity
  8
4
100
AcDbLine
 10
964.0931849607623
 20
1554.287226437514
 30
0.0
 11
973.9560040501356
 21
1554.287226437514
 31
0.0
  0
LINE
  5
2E0
330
17
100
AcDbEntity
  8
4
100
AcDbLine
 10
967.0931849607623
 20
1581.098190842168
 30
0.0
 11
967.0931849607623
 21
1603.037501071374
 31
0.0
  0
LINE
  5
2E1
330
17
100
AcDbEntity
  8
4
100
AcDbLine
 10
964.0931849607623
 20
1581.098190842168
 30
0.0
 11
964.0931849607623
 21
1603.037501071374
 31
0.0
  0
LINE
  5
2E2
330
17
100
AcDbEntity
  8
4
100
AcDbLine
 10
975.0931849607623
 20
1600.295087292723
 30
0.0
 11
975.0931849607623
 21
1583.840604620819
 31
0.0
  0
ARC
  5
2E3
330
17
100
AcDbEntity
  8
4
100
AcDbCircle
 10
961.297440825585
 20
1592.067845956772
 30
0.0
 40
13.7957441351769
100
AcDbArc
 50
336.5734024913729
 51
23.42659750862713
  0
ARC
  5
2E4
330
17
100
AcDbEntity
  8
4
100
AcDbCircle
 10
971.2178060854831
 20
1600.295087292723
 30
0.0
 40
3.875378875279264
100
AcDbArc
 50
314.9559267627452
 51
45.04407323726194
  0
ARC
  5
2E5
330
17
100
AcDbEntity
  8
4
100
AcDbCircle
 10
971.2178060854831
 20
1583.840604620819
 30
0.0
 40
3.875378875279244
100
AcDbArc
 50
314.9559267627452
 51
45.04407323726194
  0
LINE
  5
2E6
330
17
100
AcDbEntity
  8
L-CENTER
 48
2.0
100
AcDbLine
 10
978.6940248408664
 20
1543.317571322911
 30
0.0
 11
934.2529014851361
 21
1543.317571322911
 31
0.0
  0
LINE
  5
2E7
330
17
100
AcDbEntity
  8
4
100
AcDbLine
 10
973.9560040501356
 20
1537.83274376561
 30
0.0
 11
967.0931849607623
 21
1537.83274376561
 31
0.0
  0
LINE
  5
2E8
330
17
100
AcDbEntity
  8
4
100
AcDbLine
 10
973.9560040501356
 20
1548.802398880212
 30
0.0
 11
967.0931849607623
 21
1548.802398880212
 31
0.0
  0
LINE
  5
2E9
330
17
100
AcDbEntity
  8
4
100
AcDbLine
 10
973.9560040501356
 20
1532.347916208308
 30
0.0
 11
964.0931849607623
 21
1532.347916208308
 31
0.0
  0
ARC
  5
2EA
330
17
100
AcDbEntity
  8
4
100
AcDbCircle
 10
961.297440825585
 20
1543.317571322911
 30
0.0
 40
13.7957441351769
100
AcDbArc
 50
336.5734024913729
 51
23.42659750862713
  0
LINE
  5
2EB
330
17
100
AcDbEntity
  8
4
100
AcDbLine
 10
975.0931849607623
 20
1551.544812658863
 30
0.0
 11
975.0931849607623
 21
1535.090329986959
 31
0.0
  0
ARC
  5
2EC
330
17
100
AcDbEntity
  8
4
100
AcDbCircle
 10
971.2178060854831
 20
1535.090329986959
 30
0.0
 40
3.875378875279244
100
AcDbArc
 50
314.9559267627452
 51
45.04407323726194
  0
ARC
  5
2ED
330
17
100
AcDbEntity
  8
4
100
AcDbCircle
 10
332.1685638360414
 20
1730.090329986961
 30
0.0
 40
3.875378875279264
100
AcDbArc
 50
134.9559267627375
 51
225.044073237253
  0
LINE
  5
2EE
330
17
100
AcDbEntity
  8
4
100
AcDbLine
 10
339.2931849607621
 20
1749.287226437516
 30
0.0
 11
339.2931849607621
 21
1727.347916208309
 31
0.0
  0
LINE
  5
2EF
330
17
100
AcDbEntity
  8
4
100
AcDbLine
 10
336.2931849607621
 20
1749.287226437516
 30
0.0
 11
336.2931849607621
 21
1727.347916208309
 31
0.0
  0
LINE
  5
2F0
330
17
100
AcDbEntity
  8
4
100
AcDbLine
 10
329.4303658713889
 20
1700.536951803655
 30
0.0
 11
339.2931849607621
 21
1700.536951803655
 31
0.0
  0
LINE
  5
2F1
330
17
100
AcDbEntity
  8
4
100
AcDbLine
 10
329.4303658713889
 20
1684.08246913175
 30
0.0
 11
336.2931849607621
 21
1684.08246913175
 31
0.0
  0
LINE
  5
2F2
330
17
100
AcDbEntity
  8
4
100
AcDbLine
 10
329.4303658713889
 20
1695.052124246353
 30
0.0
 11
336.2931849607621
 21
1695.052124246353
 31
0.0
  0
LINE
  5
2F3
330
17
100
AcDbEntity
  8
L-CENTER
 48
2.0
100
AcDbLine
 10
324.692345080658
 20
1689.567296689052
 30
0.0
 11
369.1334684363874
 21
1689.567296689052
 31
0.0
  0
LINE
  5
2F4
330
17
100
AcDbEntity
  8
4
100
AcDbLine
 10
339.2931849607621
 20
1678.597641574449
 30
0.0
 11
329.4303658713889
 21
1678.597641574449
 31
0.0
  0
LINE
  5
2F5
330
17
100
AcDbEntity
  8
4
100
AcDbLine
 10
339.2931849607621
 20
1727.347916208309
 30
0.0
 11
329.4303658713889
 21
1727.347916208309
 31
0.0
  0
LINE
  5
2F6
330
17
100
AcDbEntity
  8
4
100
AcDbLine
 10
336.2931849607621
 20
1700.536951803655
 30
0.0
 11
336.2931849607621
 21
1678.597641574449
 31
0.0
  0
LINE
  5
2F7
330
17
100
AcDbEntity
  8
4
100
AcDbLine
 10
339.2931849607621
 20
1700.536951803655
 30
0.0
 11
339.2931849607621
 21
1678.597641574449
 31
0.0
  0
LINE
  5
2F8
330
17
100
AcDbEntity
  8
4
100
AcDbLine
 10
328.2931849607621
 20
1681.3400553531
 30
0.0
 11
328.2931849607621
 21
1697.794538025004
 31
0.0
  0
ARC
  5
2F9
330
17
100
AcDbEntity
  8
4
100
AcDbCircle
 10
342.0889290959394
 20
1689.567296689052
 30
0.0
 40
13.7957441351769
100
AcDbArc
 50
156.5734024913727
 51
203.4265975086273
  0
ARC
  5
2FA
330
17
100
AcDbEntity
  8
4
100
AcDbCircle
 10
332.1685638360414
 20
1681.3400553531
 30
0.0
 40
3.875378875279264
100
AcDbArc
 50
134.9559267627375
 51
225.044073237253
  0
ARC
  5
2FB
330
17
100
AcDbEntity
  8
4
100
AcDbCircle
 10
332.1685638360414
 20
1697.794538025004
 30
0.0
 40
3.875378875279244
100
AcDbArc
 50
134.9559267627375
 51
225.044073237253
  0
LINE
  5
2FC
330
17
100
AcDbEntity
  8
L-CENTER
 48
2.0
100
AcDbLine
 10
324.692345080658
 20
1738.317571322912
 30
0.0
 11
369.1334684363878
 21
1738.317571322912
 31
0.0
  0
LINE
  5
2FD
330
17
100
AcDbEntity
  8
4
100
AcDbLine
 10
329.4303658713889
 20
1743.802398880213
 30
0.0
 11
336.2931849607621
 21
1743.802398880213
 31
0.0
  0
LINE
  5
2FE
330
17
100
AcDbEntity
  8
4
100
AcDbLine
 10
329.4303658713889
 20
1732.832743765611
 30
0.0
 11
336.2931849607621
 21
1732.832743765611
 31
0.0
  0
LINE
  5
2FF
330
17
100
AcDbEntity
  8
4
100
AcDbLine
 10
329.4303658713889
 20
1749.287226437516
 30
0.0
 11
339.2931849607621
 21
1749.287226437516
 31
0.0
  0
ARC
  5
300
330
17
100
AcDbEntity
  8
4
100
AcDbCircle
 10
342.0889290959394
 20
1738.317571322912
 30
0.0
 40
13.7957441351769
100
AcDbArc
 50
156.5734024913727
 51
203.4265975086273
  0
LINE
  5
301
330
17
100
AcDbEntity
  8
4
100
AcDbLine
 10
328.2931849607621
 20
1730.090329986961
 30
0.0
 11
328.2931849607621
 21
1746.544812658864
 31
0.0
  0
ARC
  5
302
330
17
100
AcDbEntity
  8
4
100
AcDbCircle
 10
332.1685638360414
 20
1746.544812658864
 30
0.0
 40
3.875378875279244
100
AcDbArc
 50
134.9559267627375
 51
225.044073237253
  0
LINE
  5
303
330
17
100
AcDbEntity
  8
4
100
AcDbLine
 10
329.4303658713889
 20
1532.347916208308
 30
0.0
 11
339.2931849607621
 21
1532.347916208308
 31
0.0
  0
LINE
  5
304
330
17
100
AcDbEntity
  8
4
100
AcDbLine
 10
329.4303658713889
 20
1548.802398880212
 30
0.0
 11
336.2931849607621
 21
1548.802398880212
 31
0.0
  0
LINE
  5
305
330
17
100
AcDbEntity
  8
4
100
AcDbLine
 10
329.4303658713889
 20
1537.83274376561
 30
0.0
 11
336.2931849607621
 21
1537.83274376561
 31
0.0
  0
LINE
  5
306
330
17
100
AcDbEntity
  8
L-CENTER
 48
2.0
100
AcDbLine
 10
324.692345080658
 20
1543.317571322911
 30
0.0
 11
369.1334684363878
 21
1543.317571322911
 31
0.0
  0
LINE
  5
307
330
17
100
AcDbEntity
  8
4
100
AcDbLine
 10
339.2931849607621
 20
1554.287226437514
 30
0.0
 11
329.4303658713889
 21
1554.287226437514
 31
0.0
  0
LINE
  5
308
330
17
100
AcDbEntity
  8
4
100
AcDbLine
 10
336.2931849607621
 20
1532.347916208308
 30
0.0
 11
336.2931849607621
 21
1554.287226437514
 31
0.0
  0
LINE
  5
309
330
17
100
AcDbEntity
  8
4
100
AcDbLine
 10
339.2931849607621
 20
1532.347916208308
 30
0.0
 11
339.2931849607621
 21
1554.287226437514
 31
0.0
  0
ARC
  5
30A
330
17
100
AcDbEntity
  8
4
100
AcDbCircle
 10
332.1685638360414
 20
1535.090329986959
 30
0.0
 40
3.875378875279244
100
AcDbArc
 50
134.9559267627375
 51
225.044073237253
  0
LINE
  5
30B
330
17
100
AcDbEntity
  8
4
100
AcDbLine
 10
328.2931849607621
 20
1551.544812658863
 30
0.0
 11
328.2931849607621
 21
1535.090329986959
 31
0.0
  0
ARC
  5
30C
330
17
100
AcDbEntity
  8
4
100
AcDbCircle
 10
342.0889290959394
 20
1543.317571322911
 30
0.0
 40
13.7957441351769
100
AcDbArc
 50
156.5734024913727
 51
203.4265975086273
  0
ARC
  5
30D
330
17
100
AcDbEntity
  8
4
100
AcDbCircle
 10
332.1685638360414
 20
1551.544812658863
 30
0.0
 40
3.875378875279264
100
AcDbArc
 50
134.9559267627375
 51
225.044073237253
  0
LINE
  5
30E
330
17
100
AcDbEntity
  8
4
100
AcDbLine
 10
339.2931849607621
 20
1603.037501071374
 30
0.0
 11
329.4303658713889
 21
1603.037501071374
 31
0.0
  0
LINE
  5
30F
330
17
100
AcDbEntity
  8
L-CENTER
 48
2.0
100
AcDbLine
 10
324.692345080658
 20
1592.067845956772
 30
0.0
 11
369.1334684363874
 21
1592.067845956772
 31
0.0
  0
LINE
  5
310
330
17
100
AcDbEntity
  8
4
100
AcDbLine
 10
329.4303658713889
 20
1586.58301839947
 30
0.0
 11
336.2931849607621
 21
1586.58301839947
 31
0.0
  0
LINE
  5
311
330
17
100
AcDbEntity
  8
4
100
AcDbLine
 10
329.4303658713889
 20
1597.552673514073
 30
0.0
 11
336.2931849607621
 21
1597.552673514073
 31
0.0
  0
LINE
  5
312
330
17
100
AcDbEntity
  8
4
100
AcDbLine
 10
329.4303658713889
 20
1581.098190842168
 30
0.0
 11
339.2931849607621
 21
1581.098190842168
 31
0.0
  0
LINE
  5
313
330
17
100
AcDbEntity
  8
4
100
AcDbLine
 10
339.2931849607621
 20
1581.098190842168
 30
0.0
 11
339.2931849607621
 21
1603.037501071374
 31
0.0
  0
LINE
  5
314
330
17
100
AcDbEntity
  8
4
100
AcDbLine
 10
336.2931849607621
 20
1581.098190842168
 30
0.0
 11
336.2931849607621
 21
1603.037501071374
 31
0.0
  0
ARC
  5
315
330
17
100
AcDbEntity
  8
4
100
AcDbCircle
 10
332.1685638360414
 20
1583.840604620819
 30
0.0
 40
3.875378875279244
100
AcDbArc
 50
134.9559267627375
 51
225.044073237253
  0
ARC
  5
316
330
17
100
AcDbEntity
  8
4
100
AcDbCircle
 10
332.1685638360414
 20
1600.295087292723
 30
0.0
 40
3.875378875279264
100
AcDbArc
 50
134.9559267627375
 51
225.044073237253
  0
ARC
  5
317
330
17
100
AcDbEntity
  8
4
100
AcDbCircle
 10
342.0889290959394
 20
1592.067845956772
 30
0.0
 40
13.7957441351769
100
AcDbArc
 50
156.5734024913727
 51
203.4265975086273
  0
LINE
  5
318
330
17
100
AcDbEntity
  8
4
100
AcDbLine
 10
328.2931849607621
 20
1600.295087292723
 30
0.0
 11
328.2931849607621
 21
1583.840604620819
 31
0.0
  0
LINE
  5
319
330
17
100
AcDbEntity
  8
4
100
AcDbLine
 10
1000.693184960762
 20
1649.817571322912
 30
0.0
 11
1101.693184960762
 21
1649.817571322912
 31
0.0
  0
LINE
  5
31A
330
17
100
AcDbEntity
  8
4
100
AcDbLine
 10
1000.693184960762
 20
1631.817571322912
 30
0.0
 11
1101.693184960762
 21
1631.817571322912
 31
0.0
  0
LINE
  5
31B
330
17
100
AcDbEntity
  8
4
100
AcDbLine
 10
982.6931849607618
 20
1672.317571322912
 30
0.0
 11
1100.693184960762
 21
1672.317571322912
 31
0.0
  0
LINE
  5
31C
330
17
100
AcDbEntity
  8
4
100
AcDbLine
 10
982.6931849607618
 20
1609.317571322912
 30
0.0
 11
1100.693184960762
 21
1609.317571322912
 31
0.0
  0
LINE
  5
31D
330
17
100
AcDbEntity
  8
4
100
AcDbLine
 10
981.6931849607618
 20
1673.317571322912
 30
0.0
 11
981.6931849607618
 21
1608.317571322912
 31
0.0
  0
ARC
  5
31E
330
17
100
AcDbEntity
  8
4
100
AcDbCircle
 10
982.6931849607618
 20
1608.317571322912
 30
0.0
 40
1.0
100
AcDbArc
 50
90.0
 51
180.0
  0
ARC
  5
31F
330
17
100
AcDbEntity
  8
4
100
AcDbCircle
 10
1000.693184960762
 20
1640.817571322912
 30
0.0
 40
9.0
100
AcDbArc
 50
90.0
 51
270.0
  0
ARC
  5
320
330
17
100
AcDbEntity
  8
4
100
AcDbCircle
 10
982.6931849607618
 20
1673.317571322912
 30
0.0
 40
1.0
100
AcDbArc
 50
180.0
 51
270.0
  0
LINE
  5
321
330
17
100
AcDbEntity
  8
4
100
AcDbLine
 10
1100.693184960762
 20
1631.817571322912
 30
0.0
 11
1100.693184960762
 21
1609.317571322912
 31
0.0
  0
LINE
  5
322
330
17
100
AcDbEntity
  8
4
100
AcDbLine
 10
1101.693184960762
 20
1671.317571322912
 30
0.0
 11
1101.693184960762
 21
1610.317571322912
 31
0.0
  0
LINE
  5
323
330
17
100
AcDbEntity
  8
4
100
AcDbLine
 10
1100.693184960762
 20
1609.317571322912
 30
0.0
 11
1101.693184960762
 21
1610.317571322912
 31
0.0
  0
LINE
  5
324
330
17
100
AcDbEntity
  8
4
100
AcDbLine
 10
1100.693184960762
 20
1672.317571322912
 30
0.0
 11
1100.693184960762
 21
1649.817571322912
 31
0.0
  0
LINE
  5
325
330
17
100
AcDbEntity
  8
4
100
AcDbLine
 10
1100.693184960762
 20
1672.317571322912
 30
0.0
 11
1101.693184960762
 21
1671.317571322912
 31
0.0
  0
LINE
  5
326
330
17
100
AcDbEntity
  8
4
100
AcDbLine
 10
981.6931849607636
 20
1673.317571322912
 30
0.0
 11
965.0931869607621
 21
1673.317571322912
 31
0.0
  0
LINE
  5
327
330
17
100
AcDbEntity
  8
4
100
AcDbLine
 10
981.6931849607636
 20
1608.317571322912
 30
0.0
 11
965.0931869607621
 21
1608.317571322912
 31
0.0
  0
LINE
  5
328
330
17
100
AcDbEntity
  8
4
100
AcDbLine
 10
965.0931869607621
 20
1603.037501071374
 30
0.0
 11
965.0931869607621
 21
1678.597641574449
 31
0.0
  0
LINE
  5
329
330
17
100
AcDbEntity
  8
4
100
AcDbLine
 10
991.6931849607618
 20
1609.317571322912
 30
0.0
 11
991.6931849607618
 21
1450.817571322912
 31
0.0
  0
LINE
  5
32A
330
17
100
AcDbEntity
  8
4
100
AcDbLine
 10
605.1931849607618
 20
1841.817571322912
 30
0.0
 11
605.1931849607618
 21
1998.817571322912
 31
0.0
  0
LINE
  5
32B
330
17
100
AcDbEntity
  8
4
100
AcDbLine
 10
639.6931849607618
 20
2000.817571322912
 30
0.0
 11
639.6931849607618
 21
1862.817571322912
 31
0.0
  0
LINE
  5
32C
330
17
100
AcDbEntity
  8
4
100
AcDbLine
 10
698.1931849607618
 20
1841.817571322912
 30
0.0
 11
698.1931849607618
 21
1998.817571322912
 31
0.0
  0
LINE
  5
32D
330
17
100
AcDbEntity
  8
4
100
AcDbLine
 10
663.6931849607618
 20
2000.817571322912
 30
0.0
 11
663.6931849607618
 21
1862.817571322912
 31
0.0
  0
LINE
  5
32E
330
17
100
AcDbEntity
  8
4
100
AcDbLine
 10
604.1931849607622
 20
1840.817571322912
 30
0.0
 11
699.1931849607618
 21
1840.817571322912
 31
0.0
  0
ARC
  5
32F
330
17
100
AcDbEntity
  8
4
100
AcDbCircle
 10
699.1931849607627
 20
1841.817571322912
 30
0.0
 40
1.0
100
AcDbArc
 50
180.0
 51
270.0
  0
LINE
  5
330
330
17
100
AcDbEntity
  8
4
100
AcDbLine
 10
699.1931849607618
 20
1840.817571322912
 30
0.0
 11
699.1931849607618
 21
1840.817571322912
 31
0.0
  0
ARC
  5
331
330
17
100
AcDbEntity
  8
4
100
AcDbCircle
 10
651.6931849607627
 20
1862.817571322912
 30
0.0
 40
12.0
100
AcDbArc
 50
180.0
 51
0.0
  0
LINE
  5
332
330
17
100
AcDbEntity
  8
4
100
AcDbLine
 10
604.1931849607622
 20
1840.817571322912
 30
0.0
 11
604.1931849607622
 21
1840.817571322912
 31
0.0
  0
ARC
  5
333
330
17
100
AcDbEntity
  8
4
100
AcDbCircle
 10
604.1931849607622
 20
1841.817571322912
 30
0.0
 40
1.0
100
AcDbArc
 50
270.0
 51
0.0
  0
LINE
  5
334
330
17
100
AcDbEntity
  8
4
100
AcDbLine
 10
604.1931849607622
 20
1832.117571322904
 30
0.0
 11
604.1931849607622
 21
1840.817571322912
 31
0.0
  0
LINE
  5
335
330
17
100
AcDbEntity
  8
4
100
AcDbLine
 10
699.1931849607618
 20
1832.117571322904
 30
0.0
 11
699.1931849607618
 21
1840.817571322912
 31
0.0
  0
ARC
  5
336
330
17
100
AcDbEntity
  8
4
100
AcDbCircle
 10
1910.361013327354
 20
606.335038167503
 30
0.0
 40
3.875378875279264
100
AcDbArc
 50
314.9559267627452
 51
45.04407323725481
  0
LINE
  5
337
330
17
100
AcDbEntity
  8
4
100
AcDbLine
 10
1903.236392202632
 20
625.5319346180579
 30
0.0
 11
1903.236392202632
 21
603.5926243888518
 31
0.0
  0
LINE
  5
338
330
17
100
AcDbEntity
  8
4
100
AcDbLine
 10
1906.236392202632
 20
625.5319346180579
 30
0.0
 11
1906.236392202632
 21
603.5926243888518
 31
0.0
  0
LINE
  5
339
330
17
100
AcDbEntity
  8
4
100
AcDbLine
 10
1903.236392202632
 20
603.5926243888518
 30
0.0
 11
1913.099211292006
 21
603.5926243888518
 31
0.0
  0
LINE
  5
33A
330
17
100
AcDbEntity
  8
L-CENTER
 48
2.0
100
AcDbLine
 10
1917.837232082736
 20
614.5622795034544
 30
0.0
 11
1873.396108727007
 21
614.5622795034544
 31
0.0
  0
LINE
  5
33B
330
17
100
AcDbEntity
  8
4
100
AcDbLine
 10
1913.099211292006
 20
620.0471070607557
 30
0.0
 11
1906.236392202632
 21
620.0471070607557
 31
0.0
  0
LINE
  5
33C
330
17
100
AcDbEntity
  8
4
100
AcDbLine
 10
1913.099211292006
 20
609.0774519461531
 30
0.0
 11
1906.236392202632
 21
609.0774519461531
 31
0.0
  0
LINE
  5
33D
330
17
100
AcDbEntity
  8
4
100
AcDbLine
 10
1913.099211292006
 20
625.5319346180579
 30
0.0
 11
1903.236392202632
 21
625.5319346180579
 31
0.0
  0
ARC
  5
33E
330
17
100
AcDbEntity
  8
4
100
AcDbCircle
 10
1900.440648067455
 20
614.5622795034544
 30
0.0
 40
13.7957441351769
100
AcDbArc
 50
336.5734024913725
 51
23.42659750862663
  0
LINE
  5
33F
330
17
100
AcDbEntity
  8
4
100
AcDbLine
 10
1914.236392202632
 20
606.335038167503
 30
0.0
 11
1914.236392202632
 21
622.7895208394068
 31
0.0
  0
ARC
  5
340
330
17
100
AcDbEntity
  8
4
100
AcDbCircle
 10
1910.361013327354
 20
622.7895208394068
 30
0.0
 40
3.875378875279244
100
AcDbArc
 50
314.9559267627452
 51
45.04407323725481
  0
LINE
  5
341
330
17
100
AcDbEntity
  8
4
100
AcDbLine
 10
1914.236392202632
 20
140.4133709314731
 30
0.0
 11
1914.236392202632
 21
123.9588882595692
 31
0.0
  0
ARC
  5
342
330
17
100
AcDbEntity
  8
4
100
AcDbCircle
 10
1900.440648067455
 20
132.1861295955216
 30
0.0
 40
13.7957441351769
100
AcDbArc
 50
336.573402491372
 51
23.42659750862749
  0
LINE
  5
343
330
17
100
AcDbEntity
  8
4
100
AcDbLine
 10
1906.236392202632
 20
121.2164744809181
 30
0.0
 11
1906.236392202632
 21
143.1557847101242
 31
0.0
  0
LINE
  5
344
330
17
100
AcDbEntity
  8
4
100
AcDbLine
 10
1903.236392202632
 20
121.2164744809181
 30
0.0
 11
1903.236392202632
 21
143.1557847101242
 31
0.0
  0
LINE
  5
345
330
17
100
AcDbEntity
  8
L-CENTER
 48
2.0
100
AcDbLine
 10
1917.837232082736
 20
132.1861295955216
 30
0.0
 11
1873.396108727007
 21
132.1861295955216
 31
0.0
  0
LINE
  5
346
330
17
100
AcDbEntity
  8
4
100
AcDbLine
 10
1913.099211292006
 20
137.6709571528229
 30
0.0
 11
1906.236392202632
 21
137.6709571528229
 31
0.0
  0
LINE
  5
347
330
17
100
AcDbEntity
  8
4
100
AcDbLine
 10
1903.236392202632
 20
143.1557847101242
 30
0.0
 11
1913.099211292006
 21
143.1557847101242
 31
0.0
  0
ARC
  5
348
330
17
100
AcDbEntity
  8
4
100
AcDbCircle
 10
1910.361013327354
 20
140.4133709314731
 30
0.0
 40
3.875378875279264
100
AcDbArc
 50
314.955926762744
 51
45.04407323725601
  0
ARC
  5
349
330
17
100
AcDbEntity
  8
4
100
AcDbCircle
 10
1910.361013327354
 20
123.9588882595692
 30
0.0
 40
3.875378875279244
100
AcDbArc
 50
314.955926762744
 51
45.04407323725601
  0
LINE
  5
34A
330
17
100
AcDbEntity
  8
4
100
AcDbLine
 10
1913.099211292006
 20
121.2164744809181
 30
0.0
 11
1903.236392202632
 21
121.2164744809181
 31
0.0
  0
LINE
  5
34B
330
17
100
AcDbEntity
  8
4
100
AcDbLine
 10
1913.099211292006
 20
126.7013020382203
 30
0.0
 11
1906.236392202632
 21
126.7013020382203
 31
0.0
  0
LINE
  5
34C
330
17
100
AcDbEntity
  8
4
100
AcDbLine
 10
1914.236392202632
 20
365.1469632135365
 30
0.0
 11
1914.236392202632
 21
381.6014458854404
 31
0.0
  0
ARC
  5
34D
330
17
100
AcDbEntity
  8
4
100
AcDbCircle
 10
1900.440648067455
 20
373.374204549488
 30
0.0
 40
13.7957441351769
100
AcDbArc
 50
336.5734024913725
 51
23.42659750862663
  0
LINE
  5
34E
330
17
100
AcDbEntity
  8
4
100
AcDbLine
 10
1906.236392202632
 20
384.3438596640915
 30
0.0
 11
1906.236392202632
 21
362.4045494348854
 31
0.0
  0
LINE
  5
34F
330
17
100
AcDbEntity
  8
4
100
AcDbLine
 10
1903.236392202632
 20
384.3438596640915
 30
0.0
 11
1903.236392202632
 21
362.4045494348854
 31
0.0
  0
LINE
  5
350
330
17
100
AcDbEntity
  8
4
100
AcDbLine
 10
1913.099211292006
 20
367.8893769921867
 30
0.0
 11
1906.236392202632
 21
367.8893769921867
 31
0.0
  0
LINE
  5
351
330
17
100
AcDbEntity
  8
4
100
AcDbLine
 10
1903.236392202632
 20
362.4045494348854
 30
0.0
 11
1913.099211292006
 21
362.4045494348854
 31
0.0
  0
ARC
  5
352
330
17
100
AcDbEntity
  8
4
100
AcDbCircle
 10
1910.361013327354
 20
365.1469632135365
 30
0.0
 40
3.875378875279264
100
AcDbArc
 50
314.9559267627452
 51
45.04407323725481
  0
ARC
  5
353
330
17
100
AcDbEntity
  8
4
100
AcDbCircle
 10
1910.361013327354
 20
381.6014458854404
 30
0.0
 40
3.875378875279244
100
AcDbArc
 50
314.9559267627452
 51
45.04407323725481
  0
LINE
  5
354
330
17
100
AcDbEntity
  8
4
100
AcDbLine
 10
1913.099211292006
 20
384.3438596640915
 30
0.0
 11
1903.236392202632
 21
384.3438596640915
 31
0.0
  0
LINE
  5
355
330
17
100
AcDbEntity
  8
4
100
AcDbLine
 10
1913.099211292006
 20
378.8590321067893
 30
0.0
 11
1906.236392202632
 21
378.8590321067893
 31
0.0
  0
LINE
  5
356
330
17
100
AcDbEntity
  8
L-CENTER
 48
2.0
100
AcDbLine
 10
790.9431849607618
 20
1801.718411203009
 30
0.0
 11
790.9431849607618
 21
1757.277287847279
 31
0.0
  0
LINE
  5
357
330
17
100
AcDbEntity
  8
4
100
AcDbLine
 10
799.1704262967132
 20
1798.117571322904
 30
0.0
 11
782.7159436248103
 21
1798.117571322904
 31
0.0
  0
ARC
  5
358
330
17
100
AcDbEntity
  8
4
100
AcDbCircle
 10
790.9431849607627
 20
1784.321827187727
 30
0.0
 40
13.7957441351769
100
AcDbArc
 50
66.5734024913725
 51
113.4265975086275
  0
LINE
  5
359
330
17
100
AcDbEntity
  8
4
100
AcDbLine
 10
779.9735298461592
 20
1790.117571322904
 30
0.0
 11
801.9128400753643
 21
1790.117571322904
 31
0.0
  0
LINE
  5
35A
330
17
100
AcDbEntity
  8
4
100
AcDbLine
 10
779.9735298461592
 20
1787.117571322904
 30
0.0
 11
801.9128400753643
 21
1787.117571322904
 31
0.0
  0
LINE
  5
35B
330
17
100
AcDbEntity
  8
4
100
AcDbLine
 10
796.428012518064
 20
1796.980390412278
 30
0.0
 11
796.428012518064
 21
1790.117571322904
 31
0.0
  0
LINE
  5
35C
330
17
100
AcDbEntity
  8
4
100
AcDbLine
 10
801.9128400753643
 20
1787.117571322904
 30
0.0
 11
801.9128400753643
 21
1796.980390412278
 31
0.0
  0
ARC
  5
35D
330
17
100
AcDbEntity
  8
4
100
AcDbCircle
 10
799.1704262967141
 20
1794.242192447625
 30
0.0
 40
3.875378875279264
100
AcDbArc
 50
44.95592676275351
 51
135.0440732372572
  0
ARC
  5
35E
330
17
100
AcDbEntity
  8
4
100
AcDbCircle
 10
782.7159436248103
 20
1794.242192447625
 30
0.0
 40
3.875378875279244
100
AcDbArc
 50
44.95592676275351
 51
135.044073237256
  0
LINE
  5
35F
330
17
100
AcDbEntity
  8
4
100
AcDbLine
 10
779.9735298461592
 20
1796.980390412278
 30
0.0
 11
779.9735298461592
 21
1787.117571322904
 31
0.0
  0
LINE
  5
360
330
17
100
AcDbEntity
  8
4
100
AcDbLine
 10
785.4583574034614
 20
1796.980390412278
 30
0.0
 11
785.4583574034614
 21
1790.117571322904
 31
0.0
  0
LINE
  5
361
330
17
100
AcDbEntity
  8
L-CENTER
 48
2.0
100
AcDbLine
 10
930.1931849607618
 20
1801.718411203009
 30
0.0
 11
930.1931849607618
 21
1757.277287847279
 31
0.0
  0
LINE
  5
362
330
17
100
AcDbEntity
  8
4
100
AcDbLine
 10
938.4204262967132
 20
1798.117571322904
 30
0.0
 11
921.9659436248103
 21
1798.117571322904
 31
0.0
  0
ARC
  5
363
330
17
100
AcDbEntity
  8
4
100
AcDbCircle
 10
930.1931849607618
 20
1784.321827187727
 30
0.0
 40
13.7957441351769
100
AcDbArc
 50
66.5734024913683
 51
113.4265975086275
  0
LINE
  5
364
330
17
100
AcDbEntity
  8
4
100
AcDbLine
 10
919.2235298461592
 20
1790.117571322904
 30
0.0
 11
941.1628400753643
 21
1790.117571322904
 31
0.0
  0
LINE
  5
365
330
17
100
AcDbEntity
  8
4
100
AcDbLine
 10
919.2235298461592
 20
1787.117571322904
 30
0.0
 11
941.1628400753643
 21
1787.117571322904
 31
0.0
  0
LINE
  5
366
330
17
100
AcDbEntity
  8
4
100
AcDbLine
 10
935.678012518064
 20
1796.980390412278
 30
0.0
 11
935.678012518064
 21
1790.117571322904
 31
0.0
  0
LINE
  5
367
330
17
100
AcDbEntity
  8
4
100
AcDbLine
 10
941.1628400753643
 20
1787.117571322904
 30
0.0
 11
941.1628400753643
 21
1796.980390412278
 31
0.0
  0
ARC
  5
368
330
17
100
AcDbEntity
  8
4
100
AcDbCircle
 10
938.4204262967141
 20
1794.242192447625
 30
0.0
 40
3.875378875279264
100
AcDbArc
 50
44.9559267627547
 51
135.0440732372572
  0
ARC
  5
369
330
17
100
AcDbEntity
  8
4
100
AcDbCircle
 10
921.9659436248103
 20
1794.242192447625
 30
0.0
 40
3.875378875279244
100
AcDbArc
 50
44.9559267627547
 51
135.0440732372572
  0
LINE
  5
36A
330
17
100
AcDbEntity
  8
4
100
AcDbLine
 10
919.2235298461592
 20
1796.980390412278
 30
0.0
 11
919.2235298461592
 21
1787.117571322904
 31
0.0
  0
LINE
  5
36B
330
17
100
AcDbEntity
  8
4
100
AcDbLine
 10
924.7083574034614
 20
1796.980390412278
 30
0.0
 11
924.7083574034614
 21
1790.117571322904
 31
0.0
  0
ARC
  5
36C
330
17
100
AcDbEntity
  8
4
100
AcDbCircle
 10
931.6931849607618
 20
1790.817571322912
 30
0.0
 40
13.0
100
AcDbArc
 50
163.5777460805699
 51
196.0766498316402
  0
ARC
  5
36D
330
17
100
AcDbEntity
  8
4
100
AcDbCircle
 10
520.6704262967146
 20
1794.242192447625
 30
0.0
 40
3.875378875279244
100
AcDbArc
 50
44.955926762744
 51
135.044073237256
  0
LINE
  5
36E
330
17
100
AcDbEntity
  8
4
100
AcDbLine
 10
523.4128400753657
 20
1787.117571322904
 30
0.0
 11
501.4735298461596
 21
1787.117571322904
 31
0.0
  0
LINE
  5
36F
330
17
100
AcDbEntity
  8
4
100
AcDbLine
 10
523.4128400753657
 20
1790.117571322904
 30
0.0
 11
501.4735298461596
 21
1790.117571322904
 31
0.0
  0
LINE
  5
370
330
17
100
AcDbEntity
  8
4
100
AcDbLine
 10
504.2159436248107
 20
1798.117571322904
 30
0.0
 11
520.6704262967146
 21
1798.117571322904
 31
0.0
  0
LINE
  5
371
330
17
100
AcDbEntity
  8
4
100
AcDbLine
 10
523.4128400753657
 20
1796.980390412278
 30
0.0
 11
523.4128400753657
 21
1787.117571322904
 31
0.0
  0
LINE
  5
372
330
17
100
AcDbEntity
  8
L-CENTER
100
AcDbLine
 10
512.4431849607622
 20
1801.718411203009
 30
0.0
 11
512.4431849607622
 21
1757.277287847279
 31
0.0
  0
LINE
  5
373
330
17
100
AcDbEntity
  8
4
100
AcDbLine
 10
517.9280125180635
 20
1796.980390412278
 30
0.0
 11
517.9280125180635
 21
1790.117571322904
 31
0.0
  0
ARC
  5
374
330
17
100
AcDbEntity
  8
4
100
AcDbCircle
 10
504.2159436248103
 20
1794.242192447625
 30
0.0
 40
3.875378875279264
100
AcDbArc
 50
44.95592676274281
 51
135.044073237256
  0
LINE
  5
375
330
17
100
AcDbEntity
  8
4
100
AcDbLine
 10
501.4735298461596
 20
1787.117571322904
 30
0.0
 11
501.4735298461596
 21
1796.980390412278
 31
0.0
  0
LINE
  5
376
330
17
100
AcDbEntity
  8
4
100
AcDbLine
 10
506.9583574034609
 20
1796.980390412278
 30
0.0
 11
506.9583574034609
 21
1790.117571322904
 31
0.0
  0
ARC
  5
377
330
17
100
AcDbEntity
  8
4
100
AcDbCircle
 10
512.4431849607622
 20
1784.321827187727
 30
0.0
 40
13.7957441351769
100
AcDbArc
 50
66.5734024913725
 51
113.4265975086292
  0
ARC
  5
378
330
17
100
AcDbEntity
  8
4
100
AcDbCircle
 10
364.9659436248103
 20
1794.242192447625
 30
0.0
 40
3.875378875279264
100
AcDbArc
 50
44.95592676274281
 51
135.044073237256
  0
LINE
  5
379
330
17
100
AcDbEntity
  8
4
100
AcDbLine
 10
384.1628400753657
 20
1787.117571322904
 30
0.0
 11
362.2235298461596
 21
1787.117571322904
 31
0.0
  0
LINE
  5
37A
330
17
100
AcDbEntity
  8
4
100
AcDbLine
 10
384.1628400753657
 20
1790.117571322904
 30
0.0
 11
362.2235298461596
 21
1790.117571322904
 31
0.0
  0
LINE
  5
37B
330
17
100
AcDbEntity
  8
4
100
AcDbLine
 10
364.9659436248107
 20
1798.117571322904
 30
0.0
 11
381.4204262967146
 21
1798.117571322904
 31
0.0
  0
LINE
  5
37C
330
17
100
AcDbEntity
  8
4
100
AcDbLine
 10
378.6780125180635
 20
1796.980390412278
 30
0.0
 11
378.6780125180635
 21
1790.117571322904
 31
0.0
  0
LINE
  5
37D
330
17
100
AcDbEntity
  8
4
100
AcDbLine
 10
384.1628400753657
 20
1796.980390412278
 30
0.0
 11
384.1628400753657
 21
1787.117571322904
 31
0.0
  0
ARC
  5
37E
330
17
100
AcDbEntity
  8
4
100
AcDbCircle
 10
381.4204262967146
 20
1794.242192447625
 30
0.0
 40
3.875378875279244
100
AcDbArc
 50
44.955926762744
 51
135.044073237256
  0
LINE
  5
37F
330
17
100
AcDbEntity
  8
4
100
AcDbLine
 10
367.7083574034609
 20
1796.980390412278
 30
0.0
 11
367.7083574034609
 21
1790.117571322904
 31
0.0
  0
ARC
  5
380
330
17
100
AcDbEntity
  8
4
100
AcDbCircle
 10
373.1931849607622
 20
1784.321827187727
 30
0.0
 40
13.7957441351769
100
AcDbArc
 50
66.5734024913725
 51
113.4265975086275
  0
LINE
  5
381
330
17
100
AcDbEntity
  8
4
100
AcDbLine
 10
362.2235298461596
 20
1787.117571322904
 30
0.0
 11
362.2235298461596
 21
1796.980390412278
 31
0.0
  0
LINE
  5
382
330
17
100
AcDbEntity
  8
L-CENTER
 48
2.0
100
AcDbLine
 10
373.1931849607622
 20
1801.718411203009
 30
0.0
 11
373.1931849607622
 21
1757.277287847279
 31
0.0
  0
ARC
  5
383
330
17
100
AcDbEntity
  8
4
100
AcDbCircle
 10
371.6931849607622
 20
1790.817571322912
 30
0.0
 40
13.0
100
AcDbArc
 50
33.2456332316481
 51
196.5358596539425
  0
LINE
  5
384
330
17
100
AcDbEntity
  8
4
100
AcDbLine
 10
964.0930849607621
 20
763.7811146640913
 30
0.0
 11
964.0930849607621
 21
741.8418044348853
 31
0.0
  0
LINE
  5
385
330
17
100
AcDbEntity
  8
4
100
AcDbLine
 10
967.0930849607621
 20
763.7811146640913
 30
0.0
 11
967.0930849607621
 21
741.8418044348853
 31
0.0
  0
ARC
  5
386
330
17
100
AcDbEntity
  8
4
100
AcDbCircle
 10
961.2973408255848
 20
752.8114595494878
 30
0.0
 40
13.7957441351769
100
AcDbArc
 50
336.5734024913729
 51
23.42659750862626
  0
LINE
  5
387
330
17
100
AcDbEntity
  8
4
100
AcDbLine
 10
975.0930849607621
 20
744.5842182135364
 30
0.0
 11
975.0930849607621
 21
761.0387008854402
 31
0.0
  0
ARC
  5
388
330
17
100
AcDbEntity
  8
4
100
AcDbCircle
 10
971.2177060854838
 20
744.5842182135364
 30
0.0
 40
3.875378875279264
100
AcDbArc
 50
314.9559267627452
 51
45.04407323725481
  0
LINE
  5
389
330
17
100
AcDbEntity
  8
4
100
AcDbLine
 10
964.0930849607621
 20
741.8418044348853
 30
0.0
 11
973.9559040501363
 21
741.8418044348853
 31
0.0
  0
LINE
  5
38A
330
17
100
AcDbEntity
  8
4
100
AcDbLine
 10
973.9559040501363
 20
747.3266319921865
 30
0.0
 11
967.0930849607621
 21
747.3266319921865
 31
0.0
  0
LINE
  5
38B
330
17
100
AcDbEntity
  8
4
100
AcDbLine
 10
973.9559040501363
 20
758.2962871067891
 30
0.0
 11
967.0930849607621
 21
758.2962871067891
 31
0.0
  0
LINE
  5
38C
330
17
100
AcDbEntity
  8
4
100
AcDbLine
 10
973.9559040501363
 20
763.7811146640913
 30
0.0
 11
964.0930849607621
 21
763.7811146640913
 31
0.0
  0
ARC
  5
38D
330
17
100
AcDbEntity
  8
4
100
AcDbCircle
 10
971.2177060854838
 20
761.0387008854402
 30
0.0
 40
3.875378875279244
100
AcDbArc
 50
314.9559267627452
 51
45.04407323725481
  0
LINE
  5
38E
330
17
100
AcDbEntity
  8
4
100
AcDbLine
 10
973.9559040501363
 20
679.3438586640912
 30
0.0
 11
964.0930849607621
 21
679.3438586640912
 31
0.0
  0
LINE
  5
38F
330
17
100
AcDbEntity
  8
4
100
AcDbLine
 10
973.9559040501363
 20
673.859031106789
 30
0.0
 11
967.0930849607621
 21
673.859031106789
 31
0.0
  0
LINE
  5
390
330
17
100
AcDbEntity
  8
4
100
AcDbLine
 10
973.9559040501363
 20
662.8893759921864
 30
0.0
 11
967.0930849607621
 21
662.8893759921864
 31
0.0
  0
LINE
  5
391
330
17
100
AcDbEntity
  8
4
100
AcDbLine
 10
964.0930849607621
 20
657.4045484348851
 30
0.0
 11
973.9559040501363
 21
657.4045484348851
 31
0.0
  0
LINE
  5
392
330
17
100
AcDbEntity
  8
4
100
AcDbLine
 10
967.0930849607621
 20
679.3438586640912
 30
0.0
 11
967.0930849607621
 21
657.4045484348851
 31
0.0
  0
LINE
  5
393
330
17
100
AcDbEntity
  8
4
100
AcDbLine
 10
964.0930849607621
 20
679.3438586640912
 30
0.0
 11
964.0930849607621
 21
657.4045484348851
 31
0.0
  0
ARC
  5
394
330
17
100
AcDbEntity
  8
4
100
AcDbCircle
 10
971.2177060854838
 20
676.6014448854401
 30
0.0
 40
3.875378875279244
100
AcDbArc
 50
314.9559267627452
 51
45.04407323725481
  0
ARC
  5
395
330
17
100
AcDbEntity
  8
4
100
AcDbCircle
 10
971.2177060854838
 20
660.1469622135362
 30
0.0
 40
3.875378875279264
100
AcDbArc
 50
314.9559267627452
 51
45.04407323725481
  0
LINE
  5
396
330
17
100
AcDbEntity
  8
4
100
AcDbLine
 10
975.0930849607621
 20
660.1469622135362
 30
0.0
 11
975.0930849607621
 21
676.6014448854401
 31
0.0
  0
ARC
  5
397
330
17
100
AcDbEntity
  8
4
100
AcDbCircle
 10
961.2973408255848
 20
668.3742035494877
 30
0.0
 40
13.7957441351769
100
AcDbArc
 50
336.5734024913729
 51
23.42659750862626
  0
LINE
  5
398
330
17
100
AcDbEntity
  8
4
100
AcDbLine
 10
964.0930849607621
 20
572.9672924348849
 30
0.0
 11
973.9559040501363
 21
572.9672924348849
 31
0.0
  0
LINE
  5
399
330
17
100
AcDbEntity
  8
4
100
AcDbLine
 10
973.9559040501363
 20
578.4521199921862
 30
0.0
 11
967.0930849607621
 21
578.4521199921862
 31
0.0
  0
LINE
  5
39A
330
17
100
AcDbEntity
  8
4
100
AcDbLine
 10
973.9559040501363
 20
589.4217751067888
 30
0.0
 11
967.0930849607621
 21
589.4217751067888
 31
0.0
  0
LINE
  5
39B
330
17
100
AcDbEntity
  8
4
100
AcDbLine
 10
973.9559040501363
 20
594.906602664091
 30
0.0
 11
964.0930849607621
 21
594.906602664091
 31
0.0
  0
LINE
  5
39C
330
17
100
AcDbEntity
  8
4
100
AcDbLine
 10
964.0930849607621
 20
594.906602664091
 30
0.0
 11
964.0930849607621
 21
572.9672924348849
 31
0.0
  0
LINE
  5
39D
330
17
100
AcDbEntity
  8
4
100
AcDbLine
 10
967.0930849607621
 20
594.906602664091
 30
0.0
 11
967.0930849607621
 21
572.9672924348849
 31
0.0
  0
ARC
  5
39E
330
17
100
AcDbEntity
  8
4
100
AcDbCircle
 10
971.2177060854838
 20
575.709706213536
 30
0.0
 40
3.875378875279264
100
AcDbArc
 50
314.9559267627452
 51
45.04407323725481
  0
ARC
  5
39F
330
17
100
AcDbEntity
  8
4
100
AcDbCircle
 10
961.2973408255848
 20
583.9369475494875
 30
0.0
 40
13.7957441351769
100
AcDbArc
 50
336.5734024913729
 51
23.42659750862626
  0
LINE
  5
3A0
330
17
100
AcDbEntity
  8
4
100
AcDbLine
 10
975.0930849607621
 20
575.709706213536
 30
0.0
 11
975.0930849607621
 21
592.1641888854399
 31
0.0
  0
ARC
  5
3A1
330
17
100
AcDbEntity
  8
4
100
AcDbCircle
 10
971.2177060854838
 20
592.1641888854399
 30
0.0
 40
3.875378875279244
100
AcDbArc
 50
314.9559267627452
 51
45.04407323725481
  0
LINE
  5
3A2
330
17
100
AcDbEntity
  8
4
100
AcDbLine
 10
329.4304658713891
 20
763.781114664102
 30
0.0
 11
339.2932849607623
 21
763.7811146641018
 31
0.0
  0
LINE
  5
3A3
330
17
100
AcDbEntity
  8
4
100
AcDbLine
 10
329.4304658713886
 20
758.2962871067998
 30
0.0
 11
336.2932849607619
 21
758.2962871067996
 31
0.0
  0
LINE
  5
3A4
330
17
100
AcDbEntity
  8
4
100
AcDbLine
 10
329.4304658713882
 20
747.3266319921972
 30
0.0
 11
336.2932849607614
 21
747.326631992197
 31
0.0
  0
LINE
  5
3A5
330
17
100
AcDbEntity
  8
4
100
AcDbLine
 10
339.2932849607614
 20
741.8418044348957
 30
0.0
 11
329.4304658713882
 21
741.841804434896
 31
0.0
  0
LINE
  5
3A6
330
17
100
AcDbEntity
  8
4
100
AcDbLine
 10
336.2932849607623
 20
763.7811146641018
 30
0.0
 11
336.2932849607614
 21
741.8418044348957
 31
0.0
  0
LINE
  5
3A7
330
17
100
AcDbEntity
  8
4
100
AcDbLine
 10
339.2932849607623
 20
763.7811146641018
 30
0.0
 11
339.2932849607614
 21
741.8418044348957
 31
0.0
  0
ARC
  5
3A8
330
17
100
AcDbEntity
  8
4
100
AcDbCircle
 10
332.1686638360416
 20
761.0387008854509
 30
0.0
 40
3.875378875279244
100
AcDbArc
 50
134.9559267627422
 51
225.0440732372483
  0
ARC
  5
3A9
330
17
100
AcDbEntity
  8
4
100
AcDbCircle
 10
332.1686638360407
 20
744.584218213547
 30
0.0
 40
3.875378875279264
100
AcDbArc
 50
134.9559267627422
 51
225.0440732372542
  0
LINE
  5
3AA
330
17
100
AcDbEntity
  8
4
100
AcDbLine
 10
328.2932849607614
 20
744.584218213547
 30
0.0
 11
328.2932849607623
 21
761.0387008854509
 31
0.0
  0
ARC
  5
3AB
330
17
100
AcDbEntity
  8
4
100
AcDbCircle
 10
342.0890290959387
 20
752.8114595494981
 30
0.0
 40
13.7957441351769
100
AcDbArc
 50
156.5734024913697
 51
203.4265975086263
  0
LINE
  5
3AC
330
17
100
AcDbEntity
  8
4
100
AcDbLine
 10
339.2932849607587
 20
657.4045484348956
 30
0.0
 11
329.4304658713854
 21
657.4045484348958
 31
0.0
  0
LINE
  5
3AD
330
17
100
AcDbEntity
  8
4
100
AcDbLine
 10
329.4304658713854
 20
662.8893759921971
 30
0.0
 11
336.2932849607587
 21
662.8893759921968
 31
0.0
  0
LINE
  5
3AE
330
17
100
AcDbEntity
  8
4
100
AcDbLine
 10
329.4304658713859
 20
673.8590311067996
 30
0.0
 11
336.2932849607591
 21
673.8590311067994
 31
0.0
  0
LINE
  5
3AF
330
17
100
AcDbEntity
  8
4
100
AcDbLine
 10
329.4304658713863
 20
679.3438586641018
 30
0.0
 11
339.2932849607596
 21
679.3438586641016
 31
0.0
  0
LINE
  5
3B0
330
17
100
AcDbEntity
  8
4
100
AcDbLine
 10
339.2932849607596
 20
679.3438586641016
 30
0.0
 11
339.2932849607587
 21
657.4045484348956
 31
0.0
  0
LINE
  5
3B1
330
17
100
AcDbEntity
  8
4
100
AcDbLine
 10
336.2932849607596
 20
679.3438586641016
 30
0.0
 11
336.2932849607587
 21
657.4045484348956
 31
0.0
  0
ARC
  5
3B2
330
17
100
AcDbEntity
  8
4
100
AcDbCircle
 10
332.1686638360379
 20
660.1469622135469
 30
0.0
 40
3.875378875279264
100
AcDbArc
 50
134.9559267627422
 51
225.0440732372542
  0
ARC
  5
3B3
330
17
100
AcDbEntity
  8
4
100
AcDbCircle
 10
342.089029095936
 20
668.3742035494979
 30
0.0
 40
13.7957441351769
100
AcDbArc
 50
156.5734024913697
 51
203.4265975086263
  0
LINE
  5
3B4
330
17
100
AcDbEntity
  8
4
100
AcDbLine
 10
328.2932849607587
 20
660.1469622135469
 30
0.0
 11
328.2932849607591
 21
676.6014448854507
 31
0.0
  0
ARC
  5
3B5
330
17
100
AcDbEntity
  8
4
100
AcDbCircle
 10
332.1686638360384
 20
676.6014448854507
 30
0.0
 40
3.875378875279244
100
AcDbArc
 50
134.9559267627422
 51
225.0440732372542
  0
LINE
  5
3B6
330
17
100
AcDbEntity
  8
4
100
AcDbLine
 10
329.4304658713831
 20
594.9066026641017
 30
0.0
 11
339.2932849607564
 21
594.9066026641015
 31
0.0
  0
LINE
  5
3B7
330
17
100
AcDbEntity
  8
4
100
AcDbLine
 10
329.4304658713827
 20
589.4217751067995
 30
0.0
 11
336.293284960756
 21
589.4217751067993
 31
0.0
  0
LINE
  5
3B8
330
17
100
AcDbEntity
  8
4
100
AcDbLine
 10
329.4304658713827
 20
578.4521199921969
 30
0.0
 11
336.293284960756
 21
578.4521199921967
 31
0.0
  0
LINE
  5
3B9
330
17
100
AcDbEntity
  8
4
100
AcDbLine
 10
339.293284960756
 20
572.9672924348954
 30
0.0
 11
329.4304658713827
 21
572.9672924348956
 31
0.0
  0
LINE
  5
3BA
330
17
100
AcDbEntity
  8
4
100
AcDbLine
 10
336.2932849607564
 20
594.9066026641015
 30
0.0
 11
336.293284960756
 21
572.9672924348954
 31
0.0
  0
LINE
  5
3BB
330
17
100
AcDbEntity
  8
4
100
AcDbLine
 10
339.2932849607564
 20
594.9066026641015
 30
0.0
 11
339.293284960756
 21
572.9672924348954
 31
0.0
  0
LINE
  5
3BC
330
17
100
AcDbEntity
  8
4
100
AcDbLine
 10
328.293284960756
 20
575.7097062135467
 30
0.0
 11
328.2932849607564
 21
592.1641888854506
 31
0.0
  0
ARC
  5
3BD
330
17
100
AcDbEntity
  8
4
100
AcDbCircle
 10
332.1686638360352
 20
575.7097062135467
 30
0.0
 40
3.875378875279264
100
AcDbArc
 50
134.9559267627422
 51
225.0440732372483
  0
ARC
  5
3BE
330
17
100
AcDbEntity
  8
4
100
AcDbCircle
 10
332.1686638360356
 20
592.1641888854506
 30
0.0
 40
3.875378875279244
100
AcDbArc
 50
134.9559267627422
 51
225.0440732372542
  0
ARC
  5
3BF
330
17
100
AcDbEntity
  8
4
100
AcDbCircle
 10
342.0890290959333
 20
583.9369475494977
 30
0.0
 40
13.7957441351769
100
AcDbArc
 50
156.5734024913697
 51
203.4265975086263
  0
ARC
  5
3C0
330
17
100
AcDbEntity
  8
4
100
AcDbCircle
 10
651.6931849607618
 20
1640.817571322912
 30
0.0
 40
25.0
100
AcDbArc
 50
23.57817847820067
 51
156.4218215217982
  0
LINE
  5
3C1
330
17
100
AcDbEntity
  8
L-CENTER
 48
2.0
100
AcDbLine
 10
491.6931849607622
 20
1683.153275331548
 30
0.0
 11
491.6931849607622
 21
1600.91991005206
 31
0.0
  0
CIRCLE
  5
3C2
330
17
100
AcDbEntity
  8
4
100
AcDbCircle
 10
491.6931849607622
 20
1640.817571322912
 30
0.0
 40
25.0
  0
CIRCLE
  5
3C3
330
17
100
AcDbEntity
  8
4
100
AcDbCircle
 10
491.6931849607622
 20
1640.817571322912
 30
0.0
 40
23.0
  0
LWPOLYLINE
  5
3C4
330
17
100
AcDbEntity
  8
4
100
AcDbPolyline
 90
        6
 70
     1
 43
0.0
 10
514.6931849607622
 20
1640.817571322912
 10
503.1931849607622
 20
1660.736155609954
 10
480.1931849607622
 20
1660.736155609954
 10
468.6931849607622
 20
1640.817571322912
 10
480.1931849607622
 20
1620.89898703587
 10
503.1931849607622
 20
1620.89898703587
  0
LINE
  5
3C5
330
17
100
AcDbEntity
  8
4
100
AcDbLine
 10
616.6931849607618
 20
1630.817571322912
 30
0.0
 11
686.6931849607618
 21
1630.817571322912
 31
0.0
  0
LINE
  5
3C6
330
17
100
AcDbEntity
  8
4
100
AcDbLine
 10
616.6931849607618
 20
1650.817571322912
 30
0.0
 11
686.6931849607618
 21
1650.817571322912
 31
0.0
  0
ARC
  5
3C7
330
17
100
AcDbEntity
  8
4
100
AcDbCircle
 10
651.6931849607618
 20
1640.817571322912
 30
0.0
 40
22.5
100
AcDbArc
 50
206.387799961243
 51
333.612200038757
  0
ARC
  5
3C8
330
17
100
AcDbEntity
  8
4
100
AcDbCircle
 10
651.6931849607618
 20
1640.817571322912
 30
0.0
 40
20.0
100
AcDbArc
 50
209.9999999999999
 51
330.0000000000002
  0
ARC
  5
3C9
330
17
100
AcDbEntity
  8
4
100
AcDbCircle
 10
651.6931849607618
 20
1640.817571322912
 30
0.0
 40
20.0
100
AcDbArc
 50
29.99999999999988
 51
150.0000000000001
  0
ARC
  5
3CA
330
17
100
AcDbEntity
  8
4
100
AcDbCircle
 10
651.6931849607618
 20
1640.817571322912
 30
0.0
 40
22.5
100
AcDbArc
 50
26.38779996124302
 51
153.612200038757
  0
ARC
  5
3CB
330
17
100
AcDbEntity
  8
4
100
AcDbCircle
 10
686.6931849607618
 20
1640.817571322912
 30
0.0
 40
10.0
100
AcDbArc
 50
270.0
 51
90.0
  0
ARC
  5
3CC
330
17
100
AcDbEntity
  8
4
100
AcDbCircle
 10
616.6931849607618
 20
1640.817571322912
 30
0.0
 40
10.0
100
AcDbArc
 50
90.0
 51
270.0
  0
ARC
  5
3CD
330
17
100
AcDbEntity
  8
4
100
AcDbCircle
 10
651.6931849607618
 20
1640.817571322912
 30
0.0
 40
25.0
100
AcDbArc
 50
203.5781784782018
 51
336.4218215217994
  0
LINE
  5
3CE
330
17
100
AcDbEntity
  8
L-CENTER
 48
2.0
100
AcDbLine
 10
414.6931839607623
 20
1617.431304770882
 30
0.0
 11
414.6931839607623
 21
1665.538596692522
 31
0.0
  0
CIRCLE
  5
3CF
330
17
100
AcDbEntity
  8
4
100
AcDbCircle
 10
414.6931839607623
 20
1640.817571322912
 30
0.0
 40
16.0
  0
CIRCLE
  5
3D0
330
17
100
AcDbEntity
  8
4
100
AcDbCircle
 10
888.6931859607621
 20
1640.817571322912
 30
0.0
 40
16.0
  0
LINE
  5
3D1
330
17
100
AcDbEntity
  8
L-CENTER
 48
2.0
100
AcDbLine
 10
888.6931859607621
 20
1617.431304770882
 30
0.0
 11
888.6931859607621
 21
1665.538596692522
 31
0.0
  0
LINE
  5
3D2
330
17
100
AcDbEntity
  8
4
100
AcDbLine
 10
578.6931879607623
 20
1474.705660338555
 30
0.0
 11
724.6931835107616
 21
1474.705660338555
 31
0.0
  0
LINE
  5
3D3
330
17
100
AcDbEntity
  8
4
100
AcDbLine
 10
578.6931879607623
 20
1476.817571322912
 30
0.0
 11
578.6931879607623
 21
1474.705660338555
 31
0.0
  0
LINE
  5
3D4
330
17
100
AcDbEntity
  8
4
100
AcDbLine
 10
592.7127793157424
 20
1496.817571322912
 30
0.0
 11
578.6931879607623
 21
1476.81757132291
 31
0.0
  0
LINE
  5
3D5
330
17
100
AcDbEntity
  8
4
100
AcDbLine
 10
578.6931879607623
 20
1476.817571322912
 30
0.0
 11
536.6931849607622
 21
1476.817571322912
 31
0.0
  0
LINE
  5
3D6
330
17
100
AcDbEntity
  8
4
100
AcDbLine
 10
594.1931857646808
 20
1496.817571322912
 30
0.0
 11
578.6931879607623
 21
1474.705660338555
 31
0.0
  0
LINE
  5
3D7
330
17
100
AcDbEntity
  8
4
100
AcDbLine
 10
904.6931839607623
 20
816.3742025494878
 30
0.0
 11
888.6931859607621
 21
816.3742025494878
 31
0.0
  0
LINE
  5
3D8
330
17
100
AcDbEntity
  8
4
100
AcDbLine
 10
888.6931859607621
 20
818.3742075494881
 30
0.0
 11
904.6931839607623
 21
818.3742075494881
 31
0.0
  0
LINE
  5
3D9
330
17
100
AcDbEntity
  8
4
100
AcDbLine
 10
888.6931859607621
 20
819.3742065494882
 30
0.0
 11
902.6931859607621
 21
819.3742065494882
 31
0.0
  0
LINE
  5
3DA
330
17
100
AcDbEntity
  8
4
100
AcDbLine
 10
884.4431849607618
 20
792.3742055494884
 30
0.0
 11
892.9431869607624
 21
792.3742055494884
 31
0.0
  0
ARC
  5
3DB
330
17
100
AcDbEntity
  8
4
100
AcDbCircle
 10
892.9431869607624
 20
782.8429565494882
 30
0.0
 40
9.531249
100
AcDbArc
 50
63.51896000000171
 51
116.4810399999983
  0
LINE
  5
3DC
330
17
100
AcDbEntity
  8
4
100
AcDbLine
 10
888.6931859607621
 20
800.374204549488
 30
0.0
 11
903.6931849607618
 21
800.374204549488
 31
0.0
  0
LINE
  5
3DD
330
17
100
AcDbEntity
  8
4
100
AcDbLine
 10
903.6931849607618
 20
800.374204549488
 30
0.0
 11
903.6931849607618
 21
816.3742025494878
 31
0.0
  0
ARC
  5
3DE
330
17
100
AcDbEntity
  8
4
100
AcDbCircle
 10
903.1931819607626
 20
794.3742035494877
 30
0.0
 40
6.000001
100
AcDbArc
 50
90.0
 51
180.0
  0
LINE
  5
3DF
330
17
100
AcDbEntity
  8
4
100
AcDbLine
 10
897.1931879607628
 20
794.3742035494877
 30
0.0
 11
897.1931879607628
 21
785.3742055494884
 31
0.0
  0
LINE
  5
3E0
330
17
100
AcDbEntity
  8
4
100
AcDbLine
 10
902.6931859607621
 20
819.3742065494882
 30
0.0
 11
904.6931839607623
 21
818.3742075494881
 31
0.0
  0
LINE
  5
3E1
330
17
100
AcDbEntity
  8
4
100
AcDbLine
 10
904.6931839607623
 20
816.3742025494878
 30
0.0
 11
904.6931839607623
 21
818.3742075494881
 31
0.0
  0
LINE
  5
3E2
330
17
100
AcDbEntity
  8
L-CENTER
 48
2.0
100
AcDbLine
 10
888.6931859607621
 20
824.9237085494881
 30
0.0
 11
888.6931859607621
 21
770.5159281735957
 31
0.0
  0
LINE
  5
3E3
330
17
100
AcDbEntity
  8
4
100
AcDbLine
 10
873.6931869607624
 20
800.374204549488
 30
0.0
 11
873.6931869607624
 21
816.3742025494878
 31
0.0
  0
ARC
  5
3E4
330
17
100
AcDbEntity
  8
4
100
AcDbCircle
 10
874.193182960762
 20
794.3742035494877
 30
0.0
 40
6.000001
100
AcDbArc
 50
0.0
 51
90.0
  0
ARC
  5
3E5
330
17
100
AcDbEntity
  8
4
100
AcDbCircle
 10
884.4431849607618
 20
782.8429565494882
 30
0.0
 40
9.531249
100
AcDbArc
 50
63.51895999999559
 51
116.4810399999983
  0
LINE
  5
3E6
330
17
100
AcDbEntity
  8
4
100
AcDbLine
 10
880.1931839607623
 20
785.3742055494884
 30
0.0
 11
880.1931839607623
 21
794.3742035494877
 31
0.0
  0
LINE
  5
3E7
330
17
100
AcDbEntity
  8
4
100
AcDbLine
 10
888.6931859607621
 20
800.374204549488
 30
0.0
 11
873.6931869607624
 21
800.374204549488
 31
0.0
  0
LINE
  5
3E8
330
17
100
AcDbEntity
  8
4
100
AcDbLine
 10
888.6931859607621
 20
819.3742065494882
 30
0.0
 11
874.6931859607621
 21
819.3742065494882
 31
0.0
  0
LINE
  5
3E9
330
17
100
AcDbEntity
  8
4
100
AcDbLine
 10
888.6931859607621
 20
818.3742075494881
 30
0.0
 11
872.6931879607628
 21
818.3742075494881
 31
0.0
  0
LINE
  5
3EA
330
17
100
AcDbEntity
  8
4
100
AcDbLine
 10
872.6931879607628
 20
816.3742025494878
 30
0.0
 11
888.6931859607621
 21
816.3742025494878
 31
0.0
  0
LINE
  5
3EB
330
17
100
AcDbEntity
  8
4
100
AcDbLine
 10
874.6931859607621
 20
819.3742065494882
 30
0.0
 11
872.6931879607628
 21
818.3742075494881
 31
0.0
  0
LINE
  5
3EC
330
17
100
AcDbEntity
  8
4
100
AcDbLine
 10
872.6931879607628
 20
816.3742025494878
 30
0.0
 11
872.6931879607628
 21
818.3742075494881
 31
0.0
  0
LINE
  5
3ED
330
17
100
AcDbEntity
  8
L-CENTER
 48
2.0
100
AcDbLine
 10
322.2943129607625
 20
583.9369475494875
 30
0.0
 11
384.8753149607624
 21
583.9369475494875
 31
0.0
  0
LINE
  5
3EE
330
17
100
AcDbEntity
  8
L-CENTER
 48
2.0
100
AcDbLine
 10
322.2943129607625
 20
752.8114595494878
 30
0.0
 11
384.8753149607624
 21
752.8114595494878
 31
0.0
  0
ARC
  5
560
330
17
100
AcDbEntity
  8
4
100
AcDbCircle
 10
1902.236392202632
 20
667.8742015494879
 30
0.0
 40
1.0
100
AcDbArc
 50
0.0
 51
90.0
  0
ARC
  5
561
330
17
100
AcDbEntity
  8
4
100
AcDbCircle
 10
651.6931849607618
 20
605.374204549488
 30
0.0
 40
22.5
100
AcDbArc
 50
180.0
 51
0.0
  0
LINE
  5
562
330
17
100
AcDbEntity
  8
4
100
AcDbLine
 10
674.1931849607618
 20
605.374204549488
 30
0.0
 11
674.1931849607618
 21
632.6231186822188
 31
0.0
  0
ARC
  5
563
330
17
100
AcDbEntity
  8
4
100
AcDbCircle
 10
802.6931849607627
 20
733.3742045494887
 30
0.0
 40
9.0
100
AcDbArc
 50
0.0
 51
90.0
  0
LINE
  5
564
330
17
100
AcDbEntity
  8
4
100
AcDbLine
 10
734.6931849607608
 20
739.3742045494885
 30
0.0
 11
734.6931849607608
 21
700.3742045494882
 31
0.0
  0
LINE
  5
565
330
17
100
AcDbEntity
  8
4
100
AcDbLine
 10
737.6931849607608
 20
697.3742045494882
 30
0.0
 11
765.6931849607608
 21
697.3742045494889
 31
0.0
  0
ARC
  5
566
330
17
100
AcDbEntity
  8
4
100
AcDbCircle
 10
802.6931849607608
 20
706.3742045494887
 30
0.0
 40
9.0
100
AcDbArc
 50
270.0
 51
0.0
  0
LINE
  5
567
330
17
100
AcDbEntity
  8
4
100
AcDbLine
 10
780.6931849607608
 20
697.3742045494889
 30
0.0
 11
802.6931849607608
 21
697.3742045494891
 31
0.0
  0
LINE
  5
568
330
17
100
AcDbEntity
  8
4
100
AcDbLine
 10
811.6931849607627
 20
733.3742045494887
 30
0.0
 11
811.6931849607627
 21
731.8742045494887
 31
0.0
  0
LINE
  5
569
330
17
100
AcDbEntity
  8
4
100
AcDbLine
 10
811.6931849607608
 20
707.8742045494891
 30
0.0
 11
811.6931849607608
 21
706.3742045494882
 31
0.0
  0
LINE
  5
56A
330
17
100
AcDbEntity
  8
4
100
AcDbLine
 10
737.6931849607608
 20
742.3742045494885
 30
0.0
 11
742.6931849607608
 21
742.3742045494882
 31
0.0
  0
LINE
  5
56B
330
17
100
AcDbEntity
  8
4
100
AcDbLine
 10
780.6931849607627
 20
742.3742045494887
 30
0.0
 11
802.6931849607627
 21
742.3742045494887
 31
0.0
  0
LINE
  5
56C
330
17
100
AcDbEntity
  8
4
100
AcDbLine
 10
745.6931849607608
 20
739.3742045494882
 30
0.0
 11
745.6931849607608
 21
711.3742045494889
 31
0.0
  0
LINE
  5
56D
330
17
100
AcDbEntity
  8
4
100
AcDbLine
 10
748.6931849607608
 20
708.3742045494889
 30
0.0
 11
765.6931849607608
 21
708.3742045494885
 31
0.0
  0
LINE
  5
56E
330
17
100
AcDbEntity
  8
4
100
AcDbLine
 10
768.6931849607608
 20
705.3742045494885
 30
0.0
 11
768.6931849607608
 21
700.3742045494889
 31
0.0
  0
ARC
  5
56F
330
17
100
AcDbEntity
  8
4
100
AcDbCircle
 10
737.6931849607608
 20
739.3742045494885
 30
0.0
 40
3.0
100
AcDbArc
 50
90.0
 51
180.0
  0
ARC
  5
570
330
17
100
AcDbEntity
  8
4
100
AcDbCircle
 10
742.6931849607608
 20
739.3742045494882
 30
0.0
 40
3.0
100
AcDbArc
 50
0.0
 51
90.0
  0
ARC
  5
571
330
17
100
AcDbEntity
  8
4
100
AcDbCircle
 10
748.6931849607608
 20
711.3742045494889
 30
0.0
 40
3.0
100
AcDbArc
 50
180.0
 51
270.0
  0
ARC
  5
572
330
17
100
AcDbEntity
  8
4
100
AcDbCircle
 10
765.6931849607608
 20
705.3742045494885
 30
0.0
 40
3.0
100
AcDbArc
 50
0.0
 51
90.0
  0
ARC
  5
573
330
17
100
AcDbEntity
  8
4
100
AcDbCircle
 10
737.6931849607608
 20
700.3742045494882
 30
0.0
 40
3.0
100
AcDbArc
 50
180.0
 51
270.0
  0
ARC
  5
574
330
17
100
AcDbEntity
  8
4
100
AcDbCircle
 10
765.6931849607608
 20
700.3742045494889
 30
0.0
 40
3.0
100
AcDbArc
 50
270.0
 51
0.0
  0
LINE
  5
575
330
17
100
AcDbEntity
  8
4
100
AcDbLine
 10
777.6931849607627
 20
739.3742045494887
 30
0.0
 11
777.6931849607608
 21
700.3742045494889
 31
0.0
  0
ARC
  5
576
330
17
100
AcDbEntity
  8
4
100
AcDbCircle
 10
780.6931849607608
 20
700.3742045494889
 30
0.0
 40
3.0
100
AcDbArc
 50
180.0
 51
270.0
  0
ARC
  5
577
330
17
100
AcDbEntity
  8
4
100
AcDbCircle
 10
780.6931849607627
 20
739.3742045494887
 30
0.0
 40
3.0
100
AcDbArc
 50
90.0
 51
180.0
  0
ARC
  5
578
330
17
100
AcDbEntity
  8
4
100
AcDbCircle
 10
811.6931849607627
 20
719.8742045494887
 30
0.0
 40
6.0
100
AcDbArc
 50
126.8698976458484
 51
233.1301023541516
  0
ARC
  5
579
330
17
100
AcDbEntity
  8
4
100
AcDbCircle
 10
802.6931849607627
 20
731.8742045494887
 30
0.0
 40
9.0
100
AcDbArc
 50
306.8698976458411
 51
0.0
  0
ARC
  5
57A
330
17
100
AcDbEntity
  8
4
100
AcDbCircle
 10
802.6931849607608
 20
707.8742045494891
 30
0.0
 40
9.0
100
AcDbArc
 50
0.0
 51
53.13010235415164
  0
LINE
  5
57B
330
17
100
AcDbEntity
  8
4
100
AcDbLine
 10
820.6931849607627
 20
722.3742045494885
 30
0.0
 11
820.6931849607627
 21
717.3742045494887
 31
0.0
  0
LINE
  5
57C
330
17
100
AcDbEntity
  8
4
100
AcDbLine
 10
831.6931849607627
 20
722.3742045494885
 30
0.0
 11
831.6931849607618
 21
717.3742045494885
 31
0.0
  0
LINE
  5
57D
330
17
100
AcDbEntity
  8
4
100
AcDbLine
 10
823.6931849607627
 20
725.3742045494885
 30
0.0
 11
828.6931849607627
 21
725.3742045494885
 31
0.0
  0
LINE
  5
57E
330
17
100
AcDbEntity
  8
4
100
AcDbLine
 10
823.6931849607627
 20
714.3742045494887
 30
0.0
 11
828.6931849607618
 21
714.3742045494885
 31
0.0
  0
ARC
  5
57F
330
17
100
AcDbEntity
  8
4
100
AcDbCircle
 10
823.6931849607627
 20
722.3742045494885
 30
0.0
 40
3.0
100
AcDbArc
 50
90.0
 51
180.0
  0
ARC
  5
580
330
17
100
AcDbEntity
  8
4
100
AcDbCircle
 10
828.6931849607627
 20
722.3742045494885
 30
0.0
 40
3.0
100
AcDbArc
 50
0.0
 51
90.0
  0
ARC
  5
581
330
17
100
AcDbEntity
  8
4
100
AcDbCircle
 10
828.6931849607618
 20
717.3742045494885
 30
0.0
 40
3.0
100
AcDbArc
 50
270.0
 51
0.0
  0
ARC
  5
582
330
17
100
AcDbEntity
  8
4
100
AcDbCircle
 10
823.6931849607627
 20
717.3742045494887
 30
0.0
 40
3.0
100
AcDbArc
 50
180.0
 51
270.0
  0
LINE
  5
583
330
17
100
AcDbEntity
  8
4
100
AcDbLine
 10
840.6931849607627
 20
739.3742045494885
 30
0.0
 11
840.6931849607608
 21
700.3742045494889
 31
0.0
  0
LINE
  5
584
330
17
100
AcDbEntity
  8
4
100
AcDbLine
 10
851.6931849607627
 20
739.3742045494885
 30
0.0
 11
851.6931849607608
 21
700.3742045494889
 31
0.0
  0
LINE
  5
585
330
17
100
AcDbEntity
  8
4
100
AcDbLine
 10
843.6931849607627
 20
742.3742045494885
 30
0.0
 11
848.6931849607627
 21
742.3742045494885
 31
0.0
  0
LINE
  5
586
330
17
100
AcDbEntity
  8
4
100
AcDbLine
 10
843.6931849607608
 20
697.3742045494889
 30
0.0
 11
848.6931849607608
 21
697.3742045494889
 31
0.0
  0
ARC
  5
587
330
17
100
AcDbEntity
  8
4
100
AcDbCircle
 10
843.6931849607608
 20
700.3742045494889
 30
0.0
 40
3.0
100
AcDbArc
 50
180.0
 51
270.0
  0
ARC
  5
588
330
17
100
AcDbEntity
  8
4
100
AcDbCircle
 10
848.6931849607608
 20
700.3742045494889
 30
0.0
 40
3.0
100
AcDbArc
 50
270.0
 51
0.0
  0
ARC
  5
589
330
17
100
AcDbEntity
  8
4
100
AcDbCircle
 10
848.6931849607627
 20
739.3742045494885
 30
0.0
 40
3.0
100
AcDbArc
 50
0.0
 51
90.0
  0
ARC
  5
58A
330
17
100
AcDbEntity
  8
4
100
AcDbCircle
 10
843.6931849607627
 20
739.3742045494885
 30
0.0
 40
3.0
100
AcDbArc
 50
90.0
 51
180.0
  0
LINE
  5
58B
330
17
100
AcDbEntity
  8
4
100
AcDbLine
 10
860.6931849607627
 20
733.3742045494887
 30
0.0
 11
860.6931849607618
 21
706.3742045494889
 31
0.0
  0
LINE
  5
58C
330
17
100
AcDbEntity
  8
4
100
AcDbLine
 10
869.6931849607618
 20
697.3742045494887
 30
0.0
 11
881.6931849607627
 21
697.3742045494894
 31
0.0
  0
LINE
  5
58D
330
17
100
AcDbEntity
  8
4
100
AcDbLine
 10
869.6931849607627
 20
742.3742045494885
 30
0.0
 11
881.6931849607627
 21
742.3742045494885
 31
0.0
  0
LINE
  5
58E
330
17
100
AcDbEntity
  8
4
100
AcDbLine
 10
890.6931849607627
 20
733.374204549488
 30
0.0
 11
890.6931849607627
 21
706.3742045494889
 31
0.0
  0
ARC
  5
58F
330
17
100
AcDbEntity
  8
4
100
AcDbCircle
 10
869.6931849607618
 20
706.3742045494887
 30
0.0
 40
9.0
100
AcDbArc
 50
180.0
 51
270.0
  0
ARC
  5
590
330
17
100
AcDbEntity
  8
4
100
AcDbCircle
 10
869.6931849607627
 20
733.3742045494885
 30
0.0
 40
9.0
100
AcDbArc
 50
90.0
 51
180.0
  0
ARC
  5
591
330
17
100
AcDbEntity
  8
4
100
AcDbCircle
 10
881.6931849607627
 20
733.3742045494882
 30
0.0
 40
9.0
100
AcDbArc
 50
0.0
 51
90.0
  0
ARC
  5
592
330
17
100
AcDbEntity
  8
4
100
AcDbCircle
 10
881.6931849607627
 20
706.3742045494891
 30
0.0
 40
9.0
100
AcDbArc
 50
270.0
 51
0.0
  0
LINE
  5
593
330
17
100
AcDbEntity
  8
4
100
AcDbLine
 10
903.6931849607627
 20
746.3742045494887
 30
0.0
 11
903.6931849607608
 21
693.3742045494901
 31
0.0
  0
LINE
  5
594
330
17
100
AcDbEntity
  8
4
100
AcDbLine
 10
730.6931849607608
 20
755.3742045494866
 30
0.0
 11
894.6931849607627
 21
755.3742045494887
 31
0.0
  0
LINE
  5
595
330
17
100
AcDbEntity
  8
4
100
AcDbLine
 10
730.6931849607627
 20
684.374204549481
 30
0.0
 11
894.6931849607627
 21
684.3742045494901
 31
0.0
  0
LINE
  5
596
330
17
100
AcDbEntity
  8
4
100
AcDbLine
 10
721.6931849607608
 20
746.3742045494866
 30
0.0
 11
721.6931849607608
 21
693.374204549481
 31
0.0
  0
ARC
  5
597
330
17
100
AcDbEntity
  8
4
100
AcDbCircle
 10
730.6931849607608
 20
693.374204549481
 30
0.0
 40
9.0
100
AcDbArc
 50
180.0
 51
270.0000000000058
  0
ARC
  5
598
330
17
100
AcDbEntity
  8
4
100
AcDbCircle
 10
894.6931849607608
 20
693.3742045494901
 30
0.0
 40
9.0
100
AcDbArc
 50
270.0000000000058
 51
0.0
  0
ARC
  5
599
330
17
100
AcDbEntity
  8
4
100
AcDbCircle
 10
894.6931849607627
 20
746.3742045494887
 30
0.0
 40
9.0
100
AcDbArc
 50
0.0
 51
90.0
  0
ARC
  5
59A
330
17
100
AcDbEntity
  8
4
100
AcDbCircle
 10
730.6931849607608
 20
746.3742045494866
 30
0.0
 40
9.0
100
AcDbArc
 50
90.0
 51
180.0
  0
LINE
  5
59B
330
17
100
AcDbEntity
  8
4
100
AcDbLine
 10
723.8888686413866
 20
490.6708648878059
 30
0.0
 11
709.7815798493857
 21
624.9244412320113
 31
0.0
  0
ARC
  5
59C
330
17
100
AcDbEntity
  8
4
100
AcDbCircle
 10
733.8341132411442
 20
491.7159054855788
 30
0.0
 40
10.0
100
AcDbArc
 50
185.9985940830393
 51
260.7315348759806
  0
ARC
  5
59D
330
17
100
AcDbEntity
  8
4
100
AcDbCircle
 10
713.7596776892888
 20
625.3424574711205
 30
0.0
 40
4.0
100
AcDbArc
 50
76.16201473835778
 51
185.9985940830366
  0
LINE
  5
59E
330
17
100
AcDbEntity
  8
4
100
AcDbLine
 10
629.1931849607618
 20
605.374204549488
 30
0.0
 11
629.1931849607618
 21
632.6231186822188
 31
0.0
  0
ARC
  5
59F
330
17
100
AcDbEntity
  8
4
100
AcDbCircle
 10
589.6266922322347
 20
625.3424574711205
 30
0.0
 40
4.0
100
AcDbArc
 50
354.0014059169634
 51
103.8379852616422
  0
LINE
  5
5A0
330
17
100
AcDbEntity
  8
4
100
AcDbLine
 10
579.4975012801369
 20
490.6708648878059
 30
0.0
 11
593.6047900721378
 21
624.9244412320113
 31
0.0
  0
ARC
  5
5A1
330
17
100
AcDbEntity
  8
4
100
AcDbCircle
 10
569.5522566803793
 20
491.7159054855788
 30
0.0
 40
10.0
100
AcDbArc
 50
279.2684651240194
 51
354.0014059169607
  0
ARC
  5
5A2
330
17
100
AcDbEntity
  8
4
100
AcDbCircle
 10
677.1931849607618
 20
632.6231186822188
 30
0.0
 40
3.0
100
AcDbArc
 50
84.38239603106855
 51
180.0
  0
ARC
  5
5A3
330
17
100
AcDbEntity
  8
4
100
AcDbCircle
 10
626.1931849607618
 20
632.6231186822188
 30
0.0
 40
3.0
100
AcDbArc
 50
0.0
 51
95.61760396893146
  0
LINE
  5
5A4
330
17
100
AcDbEntity
  8
4
100
AcDbLine
 10
724.6931819607612
 20
1476.817571322912
 30
0.0
 11
724.6931819607612
 21
1474.705660338555
 31
0.0
  0
LINE
  5
5A5
330
17
100
AcDbEntity
  8
4
100
AcDbLine
 10
710.6735906057811
 20
1496.817571322912
 30
0.0
 11
724.6931819607612
 21
1476.81757132291
 31
0.0
  0
LINE
  5
5A6
330
17
100
AcDbEntity
  8
4
100
AcDbLine
 10
724.6931819607612
 20
1476.817571322912
 30
0.0
 11
766.6931849607613
 21
1476.817571322912
 31
0.0
  0
LINE
  5
5A7
330
17
100
AcDbEntity
  8
4
100
AcDbLine
 10
709.1931841568427
 20
1496.817571322912
 30
0.0
 11
724.6931819607612
 21
1474.705660338555
 31
0.0
  0
LINE
  5
5CC
330
17
100
AcDbEntity
  8
4
100
AcDbLine
 10
338.2932829607607
 20
623.3742055494874
 30
0.0
 11
338.2932829607607
 21
657.4045484348851
 31
0.0
  0
LINE
  5
5CD
330
17
100
AcDbEntity
  8
4
100
AcDbLine
 10
339.2932849607614
 20
623.3742055494874
 30
0.0
 11
338.2932829607607
 21
623.3742055494874
 31
0.0
  0
LINE
  5
5CE
330
17
100
AcDbEntity
  8
4
100
AcDbLine
 10
321.6931849607618
 20
636.8742035494877
 30
0.0
 11
202.6931869607606
 21
636.8742035494877
 31
0.0
  0
LINE
  5
5CF
330
17
100
AcDbEntity
  8
4
100
AcDbLine
 10
201.6931849607618
 20
705.8742035494877
 30
0.0
 11
311.6931829607611
 21
705.8742035494877
 31
0.0
  0
LINE
  5
5D0
330
17
100
AcDbEntity
  8
4
100
AcDbLine
 10
321.6931849607618
 20
699.8742035494877
 30
0.0
 11
202.6931869607606
 21
699.8742035494877
 31
0.0
  0
LINE
  5
5D1
330
17
100
AcDbEntity
  8
4
100
AcDbLine
 10
311.6931829607611
 20
705.8742035494877
 30
0.0
 11
311.6931829607611
 21
699.8742035494877
 31
0.0
  0
LINE
  5
5D2
330
17
100
AcDbEntity
  8
4
100
AcDbLine
 10
338.2932829607607
 20
679.3438586640912
 30
0.0
 11
338.2932829607607
 21
713.3742015494879
 31
0.0
  0
LINE
  5
5D3
330
17
100
AcDbEntity
  8
4
100
AcDbLine
 10
321.6931849607618
 20
700.8742055494874
 30
0.0
 11
321.6931849607618
 21
635.8742015494879
 31
0.0
  0
LINE
  5
5D4
330
17
100
AcDbEntity
  8
4
100
AcDbLine
 10
321.6931849607618
 20
635.8742015494879
 30
0.0
 11
338.2932829607607
 21
635.8742015494879
 31
0.0
  0
LINE
  5
5D5
330
17
100
AcDbEntity
  8
4
100
AcDbLine
 10
321.6931849607618
 20
700.8742055494874
 30
0.0
 11
338.2932829607607
 21
700.8742055494874
 31
0.0
  0
LINE
  5
5D6
330
17
100
AcDbEntity
  8
4
100
AcDbLine
 10
339.2932849607614
 20
713.3742015494879
 30
0.0
 11
338.2932829607607
 21
713.3742015494879
 31
0.0
  0
LINE
  5
5D7
330
17
100
AcDbEntity
  8
4
100
AcDbLine
 10
201.6931849607618
 20
705.8742035494877
 30
0.0
 11
201.6931849607618
 21
637.8742055494874
 31
0.0
  0
LINE
  5
5D8
330
17
100
AcDbEntity
  8
4
100
AcDbLine
 10
202.6931869607606
 20
636.8742035494877
 30
0.0
 11
202.6931869607606
 21
699.8742035494877
 31
0.0
  0
LINE
  5
5D9
330
17
100
AcDbEntity
  8
4
100
AcDbLine
 10
202.6931869607606
 20
636.8742035494877
 30
0.0
 11
201.6931849607618
 21
637.8742055494874
 31
0.0
  0
LINE
  5
5DA
330
17
100
AcDbEntity
  8
4
100
AcDbLine
 10
201.6931849607618
 20
698.8742015494879
 30
0.0
 11
202.6931869607606
 21
699.8742035494877
 31
0.0
  0
LINE
  5
5DF
330
17
100
AcDbEntity
  8
4
100
AcDbLine
 10
302.6931849607618
 20
1649.817571322912
 30
0.0
 11
201.6931849607618
 21
1649.817571322912
 31
0.0
  0
LINE
  5
5E0
330
17
100
AcDbEntity
  8
4
100
AcDbLine
 10
302.6931849607618
 20
1631.817571322912
 30
0.0
 11
201.6931849607618
 21
1631.817571322912
 31
0.0
  0
LINE
  5
5E1
330
17
100
AcDbEntity
  8
4
100
AcDbLine
 10
320.6931849607618
 20
1672.317571322912
 30
0.0
 11
202.6931849607618
 21
1672.317571322912
 31
0.0
  0
LINE
  5
5E2
330
17
100
AcDbEntity
  8
4
100
AcDbLine
 10
320.6931849607618
 20
1609.317571322912
 30
0.0
 11
202.6931849607618
 21
1609.317571322912
 31
0.0
  0
LINE
  5
5E3
330
17
100
AcDbEntity
  8
4
100
AcDbLine
 10
321.6931849607618
 20
1673.317571322912
 30
0.0
 11
321.6931849607618
 21
1608.317571322912
 31
0.0
  0
ARC
  5
5E4
330
17
100
AcDbEntity
  8
4
100
AcDbCircle
 10
320.6931849607618
 20
1608.317571322912
 30
0.0
 40
1.0
100
AcDbArc
 50
0.0
 51
90.0
  0
ARC
  5
5E5
330
17
100
AcDbEntity
  8
4
100
AcDbCircle
 10
302.6931849607618
 20
1640.817571322912
 30
0.0
 40
9.0
100
AcDbArc
 50
270.0
 51
90.0
  0
ARC
  5
5E6
330
17
100
AcDbEntity
  8
4
100
AcDbCircle
 10
320.6931849607618
 20
1673.317571322912
 30
0.0
 40
1.0
100
AcDbArc
 50
270.0
 51
0.0
  0
LINE
  5
5E7
330
17
100
AcDbEntity
  8
4
100
AcDbLine
 10
202.6931849607618
 20
1631.817571322912
 30
0.0
 11
202.6931849607618
 21
1609.317571322912
 31
0.0
  0
LINE
  5
5E8
330
17
100
AcDbEntity
  8
4
100
AcDbLine
 10
201.6931849607618
 20
1671.317571322912
 30
0.0
 11
201.6931849607618
 21
1610.317571322912
 31
0.0
  0
LINE
  5
5E9
330
17
100
AcDbEntity
  8
4
100
AcDbLine
 10
202.6931849607618
 20
1609.317571322912
 30
0.0
 11
201.6931849607618
 21
1610.317571322912
 31
0.0
  0
LINE
  5
5EA
330
17
100
AcDbEntity
  8
4
100
AcDbLine
 10
202.6931849607618
 20
1672.317571322912
 30
0.0
 11
202.6931849607618
 21
1649.817571322912
 31
0.0
  0
LINE
  5
5EB
330
17
100
AcDbEntity
  8
4
100
AcDbLine
 10
202.6931849607618
 20
1672.317571322912
 30
0.0
 11
201.6931849607618
 21
1671.317571322912
 31
0.0
  0
LINE
  5
5EC
330
17
100
AcDbEntity
  8
4
100
AcDbLine
 10
321.6931849607599
 20
1673.317571322912
 30
0.0
 11
338.2931829607614
 21
1673.317571322912
 31
0.0
  0
LINE
  5
5ED
330
17
100
AcDbEntity
  8
4
100
AcDbLine
 10
321.6931849607599
 20
1608.317571322912
 30
0.0
 11
338.2931829607614
 21
1608.317571322912
 31
0.0
  0
LINE
  5
5EE
330
17
100
AcDbEntity
  8
4
100
AcDbLine
 10
338.2931829607614
 20
1603.037501071374
 30
0.0
 11
338.2931829607614
 21
1678.597641574449
 31
0.0
  0
LINE
  5
5EF
330
17
100
AcDbEntity
  8
4
100
AcDbLine
 10
311.6931849607622
 20
1609.317571322912
 30
0.0
 11
311.6931849607622
 21
1450.817571322912
 31
0.0
  0
LINE
  5
605
330
17
100
AcDbEntity
  8
4
100
AcDbLine
 10
663.6931849607618
 20
427.874202549488
 30
0.0
 11
639.6931849607618
 21
427.874202549488
 31
0.0
  0
LINE
  5
606
330
17
100
AcDbEntity
  8
4
100
AcDbLine
 10
663.6931849607618
 20
411.8742005494878
 30
0.0
 11
639.6931849607618
 21
411.8742005494878
 31
0.0
  0
LINE
  5
607
330
17
100
AcDbEntity
  8
4
100
AcDbLine
 10
639.6931849607618
 20
427.874202549488
 30
0.0
 11
639.6931849607618
 21
411.8742005494878
 31
0.0
  0
LINE
  5
608
330
17
100
AcDbEntity
  8
4
100
AcDbLine
 10
663.6931849607618
 20
411.8742005494878
 30
0.0
 11
663.6931849607618
 21
427.874202549488
 31
0.0
  0
ARC
  5
609
330
17
100
AcDbEntity
  8
4
100
AcDbCircle
 10
651.6931849607618
 20
373.3742045494878
 30
0.0
 40
46.500054
100
AcDbArc
 50
104.9552305438094
 51
75.04478700000072
  0
LINE
  5
60D
330
17
100
AcDbEntity
  8
4
100
AcDbLine
 10
1947.236390202631
 20
438.3742075494881
 30
0.0
 11
1948.236389202633
 21
438.3742075494881
 31
0.0
  0
LINE
  5
60E
330
17
100
AcDbEntity
  8
4
100
AcDbLine
 10
1947.236390202631
 20
308.3742015494879
 30
0.0
 11
1948.236389202633
 21
308.3742015494879
 31
0.0
  0
CIRCLE
  5
60F
330
17
100
AcDbEntity
  8
4
100
AcDbCircle
 10
651.6931849607618
 20
373.374204549488
 30
0.0
 40
64.99999999999955
  0
LINE
  5
624
330
17
100
AcDbEntity
  8
4
100
AcDbLine
 10
586.6931849607622
 20
1449.817571322912
 30
0.0
 11
716.6931849607627
 21
1449.817571322912
 31
0.0
  0
LINE
  5
625
330
17
100
AcDbEntity
  8
4
100
AcDbLine
 10
586.6931849607622
 20
1450.817571322912
 30
0.0
 11
586.6931849607622
 21
1449.817571322912
 31
0.0
  0
LINE
  5
626
330
17
100
AcDbEntity
  8
4
100
AcDbLine
 10
716.6931849607636
 20
1450.817571322912
 30
0.0
 11
716.6931849607627
 21
1449.817571322912
 31
0.0
  0
LINE
  5
627
330
17
100
AcDbEntity
  8
4
100
AcDbLine
 10
605.1931849607618
 20
1439.817571322912
 30
0.0
 11
605.1931849607618
 21
1282.817571322912
 31
0.0
  0
LINE
  5
628
330
17
100
AcDbEntity
  8
4
100
AcDbLine
 10
639.6931849607618
 20
1280.817571322912
 30
0.0
 11
639.6931849607618
 21
1418.817571322912
 31
0.0
  0
LINE
  5
629
330
17
100
AcDbEntity
  8
4
100
AcDbLine
 10
698.1931849607618
 20
1439.817571322912
 30
0.0
 11
698.1931849607618
 21
1282.817571322912
 31
0.0
  0
LINE
  5
62A
330
17
100
AcDbEntity
  8
4
100
AcDbLine
 10
663.6931849607618
 20
1280.817571322912
 30
0.0
 11
663.6931849607618
 21
1418.817571322912
 31
0.0
  0
LINE
  5
62B
330
17
100
AcDbEntity
  8
4
100
AcDbLine
 10
604.1931849607622
 20
1440.817571322912
 30
0.0
 11
699.1931849607618
 21
1440.817571322912
 31
0.0
  0
ARC
  5
62C
330
17
100
AcDbEntity
  8
4
100
AcDbCircle
 10
699.1931849607627
 20
1439.817571322912
 30
0.0
 40
1.0
100
AcDbArc
 50
90.0
 51
180.0
  0
LINE
  5
62D
330
17
100
AcDbEntity
  8
4
100
AcDbLine
 10
699.1931849607618
 20
1440.817571322912
 30
0.0
 11
699.1931849607618
 21
1440.817571322912
 31
0.0
  0
ARC
  5
62E
330
17
100
AcDbEntity
  8
4
100
AcDbCircle
 10
651.6931849607627
 20
1418.817571322912
 30
0.0
 40
12.0
100
AcDbArc
 50
0.0
 51
180.0
  0
LINE
  5
62F
330
17
100
AcDbEntity
  8
4
100
AcDbLine
 10
604.1931849607622
 20
1440.817571322912
 30
0.0
 11
604.1931849607622
 21
1440.817571322912
 31
0.0
  0
ARC
  5
630
330
17
100
AcDbEntity
  8
4
100
AcDbCircle
 10
604.1931849607622
 20
1439.817571322912
 30
0.0
 40
1.0
100
AcDbArc
 50
0.0
 51
90.0
  0
LINE
  5
631
330
17
100
AcDbEntity
  8
4
100
AcDbLine
 10
605.1931849607618
 20
1282.817571322912
 30
0.0
 11
639.6931849607618
 21
1282.817571322912
 31
0.0
  0
LINE
  5
632
330
17
100
AcDbEntity
  8
4
100
AcDbLine
 10
607.1931849607618
 20
1280.817571322912
 30
0.0
 11
696.1931849607618
 21
1280.817571322912
 31
0.0
  0
LINE
  5
633
330
17
100
AcDbEntity
  8
4
100
AcDbLine
 10
663.6931849607618
 20
1282.817571322912
 30
0.0
 11
698.1931849607618
 21
1282.817571322912
 31
0.0
  0
LINE
  5
634
330
17
100
AcDbEntity
  8
4
100
AcDbLine
 10
698.1931849607618
 20
1282.817571322912
 30
0.0
 11
696.1931849607618
 21
1280.817571322912
 31
0.0
  0
LINE
  5
635
330
17
100
AcDbEntity
  8
4
100
AcDbLine
 10
605.1931849607618
 20
1282.817571322912
 30
0.0
 11
607.1931849607618
 21
1280.817571322912
 31
0.0
  0
LINE
  5
636
330
17
100
AcDbEntity
  8
4
100
AcDbLine
 10
604.1931849607622
 20
1449.817571322912
 30
0.0
 11
604.1931849607622
 21
1440.817571322912
 31
0.0
  0
LINE
  5
637
330
17
100
AcDbEntity
  8
4
100
AcDbLine
 10
699.1931849607618
 20
1449.817571322912
 30
0.0
 11
699.1931849607618
 21
1440.817571322912
 31
0.0
  0
LINE
  5
63A
330
17
100
AcDbEntity
  8
4
100
AcDbLine
 10
1556.936487202632
 20
419.8742035494879
 30
0.0
 11
1398.93649120263
 21
419.8742035494879
 31
0.0
  0
LINE
  5
63B
330
17
100
AcDbEntity
  8
4
100
AcDbLine
 10
1396.936493202631
 20
427.874202549488
 30
0.0
 11
1546.936490202631
 21
427.874202549488
 31
0.0
  0
LINE
  5
63C
330
17
100
AcDbEntity
  8
4
100
AcDbLine
 10
1556.936487202632
 20
326.8742055494881
 30
0.0
 11
1398.93649120263
 21
326.8742055494881
 31
0.0
  0
LINE
  5
63D
330
17
100
AcDbEntity
  8
4
100
AcDbLine
 10
1565.93649220263
 20
438.3742075494881
 30
0.0
 11
1565.93649220263
 21
308.3742015494879
 31
0.0
  0
LINE
  5
63E
330
17
100
AcDbEntity
  8
4
100
AcDbLine
 10
1556.936487202632
 20
420.874202549488
 30
0.0
 11
1556.936487202632
 21
325.874206549488
 31
0.0
  0
LINE
  5
63F
330
17
100
AcDbEntity
  8
4
100
AcDbLine
 10
1565.93649220263
 20
325.874206549488
 30
0.0
 11
1556.936487202632
 21
325.874206549488
 31
0.0
  0
LINE
  5
640
330
17
100
AcDbEntity
  8
4
100
AcDbLine
 10
1566.936491202632
 20
308.3742015494879
 30
0.0
 11
1565.93649220263
 21
308.3742015494879
 31
0.0
  0
LINE
  5
641
330
17
100
AcDbEntity
  8
4
100
AcDbLine
 10
1556.936487202632
 20
420.874202549488
 30
0.0
 11
1565.93649220263
 21
420.874202549488
 31
0.0
  0
LINE
  5
642
330
17
100
AcDbEntity
  8
4
100
AcDbLine
 10
1566.936491202632
 20
438.3742075494881
 30
0.0
 11
1565.93649220263
 21
438.3742075494881
 31
0.0
  0
LINE
  5
643
330
17
100
AcDbEntity
  8
4
100
AcDbLine
 10
1546.936490202631
 20
427.874202549488
 30
0.0
 11
1546.936490202631
 21
419.8742035494879
 31
0.0
  0
LINE
  5
644
330
17
100
AcDbEntity
  8
4
100
AcDbLine
 10
1398.93649120263
 20
419.8742035494879
 30
0.0
 11
1398.93649120263
 21
326.8742055494881
 31
0.0
  0
LINE
  5
645
330
17
100
AcDbEntity
  8
4
100
AcDbLine
 10
1396.936493202631
 20
427.874202549488
 30
0.0
 11
1396.936493202631
 21
328.8742035494879
 31
0.0
  0
LINE
  5
646
330
17
100
AcDbEntity
  8
4
100
AcDbLine
 10
1398.93649120263
 20
326.8742055494881
 30
0.0
 11
1396.936493202631
 21
328.8742035494879
 31
0.0
  0
LINE
  5
647
330
17
100
AcDbEntity
  8
4
100
AcDbLine
 10
1396.936493202631
 20
417.8742055494881
 30
0.0
 11
1398.93649120263
 21
419.8742035494879
 31
0.0
  0
ENDSEC
  0
SECTION
  2
OBJECTS
  0
DICTIONARY
  5
5
330
0
100
AcDbDictionary
281
     1
  3
ACAD_COLOR
350
29
  3
ACAD_GROUP
350
27
  3
ACAD_LAYOUT
350
1E
  3
ACAD_MATERIAL
350
7
  3
ACAD_MLEADERSTYLE
350
5AB
  3
ACAD_MLINESTYLE
350
15
  3
ACAD_PLOTSETTINGS
350
28
  3
ACAD_PLOTSTYLENAME
350
4
  3
ACAD_SCALELIST
350
2D
  3
ACAD_TABLESTYLE
350
5AA
  3
ACAD_VISUALSTYLE
350
2A
  3
ACDBHEADERROUNDTRIPXREC
350
665
  3
AcDbVariableDictionary
350
5A8
  3
DWGPROPS
350
668
  0
DICTIONARY
  5
669
330
26
100
AcDbDictionary
280
     1
281
     1
  3
ACAD_XREC_ROUNDTRIP
360
66A
  0
DICTIONARY
  5
18
330
17
100
AcDbDictionary
280
     1
281
     1
  3
ACAD_SORTENTS
360
19
  0
DICTIONARY
  5
29
102
{ACAD_REACTORS
330
5
102
}
330
5
100
AcDbDictionary
281
     1
  0
DICTIONARY
  5
27
102
{ACAD_REACTORS
330
5
102
}
330
5
100
AcDbDictionary
281
     1
  0
DICTIONARY
  5
1E
102
{ACAD_REACTORS
330
5
102
}
330
5
100
AcDbDictionary
281
     1
  3
Model
350
1D
  3
ﾚｲｱｳﾄ1
350
23
  0
DICTIONARY
  5
7
102
{ACAD_REACTORS
330
5
102
}
330
5
100
AcDbDictionary
281
     1
  3
ByBlock
350
70
  3
ByLayer
350
10
  3
Global
350
6
  0
DICTIONARY
  5
5AB
102
{ACAD_REACTORS
330
5
102
}
330
5
100
AcDbDictionary
281
     1
  3
Standard
350
5C6
  0
DICTIONARY
  5
15
102
{ACAD_REACTORS
330
5
102
}
330
5
100
AcDbDictionary
281
     1
  3
STANDARD
350
14
  0
DICTIONARY
  5
28
102
{ACAD_REACTORS
330
5
102
}
330
5
100
AcDbDictionary
281
     1
  0
ACDBDICTIONARYWDFLT
  5
4
102
{ACAD_REACTORS
330
5
102
}
330
5
100
AcDbDictionary
281
     1
  3
Normal
350
3
100
AcDbDictionaryWithDefault
340
3
  0
DICTIONARY
  5
2D
102
{ACAD_REACTORS
330
5
102
}
330
5
100
AcDbDictionary
281
     1
  3
*A1
350
4F
  3
*A10
350
58
  3
*A11
350
59
  3
*A12
350
5A
  3
*A13
350
5B
  3
*A14
350
5C
  3
*A15
350
5D
  3
*A16
350
5E
  3
*A17
350
5F
  3
*A18
350
60
  3
*A19
350
61
  3
*A2
350
50
  3
*A20
350
62
  3
*A21
350
63
  3
*A22
350
64
  3
*A23
350
65
  3
*A24
350
66
  3
*A25
350
67
  3
*A26
350
68
  3
*A27
350
69
  3
*A28
350
6A
  3
*A29
350
6B
  3
*A3
350
51
  3
*A30
350
6C
  3
*A31
350
6D
  3
*A32
350
6E
  3
*A33
350
6F
  3
*A4
350
52
  3
*A5
350
53
  3
*A6
350
54
  3
*A7
350
55
  3
*A8
350
56
  3
*A9
350
57
  0
DICTIONARY
  5
5AA
102
{ACAD_REACTORS
330
5
102
}
330
5
100
AcDbDictionary
281
     1
  3
Standard
350
661
  0
DICTIONARY
  5
2A
102
{ACAD_REACTORS
330
5
102
}
330
5
100
AcDbDictionary
281
     1
  3
2dWireframe
350
5B2
  3
Basic
350
5B5
  3
Brighten
350
5B9
  3
ColorChange
350
5BD
  3
Conceptual
350
5B7
  3
Dim
350
5B8
  3
EdgeColorOff
350
5C0
  3
Facepattern
350
5BC
  3
Flat
350
5AE
  3
FlatWithEdges
350
5AF
  3
Gouraud
350
5B0
  3
GouraudWithEdges
350
5B1
  3
Hidden
350
5B4
  3
JitterOff
350
5BE
  3
Linepattern
350
5BB
  3
OverhangOff
350
5BF
  3
Realistic
350
5B6
  3
Shaded
350
5C5
  3
Shaded with edges
350
5C4
  3
Shades of Gray
350
5C1
  3
Sketchy
350
5C2
  3
Thicken
350
5BA
  3
Wireframe
350
5B3
  3
X-Ray
350
5C3
  0
DICTIONARY
  5
665
102
{ACAD_REACTORS
330
5
102
}
330
5
100
AcDbDictionary
281
     1
  3
COLORDICT
350
666
  3
MATERIALDICT
350
667
  0
DICTIONARY
  5
5A8
102
{ACAD_REACTORS
330
5
102
}
330
5
100
AcDbDictionary
281
     1
  3
CANNOSCALE
350
5A9
  3
CMLEADERSTYLE
350
5C8
  3
CTABLESTYLE
350
662
  3
DIMASSOC
350
663
  3
HIDETEXT
350
664
  3
MSLTSCALE
350
66B
  0
XRECORD
  5
668
102
{ACAD_REACTORS
330
5
102
}
330
5
100
AcDbXrecord
280
     1
  1
DWGPROPS COOKIE
  2

  3

  4

  6

  7

  8
sg-d04
  9

300
=
301
=
302
=
303
=
304
=
305
=
306
=
307
=
308
=
309
=
 40
0.0
 41
2457240.115428437
 42
2457871.460924665
  1

 90
        0
  0
XRECORD
  5
66A
102
{ACAD_REACTORS
330
669
102
}
330
669
100
AcDbXrecord
280
     1
102
VTR_0.000_0.000_1.000_1.000_VISUALSTYLE
340
5B2
102
VTR_0.000_0.000_1.000_1.000_GRIDDISPLAY
 70
     3
102
VTR_0.000_0.000_1.000_1.000_GRIDMAJOR
 70
     5
102
VTR_0.000_0.000_1.000_1.000_DEFAULTLIGHTING
280
     1
102
VTR_0.000_0.000_1.000_1.000_DEFAULTLIGHTINGTYPE
 70
     1
102
VTR_0.000_0.000_1.000_1.000_BRIGHTNESS
141
0.0
102
VTR_0.000_0.000_1.000_1.000_CONTRAST
142
0.0
  0
SORTENTSTABLE
  5
19
102
{ACAD_REACTORS
330
18
102
}
330
18
100
AcDbSortentsTable
330
17
331
0
  5
1C7
331
71
  5
332
331
73
  5
333
331
74
  5
334
331
75
  5
335
331
76
  5
336
331
1BF
  5
71
331
1C0
  5
73
331
1C1
  5
74
331
1C2
  5
75
331
1C3
  5
76
331
1C4
  5
1BF
331
1C5
  5
1C0
331
1C6
  5
1C1
331
1C7
  5
1C2
331
1C8
  5
1C3
331
1C9
  5
1C4
331
1CA
  5
1C5
331
1CB
  5
1C6
331
1CD
  5
1C9
331
1CF
  5
1CC
331
1D1
  5
1CE
331
1D2
  5
1CF
331
1D3
  5
1D0
331
1D4
  5
1D1
331
1D5
  5
1D2
331
1D6
  5
1D3
331
1D7
  5
1D4
331
1D8
  5
1D5
331
1D9
  5
1D6
331
1DA
  5
1D7
331
1DB
  5
1D8
331
1DC
  5
1D9
331
1DD
  5
1DA
331
1DE
  5
1DB
331
1DF
  5
1DC
331
1E0
  5
1DD
331
1E1
  5
1DE
331
1E2
  5
1DF
331
1E3
  5
1E0
331
1E4
  5
1E1
331
1F6
  5
1F3
331
1F7
  5
1F4
331
1F8
  5
1F5
331
1F9
  5
1F6
331
1FA
  5
1F7
331
1FB
  5
1F8
331
1FC
  5
1F9
331
1FD
  5
1FA
331
1FE
  5
1FB
331
1FF
  5
1FC
331
200
  5
1FD
331
201
  5
1FE
331
202
  5
1FF
331
203
  5
200
331
204
  5
201
331
205
  5
202
331
206
  5
203
331
207
  5
204
331
208
  5
205
331
209
  5
206
331
20A
  5
207
331
20B
  5
208
331
20C
  5
209
331
20D
  5
20A
331
20E
  5
20B
331
20F
  5
20C
331
210
  5
20D
331
211
  5
20E
331
212
  5
20F
331
213
  5
210
331
214
  5
211
331
215
  5
212
331
216
  5
213
331
217
  5
214
331
218
  5
215
331
219
  5
216
331
21A
  5
217
331
21B
  5
218
331
21C
  5
219
331
21D
  5
21A
331
21E
  5
21B
331
21F
  5
21C
331
220
  5
21D
331
221
  5
21E
331
222
  5
21F
331
223
  5
220
331
224
  5
221
331
225
  5
222
331
226
  5
223
331
227
  5
224
331
230
  5
22D
331
231
  5
22E
331
232
  5
22F
331
233
  5
230
331
234
  5
231
331
235
  5
232
331
236
  5
233
331
237
  5
234
331
238
  5
235
331
239
  5
236
331
23A
  5
238
331
23B
  5
239
331
23C
  5
23A
331
23D
  5
23B
331
23E
  5
23C
331
23F
  5
23D
331
240
  5
23E
331
241
  5
23F
331
242
  5
240
331
243
  5
241
331
244
  5
242
331
245
  5
243
331
246
  5
244
331
247
  5
245
331
248
  5
246
331
249
  5
247
331
24A
  5
248
331
24B
  5
249
331
24C
  5
24A
331
24D
  5
24B
331
24E
  5
24C
331
24F
  5
24D
331
250
  5
24E
331
251
  5
24F
331
252
  5
250
331
253
  5
251
331
254
  5
252
331
255
  5
253
331
256
  5
254
331
257
  5
255
331
258
  5
256
331
259
  5
257
331
25A
  5
258
331
25B
  5
259
331
25C
  5
25A
331
25D
  5
25B
331
25E
  5
25C
331
25F
  5
25D
331
260
  5
25E
331
261
  5
25F
331
262
  5
260
331
263
  5
261
331
264
  5
262
331
265
  5
263
331
266
  5
264
331
267
  5
265
331
268
  5
266
331
269
  5
267
331
26A
  5
268
331
26B
  5
269
331
26C
  5
26A
331
26D
  5
26B
331
26E
  5
26C
331
26F
  5
26D
331
270
  5
26E
331
271
  5
26F
331
272
  5
270
331
273
  5
271
331
274
  5
272
331
275
  5
273
331
276
  5
274
331
277
  5
275
331
278
  5
276
331
279
  5
277
331
27A
  5
278
331
27B
  5
279
331
27C
  5
27A
331
27D
  5
27B
331
27E
  5
27C
331
27F
  5
27D
331
280
  5
27E
331
281
  5
27F
331
282
  5
280
331
283
  5
281
331
284
  5
282
331
285
  5
283
331
286
  5
284
331
287
  5
285
331
288
  5
286
331
289
  5
287
331
28A
  5
288
331
28B
  5
289
331
28C
  5
28A
331
28D
  5
28B
331
28E
  5
28C
331
28F
  5
28D
331
290
  5
28E
331
291
  5
28F
331
292
  5
290
331
293
  5
291
331
294
  5
292
331
295
  5
293
331
296
  5
294
331
297
  5
295
331
298
  5
296
331
299
  5
297
331
29A
  5
298
331
29B
  5
299
331
29C
  5
29A
331
29D
  5
29B
331
29E
  5
29C
331
29F
  5
29D
331
2A0
  5
29E
331
2A1
  5
29F
331
2A2
  5
2A0
331
2A3
  5
2A1
331
2A4
  5
2A2
331
2A5
  5
2A3
331
2A6
  5
2A4
331
2A7
  5
2A5
331
2A8
  5
2A6
331
2A9
  5
2A7
331
2AA
  5
2A8
331
2AB
  5
2A9
331
2AC
  5
2AA
331
2AD
  5
2AB
331
2AE
  5
2AC
331
2AF
  5
2AD
331
2B0
  5
2AE
331
2B1
  5
2AF
331
2B2
  5
2B0
331
2B3
  5
2B1
331
2B4
  5
2B2
331
2B5
  5
2B3
331
2B6
  5
2B4
331
2B7
  5
2B5
331
2B8
  5
2B6
331
2B9
  5
2B7
331
2BA
  5
2B8
331
2BB
  5
2B9
331
2BC
  5
2BA
331
2BD
  5
2BB
331
2BE
  5
2BC
331
2BF
  5
2BD
331
2C0
  5
2BE
331
2C1
  5
2BF
331
2C2
  5
2C0
331
2C3
  5
2C1
331
2C4
  5
2C2
331
2C5
  5
2C3
331
2C6
  5
2C4
331
2C7
  5
2C5
331
2C8
  5
2C6
331
2C9
  5
2C7
331
2CA
  5
2C8
331
2CB
  5
2C9
331
2CC
  5
2CA
331
2CD
  5
2CB
331
2CE
  5
2CC
331
2CF
  5
2CD
331
2D0
  5
2CE
331
2D1
  5
2CF
331
2D2
  5
2D0
331
2D3
  5
2D1
331
2D4
  5
2D2
331
2D5
  5
2D3
331
2D6
  5
2D4
331
2D7
  5
2D5
331
2D8
  5
2D6
331
2D9
  5
2D7
331
2DA
  5
2D8
331
2DB
  5
2D9
331
2DC
  5
2DA
331
2DD
  5
2DB
331
2DE
  5
2DC
331
2DF
  5
2DD
331
2E0
  5
2DE
331
2E1
  5
2DF
331
2E2
  5
2E0
331
2E3
  5
2E1
331
2E4
  5
2E2
331
2E5
  5
2E3
331
2E6
  5
2E4
331
2E7
  5
2E5
331
2E8
  5
2E6
331
2E9
  5
2E7
331
2EA
  5
2E8
331
2EB
  5
2E9
331
2EC
  5
2EA
331
2ED
  5
2EB
331
2EE
  5
2EC
331
2EF
  5
2ED
331
2F0
  5
2EE
331
2F1
  5
2EF
331
2F2
  5
2F0
331
2F3
  5
2F1
331
2F4
  5
2F2
331
2F5
  5
2F3
331
2F6
  5
2F4
331
2F7
  5
2F5
331
2F8
  5
2F6
331
2F9
  5
2F7
331
2FA
  5
2F8
331
2FB
  5
2F9
331
2FC
  5
2FA
331
2FD
  5
2FB
331
2FE
  5
2FC
331
2FF
  5
2FD
331
300
  5
2FE
331
301
  5
2FF
331
302
  5
300
331
303
  5
301
331
304
  5
302
331
305
  5
303
331
306
  5
304
331
307
  5
305
331
308
  5
306
331
309
  5
307
331
30A
  5
308
331
30B
  5
309
331
30C
  5
30A
331
30D
  5
30B
331
30E
  5
30C
331
30F
  5
30D
331
310
  5
30E
331
311
  5
30F
331
312
  5
310
331
313
  5
311
331
314
  5
312
331
315
  5
313
331
316
  5
314
331
317
  5
315
331
318
  5
316
331
319
  5
317
331
31A
  5
318
331
31B
  5
319
331
31C
  5
31A
331
31D
  5
31B
331
31E
  5
31C
331
31F
  5
31D
331
320
  5
31E
331
321
  5
31F
331
322
  5
320
331
323
  5
321
331
324
  5
322
331
325
  5
323
331
326
  5
324
331
327
  5
325
331
328
  5
326
331
329
  5
327
331
32A
  5
328
331
32B
  5
329
331
32C
  5
32A
331
32D
  5
32B
331
32E
  5
32C
331
32F
  5
32D
331
330
  5
32E
331
331
  5
32F
331
332
  5
330
331
333
  5
331
331
334
  5
337
331
335
  5
338
331
336
  5
339
331
337
  5
33A
331
338
  5
33B
331
339
  5
33C
331
33A
  5
33D
331
33B
  5
33E
331
33C
  5
33F
331
33D
  5
340
331
33E
  5
341
331
33F
  5
342
331
340
  5
343
331
341
  5
344
331
342
  5
345
331
343
  5
346
331
344
  5
347
331
345
  5
348
331
346
  5
349
331
347
  5
34A
331
348
  5
34B
331
349
  5
34C
331
34A
  5
34D
331
34B
  5
34E
331
34C
  5
34F
331
34D
  5
350
331
34E
  5
351
331
34F
  5
352
331
350
  5
353
331
351
  5
354
331
352
  5
355
331
353
  5
356
331
354
  5
357
331
355
  5
358
331
356
  5
359
331
357
  5
35A
331
358
  5
35B
331
359
  5
35C
331
35A
  5
35D
331
35B
  5
35E
331
35C
  5
35F
331
35D
  5
360
331
35E
  5
361
331
35F
  5
362
331
360
  5
363
331
361
  5
364
331
362
  5
365
331
363
  5
366
331
364
  5
367
331
365
  5
368
331
366
  5
369
331
367
  5
36A
331
368
  5
36B
331
369
  5
36C
331
36A
  5
36D
331
36B
  5
36E
331
36C
  5
36F
331
36D
  5
370
331
36E
  5
371
331
36F
  5
372
331
370
  5
373
331
371
  5
374
331
372
  5
375
331
373
  5
376
331
374
  5
377
331
375
  5
378
331
376
  5
379
331
377
  5
37A
331
378
  5
37B
331
379
  5
37C
331
37A
  5
37D
331
37B
  5
37E
331
37C
  5
37F
331
37D
  5
380
331
37E
  5
381
331
37F
  5
382
331
380
  5
383
331
381
  5
384
331
382
  5
385
331
383
  5
386
331
384
  5
387
331
385
  5
388
331
386
  5
389
331
387
  5
38A
331
388
  5
38B
331
389
  5
38C
331
38A
  5
38D
331
38B
  5
38E
331
38C
  5
38F
331
38D
  5
390
331
38E
  5
391
331
38F
  5
392
331
390
  5
393
331
391
  5
394
331
392
  5
395
331
393
  5
396
331
394
  5
397
331
395
  5
398
331
396
  5
399
331
397
  5
39A
331
398
  5
39B
331
399
  5
39C
331
39A
  5
39D
331
39B
  5
39E
331
39C
  5
39F
331
39D
  5
3A0
331
39E
  5
3A1
331
39F
  5
3A2
331
3A0
  5
3A3
331
3A1
  5
3A4
331
3A2
  5
3A5
331
3A3
  5
3A6
331
3A4
  5
3A7
331
3A5
  5
3A8
331
3A6
  5
3A9
331
3A7
  5
3AA
331
3A8
  5
3AB
331
3A9
  5
3AC
331
3AA
  5
3AD
331
3AB
  5
3AE
331
3AC
  5
3AF
331
3AD
  5
3B0
331
3AE
  5
3B1
331
3AF
  5
3B2
331
3B0
  5
3B3
331
3B1
  5
3B4
331
3B2
  5
3B5
331
3B3
  5
3B6
331
3B4
  5
3B7
331
3B5
  5
3B8
331
3B6
  5
3B9
331
3B7
  5
3BA
331
3B8
  5
3BB
331
3B9
  5
3BC
331
3BA
  5
3BD
331
3BB
  5
3BE
331
3BC
  5
3BF
331
3BD
  5
3C0
331
3BE
  5
3C1
331
3BF
  5
3C2
331
3C0
  5
3C3
331
3C1
  5
3C4
331
3C2
  5
3C5
331
3C3
  5
3C6
331
3C4
  5
3C7
331
3C5
  5
3C8
331
3C6
  5
3C9
331
3C7
  5
3CA
331
3C8
  5
3CB
331
3C9
  5
3CC
331
3CA
  5
3CD
331
3CB
  5
3CE
331
3CC
  5
3CF
331
3CD
  5
3D0
331
3CE
  5
3D1
331
3CF
  5
3D2
331
3D0
  5
3D3
331
3D1
  5
3D4
331
3D2
  5
3D5
331
3D3
  5
3D6
331
3D4
  5
3D7
331
3D5
  5
3D8
331
3D6
  5
3D9
331
3D7
  5
3DA
331
3D8
  5
3DB
331
3D9
  5
3DC
331
3DA
  5
3DD
331
3DB
  5
3DE
331
3DC
  5
3DF
331
3DD
  5
3E0
331
3DE
  5
3E1
331
3DF
  5
3E2
331
3E0
  5
3E3
331
3E1
  5
3E4
331
3E2
  5
3E5
331
3E3
  5
3E6
331
3E4
  5
3E7
331
3E5
  5
3E8
331
3E6
  5
3E9
331
3E7
  5
3EA
331
3E8
  5
3EB
331
3E9
  5
3EC
331
3EA
  5
3ED
331
3EB
  5
3EE
331
3EC
  5
3EF
331
3ED
  5
3F0
331
3EE
  5
3F1
331
560
  5
563
331
561
  5
564
331
562
  5
565
331
563
  5
566
331
564
  5
567
331
565
  5
568
331
566
  5
569
331
567
  5
56A
331
568
  5
56B
331
569
  5
56C
331
56A
  5
56D
331
56B
  5
56E
331
56C
  5
56F
331
56D
  5
570
331
56E
  5
571
331
56F
  5
572
331
570
  5
573
331
571
  5
574
331
572
  5
575
331
573
  5
576
331
574
  5
577
331
575
  5
578
331
576
  5
579
331
577
  5
57A
331
578
  5
57B
331
579
  5
57C
331
57A
  5
57D
331
57B
  5
57E
331
57C
  5
57F
331
57D
  5
580
331
57E
  5
581
331
57F
  5
582
331
580
  5
583
331
581
  5
584
331
582
  5
585
331
583
  5
586
331
584
  5
587
331
585
  5
588
331
586
  5
589
331
587
  5
58A
331
588
  5
58B
331
589
  5
58C
331
58A
  5
58D
331
58B
  5
58E
331
58C
  5
58F
331
58D
  5
590
331
58E
  5
591
331
58F
  5
592
331
590
  5
593
331
591
  5
594
331
592
  5
595
331
593
  5
596
331
594
  5
597
331
595
  5
598
331
596
  5
599
331
597
  5
59A
331
598
  5
59B
331
599
  5
59C
331
59A
  5
59D
331
59B
  5
59E
331
59C
  5
59F
331
59D
  5
5A0
331
59E
  5
5A1
331
59F
  5
5A2
331
5A0
  5
5A3
331
5A1
  5
5A4
331
5A2
  5
5A5
331
5A3
  5
5A6
331
5A4
  5
5A7
331
5A5
  5
5C9
331
5A6
  5
5CA
331
5A7
  5
5CB
331
5CC
  5
5CF
331
5CD
  5
5D0
331
5CE
  5
5D1
331
5CF
  5
5D2
331
5D0
  5
5D3
331
5D1
  5
5D4
331
5D2
  5
5D5
331
5D3
  5
5D6
331
5D4
  5
5D7
331
5D5
  5
5D8
331
5D6
  5
5D9
331
5D7
  5
5DA
331
5D8
  5
5DB
331
5D9
  5
5DC
331
5DA
  5
5DE
331
5DF
  5
5E2
331
5E0
  5
5E3
331
5E1
  5
5E4
331
5E2
  5
5E5
331
5E3
  5
5E6
331
5E4
  5
5E7
331
5E5
  5
5E8
331
5E6
  5
5E9
331
5E7
  5
5EA
331
5E8
  5
5EB
331
5E9
  5
5EC
331
5EA
  5
5ED
331
5EB
  5
5EE
331
5EC
  5
5EF
331
5ED
  5
5F1
331
5EE
  5
5F2
331
5EF
  5
237
331
605
  5
607
331
606
  5
608
331
607
  5
609
331
608
  5
60A
331
609
  5
60B
331
60D
  5
1CB
331
60E
  5
1C8
  0
LAYOUT
  5
1D
102
{ACAD_REACTORS
330
1E
102
}
330
1E
100
AcDbPlotSettings
  1

  2
Bullzip PDF Printer.pc3
  4
A3
  6

 40
0.2
 41
0.0
 42
0.0
 43
0.0
 44
420.2
 45
297.1
 46
25.0
 47
12.0
 48
139.9999997783334
 49
0.0
140
2813.999993653335
141
1907.499995549166
142
1.0
143
7.0
 70
 11936
 72
     1
 73
     0
 74
     4
  7
monochrome.ctb
 75
     0
147
0.1428571428571428
148
-139.9999997783334
149
0.0
100
AcDbLayout
  1
Model
 70
     0
 71
     0
 10
0.0
 20
0.0
 11
12.0
 21
9.0
 12
0.0
 22
0.0
 32
0.0
 14
189.4844409593979
 24
11.37420154948791
 34
0.0
 15
2128.797887563359
 25
2013.69356697536
 35
0.0
146
0.0
 13
0.0
 23
0.0
 33
0.0
 16
1.0
 26
0.0
 36
0.0
 17
0.0
 27
1.0
 37
0.0
 76
     0
330
17
331
2B
1001
ACAD_PSEXT
1000
Bullzip PDF Printer.pc3
1000
Bullzip PDF Printer
1000
BULLZIP
1000
Bullzip PDF Printer 10.1.0.1871
1070
     0
  0
LAYOUT
  5
23
102
{ACAD_REACTORS
330
1E
102
}
330
1E
100
AcDbPlotSettings
  1

  2
SR-LP8300F
  4

  6

 40
0.0
 41
0.0
 42
0.0
 43
0.0
 44
0.0
 45
0.0
 46
0.0
 47
0.0
 48
0.0
 49
0.0
140
0.0
141
0.0
142
1.0
143
1.0
 70
   688
 72
     0
 73
     0
 74
     5
  7
monochrome.ctb
 75
    16
147
1.0
148
0.0
149
0.0
100
AcDbLayout
  1
ﾚｲｱｳﾄ1
 70
     0
 71
     1
 10
0.0
 20
0.0
 11
12.0
 21
9.0
 12
0.0
 22
0.0
 32
0.0
 14
1.000000000000000E+20
 24
1.000000000000000E+20
 34
1.000000000000000E+20
 15
-1.000000000000000E+20
 25
-1.000000000000000E+20
 35
-1.000000000000000E+20
146
0.0
 13
0.0
 23
0.0
 33
0.0
 16
1.0
 26
0.0
 36
0.0
 17
0.0
 27
1.0
 37
0.0
 76
     0
330
20
  0
MATERIAL
  5
70
102
{ACAD_REACTORS
330
7
102
}
102
{ACAD_XDICTIONARY
360
670
102
}
330
7
100
AcDbMaterial
  1
ByBlock
  0
MATERIAL
  5
10
102
{ACAD_REACTORS
330
7
102
}
102
{ACAD_XDICTIONARY
360
66C
102
}
330
7
100
AcDbMaterial
  1
ByLayer
  0
MATERIAL
  5
6
102
{ACAD_REACTORS
330
7
102
}
102
{ACAD_XDICTIONARY
360
66E
102
}
330
7
100
AcDbMaterial
  1
Global
1001
ACAD
1070
    -1
1070
     3
1070
     0
1000

1071
        0
  0
MLEADERSTYLE
  5
5C6
102
{ACAD_REACTORS
330
5AB
102
}
102
{ACAD_XDICTIONARY
360
6A2
102
}
330
5AB
100
AcDbMLeaderStyle
170
     2
171
     1
172
     0
 90
        2
 40
0.0
 41
0.0
173
     1
 91
-1056964608
340
D
 92
       -2
290
     1
 42
0.09
291
     1
 43
0.36
  3
Standard
341
0
 44
0.18
300

342
E
174
     1
178
     6
175
     1
176
     0
 93
-1056964608
 45
0.18
292
     0
297
     0
 46
0.18
343
0
 94
-1056964608
 47
1.0
 49
1.0
140
1.0
293
     1
141
0.0
294
     1
177
     0
142
1.0
295
     0
296
     0
143
0.125
1001
ACAD_MLEADERVER
1070
     2
  0
MLINESTYLE
  5
14
102
{ACAD_REACTORS
330
15
102
}
330
15
100
AcDbMlineStyle
  2
STANDARD
 70
     0
  3

 62
     0
 51
90.0
 52
90.0
 71
     2
 49
0.5
 62
   256
  6
BYLAYER
 49
-0.5
 62
   256
  6
BYLAYER
  0
ACDBPLACEHOLDER
  5
3
102
{ACAD_REACTORS
330
4
102
}
330
4
  0
SCALE
  5
4F
102
{ACAD_REACTORS
330
2D
102
}
330
2D
100
AcDbScale
 70
     0
300
1:1
140
1.0
141
1.0
290
     1
  0
SCALE
  5
58
102
{ACAD_REACTORS
330
2D
102
}
330
2D
100
AcDbScale
 70
     0
300
1:40
140
1.0
141
40.0
290
     0
  0
SCALE
  5
59
102
{ACAD_REACTORS
330
2D
102
}
330
2D
100
AcDbScale
 70
     0
300
1:50
140
1.0
141
50.0
290
     0
  0
SCALE
  5
5A
102
{ACAD_REACTORS
330
2D
102
}
330
2D
100
AcDbScale
 70
     0
300
1:100
140
1.0
141
100.0
290
     0
  0
SCALE
  5
5B
102
{ACAD_REACTORS
330
2D
102
}
330
2D
100
AcDbScale
 70
     0
300
2:1
140
2.0
141
1.0
290
     0
  0
SCALE
  5
5C
102
{ACAD_REACTORS
330
2D
102
}
330
2D
100
AcDbScale
 70
     0
300
4:1
140
4.0
141
1.0
290
     0
  0
SCALE
  5
5D
102
{ACAD_REACTORS
330
2D
102
}
330
2D
100
AcDbScale
 70
     0
300
8:1
140
8.0
141
1.0
290
     0
  0
SCALE
  5
5E
102
{ACAD_REACTORS
330
2D
102
}
330
2D
100
AcDbScale
 70
     0
300
10:1
140
10.0
141
1.0
290
     0
  0
SCALE
  5
5F
102
{ACAD_REACTORS
330
2D
102
}
330
2D
100
AcDbScale
 70
     0
300
100:1
140
100.0
141
1.0
290
     0
  0
SCALE
  5
60
102
{ACAD_REACTORS
330
2D
102
}
330
2D
100
AcDbScale
 70
     0
300
1/128" = 1'-0"
140
0.0078125
141
12.0
290
     0
  0
SCALE
  5
61
102
{ACAD_REACTORS
330
2D
102
}
330
2D
100
AcDbScale
 70
     0
300
1/64" = 1'-0"
140
0.015625
141
12.0
290
     0
  0
SCALE
  5
50
102
{ACAD_REACTORS
330
2D
102
}
330
2D
100
AcDbScale
 70
     0
300
1:2
140
1.0
141
2.0
290
     0
  0
SCALE
  5
62
102
{ACAD_REACTORS
330
2D
102
}
330
2D
100
AcDbScale
 70
     0
300
1/32" = 1'-0"
140
0.03125
141
12.0
290
     0
  0
SCALE
  5
63
102
{ACAD_REACTORS
330
2D
102
}
330
2D
100
AcDbScale
 70
     0
300
1/16" = 1'-0"
140
0.0625
141
12.0
290
     0
  0
SCALE
  5
64
102
{ACAD_REACTORS
330
2D
102
}
330
2D
100
AcDbScale
 70
     0
300
3/32" = 1'-0"
140
0.09375
141
12.0
290
     0
  0
SCALE
  5
65
102
{ACAD_REACTORS
330
2D
102
}
330
2D
100
AcDbScale
 70
     0
300
1/8" = 1'-0"
140
0.125
141
12.0
290
     0
  0
SCALE
  5
66
102
{ACAD_REACTORS
330
2D
102
}
330
2D
100
AcDbScale
 70
     0
300
3/16" = 1'-0"
140
0.1875
141
12.0
290
     0
  0
SCALE
  5
67
102
{ACAD_REACTORS
330
2D
102
}
330
2D
100
AcDbScale
 70
     0
300
1/4" = 1'-0"
140
0.25
141
12.0
290
     0
  0
SCALE
  5
68
102
{ACAD_REACTORS
330
2D
102
}
330
2D
100
AcDbScale
 70
     0
300
3/8" = 1'-0"
140
0.375
141
12.0
290
     0
  0
SCALE
  5
69
102
{ACAD_REACTORS
330
2D
102
}
330
2D
100
AcDbScale
 70
     0
300
1/2" = 1'-0"
140
0.5
141
12.0
290
     0
  0
SCALE
  5
6A
102
{ACAD_REACTORS
330
2D
102
}
330
2D
100
AcDbScale
 70
     0
300
3/4" = 1'-0"
140
0.75
141
12.0
290
     0
  0
SCALE
  5
6B
102
{ACAD_REACTORS
330
2D
102
}
330
2D
100
AcDbScale
 70
     0
300
1" = 1'-0"
140
1.0
141
12.0
290
     0
  0
SCALE
  5
51
102
{ACAD_REACTORS
330
2D
102
}
330
2D
100
AcDbScale
 70
     0
300
1:4
140
1.0
141
4.0
290
     0
  0
SCALE
  5
6C
102
{ACAD_REACTORS
330
2D
102
}
330
2D
100
AcDbScale
 70
     0
300
1-1/2" = 1'-0"
140
1.5
141
12.0
290
     0
  0
SCALE
  5
6D
102
{ACAD_REACTORS
330
2D
102
}
330
2D
100
AcDbScale
 70
     0
300
3" = 1'-0"
140
3.0
141
12.0
290
     0
  0
SCALE
  5
6E
102
{ACAD_REACTORS
330
2D
102
}
330
2D
100
AcDbScale
 70
     0
300
6" = 1'-0"
140
6.0
141
12.0
290
     0
  0
SCALE
  5
6F
102
{ACAD_REACTORS
330
2D
102
}
330
2D
100
AcDbScale
 70
     0
300
1'-0" = 1'-0"
140
12.0
141
12.0
290
     0
  0
SCALE
  5
52
102
{ACAD_REACTORS
330
2D
102
}
330
2D
100
AcDbScale
 70
     0
300
1:5
140
1.0
141
5.0
290
     0
  0
SCALE
  5
53
102
{ACAD_REACTORS
330
2D
102
}
330
2D
100
AcDbScale
 70
     0
300
1:8
140
1.0
141
8.0
290
     0
  0
SCALE
  5
54
102
{ACAD_REACTORS
330
2D
102
}
330
2D
100
AcDbScale
 70
     0
300
1:10
140
1.0
141
10.0
290
     0
  0
SCALE
  5
55
102
{ACAD_REACTORS
330
2D
102
}
330
2D
100
AcDbScale
 70
     0
300
1:16
140
1.0
141
16.0
290
     0
  0
SCALE
  5
56
102
{ACAD_REACTORS
330
2D
102
}
330
2D
100
AcDbScale
 70
     0
300
1:20
140
1.0
141
20.0
290
     0
  0
SCALE
  5
57
102
{ACAD_REACTORS
330
2D
102
}
330
2D
100
AcDbScale
 70
     0
300
1:30
140
1.0
141
30.0
290
     0
  0
TABLESTYLE
  5
661
102
{ACAD_REACTORS
330
5AA
102
}
330
5AA
100
AcDbTableStyle
  3
Standard
 70
     0
 71
     0
 40
0.06
 41
0.06
280
     0
281
     0
  7
STANDARD
140
0.18
170
     2
 62
     0
 63
   257
283
     0
274
    -2
284
     1
 64
     0
275
    -2
285
     1
 65
     0
276
    -2
286
     1
 66
     0
277
    -2
287
     1
 67
     0
278
    -2
288
     1
 68
     0
279
    -2
289
     1
 69
     0
  7
STANDARD
140
0.25
170
     5
 62
     0
 63
   257
283
     0
274
    -2
284
     1
 64
     0
275
    -2
285
     1
 65
     0
276
    -2
286
     1
 66
     0
277
    -2
287
     1
 67
     0
278
    -2
288
     1
 68
     0
279
    -2
289
     1
 69
     0
  7
STANDARD
140
0.18
170
     5
 62
     0
 63
   257
283
     0
274
    -2
284
     1
 64
     0
275
    -2
285
     1
 65
     0
276
    -2
286
     1
 66
     0
277
    -2
287
     1
 67
     0
278
    -2
288
     1
 68
     0
279
    -2
289
     1
 69
     0
  0
VISUALSTYLE
  5
5B2
102
{ACAD_REACTORS
330
2A
102
}
102
{ACAD_XDICTIONARY
360
67A
102
}
330
2A
100
AcDbVisualStyle
  2
2dWireframe
 70
     4
 71
     0
 72
     2
 73
     0
 90
        0
 40
0.6
 41
30.0
 62
     5
 63
     7
 74
     1
 91
        4
 64
     7
 65
   257
 75
     1
175
     1
 42
1.0
 92
        0
 66
   257
 43
1.0
 76
     1
 77
     6
 78
     2
 67
     7
 79
     5
170
     0
171
     0
290
     0
174
     0
 93
        1
 44
0.0
173
     0
291
     0
 45
0.0
1001
ACAD
1000
AcDbSavedByObjectVersion
1070
     0
  0
VISUALSTYLE
  5
5B5
102
{ACAD_REACTORS
330
2A
102
}
102
{ACAD_XDICTIONARY
360
680
102
}
330
2A
100
AcDbVisualStyle
  2
Basic
 70
     7
 71
     1
 72
     0
 73
     1
 90
        0
 40
0.6
 41
30.0
 62
     5
 63
     7
 74
     0
 91
        4
 64
     7
 65
   257
 75
     1
175
     1
 42
1.0
 92
        8
 66
     7
 43
1.0
 76
     1
 77
     6
 78
     2
 67
     7
 79
     5
170
     0
171
     0
290
     0
174
     0
 93
        1
 44
0.0
173
     0
291
     1
 45
0.0
1001
ACAD
1000
AcDbSavedByObjectVersion
1070
     0
  0
VISUALSTYLE
  5
5B9
102
{ACAD_REACTORS
330
2A
102
}
102
{ACAD_XDICTIONARY
360
688
102
}
330
2A
100
AcDbVisualStyle
  2
Brighten
 70
    12
 71
     2
 72
     2
 73
     0
 90
        0
 40
0.6
 41
30.0
 62
     5
 63
     7
 74
     1
 91
        4
 64
     7
 65
   257
 75
     1
175
     1
 42
1.0
 92
        8
 66
     7
 43
1.0
 76
     1
 77
     6
 78
     2
 67
     7
 79
     5
170
     0
171
     0
290
     0
174
     0
 93
        1
 44
50.0
173
     0
291
     1
 45
0.0
1001
ACAD
1000
AcDbSavedByObjectVersion
1070
     0
  0
VISUALSTYLE
  5
5BD
102
{ACAD_REACTORS
330
2A
102
}
102
{ACAD_XDICTIONARY
360
690
102
}
330
2A
100
AcDbVisualStyle
  2
ColorChange
 70
    16
 71
     2
 72
     2
 73
     3
 90
        0
 40
0.6
 41
30.0
 62
     5
 63
     8
 74
     1
 91
        4
 64
     7
 65
   257
 75
     1
175
     1
 42
1.0
 92
        8
 66
     8
 43
1.0
 76
     1
 77
     6
 78
     2
 67
     7
 79
     5
170
     0
171
     0
290
     0
174
     0
 93
        1
 44
0.0
173
     0
291
     1
 45
0.0
1001
ACAD
1000
AcDbSavedByObjectVersion
1070
     0
  0
VISUALSTYLE
  5
5B7
102
{ACAD_REACTORS
330
2A
102
}
102
{ACAD_XDICTIONARY
360
684
102
}
330
2A
100
AcDbVisualStyle
  2
Conceptual
 70
     9
 71
     3
 72
     2
 73
     0
 90
        0
 40
0.6
 41
30.0
 62
     5
 63
     7
 74
     2
 91
        2
 64
     7
 65
   257
 75
     1
175
     1
 42
40.0
 92
        8
 66
     7
 43
1.0
 76
     1
 77
     6
 78
     2
 67
     7
 79
     3
170
     0
171
     0
290
     0
174
     0
 93
        1
 44
0.0
173
     0
291
     0
 45
0.0
1001
ACAD
1000
AcDbSavedByObjectVersion
1070
     0
  0
VISUALSTYLE
  5
5B8
102
{ACAD_REACTORS
330
2A
102
}
102
{ACAD_XDICTIONARY
360
686
102
}
330
2A
100
AcDbVisualStyle
  2
Dim
 70
    11
 71
     2
 72
     2
 73
     0
 90
        0
 40
0.6
 41
30.0
 62
     5
 63
     7
 74
     1
 91
        4
 64
     7
 65
   257
 75
     1
175
     1
 42
1.0
 92
        8
 66
     7
 43
1.0
 76
     1
 77
     6
 78
     2
 67
     7
 79
     5
170
     0
171
     0
290
     0
174
     0
 93
        1
 44
-50.0
173
     0
291
     1
 45
0.0
1001
ACAD
1000
AcDbSavedByObjectVersion
1070
     0
  0
VISUALSTYLE
  5
5C0
102
{ACAD_REACTORS
330
2A
102
}
102
{ACAD_XDICTIONARY
360
696
102
}
330
2A
100
AcDbVisualStyle
  2
EdgeColorOff
 70
    22
 71
     2
 72
     2
 73
     0
 90
        0
 40
0.6
 41
30.0
 62
     5
 63
     7
 74
     1
 91
        4
 64
     7
 65
   257
 75
     1
175
     1
 42
1.0
 92
        8
 66
     7
 43
1.0
 76
     1
 77
     6
 78
     2
 67
     7
 79
     5
170
     0
171
     0
290
     0
174
     0
 93
        1
 44
0.0
173
     0
291
     1
 45
0.0
1001
ACAD
1000
AcDbSavedByObjectVersion
1070
     0
  0
VISUALSTYLE
  5
5BC
102
{ACAD_REACTORS
330
2A
102
}
102
{ACAD_XDICTIONARY
360
68E
102
}
330
2A
100
AcDbVisualStyle
  2
Facepattern
 70
    15
 71
     2
 72
     2
 73
     0
 90
        0
 40
0.6
 41
30.0
 62
     5
 63
     7
 74
     1
 91
        4
 64
     7
 65
   257
 75
     1
175
     1
 42
1.0
 92
        8
 66
     7
 43
1.0
 76
     1
 77
     6
 78
     2
 67
     7
 79
     5
170
     0
171
     0
290
     0
174
     0
 93
        1
 44
0.0
173
     0
291
     1
 45
0.0
1001
ACAD
1000
AcDbSavedByObjectVersion
1070
     0
  0
VISUALSTYLE
  5
5AE
102
{ACAD_REACTORS
330
2A
102
}
102
{ACAD_XDICTIONARY
360
672
102
}
330
2A
100
AcDbVisualStyle
  2
Flat
 70
     0
 71
     2
 72
     1
 73
     1
 90
        2
 40
0.6
 41
30.0
 62
     5
 63
     7
 74
     0
 91
        4
 64
     7
 65
   257
 75
     1
175
     1
 42
1.0
 92
        8
 66
     7
 43
1.0
 76
     1
 77
     6
 78
     2
 67
     7
 79
     5
170
     0
171
     0
290
     0
174
     0
 93
       13
 44
0.0
173
     0
291
     1
 45
0.0
1001
ACAD
1000
AcDbSavedByObjectVersion
1070
     0
  0
VISUALSTYLE
  5
5AF
102
{ACAD_REACTORS
330
2A
102
}
102
{ACAD_XDICTIONARY
360
674
102
}
330
2A
100
AcDbVisualStyle
  2
FlatWithEdges
 70
     1
 71
     2
 72
     1
 73
     1
 90
        2
 40
0.6
 41
30.0
 62
     5
 63
     7
 74
     1
 91
        4
 64
     7
 65
   257
 75
     1
175
     1
 42
1.0
 92
        0
 66
   257
 43
1.0
 76
     1
 77
     6
 78
     2
 67
     7
 79
     5
170
     0
171
     0
290
     0
174
     0
 93
       13
 44
0.0
173
     0
291
     1
 45
0.0
1001
ACAD
1000
AcDbSavedByObjectVersion
1070
     0
  0
VISUALSTYLE
  5
5B0
102
{ACAD_REACTORS
330
2A
102
}
102
{ACAD_XDICTIONARY
360
676
102
}
330
2A
100
AcDbVisualStyle
  2
Gouraud
 70
     2
 71
     2
 72
     2
 73
     1
 90
        2
 40
0.6
 41
30.0
 62
     5
 63
     7
 74
     0
 91
        4
 64
     7
 65
   257
 75
     1
175
     1
 42
1.0
 92
        0
 66
     7
 43
1.0
 76
     1
 77
     6
 78
     2
 67
     7
 79
     5
170
     0
171
     0
290
     0
174
     0
 93
       13
 44
0.0
173
     0
291
     1
 45
0.0
1001
ACAD
1000
AcDbSavedByObjectVersion
1070
     0
  0
VISUALSTYLE
  5
5B1
102
{ACAD_REACTORS
330
2A
102
}
102
{ACAD_XDICTIONARY
360
678
102
}
330
2A
100
AcDbVisualStyle
  2
GouraudWithEdges
 70
     3
 71
     2
 72
     2
 73
     1
 90
        2
 40
0.6
 41
30.0
 62
     5
 63
     7
 74
     1
 91
        4
 64
     7
 65
   257
 75
     1
175
     1
 42
1.0
 92
        0
 66
   257
 43
1.0
 76
     1
 77
     6
 78
     2
 67
     7
 79
     5
170
     0
171
     0
290
     0
174
     0
 93
       13
 44
0.0
173
     0
291
     1
 45
0.0
1001
ACAD
1000
AcDbSavedByObjectVersion
1070
     0
  0
VISUALSTYLE
  5
5B4
102
{ACAD_REACTORS
330
2A
102
}
102
{ACAD_XDICTIONARY
360
67E
102
}
330
2A
100
AcDbVisualStyle
  2
Hidden
 70
     6
 71
     1
 72
     2
 73
     2
 90
        0
 40
0.6
 41
30.0
 62
     5
 63
     7
 74
     2
 91
        2
 64
     7
 65
   257
 75
     2
175
     1
 42
40.0
 92
        0
 66
   257
 43
1.0
 76
     1
 77
     6
 78
     2
 67
     7
 79
     3
170
     0
171
     0
290
     0
174
     0
 93
        1
 44
0.0
173
     0
291
     0
 45
0.0
1001
ACAD
1000
AcDbSavedByObjectVersion
1070
     0
  0
VISUALSTYLE
  5
5BE
102
{ACAD_REACTORS
330
2A
102
}
102
{ACAD_XDICTIONARY
360
692
102
}
330
2A
100
AcDbVisualStyle
  2
JitterOff
 70
    20
 71
     2
 72
     2
 73
     0
 90
        0
 40
0.6
 41
30.0
 62
     5
 63
     7
 74
     1
 91
        4
 64
     7
 65
   257
 75
     1
175
     1
 42
1.0
 92
       10
 66
     7
 43
1.0
 76
     1
 77
     6
 78
     2
 67
     7
 79
     5
170
     0
171
     0
290
     0
174
     0
 93
        1
 44
0.0
173
     0
291
     1
 45
0.0
1001
ACAD
1000
AcDbSavedByObjectVersion
1070
     0
  0
VISUALSTYLE
  5
5BB
102
{ACAD_REACTORS
330
2A
102
}
102
{ACAD_XDICTIONARY
360
68C
102
}
330
2A
100
AcDbVisualStyle
  2
Linepattern
 70
    14
 71
     2
 72
     2
 73
     0
 90
        0
 40
0.6
 41
30.0
 62
     5
 63
     7
 74
     1
 91
        4
 64
     7
 65
   257
 75
     7
175
     7
 42
1.0
 92
        8
 66
     7
 43
1.0
 76
     1
 77
     6
 78
     2
 67
     7
 79
     5
170
     0
171
     0
290
     0
174
     0
 93
        1
 44
0.0
173
     0
291
     1
 45
0.0
1001
ACAD
1000
AcDbSavedByObjectVersion
1070
     0
  0
VISUALSTYLE
  5
5BF
102
{ACAD_REACTORS
330
2A
102
}
102
{ACAD_XDICTIONARY
360
694
102
}
330
2A
100
AcDbVisualStyle
  2
OverhangOff
 70
    21
 71
     2
 72
     2
 73
     0
 90
        0
 40
0.6
 41
30.0
 62
     5
 63
     7
 74
     1
 91
        4
 64
     7
 65
   257
 75
     1
175
     1
 42
1.0
 92
        9
 66
     7
 43
1.0
 76
     1
 77
     6
 78
     2
 67
     7
 79
     5
170
     0
171
     0
290
     0
174
     0
 93
        1
 44
0.0
173
     0
291
     1
 45
0.0
1001
ACAD
1000
AcDbSavedByObjectVersion
1070
     0
  0
VISUALSTYLE
  5
5B6
102
{ACAD_REACTORS
330
2A
102
}
102
{ACAD_XDICTIONARY
360
682
102
}
330
2A
100
AcDbVisualStyle
  2
Realistic
 70
     8
 71
     2
 72
     3
 73
     0
 90
        2
 40
0.6
 41
30.0
 62
     5
 63
     7
 74
     0
 91
        0
 64
     7
 65
   257
 75
     1
175
     1
 42
1.0
 92
        8
 66
   257
 43
1.0
 76
     1
 77
     6
 78
     2
 67
     7
 79
     3
170
     0
171
     0
290
     0
174
     0
 93
       13
 44
0.0
173
     0
291
     0
 45
0.0
1001
ACAD
1000
AcDbSavedByObjectVersion
1070
     0
  0
VISUALSTYLE
  5
5C5
102
{ACAD_REACTORS
330
2A
102
}
102
{ACAD_XDICTIONARY
360
6A0
102
}
330
2A
100
AcDbVisualStyle
  2
Shaded
 70
    27
 71
     2
 72
     2
 73
     1
 90
        2
 40
0.6
 41
30.0
 62
     5
 63
     7
 74
     0
 91
        4
 64
     7
 65
   257
 75
     1
175
     1
 42
1.0
 92
        8
 66
   257
 43
1.0
 76
     1
 77
     6
 78
     2
 67
   251
 79
     3
170
     0
171
     0
290
     0
174
     0
 93
        5
 44
0.0
173
     0
291
     0
 45
0.0
1001
ACAD
1000
AcDbSavedByObjectVersion
1070
     0
  0
VISUALSTYLE
  5
5C4
102
{ACAD_REACTORS
330
2A
102
}
102
{ACAD_XDICTIONARY
360
69E
102
}
330
2A
100
AcDbVisualStyle
  2
Shaded with edges
 70
    26
 71
     2
 72
     2
 73
     1
 90
        2
 40
0.6
 41
30.0
 62
     5
 63
     7
 74
     1
 91
       10
 64
     7
 65
   257
 75
     2
175
     1
 42
1.0
 92
        8
 66
   257
 43
1.0
 76
     1
 77
     6
 78
     2
 67
     7
 79
     3
170
     0
171
     0
290
     0
174
     0
 93
        5
 44
0.0
173
     0
291
     0
 45
0.0
1001
ACAD
1000
AcDbSavedByObjectVersion
1070
     0
  0
VISUALSTYLE
  5
5C1
102
{ACAD_REACTORS
330
2A
102
}
102
{ACAD_XDICTIONARY
360
698
102
}
330
2A
100
AcDbVisualStyle
  2
Shades of Gray
 70
    23
 71
     2
 72
     2
 73
     3
 90
        0
 40
0.6
 41
30.0
 62
     5
 63
     7
 74
     2
 91
        2
 64
     7
 65
     7
 75
     1
175
     1
 42
40.0
 92
        8
 66
     7
 43
1.0
 76
     1
 77
     6
 78
     2
 67
     7
 79
     3
170
     0
171
     0
290
     0
174
     0
 93
        1
 44
0.0
173
     0
291
     0
 45
0.0
1001
ACAD
1000
AcDbSavedByObjectVersion
1070
     0
  0
VISUALSTYLE
  5
5C2
102
{ACAD_REACTORS
330
2A
102
}
102
{ACAD_XDICTIONARY
360
69A
102
}
330
2A
100
AcDbVisualStyle
  2
Sketchy
 70
    24
 71
     1
 72
     2
 73
     2
 90
        0
 40
0.6
 41
30.0
 62
     5
 63
     7
 74
     2
 91
        2
 64
     7
 65
     7
 75
     1
175
     1
 42
40.0
 92
       11
 66
     7
 43
1.0
 76
     1
 77
     6
 78
     2
 67
     7
 79
     6
170
     0
171
     0
290
     0
174
     0
 93
        1
 44
0.0
173
     0
291
     0
 45
0.0
1001
ACAD
1000
AcDbSavedByObjectVersion
1070
     0
  0
VISUALSTYLE
  5
5BA
102
{ACAD_REACTORS
330
2A
102
}
102
{ACAD_XDICTIONARY
360
68A
102
}
330
2A
100
AcDbVisualStyle
  2
Thicken
 70
    13
 71
     2
 72
     2
 73
     0
 90
        0
 40
0.6
 41
30.0
 62
     5
 63
     7
 74
     1
 91
        4
 64
     7
 65
   257
 75
     1
175
     1
 42
1.0
 92
       12
 66
     7
 43
1.0
 76
     1
 77
     6
 78
     2
 67
     7
 79
     5
170
     0
171
     0
290
     0
174
     0
 93
        1
 44
0.0
173
     0
291
     1
 45
0.0
1001
ACAD
1000
AcDbSavedByObjectVersion
1070
     0
  0
VISUALSTYLE
  5
5B3
102
{ACAD_REACTORS
330
2A
102
}
102
{ACAD_XDICTIONARY
360
67C
102
}
330
2A
100
AcDbVisualStyle
  2
Wireframe
 70
     5
 71
     0
 72
     2
 73
     0
 90
        0
 40
0.6
 41
30.0
 62
     5
 63
     7
 74
     1
 91
        4
 64
     7
 65
   257
 75
     1
175
     1
 42
1.0
 92
        0
 66
   257
 43
1.0
 76
     1
 77
     6
 78
     2
 67
     7
 79
     5
170
     0
171
     0
290
     0
174
     0
 93
        1
 44
0.0
173
     0
291
     0
 45
0.0
1001
ACAD
1000
AcDbSavedByObjectVersion
1070
     0
  0
VISUALSTYLE
  5
5C3
102
{ACAD_REACTORS
330
2A
102
}
102
{ACAD_XDICTIONARY
360
69C
102
}
330
2A
100
AcDbVisualStyle
  2
X-Ray
 70
    25
 71
     2
 72
     2
 73
     1
 90
        1
 40
0.5
 41
30.0
 62
     5
 63
     7
 74
     1
 91
        0
 64
     7
 65
   257
 75
     1
175
     1
 42
1.0
 92
        8
 66
     7
 43
1.0
 76
     1
 77
     6
 78
     2
 67
     7
 79
     3
170
     0
171
     0
290
     0
174
     0
 93
       13
 44
0.0
173
     0
291
     0
 45
0.0
1001
ACAD
1000
AcDbSavedByObjectVersion
1070
     0
  0
XRECORD
  5
666
102
{ACAD_REACTORS
330
665
102
}
330
665
100
AcDbXrecord
280
     1
340
29
  0
XRECORD
  5
667
102
{ACAD_REACTORS
330
665
102
}
330
665
100
AcDbXrecord
280
     1
340
7
  0
DICTIONARYVAR
  5
5A9
102
{ACAD_REACTORS
330
5A8
102
}
330
5A8
100
DictionaryVariables
280
     0
  1
1:1
  0
DICTIONARYVAR
  5
5C8
102
{ACAD_REACTORS
330
5A8
102
}
330
5A8
100
DictionaryVariables
280
     0
  1
Standard
  0
DICTIONARYVAR
  5
662
102
{ACAD_REACTORS
330
5A8
102
}
330
5A8
100
DictionaryVariables
280
     0
  1
Standard
  0
DICTIONARYVAR
  5
663
102
{ACAD_REACTORS
330
5A8
102
}
330
5A8
100
DictionaryVariables
280
     0
  1
0
  0
DICTIONARYVAR
  5
664
102
{ACAD_REACTORS
330
5A8
102
}
330
5A8
100
DictionaryVariables
280
     0
  1
1
  0
DICTIONARYVAR
  5
66B
102
{ACAD_REACTORS
330
5A8
102
}
330
5A8
100
DictionaryVariables
280
     0
  1
1
  0
DICTIONARY
  5
670
330
70
100
AcDbDictionary
280
     1
281
     1
  3
ACAD_XREC_ROUNDTRIP
360
671
  0
DICTIONARY
  5
66C
330
10
100
AcDbDictionary
280
     1
281
     1
  3
ACAD_XREC_ROUNDTRIP
360
66D
  0
DICTIONARY
  5
66E
330
6
100
AcDbDictionary
280
     1
281
     1
  3
ACAD_XREC_ROUNDTRIP
360
66F
  0
DICTIONARY
  5
6A2
330
5C6
100
AcDbDictionary
280
     1
281
     1
  3
ACAD_XREC_ROUNDTRIP
360
6A3
  0
DICTIONARY
  5
67A
330
5B2
100
AcDbDictionary
280
     1
281
     1
  3
ACAD_XREC_ROUNDTRIP
360
67B
  0
DICTIONARY
  5
680
330
5B5
100
AcDbDictionary
280
     1
281
     1
  3
ACAD_XREC_ROUNDTRIP
360
681
  0
DICTIONARY
  5
688
330
5B9
100
AcDbDictionary
280
     1
281
     1
  3
ACAD_XREC_ROUNDTRIP
360
689
  0
DICTIONARY
  5
690
330
5BD
100
AcDbDictionary
280
     1
281
     1
  3
ACAD_XREC_ROUNDTRIP
360
691
  0
DICTIONARY
  5
684
330
5B7
100
AcDbDictionary
280
     1
281
     1
  3
ACAD_XREC_ROUNDTRIP
360
685
  0
DICTIONARY
  5
686
330
5B8
100
AcDbDictionary
280
     1
281
     1
  3
ACAD_XREC_ROUNDTRIP
360
687
  0
DICTIONARY
  5
696
330
5C0
100
AcDbDictionary
280
     1
281
     1
  3
ACAD_XREC_ROUNDTRIP
360
697
  0
DICTIONARY
  5
68E
330
5BC
100
AcDbDictionary
280
     1
281
     1
  3
ACAD_XREC_ROUNDTRIP
360
68F
  0
DICTIONARY
  5
672
330
5AE
100
AcDbDictionary
280
     1
281
     1
  3
ACAD_XREC_ROUNDTRIP
360
673
  0
DICTIONARY
  5
674
330
5AF
100
AcDbDictionary
280
     1
281
     1
  3
ACAD_XREC_ROUNDTRIP
360
675
  0
DICTIONARY
  5
676
330
5B0
100
AcDbDictionary
280
     1
281
     1
  3
ACAD_XREC_ROUNDTRIP
360
677
  0
DICTIONARY
  5
678
330
5B1
100
AcDbDictionary
280
     1
281
     1
  3
ACAD_XREC_ROUNDTRIP
360
679
  0
DICTIONARY
  5
67E
330
5B4
100
AcDbDictionary
280
     1
281
     1
  3
ACAD_XREC_ROUNDTRIP
360
67F
  0
DICTIONARY
  5
692
330
5BE
100
AcDbDictionary
280
     1
281
     1
  3
ACAD_XREC_ROUNDTRIP
360
693
  0
DICTIONARY
  5
68C
330
5BB
100
AcDbDictionary
280
     1
281
     1
  3
ACAD_XREC_ROUNDTRIP
360
68D
  0
DICTIONARY
  5
694
330
5BF
100
AcDbDictionary
280
     1
281
     1
  3
ACAD_XREC_ROUNDTRIP
360
695
  0
DICTIONARY
  5
682
330
5B6
100
AcDbDictionary
280
     1
281
     1
  3
ACAD_XREC_ROUNDTRIP
360
683
  0
DICTIONARY
  5
6A0
330
5C5
100
AcDbDictionary
280
     1
281
     1
  3
ACAD_XREC_ROUNDTRIP
360
6A1
  0
DICTIONARY
  5
69E
330
5C4
100
AcDbDictionary
280
     1
281
     1
  3
ACAD_XREC_ROUNDTRIP
360
69F
  0
DICTIONARY
  5
698
330
5C1
100
AcDbDictionary
280
     1
281
     1
  3
ACAD_XREC_ROUNDTRIP
360
699
  0
DICTIONARY
  5
69A
330
5C2
100
AcDbDictionary
280
     1
281
     1
  3
ACAD_XREC_ROUNDTRIP
360
69B
  0
DICTIONARY
  5
68A
330
5BA
100
AcDbDictionary
280
     1
281
     1
  3
ACAD_XREC_ROUNDTRIP
360
68B
  0
DICTIONARY
  5
67C
330
5B3
100
AcDbDictionary
280
     1
281
     1
  3
ACAD_XREC_ROUNDTRIP
360
67D
  0
DICTIONARY
  5
69C
330
5C3
100
AcDbDictionary
280
     1
281
     1
  3
ACAD_XREC_ROUNDTRIP
360
69D
  0
XRECORD
  5
671
102
{ACAD_REACTORS
330
670
102
}
330
670
100
AcDbXrecord
280
     1
102
MATERIAL
148
0.0
149
0.0
149
0.0
 93
        0
 94
      127
282
     0
 72
     1
 77
     1
171
     1
175
     1
179
     1
273
     0
  0
XRECORD
  5
66D
102
{ACAD_REACTORS
330
66C
102
}
330
66C
100
AcDbXrecord
280
     1
102
MATERIAL
148
0.0
149
0.0
149
0.0
 93
        0
 94
      127
282
     0
 72
     1
 77
     1
171
     1
175
     1
179
     1
273
     0
  0
XRECORD
  5
66F
102
{ACAD_REACTORS
330
66E
102
}
330
66E
100
AcDbXrecord
280
     1
102
MATERIAL
148
0.0
149
0.0
149
0.0
 93
        0
 94
      127
282
     0
 72
     1
 77
     1
171
     1
175
     1
179
     1
273
     0
  0
XRECORD
  5
6A3
102
{ACAD_REACTORS
330
6A2
102
}
330
6A2
100
AcDbXrecord
280
     1
102
ACAD_ROUNDTRIP_2010_MLEADER_STYLE
  0
XRECORD
  5
67B
102
{ACAD_REACTORS
330
67A
102
}
330
67A
100
AcDbXrecord
280
     1
102
RTVSPropertyOp0
 70
     1
102
RTVSPropertyOp1
 70
     1
102
RTVSPropertyOp2
 70
     1
102
RTVSPropertyOp3
 70
     1
102
RTVSPropertyOp4
 70
     1
102
RTVSPropertyOp5
 70
     1
102
RTVSPropertyOp6
 70
     1
102
RTVSPropertyOp7
 70
     1
102
RTVSPropertyOp8
 70
     1
102
RTVSPropertyOp9
 70
     1
102
RTVSPropertyOp10
 70
     1
102
RTVSPropertyOp11
 70
     1
102
RTVSPropertyOp12
 70
     1
102
RTVSPropertyOp13
 70
     1
102
RTVSPropertyOp14
 70
     1
102
RTVSPropertyOp15
 70
     1
102
RTVSPropertyOp16
 70
     1
102
RTVSPropertyOp17
 70
     1
102
RTVSPropertyOp18
 70
     1
102
RTVSPropertyOp19
 70
     1
102
RTVSPropertyOp20
 70
     1
102
RTVSPropertyOp21
 70
     1
102
RTVSPropertyOp22
 70
     1
102
RTVSPropertyOp23
 70
     1
102
RTVSPropertyOp24
 70
     1
102
RTVSPropertyOp25
 70
     1
102
RTVSPropertyOp26
 70
     1
102
RTVSPropertyOp27
 70
     1
102
RTVSPropertyOp28
 70
     1
102
RTVSPropertyOp29
 70
     1
102
RTVSPropertyOp30
 70
     1
102
RTVSPropertyOp31
 70
     1
102
RTVSPropertyOp32
 70
     1
102
RTVSPropertyOp33
 70
     1
102
RTVSPropertyOp34
 70
     1
102
RTVSPropertyOp35
 70
     1
102
RTVSPropertyOp36
 70
     1
102
RTVSPropertyOp37
 70
     1
102
RTVSPropertyOp38
 70
     1
102
RTVSPropertyOp39
 70
     1
102
RTVSPropertyOp40
 70
     1
102
RTVSPropertyOp41
 70
     1
102
RTVSPropertyOp42
 70
     1
102
RTVSPropertyOp43
 70
     1
102
RTVSPropertyOp44
 70
     1
102
RTVSPropertyOp45
 70
     1
102
RTVSPropertyOp46
 70
     1
102
RTVSPropertyOp47
 70
     1
102
RTVSPropertyOp48
 70
     1
102
RTVSPropertyOp49
 70
     1
102
RTVSPropertyOp50
 70
     1
102
RTVSPropertyOp51
 70
     0
102
RTVSPropertyOp52
 70
     0
102
RTVSPropertyOp53
 70
     1
102
RTVSPropertyOp54
 70
     1
102
RTVSPropertyOp55
 70
     1
102
RTVSPropertyOp56
 70
     1
102
RTVSPropertyOp57
 70
     1
102
RTVSPost2010Prop28
280
     1
102
RTVSPost2010PropOp28
 70
     1
102
RTVSPost2010Prop29
280
     1
102
RTVSPost2010PropOp29
 70
     1
102
RTVSPost2010Prop30
280
     0
102
RTVSPost2010PropOp30
 70
     1
102
RTVSPost2010Prop31
280
     0
102
RTVSPost2010PropOp31
 70
     1
102
RTVSPost2010Prop32
280
     0
102
RTVSPost2010PropOp32
 70
     1
102
RTVSPost2010Prop33
280
     0
102
RTVSPost2010PropOp33
 70
     1
102
RTVSPost2010Prop34
280
     0
102
RTVSPost2010PropOp34
 70
     1
102
RTVSPost2010Prop35
280
     0
102
RTVSPost2010PropOp35
 70
     1
102
RTVSPost2010Prop36
280
     0
102
RTVSPost2010PropOp36
 70
     1
102
RTVSPost2010Prop37
 90
       50
102
RTVSPost2010PropOp37
 70
     1
102
RTVSPost2010Prop38
140
0.0
102
RTVSPost2010PropOp38
 70
     1
102
RTVSPost2010Prop39
140
1.0
102
RTVSPost2010PropOp39
 70
     1
102
RTVSPost2010Prop40
 90
        0
102
RTVSPost2010PropOp40
 70
     1
102
RTVSPost2010Prop41ColorIndex
 90
       18
102
RTVSPost2010Prop41ColorRGB
 90
        0
102
RTVSPost2010PropOp41
 70
     1
102
RTVSPost2010Prop42
 90
       50
102
RTVSPost2010PropOp42
 70
     1
102
RTVSPost2010Prop43
 90
        3
102
RTVSPost2010PropOp43
 70
     1
102
RTVSPost2010Prop44ColorIndex
 90
        5
102
RTVSPost2010Prop44ColorRGB
 90
      255
102
RTVSPost2010PropOp44
 70
     1
102
RTVSPost2010Prop45
280
     0
102
RTVSPost2010PropOp45
 70
     1
102
RTVSPost2010Prop46
 90
       50
102
RTVSPost2010PropOp46
 70
     1
102
RTVSPost2010Prop47
 90
       50
102
RTVSPost2010PropOp47
 70
     1
102
RTVSPost2010Prop48
 90
       50
102
RTVSPost2010PropOp48
 70
     1
102
RTVSPost2010Prop49
280
     0
102
RTVSPost2010PropOp49
 70
     1
102
RTVSPost2010Prop50
 90
       50
102
RTVSPost2010PropOp50
 70
     1
102
RTVSPost2010Prop51ColorIndex
 90
      256
102
RTVSPost2010Prop51ColorRGB
 90
-16777216
102
RTVSPost2010PropOp51
 70
     0
102
RTVSPost2010Prop52
140
1.0
102
RTVSPost2010PropOp52
 70
     0
102
RTVSPost2010Prop53
 90
        2
102
RTVSPost2010PropOp53
 70
     1
102
RTVSPost2010Prop54
  1
strokes_ogs.tif
102
RTVSPost2010PropOp54
 70
     1
102
RTVSPost2010Prop55
280
     0
102
RTVSPost2010PropOp55
 70
     1
102
RTVSPost2010Prop56
140
1.0
102
RTVSPost2010PropOp56
 70
     1
102
RTVSPost2010Prop57
140
1.0
102
RTVSPost2010PropOp57
 70
     1
  0
XRECORD
  5
681
102
{ACAD_REACTORS
330
680
102
}
330
680
100
AcDbXrecord
280
     1
102
RTVSPropertyOp0
 70
     1
102
RTVSPropertyOp1
 70
     1
102
RTVSPropertyOp2
 70
     1
102
RTVSPropertyOp3
 70
     1
102
RTVSPropertyOp4
 70
     1
102
RTVSPropertyOp5
 70
     1
102
RTVSPropertyOp6
 70
     1
102
RTVSPropertyOp7
 70
     1
102
RTVSPropertyOp8
 70
     1
102
RTVSPropertyOp9
 70
     1
102
RTVSPropertyOp10
 70
     1
102
RTVSPropertyOp11
 70
     1
102
RTVSPropertyOp12
 70
     1
102
RTVSPropertyOp13
 70
     1
102
RTVSPropertyOp14
 70
     1
102
RTVSPropertyOp15
 70
     1
102
RTVSPropertyOp16
 70
     1
102
RTVSPropertyOp17
 70
     1
102
RTVSPropertyOp18
 70
     1
102
RTVSPropertyOp19
 70
     1
102
RTVSPropertyOp20
 70
     1
102
RTVSPropertyOp21
 70
     1
102
RTVSPropertyOp22
 70
     1
102
RTVSPropertyOp23
 70
     1
102
RTVSPropertyOp24
 70
     1
102
RTVSPropertyOp25
 70
     1
102
RTVSPropertyOp26
 70
     1
102
RTVSPropertyOp27
 70
     1
102
RTVSPropertyOp28
 70
     1
102
RTVSPropertyOp29
 70
     1
102
RTVSPropertyOp30
 70
     1
102
RTVSPropertyOp31
 70
     1
102
RTVSPropertyOp32
 70
     1
102
RTVSPropertyOp33
 70
     1
102
RTVSPropertyOp34
 70
     1
102
RTVSPropertyOp35
 70
     1
102
RTVSPropertyOp36
 70
     1
102
RTVSPropertyOp37
 70
     1
102
RTVSPropertyOp38
 70
     1
102
RTVSPropertyOp39
 70
     1
102
RTVSPropertyOp40
 70
     1
102
RTVSPropertyOp41
 70
     1
102
RTVSPropertyOp42
 70
     1
102
RTVSPropertyOp43
 70
     1
102
RTVSPropertyOp44
 70
     1
102
RTVSPropertyOp45
 70
     1
102
RTVSPropertyOp46
 70
     1
102
RTVSPropertyOp47
 70
     1
102
RTVSPropertyOp48
 70
     1
102
RTVSPropertyOp49
 70
     1
102
RTVSPropertyOp50
 70
     1
102
RTVSPropertyOp51
 70
     0
102
RTVSPropertyOp52
 70
     0
102
RTVSPropertyOp53
 70
     1
102
RTVSPropertyOp54
 70
     1
102
RTVSPropertyOp55
 70
     1
102
RTVSPropertyOp56
 70
     1
102
RTVSPropertyOp57
 70
     1
102
RTVSPost2010Prop28
280
     0
102
RTVSPost2010PropOp28
 70
     1
102
RTVSPost2010Prop29
280
     1
102
RTVSPost2010PropOp29
 70
     1
102
RTVSPost2010Prop30
280
     1
102
RTVSPost2010PropOp30
 70
     1
102
RTVSPost2010Prop31
280
     0
102
RTVSPost2010PropOp31
 70
     1
102
RTVSPost2010Prop32
280
     0
102
RTVSPost2010PropOp32
 70
     1
102
RTVSPost2010Prop33
280
     0
102
RTVSPost2010PropOp33
 70
     1
102
RTVSPost2010Prop34
280
     0
102
RTVSPost2010PropOp34
 70
     1
102
RTVSPost2010Prop35
280
     0
102
RTVSPost2010PropOp35
 70
     1
102
RTVSPost2010Prop36
280
     0
102
RTVSPost2010PropOp36
 70
     1
102
RTVSPost2010Prop37
 90
       50
102
RTVSPost2010PropOp37
 70
     1
102
RTVSPost2010Prop38
140
0.0
102
RTVSPost2010PropOp38
 70
     1
102
RTVSPost2010Prop39
140
1.0
102
RTVSPost2010PropOp39
 70
     1
102
RTVSPost2010Prop40
 90
        0
102
RTVSPost2010PropOp40
 70
     1
102
RTVSPost2010Prop41ColorIndex
 90
       18
102
RTVSPost2010Prop41ColorRGB
 90
        0
102
RTVSPost2010PropOp41
 70
     1
102
RTVSPost2010Prop42
 90
       50
102
RTVSPost2010PropOp42
 70
     1
102
RTVSPost2010Prop43
 90
        3
102
RTVSPost2010PropOp43
 70
     1
102
RTVSPost2010Prop44ColorIndex
 90
        5
102
RTVSPost2010Prop44ColorRGB
 90
      255
102
RTVSPost2010PropOp44
 70
     1
102
RTVSPost2010Prop45
280
     0
102
RTVSPost2010PropOp45
 70
     1
102
RTVSPost2010Prop46
 90
       50
102
RTVSPost2010PropOp46
 70
     1
102
RTVSPost2010Prop47
 90
       50
102
RTVSPost2010PropOp47
 70
     1
102
RTVSPost2010Prop48
 90
       50
102
RTVSPost2010PropOp48
 70
     1
102
RTVSPost2010Prop49
280
     0
102
RTVSPost2010PropOp49
 70
     1
102
RTVSPost2010Prop50
 90
       50
102
RTVSPost2010PropOp50
 70
     1
102
RTVSPost2010Prop51ColorIndex
 90
      256
102
RTVSPost2010Prop51ColorRGB
 90
-16777216
102
RTVSPost2010PropOp51
 70
     0
102
RTVSPost2010Prop52
140
1.0
102
RTVSPost2010PropOp52
 70
     0
102
RTVSPost2010Prop53
 90
        2
102
RTVSPost2010PropOp53
 70
     1
102
RTVSPost2010Prop54
  1
strokes_ogs.tif
102
RTVSPost2010PropOp54
 70
     1
102
RTVSPost2010Prop55
280
     0
102
RTVSPost2010PropOp55
 70
     1
102
RTVSPost2010Prop56
140
1.0
102
RTVSPost2010PropOp56
 70
     1
102
RTVSPost2010Prop57
140
1.0
102
RTVSPost2010PropOp57
 70
     1
  0
XRECORD
  5
689
102
{ACAD_REACTORS
330
688
102
}
330
688
100
AcDbXrecord
280
     1
102
RTVSPropertyOp0
 70
     1
102
RTVSPropertyOp1
 70
     1
102
RTVSPropertyOp2
 70
     1
102
RTVSPropertyOp3
 70
     1
102
RTVSPropertyOp4
 70
     1
102
RTVSPropertyOp5
 70
     1
102
RTVSPropertyOp6
 70
     1
102
RTVSPropertyOp7
 70
     1
102
RTVSPropertyOp8
 70
     1
102
RTVSPropertyOp9
 70
     1
102
RTVSPropertyOp10
 70
     1
102
RTVSPropertyOp11
 70
     1
102
RTVSPropertyOp12
 70
     1
102
RTVSPropertyOp13
 70
     1
102
RTVSPropertyOp14
 70
     1
102
RTVSPropertyOp15
 70
     1
102
RTVSPropertyOp16
 70
     1
102
RTVSPropertyOp17
 70
     1
102
RTVSPropertyOp18
 70
     1
102
RTVSPropertyOp19
 70
     1
102
RTVSPropertyOp20
 70
     1
102
RTVSPropertyOp21
 70
     1
102
RTVSPropertyOp22
 70
     1
102
RTVSPropertyOp23
 70
     1
102
RTVSPropertyOp24
 70
     1
102
RTVSPropertyOp25
 70
     1
102
RTVSPropertyOp26
 70
     1
102
RTVSPropertyOp27
 70
     1
102
RTVSPropertyOp28
 70
     1
102
RTVSPropertyOp29
 70
     1
102
RTVSPropertyOp30
 70
     1
102
RTVSPropertyOp31
 70
     1
102
RTVSPropertyOp32
 70
     1
102
RTVSPropertyOp33
 70
     1
102
RTVSPropertyOp34
 70
     1
102
RTVSPropertyOp35
 70
     1
102
RTVSPropertyOp36
 70
     1
102
RTVSPropertyOp37
 70
     1
102
RTVSPropertyOp38
 70
     1
102
RTVSPropertyOp39
 70
     1
102
RTVSPropertyOp40
 70
     1
102
RTVSPropertyOp41
 70
     1
102
RTVSPropertyOp42
 70
     1
102
RTVSPropertyOp43
 70
     1
102
RTVSPropertyOp44
 70
     1
102
RTVSPropertyOp45
 70
     1
102
RTVSPropertyOp46
 70
     1
102
RTVSPropertyOp47
 70
     1
102
RTVSPropertyOp48
 70
     1
102
RTVSPropertyOp49
 70
     1
102
RTVSPropertyOp50
 70
     1
102
RTVSPropertyOp51
 70
     0
102
RTVSPropertyOp52
 70
     0
102
RTVSPropertyOp53
 70
     1
102
RTVSPropertyOp54
 70
     1
102
RTVSPropertyOp55
 70
     1
102
RTVSPropertyOp56
 70
     1
102
RTVSPropertyOp57
 70
     1
102
RTVSPost2010Prop28
280
     0
102
RTVSPost2010PropOp28
 70
     1
102
RTVSPost2010Prop29
280
     1
102
RTVSPost2010PropOp29
 70
     1
102
RTVSPost2010Prop30
280
     1
102
RTVSPost2010PropOp30
 70
     1
102
RTVSPost2010Prop31
280
     0
102
RTVSPost2010PropOp31
 70
     1
102
RTVSPost2010Prop32
280
     0
102
RTVSPost2010PropOp32
 70
     1
102
RTVSPost2010Prop33
280
     0
102
RTVSPost2010PropOp33
 70
     1
102
RTVSPost2010Prop34
280
     0
102
RTVSPost2010PropOp34
 70
     1
102
RTVSPost2010Prop35
280
     0
102
RTVSPost2010PropOp35
 70
     1
102
RTVSPost2010Prop36
280
     0
102
RTVSPost2010PropOp36
 70
     1
102
RTVSPost2010Prop37
 90
       50
102
RTVSPost2010PropOp37
 70
     1
102
RTVSPost2010Prop38
140
0.0
102
RTVSPost2010PropOp38
 70
     1
102
RTVSPost2010Prop39
140
1.0
102
RTVSPost2010PropOp39
 70
     1
102
RTVSPost2010Prop40
 90
        0
102
RTVSPost2010PropOp40
 70
     1
102
RTVSPost2010Prop41ColorIndex
 90
       18
102
RTVSPost2010Prop41ColorRGB
 90
        0
102
RTVSPost2010PropOp41
 70
     1
102
RTVSPost2010Prop42
 90
       50
102
RTVSPost2010PropOp42
 70
     1
102
RTVSPost2010Prop43
 90
        3
102
RTVSPost2010PropOp43
 70
     1
102
RTVSPost2010Prop44ColorIndex
 90
        5
102
RTVSPost2010Prop44ColorRGB
 90
      255
102
RTVSPost2010PropOp44
 70
     1
102
RTVSPost2010Prop45
280
     0
102
RTVSPost2010PropOp45
 70
     1
102
RTVSPost2010Prop46
 90
       50
102
RTVSPost2010PropOp46
 70
     1
102
RTVSPost2010Prop47
 90
       50
102
RTVSPost2010PropOp47
 70
     1
102
RTVSPost2010Prop48
 90
       50
102
RTVSPost2010PropOp48
 70
     1
102
RTVSPost2010Prop49
280
     0
102
RTVSPost2010PropOp49
 70
     1
102
RTVSPost2010Prop50
 90
       50
102
RTVSPost2010PropOp50
 70
     1
102
RTVSPost2010Prop51ColorIndex
 90
      256
102
RTVSPost2010Prop51ColorRGB
 90
-16777216
102
RTVSPost2010PropOp51
 70
     0
102
RTVSPost2010Prop52
140
1.0
102
RTVSPost2010PropOp52
 70
     0
102
RTVSPost2010Prop53
 90
        2
102
RTVSPost2010PropOp53
 70
     1
102
RTVSPost2010Prop54
  1
strokes_ogs.tif
102
RTVSPost2010PropOp54
 70
     1
102
RTVSPost2010Prop55
280
     0
102
RTVSPost2010PropOp55
 70
     1
102
RTVSPost2010Prop56
140
1.0
102
RTVSPost2010PropOp56
 70
     1
102
RTVSPost2010Prop57
140
1.0
102
RTVSPost2010PropOp57
 70
     1
  0
XRECORD
  5
691
102
{ACAD_REACTORS
330
690
102
}
330
690
100
AcDbXrecord
280
     1
102
RTVSPropertyOp0
 70
     1
102
RTVSPropertyOp1
 70
     1
102
RTVSPropertyOp2
 70
     1
102
RTVSPropertyOp3
 70
     1
102
RTVSPropertyOp4
 70
     1
102
RTVSPropertyOp5
 70
     1
102
RTVSPropertyOp6
 70
     1
102
RTVSPropertyOp7
 70
     1
102
RTVSPropertyOp8
 70
     1
102
RTVSPropertyOp9
 70
     1
102
RTVSPropertyOp10
 70
     1
102
RTVSPropertyOp11
 70
     1
102
RTVSPropertyOp12
 70
     1
102
RTVSPropertyOp13
 70
     1
102
RTVSPropertyOp14
 70
     1
102
RTVSPropertyOp15
 70
     1
102
RTVSPropertyOp16
 70
     1
102
RTVSPropertyOp17
 70
     1
102
RTVSPropertyOp18
 70
     1
102
RTVSPropertyOp19
 70
     1
102
RTVSPropertyOp20
 70
     1
102
RTVSPropertyOp21
 70
     1
102
RTVSPropertyOp22
 70
     1
102
RTVSPropertyOp23
 70
     1
102
RTVSPropertyOp24
 70
     1
102
RTVSPropertyOp25
 70
     1
102
RTVSPropertyOp26
 70
     1
102
RTVSPropertyOp27
 70
     1
102
RTVSPropertyOp28
 70
     1
102
RTVSPropertyOp29
 70
     1
102
RTVSPropertyOp30
 70
     1
102
RTVSPropertyOp31
 70
     1
102
RTVSPropertyOp32
 70
     1
102
RTVSPropertyOp33
 70
     1
102
RTVSPropertyOp34
 70
     1
102
RTVSPropertyOp35
 70
     1
102
RTVSPropertyOp36
 70
     1
102
RTVSPropertyOp37
 70
     1
102
RTVSPropertyOp38
 70
     1
102
RTVSPropertyOp39
 70
     1
102
RTVSPropertyOp40
 70
     1
102
RTVSPropertyOp41
 70
     1
102
RTVSPropertyOp42
 70
     1
102
RTVSPropertyOp43
 70
     1
102
RTVSPropertyOp44
 70
     1
102
RTVSPropertyOp45
 70
     1
102
RTVSPropertyOp46
 70
     1
102
RTVSPropertyOp47
 70
     1
102
RTVSPropertyOp48
 70
     1
102
RTVSPropertyOp49
 70
     1
102
RTVSPropertyOp50
 70
     1
102
RTVSPropertyOp51
 70
     0
102
RTVSPropertyOp52
 70
     0
102
RTVSPropertyOp53
 70
     1
102
RTVSPropertyOp54
 70
     1
102
RTVSPropertyOp55
 70
     1
102
RTVSPropertyOp56
 70
     1
102
RTVSPropertyOp57
 70
     1
102
RTVSPost2010Prop28
280
     0
102
RTVSPost2010PropOp28
 70
     1
102
RTVSPost2010Prop29
280
     1
102
RTVSPost2010PropOp29
 70
     1
102
RTVSPost2010Prop30
280
     1
102
RTVSPost2010PropOp30
 70
     1
102
RTVSPost2010Prop31
280
     0
102
RTVSPost2010PropOp31
 70
     1
102
RTVSPost2010Prop32
280
     0
102
RTVSPost2010PropOp32
 70
     1
102
RTVSPost2010Prop33
280
     0
102
RTVSPost2010PropOp33
 70
     1
102
RTVSPost2010Prop34
280
     0
102
RTVSPost2010PropOp34
 70
     1
102
RTVSPost2010Prop35
280
     0
102
RTVSPost2010PropOp35
 70
     1
102
RTVSPost2010Prop36
280
     0
102
RTVSPost2010PropOp36
 70
     1
102
RTVSPost2010Prop37
 90
       50
102
RTVSPost2010PropOp37
 70
     1
102
RTVSPost2010Prop38
140
0.0
102
RTVSPost2010PropOp38
 70
     1
102
RTVSPost2010Prop39
140
1.0
102
RTVSPost2010PropOp39
 70
     1
102
RTVSPost2010Prop40
 90
        0
102
RTVSPost2010PropOp40
 70
     1
102
RTVSPost2010Prop41ColorIndex
 90
       18
102
RTVSPost2010Prop41ColorRGB
 90
        0
102
RTVSPost2010PropOp41
 70
     1
102
RTVSPost2010Prop42
 90
       50
102
RTVSPost2010PropOp42
 70
     1
102
RTVSPost2010Prop43
 90
        3
102
RTVSPost2010PropOp43
 70
     1
102
RTVSPost2010Prop44ColorIndex
 90
        5
102
RTVSPost2010Prop44ColorRGB
 90
      255
102
RTVSPost2010PropOp44
 70
     1
102
RTVSPost2010Prop45
280
     0
102
RTVSPost2010PropOp45
 70
     1
102
RTVSPost2010Prop46
 90
       50
102
RTVSPost2010PropOp46
 70
     1
102
RTVSPost2010Prop47
 90
       50
102
RTVSPost2010PropOp47
 70
     1
102
RTVSPost2010Prop48
 90
       50
102
RTVSPost2010PropOp48
 70
     1
102
RTVSPost2010Prop49
280
     0
102
RTVSPost2010PropOp49
 70
     1
102
RTVSPost2010Prop50
 90
       50
102
RTVSPost2010PropOp50
 70
     1
102
RTVSPost2010Prop51ColorIndex
 90
      256
102
RTVSPost2010Prop51ColorRGB
 90
-16777216
102
RTVSPost2010PropOp51
 70
     0
102
RTVSPost2010Prop52
140
1.0
102
RTVSPost2010PropOp52
 70
     0
102
RTVSPost2010Prop53
 90
        2
102
RTVSPost2010PropOp53
 70
     1
102
RTVSPost2010Prop54
  1
strokes_ogs.tif
102
RTVSPost2010PropOp54
 70
     1
102
RTVSPost2010Prop55
280
     0
102
RTVSPost2010PropOp55
 70
     1
102
RTVSPost2010Prop56
140
1.0
102
RTVSPost2010PropOp56
 70
     1
102
RTVSPost2010Prop57
140
1.0
102
RTVSPost2010PropOp57
 70
     1
  0
XRECORD
  5
685
102
{ACAD_REACTORS
330
684
102
}
330
684
100
AcDbXrecord
280
     1
102
RTVSPropertyOp0
 70
     1
102
RTVSPropertyOp1
 70
     1
102
RTVSPropertyOp2
 70
     1
102
RTVSPropertyOp3
 70
     1
102
RTVSPropertyOp4
 70
     1
102
RTVSPropertyOp5
 70
     1
102
RTVSPropertyOp6
 70
     1
102
RTVSPropertyOp7
 70
     1
102
RTVSPropertyOp8
 70
     1
102
RTVSPropertyOp9
 70
     1
102
RTVSPropertyOp10
 70
     1
102
RTVSPropertyOp11
 70
     1
102
RTVSPropertyOp12
 70
     1
102
RTVSPropertyOp13
 70
     1
102
RTVSPropertyOp14
 70
     1
102
RTVSPropertyOp15
 70
     1
102
RTVSPropertyOp16
 70
     1
102
RTVSPropertyOp17
 70
     1
102
RTVSPropertyOp18
 70
     1
102
RTVSPropertyOp19
 70
     1
102
RTVSPropertyOp20
 70
     1
102
RTVSPropertyOp21
 70
     1
102
RTVSPropertyOp22
 70
     1
102
RTVSPropertyOp23
 70
     1
102
RTVSPropertyOp24
 70
     1
102
RTVSPropertyOp25
 70
     1
102
RTVSPropertyOp26
 70
     1
102
RTVSPropertyOp27
 70
     1
102
RTVSPropertyOp28
 70
     1
102
RTVSPropertyOp29
 70
     1
102
RTVSPropertyOp30
 70
     1
102
RTVSPropertyOp31
 70
     1
102
RTVSPropertyOp32
 70
     1
102
RTVSPropertyOp33
 70
     1
102
RTVSPropertyOp34
 70
     1
102
RTVSPropertyOp35
 70
     1
102
RTVSPropertyOp36
 70
     1
102
RTVSPropertyOp37
 70
     1
102
RTVSPropertyOp38
 70
     1
102
RTVSPropertyOp39
 70
     1
102
RTVSPropertyOp40
 70
     1
102
RTVSPropertyOp41
 70
     1
102
RTVSPropertyOp42
 70
     1
102
RTVSPropertyOp43
 70
     1
102
RTVSPropertyOp44
 70
     1
102
RTVSPropertyOp45
 70
     1
102
RTVSPropertyOp46
 70
     1
102
RTVSPropertyOp47
 70
     1
102
RTVSPropertyOp48
 70
     1
102
RTVSPropertyOp49
 70
     1
102
RTVSPropertyOp50
 70
     1
102
RTVSPropertyOp51
 70
     0
102
RTVSPropertyOp52
 70
     0
102
RTVSPropertyOp53
 70
     1
102
RTVSPropertyOp54
 70
     1
102
RTVSPropertyOp55
 70
     1
102
RTVSPropertyOp56
 70
     1
102
RTVSPropertyOp57
 70
     1
102
RTVSPost2010Prop28
280
     0
102
RTVSPost2010PropOp28
 70
     1
102
RTVSPost2010Prop29
280
     1
102
RTVSPost2010PropOp29
 70
     1
102
RTVSPost2010Prop30
280
     1
102
RTVSPost2010PropOp30
 70
     1
102
RTVSPost2010Prop31
280
     0
102
RTVSPost2010PropOp31
 70
     1
102
RTVSPost2010Prop32
280
     0
102
RTVSPost2010PropOp32
 70
     1
102
RTVSPost2010Prop33
280
     0
102
RTVSPost2010PropOp33
 70
     1
102
RTVSPost2010Prop34
280
     0
102
RTVSPost2010PropOp34
 70
     1
102
RTVSPost2010Prop35
280
     0
102
RTVSPost2010PropOp35
 70
     1
102
RTVSPost2010Prop36
280
     0
102
RTVSPost2010PropOp36
 70
     1
102
RTVSPost2010Prop37
 90
       50
102
RTVSPost2010PropOp37
 70
     1
102
RTVSPost2010Prop38
140
0.0
102
RTVSPost2010PropOp38
 70
     1
102
RTVSPost2010Prop39
140
1.0
102
RTVSPost2010PropOp39
 70
     1
102
RTVSPost2010Prop40
 90
        0
102
RTVSPost2010PropOp40
 70
     1
102
RTVSPost2010Prop41ColorIndex
 90
       18
102
RTVSPost2010Prop41ColorRGB
 90
        0
102
RTVSPost2010PropOp41
 70
     1
102
RTVSPost2010Prop42
 90
       50
102
RTVSPost2010PropOp42
 70
     1
102
RTVSPost2010Prop43
 90
        3
102
RTVSPost2010PropOp43
 70
     1
102
RTVSPost2010Prop44ColorIndex
 90
        5
102
RTVSPost2010Prop44ColorRGB
 90
      255
102
RTVSPost2010PropOp44
 70
     1
102
RTVSPost2010Prop45
280
     0
102
RTVSPost2010PropOp45
 70
     1
102
RTVSPost2010Prop46
 90
       50
102
RTVSPost2010PropOp46
 70
     1
102
RTVSPost2010Prop47
 90
       50
102
RTVSPost2010PropOp47
 70
     1
102
RTVSPost2010Prop48
 90
       50
102
RTVSPost2010PropOp48
 70
     1
102
RTVSPost2010Prop49
280
     0
102
RTVSPost2010PropOp49
 70
     1
102
RTVSPost2010Prop50
 90
       50
102
RTVSPost2010PropOp50
 70
     1
102
RTVSPost2010Prop51ColorIndex
 90
      256
102
RTVSPost2010Prop51ColorRGB
 90
-16777216
102
RTVSPost2010PropOp51
 70
     0
102
RTVSPost2010Prop52
140
1.0
102
RTVSPost2010PropOp52
 70
     0
102
RTVSPost2010Prop53
 90
        2
102
RTVSPost2010PropOp53
 70
     1
102
RTVSPost2010Prop54
  1
strokes_ogs.tif
102
RTVSPost2010PropOp54
 70
     1
102
RTVSPost2010Prop55
280
     0
102
RTVSPost2010PropOp55
 70
     1
102
RTVSPost2010Prop56
140
1.0
102
RTVSPost2010PropOp56
 70
     1
102
RTVSPost2010Prop57
140
1.0
102
RTVSPost2010PropOp57
 70
     1
  0
XRECORD
  5
687
102
{ACAD_REACTORS
330
686
102
}
330
686
100
AcDbXrecord
280
     1
102
RTVSPropertyOp0
 70
     1
102
RTVSPropertyOp1
 70
     1
102
RTVSPropertyOp2
 70
     1
102
RTVSPropertyOp3
 70
     1
102
RTVSPropertyOp4
 70
     1
102
RTVSPropertyOp5
 70
     1
102
RTVSPropertyOp6
 70
     1
102
RTVSPropertyOp7
 70
     1
102
RTVSPropertyOp8
 70
     1
102
RTVSPropertyOp9
 70
     1
102
RTVSPropertyOp10
 70
     1
102
RTVSPropertyOp11
 70
     1
102
RTVSPropertyOp12
 70
     1
102
RTVSPropertyOp13
 70
     1
102
RTVSPropertyOp14
 70
     1
102
RTVSPropertyOp15
 70
     1
102
RTVSPropertyOp16
 70
     1
102
RTVSPropertyOp17
 70
     1
102
RTVSPropertyOp18
 70
     1
102
RTVSPropertyOp19
 70
     1
102
RTVSPropertyOp20
 70
     1
102
RTVSPropertyOp21
 70
     1
102
RTVSPropertyOp22
 70
     1
102
RTVSPropertyOp23
 70
     1
102
RTVSPropertyOp24
 70
     1
102
RTVSPropertyOp25
 70
     1
102
RTVSPropertyOp26
 70
     1
102
RTVSPropertyOp27
 70
     1
102
RTVSPropertyOp28
 70
     1
102
RTVSPropertyOp29
 70
     1
102
RTVSPropertyOp30
 70
     1
102
RTVSPropertyOp31
 70
     1
102
RTVSPropertyOp32
 70
     1
102
RTVSPropertyOp33
 70
     1
102
RTVSPropertyOp34
 70
     1
102
RTVSPropertyOp35
 70
     1
102
RTVSPropertyOp36
 70
     1
102
RTVSPropertyOp37
 70
     1
102
RTVSPropertyOp38
 70
     1
102
RTVSPropertyOp39
 70
     1
102
RTVSPropertyOp40
 70
     1
102
RTVSPropertyOp41
 70
     1
102
RTVSPropertyOp42
 70
     1
102
RTVSPropertyOp43
 70
     1
102
RTVSPropertyOp44
 70
     1
102
RTVSPropertyOp45
 70
     1
102
RTVSPropertyOp46
 70
     1
102
RTVSPropertyOp47
 70
     1
102
RTVSPropertyOp48
 70
     1
102
RTVSPropertyOp49
 70
     1
102
RTVSPropertyOp50
 70
     1
102
RTVSPropertyOp51
 70
     0
102
RTVSPropertyOp52
 70
     0
102
RTVSPropertyOp53
 70
     1
102
RTVSPropertyOp54
 70
     1
102
RTVSPropertyOp55
 70
     1
102
RTVSPropertyOp56
 70
     1
102
RTVSPropertyOp57
 70
     1
102
RTVSPost2010Prop28
280
     0
102
RTVSPost2010PropOp28
 70
     1
102
RTVSPost2010Prop29
280
     1
102
RTVSPost2010PropOp29
 70
     1
102
RTVSPost2010Prop30
280
     1
102
RTVSPost2010PropOp30
 70
     1
102
RTVSPost2010Prop31
280
     0
102
RTVSPost2010PropOp31
 70
     1
102
RTVSPost2010Prop32
280
     0
102
RTVSPost2010PropOp32
 70
     1
102
RTVSPost2010Prop33
280
     0
102
RTVSPost2010PropOp33
 70
     1
102
RTVSPost2010Prop34
280
     0
102
RTVSPost2010PropOp34
 70
     1
102
RTVSPost2010Prop35
280
     0
102
RTVSPost2010PropOp35
 70
     1
102
RTVSPost2010Prop36
280
     0
102
RTVSPost2010PropOp36
 70
     1
102
RTVSPost2010Prop37
 90
       50
102
RTVSPost2010PropOp37
 70
     1
102
RTVSPost2010Prop38
140
0.0
102
RTVSPost2010PropOp38
 70
     1
102
RTVSPost2010Prop39
140
1.0
102
RTVSPost2010PropOp39
 70
     1
102
RTVSPost2010Prop40
 90
        0
102
RTVSPost2010PropOp40
 70
     1
102
RTVSPost2010Prop41ColorIndex
 90
       18
102
RTVSPost2010Prop41ColorRGB
 90
        0
102
RTVSPost2010PropOp41
 70
     1
102
RTVSPost2010Prop42
 90
       50
102
RTVSPost2010PropOp42
 70
     1
102
RTVSPost2010Prop43
 90
        3
102
RTVSPost2010PropOp43
 70
     1
102
RTVSPost2010Prop44ColorIndex
 90
        5
102
RTVSPost2010Prop44ColorRGB
 90
      255
102
RTVSPost2010PropOp44
 70
     1
102
RTVSPost2010Prop45
280
     0
102
RTVSPost2010PropOp45
 70
     1
102
RTVSPost2010Prop46
 90
       50
102
RTVSPost2010PropOp46
 70
     1
102
RTVSPost2010Prop47
 90
       50
102
RTVSPost2010PropOp47
 70
     1
102
RTVSPost2010Prop48
 90
       50
102
RTVSPost2010PropOp48
 70
     1
102
RTVSPost2010Prop49
280
     0
102
RTVSPost2010PropOp49
 70
     1
102
RTVSPost2010Prop50
 90
       50
102
RTVSPost2010PropOp50
 70
     1
102
RTVSPost2010Prop51ColorIndex
 90
      256
102
RTVSPost2010Prop51ColorRGB
 90
-16777216
102
RTVSPost2010PropOp51
 70
     0
102
RTVSPost2010Prop52
140
1.0
102
RTVSPost2010PropOp52
 70
     0
102
RTVSPost2010Prop53
 90
        2
102
RTVSPost2010PropOp53
 70
     1
102
RTVSPost2010Prop54
  1
strokes_ogs.tif
102
RTVSPost2010PropOp54
 70
     1
102
RTVSPost2010Prop55
280
     0
102
RTVSPost2010PropOp55
 70
     1
102
RTVSPost2010Prop56
140
1.0
102
RTVSPost2010PropOp56
 70
     1
102
RTVSPost2010Prop57
140
1.0
102
RTVSPost2010PropOp57
 70
     1
  0
XRECORD
  5
697
102
{ACAD_REACTORS
330
696
102
}
330
696
100
AcDbXrecord
280
     1
102
RTVSPropertyOp0
 70
     0
102
RTVSPropertyOp1
 70
     0
102
RTVSPropertyOp2
 70
     0
102
RTVSPropertyOp3
 70
     0
102
RTVSPropertyOp4
 70
     0
102
RTVSPropertyOp5
 70
     0
102
RTVSPropertyOp6
 70
     0
102
RTVSPropertyOp7
 70
     0
102
RTVSPropertyOp8
 70
     0
102
RTVSPropertyOp9
 70
     0
102
RTVSPropertyOp10
 70
     0
102
RTVSPropertyOp11
 70
     0
102
RTVSPropertyOp12
 70
     0
102
RTVSPropertyOp13
 70
     0
102
RTVSPropertyOp14
 70
     0
102
RTVSPropertyOp15
 70
     0
102
RTVSPropertyOp16
 70
     0
102
RTVSPropertyOp17
 70
     0
102
RTVSPropertyOp18
 70
     0
102
RTVSPropertyOp19
 70
     0
102
RTVSPropertyOp20
 70
     0
102
RTVSPropertyOp21
 70
     0
102
RTVSPropertyOp22
 70
     0
102
RTVSPropertyOp23
 70
     0
102
RTVSPropertyOp24
 70
     0
102
RTVSPropertyOp25
 70
     0
102
RTVSPropertyOp26
 70
     0
102
RTVSPropertyOp27
 70
     0
102
RTVSPropertyOp28
 70
     1
102
RTVSPropertyOp29
 70
     1
102
RTVSPropertyOp30
 70
     1
102
RTVSPropertyOp31
 70
     1
102
RTVSPropertyOp32
 70
     1
102
RTVSPropertyOp33
 70
     1
102
RTVSPropertyOp34
 70
     1
102
RTVSPropertyOp35
 70
     1
102
RTVSPropertyOp36
 70
     1
102
RTVSPropertyOp37
 70
     1
102
RTVSPropertyOp38
 70
     1
102
RTVSPropertyOp39
 70
     1
102
RTVSPropertyOp40
 70
     1
102
RTVSPropertyOp41
 70
     1
102
RTVSPropertyOp42
 70
     1
102
RTVSPropertyOp43
 70
     1
102
RTVSPropertyOp44
 70
     1
102
RTVSPropertyOp45
 70
     1
102
RTVSPropertyOp46
 70
     1
102
RTVSPropertyOp47
 70
     1
102
RTVSPropertyOp48
 70
     1
102
RTVSPropertyOp49
 70
     1
102
RTVSPropertyOp50
 70
     1
102
RTVSPropertyOp51
 70
     0
102
RTVSPropertyOp52
 70
     0
102
RTVSPropertyOp53
 70
     1
102
RTVSPropertyOp54
 70
     1
102
RTVSPropertyOp55
 70
     1
102
RTVSPropertyOp56
 70
     1
102
RTVSPropertyOp57
 70
     1
102
RTVSPost2010Prop28
280
     0
102
RTVSPost2010PropOp28
 70
     1
102
RTVSPost2010Prop29
280
     1
102
RTVSPost2010PropOp29
 70
     1
102
RTVSPost2010Prop30
280
     1
102
RTVSPost2010PropOp30
 70
     1
102
RTVSPost2010Prop31
280
     0
102
RTVSPost2010PropOp31
 70
     1
102
RTVSPost2010Prop32
280
     0
102
RTVSPost2010PropOp32
 70
     1
102
RTVSPost2010Prop33
280
     0
102
RTVSPost2010PropOp33
 70
     1
102
RTVSPost2010Prop34
280
     0
102
RTVSPost2010PropOp34
 70
     1
102
RTVSPost2010Prop35
280
     0
102
RTVSPost2010PropOp35
 70
     1
102
RTVSPost2010Prop36
280
     0
102
RTVSPost2010PropOp36
 70
     1
102
RTVSPost2010Prop37
 90
       50
102
RTVSPost2010PropOp37
 70
     1
102
RTVSPost2010Prop38
140
0.0
102
RTVSPost2010PropOp38
 70
     1
102
RTVSPost2010Prop39
140
1.0
102
RTVSPost2010PropOp39
 70
     1
102
RTVSPost2010Prop40
 90
        0
102
RTVSPost2010PropOp40
 70
     1
102
RTVSPost2010Prop41ColorIndex
 90
       18
102
RTVSPost2010Prop41ColorRGB
 90
        0
102
RTVSPost2010PropOp41
 70
     1
102
RTVSPost2010Prop42
 90
       50
102
RTVSPost2010PropOp42
 70
     1
102
RTVSPost2010Prop43
 90
        3
102
RTVSPost2010PropOp43
 70
     1
102
RTVSPost2010Prop44ColorIndex
 90
        5
102
RTVSPost2010Prop44ColorRGB
 90
      255
102
RTVSPost2010PropOp44
 70
     1
102
RTVSPost2010Prop45
280
     0
102
RTVSPost2010PropOp45
 70
     1
102
RTVSPost2010Prop46
 90
       50
102
RTVSPost2010PropOp46
 70
     1
102
RTVSPost2010Prop47
 90
       50
102
RTVSPost2010PropOp47
 70
     1
102
RTVSPost2010Prop48
 90
       50
102
RTVSPost2010PropOp48
 70
     1
102
RTVSPost2010Prop49
280
     0
102
RTVSPost2010PropOp49
 70
     1
102
RTVSPost2010Prop50
 90
       50
102
RTVSPost2010PropOp50
 70
     1
102
RTVSPost2010Prop51ColorIndex
 90
      256
102
RTVSPost2010Prop51ColorRGB
 90
-16777216
102
RTVSPost2010PropOp51
 70
     0
102
RTVSPost2010Prop52
140
1.0
102
RTVSPost2010PropOp52
 70
     0
102
RTVSPost2010Prop53
 90
        2
102
RTVSPost2010PropOp53
 70
     1
102
RTVSPost2010Prop54
  1
strokes_ogs.tif
102
RTVSPost2010PropOp54
 70
     1
102
RTVSPost2010Prop55
280
     0
102
RTVSPost2010PropOp55
 70
     1
102
RTVSPost2010Prop56
140
1.0
102
RTVSPost2010PropOp56
 70
     1
102
RTVSPost2010Prop57
140
1.0
102
RTVSPost2010PropOp57
 70
     1
  0
XRECORD
  5
68F
102
{ACAD_REACTORS
330
68E
102
}
330
68E
100
AcDbXrecord
280
     1
102
RTVSPropertyOp0
 70
     1
102
RTVSPropertyOp1
 70
     1
102
RTVSPropertyOp2
 70
     1
102
RTVSPropertyOp3
 70
     1
102
RTVSPropertyOp4
 70
     1
102
RTVSPropertyOp5
 70
     1
102
RTVSPropertyOp6
 70
     1
102
RTVSPropertyOp7
 70
     1
102
RTVSPropertyOp8
 70
     1
102
RTVSPropertyOp9
 70
     1
102
RTVSPropertyOp10
 70
     1
102
RTVSPropertyOp11
 70
     1
102
RTVSPropertyOp12
 70
     1
102
RTVSPropertyOp13
 70
     1
102
RTVSPropertyOp14
 70
     1
102
RTVSPropertyOp15
 70
     1
102
RTVSPropertyOp16
 70
     1
102
RTVSPropertyOp17
 70
     1
102
RTVSPropertyOp18
 70
     1
102
RTVSPropertyOp19
 70
     1
102
RTVSPropertyOp20
 70
     1
102
RTVSPropertyOp21
 70
     1
102
RTVSPropertyOp22
 70
     1
102
RTVSPropertyOp23
 70
     1
102
RTVSPropertyOp24
 70
     1
102
RTVSPropertyOp25
 70
     1
102
RTVSPropertyOp26
 70
     1
102
RTVSPropertyOp27
 70
     1
102
RTVSPropertyOp28
 70
     1
102
RTVSPropertyOp29
 70
     1
102
RTVSPropertyOp30
 70
     1
102
RTVSPropertyOp31
 70
     1
102
RTVSPropertyOp32
 70
     1
102
RTVSPropertyOp33
 70
     1
102
RTVSPropertyOp34
 70
     1
102
RTVSPropertyOp35
 70
     1
102
RTVSPropertyOp36
 70
     1
102
RTVSPropertyOp37
 70
     1
102
RTVSPropertyOp38
 70
     1
102
RTVSPropertyOp39
 70
     1
102
RTVSPropertyOp40
 70
     1
102
RTVSPropertyOp41
 70
     1
102
RTVSPropertyOp42
 70
     1
102
RTVSPropertyOp43
 70
     1
102
RTVSPropertyOp44
 70
     1
102
RTVSPropertyOp45
 70
     1
102
RTVSPropertyOp46
 70
     1
102
RTVSPropertyOp47
 70
     1
102
RTVSPropertyOp48
 70
     1
102
RTVSPropertyOp49
 70
     1
102
RTVSPropertyOp50
 70
     1
102
RTVSPropertyOp51
 70
     0
102
RTVSPropertyOp52
 70
     0
102
RTVSPropertyOp53
 70
     1
102
RTVSPropertyOp54
 70
     1
102
RTVSPropertyOp55
 70
     1
102
RTVSPropertyOp56
 70
     1
102
RTVSPropertyOp57
 70
     1
102
RTVSPost2010Prop28
280
     0
102
RTVSPost2010PropOp28
 70
     1
102
RTVSPost2010Prop29
280
     1
102
RTVSPost2010PropOp29
 70
     1
102
RTVSPost2010Prop30
280
     1
102
RTVSPost2010PropOp30
 70
     1
102
RTVSPost2010Prop31
280
     0
102
RTVSPost2010PropOp31
 70
     1
102
RTVSPost2010Prop32
280
     0
102
RTVSPost2010PropOp32
 70
     1
102
RTVSPost2010Prop33
280
     0
102
RTVSPost2010PropOp33
 70
     1
102
RTVSPost2010Prop34
280
     0
102
RTVSPost2010PropOp34
 70
     1
102
RTVSPost2010Prop35
280
     0
102
RTVSPost2010PropOp35
 70
     1
102
RTVSPost2010Prop36
280
     0
102
RTVSPost2010PropOp36
 70
     1
102
RTVSPost2010Prop37
 90
       50
102
RTVSPost2010PropOp37
 70
     1
102
RTVSPost2010Prop38
140
0.0
102
RTVSPost2010PropOp38
 70
     1
102
RTVSPost2010Prop39
140
1.0
102
RTVSPost2010PropOp39
 70
     1
102
RTVSPost2010Prop40
 90
        0
102
RTVSPost2010PropOp40
 70
     1
102
RTVSPost2010Prop41ColorIndex
 90
       18
102
RTVSPost2010Prop41ColorRGB
 90
        0
102
RTVSPost2010PropOp41
 70
     1
102
RTVSPost2010Prop42
 90
       50
102
RTVSPost2010PropOp42
 70
     1
102
RTVSPost2010Prop43
 90
        3
102
RTVSPost2010PropOp43
 70
     1
102
RTVSPost2010Prop44ColorIndex
 90
        5
102
RTVSPost2010Prop44ColorRGB
 90
      255
102
RTVSPost2010PropOp44
 70
     1
102
RTVSPost2010Prop45
280
     0
102
RTVSPost2010PropOp45
 70
     1
102
RTVSPost2010Prop46
 90
       50
102
RTVSPost2010PropOp46
 70
     1
102
RTVSPost2010Prop47
 90
       50
102
RTVSPost2010PropOp47
 70
     1
102
RTVSPost2010Prop48
 90
       50
102
RTVSPost2010PropOp48
 70
     1
102
RTVSPost2010Prop49
280
     0
102
RTVSPost2010PropOp49
 70
     1
102
RTVSPost2010Prop50
 90
       50
102
RTVSPost2010PropOp50
 70
     1
102
RTVSPost2010Prop51ColorIndex
 90
      256
102
RTVSPost2010Prop51ColorRGB
 90
-16777216
102
RTVSPost2010PropOp51
 70
     0
102
RTVSPost2010Prop52
140
1.0
102
RTVSPost2010PropOp52
 70
     0
102
RTVSPost2010Prop53
 90
        2
102
RTVSPost2010PropOp53
 70
     1
102
RTVSPost2010Prop54
  1
strokes_ogs.tif
102
RTVSPost2010PropOp54
 70
     1
102
RTVSPost2010Prop55
280
     0
102
RTVSPost2010PropOp55
 70
     1
102
RTVSPost2010Prop56
140
1.0
102
RTVSPost2010PropOp56
 70
     1
102
RTVSPost2010Prop57
140
1.0
102
RTVSPost2010PropOp57
 70
     1
  0
XRECORD
  5
673
102
{ACAD_REACTORS
330
672
102
}
330
672
100
AcDbXrecord
280
     1
102
RTVSPropertyOp0
 70
     1
102
RTVSPropertyOp1
 70
     1
102
RTVSPropertyOp2
 70
     1
102
RTVSPropertyOp3
 70
     1
102
RTVSPropertyOp4
 70
     1
102
RTVSPropertyOp5
 70
     1
102
RTVSPropertyOp6
 70
     1
102
RTVSPropertyOp7
 70
     1
102
RTVSPropertyOp8
 70
     1
102
RTVSPropertyOp9
 70
     1
102
RTVSPropertyOp10
 70
     1
102
RTVSPropertyOp11
 70
     1
102
RTVSPropertyOp12
 70
     1
102
RTVSPropertyOp13
 70
     1
102
RTVSPropertyOp14
 70
     1
102
RTVSPropertyOp15
 70
     1
102
RTVSPropertyOp16
 70
     1
102
RTVSPropertyOp17
 70
     1
102
RTVSPropertyOp18
 70
     1
102
RTVSPropertyOp19
 70
     1
102
RTVSPropertyOp20
 70
     1
102
RTVSPropertyOp21
 70
     1
102
RTVSPropertyOp22
 70
     1
102
RTVSPropertyOp23
 70
     1
102
RTVSPropertyOp24
 70
     1
102
RTVSPropertyOp25
 70
     1
102
RTVSPropertyOp26
 70
     1
102
RTVSPropertyOp27
 70
     1
102
RTVSPropertyOp28
 70
     1
102
RTVSPropertyOp29
 70
     1
102
RTVSPropertyOp30
 70
     1
102
RTVSPropertyOp31
 70
     1
102
RTVSPropertyOp32
 70
     1
102
RTVSPropertyOp33
 70
     1
102
RTVSPropertyOp34
 70
     1
102
RTVSPropertyOp35
 70
     1
102
RTVSPropertyOp36
 70
     1
102
RTVSPropertyOp37
 70
     1
102
RTVSPropertyOp38
 70
     1
102
RTVSPropertyOp39
 70
     1
102
RTVSPropertyOp40
 70
     1
102
RTVSPropertyOp41
 70
     1
102
RTVSPropertyOp42
 70
     1
102
RTVSPropertyOp43
 70
     1
102
RTVSPropertyOp44
 70
     1
102
RTVSPropertyOp45
 70
     1
102
RTVSPropertyOp46
 70
     1
102
RTVSPropertyOp47
 70
     1
102
RTVSPropertyOp48
 70
     1
102
RTVSPropertyOp49
 70
     1
102
RTVSPropertyOp50
 70
     1
102
RTVSPropertyOp51
 70
     0
102
RTVSPropertyOp52
 70
     0
102
RTVSPropertyOp53
 70
     1
102
RTVSPropertyOp54
 70
     1
102
RTVSPropertyOp55
 70
     1
102
RTVSPropertyOp56
 70
     1
102
RTVSPropertyOp57
 70
     1
102
RTVSPost2010Prop28
280
     0
102
RTVSPost2010PropOp28
 70
     1
102
RTVSPost2010Prop29
280
     1
102
RTVSPost2010PropOp29
 70
     1
102
RTVSPost2010Prop30
280
     1
102
RTVSPost2010PropOp30
 70
     1
102
RTVSPost2010Prop31
280
     0
102
RTVSPost2010PropOp31
 70
     1
102
RTVSPost2010Prop32
280
     0
102
RTVSPost2010PropOp32
 70
     1
102
RTVSPost2010Prop33
280
     0
102
RTVSPost2010PropOp33
 70
     1
102
RTVSPost2010Prop34
280
     0
102
RTVSPost2010PropOp34
 70
     1
102
RTVSPost2010Prop35
280
     0
102
RTVSPost2010PropOp35
 70
     1
102
RTVSPost2010Prop36
280
     0
102
RTVSPost2010PropOp36
 70
     1
102
RTVSPost2010Prop37
 90
       50
102
RTVSPost2010PropOp37
 70
     1
102
RTVSPost2010Prop38
140
0.0
102
RTVSPost2010PropOp38
 70
     1
102
RTVSPost2010Prop39
140
1.0
102
RTVSPost2010PropOp39
 70
     1
102
RTVSPost2010Prop40
 90
        0
102
RTVSPost2010PropOp40
 70
     1
102
RTVSPost2010Prop41ColorIndex
 90
       18
102
RTVSPost2010Prop41ColorRGB
 90
        0
102
RTVSPost2010PropOp41
 70
     1
102
RTVSPost2010Prop42
 90
       50
102
RTVSPost2010PropOp42
 70
     1
102
RTVSPost2010Prop43
 90
        3
102
RTVSPost2010PropOp43
 70
     1
102
RTVSPost2010Prop44ColorIndex
 90
        5
102
RTVSPost2010Prop44ColorRGB
 90
      255
102
RTVSPost2010PropOp44
 70
     1
102
RTVSPost2010Prop45
280
     0
102
RTVSPost2010PropOp45
 70
     1
102
RTVSPost2010Prop46
 90
       50
102
RTVSPost2010PropOp46
 70
     1
102
RTVSPost2010Prop47
 90
       50
102
RTVSPost2010PropOp47
 70
     1
102
RTVSPost2010Prop48
 90
       50
102
RTVSPost2010PropOp48
 70
     1
102
RTVSPost2010Prop49
280
     0
102
RTVSPost2010PropOp49
 70
     1
102
RTVSPost2010Prop50
 90
       50
102
RTVSPost2010PropOp50
 70
     1
102
RTVSPost2010Prop51ColorIndex
 90
      256
102
RTVSPost2010Prop51ColorRGB
 90
-16777216
102
RTVSPost2010PropOp51
 70
     0
102
RTVSPost2010Prop52
140
1.0
102
RTVSPost2010PropOp52
 70
     0
102
RTVSPost2010Prop53
 90
        2
102
RTVSPost2010PropOp53
 70
     1
102
RTVSPost2010Prop54
  1
strokes_ogs.tif
102
RTVSPost2010PropOp54
 70
     1
102
RTVSPost2010Prop55
280
     0
102
RTVSPost2010PropOp55
 70
     1
102
RTVSPost2010Prop56
140
1.0
102
RTVSPost2010PropOp56
 70
     1
102
RTVSPost2010Prop57
140
1.0
102
RTVSPost2010PropOp57
 70
     1
  0
XRECORD
  5
675
102
{ACAD_REACTORS
330
674
102
}
330
674
100
AcDbXrecord
280
     1
102
RTVSPropertyOp0
 70
     1
102
RTVSPropertyOp1
 70
     1
102
RTVSPropertyOp2
 70
     1
102
RTVSPropertyOp3
 70
     1
102
RTVSPropertyOp4
 70
     1
102
RTVSPropertyOp5
 70
     1
102
RTVSPropertyOp6
 70
     1
102
RTVSPropertyOp7
 70
     1
102
RTVSPropertyOp8
 70
     1
102
RTVSPropertyOp9
 70
     1
102
RTVSPropertyOp10
 70
     1
102
RTVSPropertyOp11
 70
     1
102
RTVSPropertyOp12
 70
     1
102
RTVSPropertyOp13
 70
     1
102
RTVSPropertyOp14
 70
     1
102
RTVSPropertyOp15
 70
     1
102
RTVSPropertyOp16
 70
     1
102
RTVSPropertyOp17
 70
     1
102
RTVSPropertyOp18
 70
     1
102
RTVSPropertyOp19
 70
     1
102
RTVSPropertyOp20
 70
     1
102
RTVSPropertyOp21
 70
     1
102
RTVSPropertyOp22
 70
     1
102
RTVSPropertyOp23
 70
     1
102
RTVSPropertyOp24
 70
     1
102
RTVSPropertyOp25
 70
     1
102
RTVSPropertyOp26
 70
     1
102
RTVSPropertyOp27
 70
     1
102
RTVSPropertyOp28
 70
     1
102
RTVSPropertyOp29
 70
     1
102
RTVSPropertyOp30
 70
     1
102
RTVSPropertyOp31
 70
     1
102
RTVSPropertyOp32
 70
     1
102
RTVSPropertyOp33
 70
     1
102
RTVSPropertyOp34
 70
     1
102
RTVSPropertyOp35
 70
     1
102
RTVSPropertyOp36
 70
     1
102
RTVSPropertyOp37
 70
     1
102
RTVSPropertyOp38
 70
     1
102
RTVSPropertyOp39
 70
     1
102
RTVSPropertyOp40
 70
     1
102
RTVSPropertyOp41
 70
     1
102
RTVSPropertyOp42
 70
     1
102
RTVSPropertyOp43
 70
     1
102
RTVSPropertyOp44
 70
     1
102
RTVSPropertyOp45
 70
     1
102
RTVSPropertyOp46
 70
     1
102
RTVSPropertyOp47
 70
     1
102
RTVSPropertyOp48
 70
     1
102
RTVSPropertyOp49
 70
     1
102
RTVSPropertyOp50
 70
     1
102
RTVSPropertyOp51
 70
     0
102
RTVSPropertyOp52
 70
     0
102
RTVSPropertyOp53
 70
     1
102
RTVSPropertyOp54
 70
     1
102
RTVSPropertyOp55
 70
     1
102
RTVSPropertyOp56
 70
     1
102
RTVSPropertyOp57
 70
     1
102
RTVSPost2010Prop28
280
     0
102
RTVSPost2010PropOp28
 70
     1
102
RTVSPost2010Prop29
280
     1
102
RTVSPost2010PropOp29
 70
     1
102
RTVSPost2010Prop30
280
     1
102
RTVSPost2010PropOp30
 70
     1
102
RTVSPost2010Prop31
280
     0
102
RTVSPost2010PropOp31
 70
     1
102
RTVSPost2010Prop32
280
     0
102
RTVSPost2010PropOp32
 70
     1
102
RTVSPost2010Prop33
280
     0
102
RTVSPost2010PropOp33
 70
     1
102
RTVSPost2010Prop34
280
     0
102
RTVSPost2010PropOp34
 70
     1
102
RTVSPost2010Prop35
280
     0
102
RTVSPost2010PropOp35
 70
     1
102
RTVSPost2010Prop36
280
     0
102
RTVSPost2010PropOp36
 70
     1
102
RTVSPost2010Prop37
 90
       50
102
RTVSPost2010PropOp37
 70
     1
102
RTVSPost2010Prop38
140
0.0
102
RTVSPost2010PropOp38
 70
     1
102
RTVSPost2010Prop39
140
1.0
102
RTVSPost2010PropOp39
 70
     1
102
RTVSPost2010Prop40
 90
        0
102
RTVSPost2010PropOp40
 70
     1
102
RTVSPost2010Prop41ColorIndex
 90
       18
102
RTVSPost2010Prop41ColorRGB
 90
        0
102
RTVSPost2010PropOp41
 70
     1
102
RTVSPost2010Prop42
 90
       50
102
RTVSPost2010PropOp42
 70
     1
102
RTVSPost2010Prop43
 90
        3
102
RTVSPost2010PropOp43
 70
     1
102
RTVSPost2010Prop44ColorIndex
 90
        5
102
RTVSPost2010Prop44ColorRGB
 90
      255
102
RTVSPost2010PropOp44
 70
     1
102
RTVSPost2010Prop45
280
     0
102
RTVSPost2010PropOp45
 70
     1
102
RTVSPost2010Prop46
 90
       50
102
RTVSPost2010PropOp46
 70
     1
102
RTVSPost2010Prop47
 90
       50
102
RTVSPost2010PropOp47
 70
     1
102
RTVSPost2010Prop48
 90
       50
102
RTVSPost2010PropOp48
 70
     1
102
RTVSPost2010Prop49
280
     0
102
RTVSPost2010PropOp49
 70
     1
102
RTVSPost2010Prop50
 90
       50
102
RTVSPost2010PropOp50
 70
     1
102
RTVSPost2010Prop51ColorIndex
 90
      256
102
RTVSPost2010Prop51ColorRGB
 90
-16777216
102
RTVSPost2010PropOp51
 70
     0
102
RTVSPost2010Prop52
140
1.0
102
RTVSPost2010PropOp52
 70
     0
102
RTVSPost2010Prop53
 90
        2
102
RTVSPost2010PropOp53
 70
     1
102
RTVSPost2010Prop54
  1
strokes_ogs.tif
102
RTVSPost2010PropOp54
 70
     1
102
RTVSPost2010Prop55
280
     0
102
RTVSPost2010PropOp55
 70
     1
102
RTVSPost2010Prop56
140
1.0
102
RTVSPost2010PropOp56
 70
     1
102
RTVSPost2010Prop57
140
1.0
102
RTVSPost2010PropOp57
 70
     1
  0
XRECORD
  5
677
102
{ACAD_REACTORS
330
676
102
}
330
676
100
AcDbXrecord
280
     1
102
RTVSPropertyOp0
 70
     1
102
RTVSPropertyOp1
 70
     1
102
RTVSPropertyOp2
 70
     1
102
RTVSPropertyOp3
 70
     1
102
RTVSPropertyOp4
 70
     1
102
RTVSPropertyOp5
 70
     1
102
RTVSPropertyOp6
 70
     1
102
RTVSPropertyOp7
 70
     1
102
RTVSPropertyOp8
 70
     1
102
RTVSPropertyOp9
 70
     1
102
RTVSPropertyOp10
 70
     1
102
RTVSPropertyOp11
 70
     1
102
RTVSPropertyOp12
 70
     1
102
RTVSPropertyOp13
 70
     1
102
RTVSPropertyOp14
 70
     1
102
RTVSPropertyOp15
 70
     1
102
RTVSPropertyOp16
 70
     1
102
RTVSPropertyOp17
 70
     1
102
RTVSPropertyOp18
 70
     1
102
RTVSPropertyOp19
 70
     1
102
RTVSPropertyOp20
 70
     1
102
RTVSPropertyOp21
 70
     1
102
RTVSPropertyOp22
 70
     1
102
RTVSPropertyOp23
 70
     1
102
RTVSPropertyOp24
 70
     1
102
RTVSPropertyOp25
 70
     1
102
RTVSPropertyOp26
 70
     1
102
RTVSPropertyOp27
 70
     1
102
RTVSPropertyOp28
 70
     1
102
RTVSPropertyOp29
 70
     1
102
RTVSPropertyOp30
 70
     1
102
RTVSPropertyOp31
 70
     1
102
RTVSPropertyOp32
 70
     1
102
RTVSPropertyOp33
 70
     1
102
RTVSPropertyOp34
 70
     1
102
RTVSPropertyOp35
 70
     1
102
RTVSPropertyOp36
 70
     1
102
RTVSPropertyOp37
 70
     1
102
RTVSPropertyOp38
 70
     1
102
RTVSPropertyOp39
 70
     1
102
RTVSPropertyOp40
 70
     1
102
RTVSPropertyOp41
 70
     1
102
RTVSPropertyOp42
 70
     1
102
RTVSPropertyOp43
 70
     1
102
RTVSPropertyOp44
 70
     1
102
RTVSPropertyOp45
 70
     1
102
RTVSPropertyOp46
 70
     1
102
RTVSPropertyOp47
 70
     1
102
RTVSPropertyOp48
 70
     1
102
RTVSPropertyOp49
 70
     1
102
RTVSPropertyOp50
 70
     1
102
RTVSPropertyOp51
 70
     0
102
RTVSPropertyOp52
 70
     0
102
RTVSPropertyOp53
 70
     1
102
RTVSPropertyOp54
 70
     1
102
RTVSPropertyOp55
 70
     1
102
RTVSPropertyOp56
 70
     1
102
RTVSPropertyOp57
 70
     1
102
RTVSPost2010Prop28
280
     0
102
RTVSPost2010PropOp28
 70
     1
102
RTVSPost2010Prop29
280
     1
102
RTVSPost2010PropOp29
 70
     1
102
RTVSPost2010Prop30
280
     1
102
RTVSPost2010PropOp30
 70
     1
102
RTVSPost2010Prop31
280
     0
102
RTVSPost2010PropOp31
 70
     1
102
RTVSPost2010Prop32
280
     0
102
RTVSPost2010PropOp32
 70
     1
102
RTVSPost2010Prop33
280
     0
102
RTVSPost2010PropOp33
 70
     1
102
RTVSPost2010Prop34
280
     0
102
RTVSPost2010PropOp34
 70
     1
102
RTVSPost2010Prop35
280
     0
102
RTVSPost2010PropOp35
 70
     1
102
RTVSPost2010Prop36
280
     0
102
RTVSPost2010PropOp36
 70
     1
102
RTVSPost2010Prop37
 90
       50
102
RTVSPost2010PropOp37
 70
     1
102
RTVSPost2010Prop38
140
0.0
102
RTVSPost2010PropOp38
 70
     1
102
RTVSPost2010Prop39
140
1.0
102
RTVSPost2010PropOp39
 70
     1
102
RTVSPost2010Prop40
 90
        0
102
RTVSPost2010PropOp40
 70
     1
102
RTVSPost2010Prop41ColorIndex
 90
       18
102
RTVSPost2010Prop41ColorRGB
 90
        0
102
RTVSPost2010PropOp41
 70
     1
102
RTVSPost2010Prop42
 90
       50
102
RTVSPost2010PropOp42
 70
     1
102
RTVSPost2010Prop43
 90
        3
102
RTVSPost2010PropOp43
 70
     1
102
RTVSPost2010Prop44ColorIndex
 90
        5
102
RTVSPost2010Prop44ColorRGB
 90
      255
102
RTVSPost2010PropOp44
 70
     1
102
RTVSPost2010Prop45
280
     0
102
RTVSPost2010PropOp45
 70
     1
102
RTVSPost2010Prop46
 90
       50
102
RTVSPost2010PropOp46
 70
     1
102
RTVSPost2010Prop47
 90
       50
102
RTVSPost2010PropOp47
 70
     1
102
RTVSPost2010Prop48
 90
       50
102
RTVSPost2010PropOp48
 70
     1
102
RTVSPost2010Prop49
280
     0
102
RTVSPost2010PropOp49
 70
     1
102
RTVSPost2010Prop50
 90
       50
102
RTVSPost2010PropOp50
 70
     1
102
RTVSPost2010Prop51ColorIndex
 90
      256
102
RTVSPost2010Prop51ColorRGB
 90
-16777216
102
RTVSPost2010PropOp51
 70
     0
102
RTVSPost2010Prop52
140
1.0
102
RTVSPost2010PropOp52
 70
     0
102
RTVSPost2010Prop53
 90
        2
102
RTVSPost2010PropOp53
 70
     1
102
RTVSPost2010Prop54
  1
strokes_ogs.tif
102
RTVSPost2010PropOp54
 70
     1
102
RTVSPost2010Prop55
280
     0
102
RTVSPost2010PropOp55
 70
     1
102
RTVSPost2010Prop56
140
1.0
102
RTVSPost2010PropOp56
 70
     1
102
RTVSPost2010Prop57
140
1.0
102
RTVSPost2010PropOp57
 70
     1
  0
XRECORD
  5
679
102
{ACAD_REACTORS
330
678
102
}
330
678
100
AcDbXrecord
280
     1
102
RTVSPropertyOp0
 70
     1
102
RTVSPropertyOp1
 70
     1
102
RTVSPropertyOp2
 70
     1
102
RTVSPropertyOp3
 70
     1
102
RTVSPropertyOp4
 70
     1
102
RTVSPropertyOp5
 70
     1
102
RTVSPropertyOp6
 70
     1
102
RTVSPropertyOp7
 70
     1
102
RTVSPropertyOp8
 70
     1
102
RTVSPropertyOp9
 70
     1
102
RTVSPropertyOp10
 70
     1
102
RTVSPropertyOp11
 70
     1
102
RTVSPropertyOp12
 70
     1
102
RTVSPropertyOp13
 70
     1
102
RTVSPropertyOp14
 70
     1
102
RTVSPropertyOp15
 70
     1
102
RTVSPropertyOp16
 70
     1
102
RTVSPropertyOp17
 70
     1
102
RTVSPropertyOp18
 70
     1
102
RTVSPropertyOp19
 70
     1
102
RTVSPropertyOp20
 70
     1
102
RTVSPropertyOp21
 70
     1
102
RTVSPropertyOp22
 70
     1
102
RTVSPropertyOp23
 70
     1
102
RTVSPropertyOp24
 70
     1
102
RTVSPropertyOp25
 70
     1
102
RTVSPropertyOp26
 70
     1
102
RTVSPropertyOp27
 70
     1
102
RTVSPropertyOp28
 70
     1
102
RTVSPropertyOp29
 70
     1
102
RTVSPropertyOp30
 70
     1
102
RTVSPropertyOp31
 70
     1
102
RTVSPropertyOp32
 70
     1
102
RTVSPropertyOp33
 70
     1
102
RTVSPropertyOp34
 70
     1
102
RTVSPropertyOp35
 70
     1
102
RTVSPropertyOp36
 70
     1
102
RTVSPropertyOp37
 70
     1
102
RTVSPropertyOp38
 70
     1
102
RTVSPropertyOp39
 70
     1
102
RTVSPropertyOp40
 70
     1
102
RTVSPropertyOp41
 70
     1
102
RTVSPropertyOp42
 70
     1
102
RTVSPropertyOp43
 70
     1
102
RTVSPropertyOp44
 70
     1
102
RTVSPropertyOp45
 70
     1
102
RTVSPropertyOp46
 70
     1
102
RTVSPropertyOp47
 70
     1
102
RTVSPropertyOp48
 70
     1
102
RTVSPropertyOp49
 70
     1
102
RTVSPropertyOp50
 70
     1
102
RTVSPropertyOp51
 70
     0
102
RTVSPropertyOp52
 70
     0
102
RTVSPropertyOp53
 70
     1
102
RTVSPropertyOp54
 70
     1
102
RTVSPropertyOp55
 70
     1
102
RTVSPropertyOp56
 70
     1
102
RTVSPropertyOp57
 70
     1
102
RTVSPost2010Prop28
280
     0
102
RTVSPost2010PropOp28
 70
     1
102
RTVSPost2010Prop29
280
     1
102
RTVSPost2010PropOp29
 70
     1
102
RTVSPost2010Prop30
280
     1
102
RTVSPost2010PropOp30
 70
     1
102
RTVSPost2010Prop31
280
     0
102
RTVSPost2010PropOp31
 70
     1
102
RTVSPost2010Prop32
280
     0
102
RTVSPost2010PropOp32
 70
     1
102
RTVSPost2010Prop33
280
     0
102
RTVSPost2010PropOp33
 70
     1
102
RTVSPost2010Prop34
280
     0
102
RTVSPost2010PropOp34
 70
     1
102
RTVSPost2010Prop35
280
     0
102
RTVSPost2010PropOp35
 70
     1
102
RTVSPost2010Prop36
280
     0
102
RTVSPost2010PropOp36
 70
     1
102
RTVSPost2010Prop37
 90
       50
102
RTVSPost2010PropOp37
 70
     1
102
RTVSPost2010Prop38
140
0.0
102
RTVSPost2010PropOp38
 70
     1
102
RTVSPost2010Prop39
140
1.0
102
RTVSPost2010PropOp39
 70
     1
102
RTVSPost2010Prop40
 90
        0
102
RTVSPost2010PropOp40
 70
     1
102
RTVSPost2010Prop41ColorIndex
 90
       18
102
RTVSPost2010Prop41ColorRGB
 90
        0
102
RTVSPost2010PropOp41
 70
     1
102
RTVSPost2010Prop42
 90
       50
102
RTVSPost2010PropOp42
 70
     1
102
RTVSPost2010Prop43
 90
        3
102
RTVSPost2010PropOp43
 70
     1
102
RTVSPost2010Prop44ColorIndex
 90
        5
102
RTVSPost2010Prop44ColorRGB
 90
      255
102
RTVSPost2010PropOp44
 70
     1
102
RTVSPost2010Prop45
280
     0
102
RTVSPost2010PropOp45
 70
     1
102
RTVSPost2010Prop46
 90
       50
102
RTVSPost2010PropOp46
 70
     1
102
RTVSPost2010Prop47
 90
       50
102
RTVSPost2010PropOp47
 70
     1
102
RTVSPost2010Prop48
 90
       50
102
RTVSPost2010PropOp48
 70
     1
102
RTVSPost2010Prop49
280
     0
102
RTVSPost2010PropOp49
 70
     1
102
RTVSPost2010Prop50
 90
       50
102
RTVSPost2010PropOp50
 70
     1
102
RTVSPost2010Prop51ColorIndex
 90
      256
102
RTVSPost2010Prop51ColorRGB
 90
-16777216
102
RTVSPost2010PropOp51
 70
     0
102
RTVSPost2010Prop52
140
1.0
102
RTVSPost2010PropOp52
 70
     0
102
RTVSPost2010Prop53
 90
        2
102
RTVSPost2010PropOp53
 70
     1
102
RTVSPost2010Prop54
  1
strokes_ogs.tif
102
RTVSPost2010PropOp54
 70
     1
102
RTVSPost2010Prop55
280
     0
102
RTVSPost2010PropOp55
 70
     1
102
RTVSPost2010Prop56
140
1.0
102
RTVSPost2010PropOp56
 70
     1
102
RTVSPost2010Prop57
140
1.0
102
RTVSPost2010PropOp57
 70
     1
  0
XRECORD
  5
67F
102
{ACAD_REACTORS
330
67E
102
}
330
67E
100
AcDbXrecord
280
     1
102
RTVSPropertyOp0
 70
     1
102
RTVSPropertyOp1
 70
     1
102
RTVSPropertyOp2
 70
     1
102
RTVSPropertyOp3
 70
     1
102
RTVSPropertyOp4
 70
     1
102
RTVSPropertyOp5
 70
     1
102
RTVSPropertyOp6
 70
     1
102
RTVSPropertyOp7
 70
     1
102
RTVSPropertyOp8
 70
     1
102
RTVSPropertyOp9
 70
     1
102
RTVSPropertyOp10
 70
     1
102
RTVSPropertyOp11
 70
     1
102
RTVSPropertyOp12
 70
     1
102
RTVSPropertyOp13
 70
     1
102
RTVSPropertyOp14
 70
     1
102
RTVSPropertyOp15
 70
     1
102
RTVSPropertyOp16
 70
     1
102
RTVSPropertyOp17
 70
     1
102
RTVSPropertyOp18
 70
     1
102
RTVSPropertyOp19
 70
     1
102
RTVSPropertyOp20
 70
     1
102
RTVSPropertyOp21
 70
     1
102
RTVSPropertyOp22
 70
     1
102
RTVSPropertyOp23
 70
     1
102
RTVSPropertyOp24
 70
     1
102
RTVSPropertyOp25
 70
     1
102
RTVSPropertyOp26
 70
     1
102
RTVSPropertyOp27
 70
     1
102
RTVSPropertyOp28
 70
     1
102
RTVSPropertyOp29
 70
     1
102
RTVSPropertyOp30
 70
     1
102
RTVSPropertyOp31
 70
     1
102
RTVSPropertyOp32
 70
     1
102
RTVSPropertyOp33
 70
     1
102
RTVSPropertyOp34
 70
     1
102
RTVSPropertyOp35
 70
     1
102
RTVSPropertyOp36
 70
     1
102
RTVSPropertyOp37
 70
     1
102
RTVSPropertyOp38
 70
     1
102
RTVSPropertyOp39
 70
     1
102
RTVSPropertyOp40
 70
     1
102
RTVSPropertyOp41
 70
     1
102
RTVSPropertyOp42
 70
     1
102
RTVSPropertyOp43
 70
     1
102
RTVSPropertyOp44
 70
     1
102
RTVSPropertyOp45
 70
     1
102
RTVSPropertyOp46
 70
     1
102
RTVSPropertyOp47
 70
     1
102
RTVSPropertyOp48
 70
     1
102
RTVSPropertyOp49
 70
     1
102
RTVSPropertyOp50
 70
     1
102
RTVSPropertyOp51
 70
     0
102
RTVSPropertyOp52
 70
     0
102
RTVSPropertyOp53
 70
     1
102
RTVSPropertyOp54
 70
     1
102
RTVSPropertyOp55
 70
     1
102
RTVSPropertyOp56
 70
     1
102
RTVSPropertyOp57
 70
     1
102
RTVSPost2010Prop28
280
     0
102
RTVSPost2010PropOp28
 70
     1
102
RTVSPost2010Prop29
280
     1
102
RTVSPost2010PropOp29
 70
     1
102
RTVSPost2010Prop30
280
     1
102
RTVSPost2010PropOp30
 70
     1
102
RTVSPost2010Prop31
280
     0
102
RTVSPost2010PropOp31
 70
     1
102
RTVSPost2010Prop32
280
     0
102
RTVSPost2010PropOp32
 70
     1
102
RTVSPost2010Prop33
280
     0
102
RTVSPost2010PropOp33
 70
     1
102
RTVSPost2010Prop34
280
     0
102
RTVSPost2010PropOp34
 70
     1
102
RTVSPost2010Prop35
280
     0
102
RTVSPost2010PropOp35
 70
     1
102
RTVSPost2010Prop36
280
     0
102
RTVSPost2010PropOp36
 70
     1
102
RTVSPost2010Prop37
 90
       50
102
RTVSPost2010PropOp37
 70
     1
102
RTVSPost2010Prop38
140
0.0
102
RTVSPost2010PropOp38
 70
     1
102
RTVSPost2010Prop39
140
1.0
102
RTVSPost2010PropOp39
 70
     1
102
RTVSPost2010Prop40
 90
        0
102
RTVSPost2010PropOp40
 70
     1
102
RTVSPost2010Prop41ColorIndex
 90
       18
102
RTVSPost2010Prop41ColorRGB
 90
        0
102
RTVSPost2010PropOp41
 70
     1
102
RTVSPost2010Prop42
 90
       50
102
RTVSPost2010PropOp42
 70
     1
102
RTVSPost2010Prop43
 90
        3
102
RTVSPost2010PropOp43
 70
     1
102
RTVSPost2010Prop44ColorIndex
 90
        5
102
RTVSPost2010Prop44ColorRGB
 90
      255
102
RTVSPost2010PropOp44
 70
     1
102
RTVSPost2010Prop45
280
     0
102
RTVSPost2010PropOp45
 70
     1
102
RTVSPost2010Prop46
 90
       50
102
RTVSPost2010PropOp46
 70
     1
102
RTVSPost2010Prop47
 90
       50
102
RTVSPost2010PropOp47
 70
     1
102
RTVSPost2010Prop48
 90
       50
102
RTVSPost2010PropOp48
 70
     1
102
RTVSPost2010Prop49
280
     0
102
RTVSPost2010PropOp49
 70
     1
102
RTVSPost2010Prop50
 90
       50
102
RTVSPost2010PropOp50
 70
     1
102
RTVSPost2010Prop51ColorIndex
 90
      256
102
RTVSPost2010Prop51ColorRGB
 90
-16777216
102
RTVSPost2010PropOp51
 70
     0
102
RTVSPost2010Prop52
140
1.0
102
RTVSPost2010PropOp52
 70
     0
102
RTVSPost2010Prop53
 90
        2
102
RTVSPost2010PropOp53
 70
     1
102
RTVSPost2010Prop54
  1
strokes_ogs.tif
102
RTVSPost2010PropOp54
 70
     1
102
RTVSPost2010Prop55
280
     0
102
RTVSPost2010PropOp55
 70
     1
102
RTVSPost2010Prop56
140
1.0
102
RTVSPost2010PropOp56
 70
     1
102
RTVSPost2010Prop57
140
1.0
102
RTVSPost2010PropOp57
 70
     1
  0
XRECORD
  5
693
102
{ACAD_REACTORS
330
692
102
}
330
692
100
AcDbXrecord
280
     1
102
RTVSPropertyOp0
 70
     0
102
RTVSPropertyOp1
 70
     0
102
RTVSPropertyOp2
 70
     0
102
RTVSPropertyOp3
 70
     0
102
RTVSPropertyOp4
 70
     0
102
RTVSPropertyOp5
 70
     0
102
RTVSPropertyOp6
 70
     0
102
RTVSPropertyOp7
 70
     0
102
RTVSPropertyOp8
 70
     0
102
RTVSPropertyOp9
 70
     0
102
RTVSPropertyOp10
 70
     0
102
RTVSPropertyOp11
 70
     0
102
RTVSPropertyOp12
 70
     0
102
RTVSPropertyOp13
 70
     0
102
RTVSPropertyOp14
 70
     0
102
RTVSPropertyOp15
 70
     0
102
RTVSPropertyOp16
 70
     0
102
RTVSPropertyOp17
 70
     0
102
RTVSPropertyOp18
 70
     0
102
RTVSPropertyOp19
 70
     0
102
RTVSPropertyOp20
 70
     0
102
RTVSPropertyOp21
 70
     0
102
RTVSPropertyOp22
 70
     0
102
RTVSPropertyOp23
 70
     0
102
RTVSPropertyOp24
 70
     0
102
RTVSPropertyOp25
 70
     0
102
RTVSPropertyOp26
 70
     0
102
RTVSPropertyOp27
 70
     0
102
RTVSPropertyOp28
 70
     1
102
RTVSPropertyOp29
 70
     1
102
RTVSPropertyOp30
 70
     1
102
RTVSPropertyOp31
 70
     1
102
RTVSPropertyOp32
 70
     1
102
RTVSPropertyOp33
 70
     1
102
RTVSPropertyOp34
 70
     1
102
RTVSPropertyOp35
 70
     1
102
RTVSPropertyOp36
 70
     1
102
RTVSPropertyOp37
 70
     1
102
RTVSPropertyOp38
 70
     1
102
RTVSPropertyOp39
 70
     1
102
RTVSPropertyOp40
 70
     1
102
RTVSPropertyOp41
 70
     1
102
RTVSPropertyOp42
 70
     1
102
RTVSPropertyOp43
 70
     1
102
RTVSPropertyOp44
 70
     1
102
RTVSPropertyOp45
 70
     1
102
RTVSPropertyOp46
 70
     1
102
RTVSPropertyOp47
 70
     1
102
RTVSPropertyOp48
 70
     1
102
RTVSPropertyOp49
 70
     1
102
RTVSPropertyOp50
 70
     1
102
RTVSPropertyOp51
 70
     0
102
RTVSPropertyOp52
 70
     0
102
RTVSPropertyOp53
 70
     1
102
RTVSPropertyOp54
 70
     1
102
RTVSPropertyOp55
 70
     1
102
RTVSPropertyOp56
 70
     1
102
RTVSPropertyOp57
 70
     1
102
RTVSPost2010Prop28
280
     0
102
RTVSPost2010PropOp28
 70
     1
102
RTVSPost2010Prop29
280
     1
102
RTVSPost2010PropOp29
 70
     1
102
RTVSPost2010Prop30
280
     1
102
RTVSPost2010PropOp30
 70
     1
102
RTVSPost2010Prop31
280
     0
102
RTVSPost2010PropOp31
 70
     1
102
RTVSPost2010Prop32
280
     0
102
RTVSPost2010PropOp32
 70
     1
102
RTVSPost2010Prop33
280
     0
102
RTVSPost2010PropOp33
 70
     1
102
RTVSPost2010Prop34
280
     0
102
RTVSPost2010PropOp34
 70
     1
102
RTVSPost2010Prop35
280
     0
102
RTVSPost2010PropOp35
 70
     1
102
RTVSPost2010Prop36
280
     0
102
RTVSPost2010PropOp36
 70
     1
102
RTVSPost2010Prop37
 90
       50
102
RTVSPost2010PropOp37
 70
     1
102
RTVSPost2010Prop38
140
0.0
102
RTVSPost2010PropOp38
 70
     1
102
RTVSPost2010Prop39
140
1.0
102
RTVSPost2010PropOp39
 70
     1
102
RTVSPost2010Prop40
 90
        0
102
RTVSPost2010PropOp40
 70
     1
102
RTVSPost2010Prop41ColorIndex
 90
       18
102
RTVSPost2010Prop41ColorRGB
 90
        0
102
RTVSPost2010PropOp41
 70
     1
102
RTVSPost2010Prop42
 90
       50
102
RTVSPost2010PropOp42
 70
     1
102
RTVSPost2010Prop43
 90
        3
102
RTVSPost2010PropOp43
 70
     1
102
RTVSPost2010Prop44ColorIndex
 90
        5
102
RTVSPost2010Prop44ColorRGB
 90
      255
102
RTVSPost2010PropOp44
 70
     1
102
RTVSPost2010Prop45
280
     0
102
RTVSPost2010PropOp45
 70
     1
102
RTVSPost2010Prop46
 90
       50
102
RTVSPost2010PropOp46
 70
     1
102
RTVSPost2010Prop47
 90
       50
102
RTVSPost2010PropOp47
 70
     1
102
RTVSPost2010Prop48
 90
       50
102
RTVSPost2010PropOp48
 70
     1
102
RTVSPost2010Prop49
280
     0
102
RTVSPost2010PropOp49
 70
     1
102
RTVSPost2010Prop50
 90
       50
102
RTVSPost2010PropOp50
 70
     1
102
RTVSPost2010Prop51ColorIndex
 90
      256
102
RTVSPost2010Prop51ColorRGB
 90
-16777216
102
RTVSPost2010PropOp51
 70
     0
102
RTVSPost2010Prop52
140
1.0
102
RTVSPost2010PropOp52
 70
     0
102
RTVSPost2010Prop53
 90
        2
102
RTVSPost2010PropOp53
 70
     1
102
RTVSPost2010Prop54
  1
strokes_ogs.tif
102
RTVSPost2010PropOp54
 70
     1
102
RTVSPost2010Prop55
280
     0
102
RTVSPost2010PropOp55
 70
     1
102
RTVSPost2010Prop56
140
1.0
102
RTVSPost2010PropOp56
 70
     1
102
RTVSPost2010Prop57
140
1.0
102
RTVSPost2010PropOp57
 70
     1
  0
XRECORD
  5
68D
102
{ACAD_REACTORS
330
68C
102
}
330
68C
100
AcDbXrecord
280
     1
102
RTVSPropertyOp0
 70
     1
102
RTVSPropertyOp1
 70
     1
102
RTVSPropertyOp2
 70
     1
102
RTVSPropertyOp3
 70
     1
102
RTVSPropertyOp4
 70
     1
102
RTVSPropertyOp5
 70
     1
102
RTVSPropertyOp6
 70
     1
102
RTVSPropertyOp7
 70
     1
102
RTVSPropertyOp8
 70
     1
102
RTVSPropertyOp9
 70
     1
102
RTVSPropertyOp10
 70
     1
102
RTVSPropertyOp11
 70
     1
102
RTVSPropertyOp12
 70
     1
102
RTVSPropertyOp13
 70
     1
102
RTVSPropertyOp14
 70
     1
102
RTVSPropertyOp15
 70
     1
102
RTVSPropertyOp16
 70
     1
102
RTVSPropertyOp17
 70
     1
102
RTVSPropertyOp18
 70
     1
102
RTVSPropertyOp19
 70
     1
102
RTVSPropertyOp20
 70
     1
102
RTVSPropertyOp21
 70
     1
102
RTVSPropertyOp22
 70
     1
102
RTVSPropertyOp23
 70
     1
102
RTVSPropertyOp24
 70
     1
102
RTVSPropertyOp25
 70
     1
102
RTVSPropertyOp26
 70
     1
102
RTVSPropertyOp27
 70
     1
102
RTVSPropertyOp28
 70
     1
102
RTVSPropertyOp29
 70
     1
102
RTVSPropertyOp30
 70
     1
102
RTVSPropertyOp31
 70
     1
102
RTVSPropertyOp32
 70
     1
102
RTVSPropertyOp33
 70
     1
102
RTVSPropertyOp34
 70
     1
102
RTVSPropertyOp35
 70
     1
102
RTVSPropertyOp36
 70
     1
102
RTVSPropertyOp37
 70
     1
102
RTVSPropertyOp38
 70
     1
102
RTVSPropertyOp39
 70
     1
102
RTVSPropertyOp40
 70
     1
102
RTVSPropertyOp41
 70
     1
102
RTVSPropertyOp42
 70
     1
102
RTVSPropertyOp43
 70
     1
102
RTVSPropertyOp44
 70
     1
102
RTVSPropertyOp45
 70
     1
102
RTVSPropertyOp46
 70
     1
102
RTVSPropertyOp47
 70
     1
102
RTVSPropertyOp48
 70
     1
102
RTVSPropertyOp49
 70
     1
102
RTVSPropertyOp50
 70
     1
102
RTVSPropertyOp51
 70
     0
102
RTVSPropertyOp52
 70
     0
102
RTVSPropertyOp53
 70
     1
102
RTVSPropertyOp54
 70
     1
102
RTVSPropertyOp55
 70
     1
102
RTVSPropertyOp56
 70
     1
102
RTVSPropertyOp57
 70
     1
102
RTVSPost2010Prop28
280
     0
102
RTVSPost2010PropOp28
 70
     1
102
RTVSPost2010Prop29
280
     1
102
RTVSPost2010PropOp29
 70
     1
102
RTVSPost2010Prop30
280
     1
102
RTVSPost2010PropOp30
 70
     1
102
RTVSPost2010Prop31
280
     0
102
RTVSPost2010PropOp31
 70
     1
102
RTVSPost2010Prop32
280
     0
102
RTVSPost2010PropOp32
 70
     1
102
RTVSPost2010Prop33
280
     0
102
RTVSPost2010PropOp33
 70
     1
102
RTVSPost2010Prop34
280
     0
102
RTVSPost2010PropOp34
 70
     1
102
RTVSPost2010Prop35
280
     0
102
RTVSPost2010PropOp35
 70
     1
102
RTVSPost2010Prop36
280
     0
102
RTVSPost2010PropOp36
 70
     1
102
RTVSPost2010Prop37
 90
       50
102
RTVSPost2010PropOp37
 70
     1
102
RTVSPost2010Prop38
140
0.0
102
RTVSPost2010PropOp38
 70
     1
102
RTVSPost2010Prop39
140
1.0
102
RTVSPost2010PropOp39
 70
     1
102
RTVSPost2010Prop40
 90
        0
102
RTVSPost2010PropOp40
 70
     1
102
RTVSPost2010Prop41ColorIndex
 90
       18
102
RTVSPost2010Prop41ColorRGB
 90
        0
102
RTVSPost2010PropOp41
 70
     1
102
RTVSPost2010Prop42
 90
       50
102
RTVSPost2010PropOp42
 70
     1
102
RTVSPost2010Prop43
 90
        3
102
RTVSPost2010PropOp43
 70
     1
102
RTVSPost2010Prop44ColorIndex
 90
        5
102
RTVSPost2010Prop44ColorRGB
 90
      255
102
RTVSPost2010PropOp44
 70
     1
102
RTVSPost2010Prop45
280
     0
102
RTVSPost2010PropOp45
 70
     1
102
RTVSPost2010Prop46
 90
       50
102
RTVSPost2010PropOp46
 70
     1
102
RTVSPost2010Prop47
 90
       50
102
RTVSPost2010PropOp47
 70
     1
102
RTVSPost2010Prop48
 90
       50
102
RTVSPost2010PropOp48
 70
     1
102
RTVSPost2010Prop49
280
     0
102
RTVSPost2010PropOp49
 70
     1
102
RTVSPost2010Prop50
 90
       50
102
RTVSPost2010PropOp50
 70
     1
102
RTVSPost2010Prop51ColorIndex
 90
      256
102
RTVSPost2010Prop51ColorRGB
 90
-16777216
102
RTVSPost2010PropOp51
 70
     0
102
RTVSPost2010Prop52
140
1.0
102
RTVSPost2010PropOp52
 70
     0
102
RTVSPost2010Prop53
 90
        2
102
RTVSPost2010PropOp53
 70
     1
102
RTVSPost2010Prop54
  1
strokes_ogs.tif
102
RTVSPost2010PropOp54
 70
     1
102
RTVSPost2010Prop55
280
     0
102
RTVSPost2010PropOp55
 70
     1
102
RTVSPost2010Prop56
140
1.0
102
RTVSPost2010PropOp56
 70
     1
102
RTVSPost2010Prop57
140
1.0
102
RTVSPost2010PropOp57
 70
     1
  0
XRECORD
  5
695
102
{ACAD_REACTORS
330
694
102
}
330
694
100
AcDbXrecord
280
     1
102
RTVSPropertyOp0
 70
     0
102
RTVSPropertyOp1
 70
     0
102
RTVSPropertyOp2
 70
     0
102
RTVSPropertyOp3
 70
     0
102
RTVSPropertyOp4
 70
     0
102
RTVSPropertyOp5
 70
     0
102
RTVSPropertyOp6
 70
     0
102
RTVSPropertyOp7
 70
     0
102
RTVSPropertyOp8
 70
     0
102
RTVSPropertyOp9
 70
     0
102
RTVSPropertyOp10
 70
     0
102
RTVSPropertyOp11
 70
     0
102
RTVSPropertyOp12
 70
     0
102
RTVSPropertyOp13
 70
     0
102
RTVSPropertyOp14
 70
     0
102
RTVSPropertyOp15
 70
     0
102
RTVSPropertyOp16
 70
     0
102
RTVSPropertyOp17
 70
     0
102
RTVSPropertyOp18
 70
     0
102
RTVSPropertyOp19
 70
     0
102
RTVSPropertyOp20
 70
     0
102
RTVSPropertyOp21
 70
     0
102
RTVSPropertyOp22
 70
     0
102
RTVSPropertyOp23
 70
     0
102
RTVSPropertyOp24
 70
     0
102
RTVSPropertyOp25
 70
     0
102
RTVSPropertyOp26
 70
     0
102
RTVSPropertyOp27
 70
     0
102
RTVSPropertyOp28
 70
     1
102
RTVSPropertyOp29
 70
     1
102
RTVSPropertyOp30
 70
     1
102
RTVSPropertyOp31
 70
     1
102
RTVSPropertyOp32
 70
     1
102
RTVSPropertyOp33
 70
     1
102
RTVSPropertyOp34
 70
     1
102
RTVSPropertyOp35
 70
     1
102
RTVSPropertyOp36
 70
     1
102
RTVSPropertyOp37
 70
     1
102
RTVSPropertyOp38
 70
     1
102
RTVSPropertyOp39
 70
     1
102
RTVSPropertyOp40
 70
     1
102
RTVSPropertyOp41
 70
     1
102
RTVSPropertyOp42
 70
     1
102
RTVSPropertyOp43
 70
     1
102
RTVSPropertyOp44
 70
     1
102
RTVSPropertyOp45
 70
     1
102
RTVSPropertyOp46
 70
     1
102
RTVSPropertyOp47
 70
     1
102
RTVSPropertyOp48
 70
     1
102
RTVSPropertyOp49
 70
     1
102
RTVSPropertyOp50
 70
     1
102
RTVSPropertyOp51
 70
     0
102
RTVSPropertyOp52
 70
     0
102
RTVSPropertyOp53
 70
     1
102
RTVSPropertyOp54
 70
     1
102
RTVSPropertyOp55
 70
     1
102
RTVSPropertyOp56
 70
     1
102
RTVSPropertyOp57
 70
     1
102
RTVSPost2010Prop28
280
     0
102
RTVSPost2010PropOp28
 70
     1
102
RTVSPost2010Prop29
280
     1
102
RTVSPost2010PropOp29
 70
     1
102
RTVSPost2010Prop30
280
     1
102
RTVSPost2010PropOp30
 70
     1
102
RTVSPost2010Prop31
280
     0
102
RTVSPost2010PropOp31
 70
     1
102
RTVSPost2010Prop32
280
     0
102
RTVSPost2010PropOp32
 70
     1
102
RTVSPost2010Prop33
280
     0
102
RTVSPost2010PropOp33
 70
     1
102
RTVSPost2010Prop34
280
     0
102
RTVSPost2010PropOp34
 70
     1
102
RTVSPost2010Prop35
280
     0
102
RTVSPost2010PropOp35
 70
     1
102
RTVSPost2010Prop36
280
     0
102
RTVSPost2010PropOp36
 70
     1
102
RTVSPost2010Prop37
 90
       50
102
RTVSPost2010PropOp37
 70
     1
102
RTVSPost2010Prop38
140
0.0
102
RTVSPost2010PropOp38
 70
     1
102
RTVSPost2010Prop39
140
1.0
102
RTVSPost2010PropOp39
 70
     1
102
RTVSPost2010Prop40
 90
        0
102
RTVSPost2010PropOp40
 70
     1
102
RTVSPost2010Prop41ColorIndex
 90
       18
102
RTVSPost2010Prop41ColorRGB
 90
        0
102
RTVSPost2010PropOp41
 70
     1
102
RTVSPost2010Prop42
 90
       50
102
RTVSPost2010PropOp42
 70
     1
102
RTVSPost2010Prop43
 90
        3
102
RTVSPost2010PropOp43
 70
     1
102
RTVSPost2010Prop44ColorIndex
 90
        5
102
RTVSPost2010Prop44ColorRGB
 90
      255
102
RTVSPost2010PropOp44
 70
     1
102
RTVSPost2010Prop45
280
     0
102
RTVSPost2010PropOp45
 70
     1
102
RTVSPost2010Prop46
 90
       50
102
RTVSPost2010PropOp46
 70
     1
102
RTVSPost2010Prop47
 90
       50
102
RTVSPost2010PropOp47
 70
     1
102
RTVSPost2010Prop48
 90
       50
102
RTVSPost2010PropOp48
 70
     1
102
RTVSPost2010Prop49
280
     0
102
RTVSPost2010PropOp49
 70
     1
102
RTVSPost2010Prop50
 90
       50
102
RTVSPost2010PropOp50
 70
     1
102
RTVSPost2010Prop51ColorIndex
 90
      256
102
RTVSPost2010Prop51ColorRGB
 90
-16777216
102
RTVSPost2010PropOp51
 70
     0
102
RTVSPost2010Prop52
140
1.0
102
RTVSPost2010PropOp52
 70
     0
102
RTVSPost2010Prop53
 90
        2
102
RTVSPost2010PropOp53
 70
     1
102
RTVSPost2010Prop54
  1
strokes_ogs.tif
102
RTVSPost2010PropOp54
 70
     1
102
RTVSPost2010Prop55
280
     0
102
RTVSPost2010PropOp55
 70
     1
102
RTVSPost2010Prop56
140
1.0
102
RTVSPost2010PropOp56
 70
     1
102
RTVSPost2010Prop57
140
1.0
102
RTVSPost2010PropOp57
 70
     1
  0
XRECORD
  5
683
102
{ACAD_REACTORS
330
682
102
}
330
682
100
AcDbXrecord
280
     1
102
RTVSPropertyOp0
 70
     1
102
RTVSPropertyOp1
 70
     1
102
RTVSPropertyOp2
 70
     1
102
RTVSPropertyOp3
 70
     1
102
RTVSPropertyOp4
 70
     1
102
RTVSPropertyOp5
 70
     1
102
RTVSPropertyOp6
 70
     1
102
RTVSPropertyOp7
 70
     1
102
RTVSPropertyOp8
 70
     1
102
RTVSPropertyOp9
 70
     1
102
RTVSPropertyOp10
 70
     1
102
RTVSPropertyOp11
 70
     1
102
RTVSPropertyOp12
 70
     1
102
RTVSPropertyOp13
 70
     1
102
RTVSPropertyOp14
 70
     1
102
RTVSPropertyOp15
 70
     1
102
RTVSPropertyOp16
 70
     1
102
RTVSPropertyOp17
 70
     1
102
RTVSPropertyOp18
 70
     1
102
RTVSPropertyOp19
 70
     1
102
RTVSPropertyOp20
 70
     1
102
RTVSPropertyOp21
 70
     1
102
RTVSPropertyOp22
 70
     1
102
RTVSPropertyOp23
 70
     1
102
RTVSPropertyOp24
 70
     1
102
RTVSPropertyOp25
 70
     1
102
RTVSPropertyOp26
 70
     1
102
RTVSPropertyOp27
 70
     1
102
RTVSPropertyOp28
 70
     1
102
RTVSPropertyOp29
 70
     1
102
RTVSPropertyOp30
 70
     1
102
RTVSPropertyOp31
 70
     1
102
RTVSPropertyOp32
 70
     1
102
RTVSPropertyOp33
 70
     1
102
RTVSPropertyOp34
 70
     1
102
RTVSPropertyOp35
 70
     1
102
RTVSPropertyOp36
 70
     1
102
RTVSPropertyOp37
 70
     1
102
RTVSPropertyOp38
 70
     1
102
RTVSPropertyOp39
 70
     1
102
RTVSPropertyOp40
 70
     1
102
RTVSPropertyOp41
 70
     1
102
RTVSPropertyOp42
 70
     1
102
RTVSPropertyOp43
 70
     1
102
RTVSPropertyOp44
 70
     1
102
RTVSPropertyOp45
 70
     1
102
RTVSPropertyOp46
 70
     1
102
RTVSPropertyOp47
 70
     1
102
RTVSPropertyOp48
 70
     1
102
RTVSPropertyOp49
 70
     1
102
RTVSPropertyOp50
 70
     1
102
RTVSPropertyOp51
 70
     0
102
RTVSPropertyOp52
 70
     0
102
RTVSPropertyOp53
 70
     1
102
RTVSPropertyOp54
 70
     1
102
RTVSPropertyOp55
 70
     1
102
RTVSPropertyOp56
 70
     1
102
RTVSPropertyOp57
 70
     1
102
RTVSPost2010Prop28
280
     0
102
RTVSPost2010PropOp28
 70
     1
102
RTVSPost2010Prop29
280
     1
102
RTVSPost2010PropOp29
 70
     1
102
RTVSPost2010Prop30
280
     1
102
RTVSPost2010PropOp30
 70
     1
102
RTVSPost2010Prop31
280
     0
102
RTVSPost2010PropOp31
 70
     1
102
RTVSPost2010Prop32
280
     0
102
RTVSPost2010PropOp32
 70
     1
102
RTVSPost2010Prop33
280
     0
102
RTVSPost2010PropOp33
 70
     1
102
RTVSPost2010Prop34
280
     0
102
RTVSPost2010PropOp34
 70
     1
102
RTVSPost2010Prop35
280
     0
102
RTVSPost2010PropOp35
 70
     1
102
RTVSPost2010Prop36
280
     0
102
RTVSPost2010PropOp36
 70
     1
102
RTVSPost2010Prop37
 90
       50
102
RTVSPost2010PropOp37
 70
     1
102
RTVSPost2010Prop38
140
0.0
102
RTVSPost2010PropOp38
 70
     1
102
RTVSPost2010Prop39
140
1.0
102
RTVSPost2010PropOp39
 70
     1
102
RTVSPost2010Prop40
 90
        0
102
RTVSPost2010PropOp40
 70
     1
102
RTVSPost2010Prop41ColorIndex
 90
       18
102
RTVSPost2010Prop41ColorRGB
 90
        0
102
RTVSPost2010PropOp41
 70
     1
102
RTVSPost2010Prop42
 90
       50
102
RTVSPost2010PropOp42
 70
     1
102
RTVSPost2010Prop43
 90
        3
102
RTVSPost2010PropOp43
 70
     1
102
RTVSPost2010Prop44ColorIndex
 90
        5
102
RTVSPost2010Prop44ColorRGB
 90
      255
102
RTVSPost2010PropOp44
 70
     1
102
RTVSPost2010Prop45
280
     0
102
RTVSPost2010PropOp45
 70
     1
102
RTVSPost2010Prop46
 90
       50
102
RTVSPost2010PropOp46
 70
     1
102
RTVSPost2010Prop47
 90
       50
102
RTVSPost2010PropOp47
 70
     1
102
RTVSPost2010Prop48
 90
       50
102
RTVSPost2010PropOp48
 70
     1
102
RTVSPost2010Prop49
280
     0
102
RTVSPost2010PropOp49
 70
     1
102
RTVSPost2010Prop50
 90
       50
102
RTVSPost2010PropOp50
 70
     1
102
RTVSPost2010Prop51ColorIndex
 90
      256
102
RTVSPost2010Prop51ColorRGB
 90
-16777216
102
RTVSPost2010PropOp51
 70
     0
102
RTVSPost2010Prop52
140
1.0
102
RTVSPost2010PropOp52
 70
     0
102
RTVSPost2010Prop53
 90
        2
102
RTVSPost2010PropOp53
 70
     1
102
RTVSPost2010Prop54
  1
strokes_ogs.tif
102
RTVSPost2010PropOp54
 70
     1
102
RTVSPost2010Prop55
280
     0
102
RTVSPost2010PropOp55
 70
     1
102
RTVSPost2010Prop56
140
1.0
102
RTVSPost2010PropOp56
 70
     1
102
RTVSPost2010Prop57
140
1.0
102
RTVSPost2010PropOp57
 70
     1
  0
XRECORD
  5
6A1
102
{ACAD_REACTORS
330
6A0
102
}
330
6A0
100
AcDbXrecord
280
     1
102
RTVSPropertyOp0
 70
     1
102
RTVSPropertyOp1
 70
     1
102
RTVSPropertyOp2
 70
     1
102
RTVSPropertyOp3
 70
     1
102
RTVSPropertyOp4
 70
     1
102
RTVSPropertyOp5
 70
     1
102
RTVSPropertyOp6
 70
     1
102
RTVSPropertyOp7
 70
     1
102
RTVSPropertyOp8
 70
     1
102
RTVSPropertyOp9
 70
     1
102
RTVSPropertyOp10
 70
     1
102
RTVSPropertyOp11
 70
     1
102
RTVSPropertyOp12
 70
     1
102
RTVSPropertyOp13
 70
     1
102
RTVSPropertyOp14
 70
     1
102
RTVSPropertyOp15
 70
     1
102
RTVSPropertyOp16
 70
     1
102
RTVSPropertyOp17
 70
     1
102
RTVSPropertyOp18
 70
     1
102
RTVSPropertyOp19
 70
     1
102
RTVSPropertyOp20
 70
     1
102
RTVSPropertyOp21
 70
     1
102
RTVSPropertyOp22
 70
     1
102
RTVSPropertyOp23
 70
     1
102
RTVSPropertyOp24
 70
     1
102
RTVSPropertyOp25
 70
     1
102
RTVSPropertyOp26
 70
     1
102
RTVSPropertyOp27
 70
     1
102
RTVSPropertyOp28
 70
     1
102
RTVSPropertyOp29
 70
     1
102
RTVSPropertyOp30
 70
     1
102
RTVSPropertyOp31
 70
     1
102
RTVSPropertyOp32
 70
     1
102
RTVSPropertyOp33
 70
     1
102
RTVSPropertyOp34
 70
     1
102
RTVSPropertyOp35
 70
     1
102
RTVSPropertyOp36
 70
     1
102
RTVSPropertyOp37
 70
     1
102
RTVSPropertyOp38
 70
     1
102
RTVSPropertyOp39
 70
     1
102
RTVSPropertyOp40
 70
     1
102
RTVSPropertyOp41
 70
     1
102
RTVSPropertyOp42
 70
     1
102
RTVSPropertyOp43
 70
     1
102
RTVSPropertyOp44
 70
     1
102
RTVSPropertyOp45
 70
     1
102
RTVSPropertyOp46
 70
     1
102
RTVSPropertyOp47
 70
     1
102
RTVSPropertyOp48
 70
     1
102
RTVSPropertyOp49
 70
     1
102
RTVSPropertyOp50
 70
     1
102
RTVSPropertyOp51
 70
     0
102
RTVSPropertyOp52
 70
     0
102
RTVSPropertyOp53
 70
     1
102
RTVSPropertyOp54
 70
     1
102
RTVSPropertyOp55
 70
     1
102
RTVSPropertyOp56
 70
     1
102
RTVSPropertyOp57
 70
     1
102
RTVSPost2010Prop28
280
     0
102
RTVSPost2010PropOp28
 70
     1
102
RTVSPost2010Prop29
280
     1
102
RTVSPost2010PropOp29
 70
     1
102
RTVSPost2010Prop30
280
     1
102
RTVSPost2010PropOp30
 70
     1
102
RTVSPost2010Prop31
280
     0
102
RTVSPost2010PropOp31
 70
     1
102
RTVSPost2010Prop32
280
     0
102
RTVSPost2010PropOp32
 70
     1
102
RTVSPost2010Prop33
280
     0
102
RTVSPost2010PropOp33
 70
     1
102
RTVSPost2010Prop34
280
     0
102
RTVSPost2010PropOp34
 70
     1
102
RTVSPost2010Prop35
280
     0
102
RTVSPost2010PropOp35
 70
     1
102
RTVSPost2010Prop36
280
     0
102
RTVSPost2010PropOp36
 70
     1
102
RTVSPost2010Prop37
 90
       50
102
RTVSPost2010PropOp37
 70
     1
102
RTVSPost2010Prop38
140
0.0
102
RTVSPost2010PropOp38
 70
     1
102
RTVSPost2010Prop39
140
1.0
102
RTVSPost2010PropOp39
 70
     1
102
RTVSPost2010Prop40
 90
        0
102
RTVSPost2010PropOp40
 70
     1
102
RTVSPost2010Prop41ColorIndex
 90
       18
102
RTVSPost2010Prop41ColorRGB
 90
        0
102
RTVSPost2010PropOp41
 70
     1
102
RTVSPost2010Prop42
 90
       50
102
RTVSPost2010PropOp42
 70
     1
102
RTVSPost2010Prop43
 90
        3
102
RTVSPost2010PropOp43
 70
     1
102
RTVSPost2010Prop44ColorIndex
 90
        5
102
RTVSPost2010Prop44ColorRGB
 90
      255
102
RTVSPost2010PropOp44
 70
     1
102
RTVSPost2010Prop45
280
     0
102
RTVSPost2010PropOp45
 70
     1
102
RTVSPost2010Prop46
 90
       50
102
RTVSPost2010PropOp46
 70
     1
102
RTVSPost2010Prop47
 90
       50
102
RTVSPost2010PropOp47
 70
     1
102
RTVSPost2010Prop48
 90
       50
102
RTVSPost2010PropOp48
 70
     1
102
RTVSPost2010Prop49
280
     0
102
RTVSPost2010PropOp49
 70
     1
102
RTVSPost2010Prop50
 90
       50
102
RTVSPost2010PropOp50
 70
     1
102
RTVSPost2010Prop51ColorIndex
 90
      256
102
RTVSPost2010Prop51ColorRGB
 90
-16777216
102
RTVSPost2010PropOp51
 70
     0
102
RTVSPost2010Prop52
140
1.0
102
RTVSPost2010PropOp52
 70
     0
102
RTVSPost2010Prop53
 90
        2
102
RTVSPost2010PropOp53
 70
     1
102
RTVSPost2010Prop54
  1
strokes_ogs.tif
102
RTVSPost2010PropOp54
 70
     1
102
RTVSPost2010Prop55
280
     0
102
RTVSPost2010PropOp55
 70
     1
102
RTVSPost2010Prop56
140
1.0
102
RTVSPost2010PropOp56
 70
     1
102
RTVSPost2010Prop57
140
1.0
102
RTVSPost2010PropOp57
 70
     1
  0
XRECORD
  5
69F
102
{ACAD_REACTORS
330
69E
102
}
330
69E
100
AcDbXrecord
280
     1
102
RTVSPropertyOp0
 70
     1
102
RTVSPropertyOp1
 70
     1
102
RTVSPropertyOp2
 70
     1
102
RTVSPropertyOp3
 70
     1
102
RTVSPropertyOp4
 70
     1
102
RTVSPropertyOp5
 70
     1
102
RTVSPropertyOp6
 70
     1
102
RTVSPropertyOp7
 70
     1
102
RTVSPropertyOp8
 70
     1
102
RTVSPropertyOp9
 70
     1
102
RTVSPropertyOp10
 70
     1
102
RTVSPropertyOp11
 70
     1
102
RTVSPropertyOp12
 70
     1
102
RTVSPropertyOp13
 70
     1
102
RTVSPropertyOp14
 70
     1
102
RTVSPropertyOp15
 70
     1
102
RTVSPropertyOp16
 70
     1
102
RTVSPropertyOp17
 70
     1
102
RTVSPropertyOp18
 70
     1
102
RTVSPropertyOp19
 70
     1
102
RTVSPropertyOp20
 70
     1
102
RTVSPropertyOp21
 70
     1
102
RTVSPropertyOp22
 70
     1
102
RTVSPropertyOp23
 70
     1
102
RTVSPropertyOp24
 70
     1
102
RTVSPropertyOp25
 70
     1
102
RTVSPropertyOp26
 70
     1
102
RTVSPropertyOp27
 70
     1
102
RTVSPropertyOp28
 70
     1
102
RTVSPropertyOp29
 70
     1
102
RTVSPropertyOp30
 70
     1
102
RTVSPropertyOp31
 70
     1
102
RTVSPropertyOp32
 70
     1
102
RTVSPropertyOp33
 70
     1
102
RTVSPropertyOp34
 70
     1
102
RTVSPropertyOp35
 70
     1
102
RTVSPropertyOp36
 70
     1
102
RTVSPropertyOp37
 70
     1
102
RTVSPropertyOp38
 70
     1
102
RTVSPropertyOp39
 70
     1
102
RTVSPropertyOp40
 70
     1
102
RTVSPropertyOp41
 70
     1
102
RTVSPropertyOp42
 70
     1
102
RTVSPropertyOp43
 70
     1
102
RTVSPropertyOp44
 70
     1
102
RTVSPropertyOp45
 70
     1
102
RTVSPropertyOp46
 70
     1
102
RTVSPropertyOp47
 70
     1
102
RTVSPropertyOp48
 70
     1
102
RTVSPropertyOp49
 70
     1
102
RTVSPropertyOp50
 70
     1
102
RTVSPropertyOp51
 70
     0
102
RTVSPropertyOp52
 70
     0
102
RTVSPropertyOp53
 70
     1
102
RTVSPropertyOp54
 70
     1
102
RTVSPropertyOp55
 70
     1
102
RTVSPropertyOp56
 70
     1
102
RTVSPropertyOp57
 70
     1
102
RTVSPost2010Prop28
280
     0
102
RTVSPost2010PropOp28
 70
     1
102
RTVSPost2010Prop29
280
     1
102
RTVSPost2010PropOp29
 70
     1
102
RTVSPost2010Prop30
280
     1
102
RTVSPost2010PropOp30
 70
     1
102
RTVSPost2010Prop31
280
     0
102
RTVSPost2010PropOp31
 70
     1
102
RTVSPost2010Prop32
280
     0
102
RTVSPost2010PropOp32
 70
     1
102
RTVSPost2010Prop33
280
     0
102
RTVSPost2010PropOp33
 70
     1
102
RTVSPost2010Prop34
280
     0
102
RTVSPost2010PropOp34
 70
     1
102
RTVSPost2010Prop35
280
     0
102
RTVSPost2010PropOp35
 70
     1
102
RTVSPost2010Prop36
280
     0
102
RTVSPost2010PropOp36
 70
     1
102
RTVSPost2010Prop37
 90
       50
102
RTVSPost2010PropOp37
 70
     1
102
RTVSPost2010Prop38
140
0.0
102
RTVSPost2010PropOp38
 70
     1
102
RTVSPost2010Prop39
140
1.0
102
RTVSPost2010PropOp39
 70
     1
102
RTVSPost2010Prop40
 90
        0
102
RTVSPost2010PropOp40
 70
     1
102
RTVSPost2010Prop41ColorIndex
 90
       18
102
RTVSPost2010Prop41ColorRGB
 90
        0
102
RTVSPost2010PropOp41
 70
     1
102
RTVSPost2010Prop42
 90
       50
102
RTVSPost2010PropOp42
 70
     1
102
RTVSPost2010Prop43
 90
        3
102
RTVSPost2010PropOp43
 70
     1
102
RTVSPost2010Prop44ColorIndex
 90
        5
102
RTVSPost2010Prop44ColorRGB
 90
      255
102
RTVSPost2010PropOp44
 70
     1
102
RTVSPost2010Prop45
280
     0
102
RTVSPost2010PropOp45
 70
     1
102
RTVSPost2010Prop46
 90
       50
102
RTVSPost2010PropOp46
 70
     1
102
RTVSPost2010Prop47
 90
       50
102
RTVSPost2010PropOp47
 70
     1
102
RTVSPost2010Prop48
 90
       50
102
RTVSPost2010PropOp48
 70
     1
102
RTVSPost2010Prop49
280
     0
102
RTVSPost2010PropOp49
 70
     1
102
RTVSPost2010Prop50
 90
       50
102
RTVSPost2010PropOp50
 70
     1
102
RTVSPost2010Prop51ColorIndex
 90
      256
102
RTVSPost2010Prop51ColorRGB
 90
-16777216
102
RTVSPost2010PropOp51
 70
     0
102
RTVSPost2010Prop52
140
1.0
102
RTVSPost2010PropOp52
 70
     0
102
RTVSPost2010Prop53
 90
        2
102
RTVSPost2010PropOp53
 70
     1
102
RTVSPost2010Prop54
  1
strokes_ogs.tif
102
RTVSPost2010PropOp54
 70
     1
102
RTVSPost2010Prop55
280
     0
102
RTVSPost2010PropOp55
 70
     1
102
RTVSPost2010Prop56
140
1.0
102
RTVSPost2010PropOp56
 70
     1
102
RTVSPost2010Prop57
140
1.0
102
RTVSPost2010PropOp57
 70
     1
  0
XRECORD
  5
699
102
{ACAD_REACTORS
330
698
102
}
330
698
100
AcDbXrecord
280
     1
102
RTVSPropertyOp0
 70
     1
102
RTVSPropertyOp1
 70
     1
102
RTVSPropertyOp2
 70
     1
102
RTVSPropertyOp3
 70
     1
102
RTVSPropertyOp4
 70
     1
102
RTVSPropertyOp5
 70
     1
102
RTVSPropertyOp6
 70
     1
102
RTVSPropertyOp7
 70
     1
102
RTVSPropertyOp8
 70
     1
102
RTVSPropertyOp9
 70
     1
102
RTVSPropertyOp10
 70
     1
102
RTVSPropertyOp11
 70
     1
102
RTVSPropertyOp12
 70
     1
102
RTVSPropertyOp13
 70
     1
102
RTVSPropertyOp14
 70
     1
102
RTVSPropertyOp15
 70
     1
102
RTVSPropertyOp16
 70
     1
102
RTVSPropertyOp17
 70
     1
102
RTVSPropertyOp18
 70
     1
102
RTVSPropertyOp19
 70
     1
102
RTVSPropertyOp20
 70
     1
102
RTVSPropertyOp21
 70
     1
102
RTVSPropertyOp22
 70
     1
102
RTVSPropertyOp23
 70
     1
102
RTVSPropertyOp24
 70
     1
102
RTVSPropertyOp25
 70
     1
102
RTVSPropertyOp26
 70
     1
102
RTVSPropertyOp27
 70
     1
102
RTVSPropertyOp28
 70
     1
102
RTVSPropertyOp29
 70
     1
102
RTVSPropertyOp30
 70
     1
102
RTVSPropertyOp31
 70
     1
102
RTVSPropertyOp32
 70
     1
102
RTVSPropertyOp33
 70
     1
102
RTVSPropertyOp34
 70
     1
102
RTVSPropertyOp35
 70
     1
102
RTVSPropertyOp36
 70
     1
102
RTVSPropertyOp37
 70
     1
102
RTVSPropertyOp38
 70
     1
102
RTVSPropertyOp39
 70
     1
102
RTVSPropertyOp40
 70
     1
102
RTVSPropertyOp41
 70
     1
102
RTVSPropertyOp42
 70
     1
102
RTVSPropertyOp43
 70
     1
102
RTVSPropertyOp44
 70
     1
102
RTVSPropertyOp45
 70
     1
102
RTVSPropertyOp46
 70
     1
102
RTVSPropertyOp47
 70
     1
102
RTVSPropertyOp48
 70
     1
102
RTVSPropertyOp49
 70
     1
102
RTVSPropertyOp50
 70
     1
102
RTVSPropertyOp51
 70
     0
102
RTVSPropertyOp52
 70
     0
102
RTVSPropertyOp53
 70
     1
102
RTVSPropertyOp54
 70
     1
102
RTVSPropertyOp55
 70
     1
102
RTVSPropertyOp56
 70
     1
102
RTVSPropertyOp57
 70
     1
102
RTVSPost2010Prop28
280
     0
102
RTVSPost2010PropOp28
 70
     1
102
RTVSPost2010Prop29
280
     1
102
RTVSPost2010PropOp29
 70
     1
102
RTVSPost2010Prop30
280
     1
102
RTVSPost2010PropOp30
 70
     1
102
RTVSPost2010Prop31
280
     0
102
RTVSPost2010PropOp31
 70
     1
102
RTVSPost2010Prop32
280
     0
102
RTVSPost2010PropOp32
 70
     1
102
RTVSPost2010Prop33
280
     0
102
RTVSPost2010PropOp33
 70
     1
102
RTVSPost2010Prop34
280
     0
102
RTVSPost2010PropOp34
 70
     1
102
RTVSPost2010Prop35
280
     0
102
RTVSPost2010PropOp35
 70
     1
102
RTVSPost2010Prop36
280
     0
102
RTVSPost2010PropOp36
 70
     1
102
RTVSPost2010Prop37
 90
       50
102
RTVSPost2010PropOp37
 70
     1
102
RTVSPost2010Prop38
140
0.0
102
RTVSPost2010PropOp38
 70
     1
102
RTVSPost2010Prop39
140
1.0
102
RTVSPost2010PropOp39
 70
     1
102
RTVSPost2010Prop40
 90
        0
102
RTVSPost2010PropOp40
 70
     1
102
RTVSPost2010Prop41ColorIndex
 90
       18
102
RTVSPost2010Prop41ColorRGB
 90
        0
102
RTVSPost2010PropOp41
 70
     1
102
RTVSPost2010Prop42
 90
       50
102
RTVSPost2010PropOp42
 70
     1
102
RTVSPost2010Prop43
 90
        3
102
RTVSPost2010PropOp43
 70
     1
102
RTVSPost2010Prop44ColorIndex
 90
        5
102
RTVSPost2010Prop44ColorRGB
 90
      255
102
RTVSPost2010PropOp44
 70
     1
102
RTVSPost2010Prop45
280
     0
102
RTVSPost2010PropOp45
 70
     1
102
RTVSPost2010Prop46
 90
       50
102
RTVSPost2010PropOp46
 70
     1
102
RTVSPost2010Prop47
 90
       50
102
RTVSPost2010PropOp47
 70
     1
102
RTVSPost2010Prop48
 90
       50
102
RTVSPost2010PropOp48
 70
     1
102
RTVSPost2010Prop49
280
     0
102
RTVSPost2010PropOp49
 70
     1
102
RTVSPost2010Prop50
 90
       50
102
RTVSPost2010PropOp50
 70
     1
102
RTVSPost2010Prop51ColorIndex
 90
      256
102
RTVSPost2010Prop51ColorRGB
 90
-16777216
102
RTVSPost2010PropOp51
 70
     0
102
RTVSPost2010Prop52
140
1.0
102
RTVSPost2010PropOp52
 70
     0
102
RTVSPost2010Prop53
 90
        2
102
RTVSPost2010PropOp53
 70
     1
102
RTVSPost2010Prop54
  1
strokes_ogs.tif
102
RTVSPost2010PropOp54
 70
     1
102
RTVSPost2010Prop55
280
     0
102
RTVSPost2010PropOp55
 70
     1
102
RTVSPost2010Prop56
140
1.0
102
RTVSPost2010PropOp56
 70
     1
102
RTVSPost2010Prop57
140
1.0
102
RTVSPost2010PropOp57
 70
     1
  0
XRECORD
  5
69B
102
{ACAD_REACTORS
330
69A
102
}
330
69A
100
AcDbXrecord
280
     1
102
RTVSPropertyOp0
 70
     1
102
RTVSPropertyOp1
 70
     1
102
RTVSPropertyOp2
 70
     1
102
RTVSPropertyOp3
 70
     1
102
RTVSPropertyOp4
 70
     1
102
RTVSPropertyOp5
 70
     1
102
RTVSPropertyOp6
 70
     1
102
RTVSPropertyOp7
 70
     1
102
RTVSPropertyOp8
 70
     1
102
RTVSPropertyOp9
 70
     1
102
RTVSPropertyOp10
 70
     1
102
RTVSPropertyOp11
 70
     1
102
RTVSPropertyOp12
 70
     1
102
RTVSPropertyOp13
 70
     1
102
RTVSPropertyOp14
 70
     1
102
RTVSPropertyOp15
 70
     1
102
RTVSPropertyOp16
 70
     1
102
RTVSPropertyOp17
 70
     1
102
RTVSPropertyOp18
 70
     1
102
RTVSPropertyOp19
 70
     1
102
RTVSPropertyOp20
 70
     1
102
RTVSPropertyOp21
 70
     1
102
RTVSPropertyOp22
 70
     1
102
RTVSPropertyOp23
 70
     1
102
RTVSPropertyOp24
 70
     1
102
RTVSPropertyOp25
 70
     1
102
RTVSPropertyOp26
 70
     1
102
RTVSPropertyOp27
 70
     1
102
RTVSPropertyOp28
 70
     1
102
RTVSPropertyOp29
 70
     1
102
RTVSPropertyOp30
 70
     1
102
RTVSPropertyOp31
 70
     1
102
RTVSPropertyOp32
 70
     1
102
RTVSPropertyOp33
 70
     1
102
RTVSPropertyOp34
 70
     1
102
RTVSPropertyOp35
 70
     1
102
RTVSPropertyOp36
 70
     1
102
RTVSPropertyOp37
 70
     1
102
RTVSPropertyOp38
 70
     1
102
RTVSPropertyOp39
 70
     1
102
RTVSPropertyOp40
 70
     1
102
RTVSPropertyOp41
 70
     1
102
RTVSPropertyOp42
 70
     1
102
RTVSPropertyOp43
 70
     1
102
RTVSPropertyOp44
 70
     1
102
RTVSPropertyOp45
 70
     1
102
RTVSPropertyOp46
 70
     1
102
RTVSPropertyOp47
 70
     1
102
RTVSPropertyOp48
 70
     1
102
RTVSPropertyOp49
 70
     1
102
RTVSPropertyOp50
 70
     1
102
RTVSPropertyOp51
 70
     0
102
RTVSPropertyOp52
 70
     0
102
RTVSPropertyOp53
 70
     1
102
RTVSPropertyOp54
 70
     1
102
RTVSPropertyOp55
 70
     1
102
RTVSPropertyOp56
 70
     1
102
RTVSPropertyOp57
 70
     1
102
RTVSPost2010Prop28
280
     0
102
RTVSPost2010PropOp28
 70
     1
102
RTVSPost2010Prop29
280
     1
102
RTVSPost2010PropOp29
 70
     1
102
RTVSPost2010Prop30
280
     1
102
RTVSPost2010PropOp30
 70
     1
102
RTVSPost2010Prop31
280
     0
102
RTVSPost2010PropOp31
 70
     1
102
RTVSPost2010Prop32
280
     0
102
RTVSPost2010PropOp32
 70
     1
102
RTVSPost2010Prop33
280
     0
102
RTVSPost2010PropOp33
 70
     1
102
RTVSPost2010Prop34
280
     0
102
RTVSPost2010PropOp34
 70
     1
102
RTVSPost2010Prop35
280
     0
102
RTVSPost2010PropOp35
 70
     1
102
RTVSPost2010Prop36
280
     0
102
RTVSPost2010PropOp36
 70
     1
102
RTVSPost2010Prop37
 90
       50
102
RTVSPost2010PropOp37
 70
     1
102
RTVSPost2010Prop38
140
0.0
102
RTVSPost2010PropOp38
 70
     1
102
RTVSPost2010Prop39
140
1.0
102
RTVSPost2010PropOp39
 70
     1
102
RTVSPost2010Prop40
 90
        0
102
RTVSPost2010PropOp40
 70
     1
102
RTVSPost2010Prop41ColorIndex
 90
       18
102
RTVSPost2010Prop41ColorRGB
 90
        0
102
RTVSPost2010PropOp41
 70
     1
102
RTVSPost2010Prop42
 90
       50
102
RTVSPost2010PropOp42
 70
     1
102
RTVSPost2010Prop43
 90
        3
102
RTVSPost2010PropOp43
 70
     1
102
RTVSPost2010Prop44ColorIndex
 90
        5
102
RTVSPost2010Prop44ColorRGB
 90
      255
102
RTVSPost2010PropOp44
 70
     1
102
RTVSPost2010Prop45
280
     0
102
RTVSPost2010PropOp45
 70
     1
102
RTVSPost2010Prop46
 90
       50
102
RTVSPost2010PropOp46
 70
     1
102
RTVSPost2010Prop47
 90
       50
102
RTVSPost2010PropOp47
 70
     1
102
RTVSPost2010Prop48
 90
       50
102
RTVSPost2010PropOp48
 70
     1
102
RTVSPost2010Prop49
280
     0
102
RTVSPost2010PropOp49
 70
     1
102
RTVSPost2010Prop50
 90
       50
102
RTVSPost2010PropOp50
 70
     1
102
RTVSPost2010Prop51ColorIndex
 90
      256
102
RTVSPost2010Prop51ColorRGB
 90
-16777216
102
RTVSPost2010PropOp51
 70
     0
102
RTVSPost2010Prop52
140
1.0
102
RTVSPost2010PropOp52
 70
     0
102
RTVSPost2010Prop53
 90
        2
102
RTVSPost2010PropOp53
 70
     1
102
RTVSPost2010Prop54
  1
strokes_ogs.tif
102
RTVSPost2010PropOp54
 70
     1
102
RTVSPost2010Prop55
280
     0
102
RTVSPost2010PropOp55
 70
     1
102
RTVSPost2010Prop56
140
1.0
102
RTVSPost2010PropOp56
 70
     1
102
RTVSPost2010Prop57
140
1.0
102
RTVSPost2010PropOp57
 70
     1
  0
XRECORD
  5
68B
102
{ACAD_REACTORS
330
68A
102
}
330
68A
100
AcDbXrecord
280
     1
102
RTVSPropertyOp0
 70
     1
102
RTVSPropertyOp1
 70
     1
102
RTVSPropertyOp2
 70
     1
102
RTVSPropertyOp3
 70
     1
102
RTVSPropertyOp4
 70
     1
102
RTVSPropertyOp5
 70
     1
102
RTVSPropertyOp6
 70
     1
102
RTVSPropertyOp7
 70
     1
102
RTVSPropertyOp8
 70
     1
102
RTVSPropertyOp9
 70
     1
102
RTVSPropertyOp10
 70
     1
102
RTVSPropertyOp11
 70
     1
102
RTVSPropertyOp12
 70
     1
102
RTVSPropertyOp13
 70
     1
102
RTVSPropertyOp14
 70
     1
102
RTVSPropertyOp15
 70
     1
102
RTVSPropertyOp16
 70
     1
102
RTVSPropertyOp17
 70
     1
102
RTVSPropertyOp18
 70
     1
102
RTVSPropertyOp19
 70
     1
102
RTVSPropertyOp20
 70
     1
102
RTVSPropertyOp21
 70
     1
102
RTVSPropertyOp22
 70
     1
102
RTVSPropertyOp23
 70
     1
102
RTVSPropertyOp24
 70
     1
102
RTVSPropertyOp25
 70
     1
102
RTVSPropertyOp26
 70
     1
102
RTVSPropertyOp27
 70
     1
102
RTVSPropertyOp28
 70
     1
102
RTVSPropertyOp29
 70
     1
102
RTVSPropertyOp30
 70
     1
102
RTVSPropertyOp31
 70
     1
102
RTVSPropertyOp32
 70
     1
102
RTVSPropertyOp33
 70
     1
102
RTVSPropertyOp34
 70
     1
102
RTVSPropertyOp35
 70
     1
102
RTVSPropertyOp36
 70
     1
102
RTVSPropertyOp37
 70
     1
102
RTVSPropertyOp38
 70
     1
102
RTVSPropertyOp39
 70
     1
102
RTVSPropertyOp40
 70
     1
102
RTVSPropertyOp41
 70
     1
102
RTVSPropertyOp42
 70
     1
102
RTVSPropertyOp43
 70
     1
102
RTVSPropertyOp44
 70
     1
102
RTVSPropertyOp45
 70
     1
102
RTVSPropertyOp46
 70
     1
102
RTVSPropertyOp47
 70
     1
102
RTVSPropertyOp48
 70
     1
102
RTVSPropertyOp49
 70
     1
102
RTVSPropertyOp50
 70
     1
102
RTVSPropertyOp51
 70
     0
102
RTVSPropertyOp52
 70
     0
102
RTVSPropertyOp53
 70
     1
102
RTVSPropertyOp54
 70
     1
102
RTVSPropertyOp55
 70
     1
102
RTVSPropertyOp56
 70
     1
102
RTVSPropertyOp57
 70
     1
102
RTVSPost2010Prop28
280
     0
102
RTVSPost2010PropOp28
 70
     1
102
RTVSPost2010Prop29
280
     1
102
RTVSPost2010PropOp29
 70
     1
102
RTVSPost2010Prop30
280
     1
102
RTVSPost2010PropOp30
 70
     1
102
RTVSPost2010Prop31
280
     0
102
RTVSPost2010PropOp31
 70
     1
102
RTVSPost2010Prop32
280
     0
102
RTVSPost2010PropOp32
 70
     1
102
RTVSPost2010Prop33
280
     0
102
RTVSPost2010PropOp33
 70
     1
102
RTVSPost2010Prop34
280
     0
102
RTVSPost2010PropOp34
 70
     1
102
RTVSPost2010Prop35
280
     0
102
RTVSPost2010PropOp35
 70
     1
102
RTVSPost2010Prop36
280
     0
102
RTVSPost2010PropOp36
 70
     1
102
RTVSPost2010Prop37
 90
       50
102
RTVSPost2010PropOp37
 70
     1
102
RTVSPost2010Prop38
140
0.0
102
RTVSPost2010PropOp38
 70
     1
102
RTVSPost2010Prop39
140
1.0
102
RTVSPost2010PropOp39
 70
     1
102
RTVSPost2010Prop40
 90
        0
102
RTVSPost2010PropOp40
 70
     1
102
RTVSPost2010Prop41ColorIndex
 90
       18
102
RTVSPost2010Prop41ColorRGB
 90
        0
102
RTVSPost2010PropOp41
 70
     1
102
RTVSPost2010Prop42
 90
       50
102
RTVSPost2010PropOp42
 70
     1
102
RTVSPost2010Prop43
 90
        3
102
RTVSPost2010PropOp43
 70
     1
102
RTVSPost2010Prop44ColorIndex
 90
        5
102
RTVSPost2010Prop44ColorRGB
 90
      255
102
RTVSPost2010PropOp44
 70
     1
102
RTVSPost2010Prop45
280
     0
102
RTVSPost2010PropOp45
 70
     1
102
RTVSPost2010Prop46
 90
       50
102
RTVSPost2010PropOp46
 70
     1
102
RTVSPost2010Prop47
 90
       50
102
RTVSPost2010PropOp47
 70
     1
102
RTVSPost2010Prop48
 90
       50
102
RTVSPost2010PropOp48
 70
     1
102
RTVSPost2010Prop49
280
     0
102
RTVSPost2010PropOp49
 70
     1
102
RTVSPost2010Prop50
 90
       50
102
RTVSPost2010PropOp50
 70
     1
102
RTVSPost2010Prop51ColorIndex
 90
      256
102
RTVSPost2010Prop51ColorRGB
 90
-16777216
102
RTVSPost2010PropOp51
 70
     0
102
RTVSPost2010Prop52
140
1.0
102
RTVSPost2010PropOp52
 70
     0
102
RTVSPost2010Prop53
 90
        2
102
RTVSPost2010PropOp53
 70
     1
102
RTVSPost2010Prop54
  1
strokes_ogs.tif
102
RTVSPost2010PropOp54
 70
     1
102
RTVSPost2010Prop55
280
     0
102
RTVSPost2010PropOp55
 70
     1
102
RTVSPost2010Prop56
140
1.0
102
RTVSPost2010PropOp56
 70
     1
102
RTVSPost2010Prop57
140
1.0
102
RTVSPost2010PropOp57
 70
     1
  0
XRECORD
  5
67D
102
{ACAD_REACTORS
330
67C
102
}
330
67C
100
AcDbXrecord
280
     1
102
RTVSPropertyOp0
 70
     1
102
RTVSPropertyOp1
 70
     1
102
RTVSPropertyOp2
 70
     1
102
RTVSPropertyOp3
 70
     1
102
RTVSPropertyOp4
 70
     1
102
RTVSPropertyOp5
 70
     1
102
RTVSPropertyOp6
 70
     1
102
RTVSPropertyOp7
 70
     1
102
RTVSPropertyOp8
 70
     1
102
RTVSPropertyOp9
 70
     1
102
RTVSPropertyOp10
 70
     1
102
RTVSPropertyOp11
 70
     1
102
RTVSPropertyOp12
 70
     1
102
RTVSPropertyOp13
 70
     1
102
RTVSPropertyOp14
 70
     1
102
RTVSPropertyOp15
 70
     1
102
RTVSPropertyOp16
 70
     1
102
RTVSPropertyOp17
 70
     1
102
RTVSPropertyOp18
 70
     1
102
RTVSPropertyOp19
 70
     1
102
RTVSPropertyOp20
 70
     1
102
RTVSPropertyOp21
 70
     1
102
RTVSPropertyOp22
 70
     1
102
RTVSPropertyOp23
 70
     1
102
RTVSPropertyOp24
 70
     1
102
RTVSPropertyOp25
 70
     1
102
RTVSPropertyOp26
 70
     1
102
RTVSPropertyOp27
 70
     1
102
RTVSPropertyOp28
 70
     1
102
RTVSPropertyOp29
 70
     1
102
RTVSPropertyOp30
 70
     1
102
RTVSPropertyOp31
 70
     1
102
RTVSPropertyOp32
 70
     1
102
RTVSPropertyOp33
 70
     1
102
RTVSPropertyOp34
 70
     1
102
RTVSPropertyOp35
 70
     1
102
RTVSPropertyOp36
 70
     1
102
RTVSPropertyOp37
 70
     1
102
RTVSPropertyOp38
 70
     1
102
RTVSPropertyOp39
 70
     1
102
RTVSPropertyOp40
 70
     1
102
RTVSPropertyOp41
 70
     1
102
RTVSPropertyOp42
 70
     1
102
RTVSPropertyOp43
 70
     1
102
RTVSPropertyOp44
 70
     1
102
RTVSPropertyOp45
 70
     1
102
RTVSPropertyOp46
 70
     1
102
RTVSPropertyOp47
 70
     1
102
RTVSPropertyOp48
 70
     1
102
RTVSPropertyOp49
 70
     1
102
RTVSPropertyOp50
 70
     1
102
RTVSPropertyOp51
 70
     0
102
RTVSPropertyOp52
 70
     0
102
RTVSPropertyOp53
 70
     1
102
RTVSPropertyOp54
 70
     1
102
RTVSPropertyOp55
 70
     1
102
RTVSPropertyOp56
 70
     1
102
RTVSPropertyOp57
 70
     1
102
RTVSPost2010Prop28
280
     0
102
RTVSPost2010PropOp28
 70
     1
102
RTVSPost2010Prop29
280
     1
102
RTVSPost2010PropOp29
 70
     1
102
RTVSPost2010Prop30
280
     1
102
RTVSPost2010PropOp30
 70
     1
102
RTVSPost2010Prop31
280
     0
102
RTVSPost2010PropOp31
 70
     1
102
RTVSPost2010Prop32
280
     0
102
RTVSPost2010PropOp32
 70
     1
102
RTVSPost2010Prop33
280
     0
102
RTVSPost2010PropOp33
 70
     1
102
RTVSPost2010Prop34
280
     0
102
RTVSPost2010PropOp34
 70
     1
102
RTVSPost2010Prop35
280
     0
102
RTVSPost2010PropOp35
 70
     1
102
RTVSPost2010Prop36
280
     0
102
RTVSPost2010PropOp36
 70
     1
102
RTVSPost2010Prop37
 90
       50
102
RTVSPost2010PropOp37
 70
     1
102
RTVSPost2010Prop38
140
0.0
102
RTVSPost2010PropOp38
 70
     1
102
RTVSPost2010Prop39
140
1.0
102
RTVSPost2010PropOp39
 70
     1
102
RTVSPost2010Prop40
 90
        0
102
RTVSPost2010PropOp40
 70
     1
102
RTVSPost2010Prop41ColorIndex
 90
       18
102
RTVSPost2010Prop41ColorRGB
 90
        0
102
RTVSPost2010PropOp41
 70
     1
102
RTVSPost2010Prop42
 90
       50
102
RTVSPost2010PropOp42
 70
     1
102
RTVSPost2010Prop43
 90
        3
102
RTVSPost2010PropOp43
 70
     1
102
RTVSPost2010Prop44ColorIndex
 90
        5
102
RTVSPost2010Prop44ColorRGB
 90
      255
102
RTVSPost2010PropOp44
 70
     1
102
RTVSPost2010Prop45
280
     0
102
RTVSPost2010PropOp45
 70
     1
102
RTVSPost2010Prop46
 90
       50
102
RTVSPost2010PropOp46
 70
     1
102
RTVSPost2010Prop47
 90
       50
102
RTVSPost2010PropOp47
 70
     1
102
RTVSPost2010Prop48
 90
       50
102
RTVSPost2010PropOp48
 70
     1
102
RTVSPost2010Prop49
280
     0
102
RTVSPost2010PropOp49
 70
     1
102
RTVSPost2010Prop50
 90
       50
102
RTVSPost2010PropOp50
 70
     1
102
RTVSPost2010Prop51ColorIndex
 90
      256
102
RTVSPost2010Prop51ColorRGB
 90
-16777216
102
RTVSPost2010PropOp51
 70
     0
102
RTVSPost2010Prop52
140
1.0
102
RTVSPost2010PropOp52
 70
     0
102
RTVSPost2010Prop53
 90
        2
102
RTVSPost2010PropOp53
 70
     1
102
RTVSPost2010Prop54
  1
strokes_ogs.tif
102
RTVSPost2010PropOp54
 70
     1
102
RTVSPost2010Prop55
280
     0
102
RTVSPost2010PropOp55
 70
     1
102
RTVSPost2010Prop56
140
1.0
102
RTVSPost2010PropOp56
 70
     1
102
RTVSPost2010Prop57
140
1.0
102
RTVSPost2010PropOp57
 70
     1
  0
XRECORD
  5
69D
102
{ACAD_REACTORS
330
69C
102
}
330
69C
100
AcDbXrecord
280
     1
102
RTVSPropertyOp0
 70
     1
102
RTVSPropertyOp1
 70
     1
102
RTVSPropertyOp2
 70
     1
102
RTVSPropertyOp3
 70
     1
102
RTVSPropertyOp4
 70
     1
102
RTVSPropertyOp5
 70
     1
102
RTVSPropertyOp6
 70
     1
102
RTVSPropertyOp7
 70
     1
102
RTVSPropertyOp8
 70
     1
102
RTVSPropertyOp9
 70
     1
102
RTVSPropertyOp10
 70
     1
102
RTVSPropertyOp11
 70
     1
102
RTVSPropertyOp12
 70
     1
102
RTVSPropertyOp13
 70
     1
102
RTVSPropertyOp14
 70
     1
102
RTVSPropertyOp15
 70
     1
102
RTVSPropertyOp16
 70
     1
102
RTVSPropertyOp17
 70
     1
102
RTVSPropertyOp18
 70
     1
102
RTVSPropertyOp19
 70
     1
102
RTVSPropertyOp20
 70
     1
102
RTVSPropertyOp21
 70
     1
102
RTVSPropertyOp22
 70
     1
102
RTVSPropertyOp23
 70
     1
102
RTVSPropertyOp24
 70
     1
102
RTVSPropertyOp25
 70
     1
102
RTVSPropertyOp26
 70
     1
102
RTVSPropertyOp27
 70
     1
102
RTVSPropertyOp28
 70
     1
102
RTVSPropertyOp29
 70
     1
102
RTVSPropertyOp30
 70
     1
102
RTVSPropertyOp31
 70
     1
102
RTVSPropertyOp32
 70
     1
102
RTVSPropertyOp33
 70
     1
102
RTVSPropertyOp34
 70
     1
102
RTVSPropertyOp35
 70
     1
102
RTVSPropertyOp36
 70
     1
102
RTVSPropertyOp37
 70
     1
102
RTVSPropertyOp38
 70
     1
102
RTVSPropertyOp39
 70
     1
102
RTVSPropertyOp40
 70
     1
102
RTVSPropertyOp41
 70
     1
102
RTVSPropertyOp42
 70
     1
102
RTVSPropertyOp43
 70
     1
102
RTVSPropertyOp44
 70
     1
102
RTVSPropertyOp45
 70
     1
102
RTVSPropertyOp46
 70
     1
102
RTVSPropertyOp47
 70
     1
102
RTVSPropertyOp48
 70
     1
102
RTVSPropertyOp49
 70
     1
102
RTVSPropertyOp50
 70
     1
102
RTVSPropertyOp51
 70
     0
102
RTVSPropertyOp52
 70
     0
102
RTVSPropertyOp53
 70
     1
102
RTVSPropertyOp54
 70
     1
102
RTVSPropertyOp55
 70
     1
102
RTVSPropertyOp56
 70
     1
102
RTVSPropertyOp57
 70
     1
102
RTVSPost2010Prop28
280
     0
102
RTVSPost2010PropOp28
 70
     1
102
RTVSPost2010Prop29
280
     1
102
RTVSPost2010PropOp29
 70
     1
102
RTVSPost2010Prop30
280
     1
102
RTVSPost2010PropOp30
 70
     1
102
RTVSPost2010Prop31
280
     0
102
RTVSPost2010PropOp31
 70
     1
102
RTVSPost2010Prop32
280
     0
102
RTVSPost2010PropOp32
 70
     1
102
RTVSPost2010Prop33
280
     0
102
RTVSPost2010PropOp33
 70
     1
102
RTVSPost2010Prop34
280
     0
102
RTVSPost2010PropOp34
 70
     1
102
RTVSPost2010Prop35
280
     0
102
RTVSPost2010PropOp35
 70
     1
102
RTVSPost2010Prop36
280
     0
102
RTVSPost2010PropOp36
 70
     1
102
RTVSPost2010Prop37
 90
       50
102
RTVSPost2010PropOp37
 70
     1
102
RTVSPost2010Prop38
140
0.0
102
RTVSPost2010PropOp38
 70
     1
102
RTVSPost2010Prop39
140
1.0
102
RTVSPost2010PropOp39
 70
     1
102
RTVSPost2010Prop40
 90
        0
102
RTVSPost2010PropOp40
 70
     1
102
RTVSPost2010Prop41ColorIndex
 90
       18
102
RTVSPost2010Prop41ColorRGB
 90
        0
102
RTVSPost2010PropOp41
 70
     1
102
RTVSPost2010Prop42
 90
       50
102
RTVSPost2010PropOp42
 70
     1
102
RTVSPost2010Prop43
 90
        3
102
RTVSPost2010PropOp43
 70
     1
102
RTVSPost2010Prop44ColorIndex
 90
        5
102
RTVSPost2010Prop44ColorRGB
 90
      255
102
RTVSPost2010PropOp44
 70
     1
102
RTVSPost2010Prop45
280
     0
102
RTVSPost2010PropOp45
 70
     1
102
RTVSPost2010Prop46
 90
       50
102
RTVSPost2010PropOp46
 70
     1
102
RTVSPost2010Prop47
 90
       50
102
RTVSPost2010PropOp47
 70
     1
102
RTVSPost2010Prop48
 90
       50
102
RTVSPost2010PropOp48
 70
     1
102
RTVSPost2010Prop49
280
     0
102
RTVSPost2010PropOp49
 70
     1
102
RTVSPost2010Prop50
 90
       50
102
RTVSPost2010PropOp50
 70
     1
102
RTVSPost2010Prop51ColorIndex
 90
      256
102
RTVSPost2010Prop51ColorRGB
 90
-16777216
102
RTVSPost2010PropOp51
 70
     0
102
RTVSPost2010Prop52
140
1.0
102
RTVSPost2010PropOp52
 70
     0
102
RTVSPost2010Prop53
 90
        2
102
RTVSPost2010PropOp53
 70
     1
102
RTVSPost2010Prop54
  1
strokes_ogs.tif
102
RTVSPost2010PropOp54
 70
     1
102
RTVSPost2010Prop55
280
     0
102
RTVSPost2010PropOp55
 70
     1
102
RTVSPost2010Prop56
140
1.0
102
RTVSPost2010PropOp56
 70
     1
102
RTVSPost2010Prop57
140
1.0
102
RTVSPost2010PropOp57
 70
     1
  0
ENDSEC
  0
EOF
