  0
SECTION
  2
HEADER
  9
$ACADVER
  1
AC1015
  9
$ACADMAINTVER
 70
     6
  9
$DWGCODEPAGE
  3
ANSI_932
  9
$INSBASE
 10
3112.055554466871
 20
1891.955333212003
 30
0.0
  9
$EXTMIN
 10
262.9931011273516
 20
21.95098718516397
 30
0.0
  9
$EXTMAX
 10
2380.98390731038
 20
1893.8703025216
 30
0.0
  9
$LIMMIN
 10
0.0
 20
0.0
  9
$LIMMAX
 10
816.5000000000001
 20
565.0
  9
$ORTHOMODE
 70
     0
  9
$REGENMODE
 70
     1
  9
$FILLMODE
 70
     1
  9
$QTEXTMODE
 70
     0
  9
$MIRRTEXT
 70
     1
  9
$LTSCALE
 40
20.0
  9
$ATTMODE
 70
     1
  9
$TEXTSIZE
 40
21.0
  9
$TRACEWID
 40
0.05
  9
$TEXTSTYLE
  7
KANJI
  9
$CLAYER
  8
2
  9
$CELTYPE
  6
BYLAYER
  9
$CECOLOR
 62
   256
  9
$CELTSCALE
 40
1.0
  9
$DISPSILH
 70
     0
  9
$DIMSCALE
 40
7.0
  9
$DIMASZ
 40
2.0
  9
$DIMEXO
 40
0.5
  9
$DIMDLI
 40
0.0
  9
$DIMRND
 40
0.0
  9
$DIMDLE
 40
0.0
  9
$DIMEXE
 40
1.0
  9
$DIMTP
 40
0.0
  9
$DIMTM
 40
0.0
  9
$DIMTXT
 40
3.0
  9
$DIMCEN
 40
0.09
  9
$DIMTSZ
 40
0.0
  9
$DIMTOL
 70
     0
  9
$DIMLIM
 70
     0
  9
$DIMTIH
 70
     0
  9
$DIMTOH
 70
     0
  9
$DIMSE1
 70
     0
  9
$DIMSE2
 70
     0
  9
$DIMTAD
 70
     0
  9
$DIMZIN
 70
     8
  9
$DIMBLK
  1

  9
$DIMASO
 70
     0
  9
$DIMSHO
 70
     0
  9
$DIMPOST
  1

  9
$DIMAPOST
  1

  9
$DIMALT
 70
     0
  9
$DIMALTD
 70
     2
  9
$DIMALTF
 40
25.4
  9
$DIMLFAC
 40
1.0
  9
$DIMTOFL
 70
     1
  9
$DIMTVP
 40
1.0
  9
$DIMTIX
 70
     1
  9
$DIMSOXD
 70
     1
  9
$DIMSAH
 70
     0
  9
$DIMBLK1
  1

  9
$DIMBLK2
  1

  9
$DIMSTYLE
  2
STANDARD
  9
$DIMCLRD
 70
   256
  9
$DIMCLRE
 70
   256
  9
$DIMCLRT
 70
   256
  9
$DIMTFAC
 40
1.0
  9
$DIMGAP
 40
0.09
  9
$DIMJUST
 70
     0
  9
$DIMSD1
 70
     0
  9
$DIMSD2
 70
     0
  9
$DIMTOLJ
 70
     1
  9
$DIMTZIN
 70
     0
  9
$DIMALTZ
 70
     0
  9
$DIMALTTZ
 70
     0
  9
$DIMUPT
 70
     0
  9
$DIMDEC
 70
     1
  9
$DIMTDEC
 70
     4
  9
$DIMALTU
 70
     2
  9
$DIMALTTD
 70
     2
  9
$DIMTXSTY
  7
STANDARD
  9
$DIMAUNIT
 70
     0
  9
$DIMADEC
 70
     0
  9
$DIMALTRND
 40
0.0
  9
$DIMAZIN
 70
     0
  9
$DIMDSEP
 70
    46
  9
$DIMATFIT
 70
     3
  9
$DIMFRAC
 70
     0
  9
$DIMLDRBLK
  1

  9
$DIMLUNIT
 70
     2
  9
$DIMLWD
 70
    -2
  9
$DIMLWE
 70
    -2
  9
$DIMTMOVE
 70
     0
  9
$LUNITS
 70
     2
  9
$LUPREC
 70
     3
  9
$SKETCHINC
 40
0.1
  9
$FILLETRAD
 40
3.0
  9
$AUNITS
 70
     0
  9
$AUPREC
 70
     3
  9
$MENU
  1
C:\R13\WIN\SUPPORT\ACADFULL
  9
$ELEVATION
 40
0.0
  9
$PELEVATION
 40
0.0
  9
$THICKNESS
 40
0.0
  9
$LIMCHECK
 70
     0
  9
$CHAMFERA
 40
0.0
  9
$CHAMFERB
 40
0.0
  9
$CHAMFERC
 40
0.0
  9
$CHAMFERD
 40
0.0
  9
$SKPOLY
 70
     0
  9
$TDCREATE
 40
2457240.490428437
  9
$TDUCREATE
 40
2457240.115428437
  9
$TDUPDATE
 40
2457871.835543507
  9
$TDUUPDATE
 40
2457871.460543507
  9
$TDINDWG
 40
0.0353939583
  9
$TDUSRTIMER
 40
0.0353932407
  9
$USRTIMER
 70
     1
  9
$ANGBASE
 50
0.0
  9
$ANGDIR
 70
     0
  9
$PDMODE
 70
     0
  9
$PDSIZE
 40
0.0
  9
$PLINEWID
 40
0.0
  9
$SPLFRAME
 70
     0
  9
$SPLINETYPE
 70
     6
  9
$SPLINESEGS
 70
     8
  9
$HANDSEED
  5
649
  9
$SURFTAB1
 70
     6
  9
$SURFTAB2
 70
     6
  9
$SURFTYPE
 70
     6
  9
$SURFU
 70
     6
  9
$SURFV
 70
     6
  9
$UCSBASE
  2

  9
$UCSNAME
  2

  9
$UCSORG
 10
0.0
 20
0.0
 30
0.0
  9
$UCSXDIR
 10
1.0
 20
0.0
 30
0.0
  9
$UCSYDIR
 10
0.0
 20
1.0
 30
0.0
  9
$UCSORTHOREF
  2

  9
$UCSORTHOVIEW
 70
     0
  9
$UCSORGTOP
 10
0.0
 20
0.0
 30
0.0
  9
$UCSORGBOTTOM
 10
0.0
 20
0.0
 30
0.0
  9
$UCSORGLEFT
 10
0.0
 20
0.0
 30
0.0
  9
$UCSORGRIGHT
 10
0.0
 20
0.0
 30
0.0
  9
$UCSORGFRONT
 10
0.0
 20
0.0
 30
0.0
  9
$UCSORGBACK
 10
0.0
 20
0.0
 30
0.0
  9
$PUCSBASE
  2

  9
$PUCSNAME
  2

  9
$PUCSORG
 10
0.0
 20
0.0
 30
0.0
  9
$PUCSXDIR
 10
1.0
 20
0.0
 30
0.0
  9
$PUCSYDIR
 10
0.0
 20
1.0
 30
0.0
  9
$PUCSORTHOREF
  2

  9
$PUCSORTHOVIEW
 70
     0
  9
$PUCSORGTOP
 10
0.0
 20
0.0
 30
0.0
  9
$PUCSORGBOTTOM
 10
0.0
 20
0.0
 30
0.0
  9
$PUCSORGLEFT
 10
0.0
 20
0.0
 30
0.0
  9
$PUCSORGRIGHT
 10
0.0
 20
0.0
 30
0.0
  9
$PUCSORGFRONT
 10
0.0
 20
0.0
 30
0.0
  9
$PUCSORGBACK
 10
0.0
 20
0.0
 30
0.0
  9
$USERI1
 70
     0
  9
$USERI2
 70
     0
  9
$USERI3
 70
     0
  9
$USERI4
 70
     0
  9
$USERI5
 70
     0
  9
$USERR1
 40
0.0
  9
$USERR2
 40
0.0
  9
$USERR3
 40
0.0
  9
$USERR4
 40
2448925.372986111
  9
$USERR5
 40
0.04166667
  9
$WORLDVIEW
 70
     1
  9
$SHADEDGE
 70
     3
  9
$SHADEDIF
 70
    70
  9
$TILEMODE
 70
     1
  9
$MAXACTVP
 70
    16
  9
$PINSBASE
 10
0.0
 20
0.0
 30
0.0
  9
$PLIMCHECK
 70
     0
  9
$PEXTMIN
 10
1.000000000000000E+20
 20
1.000000000000000E+20
 30
1.000000000000000E+20
  9
$PEXTMAX
 10
-1.000000000000000E+20
 20
-1.000000000000000E+20
 30
-1.000000000000000E+20
  9
$PLIMMIN
 10
0.0
 20
0.0
  9
$PLIMMAX
 10
12.0
 20
9.0
  9
$UNITMODE
 70
     0
  9
$VISRETAIN
 70
     0
  9
$PLINEGEN
 70
     0
  9
$PSLTSCALE
 70
     0
  9
$TREEDEPTH
 70
  3020
  9
$CMLSTYLE
  2
STANDARD
  9
$CMLJUST
 70
     0
  9
$CMLSCALE
 40
1.0
  9
$PROXYGRAPHICS
 70
     1
  9
$MEASUREMENT
 70
     0
  9
$CELWEIGHT
370
    -1
  9
$ENDCAPS
280
     0
  9
$JOINSTYLE
280
     0
  9
$LWDISPLAY
290
     0
  9
$INSUNITS
 70
     0
  9
$HYPERLINKBASE
  1

  9
$STYLESHEET
  1

  9
$XEDIT
290
     1
  9
$CEPSNTYPE
380
     0
  9
$PSTYLEMODE
290
     1
  9
$FINGERPRINTGUID
  2
{55E465B5-3B9E-478D-8045-983A30E7D355}
  9
$VERSIONGUID
  2
{83B6759B-213C-411F-B8FB-BC17A64F6077}
  9
$EXTNAMES
290
     1
  9
$PSVPSCALE
 40
0.0
  9
$OLESTARTUP
290
     0
  0
ENDSEC
  0
SECTION
  2
CLASSES
  0
CLASS
  1
ACDBDICTIONARYWDFLT
  2
AcDbDictionaryWithDefault
  3
ObjectDBX Classes
 90
        0
280
     0
281
     0
  0
CLASS
  1
MATERIAL
  2
AcDbMaterial
  3
ObjectDBX Classes
 90
     1153
280
     0
281
     0
  0
CLASS
  1
SORTENTSTABLE
  2
AcDbSortentsTable
  3
ObjectDBX Classes
 90
        0
280
     0
281
     0
  0
CLASS
  1
SCALE
  2
AcDbScale
  3
ObjectDBX Classes
 90
     1153
280
     0
281
     0
  0
CLASS
  1
DICTIONARYVAR
  2
AcDbDictionaryVar
  3
ObjectDBX Classes
 90
        0
280
     0
281
     0
  0
CLASS
  1
VISUALSTYLE
  2
AcDbVisualStyle
  3
ObjectDBX Classes
 90
     4095
280
     0
281
     0
  0
CLASS
  1
MLEADERSTYLE
  2
AcDbMLeaderStyle
  3
ACDB_MLEADERSTYLE_CLASS
 90
     4095
280
     0
281
     0
  0
CLASS
  1
TABLESTYLE
  2
AcDbTableStyle
  3
ObjectDBX Classes
 90
     4095
280
     0
281
     0
  0
CLASS
  1
ACDBPLACEHOLDER
  2
AcDbPlaceHolder
  3
ObjectDBX Classes
 90
        0
280
     0
281
     0
  0
CLASS
  1
LAYOUT
  2
AcDbLayout
  3
ObjectDBX Classes
 90
        0
280
     0
281
     0
  0
ENDSEC
  0
SECTION
  2
TABLES
  0
TABLE
  2
VPORT
  5
26
102
{ACAD_XDICTIONARY
360
60E
102
}
330
0
100
AcDbSymbolTable
 70
     2
  0
VPORT
  5
2B
330
26
100
AcDbSymbolTableRecord
100
AcDbViewportTableRecord
  2
*Active
 70
     0
 10
0.0
 20
0.0
 11
1.0
 21
1.0
 12
1809.480741140283
 22
856.7924090335575
 13
0.0
 23
0.0
 14
1.0
 24
1.0
 15
50.0
 25
50.0
 16
0.0
 26
0.0
 36
1.0
 17
0.0
 27
0.0
 37
0.0
 40
2221.124983492115
 41
2.174107142857143
 42
50.0
 43
0.0
 44
0.0
 50
0.0
 51
0.0
 71
     0
 72
  5000
 73
     1
 74
     0
 75
     0
 76
     0
 77
     0
 78
     0
281
     0
 65
     1
110
0.0
120
0.0
130
0.0
111
1.0
121
0.0
131
0.0
112
0.0
122
1.0
132
0.0
 79
     0
146
0.0
  0
ENDTAB
  0
TABLE
  2
LTYPE
  5
B
330
0
100
AcDbSymbolTable
 70
     2
  0
LTYPE
  5
C
330
B
100
AcDbSymbolTableRecord
100
AcDbLinetypeTableRecord
  2
BYBLOCK
 70
     0
  3

 72
    65
 73
     0
 40
0.0
  0
LTYPE
  5
D
330
B
100
AcDbSymbolTableRecord
100
AcDbLinetypeTableRecord
  2
BYLAYER
 70
     0
  3

 72
    65
 73
     0
 40
0.0
  0
LTYPE
  5
A
330
B
100
AcDbSymbolTableRecord
100
AcDbLinetypeTableRecord
  2
CONTINUOUS
 70
     0
  3
Solid line
 72
    65
 73
     0
 40
0.0
  0
LTYPE
  5
82
330
B
100
AcDbSymbolTableRecord
100
AcDbLinetypeTableRecord
  2
CENTER
 70
     0
  3
____ _ ____ _ ____ _ ____ _ ____ _ ____ _ ____
 72
    65
 73
     4
 40
2.0
 49
1.25
 74
     0
 49
-0.25
 74
     0
 49
0.25
 74
     0
 49
-0.25
 74
     0
  0
ENDTAB
  0
TABLE
  2
LAYER
  5
2
330
0
100
AcDbSymbolTable
 70
     9
  0
LAYER
  5
1B
330
2
100
AcDbSymbolTableRecord
100
AcDbLayerTableRecord
  2
0
 70
     0
 62
     7
  6
CONTINUOUS
370
    -3
390
3
  0
LAYER
  5
445
330
2
100
AcDbSymbolTableRecord
100
AcDbLayerTableRecord
  2
1
 70
     0
 62
     9
  6
CONTINUOUS
370
    -3
390
3
  0
LAYER
  5
1
330
2
100
AcDbSymbolTableRecord
100
AcDbLayerTableRecord
  2
2
 70
     0
 62
     4
  6
CONTINUOUS
370
    -3
390
3
  0
LAYER
  5
72
330
2
100
AcDbSymbolTableRecord
100
AcDbLayerTableRecord
  2
4
 70
     0
 62
     3
  6
CONTINUOUS
370
    -3
390
3
  0
LAYER
  5
81
330
2
100
AcDbSymbolTableRecord
100
AcDbLayerTableRecord
  2
L-CENTER
 70
     0
 62
     1
  6
CENTER
370
    -3
390
3
  0
LAYER
  5
9D
330
2
100
AcDbSymbolTableRecord
100
AcDbLayerTableRecord
  2
3
 70
     0
 62
     2
  6
CONTINUOUS
370
    -3
390
3
  0
LAYER
  5
43E
330
2
100
AcDbSymbolTableRecord
100
AcDbLayerTableRecord
  2
5
 70
     0
 62
     6
  6
CONTINUOUS
370
    -3
390
3
  0
LAYER
  5
5F0
330
2
100
AcDbSymbolTableRecord
100
AcDbLayerTableRecord
  2
Defpoints
 70
     0
 62
     7
  6
CONTINUOUS
290
     0
370
    -3
390
3
  0
ENDTAB
  0
TABLE
  2
STYLE
  5
F
330
0
100
AcDbSymbolTable
 70
     2
  0
STYLE
  5
13
330
F
100
AcDbSymbolTableRecord
100
AcDbTextStyleTableRecord
  2
STANDARD
 70
     0
 40
0.0
 41
1.0
 50
0.0
 71
     0
 42
12.6
  3
TXT
  4

  0
STYLE
  5
E
330
F
100
AcDbSymbolTableRecord
100
AcDbTextStyleTableRecord
  2
KANJI
 70
     0
 40
0.0
 41
1.0
 50
0.0
 71
     0
 42
21.0
  3
TXT
  4
BIGFONT
  0
ENDTAB
  0
TABLE
  2
VIEW
  5
24
330
0
100
AcDbSymbolTable
 70
     0
  0
ENDTAB
  0
TABLE
  2
UCS
  5
25
330
0
100
AcDbSymbolTable
 70
     0
  0
ENDTAB
  0
TABLE
  2
APPID
  5
9
330
0
100
AcDbSymbolTable
 70
     3
  0
APPID
  5
8
330
9
100
AcDbSymbolTableRecord
100
AcDbRegAppTableRecord
  2
ACAD
 70
     0
  0
APPID
  5
1F
330
9
100
AcDbSymbolTableRecord
100
AcDbRegAppTableRecord
  2
ACAD_PSEXT
 70
     0
  0
APPID
  5
5C7
330
9
100
AcDbSymbolTableRecord
100
AcDbRegAppTableRecord
  2
ACAD_MLEADERVER
 70
     0
  0
ENDTAB
  0
TABLE
  2
DIMSTYLE
  5
12
330
0
100
AcDbSymbolTable
 70
     1
100
AcDbDimStyleTable
  0
DIMSTYLE
105
11
330
12
100
AcDbSymbolTableRecord
100
AcDbDimStyleTableRecord
  2
STANDARD
 70
     0
178
     0
340
13
  0
ENDTAB
  0
TABLE
  2
BLOCK_RECORD
  5
16
330
0
100
AcDbSymbolTable
 70
     0
  0
BLOCK_RECORD
  5
17
102
{ACAD_XDICTIONARY
360
18
102
}
330
16
100
AcDbSymbolTableRecord
100
AcDbBlockTableRecord
  2
*MODEL_SPACE
340
1D
  0
BLOCK_RECORD
  5
20
330
16
100
AcDbSymbolTableRecord
100
AcDbBlockTableRecord
  2
*PAPER_SPACE
340
23
  0
ENDTAB
  0
ENDSEC
  0
SECTION
  2
BLOCKS
  0
BLOCK
  5
1A
330
17
100
AcDbEntity
  8
0
100
AcDbBlockBegin
  2
*MODEL_SPACE
 70
     0
 10
0.0
 20
0.0
 30
0.0
  3
*MODEL_SPACE
  1

  0
ENDBLK
  5
1C
330
17
100
AcDbEntity
  8
0
100
AcDbBlockEnd
  0
BLOCK
  5
21
330
20
100
AcDbEntity
 67
     1
  8
0
100
AcDbBlockBegin
  2
*PAPER_SPACE
 70
     0
 10
0.0
 20
0.0
 30
0.0
  3
*PAPER_SPACE
  1

  0
ENDBLK
  5
22
330
20
100
AcDbEntity
 67
     1
  8
0
100
AcDbBlockEnd
  0
ENDSEC
  0
SECTION
  2
ENTITIES
  0
LINE
  5
71
330
17
100
AcDbEntity
  8
4
100
AcDbLine
 10
678.7018451287154
 20
1878.994306869152
 30
0.0
 11
713.2018451287154
 21
1878.994306869152
 31
0.0
  0
LINE
  5
73
330
17
100
AcDbEntity
  8
4
100
AcDbLine
 10
680.7018451287154
 20
1880.994306869152
 30
0.0
 11
769.7018451287154
 21
1880.994306869152
 31
0.0
  0
LINE
  5
74
330
17
100
AcDbEntity
  8
4
100
AcDbLine
 10
737.2018451287154
 20
1878.994306869152
 30
0.0
 11
771.7018451287154
 21
1878.994306869152
 31
0.0
  0
LINE
  5
75
330
17
100
AcDbEntity
  8
4
100
AcDbLine
 10
771.7018451287154
 20
1878.994306869152
 30
0.0
 11
769.7018451287154
 21
1880.994306869152
 31
0.0
  0
LINE
  5
76
330
17
100
AcDbEntity
  8
4
100
AcDbLine
 10
678.7018451287154
 20
1878.994306869152
 30
0.0
 11
680.7018451287154
 21
1880.994306869152
 31
0.0
  0
LINE
  5
77
330
17
100
AcDbEntity
  8
4
100
AcDbLine
 10
1016.201848128716
 20
279.2144141851641
 30
0.0
 11
1016.201848128716
 21
108.9509921851641
 31
0.0
  0
ARC
  5
78
330
17
100
AcDbEntity
  8
4
100
AcDbCircle
 10
21.70184512871583
 20
383.9509901851641
 30
0.0
 40
999.9999799999999
100
AcDbArc
 50
344.997174
 51
15.00329100000002
  0
LINE
  5
79
330
17
100
AcDbEntity
  8
4
100
AcDbLine
 10
945.2018421287162
 20
143.9509921851641
 30
0.0
 11
945.2018421287162
 21
98.95098818516408
 31
0.0
  0
LINE
  5
7A
330
17
100
AcDbEntity
  8
4
100
AcDbLine
 10
797.3976471287156
 20
266.654356185164
 30
0.0
 11
783.2902251287164
 21
132.4006981851642
 31
0.0
  0
LINE
  5
7B
330
17
100
AcDbEntity
  8
4
100
AcDbLine
 10
505.2018481287159
 20
143.9509921851641
 30
0.0
 11
505.2018481287159
 21
98.95098818516408
 31
0.0
  0
LINE
  5
7C
330
17
100
AcDbEntity
  8
4
100
AcDbLine
 10
653.0060431287156
 20
266.654356185164
 30
0.0
 11
667.1134651287157
 21
132.4006981851642
 31
0.0
  0
LINE
  5
7D
330
17
100
AcDbEntity
  8
4
100
AcDbLine
 10
434.2018421287157
 20
279.2144141851641
 30
0.0
 11
434.2018421287157
 21
108.9509921851641
 31
0.0
  0
ARC
  5
7E
330
17
100
AcDbEntity
  8
4
100
AcDbCircle
 10
1428.701845128715
 20
383.9509901851641
 30
0.0
 40
999.9999869999999
100
AcDbArc
 50
164.997041
 51
195.003216
  0
ARC
  5
7F
330
17
100
AcDbEntity
  8
4
100
AcDbCircle
 10
725.2018451287154
 20
383.9509901851641
 30
0.0
 40
263.499999
100
AcDbArc
 50
95.61760396893148
 51
84.38239603106854
  0
LINE
  5
80
330
17
100
AcDbEntity
  8
L-CENTER
 48
2.0
100
AcDbLine
 10
725.2018451287154
 20
898.9509931851646
 30
0.0
 11
725.2018451287154
 21
72.50861348017474
 31
0.0
  0
LINE
  5
83
330
17
100
AcDbEntity
  8
4
100
AcDbLine
 10
520.201847128716
 20
143.9509921851641
 30
0.0
 11
520.201847128716
 21
43.95098718516397
 31
0.0
  0
LINE
  5
84
330
17
100
AcDbEntity
  8
4
100
AcDbLine
 10
930.2018431287165
 20
143.9509921851641
 30
0.0
 11
930.2018431287165
 21
43.95098718516397
 31
0.0
  0
CIRCLE
  5
85
330
17
100
AcDbEntity
  8
4
100
AcDbCircle
 10
725.2018451287154
 20
383.9509901851641
 30
0.0
 40
293.499997
  0
ARC
  5
86
330
17
100
AcDbEntity
  8
4
100
AcDbCircle
 10
725.2020901287165
 20
1087.451235185164
 30
0.0
 40
999.999952
100
AcDbArc
 50
254.9967529999999
 51
257.29121
  0
LINE
  5
87
330
17
100
AcDbEntity
  8
4
100
AcDbLine
 10
517.2018431287156
 20
98.95098818516408
 30
0.0
 11
388.2018461287157
 21
98.95098818516408
 31
0.0
  0
LINE
  5
88
330
17
100
AcDbEntity
  8
4
100
AcDbLine
 10
555.2018471287156
 20
43.95098718516397
 30
0.0
 11
385.2018421287157
 21
43.95098718516397
 31
0.0
  0
LINE
  5
8F
330
17
100
AcDbEntity
  8
4
100
AcDbLine
 10
385.2018421287157
 20
43.95098718516397
 30
0.0
 11
385.2018421287157
 21
95.95099118516418
 31
0.0
  0
LINE
  5
90
330
17
100
AcDbEntity
  8
L-CENTER
 48
2.0
100
AcDbLine
 10
445.2018451287158
 20
120.9509881851641
 30
0.0
 11
445.2018451287158
 21
21.95098718516397
 31
0.0
  0
ARC
  5
91
330
17
100
AcDbEntity
  8
4
100
AcDbCircle
 10
388.2018461287157
 20
95.95099118516418
 30
0.0
 40
2.999997
100
AcDbArc
 50
90.0
 51
180.0
  0
ARC
  5
92
330
17
100
AcDbEntity
  8
4
100
AcDbCircle
 10
424.2018451287158
 20
108.9509921851641
 30
0.0
 40
9.999996999999999
100
AcDbArc
 50
270.0
 51
0.0
  0
LINE
  5
93
330
17
100
AcDbEntity
  8
4
100
AcDbLine
 10
431.2018451287158
 20
101.8095641851642
 30
0.0
 11
431.2018451287158
 21
113.950987185164
 31
0.0
  0
LINE
  5
94
330
17
100
AcDbEntity
  8
4
100
AcDbLine
 10
431.2018451287158
 20
106.4509911851642
 30
0.0
 11
429.7018431287156
 21
106.4509911851642
 31
0.0
  0
LINE
  5
95
330
17
100
AcDbEntity
  8
4
100
AcDbLine
 10
429.7018431287156
 20
100.5993411851639
 30
0.0
 11
429.7018431287156
 21
106.4509911851642
 31
0.0
  0
LINE
  5
96
330
17
100
AcDbEntity
  8
4
100
AcDbLine
 10
431.2018451287158
 20
113.950987185164
 30
0.0
 11
434.2018421287157
 21
113.950987185164
 31
0.0
  0
ARC
  5
97
330
17
100
AcDbEntity
  8
4
100
AcDbCircle
 10
467.6205491287155
 20
126.370177185164
 30
0.0
 40
5.000016
100
AcDbArc
 50
195.0038580000004
 51
254.9988459999981
  0
ARC
  5
98
330
17
100
AcDbEntity
  8
4
100
AcDbCircle
 10
725.2016001287161
 20
1087.451235185164
 30
0.0
 40
999.999952
100
AcDbArc
 50
282.709235
 51
285.0036810000001
  0
LINE
  5
99
330
17
100
AcDbEntity
  8
4
100
AcDbLine
 10
933.201847128716
 20
98.95098818516408
 30
0.0
 11
1062.201844128715
 21
98.95098818516408
 31
0.0
  0
LINE
  5
9A
330
17
100
AcDbEntity
  8
4
100
AcDbLine
 10
895.2018431287165
 20
43.95098718516397
 30
0.0
 11
1065.201848128716
 21
43.95098718516397
 31
0.0
  0
LINE
  5
9B
330
17
100
AcDbEntity
  8
4
100
AcDbLine
 10
821.201847128716
 20
83.95098918516396
 30
0.0
 11
629.2018431287161
 21
83.95098918516396
 31
0.0
  0
ARC
  5
9F
330
17
100
AcDbEntity
  8
4
100
AcDbCircle
 10
725.2020901287165
 20
1087.451235185164
 30
0.0
 40
999.9999590000002
100
AcDbArc
 50
258.170657
 51
281.829485
  0
LINE
  5
A0
330
17
100
AcDbEntity
  8
4
100
AcDbLine
 10
562.5927131287158
 20
65.9485501851641
 30
0.0
 11
629.2018431287161
 21
83.95098918516396
 31
0.0
  0
ARC
  5
A1
330
17
100
AcDbEntity
  8
4
100
AcDbCircle
 10
565.201844128716
 20
56.29498318516403
 30
0.0
 40
9.999969
100
AcDbArc
 50
105.1243370000003
 51
180.0
  0
LINE
  5
A2
330
17
100
AcDbEntity
  8
4
100
AcDbLine
 10
555.2018471287156
 20
56.29498318516403
 30
0.0
 11
555.2018471287156
 21
43.95098718516397
 31
0.0
  0
ARC
  5
A3
330
17
100
AcDbEntity
  8
4
100
AcDbCircle
 10
517.2018431287156
 20
95.95099118516418
 30
0.0
 40
2.999997
100
AcDbArc
 50
0.0
 51
90.0
  0
ARC
  5
A4
330
17
100
AcDbEntity
  8
4
100
AcDbCircle
 10
663.135442128716
 20
131.9827281851642
 30
0.0
 40
3.999919
100
AcDbArc
 50
256.1605359999976
 51
5.998026999999534
  0
LINE
  5
A5
330
17
100
AcDbEntity
  8
4
100
AcDbLine
 10
887.8109771287159
 20
65.9485501851641
 30
0.0
 11
821.201847128716
 21
83.95098918516396
 31
0.0
  0
ARC
  5
A6
330
17
100
AcDbEntity
  8
4
100
AcDbCircle
 10
787.2682551287157
 20
131.9827281851642
 30
0.0
 40
3.999919
100
AcDbArc
 50
174.0019740000006
 51
283.8394640000024
  0
ARC
  5
A7
330
17
100
AcDbEntity
  8
4
100
AcDbCircle
 10
885.2018461287157
 20
56.29498318516403
 30
0.0
 40
9.999969
100
AcDbArc
 50
0.0
 51
74.87566299999703
  0
LWPOLYLINE
  5
A8
330
17
100
AcDbEntity
  8
4
100
AcDbPolyline
 90
       43
 70
     0
 43
0.0
 10
974.0950771287157
 20
98.95098818516408
 10
973.6558061287164
 20
98.19612918516418
 10
973.274733128716
 20
97.4264861851641
 10
972.9588651287163
 20
96.64028818516408
 10
972.7152091287157
 20
95.83575718516408
 10
972.5507651287157
 20
95.01110818516395
 10
972.4725541287157
 20
94.16457018516417
 10
972.5126711287162
 20
92.86742118516395
 10
972.674084128716
 20
91.54010218516396
 10
972.8723451287156
 20
90.204712185164
 10
973.0230061287152
 20
88.88332218516393
 10
973.041626128716
 20
87.59801718516405
 10
972.8437501287158
 20
86.37088218516396
 10
972.4754311287165
 20
85.42186418516417
 10
971.941576128716
 20
84.5176671851641
 10
971.2782071287152
 20
83.649373185164
 10
968.8710751287158
 20
81.17077118516409
 10
966.594605128716
 20
78.694311185164
 10
966.0328691287164
 20
77.82768318516423
 10
965.6296831287159
 20
76.92562118516412
 10
965.4210691287158
 20
75.97921418516398
 10
965.4737931287159
 20
74.61714018516409
 10
965.8024921287165
 20
73.18864318516421
 10
966.2585911287156
 20
71.72535618516417
 10
966.6935291287159
 20
70.2589331851641
 10
966.9587311287164
 20
68.82100718516404
 10
966.9056431287158
 20
67.44323918516397
 10
966.3114061287165
 20
65.92754318516404
 10
965.290890128716
 20
64.50036218516402
 10
964.0637271287164
 20
63.12321718516409
 10
962.8495421287157
 20
61.75763618516407
 10
961.8679671287159
 20
60.36514018516414
 10
961.3386271287159
 20
58.907250185164
 10
961.3787231287156
 20
57.49626718516402
 10
961.7998501287152
 20
56.0236561851641
 10
962.4236131287157
 20
54.51428118516401
 10
963.0715891287159
 20
52.99299218516421
 10
963.5653761287163
 20
51.48466018516388
 10
963.7641411287154
 20
49.910584185164
 10
963.6252051287161
 20
48.37489618516406
 10
963.1901341287162
 20
46.87288518516402
 10
962.5004591287156
 20
45.3998261851641
 10
961.5977251287154
 20
43.95098718516397
  0
LINE
  5
A9
330
17
100
AcDbEntity
  8
4
100
AcDbLine
 10
895.2018431287165
 20
56.29498318516403
 30
0.0
 11
895.2018431287165
 21
43.95098718516397
 31
0.0
  0
ARC
  5
AA
330
17
100
AcDbEntity
  8
4
100
AcDbCircle
 10
933.201847128716
 20
95.95099118516418
 30
0.0
 40
2.999997
100
AcDbArc
 50
90.0
 51
180.0
  0
TEXT
  5
AC
330
17
100
AcDbEntity
  8
3
100
AcDbText
 10
1257.360357264962
 20
40.96803774550426
 30
0.0
 40
21.0
  1
LB10-04
  7
KANJI
100
AcDbText
  0
LINE
  5
B4
330
17
100
AcDbEntity
  8
4
100
AcDbLine
 10
1065.201848128716
 20
43.95098718516397
 30
0.0
 11
1065.201848128716
 21
95.95099118516418
 31
0.0
  0
LINE
  5
B5
330
17
100
AcDbEntity
  8
4
100
AcDbLine
 10
992.201844128715
 20
98.95098818516408
 30
0.0
 11
992.201844128715
 21
43.95098718516397
 31
0.0
  0
LINE
  5
B6
330
17
100
AcDbEntity
  8
L-CENTER
100
AcDbLine
 10
1005.201845128715
 20
120.9509881851641
 30
0.0
 11
1005.201845128715
 21
21.95098718516397
 31
0.0
  0
LINE
  5
B7
330
17
100
AcDbEntity
  8
4
100
AcDbLine
 10
1018.201846128716
 20
98.95098818516408
 30
0.0
 11
1018.201846128716
 21
43.95098718516397
 31
0.0
  0
ARC
  5
B9
330
17
100
AcDbEntity
  8
4
100
AcDbCircle
 10
1026.201845128715
 20
108.9509921851641
 30
0.0
 40
9.999996999999999
100
AcDbArc
 50
180.0
 51
270.0
  0
ARC
  5
BA
330
17
100
AcDbEntity
  8
4
100
AcDbCircle
 10
982.7831411287157
 20
126.370177185164
 30
0.0
 40
5.000016
100
AcDbArc
 50
285.0011650000034
 51
344.9961450000004
  0
ARC
  5
BB
330
17
100
AcDbEntity
  8
4
100
AcDbCircle
 10
1062.201844128715
 20
95.95099118516418
 30
0.0
 40
2.999997
100
AcDbArc
 50
0.0
 51
90.0
  0
LINE
  5
C2
330
17
100
AcDbEntity
  8
4
100
AcDbLine
 10
472.2018461287157
 20
826.9509881851639
 30
0.0
 11
488.2018441287159
 21
826.9509881851639
 31
0.0
  0
LINE
  5
C3
330
17
100
AcDbEntity
  8
4
100
AcDbLine
 10
488.2018441287159
 20
828.9509931851642
 30
0.0
 11
472.2018461287157
 21
828.9509931851642
 31
0.0
  0
LINE
  5
C4
330
17
100
AcDbEntity
  8
4
100
AcDbLine
 10
488.2018441287159
 20
829.9509921851643
 30
0.0
 11
474.2018441287159
 21
829.9509921851643
 31
0.0
  0
LINE
  5
C5
330
17
100
AcDbEntity
  8
4
100
AcDbLine
 10
492.4518451287158
 20
802.9509911851644
 30
0.0
 11
483.9518431287156
 21
802.9509911851644
 31
0.0
  0
ARC
  5
C6
330
17
100
AcDbEntity
  8
4
100
AcDbCircle
 10
483.9518431287156
 20
793.4197421851643
 30
0.0
 40
9.531249
100
AcDbArc
 50
63.51896000000171
 51
116.4810399999983
  0
LINE
  5
C7
330
17
100
AcDbEntity
  8
4
100
AcDbLine
 10
488.2018441287159
 20
810.9509901851641
 30
0.0
 11
473.2018451287158
 21
810.9509901851641
 31
0.0
  0
LINE
  5
C8
330
17
100
AcDbEntity
  8
4
100
AcDbLine
 10
607.9052111287156
 20
311.7551881851641
 30
0.0
 11
473.6515531287159
 21
325.8626101851642
 31
0.0
  0
LINE
  5
C9
330
17
100
AcDbEntity
  8
4
100
AcDbLine
 10
607.9052111287156
 20
456.1467921851643
 30
0.0
 11
473.6515531287159
 21
442.0393701851642
 31
0.0
  0
LINE
  5
CA
330
17
100
AcDbEntity
  8
L-CENTER
 48
2.0
100
AcDbLine
 10
1036.644221833706
 20
383.9509901851641
 30
0.0
 11
413.7594684237265
 21
383.9509901851641
 31
0.0
  0
ARC
  5
CB
330
17
100
AcDbEntity
  8
4
100
AcDbCircle
 10
725.2020901287165
 20
-319.5492548148359
 30
0.0
 40
999.999945
100
AcDbArc
 50
74.99665200000001
 51
105.0035540000001
  0
LINE
  5
CC
330
17
100
AcDbEntity
  8
4
100
AcDbLine
 10
1012.201845128715
 20
795.9509911851644
 30
0.0
 11
438.2018451287158
 21
795.9509911851644
 31
0.0
  0
LINE
  5
CD
330
17
100
AcDbEntity
  8
L-CENTER
 48
2.0
100
AcDbLine
 10
1187.408156128715
 20
678.9509891851637
 30
0.0
 11
262.9955341287155
 21
678.9509891851637
 31
0.0
  0
LINE
  5
CF
330
17
100
AcDbEntity
  8
4
100
AcDbLine
 10
433.2018431287156
 20
564.4509881851639
 30
0.0
 11
433.2018431287156
 21
793.4509901851641
 31
0.0
  0
LINE
  5
D0
330
17
100
AcDbEntity
  8
4
100
AcDbLine
 10
438.2018451287158
 20
706.4509931851642
 30
0.0
 11
438.2018451287158
 21
795.9509911851644
 31
0.0
  0
LINE
  5
D1
330
17
100
AcDbEntity
  8
4
100
AcDbLine
 10
412.8019451287159
 20
565.450987185164
 30
0.0
 11
412.8019451287159
 21
792.4509911851635
 31
0.0
  0
LINE
  5
D2
330
17
100
AcDbEntity
  8
4
100
AcDbLine
 10
425.7018471287161
 20
272.950989185164
 30
0.0
 11
420.7018451287158
 21
272.950989185164
 31
0.0
  0
LINE
  5
D3
330
17
100
AcDbEntity
  8
L-CENTER
 48
2.0
100
AcDbLine
 10
414.4336111287157
 20
263.9509911851642
 30
0.0
 11
465.1936777550118
 21
263.9509911851642
 31
0.0
  0
LINE
  5
D4
330
17
100
AcDbEntity
  8
4
100
AcDbLine
 10
427.7018451287158
 20
281.950987185164
 30
0.0
 11
420.7018451287158
 21
281.950987185164
 31
0.0
  0
LINE
  5
D5
330
17
100
AcDbEntity
  8
4
100
AcDbLine
 10
427.7018451287158
 20
245.9509881851643
 30
0.0
 11
420.7018451287158
 21
245.9509881851643
 31
0.0
  0
LINE
  5
D6
330
17
100
AcDbEntity
  8
4
100
AcDbLine
 10
425.7018471287161
 20
254.9509931851642
 30
0.0
 11
420.7018451287158
 21
254.9509931851642
 31
0.0
  0
LINE
  5
D7
330
17
100
AcDbEntity
  8
4
100
AcDbLine
 10
420.7018451287158
 20
245.9509881851643
 30
0.0
 11
420.7018451287158
 21
281.950987185164
 31
0.0
  0
LINE
  5
D8
330
17
100
AcDbEntity
  8
4
100
AcDbLine
 10
429.2018471287161
 20
283.9509921851638
 30
0.0
 11
429.2018471287161
 21
243.9509901851641
 31
0.0
  0
LINE
  5
D9
330
17
100
AcDbEntity
  8
4
100
AcDbLine
 10
425.7018471287161
 20
245.9509881851643
 30
0.0
 11
425.7018471287161
 21
281.950987185164
 31
0.0
  0
LINE
  5
DA
330
17
100
AcDbEntity
  8
4
100
AcDbLine
 10
427.7018451287158
 20
245.9509881851643
 30
0.0
 11
427.7018451287158
 21
281.950987185164
 31
0.0
  0
LINE
  5
DB
330
17
100
AcDbEntity
  8
4
100
AcDbLine
 10
429.2018471287161
 20
246.950987185164
 30
0.0
 11
429.2018471287161
 21
280.9509881851643
 31
0.0
  0
LINE
  5
DC
330
17
100
AcDbEntity
  8
4
100
AcDbLine
 10
427.7018451287158
 20
246.950987185164
 30
0.0
 11
429.2018471287161
 21
246.950987185164
 31
0.0
  0
LINE
  5
DD
330
17
100
AcDbEntity
  8
4
100
AcDbLine
 10
434.2018421287157
 20
243.9509901851641
 30
0.0
 11
429.2018471287161
 21
243.9509901851641
 31
0.0
  0
LINE
  5
DE
330
17
100
AcDbEntity
  8
4
100
AcDbLine
 10
429.2018471287161
 20
280.9509881851643
 30
0.0
 11
427.7018451287158
 21
280.9509881851643
 31
0.0
  0
LINE
  5
DF
330
17
100
AcDbEntity
  8
4
100
AcDbLine
 10
429.2018471287161
 20
283.9509921851638
 30
0.0
 11
433.7142991287155
 21
283.9509921851638
 31
0.0
  0
ARC
  5
E0
330
17
100
AcDbEntity
  8
4
100
AcDbCircle
 10
473.233583128716
 20
321.8845801851642
 30
0.0
 40
3.999919
100
AcDbArc
 50
84.00198900000268
 51
193.8394639999988
  0
ARC
  5
E1
330
17
100
AcDbEntity
  8
4
100
AcDbCircle
 10
473.233583128716
 20
446.0173931851639
 30
0.0
 40
3.999919
100
AcDbArc
 50
166.1605360000012
 51
275.9980130000007
  0
LINE
  5
E2
330
17
100
AcDbEntity
  8
4
100
AcDbLine
 10
438.2018451287158
 20
521.4636871851642
 30
0.0
 11
438.2018451287158
 21
651.4509921851643
 31
0.0
  0
LINE
  5
E3
330
17
100
AcDbEntity
  8
4
100
AcDbLine
 10
413.801941128716
 20
564.4509911851635
 30
0.0
 11
438.2018451287163
 21
564.450991185163
 31
0.0
  0
ARC
  5
E4
330
17
100
AcDbEntity
  8
4
100
AcDbCircle
 10
413.801941128716
 20
565.450987185164
 30
0.0
 40
1.000002
100
AcDbArc
 50
180.0
 51
270.0
  0
ARC
  5
E5
330
17
100
AcDbEntity
  8
4
100
AcDbCircle
 10
433.2018431287156
 20
651.4509921851643
 30
0.0
 40
5.000002
100
AcDbArc
 50
0.0
 51
90.0
  0
ARC
  5
E6
330
17
100
AcDbEntity
  8
4
100
AcDbCircle
 10
467.6207941287157
 20
641.5320411851642
 30
0.0
 40
5.000051000000001
100
AcDbArc
 50
105.0038660000003
 51
164.9961340000001
  0
ARC
  5
E7
330
17
100
AcDbEntity
  8
4
100
AcDbCircle
 10
433.2018431287156
 20
706.4509931851642
 30
0.0
 40
5.000002
100
AcDbArc
 50
270.0
 51
0.0
  0
LINE
  5
E8
330
17
100
AcDbEntity
  8
4
100
AcDbLine
 10
413.801941128716
 20
793.450987185164
 30
0.0
 11
438.2577551287159
 21
793.450987185164
 31
0.0
  0
ARC
  5
E9
330
17
100
AcDbEntity
  8
4
100
AcDbCircle
 10
413.801941128716
 20
792.4509911851635
 30
0.0
 40
1.000002
100
AcDbArc
 50
90.0
 51
180.0
  0
LINE
  5
EA
330
17
100
AcDbEntity
  8
4
100
AcDbLine
 10
473.2018451287158
 20
810.9509901851641
 30
0.0
 11
473.2018451287158
 21
826.9509881851639
 31
0.0
  0
ARC
  5
EB
330
17
100
AcDbEntity
  8
4
100
AcDbCircle
 10
473.7018481287159
 20
804.9509891851637
 30
0.0
 40
6.000001
100
AcDbArc
 50
0.0
 51
90.0
  0
LINE
  5
EC
330
17
100
AcDbEntity
  8
4
100
AcDbLine
 10
479.7018421287157
 20
804.9509891851637
 30
0.0
 11
479.7018421287157
 21
795.9509911851644
 31
0.0
  0
LINE
  5
ED
330
17
100
AcDbEntity
  8
4
100
AcDbLine
 10
474.2018441287159
 20
829.9509921851643
 30
0.0
 11
472.2018461287157
 21
828.9509931851642
 31
0.0
  0
LINE
  5
EE
330
17
100
AcDbEntity
  8
4
100
AcDbLine
 10
472.2018461287157
 20
826.9509881851639
 30
0.0
 11
472.2018461287157
 21
828.9509931851642
 31
0.0
  0
LINE
  5
F2
330
17
100
AcDbEntity
  8
L-CENTER
 48
2.0
100
AcDbLine
 10
565.201844128716
 20
817.0010481851639
 30
0.0
 11
565.201844128716
 21
775.9589566108441
 31
0.0
  0
LINE
  5
F3
330
17
100
AcDbEntity
  8
L-CENTER
 48
2.0
100
AcDbLine
 10
488.2018441287159
 20
835.5004941851641
 30
0.0
 11
488.2018441287159
 21
781.0927138092718
 31
0.0
  0
LINE
  5
F5
330
17
100
AcDbEntity
  8
4
100
AcDbLine
 10
1017.201847128716
 20
564.4509881851639
 30
0.0
 11
1017.201847128716
 21
793.4509901851641
 31
0.0
  0
LINE
  5
F7
330
17
100
AcDbEntity
  8
4
100
AcDbLine
 10
1037.601745128716
 20
792.4509911851635
 30
0.0
 11
1037.601745128716
 21
565.450987185164
 31
0.0
  0
LINE
  5
F8
330
17
100
AcDbEntity
  8
4
100
AcDbLine
 10
1012.201845128716
 20
706.4509931851642
 30
0.0
 11
1012.201845128715
 21
795.9509911851644
 31
0.0
  0
ARC
  5
F9
330
17
100
AcDbEntity
  8
4
100
AcDbCircle
 10
977.1701071287157
 20
446.0173931851639
 30
0.0
 40
3.999919
100
AcDbArc
 50
264.0019730000022
 51
13.8394639999992
  0
ARC
  5
FA
330
17
100
AcDbEntity
  8
4
100
AcDbCircle
 10
977.1701071287157
 20
321.8845801851642
 30
0.0
 40
3.999919
100
AcDbArc
 50
346.1605360000008
 51
95.99802599999295
  0
ARC
  5
FB
330
17
100
AcDbEntity
  8
4
100
AcDbCircle
 10
1110.201845128715
 20
383.9507451851641
 30
0.0
 40
499.999997
100
AcDbArc
 50
168.365257
 51
191.634886
  0
ARC
  5
FC
330
17
100
AcDbEntity
  8
4
100
AcDbCircle
 10
1117.201845128715
 20
383.9507451851641
 30
0.0
 40
499.999934
100
AcDbArc
 50
169.0540530000001
 51
190.946089
  0
ARC
  5
FD
330
17
100
AcDbEntity
  8
4
100
AcDbCircle
 10
340.2018451287158
 20
383.9507451851641
 30
0.0
 40
500.000018
100
AcDbArc
 50
348.365427
 51
11.63493999999998
  0
ARC
  5
FE
330
17
100
AcDbEntity
  8
4
100
AcDbCircle
 10
333.2018451287158
 20
383.9507451851641
 30
0.0
 40
499.999934
100
AcDbArc
 50
349.054196
 51
10.946232
  0
ARC
  5
FF
330
17
100
AcDbEntity
  8
4
100
AcDbCircle
 10
725.2018451287154
 20
775.9509901851641
 30
0.0
 40
500.000018
100
AcDbArc
 50
259.053998
 51
280.9461720000001
  0
ARC
  5
100
330
17
100
AcDbEntity
  8
4
100
AcDbCircle
 10
725.2018451287154
 20
768.9509901851641
 30
0.0
 40
500.000018
100
AcDbArc
 50
258.3652299999999
 51
281.63492
  0
LINE
  5
101
330
17
100
AcDbEntity
  8
4
100
AcDbLine
 10
505.2018481287159
 20
143.9509921851641
 30
0.0
 11
520.201847128716
 21
143.9509921851641
 31
0.0
  0
ARC
  5
102
330
17
100
AcDbEntity
  8
4
100
AcDbCircle
 10
625.3727451287159
 20
284.1218901851641
 30
0.0
 40
4.999939
100
AcDbArc
 50
191.6342
 51
258.3658
  0
ARC
  5
103
330
17
100
AcDbEntity
  8
4
100
AcDbCircle
 10
631.207952128716
 20
289.9570901851641
 30
0.0
 40
4.999910999999999
100
AcDbArc
 50
190.9467090000004
 51
259.0532890000006
  0
ARC
  5
104
330
17
100
AcDbEntity
  8
4
100
AcDbCircle
 10
643.0609751287157
 20
265.609193185164
 30
0.0
 40
10.000011
100
AcDbArc
 50
5.999267999999933
 51
80.73153799999903
  0
ARC
  5
105
330
17
100
AcDbEntity
  8
4
100
AcDbCircle
 10
606.860293128716
 20
466.0918601851643
 30
0.0
 40
9.999996999999999
100
AcDbArc
 50
275.9978719999987
 51
350.731537
  0
ARC
  5
106
330
17
100
AcDbEntity
  8
4
100
AcDbCircle
 10
606.8600481287158
 20
301.8101201851641
 30
0.0
 40
10.000011
100
AcDbArc
 50
9.26845599999964
 51
84.0007320000007
  0
ARC
  5
107
330
17
100
AcDbEntity
  8
4
100
AcDbCircle
 10
807.3427151287165
 20
265.609193185164
 30
0.0
 40
10.000011
100
AcDbArc
 50
99.2684560000036
 51
174.0007320000008
  0
ARC
  5
108
330
17
100
AcDbEntity
  8
4
100
AcDbCircle
 10
819.1957451287158
 20
289.9570901851641
 30
0.0
 40
4.999910999999999
100
AcDbArc
 50
280.9467110000047
 51
349.0532890000007
  0
ARC
  5
109
330
17
100
AcDbEntity
  8
4
100
AcDbCircle
 10
825.0309451287162
 20
284.1218901851641
 30
0.0
 40
4.999939
100
AcDbArc
 50
281.6341999999893
 51
348.3658
  0
LINE
  5
10A
330
17
100
AcDbEntity
  8
4
100
AcDbLine
 10
945.2018421287162
 20
143.9509921851641
 30
0.0
 11
930.2018431287165
 21
143.9509921851641
 31
0.0
  0
LINE
  5
10B
330
17
100
AcDbEntity
  8
4
100
AcDbLine
 10
842.4984791287156
 20
456.1467921851643
 30
0.0
 11
976.7521371287153
 21
442.0393701851642
 31
0.0
  0
LINE
  5
10C
330
17
100
AcDbEntity
  8
4
100
AcDbLine
 10
842.4984791287156
 20
311.7551881851641
 30
0.0
 11
976.7521371287153
 21
325.8626101851642
 31
0.0
  0
ARC
  5
10D
330
17
100
AcDbEntity
  8
4
100
AcDbCircle
 10
843.5436421287163
 20
301.8101201851641
 30
0.0
 40
10.000011
100
AcDbArc
 50
95.99926800000198
 51
170.7315440000017
  0
ARC
  5
10E
330
17
100
AcDbEntity
  8
4
100
AcDbCircle
 10
843.5433971287152
 20
466.0918601851643
 30
0.0
 40
9.999996999999999
100
AcDbArc
 50
189.2684620000003
 51
264.0021230000042
  0
ARC
  5
10F
330
17
100
AcDbEntity
  8
4
100
AcDbCircle
 10
725.2018451287154
 20
-8.049009814835927
 30
0.0
 40
500.000032
100
AcDbArc
 50
79.05382799999997
 51
100.946314
  0
ARC
  5
110
330
17
100
AcDbEntity
  8
4
100
AcDbCircle
 10
725.2018451287154
 20
-1.049009814835927
 30
0.0
 40
499.999976
100
AcDbArc
 50
78.36510699999998
 51
101.634858
  0
ARC
  5
111
330
17
100
AcDbEntity
  8
4
100
AcDbCircle
 10
625.3729901287156
 20
483.780090185164
 30
0.0
 40
4.999967000000001
100
AcDbArc
 50
101.6369389999988
 51
168.365800000001
  0
ARC
  5
112
330
17
100
AcDbEntity
  8
4
100
AcDbCircle
 10
631.207952128716
 20
477.9448831851639
 30
0.0
 40
4.999910999999999
100
AcDbArc
 50
100.9467089999976
 51
169.0532909999996
  0
ARC
  5
113
330
17
100
AcDbEntity
  8
4
100
AcDbCircle
 10
819.1957451287158
 20
477.9448831851639
 30
0.0
 40
4.999910999999999
100
AcDbArc
 50
10.94671099999932
 51
79.05329099999679
  0
ARC
  5
114
330
17
100
AcDbEntity
  8
4
100
AcDbCircle
 10
825.030700128716
 20
483.780090185164
 30
0.0
 40
4.999967000000001
100
AcDbArc
 50
11.63419999999898
 51
78.36306099999615
  0
LINE
  5
116
330
17
100
AcDbEntity
  8
4
100
AcDbLine
 10
1038.601747128716
 20
633.9509911851635
 30
0.0
 11
1038.601747128716
 21
667.9813340705612
 31
0.0
  0
LINE
  5
117
330
17
100
AcDbEntity
  8
4
100
AcDbLine
 10
1012.201845128715
 20
521.4636871851642
 30
0.0
 11
1012.201845128715
 21
651.4509921851643
 31
0.0
  0
LINE
  5
118
330
17
100
AcDbEntity
  8
L-CENTER
 48
2.0
100
AcDbLine
 10
1054.600717128715
 20
594.5137331851636
 30
0.0
 11
992.0197151287161
 21
594.5137331851636
 31
0.0
  0
ARC
  5
119
330
17
100
AcDbEntity
  8
4
100
AcDbCircle
 10
1036.601749128715
 20
565.450987185164
 30
0.0
 40
1.000002
100
AcDbArc
 50
270.0
 51
0.0
  0
LINE
  5
11A
330
17
100
AcDbEntity
  8
4
100
AcDbLine
 10
1036.601749128715
 20
564.4509911851635
 30
0.0
 11
1012.201845128715
 21
564.4509911851635
 31
0.0
  0
LINE
  5
11B
330
17
100
AcDbEntity
  8
4
100
AcDbLine
 10
1037.601745128716
 20
633.9509911851635
 30
0.0
 11
1038.601747128716
 21
633.9509911851635
 31
0.0
  0
LINE
  5
11C
330
17
100
AcDbEntity
  8
4
100
AcDbLine
 10
1055.201845128715
 20
647.4509891851637
 30
0.0
 11
1174.201843128717
 21
647.4509891851637
 31
0.0
  0
LINE
  5
11D
330
17
100
AcDbEntity
  8
4
100
AcDbLine
 10
1175.201845128715
 20
716.4509891851637
 30
0.0
 11
1065.201847128716
 21
716.4509891851637
 31
0.0
  0
LINE
  5
11E
330
17
100
AcDbEntity
  8
4
100
AcDbLine
 10
1055.201845128715
 20
710.4509891851637
 30
0.0
 11
1174.201843128717
 21
710.4509891851637
 31
0.0
  0
LINE
  5
11F
330
17
100
AcDbEntity
  8
4
100
AcDbLine
 10
1065.201847128716
 20
716.4509891851637
 30
0.0
 11
1065.201847128716
 21
710.4509891851637
 31
0.0
  0
LINE
  5
120
330
17
100
AcDbEntity
  8
4
100
AcDbLine
 10
1038.601747128716
 20
689.9206442997672
 30
0.0
 11
1038.601747128716
 21
723.950987185164
 31
0.0
  0
LINE
  5
121
330
17
100
AcDbEntity
  8
4
100
AcDbLine
 10
1055.201845128715
 20
711.4509911851635
 30
0.0
 11
1055.201845128715
 21
646.450987185164
 31
0.0
  0
LINE
  5
122
330
17
100
AcDbEntity
  8
4
100
AcDbLine
 10
1055.201845128715
 20
646.450987185164
 30
0.0
 11
1038.601747128716
 21
646.450987185164
 31
0.0
  0
ARC
  5
123
330
17
100
AcDbEntity
  8
4
100
AcDbCircle
 10
1017.201847128716
 20
651.4509921851643
 30
0.0
 40
5.000002
100
AcDbArc
 50
90.0
 51
180.0
  0
ARC
  5
124
330
17
100
AcDbEntity
  8
4
100
AcDbCircle
 10
982.7829031287151
 20
641.5320411851642
 30
0.0
 40
5.000051000000001
100
AcDbArc
 50
15.00386600000025
 51
74.996133999989
  0
ARC
  5
125
330
17
100
AcDbEntity
  8
4
100
AcDbCircle
 10
1017.201847128716
 20
706.4509931851642
 30
0.0
 40
5.000002
100
AcDbArc
 50
180.0
 51
270.0
  0
LINE
  5
126
330
17
100
AcDbEntity
  8
L-CENTER
 48
2.0
100
AcDbLine
 10
1054.600717128715
 20
763.3882451851639
 30
0.0
 11
992.0197151287161
 21
763.3882451851639
 31
0.0
  0
LINE
  5
127
330
17
100
AcDbEntity
  8
4
100
AcDbLine
 10
1055.201845128715
 20
711.4509911851635
 30
0.0
 11
1038.601747128716
 21
711.4509911851635
 31
0.0
  0
LINE
  5
128
330
17
100
AcDbEntity
  8
4
100
AcDbLine
 10
1037.601745128716
 20
723.950987185164
 30
0.0
 11
1038.601747128716
 21
723.950987185164
 31
0.0
  0
LINE
  5
129
330
17
100
AcDbEntity
  8
4
100
AcDbLine
 10
1175.201845128715
 20
716.4509891851637
 30
0.0
 11
1175.201845128715
 21
648.4509911851635
 31
0.0
  0
LINE
  5
12A
330
17
100
AcDbEntity
  8
4
100
AcDbLine
 10
1174.201843128717
 20
647.4509891851637
 30
0.0
 11
1174.201843128717
 21
710.4509891851637
 31
0.0
  0
LINE
  5
12B
330
17
100
AcDbEntity
  8
4
100
AcDbLine
 10
1174.201843128717
 20
647.4509891851637
 30
0.0
 11
1175.201845128715
 21
648.4509911851635
 31
0.0
  0
LINE
  5
12C
330
17
100
AcDbEntity
  8
4
100
AcDbLine
 10
1175.201845128715
 20
709.450987185164
 30
0.0
 11
1174.201843128717
 21
710.4509891851637
 31
0.0
  0
LINE
  5
130
330
17
100
AcDbEntity
  8
4
100
AcDbLine
 10
707.9157091287166
 20
816.9509911851644
 30
0.0
 11
742.487981128716
 21
816.9509911851644
 31
0.0
  0
LINE
  5
131
330
17
100
AcDbEntity
  8
4
100
AcDbLine
 10
725.2018451287154
 20
818.9509891851637
 30
0.0
 11
742.6937881287163
 21
816.939028185164
 31
0.0
  0
CIRCLE
  5
132
330
17
100
AcDbEntity
  8
4
100
AcDbCircle
 10
725.2018451287154
 20
843.9509921851643
 30
0.0
 40
25.000003
  0
LINE
  5
133
330
17
100
AcDbEntity
  8
4
100
AcDbLine
 10
702.7018431287165
 20
798.9509881851639
 30
0.0
 11
747.701847128716
 21
798.9509881851639
 31
0.0
  0
LINE
  5
134
330
17
100
AcDbEntity
  8
4
100
AcDbLine
 10
700.2018421287162
 20
798.9509881851639
 30
0.0
 11
750.2018481287164
 21
798.9509881851639
 31
0.0
  0
ARC
  5
135
330
17
100
AcDbEntity
  8
4
100
AcDbCircle
 10
725.2018451287154
 20
843.9509921851643
 30
0.0
 40
45.000011
100
AcDbArc
 50
307.2407440000011
 51
232.7601280000011
  0
LINE
  5
136
330
17
100
AcDbEntity
  8
L-CENTER
 48
2.0
100
AcDbLine
 10
670.2018441287155
 20
843.9509921851643
 30
0.0
 11
780.2018461287157
 21
843.9509921851643
 31
0.0
  0
LINE
  5
139
330
17
100
AcDbEntity
  8
4
100
AcDbLine
 10
542.2018461287157
 20
800.4509901851641
 30
0.0
 11
588.2018421287157
 21
800.4509901851641
 31
0.0
  0
LINE
  5
13A
330
17
100
AcDbEntity
  8
4
100
AcDbLine
 10
542.2018461287157
 20
804.4509931851642
 30
0.0
 11
588.2018421287157
 21
804.4509931851642
 31
0.0
  0
LINE
  5
13B
330
17
100
AcDbEntity
  8
4
100
AcDbLine
 10
540.2018481287159
 20
798.9509881851639
 30
0.0
 11
590.2018471287156
 21
798.9509881851639
 31
0.0
  0
LINE
  5
13C
330
17
100
AcDbEntity
  8
4
100
AcDbLine
 10
543.2018451287158
 20
798.9509881851639
 30
0.0
 11
587.2018431287161
 21
798.9509881851639
 31
0.0
  0
LINE
  5
13D
330
17
100
AcDbEntity
  8
4
100
AcDbLine
 10
542.2018461287157
 20
809.4509881851639
 30
0.0
 11
588.2018421287157
 21
809.4509881851639
 31
0.0
  0
LINE
  5
13E
330
17
100
AcDbEntity
  8
4
100
AcDbLine
 10
503.2018431287156
 20
810.9509901851641
 30
0.0
 11
503.2018431287156
 21
826.9509881851639
 31
0.0
  0
ARC
  5
13F
330
17
100
AcDbEntity
  8
4
100
AcDbCircle
 10
502.7018471287161
 20
804.9509891851637
 30
0.0
 40
6.000001
100
AcDbArc
 50
90.0
 51
180.0
  0
ARC
  5
140
330
17
100
AcDbEntity
  8
4
100
AcDbCircle
 10
492.4518451287158
 20
793.4197421851643
 30
0.0
 40
9.531249
100
AcDbArc
 50
63.51895999999864
 51
116.4810400000014
  0
LINE
  5
141
330
17
100
AcDbEntity
  8
4
100
AcDbLine
 10
496.7018461287157
 20
795.9509911851644
 30
0.0
 11
496.7018461287157
 21
804.9509891851637
 31
0.0
  0
LINE
  5
142
330
17
100
AcDbEntity
  8
4
100
AcDbLine
 10
488.2018441287159
 20
810.9509901851641
 30
0.0
 11
503.2018431287156
 21
810.9509901851641
 31
0.0
  0
LINE
  5
143
330
17
100
AcDbEntity
  8
4
100
AcDbLine
 10
488.2018441287159
 20
829.9509921851643
 30
0.0
 11
502.2018441287159
 21
829.9509921851643
 31
0.0
  0
LINE
  5
144
330
17
100
AcDbEntity
  8
4
100
AcDbLine
 10
488.2018441287159
 20
828.9509931851642
 30
0.0
 11
504.2018421287157
 21
828.9509931851642
 31
0.0
  0
LINE
  5
145
330
17
100
AcDbEntity
  8
4
100
AcDbLine
 10
504.2018421287157
 20
826.9509881851639
 30
0.0
 11
488.2018441287159
 21
826.9509881851639
 31
0.0
  0
LINE
  5
146
330
17
100
AcDbEntity
  8
4
100
AcDbLine
 10
502.2018441287159
 20
829.9509921851643
 30
0.0
 11
504.2018421287157
 21
828.9509931851642
 31
0.0
  0
LINE
  5
147
330
17
100
AcDbEntity
  8
4
100
AcDbLine
 10
504.2018421287157
 20
826.9509881851639
 30
0.0
 11
504.2018421287157
 21
828.9509931851642
 31
0.0
  0
LINE
  5
148
330
17
100
AcDbEntity
  8
4
100
AcDbLine
 10
542.2018461287157
 20
800.4509901851641
 30
0.0
 11
542.2018461287157
 21
809.4509881851639
 31
0.0
  0
LINE
  5
149
330
17
100
AcDbEntity
  8
4
100
AcDbLine
 10
543.2018451287158
 20
800.4509901851641
 30
0.0
 11
543.2018451287158
 21
798.9509881851639
 31
0.0
  0
LINE
  5
14A
330
17
100
AcDbEntity
  8
4
100
AcDbLine
 10
540.2018481287159
 20
795.9509911851644
 30
0.0
 11
540.2018481287159
 21
798.9509881851639
 31
0.0
  0
LINE
  5
14B
330
17
100
AcDbEntity
  8
4
100
AcDbLine
 10
576.7018431287161
 20
804.4509931851642
 30
0.0
 11
576.7018431287161
 21
809.4509881851639
 31
0.0
  0
LINE
  5
14C
330
17
100
AcDbEntity
  8
4
100
AcDbLine
 10
553.7018451287158
 20
804.4509931851642
 30
0.0
 11
553.7018451287158
 21
809.4509881851639
 31
0.0
  0
LINE
  5
14D
330
17
100
AcDbEntity
  8
4
100
AcDbLine
 10
588.2018421287157
 20
800.4509901851641
 30
0.0
 11
588.2018421287157
 21
809.4509881851639
 31
0.0
  0
LINE
  5
14E
330
17
100
AcDbEntity
  8
4
100
AcDbLine
 10
587.2018431287161
 20
800.4509901851641
 30
0.0
 11
587.2018431287161
 21
798.9509881851639
 31
0.0
  0
LINE
  5
14F
330
17
100
AcDbEntity
  8
4
100
AcDbLine
 10
590.2018471287156
 20
795.9509911851644
 30
0.0
 11
590.2018471287156
 21
798.9509881851639
 31
0.0
  0
ARC
  5
150
330
17
100
AcDbEntity
  8
4
100
AcDbCircle
 10
690.7079521287164
 20
798.5730581851637
 30
0.0
 40
12.000051
100
AcDbArc
 50
1.804767000000549
 51
52.7594130000015
  0
LINE
  5
151
330
17
100
AcDbEntity
  8
4
100
AcDbLine
 10
700.2018421287162
 20
795.9509911851644
 30
0.0
 11
700.2018421287162
 21
798.9509881851639
 31
0.0
  0
LINE
  5
152
330
17
100
AcDbEntity
  8
4
100
AcDbLine
 10
706.1535081287152
 20
815.5181261851637
 30
0.0
 11
702.7018431287165
 21
798.9509881851639
 31
0.0
  0
LINE
  5
153
330
17
100
AcDbEntity
  8
4
100
AcDbLine
 10
725.2018451287154
 20
818.9509891851637
 30
0.0
 11
707.7099021287163
 21
816.939028185164
 31
0.0
  0
ARC
  5
154
330
17
100
AcDbEntity
  8
4
100
AcDbCircle
 10
707.9157091287166
 20
815.1509411851641
 30
0.0
 40
1.80005
100
AcDbArc
 50
90.0
 51
168.2298250000008
  0
LINE
  5
159
330
17
100
AcDbEntity
  8
4
100
AcDbLine
 10
744.2501821287156
 20
815.5181261851637
 30
0.0
 11
747.701847128716
 21
798.9509881851639
 31
0.0
  0
ARC
  5
15A
330
17
100
AcDbEntity
  8
4
100
AcDbCircle
 10
759.6957451287158
 20
798.5730581851637
 30
0.0
 40
12.000051
100
AcDbArc
 50
127.2405869999985
 51
178.1952329999995
  0
LINE
  5
15B
330
17
100
AcDbEntity
  8
4
100
AcDbLine
 10
750.2018481287164
 20
795.9509911851644
 30
0.0
 11
750.2018481287164
 21
798.9509881851639
 31
0.0
  0
ARC
  5
15C
330
17
100
AcDbEntity
  8
4
100
AcDbCircle
 10
742.487981128716
 20
815.1509411851641
 30
0.0
 40
1.80005
100
AcDbArc
 50
11.7701750000063
 51
90.0
  0
LINE
  5
162
330
17
100
AcDbEntity
  8
4
100
AcDbLine
 10
1036.601749128715
 20
793.450987185164
 30
0.0
 11
1012.145935128716
 21
793.450987185164
 31
0.0
  0
ARC
  5
163
330
17
100
AcDbEntity
  8
4
100
AcDbCircle
 10
1036.601749128715
 20
792.4509911851635
 30
0.0
 40
1.000002
100
AcDbArc
 50
0.0
 51
90.0
  0
LINE
  5
16B
330
17
100
AcDbEntity
  8
4
100
AcDbLine
 10
1915.613677303691
 20
383.9509901851641
 30
0.0
 11
1915.613677303691
 21
108.9509921851641
 31
0.0
  0
LINE
  5
16C
330
17
100
AcDbEntity
  8
4
100
AcDbLine
 10
2007.613676303692
 20
98.95098818516408
 30
0.0
 11
1925.113678303691
 21
144.7843211851639
 31
0.0
  0
LINE
  5
16D
330
17
100
AcDbEntity
  8
4
100
AcDbLine
 10
1956.913579303691
 20
127.1177092187003
 30
0.0
 11
1956.913579303691
 21
678.450987185164
 31
0.0
  0
LINE
  5
16E
330
17
100
AcDbEntity
  8
4
100
AcDbLine
 10
1925.113678303691
 20
108.9509921851641
 30
0.0
 11
1925.113678303691
 21
678.9509891851637
 31
0.0
  0
LINE
  5
16F
330
17
100
AcDbEntity
  8
4
100
AcDbLine
 10
1613.613678303691
 20
98.95098818516408
 30
0.0
 11
1696.11367630369
 21
144.7843211851639
 31
0.0
  0
LINE
  5
170
330
17
100
AcDbEntity
  8
4
100
AcDbLine
 10
1705.613677303691
 20
383.9509901851641
 30
0.0
 11
1705.613677303691
 21
108.9509921851641
 31
0.0
  0
LINE
  5
171
330
17
100
AcDbEntity
  8
4
100
AcDbLine
 10
1696.11367630369
 20
108.9509921851641
 30
0.0
 11
1696.11367630369
 21
678.9509891851637
 31
0.0
  0
LINE
  5
172
330
17
100
AcDbEntity
  8
4
100
AcDbLine
 10
1666.613674303691
 20
128.3954311851642
 30
0.0
 11
1666.613674303691
 21
677.450987185164
 31
0.0
  0
LINE
  5
173
330
17
100
AcDbEntity
  8
L-CENTER
 48
2.0
100
AcDbLine
 10
1810.613677303691
 20
898.9509931851646
 30
0.0
 11
1810.613677303691
 21
25.49158818516412
 31
0.0
  0
LINE
  5
175
330
17
100
AcDbEntity
  8
4
100
AcDbLine
 10
2007.613676303692
 20
98.95098818516408
 30
0.0
 11
1613.613678303691
 21
98.95098818516408
 31
0.0
  0
LINE
  5
176
330
17
100
AcDbEntity
  8
4
100
AcDbLine
 10
2010.61368030369
 20
43.95098718516397
 30
0.0
 11
1610.613674303691
 21
43.95098718516397
 31
0.0
  0
LINE
  5
183
330
17
100
AcDbEntity
  8
4
100
AcDbLine
 10
1610.613674303691
 20
95.95099118516418
 30
0.0
 11
1610.613674303691
 21
43.95098718516397
 31
0.0
  0
LINE
  5
184
330
17
100
AcDbEntity
  8
L-CENTER
 48
2.0
100
AcDbLine
 10
1660.613680303692
 20
21.95098718516397
 30
0.0
 11
1660.613680303692
 21
120.9509881851641
 31
0.0
  0
LINE
  5
185
330
17
100
AcDbEntity
  8
4
100
AcDbLine
 10
1694.613674303691
 20
98.95098818516408
 30
0.0
 11
1613.613678303691
 21
98.95098818516408
 31
0.0
  0
ARC
  5
186
330
17
100
AcDbEntity
  8
4
100
AcDbCircle
 10
1613.613678303691
 20
95.95099118516418
 30
0.0
 40
2.999997
100
AcDbArc
 50
90.0
 51
180.0
  0
ARC
  5
187
330
17
100
AcDbEntity
  8
4
100
AcDbCircle
 10
1695.613680303692
 20
108.9509921851641
 30
0.0
 40
9.999996999999999
100
AcDbArc
 50
270.0
 51
0.0
  0
ARC
  5
188
330
17
100
AcDbEntity
  8
4
100
AcDbCircle
 10
1686.113679303691
 20
108.9509921851641
 30
0.0
 40
9.999996999999999
100
AcDbArc
 50
270.0
 51
0.0
  0
LINE
  5
18D
330
17
100
AcDbEntity
  8
L-CENTER
 48
2.0
100
AcDbLine
 10
1960.613674303691
 20
21.95098718516397
 30
0.0
 11
1960.613674303691
 21
120.9509881851641
 31
0.0
  0
ARC
  5
18E
330
17
100
AcDbEntity
  8
4
100
AcDbCircle
 10
1935.11367530369
 20
108.9509921851641
 30
0.0
 40
9.999996999999999
100
AcDbArc
 50
180.0
 51
270.0
  0
ARC
  5
18F
330
17
100
AcDbEntity
  8
4
100
AcDbCircle
 10
1925.613674303691
 20
108.9509921851641
 30
0.0
 40
9.999996999999999
100
AcDbArc
 50
180.0
 51
270.0
  0
LINE
  5
192
330
17
100
AcDbEntity
  8
4
100
AcDbLine
 10
2010.61368030369
 20
95.95099118516418
 30
0.0
 11
2010.61368030369
 21
43.95098718516397
 31
0.0
  0
ARC
  5
193
330
17
100
AcDbEntity
  8
4
100
AcDbCircle
 10
2007.613676303692
 20
95.95099118516418
 30
0.0
 40
2.999997
100
AcDbArc
 50
0.0
 51
90.0
  0
ARC
  5
199
330
17
100
AcDbEntity
  8
4
100
AcDbCircle
 10
1810.613677303691
 20
195.9509891851642
 30
0.0
 40
599.999953
100
AcDbArc
 50
80.281964
 51
99.71803699999995
  0
CIRCLE
  5
19A
330
17
100
AcDbEntity
  8
4
100
AcDbCircle
 10
1810.613677303691
 20
678.9509891851637
 30
0.0
 40
114.500001
  0
LINE
  5
19C
330
17
100
AcDbEntity
  8
L-CENTER
 48
2.0
100
AcDbLine
 10
1935.771361392433
 20
678.9509891851637
 30
0.0
 11
1685.455993214948
 21
678.9509891851637
 31
0.0
  0
LINE
  5
19D
330
17
100
AcDbEntity
  8
L-CENTER
 48
2.0
100
AcDbLine
 10
2182.475074664419
 20
383.9509901851641
 30
0.0
 11
1605.104081619962
 21
383.9509901851641
 31
0.0
  0
CIRCLE
  5
19E
330
17
100
AcDbEntity
  8
L-CENTER
 48
2.0
100
AcDbCircle
 10
1810.613677303691
 20
678.9509891851637
 30
0.0
 40
97.5
  0
LINE
  5
1A0
330
17
100
AcDbEntity
  8
4
100
AcDbLine
 10
1694.613674303691
 20
143.9509921851641
 30
0.0
 11
1694.613674303691
 21
680.4509911851644
 31
0.0
  0
LINE
  5
1A1
330
17
100
AcDbEntity
  8
4
100
AcDbLine
 10
1646.613680303692
 20
268.9509931851642
 30
0.0
 11
1646.613680303692
 21
498.950987185164
 31
0.0
  0
LINE
  5
1A2
330
17
100
AcDbEntity
  8
4
100
AcDbLine
 10
1620.613678303691
 20
275.9509931851642
 30
0.0
 11
1620.613678303691
 21
491.950987185164
 31
0.0
  0
LINE
  5
1A6
330
17
100
AcDbEntity
  8
4
100
AcDbLine
 10
1666.613674303691
 20
139.8206211851641
 30
0.0
 11
1646.613680303692
 21
268.9509931851642
 31
0.0
  0
LINE
  5
1A7
330
17
100
AcDbEntity
  8
4
100
AcDbLine
 10
1646.613680303692
 20
268.9509931851642
 30
0.0
 11
1620.613678303691
 21
275.9509931851642
 31
0.0
  0
LINE
  5
1AC
330
17
100
AcDbEntity
  8
4
100
AcDbLine
 10
1646.613680303692
 20
310.9509931851642
 30
0.0
 11
1666.613674303691
 21
326.4509881851643
 31
0.0
  0
LINE
  5
1AD
330
17
100
AcDbEntity
  8
4
100
AcDbLine
 10
1646.613680303692
 20
456.950987185164
 30
0.0
 11
1666.613674303691
 21
441.4509921851638
 31
0.0
  0
LINE
  5
1B3
330
17
100
AcDbEntity
  8
4
100
AcDbLine
 10
1666.613674303691
 20
628.081359185164
 30
0.0
 11
1646.613680303692
 21
498.950987185164
 31
0.0
  0
LINE
  5
1B4
330
17
100
AcDbEntity
  8
4
100
AcDbLine
 10
1646.613680303692
 20
498.950987185164
 30
0.0
 11
1620.613678303691
 21
491.950987185164
 31
0.0
  0
ARC
  5
1B7
330
17
100
AcDbEntity
  8
4
100
AcDbCircle
 10
2296.113678303691
 20
678.9509891851637
 30
0.0
 40
600.00003
100
AcDbArc
 50
169.986478
 51
180.0001859992476
  0
LINE
  5
1B8
330
17
100
AcDbEntity
  8
4
100
AcDbLine
 10
1694.613674303691
 20
677.450987185164
 30
0.0
 11
1666.613674303691
 21
677.450987185164
 31
0.0
  0
LINE
  5
1B9
330
17
100
AcDbEntity
  8
4
100
AcDbLine
 10
1696.115629303691
 20
680.4509911851644
 30
0.0
 11
1694.613674303691
 21
680.4509911851644
 31
0.0
  0
ARC
  5
1BA
330
17
100
AcDbEntity
  8
4
100
AcDbCircle
 10
1710.177887303691
 20
782.4129071851642
 30
0.0
 40
5.000002
100
AcDbArc
 50
99.71804499999627
 51
169.9839159999985
  0
LINE
  5
1BD
330
17
100
AcDbEntity
  8
4
100
AcDbLine
 10
1926.613680303692
 20
143.9509921851641
 30
0.0
 11
1926.613680303692
 21
680.4509911851644
 31
0.0
  0
LINE
  5
1BE
330
17
100
AcDbEntity
  8
4
100
AcDbLine
 10
1929.613677303691
 20
142.284320185164
 30
0.0
 11
1929.613677303691
 21
677.450987185164
 31
0.0
  0
LINE
  5
1BF
330
17
100
AcDbEntity
  8
4
100
AcDbLine
 10
1929.913677303691
 20
142.284320185164
 30
0.0
 11
1929.913677303691
 21
679.450987185164
 31
0.0
  0
LINE
  5
1C0
330
17
100
AcDbEntity
  8
4
100
AcDbLine
 10
2000.913577303691
 20
491.950987185164
 30
0.0
 11
2000.913577303691
 21
275.9509931851642
 31
0.0
  0
LINE
  5
1C1
330
17
100
AcDbEntity
  8
4
100
AcDbLine
 10
1974.91358230369
 20
498.950987185164
 30
0.0
 11
1974.91358230369
 21
268.9509931851642
 31
0.0
  0
LINE
  5
1C2
330
17
100
AcDbEntity
  8
4
100
AcDbLine
 10
2000.913577303691
 20
275.9509931851642
 30
0.0
 11
1974.91358230369
 21
268.9509931851642
 31
0.0
  0
LINE
  5
1C3
330
17
100
AcDbEntity
  8
4
100
AcDbLine
 10
1958.620056762118
 20
153.7325703458001
 30
0.0
 11
1974.91358230369
 21
268.9509931851642
 31
0.0
  0
LINE
  5
1C4
330
17
100
AcDbEntity
  8
4
100
AcDbLine
 10
1956.913579303691
 20
326.4509881851643
 30
0.0
 11
1974.91358230369
 21
310.9509931851642
 31
0.0
  0
LINE
  5
1C5
330
17
100
AcDbEntity
  8
4
100
AcDbLine
 10
1956.913579303691
 20
441.4509921851638
 30
0.0
 11
1974.91358230369
 21
456.950987185164
 31
0.0
  0
LINE
  5
1C6
330
17
100
AcDbEntity
  8
4
100
AcDbLine
 10
2010.61368030369
 20
430.450989185164
 30
0.0
 11
2168.613676303692
 21
430.450989185164
 31
0.0
  0
LINE
  5
1C7
330
17
100
AcDbEntity
  8
4
100
AcDbLine
 10
2170.613674303691
 20
438.4509881851641
 30
0.0
 11
2020.613677303691
 21
438.4509881851641
 31
0.0
  0
LINE
  5
1C8
330
17
100
AcDbEntity
  8
4
100
AcDbLine
 10
2010.61368030369
 20
337.4509911851642
 30
0.0
 11
2168.613676303692
 21
337.4509911851642
 31
0.0
  0
LINE
  5
1C9
330
17
100
AcDbEntity
  8
4
100
AcDbLine
 10
2001.913576303692
 20
448.9509931851642
 30
0.0
 11
2001.913576303692
 21
318.950987185164
 31
0.0
  0
LINE
  5
1CA
330
17
100
AcDbEntity
  8
4
100
AcDbLine
 10
2010.61368030369
 20
431.4509881851641
 30
0.0
 11
2010.61368030369
 21
336.4509921851641
 31
0.0
  0
LINE
  5
1CB
330
17
100
AcDbEntity
  8
4
100
AcDbLine
 10
2001.913576303692
 20
336.4509921851641
 30
0.0
 11
2010.61368030369
 21
336.4509921851641
 31
0.0
  0
LINE
  5
1CD
330
17
100
AcDbEntity
  8
4
100
AcDbLine
 10
2010.61368030369
 20
431.4509881851641
 30
0.0
 11
2001.913576303692
 21
431.4509881851641
 31
0.0
  0
LINE
  5
1CF
330
17
100
AcDbEntity
  8
4
100
AcDbLine
 10
2020.613677303691
 20
438.4509881851641
 30
0.0
 11
2020.613677303691
 21
430.450989185164
 31
0.0
  0
LINE
  5
1D1
330
17
100
AcDbEntity
  8
4
100
AcDbLine
 10
2168.613676303692
 20
430.450989185164
 30
0.0
 11
2168.613676303692
 21
337.4509911851642
 31
0.0
  0
LINE
  5
1D2
330
17
100
AcDbEntity
  8
4
100
AcDbLine
 10
2170.613674303691
 20
438.4509881851641
 30
0.0
 11
2170.613674303691
 21
339.450989185164
 31
0.0
  0
LINE
  5
1D3
330
17
100
AcDbEntity
  8
4
100
AcDbLine
 10
2168.613676303692
 20
337.4509911851642
 30
0.0
 11
2170.613674303691
 21
339.450989185164
 31
0.0
  0
LINE
  5
1D4
330
17
100
AcDbEntity
  8
4
100
AcDbLine
 10
2170.613674303691
 20
428.4509911851642
 30
0.0
 11
2168.613676303692
 21
430.450989185164
 31
0.0
  0
LINE
  5
1D5
330
17
100
AcDbEntity
  8
4
100
AcDbLine
 10
2000.913577303691
 20
491.950987185164
 30
0.0
 11
1974.91358230369
 21
498.950987185164
 31
0.0
  0
LINE
  5
1D6
330
17
100
AcDbEntity
  8
L-CENTER
 48
2.0
100
AcDbLine
 10
1869.442677824794
 20
577.0556231391929
 30
0.0
 11
1849.186517575901
 21
612.1404535496556
 31
0.0
  0
LINE
  5
1D7
330
17
100
AcDbEntity
  8
L-CENTER
 48
2.0
100
AcDbLine
 10
1772.04043930369
 20
612.1406831851634
 30
0.0
 11
1751.784226362699
 21
577.0558831892267
 31
0.0
  0
LINE
  5
1D8
330
17
100
AcDbEntity
  8
4
100
AcDbLine
 10
1958.620056762118
 20
614.1694100245279
 30
0.0
 11
1974.91358230369
 21
498.950987185164
 31
0.0
  0
LINE
  5
1D9
330
17
100
AcDbEntity
  8
L-CENTER
 48
2.0
100
AcDbLine
 10
1849.284181276323
 20
745.9308629568732
 30
0.0
 11
1869.442624063338
 21
780.8463862700955
 31
0.0
  0
LINE
  5
1DA
330
17
100
AcDbEntity
  8
4
100
AcDbLine
 10
1819.613677303691
 20
704.4509891851637
 30
0.0
 11
1819.613677303691
 21
716.4509891851637
 31
0.0
  0
LINE
  5
1DB
330
17
100
AcDbEntity
  8
4
100
AcDbLine
 10
1801.613677303691
 20
716.4509891851637
 30
0.0
 11
1801.613677303691
 21
704.4509891851637
 31
0.0
  0
ARC
  5
1DC
330
17
100
AcDbEntity
  8
4
100
AcDbCircle
 10
1810.613677303691
 20
678.9509891851637
 30
0.0
 40
31.50009
100
AcDbArc
 50
106.6015009999999
 51
73.3984990000001
  0
LINE
  5
1DD
330
17
100
AcDbEntity
  8
4
100
AcDbLine
 10
1819.613677303691
 20
704.4509891851637
 30
0.0
 11
1801.613677303691
 21
704.4509891851637
 31
0.0
  0
LINE
  5
1DE
330
17
100
AcDbEntity
  8
L-CENTER
 48
2.0
100
AcDbLine
 10
1751.784207389757
 20
780.8460842268487
 30
0.0
 11
1771.942620705331
 21
745.9305438983354
 31
0.0
  0
LINE
  5
1DF
330
17
100
AcDbEntity
  8
4
100
AcDbLine
 10
1819.613677303691
 20
716.4509891851637
 30
0.0
 11
1801.613677303691
 21
716.4509891851637
 31
0.0
  0
ARC
  5
1E0
330
17
100
AcDbEntity
  8
4
100
AcDbCircle
 10
1325.11367630369
 20
678.9509891851637
 30
0.0
 40
600.000023
100
AcDbArc
 50
0.000047004096946
 51
10.01378299999999
  0
LINE
  5
1E1
330
17
100
AcDbEntity
  8
4
100
AcDbLine
 10
1929.913677303691
 20
677.450987185164
 30
0.0
 11
1926.613680303692
 21
677.450987185164
 31
0.0
  0
LINE
  5
1E2
330
17
100
AcDbEntity
  8
4
100
AcDbLine
 10
1955.913579303691
 20
679.450987185164
 30
0.0
 11
1929.913677303691
 21
679.450987185164
 31
0.0
  0
LINE
  5
1E3
330
17
100
AcDbEntity
  8
4
100
AcDbLine
 10
1925.11172530369
 20
680.4509911851644
 30
0.0
 11
1926.613680303692
 21
680.4509911851644
 31
0.0
  0
ARC
  5
1E4
330
17
100
AcDbEntity
  8
4
100
AcDbCircle
 10
1911.04946730369
 20
782.4129071851642
 30
0.0
 40
5.000002
100
AcDbArc
 50
10.0160839999959
 51
80.28195499999303
  0
LINE
  5
1F6
330
17
100
AcDbEntity
  8
4
100
AcDbLine
 10
1820.613674303691
 20
829.9509921851643
 30
0.0
 11
1820.613674303691
 21
878.9509921851643
 31
0.0
  0
LINE
  5
1F7
330
17
100
AcDbEntity
  8
4
100
AcDbLine
 10
1800.613680303692
 20
829.9509921851643
 30
0.0
 11
1800.613680303692
 21
878.9509921851643
 31
0.0
  0
LINE
  5
1F8
330
17
100
AcDbEntity
  8
4
100
AcDbLine
 10
1791.56534030369
 20
815.5181261851637
 30
0.0
 11
1788.11367530369
 21
798.9509881851639
 31
0.0
  0
LINE
  5
1F9
330
17
100
AcDbEntity
  8
4
100
AcDbLine
 10
1788.11367530369
 20
798.9509881851639
 30
0.0
 11
1800.814118303691
 21
798.9509881851639
 31
0.0
  0
LINE
  5
1FA
330
17
100
AcDbEntity
  8
4
100
AcDbLine
 10
1788.613678303691
 20
798.9509881851639
 30
0.0
 11
1800.814118303691
 21
798.9509881851639
 31
0.0
  0
LINE
  5
1FB
330
17
100
AcDbEntity
  8
4
100
AcDbLine
 10
1788.613678303691
 20
798.9509881851639
 30
0.0
 11
1800.814118303691
 21
798.9509881851639
 31
0.0
  0
LINE
  5
1FC
330
17
100
AcDbEntity
  8
4
100
AcDbLine
 10
1800.814118303691
 20
798.9509881851639
 30
0.0
 11
1785.613674303691
 21
798.9509881851639
 31
0.0
  0
LINE
  5
1FD
330
17
100
AcDbEntity
  8
4
100
AcDbLine
 10
1789.363679303691
 20
804.9509891851637
 30
0.0
 11
1787.613679303691
 21
804.9509891851637
 31
0.0
  0
LINE
  5
1FE
330
17
100
AcDbEntity
  8
4
100
AcDbLine
 10
1787.613679303691
 20
800.9509931851642
 30
0.0
 11
1787.613679303691
 21
804.9509891851637
 31
0.0
  0
LINE
  5
1FF
330
17
100
AcDbEntity
  8
4
100
AcDbLine
 10
1785.613674303691
 20
795.4299951851642
 30
0.0
 11
1785.613674303691
 21
798.9509881851639
 31
0.0
  0
LINE
  5
200
330
17
100
AcDbEntity
  8
4
100
AcDbLine
 10
1788.530427303691
 20
800.9509931851642
 30
0.0
 11
1787.613679303691
 21
800.9509931851642
 31
0.0
  0
ARC
  5
201
330
17
100
AcDbEntity
  8
4
100
AcDbCircle
 10
1825.113680303692
 20
804.9509891851637
 30
0.0
 40
6.000001
100
AcDbArc
 50
90.0
 51
180.0
  0
ARC
  5
202
330
17
100
AcDbEntity
  8
4
100
AcDbCircle
 10
1817.963775303691
 20
799.449766185164
 30
0.0
 40
3.501197
100
AcDbArc
 50
45.59327200000384
 51
134.4067160000001
  0
LINE
  5
203
330
17
100
AcDbEntity
  8
4
100
AcDbLine
 10
1825.61367630369
 20
810.9509901851641
 30
0.0
 11
1795.613678303691
 21
810.9509901851641
 31
0.0
  0
LINE
  5
204
330
17
100
AcDbEntity
  8
4
100
AcDbLine
 10
1824.613677303691
 20
829.9509921851643
 30
0.0
 11
1796.613677303691
 21
829.9509921851643
 31
0.0
  0
LINE
  5
205
330
17
100
AcDbEntity
  8
4
100
AcDbLine
 10
1826.61367530369
 20
828.9509931851642
 30
0.0
 11
1794.613679303691
 21
828.9509931851642
 31
0.0
  0
LINE
  5
206
330
17
100
AcDbEntity
  8
4
100
AcDbLine
 10
1794.613679303691
 20
826.9509881851639
 30
0.0
 11
1826.61367530369
 21
826.9509881851639
 31
0.0
  0
LINE
  5
207
330
17
100
AcDbEntity
  8
4
100
AcDbLine
 10
1795.613678303691
 20
810.9509901851641
 30
0.0
 11
1795.613678303691
 21
826.9509881851639
 31
0.0
  0
LINE
  5
208
330
17
100
AcDbEntity
  8
4
100
AcDbLine
 10
1819.113679303691
 20
802.7568951851642
 30
0.0
 11
1819.113679303691
 21
804.9509891851637
 31
0.0
  0
ARC
  5
209
330
17
100
AcDbEntity
  8
4
100
AcDbCircle
 10
1796.113674303691
 20
804.9509891851637
 30
0.0
 40
6.000001
100
AcDbArc
 50
0.0
 51
90.0
  0
LINE
  5
20A
330
17
100
AcDbEntity
  8
4
100
AcDbLine
 10
1803.26406930369
 20
802.9509911851644
 30
0.0
 11
1817.963775303691
 21
802.9509911851644
 31
0.0
  0
ARC
  5
20B
330
17
100
AcDbEntity
  8
4
100
AcDbCircle
 10
1810.613677303691
 20
790.4461071851645
 30
0.0
 40
12.50508
100
AcDbArc
 50
66.93139999999451
 51
113.0686039999956
  0
LINE
  5
20C
330
17
100
AcDbEntity
  8
4
100
AcDbLine
 10
1805.714020303691
 20
795.9509911851644
 30
0.0
 11
1805.714020303691
 21
801.9509921851643
 31
0.0
  0
LINE
  5
20D
330
17
100
AcDbEntity
  8
4
100
AcDbLine
 10
1802.11367530369
 20
802.7566571851642
 30
0.0
 11
1802.11367530369
 21
804.9509891851637
 31
0.0
  0
LINE
  5
20E
330
17
100
AcDbEntity
  8
4
100
AcDbLine
 10
1800.814118303691
 20
795.9509911851644
 30
0.0
 11
1800.814118303691
 21
801.9509921851643
 31
0.0
  0
ARC
  5
20F
330
17
100
AcDbEntity
  8
4
100
AcDbCircle
 10
1803.26406930369
 20
799.449766185164
 30
0.0
 40
3.501197
100
AcDbArc
 50
45.59327199998539
 51
134.4067160000001
  0
LINE
  5
210
330
17
100
AcDbEntity
  8
4
100
AcDbLine
 10
1815.513824303691
 20
795.9509911851644
 30
0.0
 11
1815.513824303691
 21
801.9509921851643
 31
0.0
  0
LINE
  5
211
330
17
100
AcDbEntity
  8
4
100
AcDbLine
 10
1795.613678303691
 20
817.2256501851641
 30
0.0
 11
1793.121734303691
 21
816.939028185164
 31
0.0
  0
LINE
  5
212
330
17
100
AcDbEntity
  8
4
100
AcDbLine
 10
1795.613678303691
 20
816.9509911851644
 30
0.0
 11
1793.327541303692
 21
816.9509911851644
 31
0.0
  0
LINE
  5
213
330
17
100
AcDbEntity
  8
4
100
AcDbLine
 10
1796.613677303691
 20
829.9509921851643
 30
0.0
 11
1794.613679303691
 21
828.9509931851642
 31
0.0
  0
LINE
  5
214
330
17
100
AcDbEntity
  8
4
100
AcDbLine
 10
1794.613679303691
 20
826.9509881851639
 30
0.0
 11
1794.613679303691
 21
828.9509931851642
 31
0.0
  0
ARC
  5
215
330
17
100
AcDbEntity
  8
4
100
AcDbCircle
 10
1793.327541303692
 20
815.1509411851641
 30
0.0
 40
1.80005
100
AcDbArc
 50
90.0
 51
168.2298250000008
  0
LINE
  5
216
330
17
100
AcDbEntity
  8
4
100
AcDbLine
 10
1829.662014303691
 20
815.5181261851637
 30
0.0
 11
1833.113679303691
 21
798.9509881851639
 31
0.0
  0
LINE
  5
217
330
17
100
AcDbEntity
  8
4
100
AcDbLine
 10
1825.61367630369
 20
810.9509901851641
 30
0.0
 11
1825.61367630369
 21
826.9509881851639
 31
0.0
  0
LINE
  5
218
330
17
100
AcDbEntity
  8
4
100
AcDbLine
 10
1820.413726303692
 20
798.9509881851639
 30
0.0
 11
1833.113679303691
 21
798.9509881851639
 31
0.0
  0
LINE
  5
219
330
17
100
AcDbEntity
  8
4
100
AcDbLine
 10
1820.413726303692
 20
798.9509881851639
 30
0.0
 11
1832.61367630369
 21
798.9509881851639
 31
0.0
  0
LINE
  5
21A
330
17
100
AcDbEntity
  8
4
100
AcDbLine
 10
1820.413726303692
 20
798.9509881851639
 30
0.0
 11
1832.61367630369
 21
798.9509881851639
 31
0.0
  0
LINE
  5
21B
330
17
100
AcDbEntity
  8
4
100
AcDbLine
 10
1820.413726303692
 20
798.9509881851639
 30
0.0
 11
1835.613680303692
 21
798.9509881851639
 31
0.0
  0
LINE
  5
21C
330
17
100
AcDbEntity
  8
4
100
AcDbLine
 10
1820.413726303692
 20
795.9509911851644
 30
0.0
 11
1820.413726303692
 21
801.9509921851643
 31
0.0
  0
LINE
  5
21D
330
17
100
AcDbEntity
  8
4
100
AcDbLine
 10
1831.86367530369
 20
804.9509891851637
 30
0.0
 11
1833.61367530369
 21
804.9509891851637
 31
0.0
  0
LINE
  5
21E
330
17
100
AcDbEntity
  8
4
100
AcDbLine
 10
1832.69692730369
 20
800.9509931851642
 30
0.0
 11
1833.61367530369
 21
800.9509931851642
 31
0.0
  0
LINE
  5
21F
330
17
100
AcDbEntity
  8
4
100
AcDbLine
 10
1833.61367530369
 20
800.9509931851642
 30
0.0
 11
1833.61367530369
 21
804.9509891851637
 31
0.0
  0
LINE
  5
220
330
17
100
AcDbEntity
  8
4
100
AcDbLine
 10
1835.613680303692
 20
795.4299951851642
 30
0.0
 11
1835.613680303692
 21
798.9509881851639
 31
0.0
  0
ARC
  5
221
330
17
100
AcDbEntity
  8
4
100
AcDbCircle
 10
1827.899813303691
 20
815.1509411851641
 30
0.0
 40
1.80005
100
AcDbArc
 50
11.7701750000063
 51
90.0
  0
LINE
  5
222
330
17
100
AcDbEntity
  8
4
100
AcDbLine
 10
1825.61367630369
 20
817.2256501851641
 30
0.0
 11
1828.105620303691
 21
816.939028185164
 31
0.0
  0
LINE
  5
223
330
17
100
AcDbEntity
  8
4
100
AcDbLine
 10
1825.61367630369
 20
816.9509911851644
 30
0.0
 11
1827.899813303691
 21
816.9509911851644
 31
0.0
  0
LINE
  5
224
330
17
100
AcDbEntity
  8
4
100
AcDbLine
 10
1826.61367530369
 20
826.9509881851639
 30
0.0
 11
1826.61367530369
 21
828.9509931851642
 31
0.0
  0
LINE
  5
225
330
17
100
AcDbEntity
  8
4
100
AcDbLine
 10
1824.613677303691
 20
829.9509921851643
 30
0.0
 11
1826.61367530369
 21
828.9509931851642
 31
0.0
  0
LINE
  5
226
330
17
100
AcDbEntity
  8
L-CENTER
 48
2.0
100
AcDbLine
 10
1831.810027730259
 20
843.9509921851643
 30
0.0
 11
1789.417326877122
 21
843.9509921851643
 31
0.0
  0
ARC
  5
227
330
17
100
AcDbEntity
  8
4
100
AcDbCircle
 10
1810.613677303691
 20
878.9509921851643
 30
0.0
 40
9.999996999999999
100
AcDbArc
 50
0.0
 51
180.0
  0
LINE
  5
230
330
17
100
AcDbEntity
  8
4
100
AcDbLine
 10
1055.201845128715
 20
1720.994306869152
 30
0.0
 11
940.2018451287154
 21
1720.994306869152
 31
0.0
  0
LINE
  5
231
330
17
100
AcDbEntity
  8
4
100
AcDbLine
 10
1055.201845128715
 20
1320.994306869152
 30
0.0
 11
940.2018451287154
 21
1320.994306869152
 31
0.0
  0
LINE
  5
232
330
17
100
AcDbEntity
  8
L-CENTER
 48
2.0
100
AcDbLine
 10
1187.410589130079
 20
1520.994306869152
 30
0.0
 11
262.9931011273521
 21
1520.994306869152
 31
0.0
  0
LINE
  5
233
330
17
100
AcDbEntity
  8
4
100
AcDbLine
 10
510.2018451287158
 20
1720.994306869151
 30
0.0
 11
395.2018451287158
 21
1720.994306869152
 31
0.0
  0
LINE
  5
234
330
17
100
AcDbEntity
  8
L-CENTER
 48
2.0
100
AcDbLine
 10
472.5018451287169
 20
1670.994306869152
 30
0.0
 11
417.9018451287166
 21
1670.994306869152
 31
0.0
  0
ARC
  5
235
330
17
100
AcDbEntity
  8
4
100
AcDbCircle
 10
445.2018451287158
 20
1670.994306869152
 30
0.0
 40
13.0
100
AcDbArc
 50
343.5777460805699
 51
16.42225391942804
  0
LINE
  5
236
330
17
100
AcDbEntity
  8
L-CENTER
 48
2.0
100
AcDbLine
 10
472.501845128716
 20
1370.994306869152
 30
0.0
 11
417.9018451287156
 21
1370.994306869152
 31
0.0
  0
LINE
  5
237
330
17
100
AcDbEntity
  8
4
100
AcDbLine
 10
510.2018451287158
 20
1320.994306869151
 30
0.0
 11
395.2018451287158
 21
1320.994306869151
 31
0.0
  0
ARC
  5
238
330
17
100
AcDbEntity
  8
4
100
AcDbCircle
 10
445.2018451287158
 20
1370.994306869152
 30
0.0
 40
13.0
100
AcDbArc
 50
152.5135737496188
 51
27.48642625038124
  0
LINE
  5
239
330
17
100
AcDbEntity
  8
4
100
AcDbLine
 10
385.2018451287158
 20
1710.994306869152
 30
0.0
 11
385.2018451287158
 21
1552.494306869152
 31
0.0
  0
ARC
  5
23A
330
17
100
AcDbEntity
  8
4
100
AcDbCircle
 10
395.2018451287158
 20
1330.994306869152
 30
0.0
 40
10.0
100
AcDbArc
 50
180.0
 51
270.0
  0
LINE
  5
23B
330
17
100
AcDbEntity
  8
L-CENTER
 48
2.0
100
AcDbLine
 10
445.2018451287158
 20
1398.294306869152
 30
0.0
 11
445.2018451287158
 21
1343.694306869152
 31
0.0
  0
LINE
  5
23C
330
17
100
AcDbEntity
  8
L-CENTER
 48
2.0
100
AcDbLine
 10
445.2018451287158
 20
1698.294306869152
 30
0.0
 11
445.2018451287158
 21
1643.694306869152
 31
0.0
  0
ARC
  5
23D
330
17
100
AcDbEntity
  8
4
100
AcDbCircle
 10
395.2018451287158
 20
1710.994306869152
 30
0.0
 40
10.0
100
AcDbArc
 50
90.0
 51
180.0
  0
LINE
  5
23E
330
17
100
AcDbEntity
  8
L-CENTER
 48
2.0
100
AcDbLine
 10
725.2018451287154
 20
1893.8703025216
 30
0.0
 11
725.2018451287154
 21
1318.138552853876
 31
0.0
  0
LINE
  5
23F
330
17
100
AcDbEntity
  8
4
100
AcDbLine
 10
618.7346008237673
 20
1330.994306869152
 30
0.0
 11
831.6690894336648
 21
1330.994306869152
 31
0.0
  0
LINE
  5
240
330
17
100
AcDbEntity
  8
4
100
AcDbLine
 10
431.7018451287158
 20
1376.994306869152
 30
0.0
 11
1018.701845128715
 21
1376.994306869152
 31
0.0
  0
LINE
  5
241
330
17
100
AcDbEntity
  8
4
100
AcDbLine
 10
481.0714103461078
 20
1376.994306869152
 30
0.0
 11
608.9152078330662
 21
1357.193584026054
 31
0.0
  0
LINE
  5
242
330
17
100
AcDbEntity
  8
4
100
AcDbLine
 10
468.0044025833672
 20
1376.994306869152
 30
0.0
 11
610.7704365475811
 21
1354.882395884795
 31
0.0
  0
LINE
  5
243
330
17
100
AcDbEntity
  8
4
100
AcDbLine
 10
520.2018451287158
 20
1368.909854488391
 30
0.0
 11
520.2018451287158
 21
1330.994306869152
 31
0.0
  0
ARC
  5
244
330
17
100
AcDbEntity
  8
4
100
AcDbCircle
 10
510.2018451287158
 20
1330.994306869152
 30
0.0
 40
10.0
100
AcDbArc
 50
270.0
 51
0.0
  0
LINE
  5
245
330
17
100
AcDbEntity
  8
4
100
AcDbLine
 10
616.8033693067264
 20
1332.474359922256
 30
0.0
 11
610.5403248920293
 21
1355.737096319703
 31
0.0
  0
ARC
  5
246
330
17
100
AcDbEntity
  8
4
100
AcDbCircle
 10
618.7346008237673
 20
1332.994306869152
 30
0.0
 40
2.0
100
AcDbArc
 50
195.0684881594917
 51
270.0
  0
ARC
  5
247
330
17
100
AcDbEntity
  8
4
100
AcDbCircle
 10
608.6090933749883
 20
1355.217149372806
 30
0.0
 40
2.0
100
AcDbArc
 50
15.06848815950512
 51
81.19586074785528
  0
LINE
  5
248
330
17
100
AcDbEntity
  8
4
100
AcDbLine
 10
833.6003209507057
 20
1332.474359922256
 30
0.0
 11
839.8633653654019
 21
1355.737096319703
 31
0.0
  0
LINE
  5
249
330
17
100
AcDbEntity
  8
4
100
AcDbLine
 10
930.2018451287154
 20
1368.909854488391
 30
0.0
 11
930.2018451287154
 21
1330.994306869152
 31
0.0
  0
ARC
  5
24A
330
17
100
AcDbEntity
  8
4
100
AcDbCircle
 10
831.6690894336648
 20
1332.994306869152
 30
0.0
 40
2.0
100
AcDbArc
 50
270.0
 51
344.9315118405075
  0
ARC
  5
24B
330
17
100
AcDbEntity
  8
4
100
AcDbCircle
 10
940.2018451287154
 20
1330.994306869152
 30
0.0
 40
10.0
100
AcDbArc
 50
180.0
 51
270.0
  0
LINE
  5
24C
330
17
100
AcDbEntity
  8
4
100
AcDbLine
 10
982.3992876740645
 20
1376.994306869152
 30
0.0
 11
839.6332537098501
 21
1354.882395884795
 31
0.0
  0
LINE
  5
24D
330
17
100
AcDbEntity
  8
4
100
AcDbLine
 10
969.3322799113234
 20
1376.994306869152
 30
0.0
 11
841.4884824243659
 21
1357.193584026054
 31
0.0
  0
ARC
  5
24E
330
17
100
AcDbEntity
  8
4
100
AcDbCircle
 10
841.7945968824429
 20
1355.217149372806
 30
0.0
 40
2.0
100
AcDbArc
 50
98.80413925211897
 51
164.931511840494
  0
LINE
  5
24F
330
17
100
AcDbEntity
  8
4
100
AcDbLine
 10
520.2018451287158
 20
1710.994306869151
 30
0.0
 11
520.2018451287158
 21
1680.294306869144
 31
0.0
  0
ARC
  5
250
330
17
100
AcDbEntity
  8
4
100
AcDbCircle
 10
510.2018451287158
 20
1710.994306869151
 30
0.0
 40
10.0
100
AcDbArc
 50
0.0
 51
90.0
  0
LINE
  5
251
330
17
100
AcDbEntity
  8
4
100
AcDbLine
 10
930.2018451287154
 20
1710.994306869152
 30
0.0
 11
930.2018451287154
 21
1674.58693310904
 31
0.0
  0
ARC
  5
252
330
17
100
AcDbEntity
  8
4
100
AcDbCircle
 10
940.2018451287154
 20
1710.994306869152
 30
0.0
 40
10.0
100
AcDbArc
 50
90.0
 51
180.0
  0
LINE
  5
253
330
17
100
AcDbEntity
  8
4
100
AcDbLine
 10
1065.201845128715
 20
1710.994306869152
 30
0.0
 11
1065.201845128715
 21
1552.494306869152
 31
0.0
  0
ARC
  5
254
330
17
100
AcDbEntity
  8
4
100
AcDbCircle
 10
1055.201845128715
 20
1330.994306869152
 30
0.0
 40
10.0
100
AcDbArc
 50
270.0
 51
0.0
  0
LINE
  5
255
330
17
100
AcDbEntity
  8
L-CENTER
 48
2.0
100
AcDbLine
 10
1032.501845128715
 20
1370.994306869152
 30
0.0
 11
977.9018451287161
 21
1370.994306869152
 31
0.0
  0
ARC
  5
256
330
17
100
AcDbEntity
  8
4
100
AcDbCircle
 10
1005.201845128715
 20
1370.994306869152
 30
0.0
 40
13.0
100
AcDbArc
 50
152.5135737496163
 51
27.48642625037921
  0
LINE
  5
257
330
17
100
AcDbEntity
  8
L-CENTER
 48
2.0
100
AcDbLine
 10
1005.201845128715
 20
1398.294306869152
 30
0.0
 11
1005.201845128715
 21
1343.694306869152
 31
0.0
  0
ARC
  5
258
330
17
100
AcDbEntity
  8
4
100
AcDbCircle
 10
1005.201845128715
 20
1670.994306869152
 30
0.0
 40
13.0
100
AcDbArc
 50
343.4641403460575
 51
146.7543667683544
  0
LINE
  5
259
330
17
100
AcDbEntity
  8
L-CENTER
 48
2.0
100
AcDbLine
 10
1005.201845128715
 20
1698.294306869152
 30
0.0
 11
1005.201845128715
 21
1643.694306869152
 31
0.0
  0
LINE
  5
25A
330
17
100
AcDbEntity
  8
L-CENTER
 48
2.0
100
AcDbLine
 10
1032.501845128716
 20
1670.994306869152
 30
0.0
 11
977.9018451287161
 21
1670.994306869152
 31
0.0
  0
ARC
  5
25B
330
17
100
AcDbEntity
  8
4
100
AcDbCircle
 10
1055.201845128715
 20
1710.994306869152
 30
0.0
 40
10.0
100
AcDbArc
 50
0.0
 51
90.0
  0
LINE
  5
25C
330
17
100
AcDbEntity
  8
4
 48
2.0
100
AcDbLine
 10
1017.201845128715
 20
1635.494306869152
 30
0.0
 11
433.2018451287158
 21
1635.494306869152
 31
0.0
  0
LINE
  5
25D
330
17
100
AcDbEntity
  8
4
100
AcDbLine
 10
1017.201845128715
 20
1406.494306869152
 30
0.0
 11
433.2018451287158
 21
1406.494306869152
 31
0.0
  0
LINE
  5
25E
330
17
100
AcDbEntity
  8
4
100
AcDbLine
 10
433.2018451287158
 20
1635.494306869152
 30
0.0
 11
433.2018451287158
 21
1406.494306869152
 31
0.0
  0
LINE
  5
25F
330
17
100
AcDbEntity
  8
4
100
AcDbLine
 10
1017.201845128715
 20
1635.494306869152
 30
0.0
 11
1017.201845128715
 21
1406.494306869152
 31
0.0
  0
LINE
  5
260
330
17
100
AcDbEntity
  8
4
100
AcDbLine
 10
1012.201845128715
 20
1635.494306869152
 30
0.0
 11
1012.201845128715
 21
1406.494306869152
 31
0.0
  0
LINE
  5
261
330
17
100
AcDbEntity
  8
4
100
AcDbLine
 10
438.2018451287158
 20
1635.494306869152
 30
0.0
 11
438.2018451287158
 21
1406.494306869152
 31
0.0
  0
LINE
  5
262
330
17
100
AcDbEntity
  8
4
100
AcDbLine
 10
1021.701845128715
 20
1636.994306869152
 30
0.0
 11
428.7018451287158
 21
1636.994306869152
 31
0.0
  0
LINE
  5
263
330
17
100
AcDbEntity
  8
4
100
AcDbLine
 10
1021.701845128715
 20
1404.994306869152
 30
0.0
 11
428.7018451287158
 21
1404.994306869152
 31
0.0
  0
LINE
  5
264
330
17
100
AcDbEntity
  8
4
100
AcDbLine
 10
1021.701845128715
 20
1636.994306869152
 30
0.0
 11
1021.701845128715
 21
1635.494306869152
 31
0.0
  0
LINE
  5
265
330
17
100
AcDbEntity
  8
4
100
AcDbLine
 10
428.7018451287158
 20
1636.994306869152
 30
0.0
 11
428.7018451287158
 21
1635.494306869152
 31
0.0
  0
LINE
  5
266
330
17
100
AcDbEntity
  8
4
100
AcDbLine
 10
1018.701845128715
 20
1639.994306869152
 30
0.0
 11
431.7018451287158
 21
1639.994306869152
 31
0.0
  0
LINE
  5
267
330
17
100
AcDbEntity
  8
4
100
AcDbLine
 10
431.7018451287158
 20
1639.994306869152
 30
0.0
 11
431.7018451287158
 21
1636.994306869152
 31
0.0
  0
LINE
  5
268
330
17
100
AcDbEntity
  8
4
100
AcDbLine
 10
1018.701845128715
 20
1639.994306869152
 30
0.0
 11
1018.701845128715
 21
1636.994306869152
 31
0.0
  0
LINE
  5
269
330
17
100
AcDbEntity
  8
4
100
AcDbLine
 10
1018.701845128715
 20
1404.994306869152
 30
0.0
 11
1018.701845128715
 21
1376.994306869152
 31
0.0
  0
LINE
  5
26A
330
17
100
AcDbEntity
  8
4
100
AcDbLine
 10
431.7018451287158
 20
1404.994306869152
 30
0.0
 11
431.7018451287158
 21
1376.994306869152
 31
0.0
  0
LINE
  5
26B
330
17
100
AcDbEntity
  8
4
100
AcDbLine
 10
617.9682229762416
 20
1685.294306869144
 30
0.0
 11
832.4354672811901
 21
1685.294306869144
 31
0.0
  0
LINE
  5
26C
330
17
100
AcDbEntity
  8
4
100
AcDbLine
 10
660.2018451287158
 20
1712.294306869144
 30
0.0
 11
790.2018451287163
 21
1712.294306869144
 31
0.0
  0
LINE
  5
26D
330
17
100
AcDbEntity
  8
4
100
AcDbLine
 10
617.9682229762416
 20
1711.294306869144
 30
0.0
 11
832.4354672811901
 21
1711.294306869144
 31
0.0
  0
LINE
  5
26E
330
17
100
AcDbEntity
  8
4
100
AcDbLine
 10
430.7018451287154
 20
1667.294306869144
 30
0.0
 11
1019.701845128715
 21
1667.294306869144
 31
0.0
  0
LINE
  5
26F
330
17
100
AcDbEntity
  8
4
100
AcDbLine
 10
429.7018451287158
 20
1640.294306869144
 30
0.0
 11
1020.701845128715
 21
1640.294306869161
 31
0.0
  0
LINE
  5
270
330
17
100
AcDbEntity
  8
4
100
AcDbLine
 10
429.7018451287154
 20
1640.294306869144
 30
0.0
 11
429.7018451287154
 21
1666.294306869144
 31
0.0
  0
ARC
  5
271
330
17
100
AcDbEntity
  8
4
100
AcDbCircle
 10
430.7018451287154
 20
1666.294306869144
 30
0.0
 40
1.0
100
AcDbArc
 50
90.0
 51
180.0
  0
LINE
  5
272
330
17
100
AcDbEntity
  8
L-CENTER
 48
2.0
100
AcDbLine
 10
520.2018451287158
 20
1648.0028896902
 30
0.0
 11
520.2018451287158
 21
1689.30522923485
 31
0.0
  0
LINE
  5
273
330
17
100
AcDbEntity
  8
4
100
AcDbLine
 10
482.9161308429989
 20
1667.294306869144
 30
0.0
 11
608.8940344827497
 21
1685.109363949513
 31
0.0
  0
LINE
  5
274
330
17
100
AcDbEntity
  8
4
100
AcDbLine
 10
468.6325595751641
 20
1667.294306869144
 30
0.0
 11
609.9218031192631
 21
1687.274603935986
 31
0.0
  0
LINE
  5
275
330
17
100
AcDbEntity
  8
4
100
AcDbLine
 10
545.2018451287158
 20
1680.294306869144
 30
0.0
 11
495.2018451287158
 21
1680.294306869144
 31
0.0
  0
LINE
  5
276
330
17
100
AcDbEntity
  8
4
100
AcDbLine
 10
495.2018451287158
 20
1671.051579573686
 30
0.0
 11
495.2018451287158
 21
1680.294306869144
 31
0.0
  0
LINE
  5
277
330
17
100
AcDbEntity
  8
4
100
AcDbLine
 10
545.2018451287158
 20
1678.122286644394
 30
0.0
 11
545.2018451287158
 21
1680.294306869144
 31
0.0
  0
LINE
  5
278
330
17
100
AcDbEntity
  8
4
100
AcDbLine
 10
610.5452239903389
 20
1686.56971406946
 30
0.0
 11
617.0026072177207
 21
1710.554280342593
 31
0.0
  0
ARC
  5
279
330
17
100
AcDbEntity
  8
4
100
AcDbCircle
 10
608.6139924732975
 20
1687.089661016355
 30
0.0
 40
2.0
100
AcDbArc
 50
278.0490617016718
 51
344.931511840494
  0
ARC
  5
27A
330
17
100
AcDbEntity
  8
4
100
AcDbCircle
 10
617.9682229762416
 20
1710.294306869144
 30
0.0
 40
1.0
100
AcDbArc
 50
90.0
 51
164.9315118405208
  0
LINE
  5
27B
330
17
100
AcDbEntity
  8
4
100
AcDbLine
 10
660.2018451287158
 20
1711.294306869144
 30
0.0
 11
660.2018451287158
 21
1712.294306869144
 31
0.0
  0
LINE
  5
27C
330
17
100
AcDbEntity
  8
4
100
AcDbLine
 10
967.487559414431
 20
1667.294306869144
 30
0.0
 11
841.5096557746815
 21
1685.109363949513
 31
0.0
  0
LINE
  5
27D
330
17
100
AcDbEntity
  8
4
100
AcDbLine
 10
981.7711306822689
 20
1667.294306869144
 30
0.0
 11
840.4818871381681
 21
1687.274603935986
 31
0.0
  0
LINE
  5
27E
330
17
100
AcDbEntity
  8
4
100
AcDbLine
 10
725.2018451287154
 20
1640.394306869144
 30
0.0
 11
725.2018451287154
 21
1640.394306869144
 31
0.0
  0
LINE
  5
27F
330
17
100
AcDbEntity
  8
4
100
AcDbLine
 10
725.2018451287154
 20
1640.394306869144
 30
0.0
 11
725.2018451287154
 21
1640.394306869144
 31
0.0
  0
LINE
  5
280
330
17
100
AcDbEntity
  8
4
100
AcDbLine
 10
750.2018451287154
 20
1669.637438159545
 30
0.0
 11
700.2018451287154
 21
1669.637438159545
 31
0.0
  0
LINE
  5
281
330
17
100
AcDbEntity
  8
4
100
AcDbLine
 10
750.2018451287154
 20
1677.294306869144
 30
0.0
 11
700.2018451287154
 21
1677.294306869144
 31
0.0
  0
LINE
  5
282
330
17
100
AcDbEntity
  8
4
100
AcDbLine
 10
700.2018451287154
 20
1677.294306869144
 30
0.0
 11
700.2018451287154
 21
1669.637438159545
 31
0.0
  0
LINE
  5
283
330
17
100
AcDbEntity
  8
4
100
AcDbLine
 10
750.2018451287154
 20
1677.294306869144
 30
0.0
 11
750.2018451287154
 21
1669.637438159545
 31
0.0
  0
LINE
  5
284
330
17
100
AcDbEntity
  8
4
100
AcDbLine
 10
790.2018451287172
 20
1711.294306869144
 30
0.0
 11
790.2018451287163
 21
1712.294306869144
 31
0.0
  0
LINE
  5
285
330
17
100
AcDbEntity
  8
4
100
AcDbLine
 10
839.8584662670924
 20
1686.56971406946
 30
0.0
 11
833.4010830397106
 21
1710.554280342593
 31
0.0
  0
ARC
  5
286
330
17
100
AcDbEntity
  8
4
100
AcDbCircle
 10
841.7896977841342
 20
1687.089661016355
 30
0.0
 40
2.0
100
AcDbArc
 50
195.068488159506
 51
261.9509382983153
  0
ARC
  5
287
330
17
100
AcDbEntity
  8
4
100
AcDbCircle
 10
832.4354672811901
 20
1710.294306869144
 30
0.0
 40
1.0
100
AcDbArc
 50
15.06848815947916
 51
90.0
  0
LINE
  5
288
330
17
100
AcDbEntity
  8
4
100
AcDbLine
 10
1020.701845128715
 20
1640.294306869144
 30
0.0
 11
1020.701845128715
 21
1666.294306869144
 31
0.0
  0
ARC
  5
289
330
17
100
AcDbEntity
  8
4
100
AcDbCircle
 10
1019.701845128715
 20
1666.294306869144
 30
0.0
 40
1.0
100
AcDbArc
 50
0.0
 51
90.0
  0
LINE
  5
28A
330
17
100
AcDbEntity
  8
4
100
AcDbLine
 10
1771.363414047544
 20
757.9034865052906
 30
0.0
 11
1771.363414047544
 21
768.8731416198932
 31
0.0
  0
LINE
  5
28B
330
17
100
AcDbEntity
  8
4
100
AcDbLine
 10
1752.363414047544
 20
768.8731416198932
 30
0.0
 11
1752.363414047544
 21
757.9034865052906
 31
0.0
  0
CIRCLE
  5
28C
330
17
100
AcDbEntity
  8
4
100
AcDbCircle
 10
1761.863414047544
 20
763.3883140625919
 30
0.0
 40
9.5
  0
LINE
  5
28D
330
17
100
AcDbEntity
  8
4
100
AcDbLine
 10
1761.863414047544
 20
774.3579691771945
 30
0.0
 11
1752.363414047544
 21
768.8731416198932
 31
0.0
  0
LINE
  5
28E
330
17
100
AcDbEntity
  8
4
100
AcDbLine
 10
1771.363414047544
 20
768.8731416198932
 30
0.0
 11
1761.863414047544
 21
774.3579691771945
 31
0.0
  0
LINE
  5
28F
330
17
100
AcDbEntity
  8
4
100
AcDbLine
 10
1761.863414047544
 20
752.4186589479884
 30
0.0
 11
1771.363414047544
 21
757.9034865052906
 31
0.0
  0
LINE
  5
290
330
17
100
AcDbEntity
  8
4
100
AcDbLine
 10
1752.363414047544
 20
757.9034865052906
 30
0.0
 11
1761.863414047544
 21
752.4186589479884
 31
0.0
  0
LINE
  5
291
330
17
100
AcDbEntity
  8
4
100
AcDbLine
 10
1868.863940559839
 20
757.9034865052906
 30
0.0
 11
1859.363940559839
 21
752.4186589479884
 31
0.0
  0
LINE
  5
292
330
17
100
AcDbEntity
  8
4
100
AcDbLine
 10
1859.363940559839
 20
774.3579691771945
 30
0.0
 11
1868.863940559839
 21
768.8731416198932
 31
0.0
  0
CIRCLE
  5
293
330
17
100
AcDbEntity
  8
4
100
AcDbCircle
 10
1859.363940559839
 20
763.3883140625919
 30
0.0
 40
9.5
  0
LINE
  5
294
330
17
100
AcDbEntity
  8
4
100
AcDbLine
 10
1868.863940559839
 20
768.8731416198932
 30
0.0
 11
1868.863940559839
 21
757.9034865052906
 31
0.0
  0
LINE
  5
295
330
17
100
AcDbEntity
  8
4
100
AcDbLine
 10
1859.363940559839
 20
752.4186589479884
 30
0.0
 11
1849.863940559839
 21
757.9034865052906
 31
0.0
  0
LINE
  5
296
330
17
100
AcDbEntity
  8
4
100
AcDbLine
 10
1849.863940559839
 20
768.8731416198932
 30
0.0
 11
1859.363940559839
 21
774.3579691771945
 31
0.0
  0
LINE
  5
297
330
17
100
AcDbEntity
  8
4
100
AcDbLine
 10
1849.863940559839
 20
757.9034865052906
 30
0.0
 11
1849.863940559839
 21
768.8731416198932
 31
0.0
  0
LINE
  5
298
330
17
100
AcDbEntity
  8
4
100
AcDbLine
 10
1898.614215193698
 20
684.4355061915726
 30
0.0
 11
1908.114215193698
 21
689.9203337488739
 31
0.0
  0
LINE
  5
299
330
17
100
AcDbEntity
  8
4
100
AcDbLine
 10
1908.114215193698
 20
667.9810235196678
 30
0.0
 11
1898.614215193698
 21
673.46585107697
 31
0.0
  0
CIRCLE
  5
29A
330
17
100
AcDbEntity
  8
4
100
AcDbCircle
 10
1908.114215193698
 20
678.9506786342713
 30
0.0
 40
9.5
  0
LINE
  5
29B
330
17
100
AcDbEntity
  8
4
100
AcDbLine
 10
1898.614215193698
 20
673.46585107697
 30
0.0
 11
1898.614215193698
 21
684.4355061915726
 31
0.0
  0
LINE
  5
29C
330
17
100
AcDbEntity
  8
4
100
AcDbLine
 10
1917.614215193698
 20
684.4355061915726
 30
0.0
 11
1917.614215193698
 21
673.46585107697
 31
0.0
  0
LINE
  5
29D
330
17
100
AcDbEntity
  8
4
100
AcDbLine
 10
1908.114215193698
 20
689.9203337488739
 30
0.0
 11
1917.614215193698
 21
684.4355061915726
 31
0.0
  0
LINE
  5
29E
330
17
100
AcDbEntity
  8
4
100
AcDbLine
 10
1917.614215193698
 20
673.46585107697
 30
0.0
 11
1908.114215193698
 21
667.9810235196678
 31
0.0
  0
LINE
  5
29F
330
17
100
AcDbEntity
  8
4
100
AcDbLine
 10
1703.613677303691
 20
673.4661616278624
 30
0.0
 11
1713.113677303691
 21
667.9813340705603
 31
0.0
  0
LINE
  5
2A0
330
17
100
AcDbEntity
  8
4
100
AcDbLine
 10
1713.113677303691
 20
689.9206442997663
 30
0.0
 11
1703.613677303691
 21
684.435816742465
 31
0.0
  0
CIRCLE
  5
2A1
330
17
100
AcDbEntity
  8
4
100
AcDbCircle
 10
1713.113677303691
 20
678.9509891851637
 30
0.0
 40
9.5
  0
LINE
  5
2A2
330
17
100
AcDbEntity
  8
4
100
AcDbLine
 10
1703.613677303691
 20
684.435816742465
 30
0.0
 11
1703.613677303691
 21
673.4661616278624
 31
0.0
  0
LINE
  5
2A3
330
17
100
AcDbEntity
  8
4
100
AcDbLine
 10
1713.113677303691
 20
667.9813340705603
 30
0.0
 11
1722.613677303691
 21
673.4661616278624
 31
0.0
  0
LINE
  5
2A4
330
17
100
AcDbEntity
  8
4
100
AcDbLine
 10
1722.613677303691
 20
684.435816742465
 30
0.0
 11
1713.113677303691
 21
689.9206442997663
 31
0.0
  0
LINE
  5
2A5
330
17
100
AcDbEntity
  8
4
100
AcDbLine
 10
1722.613677303691
 20
673.4661616278624
 30
0.0
 11
1722.613677303691
 21
684.435816742465
 31
0.0
  0
LINE
  5
2A6
330
17
100
AcDbEntity
  8
4
100
AcDbLine
 10
1752.363414047544
 20
599.9984918650368
 30
0.0
 11
1761.863414047544
 21
605.483319422339
 31
0.0
  0
LINE
  5
2A7
330
17
100
AcDbEntity
  8
4
100
AcDbLine
 10
1761.863414047544
 20
583.544009193133
 30
0.0
 11
1752.363414047544
 21
589.0288367504343
 31
0.0
  0
CIRCLE
  5
2A8
330
17
100
AcDbEntity
  8
4
100
AcDbCircle
 10
1761.863414047544
 20
594.5136643077356
 30
0.0
 40
9.5
  0
LINE
  5
2A9
330
17
100
AcDbEntity
  8
4
100
AcDbLine
 10
1752.363414047544
 20
589.0288367504343
 30
0.0
 11
1752.363414047544
 21
599.9984918650368
 31
0.0
  0
LINE
  5
2AA
330
17
100
AcDbEntity
  8
4
100
AcDbLine
 10
1761.863414047544
 20
605.483319422339
 30
0.0
 11
1771.363414047544
 21
599.9984918650368
 31
0.0
  0
LINE
  5
2AB
330
17
100
AcDbEntity
  8
4
100
AcDbLine
 10
1771.363414047544
 20
589.0288367504343
 30
0.0
 11
1761.863414047544
 21
583.544009193133
 31
0.0
  0
LINE
  5
2AC
330
17
100
AcDbEntity
  8
4
100
AcDbLine
 10
1771.363414047544
 20
599.9984918650368
 30
0.0
 11
1771.363414047544
 21
589.0288367504343
 31
0.0
  0
LINE
  5
2AD
330
17
100
AcDbEntity
  8
4
100
AcDbLine
 10
1849.863940559839
 20
589.0288367504343
 30
0.0
 11
1859.363940559839
 21
583.544009193133
 31
0.0
  0
LINE
  5
2AE
330
17
100
AcDbEntity
  8
4
100
AcDbLine
 10
1859.363940559839
 20
605.483319422339
 30
0.0
 11
1849.863940559839
 21
599.9984918650368
 31
0.0
  0
CIRCLE
  5
2AF
330
17
100
AcDbEntity
  8
4
100
AcDbCircle
 10
1859.363940559839
 20
594.5136643077356
 30
0.0
 40
9.5
  0
LINE
  5
2B0
330
17
100
AcDbEntity
  8
4
100
AcDbLine
 10
1849.863940559839
 20
599.9984918650368
 30
0.0
 11
1849.863940559839
 21
589.0288367504343
 31
0.0
  0
LINE
  5
2B1
330
17
100
AcDbEntity
  8
4
100
AcDbLine
 10
1868.863940559839
 20
589.0288367504343
 30
0.0
 11
1868.863940559839
 21
599.9984918650368
 31
0.0
  0
LINE
  5
2B2
330
17
100
AcDbEntity
  8
4
100
AcDbLine
 10
1859.363940559839
 20
583.544009193133
 30
0.0
 11
1868.863940559839
 21
589.0288367504343
 31
0.0
  0
LINE
  5
2B3
330
17
100
AcDbEntity
  8
4
100
AcDbLine
 10
1868.863940559839
 20
599.9984918650368
 30
0.0
 11
1859.363940559839
 21
605.483319422339
 31
0.0
  0
CIRCLE
  5
2B4
330
17
100
AcDbEntity
  8
4
100
AcDbCircle
 10
1810.613677303691
 20
678.9509891851637
 30
0.0
 40
45.0
  0
CIRCLE
  5
2B5
330
17
100
AcDbEntity
  8
4
100
AcDbCircle
 10
1810.613677303691
 20
678.9509891851637
 30
0.0
 40
50.0
  0
CIRCLE
  5
2B6
330
17
100
AcDbEntity
  8
4
100
AcDbCircle
 10
1810.613677303691
 20
678.9509891851637
 30
0.0
 40
72.0
  0
LINE
  5
2B7
330
17
100
AcDbEntity
  8
4
100
AcDbLine
 10
1037.601845128716
 20
1635.494306869152
 30
0.0
 11
1037.601845128716
 21
1406.494306869152
 31
0.0
  0
LINE
  5
2B8
330
17
100
AcDbEntity
  8
4
100
AcDbLine
 10
412.8018451287157
 20
1635.494306869152
 30
0.0
 11
412.8018451287157
 21
1406.494306869152
 31
0.0
  0
LINE
  5
2B9
330
17
100
AcDbEntity
  8
4
100
AcDbLine
 10
1017.201845128715
 20
1635.494306869152
 30
0.0
 11
1037.601845128716
 21
1635.494306869152
 31
0.0
  0
LINE
  5
2BA
330
17
100
AcDbEntity
  8
4
100
AcDbLine
 10
1017.201845128715
 20
1406.494306869152
 30
0.0
 11
1037.601845128716
 21
1406.494306869152
 31
0.0
  0
LINE
  5
2BB
330
17
100
AcDbEntity
  8
4
100
AcDbLine
 10
1021.701845128715
 20
1406.494306869152
 30
0.0
 11
1021.701845128715
 21
1404.994306869152
 31
0.0
  0
LINE
  5
2BC
330
17
100
AcDbEntity
  8
4
100
AcDbLine
 10
1017.601845128716
 20
1635.494306869152
 30
0.0
 11
1017.601845128716
 21
1406.494306869152
 31
0.0
  0
LINE
  5
2BD
330
17
100
AcDbEntity
  8
4
100
AcDbLine
 10
433.2018451287158
 20
1635.494306869152
 30
0.0
 11
412.8018451287157
 21
1635.494306869152
 31
0.0
  0
LINE
  5
2BE
330
17
100
AcDbEntity
  8
4
100
AcDbLine
 10
412.8018451287157
 20
1406.494306869152
 30
0.0
 11
433.2018451287158
 21
1406.494306869152
 31
0.0
  0
LINE
  5
2BF
330
17
100
AcDbEntity
  8
4
100
AcDbLine
 10
428.7018451287158
 20
1406.494306869152
 30
0.0
 11
428.7018451287158
 21
1404.994306869152
 31
0.0
  0
LINE
  5
2C0
330
17
100
AcDbEntity
  8
4
100
AcDbLine
 10
432.8018451287157
 20
1635.494306869152
 30
0.0
 11
432.8018451287157
 21
1406.494306869152
 31
0.0
  0
ARC
  5
2C1
330
17
100
AcDbEntity
  8
4
100
AcDbCircle
 10
1034.806100993539
 20
1618.494306869152
 30
0.0
 40
13.7957441351769
100
AcDbArc
 50
336.5734024913729
 51
23.42659750862713
  0
LINE
  5
2C2
330
17
100
AcDbEntity
  8
4
100
AcDbLine
 10
1048.601845128716
 20
1610.2670655332
 30
0.0
 11
1048.601845128716
 21
1626.721548205104
 31
0.0
  0
LINE
  5
2C3
330
17
100
AcDbEntity
  8
4
100
AcDbLine
 10
1037.601845128716
 20
1629.463961983755
 30
0.0
 11
1037.601845128716
 21
1607.524651754549
 31
0.0
  0
LINE
  5
2C4
330
17
100
AcDbEntity
  8
4
100
AcDbLine
 10
1040.601845128716
 20
1629.463961983755
 30
0.0
 11
1040.601845128716
 21
1607.524651754549
 31
0.0
  0
LINE
  5
2C5
330
17
100
AcDbEntity
  8
4
100
AcDbLine
 10
1047.464664218089
 20
1623.979134426453
 30
0.0
 11
1040.601845128716
 21
1623.979134426453
 31
0.0
  0
LINE
  5
2C6
330
17
100
AcDbEntity
  8
4
100
AcDbLine
 10
1047.464664218089
 20
1629.463961983755
 30
0.0
 11
1037.601845128716
 21
1629.463961983755
 31
0.0
  0
ARC
  5
2C7
330
17
100
AcDbEntity
  8
4
100
AcDbCircle
 10
1044.726466253437
 20
1626.721548205104
 30
0.0
 40
3.875378875279244
100
AcDbArc
 50
314.9559267627452
 51
45.04407323726194
  0
LINE
  5
2C8
330
17
100
AcDbEntity
  8
4
100
AcDbLine
 10
1047.464664218089
 20
1613.009479311851
 30
0.0
 11
1040.601845128716
 21
1613.009479311851
 31
0.0
  0
LINE
  5
2C9
330
17
100
AcDbEntity
  8
4
100
AcDbLine
 10
1037.601845128716
 20
1607.524651754549
 30
0.0
 11
1047.464664218089
 21
1607.524651754549
 31
0.0
  0
LINE
  5
2CA
330
17
100
AcDbEntity
  8
L-CENTER
 48
2.0
100
AcDbLine
 10
1052.20268500882
 20
1618.494306869152
 30
0.0
 11
1007.76156165309
 21
1618.494306869152
 31
0.0
  0
ARC
  5
2CB
330
17
100
AcDbEntity
  8
4
100
AcDbCircle
 10
1044.726466253437
 20
1610.2670655332
 30
0.0
 40
3.875378875279264
100
AcDbArc
 50
314.9559267627452
 51
45.04407323726194
  0
ARC
  5
2CC
330
17
100
AcDbEntity
  8
4
100
AcDbCircle
 10
1044.726466253437
 20
1561.51679089934
 30
0.0
 40
3.875378875279264
100
AcDbArc
 50
314.9559267627452
 51
45.04407323726194
  0
LINE
  5
2CD
330
17
100
AcDbEntity
  8
4
100
AcDbLine
 10
1037.601845128716
 20
1580.713687349895
 30
0.0
 11
1037.601845128716
 21
1558.774377120689
 31
0.0
  0
LINE
  5
2CE
330
17
100
AcDbEntity
  8
4
100
AcDbLine
 10
1040.601845128716
 20
1580.713687349895
 30
0.0
 11
1040.601845128716
 21
1558.774377120689
 31
0.0
  0
LINE
  5
2CF
330
17
100
AcDbEntity
  8
4
100
AcDbLine
 10
1037.601845128716
 20
1558.774377120689
 30
0.0
 11
1047.464664218089
 21
1558.774377120689
 31
0.0
  0
LINE
  5
2D0
330
17
100
AcDbEntity
  8
L-CENTER
 48
2.0
100
AcDbLine
 10
1052.20268500882
 20
1569.744032235291
 30
0.0
 11
1007.761561653091
 21
1569.744032235291
 31
0.0
  0
LINE
  5
2D1
330
17
100
AcDbEntity
  8
4
100
AcDbLine
 10
1047.464664218089
 20
1575.228859792593
 30
0.0
 11
1040.601845128716
 21
1575.228859792593
 31
0.0
  0
LINE
  5
2D2
330
17
100
AcDbEntity
  8
4
100
AcDbLine
 10
1047.464664218089
 20
1564.25920467799
 30
0.0
 11
1040.601845128716
 21
1564.25920467799
 31
0.0
  0
LINE
  5
2D3
330
17
100
AcDbEntity
  8
4
100
AcDbLine
 10
1047.464664218089
 20
1580.713687349895
 30
0.0
 11
1037.601845128716
 21
1580.713687349895
 31
0.0
  0
ARC
  5
2D4
330
17
100
AcDbEntity
  8
4
100
AcDbCircle
 10
1034.806100993539
 20
1569.744032235291
 30
0.0
 40
13.7957441351769
100
AcDbArc
 50
336.5734024913729
 51
23.42659750862713
  0
LINE
  5
2D5
330
17
100
AcDbEntity
  8
4
100
AcDbLine
 10
1048.601845128716
 20
1561.51679089934
 30
0.0
 11
1048.601845128716
 21
1577.971273571244
 31
0.0
  0
ARC
  5
2D6
330
17
100
AcDbEntity
  8
4
100
AcDbCircle
 10
1044.726466253437
 20
1577.971273571244
 30
0.0
 40
3.875378875279244
100
AcDbArc
 50
314.9559267627452
 51
45.04407323726194
  0
ARC
  5
2D7
330
17
100
AcDbEntity
  8
4
100
AcDbCircle
 10
1044.726466253437
 20
1431.721548205102
 30
0.0
 40
3.875378875279264
100
AcDbArc
 50
314.9559267627452
 51
45.04407323726194
  0
LINE
  5
2D8
330
17
100
AcDbEntity
  8
4
100
AcDbLine
 10
1037.601845128716
 20
1412.524651754547
 30
0.0
 11
1037.601845128716
 21
1434.463961983754
 31
0.0
  0
LINE
  5
2D9
330
17
100
AcDbEntity
  8
4
100
AcDbLine
 10
1040.601845128716
 20
1412.524651754547
 30
0.0
 11
1040.601845128716
 21
1434.463961983754
 31
0.0
  0
LINE
  5
2DA
330
17
100
AcDbEntity
  8
4
100
AcDbLine
 10
1047.464664218089
 20
1461.274926388408
 30
0.0
 11
1037.601845128716
 21
1461.274926388408
 31
0.0
  0
LINE
  5
2DB
330
17
100
AcDbEntity
  8
4
100
AcDbLine
 10
1047.464664218089
 20
1477.729409060313
 30
0.0
 11
1040.601845128716
 21
1477.729409060313
 31
0.0
  0
LINE
  5
2DC
330
17
100
AcDbEntity
  8
4
100
AcDbLine
 10
1047.464664218089
 20
1466.75975394571
 30
0.0
 11
1040.601845128716
 21
1466.75975394571
 31
0.0
  0
LINE
  5
2DD
330
17
100
AcDbEntity
  8
L-CENTER
 48
2.0
100
AcDbLine
 10
1052.20268500882
 20
1472.244581503011
 30
0.0
 11
1007.761561653091
 21
1472.244581503011
 31
0.0
  0
LINE
  5
2DE
330
17
100
AcDbEntity
  8
4
100
AcDbLine
 10
1037.601845128716
 20
1483.214236617614
 30
0.0
 11
1047.464664218089
 21
1483.214236617614
 31
0.0
  0
LINE
  5
2DF
330
17
100
AcDbEntity
  8
4
100
AcDbLine
 10
1037.601845128716
 20
1434.463961983754
 30
0.0
 11
1047.464664218089
 21
1434.463961983754
 31
0.0
  0
LINE
  5
2E0
330
17
100
AcDbEntity
  8
4
100
AcDbLine
 10
1040.601845128716
 20
1461.274926388408
 30
0.0
 11
1040.601845128716
 21
1483.214236617614
 31
0.0
  0
LINE
  5
2E1
330
17
100
AcDbEntity
  8
4
100
AcDbLine
 10
1037.601845128716
 20
1461.274926388408
 30
0.0
 11
1037.601845128716
 21
1483.214236617614
 31
0.0
  0
LINE
  5
2E2
330
17
100
AcDbEntity
  8
4
100
AcDbLine
 10
1048.601845128716
 20
1480.471822838963
 30
0.0
 11
1048.601845128716
 21
1464.017340167059
 31
0.0
  0
ARC
  5
2E3
330
17
100
AcDbEntity
  8
4
100
AcDbCircle
 10
1034.806100993539
 20
1472.244581503011
 30
0.0
 40
13.7957441351769
100
AcDbArc
 50
336.5734024913729
 51
23.42659750862713
  0
ARC
  5
2E4
330
17
100
AcDbEntity
  8
4
100
AcDbCircle
 10
1044.726466253437
 20
1480.471822838963
 30
0.0
 40
3.875378875279264
100
AcDbArc
 50
314.9559267627452
 51
45.04407323726194
  0
ARC
  5
2E5
330
17
100
AcDbEntity
  8
4
100
AcDbCircle
 10
1044.726466253437
 20
1464.017340167059
 30
0.0
 40
3.875378875279244
100
AcDbArc
 50
314.9559267627452
 51
45.04407323726194
  0
LINE
  5
2E6
330
17
100
AcDbEntity
  8
L-CENTER
 48
2.0
100
AcDbLine
 10
1052.20268500882
 20
1423.494306869151
 30
0.0
 11
1007.76156165309
 21
1423.494306869151
 31
0.0
  0
LINE
  5
2E7
330
17
100
AcDbEntity
  8
4
100
AcDbLine
 10
1047.464664218089
 20
1418.00947931185
 30
0.0
 11
1040.601845128716
 21
1418.00947931185
 31
0.0
  0
LINE
  5
2E8
330
17
100
AcDbEntity
  8
4
100
AcDbLine
 10
1047.464664218089
 20
1428.979134426452
 30
0.0
 11
1040.601845128716
 21
1428.979134426452
 31
0.0
  0
LINE
  5
2E9
330
17
100
AcDbEntity
  8
4
100
AcDbLine
 10
1047.464664218089
 20
1412.524651754547
 30
0.0
 11
1037.601845128716
 21
1412.524651754547
 31
0.0
  0
ARC
  5
2EA
330
17
100
AcDbEntity
  8
4
100
AcDbCircle
 10
1034.806100993539
 20
1423.494306869151
 30
0.0
 40
13.7957441351769
100
AcDbArc
 50
336.5734024913729
 51
23.42659750862713
  0
LINE
  5
2EB
330
17
100
AcDbEntity
  8
4
100
AcDbLine
 10
1048.601845128716
 20
1431.721548205102
 30
0.0
 11
1048.601845128716
 21
1415.267065533199
 31
0.0
  0
ARC
  5
2EC
330
17
100
AcDbEntity
  8
4
100
AcDbCircle
 10
1044.726466253437
 20
1415.267065533199
 30
0.0
 40
3.875378875279244
100
AcDbArc
 50
314.9559267627452
 51
45.04407323726194
  0
ARC
  5
2ED
330
17
100
AcDbEntity
  8
4
100
AcDbCircle
 10
405.677224003995
 20
1610.2670655332
 30
0.0
 40
3.875378875279264
100
AcDbArc
 50
134.9559267627387
 51
225.0440732372518
  0
LINE
  5
2EE
330
17
100
AcDbEntity
  8
4
100
AcDbLine
 10
412.8018451287157
 20
1629.463961983755
 30
0.0
 11
412.8018451287157
 21
1607.524651754549
 31
0.0
  0
LINE
  5
2EF
330
17
100
AcDbEntity
  8
4
100
AcDbLine
 10
409.8018451287157
 20
1629.463961983755
 30
0.0
 11
409.8018451287157
 21
1607.524651754549
 31
0.0
  0
LINE
  5
2F0
330
17
100
AcDbEntity
  8
4
100
AcDbLine
 10
402.9390260393425
 20
1580.713687349895
 30
0.0
 11
412.8018451287157
 21
1580.713687349895
 31
0.0
  0
LINE
  5
2F1
330
17
100
AcDbEntity
  8
4
100
AcDbLine
 10
402.9390260393425
 20
1564.25920467799
 30
0.0
 11
409.8018451287157
 21
1564.25920467799
 31
0.0
  0
LINE
  5
2F2
330
17
100
AcDbEntity
  8
4
100
AcDbLine
 10
402.9390260393425
 20
1575.228859792593
 30
0.0
 11
409.8018451287157
 21
1575.228859792593
 31
0.0
  0
LINE
  5
2F3
330
17
100
AcDbEntity
  8
L-CENTER
 48
2.0
100
AcDbLine
 10
398.2010052486116
 20
1569.744032235291
 30
0.0
 11
442.642128604341
 21
1569.744032235291
 31
0.0
  0
LINE
  5
2F4
330
17
100
AcDbEntity
  8
4
100
AcDbLine
 10
412.8018451287157
 20
1558.774377120689
 30
0.0
 11
402.9390260393425
 21
1558.774377120689
 31
0.0
  0
LINE
  5
2F5
330
17
100
AcDbEntity
  8
4
100
AcDbLine
 10
412.8018451287157
 20
1607.524651754549
 30
0.0
 11
402.9390260393425
 21
1607.524651754549
 31
0.0
  0
LINE
  5
2F6
330
17
100
AcDbEntity
  8
4
100
AcDbLine
 10
409.8018451287157
 20
1580.713687349895
 30
0.0
 11
409.8018451287157
 21
1558.774377120689
 31
0.0
  0
LINE
  5
2F7
330
17
100
AcDbEntity
  8
4
100
AcDbLine
 10
412.8018451287157
 20
1580.713687349895
 30
0.0
 11
412.8018451287157
 21
1558.774377120689
 31
0.0
  0
LINE
  5
2F8
330
17
100
AcDbEntity
  8
4
100
AcDbLine
 10
401.8018451287157
 20
1561.51679089934
 30
0.0
 11
401.8018451287157
 21
1577.971273571244
 31
0.0
  0
ARC
  5
2F9
330
17
100
AcDbEntity
  8
4
100
AcDbCircle
 10
415.597589263893
 20
1569.744032235291
 30
0.0
 40
13.7957441351769
100
AcDbArc
 50
156.5734024913727
 51
203.4265975086273
  0
ARC
  5
2FA
330
17
100
AcDbEntity
  8
4
100
AcDbCircle
 10
405.677224003995
 20
1561.51679089934
 30
0.0
 40
3.875378875279264
100
AcDbArc
 50
134.9559267627387
 51
225.0440732372518
  0
ARC
  5
2FB
330
17
100
AcDbEntity
  8
4
100
AcDbCircle
 10
405.677224003995
 20
1577.971273571244
 30
0.0
 40
3.875378875279244
100
AcDbArc
 50
134.9559267627387
 51
225.0440732372518
  0
LINE
  5
2FC
330
17
100
AcDbEntity
  8
L-CENTER
 48
2.0
100
AcDbLine
 10
398.2010052486116
 20
1618.494306869152
 30
0.0
 11
442.6421286043415
 21
1618.494306869152
 31
0.0
  0
LINE
  5
2FD
330
17
100
AcDbEntity
  8
4
100
AcDbLine
 10
402.9390260393425
 20
1623.979134426453
 30
0.0
 11
409.8018451287157
 21
1623.979134426453
 31
0.0
  0
LINE
  5
2FE
330
17
100
AcDbEntity
  8
4
100
AcDbLine
 10
402.9390260393425
 20
1613.009479311851
 30
0.0
 11
409.8018451287157
 21
1613.009479311851
 31
0.0
  0
LINE
  5
2FF
330
17
100
AcDbEntity
  8
4
100
AcDbLine
 10
402.9390260393425
 20
1629.463961983755
 30
0.0
 11
412.8018451287157
 21
1629.463961983755
 31
0.0
  0
ARC
  5
300
330
17
100
AcDbEntity
  8
4
100
AcDbCircle
 10
415.597589263893
 20
1618.494306869152
 30
0.0
 40
13.7957441351769
100
AcDbArc
 50
156.5734024913727
 51
203.4265975086273
  0
LINE
  5
301
330
17
100
AcDbEntity
  8
4
100
AcDbLine
 10
401.8018451287157
 20
1610.2670655332
 30
0.0
 11
401.8018451287157
 21
1626.721548205104
 31
0.0
  0
ARC
  5
302
330
17
100
AcDbEntity
  8
4
100
AcDbCircle
 10
405.677224003995
 20
1626.721548205104
 30
0.0
 40
3.875378875279244
100
AcDbArc
 50
134.9559267627387
 51
225.0440732372518
  0
LINE
  5
303
330
17
100
AcDbEntity
  8
4
100
AcDbLine
 10
402.9390260393425
 20
1412.524651754547
 30
0.0
 11
412.8018451287157
 21
1412.524651754547
 31
0.0
  0
LINE
  5
304
330
17
100
AcDbEntity
  8
4
100
AcDbLine
 10
402.9390260393425
 20
1428.979134426452
 30
0.0
 11
409.8018451287157
 21
1428.979134426452
 31
0.0
  0
LINE
  5
305
330
17
100
AcDbEntity
  8
4
100
AcDbLine
 10
402.9390260393425
 20
1418.00947931185
 30
0.0
 11
409.8018451287157
 21
1418.00947931185
 31
0.0
  0
LINE
  5
306
330
17
100
AcDbEntity
  8
L-CENTER
 48
2.0
100
AcDbLine
 10
398.2010052486116
 20
1423.494306869151
 30
0.0
 11
442.6421286043415
 21
1423.494306869151
 31
0.0
  0
LINE
  5
307
330
17
100
AcDbEntity
  8
4
100
AcDbLine
 10
412.8018451287157
 20
1434.463961983754
 30
0.0
 11
402.9390260393425
 21
1434.463961983754
 31
0.0
  0
LINE
  5
308
330
17
100
AcDbEntity
  8
4
100
AcDbLine
 10
409.8018451287157
 20
1412.524651754547
 30
0.0
 11
409.8018451287157
 21
1434.463961983754
 31
0.0
  0
LINE
  5
309
330
17
100
AcDbEntity
  8
4
100
AcDbLine
 10
412.8018451287157
 20
1412.524651754547
 30
0.0
 11
412.8018451287157
 21
1434.463961983754
 31
0.0
  0
ARC
  5
30A
330
17
100
AcDbEntity
  8
4
100
AcDbCircle
 10
405.677224003995
 20
1415.267065533199
 30
0.0
 40
3.875378875279244
100
AcDbArc
 50
134.9559267627387
 51
225.0440732372518
  0
LINE
  5
30B
330
17
100
AcDbEntity
  8
4
100
AcDbLine
 10
401.8018451287157
 20
1431.721548205102
 30
0.0
 11
401.8018451287157
 21
1415.267065533199
 31
0.0
  0
ARC
  5
30C
330
17
100
AcDbEntity
  8
4
100
AcDbCircle
 10
415.597589263893
 20
1423.494306869151
 30
0.0
 40
13.7957441351769
100
AcDbArc
 50
156.5734024913727
 51
203.4265975086273
  0
ARC
  5
30D
330
17
100
AcDbEntity
  8
4
100
AcDbCircle
 10
405.677224003995
 20
1431.721548205102
 30
0.0
 40
3.875378875279264
100
AcDbArc
 50
134.9559267627387
 51
225.0440732372518
  0
LINE
  5
30E
330
17
100
AcDbEntity
  8
4
100
AcDbLine
 10
412.8018451287157
 20
1483.214236617614
 30
0.0
 11
402.9390260393425
 21
1483.214236617614
 31
0.0
  0
LINE
  5
30F
330
17
100
AcDbEntity
  8
L-CENTER
 48
2.0
100
AcDbLine
 10
398.2010052486116
 20
1472.244581503011
 30
0.0
 11
442.642128604341
 21
1472.244581503011
 31
0.0
  0
LINE
  5
310
330
17
100
AcDbEntity
  8
4
100
AcDbLine
 10
402.9390260393425
 20
1466.75975394571
 30
0.0
 11
409.8018451287157
 21
1466.75975394571
 31
0.0
  0
LINE
  5
311
330
17
100
AcDbEntity
  8
4
100
AcDbLine
 10
402.9390260393425
 20
1477.729409060313
 30
0.0
 11
409.8018451287157
 21
1477.729409060313
 31
0.0
  0
LINE
  5
312
330
17
100
AcDbEntity
  8
4
100
AcDbLine
 10
402.9390260393425
 20
1461.274926388408
 30
0.0
 11
412.8018451287157
 21
1461.274926388408
 31
0.0
  0
LINE
  5
313
330
17
100
AcDbEntity
  8
4
100
AcDbLine
 10
412.8018451287157
 20
1461.274926388408
 30
0.0
 11
412.8018451287157
 21
1483.214236617614
 31
0.0
  0
LINE
  5
314
330
17
100
AcDbEntity
  8
4
100
AcDbLine
 10
409.8018451287157
 20
1461.274926388408
 30
0.0
 11
409.8018451287157
 21
1483.214236617614
 31
0.0
  0
ARC
  5
315
330
17
100
AcDbEntity
  8
4
100
AcDbCircle
 10
405.677224003995
 20
1464.017340167059
 30
0.0
 40
3.875378875279244
100
AcDbArc
 50
134.9559267627387
 51
225.0440732372518
  0
ARC
  5
316
330
17
100
AcDbEntity
  8
4
100
AcDbCircle
 10
405.677224003995
 20
1480.471822838963
 30
0.0
 40
3.875378875279264
100
AcDbArc
 50
134.9559267627387
 51
225.0440732372518
  0
ARC
  5
317
330
17
100
AcDbEntity
  8
4
100
AcDbCircle
 10
415.597589263893
 20
1472.244581503011
 30
0.0
 40
13.7957441351769
100
AcDbArc
 50
156.5734024913727
 51
203.4265975086273
  0
LINE
  5
318
330
17
100
AcDbEntity
  8
4
100
AcDbLine
 10
401.8018451287157
 20
1480.471822838963
 30
0.0
 11
401.8018451287157
 21
1464.017340167059
 31
0.0
  0
LINE
  5
319
330
17
100
AcDbEntity
  8
4
100
AcDbLine
 10
1074.201845128715
 20
1529.994306869152
 30
0.0
 11
1175.201845128715
 21
1529.994306869152
 31
0.0
  0
LINE
  5
31A
330
17
100
AcDbEntity
  8
4
100
AcDbLine
 10
1074.201845128715
 20
1511.994306869152
 30
0.0
 11
1175.201845128715
 21
1511.994306869152
 31
0.0
  0
LINE
  5
31B
330
17
100
AcDbEntity
  8
4
100
AcDbLine
 10
1056.201845128715
 20
1552.494306869152
 30
0.0
 11
1174.201845128715
 21
1552.494306869152
 31
0.0
  0
LINE
  5
31C
330
17
100
AcDbEntity
  8
4
100
AcDbLine
 10
1056.201845128715
 20
1489.494306869152
 30
0.0
 11
1174.201845128715
 21
1489.494306869152
 31
0.0
  0
LINE
  5
31D
330
17
100
AcDbEntity
  8
4
100
AcDbLine
 10
1055.201845128715
 20
1553.494306869152
 30
0.0
 11
1055.201845128715
 21
1488.494306869152
 31
0.0
  0
ARC
  5
31E
330
17
100
AcDbEntity
  8
4
100
AcDbCircle
 10
1056.201845128715
 20
1488.494306869152
 30
0.0
 40
1.0
100
AcDbArc
 50
90.0
 51
180.0
  0
ARC
  5
31F
330
17
100
AcDbEntity
  8
4
100
AcDbCircle
 10
1074.201845128715
 20
1520.994306869152
 30
0.0
 40
9.0
100
AcDbArc
 50
90.0
 51
270.0
  0
ARC
  5
320
330
17
100
AcDbEntity
  8
4
100
AcDbCircle
 10
1056.201845128715
 20
1553.494306869152
 30
0.0
 40
1.0
100
AcDbArc
 50
180.0
 51
270.0
  0
LINE
  5
321
330
17
100
AcDbEntity
  8
4
100
AcDbLine
 10
1174.201845128715
 20
1511.994306869152
 30
0.0
 11
1174.201845128715
 21
1489.494306869152
 31
0.0
  0
LINE
  5
322
330
17
100
AcDbEntity
  8
4
100
AcDbLine
 10
1175.201845128715
 20
1551.494306869152
 30
0.0
 11
1175.201845128715
 21
1490.494306869152
 31
0.0
  0
LINE
  5
323
330
17
100
AcDbEntity
  8
4
100
AcDbLine
 10
1174.201845128715
 20
1489.494306869152
 30
0.0
 11
1175.201845128715
 21
1490.494306869152
 31
0.0
  0
LINE
  5
324
330
17
100
AcDbEntity
  8
4
100
AcDbLine
 10
1174.201845128715
 20
1552.494306869152
 30
0.0
 11
1174.201845128715
 21
1529.994306869152
 31
0.0
  0
LINE
  5
325
330
17
100
AcDbEntity
  8
4
100
AcDbLine
 10
1174.201845128715
 20
1552.494306869152
 30
0.0
 11
1175.201845128715
 21
1551.494306869152
 31
0.0
  0
LINE
  5
326
330
17
100
AcDbEntity
  8
4
100
AcDbLine
 10
1055.201845128717
 20
1553.494306869152
 30
0.0
 11
1038.601847128716
 21
1553.494306869152
 31
0.0
  0
LINE
  5
327
330
17
100
AcDbEntity
  8
4
100
AcDbLine
 10
1055.201845128717
 20
1488.494306869152
 30
0.0
 11
1038.601847128716
 21
1488.494306869152
 31
0.0
  0
LINE
  5
328
330
17
100
AcDbEntity
  8
4
100
AcDbLine
 10
1038.601847128716
 20
1483.214236617614
 30
0.0
 11
1038.601847128716
 21
1558.774377120689
 31
0.0
  0
LINE
  5
329
330
17
100
AcDbEntity
  8
4
100
AcDbLine
 10
1065.201845128715
 20
1489.494306869152
 30
0.0
 11
1065.201845128715
 21
1330.994306869152
 31
0.0
  0
LINE
  5
32A
330
17
100
AcDbEntity
  8
4
100
AcDbLine
 10
678.7018451287154
 20
1721.994306869152
 30
0.0
 11
678.7018451287154
 21
1878.994306869152
 31
0.0
  0
LINE
  5
32B
330
17
100
AcDbEntity
  8
4
100
AcDbLine
 10
713.2018451287154
 20
1880.994306869152
 30
0.0
 11
713.2018451287154
 21
1742.994306869152
 31
0.0
  0
LINE
  5
32C
330
17
100
AcDbEntity
  8
4
100
AcDbLine
 10
771.7018451287154
 20
1721.994306869152
 30
0.0
 11
771.7018451287154
 21
1878.994306869152
 31
0.0
  0
LINE
  5
32D
330
17
100
AcDbEntity
  8
4
100
AcDbLine
 10
737.2018451287154
 20
1880.994306869152
 30
0.0
 11
737.2018451287154
 21
1742.994306869152
 31
0.0
  0
LINE
  5
32E
330
17
100
AcDbEntity
  8
4
100
AcDbLine
 10
677.7018451287158
 20
1720.994306869152
 30
0.0
 11
772.7018451287154
 21
1720.994306869152
 31
0.0
  0
ARC
  5
32F
330
17
100
AcDbEntity
  8
4
100
AcDbCircle
 10
772.7018451287163
 20
1721.994306869152
 30
0.0
 40
1.0
100
AcDbArc
 50
180.0
 51
270.0
  0
LINE
  5
330
330
17
100
AcDbEntity
  8
4
100
AcDbLine
 10
772.7018451287154
 20
1720.994306869152
 30
0.0
 11
772.7018451287154
 21
1720.994306869152
 31
0.0
  0
ARC
  5
331
330
17
100
AcDbEntity
  8
4
100
AcDbCircle
 10
725.2018451287163
 20
1742.994306869152
 30
0.0
 40
12.0
100
AcDbArc
 50
180.0
 51
0.0
  0
LINE
  5
332
330
17
100
AcDbEntity
  8
4
100
AcDbLine
 10
677.7018451287158
 20
1720.994306869152
 30
0.0
 11
677.7018451287158
 21
1720.994306869152
 31
0.0
  0
ARC
  5
333
330
17
100
AcDbEntity
  8
4
100
AcDbCircle
 10
677.7018451287158
 20
1721.994306869152
 30
0.0
 40
1.0
100
AcDbArc
 50
270.0
 51
0.0
  0
LINE
  5
334
330
17
100
AcDbEntity
  8
4
100
AcDbLine
 10
677.7018451287158
 20
1712.294306869144
 30
0.0
 11
677.7018451287158
 21
1720.994306869152
 31
0.0
  0
LINE
  5
335
330
17
100
AcDbEntity
  8
4
100
AcDbLine
 10
772.7018451287154
 20
1712.294306869144
 30
0.0
 11
772.7018451287154
 21
1720.994306869152
 31
0.0
  0
ARC
  5
336
330
17
100
AcDbEntity
  8
4
100
AcDbCircle
 10
1964.038200428413
 20
616.911823803179
 30
0.0
 40
3.875378875279264
100
AcDbArc
 50
314.9559267627452
 51
45.04407323725481
  0
LINE
  5
337
330
17
100
AcDbEntity
  8
4
100
AcDbLine
 10
1956.913579303691
 20
636.108720253734
 30
0.0
 11
1956.913579303691
 21
614.1694100245279
 31
0.0
  0
LINE
  5
338
330
17
100
AcDbEntity
  8
4
100
AcDbLine
 10
1959.913579303691
 20
636.108720253734
 30
0.0
 11
1959.913579303691
 21
614.1694100245279
 31
0.0
  0
LINE
  5
339
330
17
100
AcDbEntity
  8
4
100
AcDbLine
 10
1956.913579303691
 20
614.1694100245279
 30
0.0
 11
1966.776398393065
 21
614.1694100245279
 31
0.0
  0
LINE
  5
33A
330
17
100
AcDbEntity
  8
L-CENTER
 48
2.0
100
AcDbLine
 10
1971.514419183795
 20
625.1390651391305
 30
0.0
 11
1927.073295828066
 21
625.1390651391305
 31
0.0
  0
LINE
  5
33B
330
17
100
AcDbEntity
  8
4
100
AcDbLine
 10
1966.776398393065
 20
630.6238926964318
 30
0.0
 11
1959.913579303691
 21
630.6238926964318
 31
0.0
  0
LINE
  5
33C
330
17
100
AcDbEntity
  8
4
100
AcDbLine
 10
1966.776398393065
 20
619.6542375818292
 30
0.0
 11
1959.913579303691
 21
619.6542375818292
 31
0.0
  0
LINE
  5
33D
330
17
100
AcDbEntity
  8
4
100
AcDbLine
 10
1966.776398393065
 20
636.108720253734
 30
0.0
 11
1956.913579303691
 21
636.108720253734
 31
0.0
  0
ARC
  5
33E
330
17
100
AcDbEntity
  8
4
100
AcDbCircle
 10
1954.117835168514
 20
625.1390651391305
 30
0.0
 40
13.7957441351769
100
AcDbArc
 50
336.5734024913725
 51
23.42659750862663
  0
LINE
  5
33F
330
17
100
AcDbEntity
  8
4
100
AcDbLine
 10
1967.913579303691
 20
616.911823803179
 30
0.0
 11
1967.913579303691
 21
633.3663064750829
 31
0.0
  0
ARC
  5
340
330
17
100
AcDbEntity
  8
4
100
AcDbCircle
 10
1964.038200428413
 20
633.3663064750829
 30
0.0
 40
3.875378875279244
100
AcDbArc
 50
314.9559267627452
 51
45.04407323725481
  0
LINE
  5
341
330
17
100
AcDbEntity
  8
4
100
AcDbLine
 10
1967.913579303691
 20
150.9901565671491
 30
0.0
 11
1967.913579303691
 21
134.5356738952453
 31
0.0
  0
ARC
  5
342
330
17
100
AcDbEntity
  8
4
100
AcDbCircle
 10
1954.117835168514
 20
142.7629152311977
 30
0.0
 40
13.7957441351769
100
AcDbArc
 50
336.573402491372
 51
23.42659750862749
  0
LINE
  5
343
330
17
100
AcDbEntity
  8
4
100
AcDbLine
 10
1959.913579303691
 20
131.7932601165942
 30
0.0
 11
1959.913579303691
 21
153.7325703458002
 31
0.0
  0
LINE
  5
344
330
17
100
AcDbEntity
  8
4
100
AcDbLine
 10
1956.913579303691
 20
131.7932601165942
 30
0.0
 11
1956.913579303691
 21
153.7325703458002
 31
0.0
  0
LINE
  5
345
330
17
100
AcDbEntity
  8
L-CENTER
 48
2.0
100
AcDbLine
 10
1971.514419183795
 20
142.7629152311977
 30
0.0
 11
1927.073295828066
 21
142.7629152311977
 31
0.0
  0
LINE
  5
346
330
17
100
AcDbEntity
  8
4
100
AcDbLine
 10
1966.776398393065
 20
148.247742788499
 30
0.0
 11
1959.913579303691
 21
148.247742788499
 31
0.0
  0
LINE
  5
347
330
17
100
AcDbEntity
  8
4
100
AcDbLine
 10
1956.913579303691
 20
153.7325703458002
 30
0.0
 11
1966.776398393065
 21
153.7325703458002
 31
0.0
  0
ARC
  5
348
330
17
100
AcDbEntity
  8
4
100
AcDbCircle
 10
1964.038200428413
 20
150.9901565671491
 30
0.0
 40
3.875378875279264
100
AcDbArc
 50
314.955926762744
 51
45.04407323725601
  0
ARC
  5
349
330
17
100
AcDbEntity
  8
4
100
AcDbCircle
 10
1964.038200428413
 20
134.5356738952453
 30
0.0
 40
3.875378875279244
100
AcDbArc
 50
314.955926762744
 51
45.04407323725601
  0
LINE
  5
34A
330
17
100
AcDbEntity
  8
4
100
AcDbLine
 10
1966.776398393065
 20
131.7932601165942
 30
0.0
 11
1956.913579303691
 21
131.7932601165942
 31
0.0
  0
LINE
  5
34B
330
17
100
AcDbEntity
  8
4
100
AcDbLine
 10
1966.776398393065
 20
137.2780876738964
 30
0.0
 11
1959.913579303691
 21
137.2780876738964
 31
0.0
  0
LINE
  5
34C
330
17
100
AcDbEntity
  8
4
100
AcDbLine
 10
1967.913579303691
 20
375.7237488492126
 30
0.0
 11
1967.913579303691
 21
392.1782315211165
 31
0.0
  0
ARC
  5
34D
330
17
100
AcDbEntity
  8
4
100
AcDbCircle
 10
1954.117835168514
 20
383.9509901851641
 30
0.0
 40
13.7957441351769
100
AcDbArc
 50
336.5734024913725
 51
23.42659750862663
  0
LINE
  5
34E
330
17
100
AcDbEntity
  8
4
100
AcDbLine
 10
1959.913579303691
 20
394.9206452997676
 30
0.0
 11
1959.913579303691
 21
372.9813350705615
 31
0.0
  0
LINE
  5
34F
330
17
100
AcDbEntity
  8
4
100
AcDbLine
 10
1956.913579303691
 20
394.9206452997676
 30
0.0
 11
1956.913579303691
 21
372.9813350705615
 31
0.0
  0
LINE
  5
350
330
17
100
AcDbEntity
  8
4
100
AcDbLine
 10
1966.776398393065
 20
378.4661626278628
 30
0.0
 11
1959.913579303691
 21
378.4661626278628
 31
0.0
  0
LINE
  5
351
330
17
100
AcDbEntity
  8
4
100
AcDbLine
 10
1956.913579303691
 20
372.9813350705615
 30
0.0
 11
1966.776398393065
 21
372.9813350705615
 31
0.0
  0
ARC
  5
352
330
17
100
AcDbEntity
  8
4
100
AcDbCircle
 10
1964.038200428413
 20
375.7237488492126
 30
0.0
 40
3.875378875279264
100
AcDbArc
 50
314.9559267627452
 51
45.04407323725481
  0
ARC
  5
353
330
17
100
AcDbEntity
  8
4
100
AcDbCircle
 10
1964.038200428413
 20
392.1782315211165
 30
0.0
 40
3.875378875279244
100
AcDbArc
 50
314.9559267627452
 51
45.04407323725481
  0
LINE
  5
354
330
17
100
AcDbEntity
  8
4
100
AcDbLine
 10
1966.776398393065
 20
394.9206452997676
 30
0.0
 11
1956.913579303691
 21
394.9206452997676
 31
0.0
  0
LINE
  5
355
330
17
100
AcDbEntity
  8
4
100
AcDbLine
 10
1966.776398393065
 20
389.4358177424654
 30
0.0
 11
1959.913579303691
 21
389.4358177424654
 31
0.0
  0
LINE
  5
356
330
17
100
AcDbEntity
  8
L-CENTER
 48
2.0
100
AcDbLine
 10
864.4518451287154
 20
1681.895146749248
 30
0.0
 11
864.4518451287154
 21
1637.454023393519
 31
0.0
  0
LINE
  5
357
330
17
100
AcDbEntity
  8
4
100
AcDbLine
 10
872.6790864646669
 20
1678.294306869144
 30
0.0
 11
856.2246037927639
 21
1678.294306869144
 31
0.0
  0
ARC
  5
358
330
17
100
AcDbEntity
  8
4
100
AcDbCircle
 10
864.4518451287163
 20
1664.498562733967
 30
0.0
 40
13.7957441351769
100
AcDbArc
 50
66.5734024913725
 51
113.4265975086275
  0
LINE
  5
359
330
17
100
AcDbEntity
  8
4
100
AcDbLine
 10
853.4821900141128
 20
1670.294306869144
 30
0.0
 11
875.421500243318
 21
1670.294306869144
 31
0.0
  0
LINE
  5
35A
330
17
100
AcDbEntity
  8
4
100
AcDbLine
 10
853.4821900141128
 20
1667.294306869144
 30
0.0
 11
875.421500243318
 21
1667.294306869144
 31
0.0
  0
LINE
  5
35B
330
17
100
AcDbEntity
  8
4
100
AcDbLine
 10
869.9366726860176
 20
1677.157125958518
 30
0.0
 11
869.9366726860176
 21
1670.294306869144
 31
0.0
  0
LINE
  5
35C
330
17
100
AcDbEntity
  8
4
100
AcDbLine
 10
875.421500243318
 20
1667.294306869144
 30
0.0
 11
875.421500243318
 21
1677.157125958518
 31
0.0
  0
ARC
  5
35D
330
17
100
AcDbEntity
  8
4
100
AcDbCircle
 10
872.6790864646678
 20
1674.418927993865
 30
0.0
 40
3.875378875279264
100
AcDbArc
 50
44.95592676275351
 51
135.0440732372572
  0
ARC
  5
35E
330
17
100
AcDbEntity
  8
4
100
AcDbCircle
 10
856.2246037927639
 20
1674.418927993865
 30
0.0
 40
3.875378875279244
100
AcDbArc
 50
44.95592676275351
 51
135.044073237256
  0
LINE
  5
35F
330
17
100
AcDbEntity
  8
4
100
AcDbLine
 10
853.4821900141128
 20
1677.157125958518
 30
0.0
 11
853.4821900141128
 21
1667.294306869144
 31
0.0
  0
LINE
  5
360
330
17
100
AcDbEntity
  8
4
100
AcDbLine
 10
858.967017571415
 20
1677.157125958518
 30
0.0
 11
858.967017571415
 21
1670.294306869144
 31
0.0
  0
LINE
  5
361
330
17
100
AcDbEntity
  8
L-CENTER
 48
2.0
100
AcDbLine
 10
1003.701845128715
 20
1681.895146749248
 30
0.0
 11
1003.701845128715
 21
1637.454023393519
 31
0.0
  0
LINE
  5
362
330
17
100
AcDbEntity
  8
4
100
AcDbLine
 10
1011.929086464667
 20
1678.294306869144
 30
0.0
 11
995.4746037927639
 21
1678.294306869144
 31
0.0
  0
ARC
  5
363
330
17
100
AcDbEntity
  8
4
100
AcDbCircle
 10
1003.701845128715
 20
1664.498562733967
 30
0.0
 40
13.7957441351769
100
AcDbArc
 50
66.5734024913683
 51
113.4265975086275
  0
LINE
  5
364
330
17
100
AcDbEntity
  8
4
100
AcDbLine
 10
992.7321900141128
 20
1670.294306869144
 30
0.0
 11
1014.671500243318
 21
1670.294306869144
 31
0.0
  0
LINE
  5
365
330
17
100
AcDbEntity
  8
4
100
AcDbLine
 10
992.7321900141128
 20
1667.294306869144
 30
0.0
 11
1014.671500243318
 21
1667.294306869144
 31
0.0
  0
LINE
  5
366
330
17
100
AcDbEntity
  8
4
100
AcDbLine
 10
1009.186672686018
 20
1677.157125958518
 30
0.0
 11
1009.186672686018
 21
1670.294306869144
 31
0.0
  0
LINE
  5
367
330
17
100
AcDbEntity
  8
4
100
AcDbLine
 10
1014.671500243318
 20
1667.294306869144
 30
0.0
 11
1014.671500243318
 21
1677.157125958518
 31
0.0
  0
ARC
  5
368
330
17
100
AcDbEntity
  8
4
100
AcDbCircle
 10
1011.929086464668
 20
1674.418927993865
 30
0.0
 40
3.875378875279264
100
AcDbArc
 50
44.9559267627547
 51
135.0440732372572
  0
ARC
  5
369
330
17
100
AcDbEntity
  8
4
100
AcDbCircle
 10
995.4746037927639
 20
1674.418927993865
 30
0.0
 40
3.875378875279244
100
AcDbArc
 50
44.9559267627547
 51
135.0440732372572
  0
LINE
  5
36A
330
17
100
AcDbEntity
  8
4
100
AcDbLine
 10
992.7321900141128
 20
1677.157125958518
 30
0.0
 11
992.7321900141128
 21
1667.294306869144
 31
0.0
  0
LINE
  5
36B
330
17
100
AcDbEntity
  8
4
100
AcDbLine
 10
998.217017571415
 20
1677.157125958518
 30
0.0
 11
998.217017571415
 21
1670.294306869144
 31
0.0
  0
ARC
  5
36C
330
17
100
AcDbEntity
  8
4
100
AcDbCircle
 10
1005.201845128715
 20
1670.994306869152
 30
0.0
 40
13.0
100
AcDbArc
 50
163.5777460805699
 51
196.0766498316402
  0
ARC
  5
36D
330
17
100
AcDbEntity
  8
4
100
AcDbCircle
 10
594.1790864646682
 20
1674.418927993865
 30
0.0
 40
3.875378875279244
100
AcDbArc
 50
44.955926762744
 51
135.044073237256
  0
LINE
  5
36E
330
17
100
AcDbEntity
  8
4
100
AcDbLine
 10
596.9215002433193
 20
1667.294306869144
 30
0.0
 11
574.9821900141133
 21
1667.294306869144
 31
0.0
  0
LINE
  5
36F
330
17
100
AcDbEntity
  8
4
100
AcDbLine
 10
596.9215002433193
 20
1670.294306869144
 30
0.0
 11
574.9821900141133
 21
1670.294306869144
 31
0.0
  0
LINE
  5
370
330
17
100
AcDbEntity
  8
4
100
AcDbLine
 10
577.7246037927644
 20
1678.294306869144
 30
0.0
 11
594.1790864646682
 21
1678.294306869144
 31
0.0
  0
LINE
  5
371
330
17
100
AcDbEntity
  8
4
100
AcDbLine
 10
596.9215002433193
 20
1677.157125958518
 30
0.0
 11
596.9215002433193
 21
1667.294306869144
 31
0.0
  0
LINE
  5
372
330
17
100
AcDbEntity
  8
L-CENTER
100
AcDbLine
 10
585.9518451287158
 20
1681.895146749248
 30
0.0
 11
585.9518451287158
 21
1637.454023393519
 31
0.0
  0
LINE
  5
373
330
17
100
AcDbEntity
  8
4
100
AcDbLine
 10
591.4366726860171
 20
1677.157125958518
 30
0.0
 11
591.4366726860171
 21
1670.294306869144
 31
0.0
  0
ARC
  5
374
330
17
100
AcDbEntity
  8
4
100
AcDbCircle
 10
577.7246037927639
 20
1674.418927993865
 30
0.0
 40
3.875378875279264
100
AcDbArc
 50
44.95592676274281
 51
135.044073237256
  0
LINE
  5
375
330
17
100
AcDbEntity
  8
4
100
AcDbLine
 10
574.9821900141133
 20
1667.294306869144
 30
0.0
 11
574.9821900141133
 21
1677.157125958518
 31
0.0
  0
LINE
  5
376
330
17
100
AcDbEntity
  8
4
100
AcDbLine
 10
580.4670175714145
 20
1677.157125958518
 30
0.0
 11
580.4670175714145
 21
1670.294306869144
 31
0.0
  0
ARC
  5
377
330
17
100
AcDbEntity
  8
4
100
AcDbCircle
 10
585.9518451287158
 20
1664.498562733967
 30
0.0
 40
13.7957441351769
100
AcDbArc
 50
66.5734024913725
 51
113.4265975086292
  0
ARC
  5
378
330
17
100
AcDbEntity
  8
4
100
AcDbCircle
 10
438.4746037927639
 20
1674.418927993865
 30
0.0
 40
3.875378875279264
100
AcDbArc
 50
44.95592676274281
 51
135.044073237256
  0
LINE
  5
379
330
17
100
AcDbEntity
  8
4
100
AcDbLine
 10
457.6715002433193
 20
1667.294306869144
 30
0.0
 11
435.7321900141133
 21
1667.294306869144
 31
0.0
  0
LINE
  5
37A
330
17
100
AcDbEntity
  8
4
100
AcDbLine
 10
457.6715002433193
 20
1670.294306869144
 30
0.0
 11
435.7321900141133
 21
1670.294306869144
 31
0.0
  0
LINE
  5
37B
330
17
100
AcDbEntity
  8
4
100
AcDbLine
 10
438.4746037927644
 20
1678.294306869144
 30
0.0
 11
454.9290864646682
 21
1678.294306869144
 31
0.0
  0
LINE
  5
37C
330
17
100
AcDbEntity
  8
4
100
AcDbLine
 10
452.1866726860171
 20
1677.157125958518
 30
0.0
 11
452.1866726860171
 21
1670.294306869144
 31
0.0
  0
LINE
  5
37D
330
17
100
AcDbEntity
  8
4
100
AcDbLine
 10
457.6715002433193
 20
1677.157125958518
 30
0.0
 11
457.6715002433193
 21
1667.294306869144
 31
0.0
  0
ARC
  5
37E
330
17
100
AcDbEntity
  8
4
100
AcDbCircle
 10
454.9290864646682
 20
1674.418927993865
 30
0.0
 40
3.875378875279244
100
AcDbArc
 50
44.955926762744
 51
135.044073237256
  0
LINE
  5
37F
330
17
100
AcDbEntity
  8
4
100
AcDbLine
 10
441.2170175714145
 20
1677.157125958518
 30
0.0
 11
441.2170175714145
 21
1670.294306869144
 31
0.0
  0
ARC
  5
380
330
17
100
AcDbEntity
  8
4
100
AcDbCircle
 10
446.7018451287158
 20
1664.498562733967
 30
0.0
 40
13.7957441351769
100
AcDbArc
 50
66.5734024913725
 51
113.4265975086275
  0
LINE
  5
381
330
17
100
AcDbEntity
  8
4
100
AcDbLine
 10
435.7321900141133
 20
1667.294306869144
 30
0.0
 11
435.7321900141133
 21
1677.157125958518
 31
0.0
  0
LINE
  5
382
330
17
100
AcDbEntity
  8
L-CENTER
 48
2.0
100
AcDbLine
 10
446.7018451287158
 20
1681.895146749248
 30
0.0
 11
446.7018451287158
 21
1637.454023393519
 31
0.0
  0
ARC
  5
383
330
17
100
AcDbEntity
  8
4
100
AcDbCircle
 10
445.2018451287158
 20
1670.994306869152
 30
0.0
 40
13.0
100
AcDbArc
 50
33.2456332316481
 51
196.5358596539425
  0
LINE
  5
384
330
17
100
AcDbEntity
  8
4
100
AcDbLine
 10
1037.601745128716
 20
774.3579002997674
 30
0.0
 11
1037.601745128716
 21
752.4185900705613
 31
0.0
  0
LINE
  5
385
330
17
100
AcDbEntity
  8
4
100
AcDbLine
 10
1040.601745128716
 20
774.3579002997674
 30
0.0
 11
1040.601745128716
 21
752.4185900705613
 31
0.0
  0
ARC
  5
386
330
17
100
AcDbEntity
  8
4
100
AcDbCircle
 10
1034.806000993538
 20
763.3882451851639
 30
0.0
 40
13.7957441351769
100
AcDbArc
 50
336.5734024913729
 51
23.42659750862626
  0
LINE
  5
387
330
17
100
AcDbEntity
  8
4
100
AcDbLine
 10
1048.601745128716
 20
755.1610038492124
 30
0.0
 11
1048.601745128716
 21
771.6154865211163
 31
0.0
  0
ARC
  5
388
330
17
100
AcDbEntity
  8
4
100
AcDbCircle
 10
1044.726366253437
 20
755.1610038492124
 30
0.0
 40
3.875378875279264
100
AcDbArc
 50
314.9559267627452
 51
45.04407323725481
  0
LINE
  5
389
330
17
100
AcDbEntity
  8
4
100
AcDbLine
 10
1037.601745128716
 20
752.4185900705613
 30
0.0
 11
1047.46456421809
 21
752.4185900705613
 31
0.0
  0
LINE
  5
38A
330
17
100
AcDbEntity
  8
4
100
AcDbLine
 10
1047.46456421809
 20
757.9034176278626
 30
0.0
 11
1040.601745128716
 21
757.9034176278626
 31
0.0
  0
LINE
  5
38B
330
17
100
AcDbEntity
  8
4
100
AcDbLine
 10
1047.46456421809
 20
768.8730727424652
 30
0.0
 11
1040.601745128716
 21
768.8730727424652
 31
0.0
  0
LINE
  5
38C
330
17
100
AcDbEntity
  8
4
100
AcDbLine
 10
1047.46456421809
 20
774.3579002997674
 30
0.0
 11
1037.601745128716
 21
774.3579002997674
 31
0.0
  0
ARC
  5
38D
330
17
100
AcDbEntity
  8
4
100
AcDbCircle
 10
1044.726366253437
 20
771.6154865211163
 30
0.0
 40
3.875378875279244
100
AcDbArc
 50
314.9559267627452
 51
45.04407323725481
  0
LINE
  5
38E
330
17
100
AcDbEntity
  8
4
100
AcDbLine
 10
1047.46456421809
 20
689.9206442997672
 30
0.0
 11
1037.601745128716
 21
689.9206442997672
 31
0.0
  0
LINE
  5
38F
330
17
100
AcDbEntity
  8
4
100
AcDbLine
 10
1047.46456421809
 20
684.435816742465
 30
0.0
 11
1040.601745128716
 21
684.435816742465
 31
0.0
  0
LINE
  5
390
330
17
100
AcDbEntity
  8
4
100
AcDbLine
 10
1047.46456421809
 20
673.4661616278624
 30
0.0
 11
1040.601745128716
 21
673.4661616278624
 31
0.0
  0
LINE
  5
391
330
17
100
AcDbEntity
  8
4
100
AcDbLine
 10
1037.601745128716
 20
667.9813340705612
 30
0.0
 11
1047.46456421809
 21
667.9813340705612
 31
0.0
  0
LINE
  5
392
330
17
100
AcDbEntity
  8
4
100
AcDbLine
 10
1040.601745128716
 20
689.9206442997672
 30
0.0
 11
1040.601745128716
 21
667.9813340705612
 31
0.0
  0
LINE
  5
393
330
17
100
AcDbEntity
  8
4
100
AcDbLine
 10
1037.601745128716
 20
689.9206442997672
 30
0.0
 11
1037.601745128716
 21
667.9813340705612
 31
0.0
  0
ARC
  5
394
330
17
100
AcDbEntity
  8
4
100
AcDbCircle
 10
1044.726366253437
 20
687.1782305211161
 30
0.0
 40
3.875378875279244
100
AcDbArc
 50
314.9559267627452
 51
45.04407323725481
  0
ARC
  5
395
330
17
100
AcDbEntity
  8
4
100
AcDbCircle
 10
1044.726366253437
 20
670.7237478492123
 30
0.0
 40
3.875378875279264
100
AcDbArc
 50
314.9559267627452
 51
45.04407323725481
  0
LINE
  5
396
330
17
100
AcDbEntity
  8
4
100
AcDbLine
 10
1048.601745128716
 20
670.7237478492123
 30
0.0
 11
1048.601745128716
 21
687.1782305211161
 31
0.0
  0
ARC
  5
397
330
17
100
AcDbEntity
  8
4
100
AcDbCircle
 10
1034.806000993538
 20
678.9509891851637
 30
0.0
 40
13.7957441351769
100
AcDbArc
 50
336.5734024913729
 51
23.42659750862626
  0
LINE
  5
398
330
17
100
AcDbEntity
  8
4
100
AcDbLine
 10
1037.601745128716
 20
583.544078070561
 30
0.0
 11
1047.46456421809
 21
583.544078070561
 31
0.0
  0
LINE
  5
399
330
17
100
AcDbEntity
  8
4
100
AcDbLine
 10
1047.46456421809
 20
589.0289056278623
 30
0.0
 11
1040.601745128716
 21
589.0289056278623
 31
0.0
  0
LINE
  5
39A
330
17
100
AcDbEntity
  8
4
100
AcDbLine
 10
1047.46456421809
 20
599.9985607424649
 30
0.0
 11
1040.601745128716
 21
599.9985607424649
 31
0.0
  0
LINE
  5
39B
330
17
100
AcDbEntity
  8
4
100
AcDbLine
 10
1047.46456421809
 20
605.4833882997671
 30
0.0
 11
1037.601745128716
 21
605.4833882997671
 31
0.0
  0
LINE
  5
39C
330
17
100
AcDbEntity
  8
4
100
AcDbLine
 10
1037.601745128716
 20
605.4833882997671
 30
0.0
 11
1037.601745128716
 21
583.544078070561
 31
0.0
  0
LINE
  5
39D
330
17
100
AcDbEntity
  8
4
100
AcDbLine
 10
1040.601745128716
 20
605.4833882997671
 30
0.0
 11
1040.601745128716
 21
583.544078070561
 31
0.0
  0
ARC
  5
39E
330
17
100
AcDbEntity
  8
4
100
AcDbCircle
 10
1044.726366253437
 20
586.2864918492121
 30
0.0
 40
3.875378875279264
100
AcDbArc
 50
314.9559267627452
 51
45.04407323725481
  0
ARC
  5
39F
330
17
100
AcDbEntity
  8
4
100
AcDbCircle
 10
1034.806000993538
 20
594.5137331851636
 30
0.0
 40
13.7957441351769
100
AcDbArc
 50
336.5734024913729
 51
23.42659750862626
  0
LINE
  5
3A0
330
17
100
AcDbEntity
  8
4
100
AcDbLine
 10
1048.601745128716
 20
586.2864918492121
 30
0.0
 11
1048.601745128716
 21
602.740974521116
 31
0.0
  0
ARC
  5
3A1
330
17
100
AcDbEntity
  8
4
100
AcDbCircle
 10
1044.726366253437
 20
602.740974521116
 30
0.0
 40
3.875378875279244
100
AcDbArc
 50
314.9559267627452
 51
45.04407323725481
  0
LINE
  5
3A2
330
17
100
AcDbEntity
  8
4
100
AcDbLine
 10
402.9391260393427
 20
774.3579002997781
 30
0.0
 11
412.8019451287159
 21
774.3579002997778
 31
0.0
  0
LINE
  5
3A3
330
17
100
AcDbEntity
  8
4
100
AcDbLine
 10
402.9391260393422
 20
768.8730727424759
 30
0.0
 11
409.8019451287155
 21
768.8730727424756
 31
0.0
  0
LINE
  5
3A4
330
17
100
AcDbEntity
  8
4
100
AcDbLine
 10
402.9391260393418
 20
757.9034176278733
 30
0.0
 11
409.801945128715
 21
757.9034176278731
 31
0.0
  0
LINE
  5
3A5
330
17
100
AcDbEntity
  8
4
100
AcDbLine
 10
412.801945128715
 20
752.4185900705718
 30
0.0
 11
402.9391260393418
 21
752.418590070572
 31
0.0
  0
LINE
  5
3A6
330
17
100
AcDbEntity
  8
4
100
AcDbLine
 10
409.8019451287159
 20
774.3579002997778
 30
0.0
 11
409.801945128715
 21
752.4185900705718
 31
0.0
  0
LINE
  5
3A7
330
17
100
AcDbEntity
  8
4
100
AcDbLine
 10
412.8019451287159
 20
774.3579002997778
 30
0.0
 11
412.801945128715
 21
752.4185900705718
 31
0.0
  0
ARC
  5
3A8
330
17
100
AcDbEntity
  8
4
100
AcDbCircle
 10
405.6773240039952
 20
771.615486521127
 30
0.0
 40
3.875378875279244
100
AcDbArc
 50
134.9559267627422
 51
225.0440732372483
  0
ARC
  5
3A9
330
17
100
AcDbEntity
  8
4
100
AcDbCircle
 10
405.6773240039943
 20
755.1610038492231
 30
0.0
 40
3.875378875279264
100
AcDbArc
 50
134.9559267627422
 51
225.0440732372542
  0
LINE
  5
3AA
330
17
100
AcDbEntity
  8
4
100
AcDbLine
 10
401.801945128715
 20
755.1610038492231
 30
0.0
 11
401.8019451287159
 21
771.615486521127
 31
0.0
  0
ARC
  5
3AB
330
17
100
AcDbEntity
  8
4
100
AcDbCircle
 10
415.5976892638923
 20
763.3882451851741
 30
0.0
 40
13.7957441351769
100
AcDbArc
 50
156.5734024913697
 51
203.4265975086263
  0
LINE
  5
3AC
330
17
100
AcDbEntity
  8
4
100
AcDbLine
 10
412.8019451287123
 20
667.9813340705716
 30
0.0
 11
402.939126039339
 21
667.9813340705718
 31
0.0
  0
LINE
  5
3AD
330
17
100
AcDbEntity
  8
4
100
AcDbLine
 10
402.939126039339
 20
673.4661616278731
 30
0.0
 11
409.8019451287123
 21
673.4661616278729
 31
0.0
  0
LINE
  5
3AE
330
17
100
AcDbEntity
  8
4
100
AcDbLine
 10
402.9391260393395
 20
684.4358167424757
 30
0.0
 11
409.8019451287128
 21
684.4358167424755
 31
0.0
  0
LINE
  5
3AF
330
17
100
AcDbEntity
  8
4
100
AcDbLine
 10
402.93912603934
 20
689.9206442997779
 30
0.0
 11
412.8019451287132
 21
689.9206442997777
 31
0.0
  0
LINE
  5
3B0
330
17
100
AcDbEntity
  8
4
100
AcDbLine
 10
412.8019451287132
 20
689.9206442997777
 30
0.0
 11
412.8019451287123
 21
667.9813340705716
 31
0.0
  0
LINE
  5
3B1
330
17
100
AcDbEntity
  8
4
100
AcDbLine
 10
409.8019451287132
 20
689.9206442997777
 30
0.0
 11
409.8019451287123
 21
667.9813340705716
 31
0.0
  0
ARC
  5
3B2
330
17
100
AcDbEntity
  8
4
100
AcDbCircle
 10
405.6773240039915
 20
670.723747849223
 30
0.0
 40
3.875378875279264
100
AcDbArc
 50
134.9559267627422
 51
225.0440732372542
  0
ARC
  5
3B3
330
17
100
AcDbEntity
  8
4
100
AcDbCircle
 10
415.5976892638896
 20
678.950989185174
 30
0.0
 40
13.7957441351769
100
AcDbArc
 50
156.5734024913697
 51
203.4265975086263
  0
LINE
  5
3B4
330
17
100
AcDbEntity
  8
4
100
AcDbLine
 10
401.8019451287123
 20
670.723747849223
 30
0.0
 11
401.8019451287128
 21
687.1782305211268
 31
0.0
  0
ARC
  5
3B5
330
17
100
AcDbEntity
  8
4
100
AcDbCircle
 10
405.677324003992
 20
687.1782305211268
 30
0.0
 40
3.875378875279244
100
AcDbArc
 50
134.9559267627422
 51
225.0440732372542
  0
LINE
  5
3B6
330
17
100
AcDbEntity
  8
4
100
AcDbLine
 10
402.9391260393368
 20
605.4833882997777
 30
0.0
 11
412.80194512871
 21
605.4833882997775
 31
0.0
  0
LINE
  5
3B7
330
17
100
AcDbEntity
  8
4
100
AcDbLine
 10
402.9391260393363
 20
599.9985607424755
 30
0.0
 11
409.8019451287096
 21
599.9985607424753
 31
0.0
  0
LINE
  5
3B8
330
17
100
AcDbEntity
  8
4
100
AcDbLine
 10
402.9391260393363
 20
589.028905627873
 30
0.0
 11
409.8019451287096
 21
589.0289056278727
 31
0.0
  0
LINE
  5
3B9
330
17
100
AcDbEntity
  8
4
100
AcDbLine
 10
412.8019451287096
 20
583.5440780705715
 30
0.0
 11
402.9391260393363
 21
583.5440780705717
 31
0.0
  0
LINE
  5
3BA
330
17
100
AcDbEntity
  8
4
100
AcDbLine
 10
409.80194512871
 20
605.4833882997775
 30
0.0
 11
409.8019451287096
 21
583.5440780705715
 31
0.0
  0
LINE
  5
3BB
330
17
100
AcDbEntity
  8
4
100
AcDbLine
 10
412.80194512871
 20
605.4833882997775
 30
0.0
 11
412.8019451287096
 21
583.5440780705715
 31
0.0
  0
LINE
  5
3BC
330
17
100
AcDbEntity
  8
4
100
AcDbLine
 10
401.8019451287096
 20
586.2864918492228
 30
0.0
 11
401.80194512871
 21
602.7409745211266
 31
0.0
  0
ARC
  5
3BD
330
17
100
AcDbEntity
  8
4
100
AcDbCircle
 10
405.6773240039888
 20
586.2864918492228
 30
0.0
 40
3.875378875279264
100
AcDbArc
 50
134.9559267627422
 51
225.0440732372483
  0
ARC
  5
3BE
330
17
100
AcDbEntity
  8
4
100
AcDbCircle
 10
405.6773240039893
 20
602.7409745211266
 30
0.0
 40
3.875378875279244
100
AcDbArc
 50
134.9559267627422
 51
225.0440732372542
  0
ARC
  5
3BF
330
17
100
AcDbEntity
  8
4
100
AcDbCircle
 10
415.5976892638869
 20
594.5137331851738
 30
0.0
 40
13.7957441351769
100
AcDbArc
 50
156.5734024913697
 51
203.4265975086263
  0
ARC
  5
3C0
330
17
100
AcDbEntity
  8
4
100
AcDbCircle
 10
725.2018451287154
 20
1520.994306869152
 30
0.0
 40
25.0
100
AcDbArc
 50
23.57817847820079
 51
156.4218215217982
  0
LINE
  5
3C1
330
17
100
AcDbEntity
  8
L-CENTER
 48
2.0
100
AcDbLine
 10
565.2018451287158
 20
1563.330010877788
 30
0.0
 11
565.2018451287158
 21
1481.0966455983
 31
0.0
  0
CIRCLE
  5
3C2
330
17
100
AcDbEntity
  8
4
100
AcDbCircle
 10
565.2018451287158
 20
1520.994306869152
 30
0.0
 40
25.0
  0
CIRCLE
  5
3C3
330
17
100
AcDbEntity
  8
4
100
AcDbCircle
 10
565.2018451287158
 20
1520.994306869152
 30
0.0
 40
23.0
  0
LWPOLYLINE
  5
3C4
330
17
100
AcDbEntity
  8
4
100
AcDbPolyline
 90
        6
 70
     1
 43
0.0
 10
588.2018451287158
 20
1520.994306869152
 10
576.7018451287158
 20
1540.912891156194
 10
553.7018451287158
 20
1540.912891156194
 10
542.2018451287158
 20
1520.994306869152
 10
553.7018451287158
 20
1501.07572258211
 10
576.7018451287158
 20
1501.07572258211
  0
LINE
  5
3C5
330
17
100
AcDbEntity
  8
4
100
AcDbLine
 10
690.2018451287154
 20
1510.994306869152
 30
0.0
 11
760.2018451287154
 21
1510.994306869152
 31
0.0
  0
LINE
  5
3C6
330
17
100
AcDbEntity
  8
4
100
AcDbLine
 10
690.2018451287154
 20
1530.994306869152
 30
0.0
 11
760.2018451287154
 21
1530.994306869152
 31
0.0
  0
ARC
  5
3C7
330
17
100
AcDbEntity
  8
4
100
AcDbCircle
 10
725.2018451287154
 20
1520.994306869152
 30
0.0
 40
22.5
100
AcDbArc
 50
206.3877999612431
 51
333.6122000387571
  0
ARC
  5
3C8
330
17
100
AcDbEntity
  8
4
100
AcDbCircle
 10
725.2018451287154
 20
1520.994306869152
 30
0.0
 40
20.0
100
AcDbArc
 50
209.9999999999999
 51
330.0000000000002
  0
ARC
  5
3C9
330
17
100
AcDbEntity
  8
4
100
AcDbCircle
 10
725.2018451287154
 20
1520.994306869152
 30
0.0
 40
20.0
100
AcDbArc
 50
29.99999999999988
 51
150.0000000000001
  0
ARC
  5
3CA
330
17
100
AcDbEntity
  8
4
100
AcDbCircle
 10
725.2018451287154
 20
1520.994306869152
 30
0.0
 40
22.5
100
AcDbArc
 50
26.38779996124289
 51
153.6122000387569
  0
ARC
  5
3CB
330
17
100
AcDbEntity
  8
4
100
AcDbCircle
 10
760.2018451287154
 20
1520.994306869152
 30
0.0
 40
10.0
100
AcDbArc
 50
270.0
 51
90.0
  0
ARC
  5
3CC
330
17
100
AcDbEntity
  8
4
100
AcDbCircle
 10
690.2018451287154
 20
1520.994306869152
 30
0.0
 40
10.0
100
AcDbArc
 50
90.0
 51
270.0
  0
ARC
  5
3CD
330
17
100
AcDbEntity
  8
4
100
AcDbCircle
 10
725.2018451287154
 20
1520.994306869152
 30
0.0
 40
25.0
100
AcDbArc
 50
203.5781784782018
 51
336.4218215217992
  0
LINE
  5
3CE
330
17
100
AcDbEntity
  8
L-CENTER
 48
2.0
100
AcDbLine
 10
488.2018441287159
 20
1497.608040317122
 30
0.0
 11
488.2018441287159
 21
1545.715332238762
 31
0.0
  0
CIRCLE
  5
3CF
330
17
100
AcDbEntity
  8
4
100
AcDbCircle
 10
488.2018441287159
 20
1520.994306869152
 30
0.0
 40
16.0
  0
CIRCLE
  5
3D0
330
17
100
AcDbEntity
  8
4
100
AcDbCircle
 10
962.2018461287157
 20
1520.994306869152
 30
0.0
 40
16.0
  0
LINE
  5
3D1
330
17
100
AcDbEntity
  8
L-CENTER
 48
2.0
100
AcDbLine
 10
962.2018461287157
 20
1497.608040317122
 30
0.0
 11
962.2018461287157
 21
1545.715332238762
 31
0.0
  0
LINE
  5
3D2
330
17
100
AcDbEntity
  8
4
100
AcDbLine
 10
652.2018481287159
 20
1354.882395884795
 30
0.0
 11
798.2018436787152
 21
1354.882395884795
 31
0.0
  0
LINE
  5
3D3
330
17
100
AcDbEntity
  8
4
100
AcDbLine
 10
652.2018481287159
 20
1356.994306869152
 30
0.0
 11
652.2018481287159
 21
1354.882395884795
 31
0.0
  0
LINE
  5
3D4
330
17
100
AcDbEntity
  8
4
100
AcDbLine
 10
666.221439483696
 20
1376.994306869152
 30
0.0
 11
652.2018481287159
 21
1356.99430686915
 31
0.0
  0
LINE
  5
3D5
330
17
100
AcDbEntity
  8
4
100
AcDbLine
 10
652.2018481287159
 20
1356.994306869152
 30
0.0
 11
610.2018451287158
 21
1356.994306869152
 31
0.0
  0
LINE
  5
3D6
330
17
100
AcDbEntity
  8
4
100
AcDbLine
 10
667.7018459326345
 20
1376.994306869152
 30
0.0
 11
652.2018481287159
 21
1354.882395884795
 31
0.0
  0
LINE
  5
3D7
330
17
100
AcDbEntity
  8
4
100
AcDbLine
 10
978.201844128716
 20
826.9509881851639
 30
0.0
 11
962.2018461287157
 21
826.9509881851639
 31
0.0
  0
LINE
  5
3D8
330
17
100
AcDbEntity
  8
4
100
AcDbLine
 10
962.2018461287157
 20
828.9509931851642
 30
0.0
 11
978.201844128716
 21
828.9509931851642
 31
0.0
  0
LINE
  5
3D9
330
17
100
AcDbEntity
  8
4
100
AcDbLine
 10
962.2018461287157
 20
829.9509921851643
 30
0.0
 11
976.2018461287157
 21
829.9509921851643
 31
0.0
  0
LINE
  5
3DA
330
17
100
AcDbEntity
  8
4
100
AcDbLine
 10
957.9518451287154
 20
802.9509911851644
 30
0.0
 11
966.451847128716
 21
802.9509911851644
 31
0.0
  0
ARC
  5
3DB
330
17
100
AcDbEntity
  8
4
100
AcDbCircle
 10
966.451847128716
 20
793.4197421851643
 30
0.0
 40
9.531249
100
AcDbArc
 50
63.51896000000171
 51
116.4810399999983
  0
LINE
  5
3DC
330
17
100
AcDbEntity
  8
4
100
AcDbLine
 10
962.2018461287157
 20
810.9509901851641
 30
0.0
 11
977.2018451287154
 21
810.9509901851641
 31
0.0
  0
LINE
  5
3DD
330
17
100
AcDbEntity
  8
4
100
AcDbLine
 10
977.2018451287154
 20
810.9509901851641
 30
0.0
 11
977.2018451287154
 21
826.9509881851639
 31
0.0
  0
ARC
  5
3DE
330
17
100
AcDbEntity
  8
4
100
AcDbCircle
 10
976.7018421287162
 20
804.9509891851637
 30
0.0
 40
6.000001
100
AcDbArc
 50
90.0
 51
180.0
  0
LINE
  5
3DF
330
17
100
AcDbEntity
  8
4
100
AcDbLine
 10
970.7018481287164
 20
804.9509891851637
 30
0.0
 11
970.7018481287164
 21
795.9509911851644
 31
0.0
  0
LINE
  5
3E0
330
17
100
AcDbEntity
  8
4
100
AcDbLine
 10
976.2018461287157
 20
829.9509921851643
 30
0.0
 11
978.201844128716
 21
828.9509931851642
 31
0.0
  0
LINE
  5
3E1
330
17
100
AcDbEntity
  8
4
100
AcDbLine
 10
978.201844128716
 20
826.9509881851639
 30
0.0
 11
978.201844128716
 21
828.9509931851642
 31
0.0
  0
LINE
  5
3E2
330
17
100
AcDbEntity
  8
L-CENTER
 48
2.0
100
AcDbLine
 10
962.2018461287157
 20
835.5004941851641
 30
0.0
 11
962.2018461287157
 21
781.0927138092718
 31
0.0
  0
LINE
  5
3E3
330
17
100
AcDbEntity
  8
4
100
AcDbLine
 10
947.201847128716
 20
810.9509901851641
 30
0.0
 11
947.201847128716
 21
826.9509881851639
 31
0.0
  0
ARC
  5
3E4
330
17
100
AcDbEntity
  8
4
100
AcDbCircle
 10
947.7018431287156
 20
804.9509891851637
 30
0.0
 40
6.000001
100
AcDbArc
 50
0.0
 51
90.0
  0
ARC
  5
3E5
330
17
100
AcDbEntity
  8
4
100
AcDbCircle
 10
957.9518451287154
 20
793.4197421851643
 30
0.0
 40
9.531249
100
AcDbArc
 50
63.51895999999559
 51
116.4810399999983
  0
LINE
  5
3E6
330
17
100
AcDbEntity
  8
4
100
AcDbLine
 10
953.701844128716
 20
795.9509911851644
 30
0.0
 11
953.701844128716
 21
804.9509891851637
 31
0.0
  0
LINE
  5
3E7
330
17
100
AcDbEntity
  8
4
100
AcDbLine
 10
962.2018461287157
 20
810.9509901851641
 30
0.0
 11
947.201847128716
 21
810.9509901851641
 31
0.0
  0
LINE
  5
3E8
330
17
100
AcDbEntity
  8
4
100
AcDbLine
 10
962.2018461287157
 20
829.9509921851643
 30
0.0
 11
948.2018461287157
 21
829.9509921851643
 31
0.0
  0
LINE
  5
3E9
330
17
100
AcDbEntity
  8
4
100
AcDbLine
 10
962.2018461287157
 20
828.9509931851642
 30
0.0
 11
946.2018481287164
 21
828.9509931851642
 31
0.0
  0
LINE
  5
3EA
330
17
100
AcDbEntity
  8
4
100
AcDbLine
 10
946.2018481287164
 20
826.9509881851639
 30
0.0
 11
962.2018461287157
 21
826.9509881851639
 31
0.0
  0
LINE
  5
3EB
330
17
100
AcDbEntity
  8
4
100
AcDbLine
 10
948.2018461287157
 20
829.9509921851643
 30
0.0
 11
946.2018481287164
 21
828.9509931851642
 31
0.0
  0
LINE
  5
3EC
330
17
100
AcDbEntity
  8
4
100
AcDbLine
 10
946.2018481287164
 20
826.9509881851639
 30
0.0
 11
946.2018481287164
 21
828.9509931851642
 31
0.0
  0
LINE
  5
3ED
330
17
100
AcDbEntity
  8
L-CENTER
 48
2.0
100
AcDbLine
 10
395.8029731287161
 20
594.5137331851636
 30
0.0
 11
458.383975128716
 21
594.5137331851636
 31
0.0
  0
LINE
  5
3EE
330
17
100
AcDbEntity
  8
L-CENTER
 48
2.0
100
AcDbLine
 10
395.8029731287161
 20
763.3882451851639
 30
0.0
 11
458.383975128716
 21
763.3882451851639
 31
0.0
  0
LINE
  5
514
330
17
100
AcDbEntity
  8
4
100
AcDbLine
 10
2325.72526331038
 20
438.4509881851641
 30
0.0
 11
2301.72526331038
 21
438.4509881851641
 31
0.0
  0
LINE
  5
515
330
17
100
AcDbEntity
  8
4
100
AcDbLine
 10
2325.72526331038
 20
422.4509861851639
 30
0.0
 11
2301.72526331038
 21
422.4509861851639
 31
0.0
  0
LINE
  5
516
330
17
100
AcDbEntity
  8
4
100
AcDbLine
 10
2301.72526331038
 20
438.4509881851641
 30
0.0
 11
2301.72526331038
 21
422.4509861851639
 31
0.0
  0
LINE
  5
517
330
17
100
AcDbEntity
  8
4
100
AcDbLine
 10
2325.72526331038
 20
422.4509861851639
 30
0.0
 11
2325.72526331038
 21
438.4509881851641
 31
0.0
  0
LINE
  5
51A
330
17
100
AcDbEntity
  8
L-CENTER
 48
2.0
100
AcDbLine
 10
2313.72526331038
 20
316.6923461851642
 30
0.0
 11
2313.72526331038
 21
451.2096341851638
 31
0.0
  0
LINE
  5
52A
330
17
100
AcDbEntity
  8
L-CENTER
 48
2.0
100
AcDbLine
 10
2246.46661931038
 20
383.9509901851643
 30
0.0
 11
2380.98390731038
 21
383.9509901851638
 31
0.0
  0
ARC
  5
52B
330
17
100
AcDbEntity
  8
4
100
AcDbCircle
 10
2313.72526331038
 20
383.9509901851638
 30
0.0
 40
46.500054
100
AcDbArc
 50
104.9552305438094
 51
75.04478700000072
  0
ARC
  5
560
330
17
100
AcDbEntity
  8
4
100
AcDbCircle
 10
1955.913579303691
 20
678.450987185164
 30
0.0
 40
1.0
100
AcDbArc
 50
0.0
 51
90.0
  0
ARC
  5
561
330
17
100
AcDbEntity
  8
4
100
AcDbCircle
 10
725.2018451287154
 20
615.9509901851641
 30
0.0
 40
22.5
100
AcDbArc
 50
180.0
 51
0.0
  0
LINE
  5
562
330
17
100
AcDbEntity
  8
4
100
AcDbLine
 10
747.7018451287154
 20
615.9509901851641
 30
0.0
 11
747.7018451287154
 21
643.1999043178948
 31
0.0
  0
ARC
  5
563
330
17
100
AcDbEntity
  8
4
100
AcDbCircle
 10
876.2018451287163
 20
743.9509901851648
 30
0.0
 40
9.0
100
AcDbArc
 50
0.0
 51
90.0
  0
LINE
  5
564
330
17
100
AcDbEntity
  8
4
100
AcDbLine
 10
808.2018451287145
 20
749.9509901851645
 30
0.0
 11
808.2018451287145
 21
710.9509901851643
 31
0.0
  0
LINE
  5
565
330
17
100
AcDbEntity
  8
4
100
AcDbLine
 10
811.2018451287145
 20
707.9509901851643
 30
0.0
 11
839.2018451287145
 21
707.950990185165
 31
0.0
  0
ARC
  5
566
330
17
100
AcDbEntity
  8
4
100
AcDbCircle
 10
876.2018451287145
 20
716.9509901851648
 30
0.0
 40
9.0
100
AcDbArc
 50
270.0
 51
0.0
  0
LINE
  5
567
330
17
100
AcDbEntity
  8
4
100
AcDbLine
 10
854.2018451287145
 20
707.950990185165
 30
0.0
 11
876.2018451287145
 21
707.9509901851652
 31
0.0
  0
LINE
  5
568
330
17
100
AcDbEntity
  8
4
100
AcDbLine
 10
885.2018451287163
 20
743.9509901851648
 30
0.0
 11
885.2018451287163
 21
742.4509901851648
 31
0.0
  0
LINE
  5
569
330
17
100
AcDbEntity
  8
4
100
AcDbLine
 10
885.2018451287145
 20
718.4509901851652
 30
0.0
 11
885.2018451287145
 21
716.9509901851643
 31
0.0
  0
LINE
  5
56A
330
17
100
AcDbEntity
  8
4
100
AcDbLine
 10
811.2018451287145
 20
752.9509901851645
 30
0.0
 11
816.2018451287145
 21
752.9509901851643
 31
0.0
  0
LINE
  5
56B
330
17
100
AcDbEntity
  8
4
100
AcDbLine
 10
854.2018451287163
 20
752.9509901851648
 30
0.0
 11
876.2018451287163
 21
752.9509901851648
 31
0.0
  0
LINE
  5
56C
330
17
100
AcDbEntity
  8
4
100
AcDbLine
 10
819.2018451287145
 20
749.9509901851643
 30
0.0
 11
819.2018451287145
 21
721.950990185165
 31
0.0
  0
LINE
  5
56D
330
17
100
AcDbEntity
  8
4
100
AcDbLine
 10
822.2018451287145
 20
718.950990185165
 30
0.0
 11
839.2018451287145
 21
718.9509901851645
 31
0.0
  0
LINE
  5
56E
330
17
100
AcDbEntity
  8
4
100
AcDbLine
 10
842.2018451287145
 20
715.9509901851645
 30
0.0
 11
842.2018451287145
 21
710.950990185165
 31
0.0
  0
ARC
  5
56F
330
17
100
AcDbEntity
  8
4
100
AcDbCircle
 10
811.2018451287145
 20
749.9509901851645
 30
0.0
 40
3.0
100
AcDbArc
 50
90.0
 51
180.0
  0
ARC
  5
570
330
17
100
AcDbEntity
  8
4
100
AcDbCircle
 10
816.2018451287145
 20
749.9509901851643
 30
0.0
 40
3.0
100
AcDbArc
 50
0.0
 51
90.0
  0
ARC
  5
571
330
17
100
AcDbEntity
  8
4
100
AcDbCircle
 10
822.2018451287145
 20
721.950990185165
 30
0.0
 40
3.0
100
AcDbArc
 50
180.0
 51
270.0
  0
ARC
  5
572
330
17
100
AcDbEntity
  8
4
100
AcDbCircle
 10
839.2018451287145
 20
715.9509901851645
 30
0.0
 40
3.0
100
AcDbArc
 50
0.0
 51
90.0
  0
ARC
  5
573
330
17
100
AcDbEntity
  8
4
100
AcDbCircle
 10
811.2018451287145
 20
710.9509901851643
 30
0.0
 40
3.0
100
AcDbArc
 50
180.0
 51
270.0
  0
ARC
  5
574
330
17
100
AcDbEntity
  8
4
100
AcDbCircle
 10
839.2018451287145
 20
710.950990185165
 30
0.0
 40
3.0
100
AcDbArc
 50
270.0
 51
0.0
  0
LINE
  5
575
330
17
100
AcDbEntity
  8
4
100
AcDbLine
 10
851.2018451287163
 20
749.9509901851648
 30
0.0
 11
851.2018451287145
 21
710.950990185165
 31
0.0
  0
ARC
  5
576
330
17
100
AcDbEntity
  8
4
100
AcDbCircle
 10
854.2018451287145
 20
710.950990185165
 30
0.0
 40
3.0
100
AcDbArc
 50
180.0
 51
270.0
  0
ARC
  5
577
330
17
100
AcDbEntity
  8
4
100
AcDbCircle
 10
854.2018451287163
 20
749.9509901851648
 30
0.0
 40
3.0
100
AcDbArc
 50
90.0
 51
180.0
  0
ARC
  5
578
330
17
100
AcDbEntity
  8
4
100
AcDbCircle
 10
885.2018451287163
 20
730.4509901851648
 30
0.0
 40
6.0
100
AcDbArc
 50
126.8698976458484
 51
233.1301023541516
  0
ARC
  5
579
330
17
100
AcDbEntity
  8
4
100
AcDbCircle
 10
876.2018451287163
 20
742.4509901851648
 30
0.0
 40
9.0
100
AcDbArc
 50
306.8698976458411
 51
0.0
  0
ARC
  5
57A
330
17
100
AcDbEntity
  8
4
100
AcDbCircle
 10
876.2018451287145
 20
718.4509901851652
 30
0.0
 40
9.0
100
AcDbArc
 50
0.0
 51
53.13010235415164
  0
LINE
  5
57B
330
17
100
AcDbEntity
  8
4
100
AcDbLine
 10
894.2018451287163
 20
732.9509901851645
 30
0.0
 11
894.2018451287163
 21
727.9509901851648
 31
0.0
  0
LINE
  5
57C
330
17
100
AcDbEntity
  8
4
100
AcDbLine
 10
905.2018451287163
 20
732.9509901851645
 30
0.0
 11
905.2018451287154
 21
727.9509901851645
 31
0.0
  0
LINE
  5
57D
330
17
100
AcDbEntity
  8
4
100
AcDbLine
 10
897.2018451287163
 20
735.9509901851645
 30
0.0
 11
902.2018451287163
 21
735.9509901851645
 31
0.0
  0
LINE
  5
57E
330
17
100
AcDbEntity
  8
4
100
AcDbLine
 10
897.2018451287163
 20
724.9509901851648
 30
0.0
 11
902.2018451287154
 21
724.9509901851645
 31
0.0
  0
ARC
  5
57F
330
17
100
AcDbEntity
  8
4
100
AcDbCircle
 10
897.2018451287163
 20
732.9509901851645
 30
0.0
 40
3.0
100
AcDbArc
 50
90.0
 51
180.0
  0
ARC
  5
580
330
17
100
AcDbEntity
  8
4
100
AcDbCircle
 10
902.2018451287163
 20
732.9509901851645
 30
0.0
 40
3.0
100
AcDbArc
 50
0.0
 51
90.0
  0
ARC
  5
581
330
17
100
AcDbEntity
  8
4
100
AcDbCircle
 10
902.2018451287154
 20
727.9509901851645
 30
0.0
 40
3.0
100
AcDbArc
 50
270.0
 51
0.0
  0
ARC
  5
582
330
17
100
AcDbEntity
  8
4
100
AcDbCircle
 10
897.2018451287163
 20
727.9509901851648
 30
0.0
 40
3.0
100
AcDbArc
 50
180.0
 51
270.0
  0
LINE
  5
583
330
17
100
AcDbEntity
  8
4
100
AcDbLine
 10
914.2018451287163
 20
749.9509901851645
 30
0.0
 11
914.2018451287145
 21
710.950990185165
 31
0.0
  0
LINE
  5
584
330
17
100
AcDbEntity
  8
4
100
AcDbLine
 10
925.2018451287163
 20
749.9509901851645
 30
0.0
 11
925.2018451287145
 21
710.950990185165
 31
0.0
  0
LINE
  5
585
330
17
100
AcDbEntity
  8
4
100
AcDbLine
 10
917.2018451287163
 20
752.9509901851645
 30
0.0
 11
922.2018451287163
 21
752.9509901851645
 31
0.0
  0
LINE
  5
586
330
17
100
AcDbEntity
  8
4
100
AcDbLine
 10
917.2018451287145
 20
707.950990185165
 30
0.0
 11
922.2018451287145
 21
707.950990185165
 31
0.0
  0
ARC
  5
587
330
17
100
AcDbEntity
  8
4
100
AcDbCircle
 10
917.2018451287145
 20
710.950990185165
 30
0.0
 40
3.0
100
AcDbArc
 50
180.0
 51
270.0
  0
ARC
  5
588
330
17
100
AcDbEntity
  8
4
100
AcDbCircle
 10
922.2018451287145
 20
710.950990185165
 30
0.0
 40
3.0
100
AcDbArc
 50
270.0
 51
0.0
  0
ARC
  5
589
330
17
100
AcDbEntity
  8
4
100
AcDbCircle
 10
922.2018451287163
 20
749.9509901851645
 30
0.0
 40
3.0
100
AcDbArc
 50
0.0
 51
90.0
  0
ARC
  5
58A
330
17
100
AcDbEntity
  8
4
100
AcDbCircle
 10
917.2018451287163
 20
749.9509901851645
 30
0.0
 40
3.0
100
AcDbArc
 50
90.0
 51
180.0
  0
LINE
  5
58B
330
17
100
AcDbEntity
  8
4
100
AcDbLine
 10
934.2018451287163
 20
743.9509901851648
 30
0.0
 11
934.2018451287154
 21
716.950990185165
 31
0.0
  0
LINE
  5
58C
330
17
100
AcDbEntity
  8
4
100
AcDbLine
 10
943.2018451287154
 20
707.9509901851648
 30
0.0
 11
955.2018451287163
 21
707.9509901851654
 31
0.0
  0
LINE
  5
58D
330
17
100
AcDbEntity
  8
4
100
AcDbLine
 10
943.2018451287163
 20
752.9509901851645
 30
0.0
 11
955.2018451287163
 21
752.9509901851645
 31
0.0
  0
LINE
  5
58E
330
17
100
AcDbEntity
  8
4
100
AcDbLine
 10
964.2018451287163
 20
743.9509901851641
 30
0.0
 11
964.2018451287163
 21
716.950990185165
 31
0.0
  0
ARC
  5
58F
330
17
100
AcDbEntity
  8
4
100
AcDbCircle
 10
943.2018451287154
 20
716.9509901851648
 30
0.0
 40
9.0
100
AcDbArc
 50
180.0
 51
270.0
  0
ARC
  5
590
330
17
100
AcDbEntity
  8
4
100
AcDbCircle
 10
943.2018451287163
 20
743.9509901851645
 30
0.0
 40
9.0
100
AcDbArc
 50
90.0
 51
180.0
  0
ARC
  5
591
330
17
100
AcDbEntity
  8
4
100
AcDbCircle
 10
955.2018451287163
 20
743.9509901851643
 30
0.0
 40
9.0
100
AcDbArc
 50
0.0
 51
90.0
  0
ARC
  5
592
330
17
100
AcDbEntity
  8
4
100
AcDbCircle
 10
955.2018451287163
 20
716.9509901851652
 30
0.0
 40
9.0
100
AcDbArc
 50
270.0
 51
0.0
  0
LINE
  5
593
330
17
100
AcDbEntity
  8
4
100
AcDbLine
 10
977.2018451287163
 20
756.9509901851648
 30
0.0
 11
977.2018451287145
 21
703.9509901851661
 31
0.0
  0
LINE
  5
594
330
17
100
AcDbEntity
  8
4
100
AcDbLine
 10
804.2018451287145
 20
765.9509901851627
 30
0.0
 11
968.2018451287163
 21
765.9509901851648
 31
0.0
  0
LINE
  5
595
330
17
100
AcDbEntity
  8
4
100
AcDbLine
 10
804.2018451287163
 20
694.950990185157
 30
0.0
 11
968.2018451287163
 21
694.9509901851661
 31
0.0
  0
LINE
  5
596
330
17
100
AcDbEntity
  8
4
100
AcDbLine
 10
795.2018451287145
 20
756.9509901851627
 30
0.0
 11
795.2018451287145
 21
703.950990185157
 31
0.0
  0
ARC
  5
597
330
17
100
AcDbEntity
  8
4
100
AcDbCircle
 10
804.2018451287145
 20
703.950990185157
 30
0.0
 40
9.0
100
AcDbArc
 50
180.0
 51
270.0000000000058
  0
ARC
  5
598
330
17
100
AcDbEntity
  8
4
100
AcDbCircle
 10
968.2018451287145
 20
703.9509901851661
 30
0.0
 40
9.0
100
AcDbArc
 50
270.0000000000058
 51
0.0
  0
ARC
  5
599
330
17
100
AcDbEntity
  8
4
100
AcDbCircle
 10
968.2018451287163
 20
756.9509901851648
 30
0.0
 40
9.0
100
AcDbArc
 50
0.0
 51
90.0
  0
ARC
  5
59A
330
17
100
AcDbEntity
  8
4
100
AcDbCircle
 10
804.2018451287145
 20
756.9509901851627
 30
0.0
 40
9.0
100
AcDbArc
 50
90.0
 51
180.0
  0
LINE
  5
59B
330
17
100
AcDbEntity
  8
4
100
AcDbLine
 10
797.3975288093402
 20
501.247650523482
 30
0.0
 11
783.2902400173393
 21
635.5012268676874
 31
0.0
  0
ARC
  5
59C
330
17
100
AcDbEntity
  8
4
100
AcDbCircle
 10
807.3427734090978
 20
502.2926911212548
 30
0.0
 40
10.0
100
AcDbArc
 50
185.9985940830393
 51
260.7315348759806
  0
ARC
  5
59D
330
17
100
AcDbEntity
  8
4
100
AcDbCircle
 10
787.2683378572424
 20
635.9192431067966
 30
0.0
 40
4.0
100
AcDbArc
 50
76.16201473835778
 51
185.9985940830366
  0
LINE
  5
59E
330
17
100
AcDbEntity
  8
4
100
AcDbLine
 10
702.7018451287154
 20
615.9509901851641
 30
0.0
 11
702.7018451287154
 21
643.1999043178948
 31
0.0
  0
ARC
  5
59F
330
17
100
AcDbEntity
  8
4
100
AcDbCircle
 10
663.1353524001884
 20
635.9192431067966
 30
0.0
 40
4.0
100
AcDbArc
 50
354.0014059169634
 51
103.8379852616422
  0
LINE
  5
5A0
330
17
100
AcDbEntity
  8
4
100
AcDbLine
 10
653.0061614480906
 20
501.247650523482
 30
0.0
 11
667.1134502400914
 21
635.5012268676874
 31
0.0
  0
ARC
  5
5A1
330
17
100
AcDbEntity
  8
4
100
AcDbCircle
 10
643.0609168483329
 20
502.2926911212548
 30
0.0
 40
10.0
100
AcDbArc
 50
279.2684651240194
 51
354.0014059169607
  0
ARC
  5
5A2
330
17
100
AcDbEntity
  8
4
100
AcDbCircle
 10
750.7018451287154
 20
643.1999043178948
 30
0.0
 40
3.0
100
AcDbArc
 50
84.38239603106855
 51
180.0
  0
ARC
  5
5A3
330
17
100
AcDbEntity
  8
4
100
AcDbCircle
 10
699.7018451287154
 20
643.1999043178948
 30
0.0
 40
3.0
100
AcDbArc
 50
0.0
 51
95.61760396893146
  0
LINE
  5
5A4
330
17
100
AcDbEntity
  8
4
100
AcDbLine
 10
798.2018421287148
 20
1356.994306869152
 30
0.0
 11
798.2018421287148
 21
1354.882395884795
 31
0.0
  0
LINE
  5
5A5
330
17
100
AcDbEntity
  8
4
100
AcDbLine
 10
784.1822507737347
 20
1376.994306869152
 30
0.0
 11
798.2018421287148
 21
1356.99430686915
 31
0.0
  0
LINE
  5
5A6
330
17
100
AcDbEntity
  8
4
100
AcDbLine
 10
798.2018421287148
 20
1356.994306869152
 30
0.0
 11
840.2018451287149
 21
1356.994306869152
 31
0.0
  0
LINE
  5
5A7
330
17
100
AcDbEntity
  8
4
100
AcDbLine
 10
782.7018443247963
 20
1376.994306869152
 30
0.0
 11
798.2018421287148
 21
1354.882395884795
 31
0.0
  0
LINE
  5
5CC
330
17
100
AcDbEntity
  8
4
100
AcDbLine
 10
411.8019431287144
 20
633.9509911851635
 30
0.0
 11
411.8019431287144
 21
667.9813340705612
 31
0.0
  0
LINE
  5
5CD
330
17
100
AcDbEntity
  8
4
100
AcDbLine
 10
412.801945128715
 20
633.9509911851635
 30
0.0
 11
411.8019431287144
 21
633.9509911851635
 31
0.0
  0
LINE
  5
5CE
330
17
100
AcDbEntity
  8
4
100
AcDbLine
 10
395.2018451287154
 20
647.4509891851637
 30
0.0
 11
276.2018471287142
 21
647.4509891851637
 31
0.0
  0
LINE
  5
5CF
330
17
100
AcDbEntity
  8
4
100
AcDbLine
 10
275.2018451287154
 20
716.4509891851637
 30
0.0
 11
385.2018431287147
 21
716.4509891851637
 31
0.0
  0
LINE
  5
5D0
330
17
100
AcDbEntity
  8
4
100
AcDbLine
 10
395.2018451287154
 20
710.4509891851637
 30
0.0
 11
276.2018471287142
 21
710.4509891851637
 31
0.0
  0
LINE
  5
5D1
330
17
100
AcDbEntity
  8
4
100
AcDbLine
 10
385.2018431287147
 20
716.4509891851637
 30
0.0
 11
385.2018431287147
 21
710.4509891851637
 31
0.0
  0
LINE
  5
5D2
330
17
100
AcDbEntity
  8
4
100
AcDbLine
 10
411.8019431287144
 20
689.9206442997672
 30
0.0
 11
411.8019431287144
 21
723.950987185164
 31
0.0
  0
LINE
  5
5D3
330
17
100
AcDbEntity
  8
4
100
AcDbLine
 10
395.2018451287154
 20
711.4509911851635
 30
0.0
 11
395.2018451287154
 21
646.450987185164
 31
0.0
  0
LINE
  5
5D4
330
17
100
AcDbEntity
  8
4
100
AcDbLine
 10
395.2018451287154
 20
646.450987185164
 30
0.0
 11
411.8019431287144
 21
646.450987185164
 31
0.0
  0
LINE
  5
5D5
330
17
100
AcDbEntity
  8
4
100
AcDbLine
 10
395.2018451287154
 20
711.4509911851635
 30
0.0
 11
411.8019431287144
 21
711.4509911851635
 31
0.0
  0
LINE
  5
5D6
330
17
100
AcDbEntity
  8
4
100
AcDbLine
 10
412.801945128715
 20
723.950987185164
 30
0.0
 11
411.8019431287144
 21
723.950987185164
 31
0.0
  0
LINE
  5
5D7
330
17
100
AcDbEntity
  8
4
100
AcDbLine
 10
275.2018451287154
 20
716.4509891851637
 30
0.0
 11
275.2018451287154
 21
648.4509911851635
 31
0.0
  0
LINE
  5
5D8
330
17
100
AcDbEntity
  8
4
100
AcDbLine
 10
276.2018471287142
 20
647.4509891851637
 30
0.0
 11
276.2018471287142
 21
710.4509891851637
 31
0.0
  0
LINE
  5
5D9
330
17
100
AcDbEntity
  8
4
100
AcDbLine
 10
276.2018471287142
 20
647.4509891851637
 30
0.0
 11
275.2018451287154
 21
648.4509911851635
 31
0.0
  0
LINE
  5
5DA
330
17
100
AcDbEntity
  8
4
100
AcDbLine
 10
275.2018451287154
 20
709.450987185164
 30
0.0
 11
276.2018471287142
 21
710.4509891851637
 31
0.0
  0
LINE
  5
5DF
330
17
100
AcDbEntity
  8
4
100
AcDbLine
 10
376.2018451287154
 20
1529.994306869152
 30
0.0
 11
275.2018451287154
 21
1529.994306869152
 31
0.0
  0
LINE
  5
5E0
330
17
100
AcDbEntity
  8
4
100
AcDbLine
 10
376.2018451287154
 20
1511.994306869152
 30
0.0
 11
275.2018451287154
 21
1511.994306869152
 31
0.0
  0
LINE
  5
5E1
330
17
100
AcDbEntity
  8
4
100
AcDbLine
 10
394.2018451287154
 20
1552.494306869152
 30
0.0
 11
276.2018451287154
 21
1552.494306869152
 31
0.0
  0
LINE
  5
5E2
330
17
100
AcDbEntity
  8
4
100
AcDbLine
 10
394.2018451287154
 20
1489.494306869152
 30
0.0
 11
276.2018451287154
 21
1489.494306869152
 31
0.0
  0
LINE
  5
5E3
330
17
100
AcDbEntity
  8
4
100
AcDbLine
 10
395.2018451287154
 20
1553.494306869152
 30
0.0
 11
395.2018451287154
 21
1488.494306869152
 31
0.0
  0
ARC
  5
5E4
330
17
100
AcDbEntity
  8
4
100
AcDbCircle
 10
394.2018451287154
 20
1488.494306869152
 30
0.0
 40
1.0
100
AcDbArc
 50
0.0
 51
90.0
  0
ARC
  5
5E5
330
17
100
AcDbEntity
  8
4
100
AcDbCircle
 10
376.2018451287154
 20
1520.994306869152
 30
0.0
 40
9.0
100
AcDbArc
 50
270.0
 51
90.0
  0
ARC
  5
5E6
330
17
100
AcDbEntity
  8
4
100
AcDbCircle
 10
394.2018451287154
 20
1553.494306869152
 30
0.0
 40
1.0
100
AcDbArc
 50
270.0
 51
0.0
  0
LINE
  5
5E7
330
17
100
AcDbEntity
  8
4
100
AcDbLine
 10
276.2018451287154
 20
1511.994306869152
 30
0.0
 11
276.2018451287154
 21
1489.494306869152
 31
0.0
  0
LINE
  5
5E8
330
17
100
AcDbEntity
  8
4
100
AcDbLine
 10
275.2018451287154
 20
1551.494306869152
 30
0.0
 11
275.2018451287154
 21
1490.494306869152
 31
0.0
  0
LINE
  5
5E9
330
17
100
AcDbEntity
  8
4
100
AcDbLine
 10
276.2018451287154
 20
1489.494306869152
 30
0.0
 11
275.2018451287154
 21
1490.494306869152
 31
0.0
  0
LINE
  5
5EA
330
17
100
AcDbEntity
  8
4
100
AcDbLine
 10
276.2018451287154
 20
1552.494306869152
 30
0.0
 11
276.2018451287154
 21
1529.994306869152
 31
0.0
  0
LINE
  5
5EB
330
17
100
AcDbEntity
  8
4
100
AcDbLine
 10
276.2018451287154
 20
1552.494306869152
 30
0.0
 11
275.2018451287154
 21
1551.494306869152
 31
0.0
  0
LINE
  5
5EC
330
17
100
AcDbEntity
  8
4
100
AcDbLine
 10
395.2018451287136
 20
1553.494306869152
 30
0.0
 11
411.8018431287151
 21
1553.494306869152
 31
0.0
  0
LINE
  5
5ED
330
17
100
AcDbEntity
  8
4
100
AcDbLine
 10
395.2018451287136
 20
1488.494306869152
 30
0.0
 11
411.8018431287151
 21
1488.494306869152
 31
0.0
  0
LINE
  5
5EE
330
17
100
AcDbEntity
  8
4
100
AcDbLine
 10
411.8018431287151
 20
1483.214236617614
 30
0.0
 11
411.8018431287151
 21
1558.774377120689
 31
0.0
  0
LINE
  5
5EF
330
17
100
AcDbEntity
  8
4
100
AcDbLine
 10
385.2018451287158
 20
1489.494306869152
 30
0.0
 11
385.2018451287158
 21
1330.994306869152
 31
0.0
  0
LINE
  5
603
330
17
100
AcDbEntity
  8
4
100
AcDbLine
 10
2000.913577303691
 20
448.9509931851642
 30
0.0
 11
2001.913576303692
 21
448.9509931851642
 31
0.0
  0
LINE
  5
604
330
17
100
AcDbEntity
  8
4
100
AcDbLine
 10
2000.913577303691
 20
318.950987185164
 30
0.0
 11
2001.913576303692
 21
318.950987185164
 31
0.0
  0
ENDSEC
  0
SECTION
  2
OBJECTS
  0
DICTIONARY
  5
5
330
0
100
AcDbDictionary
281
     1
  3
ACAD_COLOR
350
29
  3
ACAD_GROUP
350
27
  3
ACAD_LAYOUT
350
1E
  3
ACAD_MATERIAL
350
7
  3
ACAD_MLEADERSTYLE
350
5AB
  3
ACAD_MLINESTYLE
350
15
  3
ACAD_PLOTSETTINGS
350
28
  3
ACAD_PLOTSTYLENAME
350
4
  3
ACAD_SCALELIST
350
2D
  3
ACAD_TABLESTYLE
350
5AA
  3
ACAD_VISUALSTYLE
350
2A
  3
ACDBHEADERROUNDTRIPXREC
350
60A
  3
AcDbVariableDictionary
350
5A8
  3
DWGPROPS
350
60D
  0
DICTIONARY
  5
60E
330
26
100
AcDbDictionary
280
     1
281
     1
  3
ACAD_XREC_ROUNDTRIP
360
60F
  0
DICTIONARY
  5
18
330
17
100
AcDbDictionary
280
     1
281
     1
  3
ACAD_SORTENTS
360
19
  0
DICTIONARY
  5
29
102
{ACAD_REACTORS
330
5
102
}
330
5
100
AcDbDictionary
281
     1
  0
DICTIONARY
  5
27
102
{ACAD_REACTORS
330
5
102
}
330
5
100
AcDbDictionary
281
     1
  0
DICTIONARY
  5
1E
102
{ACAD_REACTORS
330
5
102
}
330
5
100
AcDbDictionary
281
     1
  3
Model
350
1D
  3
ﾚｲｱｳﾄ1
350
23
  0
DICTIONARY
  5
7
102
{ACAD_REACTORS
330
5
102
}
330
5
100
AcDbDictionary
281
     1
  3
ByBlock
350
70
  3
ByLayer
350
10
  3
Global
350
6
  0
DICTIONARY
  5
5AB
102
{ACAD_REACTORS
330
5
102
}
330
5
100
AcDbDictionary
281
     1
  3
Standard
350
5C6
  0
DICTIONARY
  5
15
102
{ACAD_REACTORS
330
5
102
}
330
5
100
AcDbDictionary
281
     1
  3
STANDARD
350
14
  0
DICTIONARY
  5
28
102
{ACAD_REACTORS
330
5
102
}
330
5
100
AcDbDictionary
281
     1
  0
ACDBDICTIONARYWDFLT
  5
4
102
{ACAD_REACTORS
330
5
102
}
330
5
100
AcDbDictionary
281
     1
  3
Normal
350
3
100
AcDbDictionaryWithDefault
340
3
  0
DICTIONARY
  5
2D
102
{ACAD_REACTORS
330
5
102
}
330
5
100
AcDbDictionary
281
     1
  3
*A1
350
4F
  3
*A10
350
58
  3
*A11
350
59
  3
*A12
350
5A
  3
*A13
350
5B
  3
*A14
350
5C
  3
*A15
350
5D
  3
*A16
350
5E
  3
*A17
350
5F
  3
*A18
350
60
  3
*A19
350
61
  3
*A2
350
50
  3
*A20
350
62
  3
*A21
350
63
  3
*A22
350
64
  3
*A23
350
65
  3
*A24
350
66
  3
*A25
350
67
  3
*A26
350
68
  3
*A27
350
69
  3
*A28
350
6A
  3
*A29
350
6B
  3
*A3
350
51
  3
*A30
350
6C
  3
*A31
350
6D
  3
*A32
350
6E
  3
*A33
350
6F
  3
*A4
350
52
  3
*A5
350
53
  3
*A6
350
54
  3
*A7
350
55
  3
*A8
350
56
  3
*A9
350
57
  0
DICTIONARY
  5
5AA
102
{ACAD_REACTORS
330
5
102
}
330
5
100
AcDbDictionary
281
     1
  3
Standard
350
606
  0
DICTIONARY
  5
2A
102
{ACAD_REACTORS
330
5
102
}
330
5
100
AcDbDictionary
281
     1
  3
2dWireframe
350
5B2
  3
Basic
350
5B5
  3
Brighten
350
5B9
  3
ColorChange
350
5BD
  3
Conceptual
350
5B7
  3
Dim
350
5B8
  3
EdgeColorOff
350
5C0
  3
Facepattern
350
5BC
  3
Flat
350
5AE
  3
FlatWithEdges
350
5AF
  3
Gouraud
350
5B0
  3
GouraudWithEdges
350
5B1
  3
Hidden
350
5B4
  3
JitterOff
350
5BE
  3
Linepattern
350
5BB
  3
OverhangOff
350
5BF
  3
Realistic
350
5B6
  3
Shaded
350
5C5
  3
Shaded with edges
350
5C4
  3
Shades of Gray
350
5C1
  3
Sketchy
350
5C2
  3
Thicken
350
5BA
  3
Wireframe
350
5B3
  3
X-Ray
350
5C3
  0
DICTIONARY
  5
60A
102
{ACAD_REACTORS
330
5
102
}
330
5
100
AcDbDictionary
281
     1
  3
COLORDICT
350
60B
  3
MATERIALDICT
350
60C
  0
DICTIONARY
  5
5A8
102
{ACAD_REACTORS
330
5
102
}
330
5
100
AcDbDictionary
281
     1
  3
CANNOSCALE
350
5A9
  3
CMLEADERSTYLE
350
5C8
  3
CTABLESTYLE
350
607
  3
DIMASSOC
350
608
  3
HIDETEXT
350
609
  3
MSLTSCALE
350
610
  0
XRECORD
  5
60D
102
{ACAD_REACTORS
330
5
102
}
330
5
100
AcDbXrecord
280
     1
  1
DWGPROPS COOKIE
  2

  3

  4

  6

  7

  8
sg-d04
  9

300
=
301
=
302
=
303
=
304
=
305
=
306
=
307
=
308
=
309
=
 40
0.0
 41
2457240.115428437
 42
2457871.460543507
  1

 90
        0
  0
XRECORD
  5
60F
102
{ACAD_REACTORS
330
60E
102
}
330
60E
100
AcDbXrecord
280
     1
102
VTR_0.000_0.000_1.000_1.000_VISUALSTYLE
340
5B2
102
VTR_0.000_0.000_1.000_1.000_GRIDDISPLAY
 70
     3
102
VTR_0.000_0.000_1.000_1.000_GRIDMAJOR
 70
     5
102
VTR_0.000_0.000_1.000_1.000_DEFAULTLIGHTING
280
     1
102
VTR_0.000_0.000_1.000_1.000_DEFAULTLIGHTINGTYPE
 70
     1
102
VTR_0.000_0.000_1.000_1.000_BRIGHTNESS
141
0.0
102
VTR_0.000_0.000_1.000_1.000_CONTRAST
142
0.0
  0
SORTENTSTABLE
  5
19
102
{ACAD_REACTORS
330
18
102
}
330
18
100
AcDbSortentsTable
330
17
331
0
  5
1C7
331
71
  5
332
331
73
  5
333
331
74
  5
334
331
75
  5
335
331
76
  5
336
331
1BF
  5
71
331
1C0
  5
73
331
1C1
  5
74
331
1C2
  5
75
331
1C3
  5
76
331
1C4
  5
1BF
331
1C5
  5
1C0
331
1C6
  5
1C1
331
1C7
  5
1C2
331
1C8
  5
1C3
331
1C9
  5
1C4
331
1CA
  5
1C5
331
1CB
  5
1C6
331
1CD
  5
1C9
331
1CF
  5
1CC
331
1D1
  5
1CE
331
1D2
  5
1CF
331
1D3
  5
1D0
331
1D4
  5
1D1
331
1D5
  5
1D2
331
1D6
  5
1D3
331
1D7
  5
1D4
331
1D8
  5
1D5
331
1D9
  5
1D6
331
1DA
  5
1D7
331
1DB
  5
1D8
331
1DC
  5
1D9
331
1DD
  5
1DA
331
1DE
  5
1DB
331
1DF
  5
1DC
331
1E0
  5
1DD
331
1E1
  5
1DE
331
1E2
  5
1DF
331
1E3
  5
1E0
331
1E4
  5
1E1
331
1F6
  5
1F3
331
1F7
  5
1F4
331
1F8
  5
1F5
331
1F9
  5
1F6
331
1FA
  5
1F7
331
1FB
  5
1F8
331
1FC
  5
1F9
331
1FD
  5
1FA
331
1FE
  5
1FB
331
1FF
  5
1FC
331
200
  5
1FD
331
201
  5
1FE
331
202
  5
1FF
331
203
  5
200
331
204
  5
201
331
205
  5
202
331
206
  5
203
331
207
  5
204
331
208
  5
205
331
209
  5
206
331
20A
  5
207
331
20B
  5
208
331
20C
  5
209
331
20D
  5
20A
331
20E
  5
20B
331
20F
  5
20C
331
210
  5
20D
331
211
  5
20E
331
212
  5
20F
331
213
  5
210
331
214
  5
211
331
215
  5
212
331
216
  5
213
331
217
  5
214
331
218
  5
215
331
219
  5
216
331
21A
  5
217
331
21B
  5
218
331
21C
  5
219
331
21D
  5
21A
331
21E
  5
21B
331
21F
  5
21C
331
220
  5
21D
331
221
  5
21E
331
222
  5
21F
331
223
  5
220
331
224
  5
221
331
225
  5
222
331
226
  5
223
331
227
  5
224
331
230
  5
22D
331
231
  5
22E
331
232
  5
22F
331
233
  5
230
331
234
  5
231
331
235
  5
232
331
236
  5
233
331
237
  5
234
331
238
  5
235
331
239
  5
236
331
23A
  5
238
331
23B
  5
239
331
23C
  5
23A
331
23D
  5
23B
331
23E
  5
23C
331
23F
  5
23D
331
240
  5
23E
331
241
  5
23F
331
242
  5
240
331
243
  5
241
331
244
  5
242
331
245
  5
243
331
246
  5
244
331
247
  5
245
331
248
  5
246
331
249
  5
247
331
24A
  5
248
331
24B
  5
249
331
24C
  5
24A
331
24D
  5
24B
331
24E
  5
24C
331
24F
  5
24D
331
250
  5
24E
331
251
  5
24F
331
252
  5
250
331
253
  5
251
331
254
  5
252
331
255
  5
253
331
256
  5
254
331
257
  5
255
331
258
  5
256
331
259
  5
257
331
25A
  5
258
331
25B
  5
259
331
25C
  5
25A
331
25D
  5
25B
331
25E
  5
25C
331
25F
  5
25D
331
260
  5
25E
331
261
  5
25F
331
262
  5
260
331
263
  5
261
331
264
  5
262
331
265
  5
263
331
266
  5
264
331
267
  5
265
331
268
  5
266
331
269
  5
267
331
26A
  5
268
331
26B
  5
269
331
26C
  5
26A
331
26D
  5
26B
331
26E
  5
26C
331
26F
  5
26D
331
270
  5
26E
331
271
  5
26F
331
272
  5
270
331
273
  5
271
331
274
  5
272
331
275
  5
273
331
276
  5
274
331
277
  5
275
331
278
  5
276
331
279
  5
277
331
27A
  5
278
331
27B
  5
279
331
27C
  5
27A
331
27D
  5
27B
331
27E
  5
27C
331
27F
  5
27D
331
280
  5
27E
331
281
  5
27F
331
282
  5
280
331
283
  5
281
331
284
  5
282
331
285
  5
283
331
286
  5
284
331
287
  5
285
331
288
  5
286
331
289
  5
287
331
28A
  5
288
331
28B
  5
289
331
28C
  5
28A
331
28D
  5
28B
331
28E
  5
28C
331
28F
  5
28D
331
290
  5
28E
331
291
  5
28F
331
292
  5
290
331
293
  5
291
331
294
  5
292
331
295
  5
293
331
296
  5
294
331
297
  5
295
331
298
  5
296
331
299
  5
297
331
29A
  5
298
331
29B
  5
299
331
29C
  5
29A
331
29D
  5
29B
331
29E
  5
29C
331
29F
  5
29D
331
2A0
  5
29E
331
2A1
  5
29F
331
2A2
  5
2A0
331
2A3
  5
2A1
331
2A4
  5
2A2
331
2A5
  5
2A3
331
2A6
  5
2A4
331
2A7
  5
2A5
331
2A8
  5
2A6
331
2A9
  5
2A7
331
2AA
  5
2A8
331
2AB
  5
2A9
331
2AC
  5
2AA
331
2AD
  5
2AB
331
2AE
  5
2AC
331
2AF
  5
2AD
331
2B0
  5
2AE
331
2B1
  5
2AF
331
2B2
  5
2B0
331
2B3
  5
2B1
331
2B4
  5
2B2
331
2B5
  5
2B3
331
2B6
  5
2B4
331
2B7
  5
2B5
331
2B8
  5
2B6
331
2B9
  5
2B7
331
2BA
  5
2B8
331
2BB
  5
2B9
331
2BC
  5
2BA
331
2BD
  5
2BB
331
2BE
  5
2BC
331
2BF
  5
2BD
331
2C0
  5
2BE
331
2C1
  5
2BF
331
2C2
  5
2C0
331
2C3
  5
2C1
331
2C4
  5
2C2
331
2C5
  5
2C3
331
2C6
  5
2C4
331
2C7
  5
2C5
331
2C8
  5
2C6
331
2C9
  5
2C7
331
2CA
  5
2C8
331
2CB
  5
2C9
331
2CC
  5
2CA
331
2CD
  5
2CB
331
2CE
  5
2CC
331
2CF
  5
2CD
331
2D0
  5
2CE
331
2D1
  5
2CF
331
2D2
  5
2D0
331
2D3
  5
2D1
331
2D4
  5
2D2
331
2D5
  5
2D3
331
2D6
  5
2D4
331
2D7
  5
2D5
331
2D8
  5
2D6
331
2D9
  5
2D7
331
2DA
  5
2D8
331
2DB
  5
2D9
331
2DC
  5
2DA
331
2DD
  5
2DB
331
2DE
  5
2DC
331
2DF
  5
2DD
331
2E0
  5
2DE
331
2E1
  5
2DF
331
2E2
  5
2E0
331
2E3
  5
2E1
331
2E4
  5
2E2
331
2E5
  5
2E3
331
2E6
  5
2E4
331
2E7
  5
2E5
331
2E8
  5
2E6
331
2E9
  5
2E7
331
2EA
  5
2E8
331
2EB
  5
2E9
331
2EC
  5
2EA
331
2ED
  5
2EB
331
2EE
  5
2EC
331
2EF
  5
2ED
331
2F0
  5
2EE
331
2F1
  5
2EF
331
2F2
  5
2F0
331
2F3
  5
2F1
331
2F4
  5
2F2
331
2F5
  5
2F3
331
2F6
  5
2F4
331
2F7
  5
2F5
331
2F8
  5
2F6
331
2F9
  5
2F7
331
2FA
  5
2F8
331
2FB
  5
2F9
331
2FC
  5
2FA
331
2FD
  5
2FB
331
2FE
  5
2FC
331
2FF
  5
2FD
331
300
  5
2FE
331
301
  5
2FF
331
302
  5
300
331
303
  5
301
331
304
  5
302
331
305
  5
303
331
306
  5
304
331
307
  5
305
331
308
  5
306
331
309
  5
307
331
30A
  5
308
331
30B
  5
309
331
30C
  5
30A
331
30D
  5
30B
331
30E
  5
30C
331
30F
  5
30D
331
310
  5
30E
331
311
  5
30F
331
312
  5
310
331
313
  5
311
331
314
  5
312
331
315
  5
313
331
316
  5
314
331
317
  5
315
331
318
  5
316
331
319
  5
317
331
31A
  5
318
331
31B
  5
319
331
31C
  5
31A
331
31D
  5
31B
331
31E
  5
31C
331
31F
  5
31D
331
320
  5
31E
331
321
  5
31F
331
322
  5
320
331
323
  5
321
331
324
  5
322
331
325
  5
323
331
326
  5
324
331
327
  5
325
331
328
  5
326
331
329
  5
327
331
32A
  5
328
331
32B
  5
329
331
32C
  5
32A
331
32D
  5
32B
331
32E
  5
32C
331
32F
  5
32D
331
330
  5
32E
331
331
  5
32F
331
332
  5
330
331
333
  5
331
331
334
  5
337
331
335
  5
338
331
336
  5
339
331
337
  5
33A
331
338
  5
33B
331
339
  5
33C
331
33A
  5
33D
331
33B
  5
33E
331
33C
  5
33F
331
33D
  5
340
331
33E
  5
341
331
33F
  5
342
331
340
  5
343
331
341
  5
344
331
342
  5
345
331
343
  5
346
331
344
  5
347
331
345
  5
348
331
346
  5
349
331
347
  5
34A
331
348
  5
34B
331
349
  5
34C
331
34A
  5
34D
331
34B
  5
34E
331
34C
  5
34F
331
34D
  5
350
331
34E
  5
351
331
34F
  5
352
331
350
  5
353
331
351
  5
354
331
352
  5
355
331
353
  5
356
331
354
  5
357
331
355
  5
358
331
356
  5
359
331
357
  5
35A
331
358
  5
35B
331
359
  5
35C
331
35A
  5
35D
331
35B
  5
35E
331
35C
  5
35F
331
35D
  5
360
331
35E
  5
361
331
35F
  5
362
331
360
  5
363
331
361
  5
364
331
362
  5
365
331
363
  5
366
331
364
  5
367
331
365
  5
368
331
366
  5
369
331
367
  5
36A
331
368
  5
36B
331
369
  5
36C
331
36A
  5
36D
331
36B
  5
36E
331
36C
  5
36F
331
36D
  5
370
331
36E
  5
371
331
36F
  5
372
331
370
  5
373
331
371
  5
374
331
372
  5
375
331
373
  5
376
331
374
  5
377
331
375
  5
378
331
376
  5
379
331
377
  5
37A
331
378
  5
37B
331
379
  5
37C
331
37A
  5
37D
331
37B
  5
37E
331
37C
  5
37F
331
37D
  5
380
331
37E
  5
381
331
37F
  5
382
331
380
  5
383
331
381
  5
384
331
382
  5
385
331
383
  5
386
331
384
  5
387
331
385
  5
388
331
386
  5
389
331
387
  5
38A
331
388
  5
38B
331
389
  5
38C
331
38A
  5
38D
331
38B
  5
38E
331
38C
  5
38F
331
38D
  5
390
331
38E
  5
391
331
38F
  5
392
331
390
  5
393
331
391
  5
394
331
392
  5
395
331
393
  5
396
331
394
  5
397
331
395
  5
398
331
396
  5
399
331
397
  5
39A
331
398
  5
39B
331
399
  5
39C
331
39A
  5
39D
331
39B
  5
39E
331
39C
  5
39F
331
39D
  5
3A0
331
39E
  5
3A1
331
39F
  5
3A2
331
3A0
  5
3A3
331
3A1
  5
3A4
331
3A2
  5
3A5
331
3A3
  5
3A6
331
3A4
  5
3A7
331
3A5
  5
3A8
331
3A6
  5
3A9
331
3A7
  5
3AA
331
3A8
  5
3AB
331
3A9
  5
3AC
331
3AA
  5
3AD
331
3AB
  5
3AE
331
3AC
  5
3AF
331
3AD
  5
3B0
331
3AE
  5
3B1
331
3AF
  5
3B2
331
3B0
  5
3B3
331
3B1
  5
3B4
331
3B2
  5
3B5
331
3B3
  5
3B6
331
3B4
  5
3B7
331
3B5
  5
3B8
331
3B6
  5
3B9
331
3B7
  5
3BA
331
3B8
  5
3BB
331
3B9
  5
3BC
331
3BA
  5
3BD
331
3BB
  5
3BE
331
3BC
  5
3BF
331
3BD
  5
3C0
331
3BE
  5
3C1
331
3BF
  5
3C2
331
3C0
  5
3C3
331
3C1
  5
3C4
331
3C2
  5
3C5
331
3C3
  5
3C6
331
3C4
  5
3C7
331
3C5
  5
3C8
331
3C6
  5
3C9
331
3C7
  5
3CA
331
3C8
  5
3CB
331
3C9
  5
3CC
331
3CA
  5
3CD
331
3CB
  5
3CE
331
3CC
  5
3CF
331
3CD
  5
3D0
331
3CE
  5
3D1
331
3CF
  5
3D2
331
3D0
  5
3D3
331
3D1
  5
3D4
331
3D2
  5
3D5
331
3D3
  5
3D6
331
3D4
  5
3D7
331
3D5
  5
3D8
331
3D6
  5
3D9
331
3D7
  5
3DA
331
3D8
  5
3DB
331
3D9
  5
3DC
331
3DA
  5
3DD
331
3DB
  5
3DE
331
3DC
  5
3DF
331
3DD
  5
3E0
331
3DE
  5
3E1
331
3DF
  5
3E2
331
3E0
  5
3E3
331
3E1
  5
3E4
331
3E2
  5
3E5
331
3E3
  5
3E6
331
3E4
  5
3E7
331
3E5
  5
3E8
331
3E6
  5
3E9
331
3E7
  5
3EA
331
3E8
  5
3EB
331
3E9
  5
3EC
331
3EA
  5
3ED
331
3EB
  5
3EE
331
3EC
  5
3EF
331
3ED
  5
3F0
331
3EE
  5
3F1
331
514
  5
517
331
515
  5
518
331
516
  5
519
331
517
  5
51A
331
51A
  5
51D
331
52A
  5
52D
331
52B
  5
52E
331
560
  5
563
331
561
  5
564
331
562
  5
565
331
563
  5
566
331
564
  5
567
331
565
  5
568
331
566
  5
569
331
567
  5
56A
331
568
  5
56B
331
569
  5
56C
331
56A
  5
56D
331
56B
  5
56E
331
56C
  5
56F
331
56D
  5
570
331
56E
  5
571
331
56F
  5
572
331
570
  5
573
331
571
  5
574
331
572
  5
575
331
573
  5
576
331
574
  5
577
331
575
  5
578
331
576
  5
579
331
577
  5
57A
331
578
  5
57B
331
579
  5
57C
331
57A
  5
57D
331
57B
  5
57E
331
57C
  5
57F
331
57D
  5
580
331
57E
  5
581
331
57F
  5
582
331
580
  5
583
331
581
  5
584
331
582
  5
585
331
583
  5
586
331
584
  5
587
331
585
  5
588
331
586
  5
589
331
587
  5
58A
331
588
  5
58B
331
589
  5
58C
331
58A
  5
58D
331
58B
  5
58E
331
58C
  5
58F
331
58D
  5
590
331
58E
  5
591
331
58F
  5
592
331
590
  5
593
331
591
  5
594
331
592
  5
595
331
593
  5
596
331
594
  5
597
331
595
  5
598
331
596
  5
599
331
597
  5
59A
331
598
  5
59B
331
599
  5
59C
331
59A
  5
59D
331
59B
  5
59E
331
59C
  5
59F
331
59D
  5
5A0
331
59E
  5
5A1
331
59F
  5
5A2
331
5A0
  5
5A3
331
5A1
  5
5A4
331
5A2
  5
5A5
331
5A3
  5
5A6
331
5A4
  5
5A7
331
5A5
  5
5C9
331
5A6
  5
5CA
331
5A7
  5
5CB
331
5CC
  5
5CF
331
5CD
  5
5D0
331
5CE
  5
5D1
331
5CF
  5
5D2
331
5D0
  5
5D3
331
5D1
  5
5D4
331
5D2
  5
5D5
331
5D3
  5
5D6
331
5D4
  5
5D7
331
5D5
  5
5D8
331
5D6
  5
5D9
331
5D7
  5
5DA
331
5D8
  5
5DB
331
5D9
  5
5DC
331
5DA
  5
5DE
331
5DF
  5
5E2
331
5E0
  5
5E3
331
5E1
  5
5E4
331
5E2
  5
5E5
331
5E3
  5
5E6
331
5E4
  5
5E7
331
5E5
  5
5E8
331
5E6
  5
5E9
331
5E7
  5
5EA
331
5E8
  5
5EB
331
5E9
  5
5EC
331
5EA
  5
5ED
331
5EB
  5
5EE
331
5EC
  5
5EF
331
5ED
  5
5F1
331
5EE
  5
5F2
331
5EF
  5
237
331
603
  5
1CB
331
604
  5
1C8
  0
LAYOUT
  5
1D
102
{ACAD_REACTORS
330
1E
102
}
330
1E
100
AcDbPlotSettings
  1

  2
Bullzip PDF Printer.pc3
  4
A3
  6

 40
0.2
 41
0.0
 42
0.0
 43
0.0
 44
420.2
 45
297.1
 46
25.0
 47
12.0
 48
139.9999997783334
 49
0.0
140
2813.999993653335
141
1907.499995549166
142
1.0
143
7.0
 70
 11936
 72
     1
 73
     0
 74
     4
  7
monochrome.ctb
 75
     0
147
0.1428571428571428
148
-139.9999997783334
149
0.0
100
AcDbLayout
  1
Model
 70
     0
 71
     0
 10
0.0
 20
0.0
 11
12.0
 21
9.0
 12
0.0
 22
0.0
 32
0.0
 14
262.9931011273516
 24
21.95098718516397
 34
0.0
 15
2380.98390731038
 25
1893.8703025216
 35
0.0
146
0.0
 13
0.0
 23
0.0
 33
0.0
 16
1.0
 26
0.0
 36
0.0
 17
0.0
 27
1.0
 37
0.0
 76
     0
330
17
331
2B
1001
ACAD_PSEXT
1000
Bullzip PDF Printer.pc3
1000
Bullzip PDF Printer
1000
BULLZIP
1000
Bullzip PDF Printer 10.1.0.1871
1070
     0
  0
LAYOUT
  5
23
102
{ACAD_REACTORS
330
1E
102
}
330
1E
100
AcDbPlotSettings
  1

  2
SR-LP8300F
  4

  6

 40
0.0
 41
0.0
 42
0.0
 43
0.0
 44
0.0
 45
0.0
 46
0.0
 47
0.0
 48
0.0
 49
0.0
140
0.0
141
0.0
142
1.0
143
1.0
 70
   688
 72
     0
 73
     0
 74
     5
  7
monochrome.ctb
 75
    16
147
1.0
148
0.0
149
0.0
100
AcDbLayout
  1
ﾚｲｱｳﾄ1
 70
     0
 71
     1
 10
0.0
 20
0.0
 11
12.0
 21
9.0
 12
0.0
 22
0.0
 32
0.0
 14
1.000000000000000E+20
 24
1.000000000000000E+20
 34
1.000000000000000E+20
 15
-1.000000000000000E+20
 25
-1.000000000000000E+20
 35
-1.000000000000000E+20
146
0.0
 13
0.0
 23
0.0
 33
0.0
 16
1.0
 26
0.0
 36
0.0
 17
0.0
 27
1.0
 37
0.0
 76
     0
330
20
  0
MATERIAL
  5
70
102
{ACAD_REACTORS
330
7
102
}
102
{ACAD_XDICTIONARY
360
615
102
}
330
7
100
AcDbMaterial
  1
ByBlock
  0
MATERIAL
  5
10
102
{ACAD_REACTORS
330
7
102
}
102
{ACAD_XDICTIONARY
360
611
102
}
330
7
100
AcDbMaterial
  1
ByLayer
  0
MATERIAL
  5
6
102
{ACAD_REACTORS
330
7
102
}
102
{ACAD_XDICTIONARY
360
613
102
}
330
7
100
AcDbMaterial
  1
Global
1001
ACAD
1070
    -1
1070
     3
1070
     0
1000

1071
        0
  0
MLEADERSTYLE
  5
5C6
102
{ACAD_REACTORS
330
5AB
102
}
102
{ACAD_XDICTIONARY
360
647
102
}
330
5AB
100
AcDbMLeaderStyle
170
     2
171
     1
172
     0
 90
        2
 40
0.0
 41
0.0
173
     1
 91
-1056964608
340
D
 92
       -2
290
     1
 42
0.09
291
     1
 43
0.36
  3
Standard
341
0
 44
0.18
300

342
E
174
     1
178
     6
175
     1
176
     0
 93
-1056964608
 45
0.18
292
     0
297
     0
 46
0.18
343
0
 94
-1056964608
 47
1.0
 49
1.0
140
1.0
293
     1
141
0.0
294
     1
177
     0
142
1.0
295
     0
296
     0
143
0.125
1001
ACAD_MLEADERVER
1070
     2
  0
MLINESTYLE
  5
14
102
{ACAD_REACTORS
330
15
102
}
330
15
100
AcDbMlineStyle
  2
STANDARD
 70
     0
  3

 62
     0
 51
90.0
 52
90.0
 71
     2
 49
0.5
 62
   256
  6
BYLAYER
 49
-0.5
 62
   256
  6
BYLAYER
  0
ACDBPLACEHOLDER
  5
3
102
{ACAD_REACTORS
330
4
102
}
330
4
  0
SCALE
  5
4F
102
{ACAD_REACTORS
330
2D
102
}
330
2D
100
AcDbScale
 70
     0
300
1:1
140
1.0
141
1.0
290
     1
  0
SCALE
  5
58
102
{ACAD_REACTORS
330
2D
102
}
330
2D
100
AcDbScale
 70
     0
300
1:40
140
1.0
141
40.0
290
     0
  0
SCALE
  5
59
102
{ACAD_REACTORS
330
2D
102
}
330
2D
100
AcDbScale
 70
     0
300
1:50
140
1.0
141
50.0
290
     0
  0
SCALE
  5
5A
102
{ACAD_REACTORS
330
2D
102
}
330
2D
100
AcDbScale
 70
     0
300
1:100
140
1.0
141
100.0
290
     0
  0
SCALE
  5
5B
102
{ACAD_REACTORS
330
2D
102
}
330
2D
100
AcDbScale
 70
     0
300
2:1
140
2.0
141
1.0
290
     0
  0
SCALE
  5
5C
102
{ACAD_REACTORS
330
2D
102
}
330
2D
100
AcDbScale
 70
     0
300
4:1
140
4.0
141
1.0
290
     0
  0
SCALE
  5
5D
102
{ACAD_REACTORS
330
2D
102
}
330
2D
100
AcDbScale
 70
     0
300
8:1
140
8.0
141
1.0
290
     0
  0
SCALE
  5
5E
102
{ACAD_REACTORS
330
2D
102
}
330
2D
100
AcDbScale
 70
     0
300
10:1
140
10.0
141
1.0
290
     0
  0
SCALE
  5
5F
102
{ACAD_REACTORS
330
2D
102
}
330
2D
100
AcDbScale
 70
     0
300
100:1
140
100.0
141
1.0
290
     0
  0
SCALE
  5
60
102
{ACAD_REACTORS
330
2D
102
}
330
2D
100
AcDbScale
 70
     0
300
1/128" = 1'-0"
140
0.0078125
141
12.0
290
     0
  0
SCALE
  5
61
102
{ACAD_REACTORS
330
2D
102
}
330
2D
100
AcDbScale
 70
     0
300
1/64" = 1'-0"
140
0.015625
141
12.0
290
     0
  0
SCALE
  5
50
102
{ACAD_REACTORS
330
2D
102
}
330
2D
100
AcDbScale
 70
     0
300
1:2
140
1.0
141
2.0
290
     0
  0
SCALE
  5
62
102
{ACAD_REACTORS
330
2D
102
}
330
2D
100
AcDbScale
 70
     0
300
1/32" = 1'-0"
140
0.03125
141
12.0
290
     0
  0
SCALE
  5
63
102
{ACAD_REACTORS
330
2D
102
}
330
2D
100
AcDbScale
 70
     0
300
1/16" = 1'-0"
140
0.0625
141
12.0
290
     0
  0
SCALE
  5
64
102
{ACAD_REACTORS
330
2D
102
}
330
2D
100
AcDbScale
 70
     0
300
3/32" = 1'-0"
140
0.09375
141
12.0
290
     0
  0
SCALE
  5
65
102
{ACAD_REACTORS
330
2D
102
}
330
2D
100
AcDbScale
 70
     0
300
1/8" = 1'-0"
140
0.125
141
12.0
290
     0
  0
SCALE
  5
66
102
{ACAD_REACTORS
330
2D
102
}
330
2D
100
AcDbScale
 70
     0
300
3/16" = 1'-0"
140
0.1875
141
12.0
290
     0
  0
SCALE
  5
67
102
{ACAD_REACTORS
330
2D
102
}
330
2D
100
AcDbScale
 70
     0
300
1/4" = 1'-0"
140
0.25
141
12.0
290
     0
  0
SCALE
  5
68
102
{ACAD_REACTORS
330
2D
102
}
330
2D
100
AcDbScale
 70
     0
300
3/8" = 1'-0"
140
0.375
141
12.0
290
     0
  0
SCALE
  5
69
102
{ACAD_REACTORS
330
2D
102
}
330
2D
100
AcDbScale
 70
     0
300
1/2" = 1'-0"
140
0.5
141
12.0
290
     0
  0
SCALE
  5
6A
102
{ACAD_REACTORS
330
2D
102
}
330
2D
100
AcDbScale
 70
     0
300
3/4" = 1'-0"
140
0.75
141
12.0
290
     0
  0
SCALE
  5
6B
102
{ACAD_REACTORS
330
2D
102
}
330
2D
100
AcDbScale
 70
     0
300
1" = 1'-0"
140
1.0
141
12.0
290
     0
  0
SCALE
  5
51
102
{ACAD_REACTORS
330
2D
102
}
330
2D
100
AcDbScale
 70
     0
300
1:4
140
1.0
141
4.0
290
     0
  0
SCALE
  5
6C
102
{ACAD_REACTORS
330
2D
102
}
330
2D
100
AcDbScale
 70
     0
300
1-1/2" = 1'-0"
140
1.5
141
12.0
290
     0
  0
SCALE
  5
6D
102
{ACAD_REACTORS
330
2D
102
}
330
2D
100
AcDbScale
 70
     0
300
3" = 1'-0"
140
3.0
141
12.0
290
     0
  0
SCALE
  5
6E
102
{ACAD_REACTORS
330
2D
102
}
330
2D
100
AcDbScale
 70
     0
300
6" = 1'-0"
140
6.0
141
12.0
290
     0
  0
SCALE
  5
6F
102
{ACAD_REACTORS
330
2D
102
}
330
2D
100
AcDbScale
 70
     0
300
1'-0" = 1'-0"
140
12.0
141
12.0
290
     0
  0
SCALE
  5
52
102
{ACAD_REACTORS
330
2D
102
}
330
2D
100
AcDbScale
 70
     0
300
1:5
140
1.0
141
5.0
290
     0
  0
SCALE
  5
53
102
{ACAD_REACTORS
330
2D
102
}
330
2D
100
AcDbScale
 70
     0
300
1:8
140
1.0
141
8.0
290
     0
  0
SCALE
  5
54
102
{ACAD_REACTORS
330
2D
102
}
330
2D
100
AcDbScale
 70
     0
300
1:10
140
1.0
141
10.0
290
     0
  0
SCALE
  5
55
102
{ACAD_REACTORS
330
2D
102
}
330
2D
100
AcDbScale
 70
     0
300
1:16
140
1.0
141
16.0
290
     0
  0
SCALE
  5
56
102
{ACAD_REACTORS
330
2D
102
}
330
2D
100
AcDbScale
 70
     0
300
1:20
140
1.0
141
20.0
290
     0
  0
SCALE
  5
57
102
{ACAD_REACTORS
330
2D
102
}
330
2D
100
AcDbScale
 70
     0
300
1:30
140
1.0
141
30.0
290
     0
  0
TABLESTYLE
  5
606
102
{ACAD_REACTORS
330
5AA
102
}
330
5AA
100
AcDbTableStyle
  3
Standard
 70
     0
 71
     0
 40
0.06
 41
0.06
280
     0
281
     0
  7
STANDARD
140
0.18
170
     2
 62
     0
 63
   257
283
     0
274
    -2
284
     1
 64
     0
275
    -2
285
     1
 65
     0
276
    -2
286
     1
 66
     0
277
    -2
287
     1
 67
     0
278
    -2
288
     1
 68
     0
279
    -2
289
     1
 69
     0
  7
STANDARD
140
0.25
170
     5
 62
     0
 63
   257
283
     0
274
    -2
284
     1
 64
     0
275
    -2
285
     1
 65
     0
276
    -2
286
     1
 66
     0
277
    -2
287
     1
 67
     0
278
    -2
288
     1
 68
     0
279
    -2
289
     1
 69
     0
  7
STANDARD
140
0.18
170
     5
 62
     0
 63
   257
283
     0
274
    -2
284
     1
 64
     0
275
    -2
285
     1
 65
     0
276
    -2
286
     1
 66
     0
277
    -2
287
     1
 67
     0
278
    -2
288
     1
 68
     0
279
    -2
289
     1
 69
     0
  0
VISUALSTYLE
  5
5B2
102
{ACAD_REACTORS
330
2A
102
}
102
{ACAD_XDICTIONARY
360
61F
102
}
330
2A
100
AcDbVisualStyle
  2
2dWireframe
 70
     4
 71
     0
 72
     2
 73
     0
 90
        0
 40
0.6
 41
30.0
 62
     5
 63
     7
 74
     1
 91
        4
 64
     7
 65
   257
 75
     1
175
     1
 42
1.0
 92
        0
 66
   257
 43
1.0
 76
     1
 77
     6
 78
     2
 67
     7
 79
     5
170
     0
171
     0
290
     0
174
     0
 93
        1
 44
0.0
173
     0
291
     0
 45
0.0
1001
ACAD
1000
AcDbSavedByObjectVersion
1070
     0
  0
VISUALSTYLE
  5
5B5
102
{ACAD_REACTORS
330
2A
102
}
102
{ACAD_XDICTIONARY
360
625
102
}
330
2A
100
AcDbVisualStyle
  2
Basic
 70
     7
 71
     1
 72
     0
 73
     1
 90
        0
 40
0.6
 41
30.0
 62
     5
 63
     7
 74
     0
 91
        4
 64
     7
 65
   257
 75
     1
175
     1
 42
1.0
 92
        8
 66
     7
 43
1.0
 76
     1
 77
     6
 78
     2
 67
     7
 79
     5
170
     0
171
     0
290
     0
174
     0
 93
        1
 44
0.0
173
     0
291
     1
 45
0.0
1001
ACAD
1000
AcDbSavedByObjectVersion
1070
     0
  0
VISUALSTYLE
  5
5B9
102
{ACAD_REACTORS
330
2A
102
}
102
{ACAD_XDICTIONARY
360
62D
102
}
330
2A
100
AcDbVisualStyle
  2
Brighten
 70
    12
 71
     2
 72
     2
 73
     0
 90
        0
 40
0.6
 41
30.0
 62
     5
 63
     7
 74
     1
 91
        4
 64
     7
 65
   257
 75
     1
175
     1
 42
1.0
 92
        8
 66
     7
 43
1.0
 76
     1
 77
     6
 78
     2
 67
     7
 79
     5
170
     0
171
     0
290
     0
174
     0
 93
        1
 44
50.0
173
     0
291
     1
 45
0.0
1001
ACAD
1000
AcDbSavedByObjectVersion
1070
     0
  0
VISUALSTYLE
  5
5BD
102
{ACAD_REACTORS
330
2A
102
}
102
{ACAD_XDICTIONARY
360
635
102
}
330
2A
100
AcDbVisualStyle
  2
ColorChange
 70
    16
 71
     2
 72
     2
 73
     3
 90
        0
 40
0.6
 41
30.0
 62
     5
 63
     8
 74
     1
 91
        4
 64
     7
 65
   257
 75
     1
175
     1
 42
1.0
 92
        8
 66
     8
 43
1.0
 76
     1
 77
     6
 78
     2
 67
     7
 79
     5
170
     0
171
     0
290
     0
174
     0
 93
        1
 44
0.0
173
     0
291
     1
 45
0.0
1001
ACAD
1000
AcDbSavedByObjectVersion
1070
     0
  0
VISUALSTYLE
  5
5B7
102
{ACAD_REACTORS
330
2A
102
}
102
{ACAD_XDICTIONARY
360
629
102
}
330
2A
100
AcDbVisualStyle
  2
Conceptual
 70
     9
 71
     3
 72
     2
 73
     0
 90
        0
 40
0.6
 41
30.0
 62
     5
 63
     7
 74
     2
 91
        2
 64
     7
 65
   257
 75
     1
175
     1
 42
40.0
 92
        8
 66
     7
 43
1.0
 76
     1
 77
     6
 78
     2
 67
     7
 79
     3
170
     0
171
     0
290
     0
174
     0
 93
        1
 44
0.0
173
     0
291
     0
 45
0.0
1001
ACAD
1000
AcDbSavedByObjectVersion
1070
     0
  0
VISUALSTYLE
  5
5B8
102
{ACAD_REACTORS
330
2A
102
}
102
{ACAD_XDICTIONARY
360
62B
102
}
330
2A
100
AcDbVisualStyle
  2
Dim
 70
    11
 71
     2
 72
     2
 73
     0
 90
        0
 40
0.6
 41
30.0
 62
     5
 63
     7
 74
     1
 91
        4
 64
     7
 65
   257
 75
     1
175
     1
 42
1.0
 92
        8
 66
     7
 43
1.0
 76
     1
 77
     6
 78
     2
 67
     7
 79
     5
170
     0
171
     0
290
     0
174
     0
 93
        1
 44
-50.0
173
     0
291
     1
 45
0.0
1001
ACAD
1000
AcDbSavedByObjectVersion
1070
     0
  0
VISUALSTYLE
  5
5C0
102
{ACAD_REACTORS
330
2A
102
}
102
{ACAD_XDICTIONARY
360
63B
102
}
330
2A
100
AcDbVisualStyle
  2
EdgeColorOff
 70
    22
 71
     2
 72
     2
 73
     0
 90
        0
 40
0.6
 41
30.0
 62
     5
 63
     7
 74
     1
 91
        4
 64
     7
 65
   257
 75
     1
175
     1
 42
1.0
 92
        8
 66
     7
 43
1.0
 76
     1
 77
     6
 78
     2
 67
     7
 79
     5
170
     0
171
     0
290
     0
174
     0
 93
        1
 44
0.0
173
     0
291
     1
 45
0.0
1001
ACAD
1000
AcDbSavedByObjectVersion
1070
     0
  0
VISUALSTYLE
  5
5BC
102
{ACAD_REACTORS
330
2A
102
}
102
{ACAD_XDICTIONARY
360
633
102
}
330
2A
100
AcDbVisualStyle
  2
Facepattern
 70
    15
 71
     2
 72
     2
 73
     0
 90
        0
 40
0.6
 41
30.0
 62
     5
 63
     7
 74
     1
 91
        4
 64
     7
 65
   257
 75
     1
175
     1
 42
1.0
 92
        8
 66
     7
 43
1.0
 76
     1
 77
     6
 78
     2
 67
     7
 79
     5
170
     0
171
     0
290
     0
174
     0
 93
        1
 44
0.0
173
     0
291
     1
 45
0.0
1001
ACAD
1000
AcDbSavedByObjectVersion
1070
     0
  0
VISUALSTYLE
  5
5AE
102
{ACAD_REACTORS
330
2A
102
}
102
{ACAD_XDICTIONARY
360
617
102
}
330
2A
100
AcDbVisualStyle
  2
Flat
 70
     0
 71
     2
 72
     1
 73
     1
 90
        2
 40
0.6
 41
30.0
 62
     5
 63
     7
 74
     0
 91
        4
 64
     7
 65
   257
 75
     1
175
     1
 42
1.0
 92
        8
 66
     7
 43
1.0
 76
     1
 77
     6
 78
     2
 67
     7
 79
     5
170
     0
171
     0
290
     0
174
     0
 93
       13
 44
0.0
173
     0
291
     1
 45
0.0
1001
ACAD
1000
AcDbSavedByObjectVersion
1070
     0
  0
VISUALSTYLE
  5
5AF
102
{ACAD_REACTORS
330
2A
102
}
102
{ACAD_XDICTIONARY
360
619
102
}
330
2A
100
AcDbVisualStyle
  2
FlatWithEdges
 70
     1
 71
     2
 72
     1
 73
     1
 90
        2
 40
0.6
 41
30.0
 62
     5
 63
     7
 74
     1
 91
        4
 64
     7
 65
   257
 75
     1
175
     1
 42
1.0
 92
        0
 66
   257
 43
1.0
 76
     1
 77
     6
 78
     2
 67
     7
 79
     5
170
     0
171
     0
290
     0
174
     0
 93
       13
 44
0.0
173
     0
291
     1
 45
0.0
1001
ACAD
1000
AcDbSavedByObjectVersion
1070
     0
  0
VISUALSTYLE
  5
5B0
102
{ACAD_REACTORS
330
2A
102
}
102
{ACAD_XDICTIONARY
360
61B
102
}
330
2A
100
AcDbVisualStyle
  2
Gouraud
 70
     2
 71
     2
 72
     2
 73
     1
 90
        2
 40
0.6
 41
30.0
 62
     5
 63
     7
 74
     0
 91
        4
 64
     7
 65
   257
 75
     1
175
     1
 42
1.0
 92
        0
 66
     7
 43
1.0
 76
     1
 77
     6
 78
     2
 67
     7
 79
     5
170
     0
171
     0
290
     0
174
     0
 93
       13
 44
0.0
173
     0
291
     1
 45
0.0
1001
ACAD
1000
AcDbSavedByObjectVersion
1070
     0
  0
VISUALSTYLE
  5
5B1
102
{ACAD_REACTORS
330
2A
102
}
102
{ACAD_XDICTIONARY
360
61D
102
}
330
2A
100
AcDbVisualStyle
  2
GouraudWithEdges
 70
     3
 71
     2
 72
     2
 73
     1
 90
        2
 40
0.6
 41
30.0
 62
     5
 63
     7
 74
     1
 91
        4
 64
     7
 65
   257
 75
     1
175
     1
 42
1.0
 92
        0
 66
   257
 43
1.0
 76
     1
 77
     6
 78
     2
 67
     7
 79
     5
170
     0
171
     0
290
     0
174
     0
 93
       13
 44
0.0
173
     0
291
     1
 45
0.0
1001
ACAD
1000
AcDbSavedByObjectVersion
1070
     0
  0
VISUALSTYLE
  5
5B4
102
{ACAD_REACTORS
330
2A
102
}
102
{ACAD_XDICTIONARY
360
623
102
}
330
2A
100
AcDbVisualStyle
  2
Hidden
 70
     6
 71
     1
 72
     2
 73
     2
 90
        0
 40
0.6
 41
30.0
 62
     5
 63
     7
 74
     2
 91
        2
 64
     7
 65
   257
 75
     2
175
     1
 42
40.0
 92
        0
 66
   257
 43
1.0
 76
     1
 77
     6
 78
     2
 67
     7
 79
     3
170
     0
171
     0
290
     0
174
     0
 93
        1
 44
0.0
173
     0
291
     0
 45
0.0
1001
ACAD
1000
AcDbSavedByObjectVersion
1070
     0
  0
VISUALSTYLE
  5
5BE
102
{ACAD_REACTORS
330
2A
102
}
102
{ACAD_XDICTIONARY
360
637
102
}
330
2A
100
AcDbVisualStyle
  2
JitterOff
 70
    20
 71
     2
 72
     2
 73
     0
 90
        0
 40
0.6
 41
30.0
 62
     5
 63
     7
 74
     1
 91
        4
 64
     7
 65
   257
 75
     1
175
     1
 42
1.0
 92
       10
 66
     7
 43
1.0
 76
     1
 77
     6
 78
     2
 67
     7
 79
     5
170
     0
171
     0
290
     0
174
     0
 93
        1
 44
0.0
173
     0
291
     1
 45
0.0
1001
ACAD
1000
AcDbSavedByObjectVersion
1070
     0
  0
VISUALSTYLE
  5
5BB
102
{ACAD_REACTORS
330
2A
102
}
102
{ACAD_XDICTIONARY
360
631
102
}
330
2A
100
AcDbVisualStyle
  2
Linepattern
 70
    14
 71
     2
 72
     2
 73
     0
 90
        0
 40
0.6
 41
30.0
 62
     5
 63
     7
 74
     1
 91
        4
 64
     7
 65
   257
 75
     7
175
     7
 42
1.0
 92
        8
 66
     7
 43
1.0
 76
     1
 77
     6
 78
     2
 67
     7
 79
     5
170
     0
171
     0
290
     0
174
     0
 93
        1
 44
0.0
173
     0
291
     1
 45
0.0
1001
ACAD
1000
AcDbSavedByObjectVersion
1070
     0
  0
VISUALSTYLE
  5
5BF
102
{ACAD_REACTORS
330
2A
102
}
102
{ACAD_XDICTIONARY
360
639
102
}
330
2A
100
AcDbVisualStyle
  2
OverhangOff
 70
    21
 71
     2
 72
     2
 73
     0
 90
        0
 40
0.6
 41
30.0
 62
     5
 63
     7
 74
     1
 91
        4
 64
     7
 65
   257
 75
     1
175
     1
 42
1.0
 92
        9
 66
     7
 43
1.0
 76
     1
 77
     6
 78
     2
 67
     7
 79
     5
170
     0
171
     0
290
     0
174
     0
 93
        1
 44
0.0
173
     0
291
     1
 45
0.0
1001
ACAD
1000
AcDbSavedByObjectVersion
1070
     0
  0
VISUALSTYLE
  5
5B6
102
{ACAD_REACTORS
330
2A
102
}
102
{ACAD_XDICTIONARY
360
627
102
}
330
2A
100
AcDbVisualStyle
  2
Realistic
 70
     8
 71
     2
 72
     3
 73
     0
 90
        2
 40
0.6
 41
30.0
 62
     5
 63
     7
 74
     0
 91
        0
 64
     7
 65
   257
 75
     1
175
     1
 42
1.0
 92
        8
 66
   257
 43
1.0
 76
     1
 77
     6
 78
     2
 67
     7
 79
     3
170
     0
171
     0
290
     0
174
     0
 93
       13
 44
0.0
173
     0
291
     0
 45
0.0
1001
ACAD
1000
AcDbSavedByObjectVersion
1070
     0
  0
VISUALSTYLE
  5
5C5
102
{ACAD_REACTORS
330
2A
102
}
102
{ACAD_XDICTIONARY
360
645
102
}
330
2A
100
AcDbVisualStyle
  2
Shaded
 70
    27
 71
     2
 72
     2
 73
     1
 90
        2
 40
0.6
 41
30.0
 62
     5
 63
     7
 74
     0
 91
        4
 64
     7
 65
   257
 75
     1
175
     1
 42
1.0
 92
        8
 66
   257
 43
1.0
 76
     1
 77
     6
 78
     2
 67
   251
 79
     3
170
     0
171
     0
290
     0
174
     0
 93
        5
 44
0.0
173
     0
291
     0
 45
0.0
1001
ACAD
1000
AcDbSavedByObjectVersion
1070
     0
  0
VISUALSTYLE
  5
5C4
102
{ACAD_REACTORS
330
2A
102
}
102
{ACAD_XDICTIONARY
360
643
102
}
330
2A
100
AcDbVisualStyle
  2
Shaded with edges
 70
    26
 71
     2
 72
     2
 73
     1
 90
        2
 40
0.6
 41
30.0
 62
     5
 63
     7
 74
     1
 91
       10
 64
     7
 65
   257
 75
     2
175
     1
 42
1.0
 92
        8
 66
   257
 43
1.0
 76
     1
 77
     6
 78
     2
 67
     7
 79
     3
170
     0
171
     0
290
     0
174
     0
 93
        5
 44
0.0
173
     0
291
     0
 45
0.0
1001
ACAD
1000
AcDbSavedByObjectVersion
1070
     0
  0
VISUALSTYLE
  5
5C1
102
{ACAD_REACTORS
330
2A
102
}
102
{ACAD_XDICTIONARY
360
63D
102
}
330
2A
100
AcDbVisualStyle
  2
Shades of Gray
 70
    23
 71
     2
 72
     2
 73
     3
 90
        0
 40
0.6
 41
30.0
 62
     5
 63
     7
 74
     2
 91
        2
 64
     7
 65
     7
 75
     1
175
     1
 42
40.0
 92
        8
 66
     7
 43
1.0
 76
     1
 77
     6
 78
     2
 67
     7
 79
     3
170
     0
171
     0
290
     0
174
     0
 93
        1
 44
0.0
173
     0
291
     0
 45
0.0
1001
ACAD
1000
AcDbSavedByObjectVersion
1070
     0
  0
VISUALSTYLE
  5
5C2
102
{ACAD_REACTORS
330
2A
102
}
102
{ACAD_XDICTIONARY
360
63F
102
}
330
2A
100
AcDbVisualStyle
  2
Sketchy
 70
    24
 71
     1
 72
     2
 73
     2
 90
        0
 40
0.6
 41
30.0
 62
     5
 63
     7
 74
     2
 91
        2
 64
     7
 65
     7
 75
     1
175
     1
 42
40.0
 92
       11
 66
     7
 43
1.0
 76
     1
 77
     6
 78
     2
 67
     7
 79
     6
170
     0
171
     0
290
     0
174
     0
 93
        1
 44
0.0
173
     0
291
     0
 45
0.0
1001
ACAD
1000
AcDbSavedByObjectVersion
1070
     0
  0
VISUALSTYLE
  5
5BA
102
{ACAD_REACTORS
330
2A
102
}
102
{ACAD_XDICTIONARY
360
62F
102
}
330
2A
100
AcDbVisualStyle
  2
Thicken
 70
    13
 71
     2
 72
     2
 73
     0
 90
        0
 40
0.6
 41
30.0
 62
     5
 63
     7
 74
     1
 91
        4
 64
     7
 65
   257
 75
     1
175
     1
 42
1.0
 92
       12
 66
     7
 43
1.0
 76
     1
 77
     6
 78
     2
 67
     7
 79
     5
170
     0
171
     0
290
     0
174
     0
 93
        1
 44
0.0
173
     0
291
     1
 45
0.0
1001
ACAD
1000
AcDbSavedByObjectVersion
1070
     0
  0
VISUALSTYLE
  5
5B3
102
{ACAD_REACTORS
330
2A
102
}
102
{ACAD_XDICTIONARY
360
621
102
}
330
2A
100
AcDbVisualStyle
  2
Wireframe
 70
     5
 71
     0
 72
     2
 73
     0
 90
        0
 40
0.6
 41
30.0
 62
     5
 63
     7
 74
     1
 91
        4
 64
     7
 65
   257
 75
     1
175
     1
 42
1.0
 92
        0
 66
   257
 43
1.0
 76
     1
 77
     6
 78
     2
 67
     7
 79
     5
170
     0
171
     0
290
     0
174
     0
 93
        1
 44
0.0
173
     0
291
     0
 45
0.0
1001
ACAD
1000
AcDbSavedByObjectVersion
1070
     0
  0
VISUALSTYLE
  5
5C3
102
{ACAD_REACTORS
330
2A
102
}
102
{ACAD_XDICTIONARY
360
641
102
}
330
2A
100
AcDbVisualStyle
  2
X-Ray
 70
    25
 71
     2
 72
     2
 73
     1
 90
        1
 40
0.5
 41
30.0
 62
     5
 63
     7
 74
     1
 91
        0
 64
     7
 65
   257
 75
     1
175
     1
 42
1.0
 92
        8
 66
     7
 43
1.0
 76
     1
 77
     6
 78
     2
 67
     7
 79
     3
170
     0
171
     0
290
     0
174
     0
 93
       13
 44
0.0
173
     0
291
     0
 45
0.0
1001
ACAD
1000
AcDbSavedByObjectVersion
1070
     0
  0
XRECORD
  5
60B
102
{ACAD_REACTORS
330
60A
102
}
330
60A
100
AcDbXrecord
280
     1
340
29
  0
XRECORD
  5
60C
102
{ACAD_REACTORS
330
60A
102
}
330
60A
100
AcDbXrecord
280
     1
340
7
  0
DICTIONARYVAR
  5
5A9
102
{ACAD_REACTORS
330
5A8
102
}
330
5A8
100
DictionaryVariables
280
     0
  1
1:1
  0
DICTIONARYVAR
  5
5C8
102
{ACAD_REACTORS
330
5A8
102
}
330
5A8
100
DictionaryVariables
280
     0
  1
Standard
  0
DICTIONARYVAR
  5
607
102
{ACAD_REACTORS
330
5A8
102
}
330
5A8
100
DictionaryVariables
280
     0
  1
Standard
  0
DICTIONARYVAR
  5
608
102
{ACAD_REACTORS
330
5A8
102
}
330
5A8
100
DictionaryVariables
280
     0
  1
0
  0
DICTIONARYVAR
  5
609
102
{ACAD_REACTORS
330
5A8
102
}
330
5A8
100
DictionaryVariables
280
     0
  1
1
  0
DICTIONARYVAR
  5
610
102
{ACAD_REACTORS
330
5A8
102
}
330
5A8
100
DictionaryVariables
280
     0
  1
1
  0
DICTIONARY
  5
615
330
70
100
AcDbDictionary
280
     1
281
     1
  3
ACAD_XREC_ROUNDTRIP
360
616
  0
DICTIONARY
  5
611
330
10
100
AcDbDictionary
280
     1
281
     1
  3
ACAD_XREC_ROUNDTRIP
360
612
  0
DICTIONARY
  5
613
330
6
100
AcDbDictionary
280
     1
281
     1
  3
ACAD_XREC_ROUNDTRIP
360
614
  0
DICTIONARY
  5
647
330
5C6
100
AcDbDictionary
280
     1
281
     1
  3
ACAD_XREC_ROUNDTRIP
360
648
  0
DICTIONARY
  5
61F
330
5B2
100
AcDbDictionary
280
     1
281
     1
  3
ACAD_XREC_ROUNDTRIP
360
620
  0
DICTIONARY
  5
625
330
5B5
100
AcDbDictionary
280
     1
281
     1
  3
ACAD_XREC_ROUNDTRIP
360
626
  0
DICTIONARY
  5
62D
330
5B9
100
AcDbDictionary
280
     1
281
     1
  3
ACAD_XREC_ROUNDTRIP
360
62E
  0
DICTIONARY
  5
635
330
5BD
100
AcDbDictionary
280
     1
281
     1
  3
ACAD_XREC_ROUNDTRIP
360
636
  0
DICTIONARY
  5
629
330
5B7
100
AcDbDictionary
280
     1
281
     1
  3
ACAD_XREC_ROUNDTRIP
360
62A
  0
DICTIONARY
  5
62B
330
5B8
100
AcDbDictionary
280
     1
281
     1
  3
ACAD_XREC_ROUNDTRIP
360
62C
  0
DICTIONARY
  5
63B
330
5C0
100
AcDbDictionary
280
     1
281
     1
  3
ACAD_XREC_ROUNDTRIP
360
63C
  0
DICTIONARY
  5
633
330
5BC
100
AcDbDictionary
280
     1
281
     1
  3
ACAD_XREC_ROUNDTRIP
360
634
  0
DICTIONARY
  5
617
330
5AE
100
AcDbDictionary
280
     1
281
     1
  3
ACAD_XREC_ROUNDTRIP
360
618
  0
DICTIONARY
  5
619
330
5AF
100
AcDbDictionary
280
     1
281
     1
  3
ACAD_XREC_ROUNDTRIP
360
61A
  0
DICTIONARY
  5
61B
330
5B0
100
AcDbDictionary
280
     1
281
     1
  3
ACAD_XREC_ROUNDTRIP
360
61C
  0
DICTIONARY
  5
61D
330
5B1
100
AcDbDictionary
280
     1
281
     1
  3
ACAD_XREC_ROUNDTRIP
360
61E
  0
DICTIONARY
  5
623
330
5B4
100
AcDbDictionary
280
     1
281
     1
  3
ACAD_XREC_ROUNDTRIP
360
624
  0
DICTIONARY
  5
637
330
5BE
100
AcDbDictionary
280
     1
281
     1
  3
ACAD_XREC_ROUNDTRIP
360
638
  0
DICTIONARY
  5
631
330
5BB
100
AcDbDictionary
280
     1
281
     1
  3
ACAD_XREC_ROUNDTRIP
360
632
  0
DICTIONARY
  5
639
330
5BF
100
AcDbDictionary
280
     1
281
     1
  3
ACAD_XREC_ROUNDTRIP
360
63A
  0
DICTIONARY
  5
627
330
5B6
100
AcDbDictionary
280
     1
281
     1
  3
ACAD_XREC_ROUNDTRIP
360
628
  0
DICTIONARY
  5
645
330
5C5
100
AcDbDictionary
280
     1
281
     1
  3
ACAD_XREC_ROUNDTRIP
360
646
  0
DICTIONARY
  5
643
330
5C4
100
AcDbDictionary
280
     1
281
     1
  3
ACAD_XREC_ROUNDTRIP
360
644
  0
DICTIONARY
  5
63D
330
5C1
100
AcDbDictionary
280
     1
281
     1
  3
ACAD_XREC_ROUNDTRIP
360
63E
  0
DICTIONARY
  5
63F
330
5C2
100
AcDbDictionary
280
     1
281
     1
  3
ACAD_XREC_ROUNDTRIP
360
640
  0
DICTIONARY
  5
62F
330
5BA
100
AcDbDictionary
280
     1
281
     1
  3
ACAD_XREC_ROUNDTRIP
360
630
  0
DICTIONARY
  5
621
330
5B3
100
AcDbDictionary
280
     1
281
     1
  3
ACAD_XREC_ROUNDTRIP
360
622
  0
DICTIONARY
  5
641
330
5C3
100
AcDbDictionary
280
     1
281
     1
  3
ACAD_XREC_ROUNDTRIP
360
642
  0
XRECORD
  5
616
102
{ACAD_REACTORS
330
615
102
}
330
615
100
AcDbXrecord
280
     1
102
MATERIAL
148
0.0
149
0.0
149
0.0
 93
        0
 94
      127
282
     0
 72
     1
 77
     1
171
     1
175
     1
179
     1
273
     0
  0
XRECORD
  5
612
102
{ACAD_REACTORS
330
611
102
}
330
611
100
AcDbXrecord
280
     1
102
MATERIAL
148
0.0
149
0.0
149
0.0
 93
        0
 94
      127
282
     0
 72
     1
 77
     1
171
     1
175
     1
179
     1
273
     0
  0
XRECORD
  5
614
102
{ACAD_REACTORS
330
613
102
}
330
613
100
AcDbXrecord
280
     1
102
MATERIAL
148
0.0
149
0.0
149
0.0
 93
        0
 94
      127
282
     0
 72
     1
 77
     1
171
     1
175
     1
179
     1
273
     0
  0
XRECORD
  5
648
102
{ACAD_REACTORS
330
647
102
}
330
647
100
AcDbXrecord
280
     1
102
ACAD_ROUNDTRIP_2010_MLEADER_STYLE
  0
XRECORD
  5
620
102
{ACAD_REACTORS
330
61F
102
}
330
61F
100
AcDbXrecord
280
     1
102
RTVSPropertyOp0
 70
     1
102
RTVSPropertyOp1
 70
     1
102
RTVSPropertyOp2
 70
     1
102
RTVSPropertyOp3
 70
     1
102
RTVSPropertyOp4
 70
     1
102
RTVSPropertyOp5
 70
     1
102
RTVSPropertyOp6
 70
     1
102
RTVSPropertyOp7
 70
     1
102
RTVSPropertyOp8
 70
     1
102
RTVSPropertyOp9
 70
     1
102
RTVSPropertyOp10
 70
     1
102
RTVSPropertyOp11
 70
     1
102
RTVSPropertyOp12
 70
     1
102
RTVSPropertyOp13
 70
     1
102
RTVSPropertyOp14
 70
     1
102
RTVSPropertyOp15
 70
     1
102
RTVSPropertyOp16
 70
     1
102
RTVSPropertyOp17
 70
     1
102
RTVSPropertyOp18
 70
     1
102
RTVSPropertyOp19
 70
     1
102
RTVSPropertyOp20
 70
     1
102
RTVSPropertyOp21
 70
     1
102
RTVSPropertyOp22
 70
     1
102
RTVSPropertyOp23
 70
     1
102
RTVSPropertyOp24
 70
     1
102
RTVSPropertyOp25
 70
     1
102
RTVSPropertyOp26
 70
     1
102
RTVSPropertyOp27
 70
     1
102
RTVSPropertyOp28
 70
     1
102
RTVSPropertyOp29
 70
     1
102
RTVSPropertyOp30
 70
     1
102
RTVSPropertyOp31
 70
     1
102
RTVSPropertyOp32
 70
     1
102
RTVSPropertyOp33
 70
     1
102
RTVSPropertyOp34
 70
     1
102
RTVSPropertyOp35
 70
     1
102
RTVSPropertyOp36
 70
     1
102
RTVSPropertyOp37
 70
     1
102
RTVSPropertyOp38
 70
     1
102
RTVSPropertyOp39
 70
     1
102
RTVSPropertyOp40
 70
     1
102
RTVSPropertyOp41
 70
     1
102
RTVSPropertyOp42
 70
     1
102
RTVSPropertyOp43
 70
     1
102
RTVSPropertyOp44
 70
     1
102
RTVSPropertyOp45
 70
     1
102
RTVSPropertyOp46
 70
     1
102
RTVSPropertyOp47
 70
     1
102
RTVSPropertyOp48
 70
     1
102
RTVSPropertyOp49
 70
     1
102
RTVSPropertyOp50
 70
     1
102
RTVSPropertyOp51
 70
     0
102
RTVSPropertyOp52
 70
     0
102
RTVSPropertyOp53
 70
     1
102
RTVSPropertyOp54
 70
     1
102
RTVSPropertyOp55
 70
     1
102
RTVSPropertyOp56
 70
     1
102
RTVSPropertyOp57
 70
     1
102
RTVSPost2010Prop28
280
     1
102
RTVSPost2010PropOp28
 70
     1
102
RTVSPost2010Prop29
280
     1
102
RTVSPost2010PropOp29
 70
     1
102
RTVSPost2010Prop30
280
     0
102
RTVSPost2010PropOp30
 70
     1
102
RTVSPost2010Prop31
280
     0
102
RTVSPost2010PropOp31
 70
     1
102
RTVSPost2010Prop32
280
     0
102
RTVSPost2010PropOp32
 70
     1
102
RTVSPost2010Prop33
280
     0
102
RTVSPost2010PropOp33
 70
     1
102
RTVSPost2010Prop34
280
     0
102
RTVSPost2010PropOp34
 70
     1
102
RTVSPost2010Prop35
280
     0
102
RTVSPost2010PropOp35
 70
     1
102
RTVSPost2010Prop36
280
     0
102
RTVSPost2010PropOp36
 70
     1
102
RTVSPost2010Prop37
 90
       50
102
RTVSPost2010PropOp37
 70
     1
102
RTVSPost2010Prop38
140
0.0
102
RTVSPost2010PropOp38
 70
     1
102
RTVSPost2010Prop39
140
1.0
102
RTVSPost2010PropOp39
 70
     1
102
RTVSPost2010Prop40
 90
        0
102
RTVSPost2010PropOp40
 70
     1
102
RTVSPost2010Prop41ColorIndex
 90
       18
102
RTVSPost2010Prop41ColorRGB
 90
        0
102
RTVSPost2010PropOp41
 70
     1
102
RTVSPost2010Prop42
 90
       50
102
RTVSPost2010PropOp42
 70
     1
102
RTVSPost2010Prop43
 90
        3
102
RTVSPost2010PropOp43
 70
     1
102
RTVSPost2010Prop44ColorIndex
 90
        5
102
RTVSPost2010Prop44ColorRGB
 90
      255
102
RTVSPost2010PropOp44
 70
     1
102
RTVSPost2010Prop45
280
     0
102
RTVSPost2010PropOp45
 70
     1
102
RTVSPost2010Prop46
 90
       50
102
RTVSPost2010PropOp46
 70
     1
102
RTVSPost2010Prop47
 90
       50
102
RTVSPost2010PropOp47
 70
     1
102
RTVSPost2010Prop48
 90
       50
102
RTVSPost2010PropOp48
 70
     1
102
RTVSPost2010Prop49
280
     0
102
RTVSPost2010PropOp49
 70
     1
102
RTVSPost2010Prop50
 90
       50
102
RTVSPost2010PropOp50
 70
     1
102
RTVSPost2010Prop51ColorIndex
 90
      256
102
RTVSPost2010Prop51ColorRGB
 90
-16777216
102
RTVSPost2010PropOp51
 70
     0
102
RTVSPost2010Prop52
140
1.0
102
RTVSPost2010PropOp52
 70
     0
102
RTVSPost2010Prop53
 90
        2
102
RTVSPost2010PropOp53
 70
     1
102
RTVSPost2010Prop54
  1
strokes_ogs.tif
102
RTVSPost2010PropOp54
 70
     1
102
RTVSPost2010Prop55
280
     0
102
RTVSPost2010PropOp55
 70
     1
102
RTVSPost2010Prop56
140
1.0
102
RTVSPost2010PropOp56
 70
     1
102
RTVSPost2010Prop57
140
1.0
102
RTVSPost2010PropOp57
 70
     1
  0
XRECORD
  5
626
102
{ACAD_REACTORS
330
625
102
}
330
625
100
AcDbXrecord
280
     1
102
RTVSPropertyOp0
 70
     1
102
RTVSPropertyOp1
 70
     1
102
RTVSPropertyOp2
 70
     1
102
RTVSPropertyOp3
 70
     1
102
RTVSPropertyOp4
 70
     1
102
RTVSPropertyOp5
 70
     1
102
RTVSPropertyOp6
 70
     1
102
RTVSPropertyOp7
 70
     1
102
RTVSPropertyOp8
 70
     1
102
RTVSPropertyOp9
 70
     1
102
RTVSPropertyOp10
 70
     1
102
RTVSPropertyOp11
 70
     1
102
RTVSPropertyOp12
 70
     1
102
RTVSPropertyOp13
 70
     1
102
RTVSPropertyOp14
 70
     1
102
RTVSPropertyOp15
 70
     1
102
RTVSPropertyOp16
 70
     1
102
RTVSPropertyOp17
 70
     1
102
RTVSPropertyOp18
 70
     1
102
RTVSPropertyOp19
 70
     1
102
RTVSPropertyOp20
 70
     1
102
RTVSPropertyOp21
 70
     1
102
RTVSPropertyOp22
 70
     1
102
RTVSPropertyOp23
 70
     1
102
RTVSPropertyOp24
 70
     1
102
RTVSPropertyOp25
 70
     1
102
RTVSPropertyOp26
 70
     1
102
RTVSPropertyOp27
 70
     1
102
RTVSPropertyOp28
 70
     1
102
RTVSPropertyOp29
 70
     1
102
RTVSPropertyOp30
 70
     1
102
RTVSPropertyOp31
 70
     1
102
RTVSPropertyOp32
 70
     1
102
RTVSPropertyOp33
 70
     1
102
RTVSPropertyOp34
 70
     1
102
RTVSPropertyOp35
 70
     1
102
RTVSPropertyOp36
 70
     1
102
RTVSPropertyOp37
 70
     1
102
RTVSPropertyOp38
 70
     1
102
RTVSPropertyOp39
 70
     1
102
RTVSPropertyOp40
 70
     1
102
RTVSPropertyOp41
 70
     1
102
RTVSPropertyOp42
 70
     1
102
RTVSPropertyOp43
 70
     1
102
RTVSPropertyOp44
 70
     1
102
RTVSPropertyOp45
 70
     1
102
RTVSPropertyOp46
 70
     1
102
RTVSPropertyOp47
 70
     1
102
RTVSPropertyOp48
 70
     1
102
RTVSPropertyOp49
 70
     1
102
RTVSPropertyOp50
 70
     1
102
RTVSPropertyOp51
 70
     0
102
RTVSPropertyOp52
 70
     0
102
RTVSPropertyOp53
 70
     1
102
RTVSPropertyOp54
 70
     1
102
RTVSPropertyOp55
 70
     1
102
RTVSPropertyOp56
 70
     1
102
RTVSPropertyOp57
 70
     1
102
RTVSPost2010Prop28
280
     0
102
RTVSPost2010PropOp28
 70
     1
102
RTVSPost2010Prop29
280
     1
102
RTVSPost2010PropOp29
 70
     1
102
RTVSPost2010Prop30
280
     1
102
RTVSPost2010PropOp30
 70
     1
102
RTVSPost2010Prop31
280
     0
102
RTVSPost2010PropOp31
 70
     1
102
RTVSPost2010Prop32
280
     0
102
RTVSPost2010PropOp32
 70
     1
102
RTVSPost2010Prop33
280
     0
102
RTVSPost2010PropOp33
 70
     1
102
RTVSPost2010Prop34
280
     0
102
RTVSPost2010PropOp34
 70
     1
102
RTVSPost2010Prop35
280
     0
102
RTVSPost2010PropOp35
 70
     1
102
RTVSPost2010Prop36
280
     0
102
RTVSPost2010PropOp36
 70
     1
102
RTVSPost2010Prop37
 90
       50
102
RTVSPost2010PropOp37
 70
     1
102
RTVSPost2010Prop38
140
0.0
102
RTVSPost2010PropOp38
 70
     1
102
RTVSPost2010Prop39
140
1.0
102
RTVSPost2010PropOp39
 70
     1
102
RTVSPost2010Prop40
 90
        0
102
RTVSPost2010PropOp40
 70
     1
102
RTVSPost2010Prop41ColorIndex
 90
       18
102
RTVSPost2010Prop41ColorRGB
 90
        0
102
RTVSPost2010PropOp41
 70
     1
102
RTVSPost2010Prop42
 90
       50
102
RTVSPost2010PropOp42
 70
     1
102
RTVSPost2010Prop43
 90
        3
102
RTVSPost2010PropOp43
 70
     1
102
RTVSPost2010Prop44ColorIndex
 90
        5
102
RTVSPost2010Prop44ColorRGB
 90
      255
102
RTVSPost2010PropOp44
 70
     1
102
RTVSPost2010Prop45
280
     0
102
RTVSPost2010PropOp45
 70
     1
102
RTVSPost2010Prop46
 90
       50
102
RTVSPost2010PropOp46
 70
     1
102
RTVSPost2010Prop47
 90
       50
102
RTVSPost2010PropOp47
 70
     1
102
RTVSPost2010Prop48
 90
       50
102
RTVSPost2010PropOp48
 70
     1
102
RTVSPost2010Prop49
280
     0
102
RTVSPost2010PropOp49
 70
     1
102
RTVSPost2010Prop50
 90
       50
102
RTVSPost2010PropOp50
 70
     1
102
RTVSPost2010Prop51ColorIndex
 90
      256
102
RTVSPost2010Prop51ColorRGB
 90
-16777216
102
RTVSPost2010PropOp51
 70
     0
102
RTVSPost2010Prop52
140
1.0
102
RTVSPost2010PropOp52
 70
     0
102
RTVSPost2010Prop53
 90
        2
102
RTVSPost2010PropOp53
 70
     1
102
RTVSPost2010Prop54
  1
strokes_ogs.tif
102
RTVSPost2010PropOp54
 70
     1
102
RTVSPost2010Prop55
280
     0
102
RTVSPost2010PropOp55
 70
     1
102
RTVSPost2010Prop56
140
1.0
102
RTVSPost2010PropOp56
 70
     1
102
RTVSPost2010Prop57
140
1.0
102
RTVSPost2010PropOp57
 70
     1
  0
XRECORD
  5
62E
102
{ACAD_REACTORS
330
62D
102
}
330
62D
100
AcDbXrecord
280
     1
102
RTVSPropertyOp0
 70
     1
102
RTVSPropertyOp1
 70
     1
102
RTVSPropertyOp2
 70
     1
102
RTVSPropertyOp3
 70
     1
102
RTVSPropertyOp4
 70
     1
102
RTVSPropertyOp5
 70
     1
102
RTVSPropertyOp6
 70
     1
102
RTVSPropertyOp7
 70
     1
102
RTVSPropertyOp8
 70
     1
102
RTVSPropertyOp9
 70
     1
102
RTVSPropertyOp10
 70
     1
102
RTVSPropertyOp11
 70
     1
102
RTVSPropertyOp12
 70
     1
102
RTVSPropertyOp13
 70
     1
102
RTVSPropertyOp14
 70
     1
102
RTVSPropertyOp15
 70
     1
102
RTVSPropertyOp16
 70
     1
102
RTVSPropertyOp17
 70
     1
102
RTVSPropertyOp18
 70
     1
102
RTVSPropertyOp19
 70
     1
102
RTVSPropertyOp20
 70
     1
102
RTVSPropertyOp21
 70
     1
102
RTVSPropertyOp22
 70
     1
102
RTVSPropertyOp23
 70
     1
102
RTVSPropertyOp24
 70
     1
102
RTVSPropertyOp25
 70
     1
102
RTVSPropertyOp26
 70
     1
102
RTVSPropertyOp27
 70
     1
102
RTVSPropertyOp28
 70
     1
102
RTVSPropertyOp29
 70
     1
102
RTVSPropertyOp30
 70
     1
102
RTVSPropertyOp31
 70
     1
102
RTVSPropertyOp32
 70
     1
102
RTVSPropertyOp33
 70
     1
102
RTVSPropertyOp34
 70
     1
102
RTVSPropertyOp35
 70
     1
102
RTVSPropertyOp36
 70
     1
102
RTVSPropertyOp37
 70
     1
102
RTVSPropertyOp38
 70
     1
102
RTVSPropertyOp39
 70
     1
102
RTVSPropertyOp40
 70
     1
102
RTVSPropertyOp41
 70
     1
102
RTVSPropertyOp42
 70
     1
102
RTVSPropertyOp43
 70
     1
102
RTVSPropertyOp44
 70
     1
102
RTVSPropertyOp45
 70
     1
102
RTVSPropertyOp46
 70
     1
102
RTVSPropertyOp47
 70
     1
102
RTVSPropertyOp48
 70
     1
102
RTVSPropertyOp49
 70
     1
102
RTVSPropertyOp50
 70
     1
102
RTVSPropertyOp51
 70
     0
102
RTVSPropertyOp52
 70
     0
102
RTVSPropertyOp53
 70
     1
102
RTVSPropertyOp54
 70
     1
102
RTVSPropertyOp55
 70
     1
102
RTVSPropertyOp56
 70
     1
102
RTVSPropertyOp57
 70
     1
102
RTVSPost2010Prop28
280
     0
102
RTVSPost2010PropOp28
 70
     1
102
RTVSPost2010Prop29
280
     1
102
RTVSPost2010PropOp29
 70
     1
102
RTVSPost2010Prop30
280
     1
102
RTVSPost2010PropOp30
 70
     1
102
RTVSPost2010Prop31
280
     0
102
RTVSPost2010PropOp31
 70
     1
102
RTVSPost2010Prop32
280
     0
102
RTVSPost2010PropOp32
 70
     1
102
RTVSPost2010Prop33
280
     0
102
RTVSPost2010PropOp33
 70
     1
102
RTVSPost2010Prop34
280
     0
102
RTVSPost2010PropOp34
 70
     1
102
RTVSPost2010Prop35
280
     0
102
RTVSPost2010PropOp35
 70
     1
102
RTVSPost2010Prop36
280
     0
102
RTVSPost2010PropOp36
 70
     1
102
RTVSPost2010Prop37
 90
       50
102
RTVSPost2010PropOp37
 70
     1
102
RTVSPost2010Prop38
140
0.0
102
RTVSPost2010PropOp38
 70
     1
102
RTVSPost2010Prop39
140
1.0
102
RTVSPost2010PropOp39
 70
     1
102
RTVSPost2010Prop40
 90
        0
102
RTVSPost2010PropOp40
 70
     1
102
RTVSPost2010Prop41ColorIndex
 90
       18
102
RTVSPost2010Prop41ColorRGB
 90
        0
102
RTVSPost2010PropOp41
 70
     1
102
RTVSPost2010Prop42
 90
       50
102
RTVSPost2010PropOp42
 70
     1
102
RTVSPost2010Prop43
 90
        3
102
RTVSPost2010PropOp43
 70
     1
102
RTVSPost2010Prop44ColorIndex
 90
        5
102
RTVSPost2010Prop44ColorRGB
 90
      255
102
RTVSPost2010PropOp44
 70
     1
102
RTVSPost2010Prop45
280
     0
102
RTVSPost2010PropOp45
 70
     1
102
RTVSPost2010Prop46
 90
       50
102
RTVSPost2010PropOp46
 70
     1
102
RTVSPost2010Prop47
 90
       50
102
RTVSPost2010PropOp47
 70
     1
102
RTVSPost2010Prop48
 90
       50
102
RTVSPost2010PropOp48
 70
     1
102
RTVSPost2010Prop49
280
     0
102
RTVSPost2010PropOp49
 70
     1
102
RTVSPost2010Prop50
 90
       50
102
RTVSPost2010PropOp50
 70
     1
102
RTVSPost2010Prop51ColorIndex
 90
      256
102
RTVSPost2010Prop51ColorRGB
 90
-16777216
102
RTVSPost2010PropOp51
 70
     0
102
RTVSPost2010Prop52
140
1.0
102
RTVSPost2010PropOp52
 70
     0
102
RTVSPost2010Prop53
 90
        2
102
RTVSPost2010PropOp53
 70
     1
102
RTVSPost2010Prop54
  1
strokes_ogs.tif
102
RTVSPost2010PropOp54
 70
     1
102
RTVSPost2010Prop55
280
     0
102
RTVSPost2010PropOp55
 70
     1
102
RTVSPost2010Prop56
140
1.0
102
RTVSPost2010PropOp56
 70
     1
102
RTVSPost2010Prop57
140
1.0
102
RTVSPost2010PropOp57
 70
     1
  0
XRECORD
  5
636
102
{ACAD_REACTORS
330
635
102
}
330
635
100
AcDbXrecord
280
     1
102
RTVSPropertyOp0
 70
     1
102
RTVSPropertyOp1
 70
     1
102
RTVSPropertyOp2
 70
     1
102
RTVSPropertyOp3
 70
     1
102
RTVSPropertyOp4
 70
     1
102
RTVSPropertyOp5
 70
     1
102
RTVSPropertyOp6
 70
     1
102
RTVSPropertyOp7
 70
     1
102
RTVSPropertyOp8
 70
     1
102
RTVSPropertyOp9
 70
     1
102
RTVSPropertyOp10
 70
     1
102
RTVSPropertyOp11
 70
     1
102
RTVSPropertyOp12
 70
     1
102
RTVSPropertyOp13
 70
     1
102
RTVSPropertyOp14
 70
     1
102
RTVSPropertyOp15
 70
     1
102
RTVSPropertyOp16
 70
     1
102
RTVSPropertyOp17
 70
     1
102
RTVSPropertyOp18
 70
     1
102
RTVSPropertyOp19
 70
     1
102
RTVSPropertyOp20
 70
     1
102
RTVSPropertyOp21
 70
     1
102
RTVSPropertyOp22
 70
     1
102
RTVSPropertyOp23
 70
     1
102
RTVSPropertyOp24
 70
     1
102
RTVSPropertyOp25
 70
     1
102
RTVSPropertyOp26
 70
     1
102
RTVSPropertyOp27
 70
     1
102
RTVSPropertyOp28
 70
     1
102
RTVSPropertyOp29
 70
     1
102
RTVSPropertyOp30
 70
     1
102
RTVSPropertyOp31
 70
     1
102
RTVSPropertyOp32
 70
     1
102
RTVSPropertyOp33
 70
     1
102
RTVSPropertyOp34
 70
     1
102
RTVSPropertyOp35
 70
     1
102
RTVSPropertyOp36
 70
     1
102
RTVSPropertyOp37
 70
     1
102
RTVSPropertyOp38
 70
     1
102
RTVSPropertyOp39
 70
     1
102
RTVSPropertyOp40
 70
     1
102
RTVSPropertyOp41
 70
     1
102
RTVSPropertyOp42
 70
     1
102
RTVSPropertyOp43
 70
     1
102
RTVSPropertyOp44
 70
     1
102
RTVSPropertyOp45
 70
     1
102
RTVSPropertyOp46
 70
     1
102
RTVSPropertyOp47
 70
     1
102
RTVSPropertyOp48
 70
     1
102
RTVSPropertyOp49
 70
     1
102
RTVSPropertyOp50
 70
     1
102
RTVSPropertyOp51
 70
     0
102
RTVSPropertyOp52
 70
     0
102
RTVSPropertyOp53
 70
     1
102
RTVSPropertyOp54
 70
     1
102
RTVSPropertyOp55
 70
     1
102
RTVSPropertyOp56
 70
     1
102
RTVSPropertyOp57
 70
     1
102
RTVSPost2010Prop28
280
     0
102
RTVSPost2010PropOp28
 70
     1
102
RTVSPost2010Prop29
280
     1
102
RTVSPost2010PropOp29
 70
     1
102
RTVSPost2010Prop30
280
     1
102
RTVSPost2010PropOp30
 70
     1
102
RTVSPost2010Prop31
280
     0
102
RTVSPost2010PropOp31
 70
     1
102
RTVSPost2010Prop32
280
     0
102
RTVSPost2010PropOp32
 70
     1
102
RTVSPost2010Prop33
280
     0
102
RTVSPost2010PropOp33
 70
     1
102
RTVSPost2010Prop34
280
     0
102
RTVSPost2010PropOp34
 70
     1
102
RTVSPost2010Prop35
280
     0
102
RTVSPost2010PropOp35
 70
     1
102
RTVSPost2010Prop36
280
     0
102
RTVSPost2010PropOp36
 70
     1
102
RTVSPost2010Prop37
 90
       50
102
RTVSPost2010PropOp37
 70
     1
102
RTVSPost2010Prop38
140
0.0
102
RTVSPost2010PropOp38
 70
     1
102
RTVSPost2010Prop39
140
1.0
102
RTVSPost2010PropOp39
 70
     1
102
RTVSPost2010Prop40
 90
        0
102
RTVSPost2010PropOp40
 70
     1
102
RTVSPost2010Prop41ColorIndex
 90
       18
102
RTVSPost2010Prop41ColorRGB
 90
        0
102
RTVSPost2010PropOp41
 70
     1
102
RTVSPost2010Prop42
 90
       50
102
RTVSPost2010PropOp42
 70
     1
102
RTVSPost2010Prop43
 90
        3
102
RTVSPost2010PropOp43
 70
     1
102
RTVSPost2010Prop44ColorIndex
 90
        5
102
RTVSPost2010Prop44ColorRGB
 90
      255
102
RTVSPost2010PropOp44
 70
     1
102
RTVSPost2010Prop45
280
     0
102
RTVSPost2010PropOp45
 70
     1
102
RTVSPost2010Prop46
 90
       50
102
RTVSPost2010PropOp46
 70
     1
102
RTVSPost2010Prop47
 90
       50
102
RTVSPost2010PropOp47
 70
     1
102
RTVSPost2010Prop48
 90
       50
102
RTVSPost2010PropOp48
 70
     1
102
RTVSPost2010Prop49
280
     0
102
RTVSPost2010PropOp49
 70
     1
102
RTVSPost2010Prop50
 90
       50
102
RTVSPost2010PropOp50
 70
     1
102
RTVSPost2010Prop51ColorIndex
 90
      256
102
RTVSPost2010Prop51ColorRGB
 90
-16777216
102
RTVSPost2010PropOp51
 70
     0
102
RTVSPost2010Prop52
140
1.0
102
RTVSPost2010PropOp52
 70
     0
102
RTVSPost2010Prop53
 90
        2
102
RTVSPost2010PropOp53
 70
     1
102
RTVSPost2010Prop54
  1
strokes_ogs.tif
102
RTVSPost2010PropOp54
 70
     1
102
RTVSPost2010Prop55
280
     0
102
RTVSPost2010PropOp55
 70
     1
102
RTVSPost2010Prop56
140
1.0
102
RTVSPost2010PropOp56
 70
     1
102
RTVSPost2010Prop57
140
1.0
102
RTVSPost2010PropOp57
 70
     1
  0
XRECORD
  5
62A
102
{ACAD_REACTORS
330
629
102
}
330
629
100
AcDbXrecord
280
     1
102
RTVSPropertyOp0
 70
     1
102
RTVSPropertyOp1
 70
     1
102
RTVSPropertyOp2
 70
     1
102
RTVSPropertyOp3
 70
     1
102
RTVSPropertyOp4
 70
     1
102
RTVSPropertyOp5
 70
     1
102
RTVSPropertyOp6
 70
     1
102
RTVSPropertyOp7
 70
     1
102
RTVSPropertyOp8
 70
     1
102
RTVSPropertyOp9
 70
     1
102
RTVSPropertyOp10
 70
     1
102
RTVSPropertyOp11
 70
     1
102
RTVSPropertyOp12
 70
     1
102
RTVSPropertyOp13
 70
     1
102
RTVSPropertyOp14
 70
     1
102
RTVSPropertyOp15
 70
     1
102
RTVSPropertyOp16
 70
     1
102
RTVSPropertyOp17
 70
     1
102
RTVSPropertyOp18
 70
     1
102
RTVSPropertyOp19
 70
     1
102
RTVSPropertyOp20
 70
     1
102
RTVSPropertyOp21
 70
     1
102
RTVSPropertyOp22
 70
     1
102
RTVSPropertyOp23
 70
     1
102
RTVSPropertyOp24
 70
     1
102
RTVSPropertyOp25
 70
     1
102
RTVSPropertyOp26
 70
     1
102
RTVSPropertyOp27
 70
     1
102
RTVSPropertyOp28
 70
     1
102
RTVSPropertyOp29
 70
     1
102
RTVSPropertyOp30
 70
     1
102
RTVSPropertyOp31
 70
     1
102
RTVSPropertyOp32
 70
     1
102
RTVSPropertyOp33
 70
     1
102
RTVSPropertyOp34
 70
     1
102
RTVSPropertyOp35
 70
     1
102
RTVSPropertyOp36
 70
     1
102
RTVSPropertyOp37
 70
     1
102
RTVSPropertyOp38
 70
     1
102
RTVSPropertyOp39
 70
     1
102
RTVSPropertyOp40
 70
     1
102
RTVSPropertyOp41
 70
     1
102
RTVSPropertyOp42
 70
     1
102
RTVSPropertyOp43
 70
     1
102
RTVSPropertyOp44
 70
     1
102
RTVSPropertyOp45
 70
     1
102
RTVSPropertyOp46
 70
     1
102
RTVSPropertyOp47
 70
     1
102
RTVSPropertyOp48
 70
     1
102
RTVSPropertyOp49
 70
     1
102
RTVSPropertyOp50
 70
     1
102
RTVSPropertyOp51
 70
     0
102
RTVSPropertyOp52
 70
     0
102
RTVSPropertyOp53
 70
     1
102
RTVSPropertyOp54
 70
     1
102
RTVSPropertyOp55
 70
     1
102
RTVSPropertyOp56
 70
     1
102
RTVSPropertyOp57
 70
     1
102
RTVSPost2010Prop28
280
     0
102
RTVSPost2010PropOp28
 70
     1
102
RTVSPost2010Prop29
280
     1
102
RTVSPost2010PropOp29
 70
     1
102
RTVSPost2010Prop30
280
     1
102
RTVSPost2010PropOp30
 70
     1
102
RTVSPost2010Prop31
280
     0
102
RTVSPost2010PropOp31
 70
     1
102
RTVSPost2010Prop32
280
     0
102
RTVSPost2010PropOp32
 70
     1
102
RTVSPost2010Prop33
280
     0
102
RTVSPost2010PropOp33
 70
     1
102
RTVSPost2010Prop34
280
     0
102
RTVSPost2010PropOp34
 70
     1
102
RTVSPost2010Prop35
280
     0
102
RTVSPost2010PropOp35
 70
     1
102
RTVSPost2010Prop36
280
     0
102
RTVSPost2010PropOp36
 70
     1
102
RTVSPost2010Prop37
 90
       50
102
RTVSPost2010PropOp37
 70
     1
102
RTVSPost2010Prop38
140
0.0
102
RTVSPost2010PropOp38
 70
     1
102
RTVSPost2010Prop39
140
1.0
102
RTVSPost2010PropOp39
 70
     1
102
RTVSPost2010Prop40
 90
        0
102
RTVSPost2010PropOp40
 70
     1
102
RTVSPost2010Prop41ColorIndex
 90
       18
102
RTVSPost2010Prop41ColorRGB
 90
        0
102
RTVSPost2010PropOp41
 70
     1
102
RTVSPost2010Prop42
 90
       50
102
RTVSPost2010PropOp42
 70
     1
102
RTVSPost2010Prop43
 90
        3
102
RTVSPost2010PropOp43
 70
     1
102
RTVSPost2010Prop44ColorIndex
 90
        5
102
RTVSPost2010Prop44ColorRGB
 90
      255
102
RTVSPost2010PropOp44
 70
     1
102
RTVSPost2010Prop45
280
     0
102
RTVSPost2010PropOp45
 70
     1
102
RTVSPost2010Prop46
 90
       50
102
RTVSPost2010PropOp46
 70
     1
102
RTVSPost2010Prop47
 90
       50
102
RTVSPost2010PropOp47
 70
     1
102
RTVSPost2010Prop48
 90
       50
102
RTVSPost2010PropOp48
 70
     1
102
RTVSPost2010Prop49
280
     0
102
RTVSPost2010PropOp49
 70
     1
102
RTVSPost2010Prop50
 90
       50
102
RTVSPost2010PropOp50
 70
     1
102
RTVSPost2010Prop51ColorIndex
 90
      256
102
RTVSPost2010Prop51ColorRGB
 90
-16777216
102
RTVSPost2010PropOp51
 70
     0
102
RTVSPost2010Prop52
140
1.0
102
RTVSPost2010PropOp52
 70
     0
102
RTVSPost2010Prop53
 90
        2
102
RTVSPost2010PropOp53
 70
     1
102
RTVSPost2010Prop54
  1
strokes_ogs.tif
102
RTVSPost2010PropOp54
 70
     1
102
RTVSPost2010Prop55
280
     0
102
RTVSPost2010PropOp55
 70
     1
102
RTVSPost2010Prop56
140
1.0
102
RTVSPost2010PropOp56
 70
     1
102
RTVSPost2010Prop57
140
1.0
102
RTVSPost2010PropOp57
 70
     1
  0
XRECORD
  5
62C
102
{ACAD_REACTORS
330
62B
102
}
330
62B
100
AcDbXrecord
280
     1
102
RTVSPropertyOp0
 70
     1
102
RTVSPropertyOp1
 70
     1
102
RTVSPropertyOp2
 70
     1
102
RTVSPropertyOp3
 70
     1
102
RTVSPropertyOp4
 70
     1
102
RTVSPropertyOp5
 70
     1
102
RTVSPropertyOp6
 70
     1
102
RTVSPropertyOp7
 70
     1
102
RTVSPropertyOp8
 70
     1
102
RTVSPropertyOp9
 70
     1
102
RTVSPropertyOp10
 70
     1
102
RTVSPropertyOp11
 70
     1
102
RTVSPropertyOp12
 70
     1
102
RTVSPropertyOp13
 70
     1
102
RTVSPropertyOp14
 70
     1
102
RTVSPropertyOp15
 70
     1
102
RTVSPropertyOp16
 70
     1
102
RTVSPropertyOp17
 70
     1
102
RTVSPropertyOp18
 70
     1
102
RTVSPropertyOp19
 70
     1
102
RTVSPropertyOp20
 70
     1
102
RTVSPropertyOp21
 70
     1
102
RTVSPropertyOp22
 70
     1
102
RTVSPropertyOp23
 70
     1
102
RTVSPropertyOp24
 70
     1
102
RTVSPropertyOp25
 70
     1
102
RTVSPropertyOp26
 70
     1
102
RTVSPropertyOp27
 70
     1
102
RTVSPropertyOp28
 70
     1
102
RTVSPropertyOp29
 70
     1
102
RTVSPropertyOp30
 70
     1
102
RTVSPropertyOp31
 70
     1
102
RTVSPropertyOp32
 70
     1
102
RTVSPropertyOp33
 70
     1
102
RTVSPropertyOp34
 70
     1
102
RTVSPropertyOp35
 70
     1
102
RTVSPropertyOp36
 70
     1
102
RTVSPropertyOp37
 70
     1
102
RTVSPropertyOp38
 70
     1
102
RTVSPropertyOp39
 70
     1
102
RTVSPropertyOp40
 70
     1
102
RTVSPropertyOp41
 70
     1
102
RTVSPropertyOp42
 70
     1
102
RTVSPropertyOp43
 70
     1
102
RTVSPropertyOp44
 70
     1
102
RTVSPropertyOp45
 70
     1
102
RTVSPropertyOp46
 70
     1
102
RTVSPropertyOp47
 70
     1
102
RTVSPropertyOp48
 70
     1
102
RTVSPropertyOp49
 70
     1
102
RTVSPropertyOp50
 70
     1
102
RTVSPropertyOp51
 70
     0
102
RTVSPropertyOp52
 70
     0
102
RTVSPropertyOp53
 70
     1
102
RTVSPropertyOp54
 70
     1
102
RTVSPropertyOp55
 70
     1
102
RTVSPropertyOp56
 70
     1
102
RTVSPropertyOp57
 70
     1
102
RTVSPost2010Prop28
280
     0
102
RTVSPost2010PropOp28
 70
     1
102
RTVSPost2010Prop29
280
     1
102
RTVSPost2010PropOp29
 70
     1
102
RTVSPost2010Prop30
280
     1
102
RTVSPost2010PropOp30
 70
     1
102
RTVSPost2010Prop31
280
     0
102
RTVSPost2010PropOp31
 70
     1
102
RTVSPost2010Prop32
280
     0
102
RTVSPost2010PropOp32
 70
     1
102
RTVSPost2010Prop33
280
     0
102
RTVSPost2010PropOp33
 70
     1
102
RTVSPost2010Prop34
280
     0
102
RTVSPost2010PropOp34
 70
     1
102
RTVSPost2010Prop35
280
     0
102
RTVSPost2010PropOp35
 70
     1
102
RTVSPost2010Prop36
280
     0
102
RTVSPost2010PropOp36
 70
     1
102
RTVSPost2010Prop37
 90
       50
102
RTVSPost2010PropOp37
 70
     1
102
RTVSPost2010Prop38
140
0.0
102
RTVSPost2010PropOp38
 70
     1
102
RTVSPost2010Prop39
140
1.0
102
RTVSPost2010PropOp39
 70
     1
102
RTVSPost2010Prop40
 90
        0
102
RTVSPost2010PropOp40
 70
     1
102
RTVSPost2010Prop41ColorIndex
 90
       18
102
RTVSPost2010Prop41ColorRGB
 90
        0
102
RTVSPost2010PropOp41
 70
     1
102
RTVSPost2010Prop42
 90
       50
102
RTVSPost2010PropOp42
 70
     1
102
RTVSPost2010Prop43
 90
        3
102
RTVSPost2010PropOp43
 70
     1
102
RTVSPost2010Prop44ColorIndex
 90
        5
102
RTVSPost2010Prop44ColorRGB
 90
      255
102
RTVSPost2010PropOp44
 70
     1
102
RTVSPost2010Prop45
280
     0
102
RTVSPost2010PropOp45
 70
     1
102
RTVSPost2010Prop46
 90
       50
102
RTVSPost2010PropOp46
 70
     1
102
RTVSPost2010Prop47
 90
       50
102
RTVSPost2010PropOp47
 70
     1
102
RTVSPost2010Prop48
 90
       50
102
RTVSPost2010PropOp48
 70
     1
102
RTVSPost2010Prop49
280
     0
102
RTVSPost2010PropOp49
 70
     1
102
RTVSPost2010Prop50
 90
       50
102
RTVSPost2010PropOp50
 70
     1
102
RTVSPost2010Prop51ColorIndex
 90
      256
102
RTVSPost2010Prop51ColorRGB
 90
-16777216
102
RTVSPost2010PropOp51
 70
     0
102
RTVSPost2010Prop52
140
1.0
102
RTVSPost2010PropOp52
 70
     0
102
RTVSPost2010Prop53
 90
        2
102
RTVSPost2010PropOp53
 70
     1
102
RTVSPost2010Prop54
  1
strokes_ogs.tif
102
RTVSPost2010PropOp54
 70
     1
102
RTVSPost2010Prop55
280
     0
102
RTVSPost2010PropOp55
 70
     1
102
RTVSPost2010Prop56
140
1.0
102
RTVSPost2010PropOp56
 70
     1
102
RTVSPost2010Prop57
140
1.0
102
RTVSPost2010PropOp57
 70
     1
  0
XRECORD
  5
63C
102
{ACAD_REACTORS
330
63B
102
}
330
63B
100
AcDbXrecord
280
     1
102
RTVSPropertyOp0
 70
     0
102
RTVSPropertyOp1
 70
     0
102
RTVSPropertyOp2
 70
     0
102
RTVSPropertyOp3
 70
     0
102
RTVSPropertyOp4
 70
     0
102
RTVSPropertyOp5
 70
     0
102
RTVSPropertyOp6
 70
     0
102
RTVSPropertyOp7
 70
     0
102
RTVSPropertyOp8
 70
     0
102
RTVSPropertyOp9
 70
     0
102
RTVSPropertyOp10
 70
     0
102
RTVSPropertyOp11
 70
     0
102
RTVSPropertyOp12
 70
     0
102
RTVSPropertyOp13
 70
     0
102
RTVSPropertyOp14
 70
     0
102
RTVSPropertyOp15
 70
     0
102
RTVSPropertyOp16
 70
     0
102
RTVSPropertyOp17
 70
     0
102
RTVSPropertyOp18
 70
     0
102
RTVSPropertyOp19
 70
     0
102
RTVSPropertyOp20
 70
     0
102
RTVSPropertyOp21
 70
     0
102
RTVSPropertyOp22
 70
     0
102
RTVSPropertyOp23
 70
     0
102
RTVSPropertyOp24
 70
     0
102
RTVSPropertyOp25
 70
     0
102
RTVSPropertyOp26
 70
     0
102
RTVSPropertyOp27
 70
     0
102
RTVSPropertyOp28
 70
     1
102
RTVSPropertyOp29
 70
     1
102
RTVSPropertyOp30
 70
     1
102
RTVSPropertyOp31
 70
     1
102
RTVSPropertyOp32
 70
     1
102
RTVSPropertyOp33
 70
     1
102
RTVSPropertyOp34
 70
     1
102
RTVSPropertyOp35
 70
     1
102
RTVSPropertyOp36
 70
     1
102
RTVSPropertyOp37
 70
     1
102
RTVSPropertyOp38
 70
     1
102
RTVSPropertyOp39
 70
     1
102
RTVSPropertyOp40
 70
     1
102
RTVSPropertyOp41
 70
     1
102
RTVSPropertyOp42
 70
     1
102
RTVSPropertyOp43
 70
     1
102
RTVSPropertyOp44
 70
     1
102
RTVSPropertyOp45
 70
     1
102
RTVSPropertyOp46
 70
     1
102
RTVSPropertyOp47
 70
     1
102
RTVSPropertyOp48
 70
     1
102
RTVSPropertyOp49
 70
     1
102
RTVSPropertyOp50
 70
     1
102
RTVSPropertyOp51
 70
     0
102
RTVSPropertyOp52
 70
     0
102
RTVSPropertyOp53
 70
     1
102
RTVSPropertyOp54
 70
     1
102
RTVSPropertyOp55
 70
     1
102
RTVSPropertyOp56
 70
     1
102
RTVSPropertyOp57
 70
     1
102
RTVSPost2010Prop28
280
     0
102
RTVSPost2010PropOp28
 70
     1
102
RTVSPost2010Prop29
280
     1
102
RTVSPost2010PropOp29
 70
     1
102
RTVSPost2010Prop30
280
     1
102
RTVSPost2010PropOp30
 70
     1
102
RTVSPost2010Prop31
280
     0
102
RTVSPost2010PropOp31
 70
     1
102
RTVSPost2010Prop32
280
     0
102
RTVSPost2010PropOp32
 70
     1
102
RTVSPost2010Prop33
280
     0
102
RTVSPost2010PropOp33
 70
     1
102
RTVSPost2010Prop34
280
     0
102
RTVSPost2010PropOp34
 70
     1
102
RTVSPost2010Prop35
280
     0
102
RTVSPost2010PropOp35
 70
     1
102
RTVSPost2010Prop36
280
     0
102
RTVSPost2010PropOp36
 70
     1
102
RTVSPost2010Prop37
 90
       50
102
RTVSPost2010PropOp37
 70
     1
102
RTVSPost2010Prop38
140
0.0
102
RTVSPost2010PropOp38
 70
     1
102
RTVSPost2010Prop39
140
1.0
102
RTVSPost2010PropOp39
 70
     1
102
RTVSPost2010Prop40
 90
        0
102
RTVSPost2010PropOp40
 70
     1
102
RTVSPost2010Prop41ColorIndex
 90
       18
102
RTVSPost2010Prop41ColorRGB
 90
        0
102
RTVSPost2010PropOp41
 70
     1
102
RTVSPost2010Prop42
 90
       50
102
RTVSPost2010PropOp42
 70
     1
102
RTVSPost2010Prop43
 90
        3
102
RTVSPost2010PropOp43
 70
     1
102
RTVSPost2010Prop44ColorIndex
 90
        5
102
RTVSPost2010Prop44ColorRGB
 90
      255
102
RTVSPost2010PropOp44
 70
     1
102
RTVSPost2010Prop45
280
     0
102
RTVSPost2010PropOp45
 70
     1
102
RTVSPost2010Prop46
 90
       50
102
RTVSPost2010PropOp46
 70
     1
102
RTVSPost2010Prop47
 90
       50
102
RTVSPost2010PropOp47
 70
     1
102
RTVSPost2010Prop48
 90
       50
102
RTVSPost2010PropOp48
 70
     1
102
RTVSPost2010Prop49
280
     0
102
RTVSPost2010PropOp49
 70
     1
102
RTVSPost2010Prop50
 90
       50
102
RTVSPost2010PropOp50
 70
     1
102
RTVSPost2010Prop51ColorIndex
 90
      256
102
RTVSPost2010Prop51ColorRGB
 90
-16777216
102
RTVSPost2010PropOp51
 70
     0
102
RTVSPost2010Prop52
140
1.0
102
RTVSPost2010PropOp52
 70
     0
102
RTVSPost2010Prop53
 90
        2
102
RTVSPost2010PropOp53
 70
     1
102
RTVSPost2010Prop54
  1
strokes_ogs.tif
102
RTVSPost2010PropOp54
 70
     1
102
RTVSPost2010Prop55
280
     0
102
RTVSPost2010PropOp55
 70
     1
102
RTVSPost2010Prop56
140
1.0
102
RTVSPost2010PropOp56
 70
     1
102
RTVSPost2010Prop57
140
1.0
102
RTVSPost2010PropOp57
 70
     1
  0
XRECORD
  5
634
102
{ACAD_REACTORS
330
633
102
}
330
633
100
AcDbXrecord
280
     1
102
RTVSPropertyOp0
 70
     1
102
RTVSPropertyOp1
 70
     1
102
RTVSPropertyOp2
 70
     1
102
RTVSPropertyOp3
 70
     1
102
RTVSPropertyOp4
 70
     1
102
RTVSPropertyOp5
 70
     1
102
RTVSPropertyOp6
 70
     1
102
RTVSPropertyOp7
 70
     1
102
RTVSPropertyOp8
 70
     1
102
RTVSPropertyOp9
 70
     1
102
RTVSPropertyOp10
 70
     1
102
RTVSPropertyOp11
 70
     1
102
RTVSPropertyOp12
 70
     1
102
RTVSPropertyOp13
 70
     1
102
RTVSPropertyOp14
 70
     1
102
RTVSPropertyOp15
 70
     1
102
RTVSPropertyOp16
 70
     1
102
RTVSPropertyOp17
 70
     1
102
RTVSPropertyOp18
 70
     1
102
RTVSPropertyOp19
 70
     1
102
RTVSPropertyOp20
 70
     1
102
RTVSPropertyOp21
 70
     1
102
RTVSPropertyOp22
 70
     1
102
RTVSPropertyOp23
 70
     1
102
RTVSPropertyOp24
 70
     1
102
RTVSPropertyOp25
 70
     1
102
RTVSPropertyOp26
 70
     1
102
RTVSPropertyOp27
 70
     1
102
RTVSPropertyOp28
 70
     1
102
RTVSPropertyOp29
 70
     1
102
RTVSPropertyOp30
 70
     1
102
RTVSPropertyOp31
 70
     1
102
RTVSPropertyOp32
 70
     1
102
RTVSPropertyOp33
 70
     1
102
RTVSPropertyOp34
 70
     1
102
RTVSPropertyOp35
 70
     1
102
RTVSPropertyOp36
 70
     1
102
RTVSPropertyOp37
 70
     1
102
RTVSPropertyOp38
 70
     1
102
RTVSPropertyOp39
 70
     1
102
RTVSPropertyOp40
 70
     1
102
RTVSPropertyOp41
 70
     1
102
RTVSPropertyOp42
 70
     1
102
RTVSPropertyOp43
 70
     1
102
RTVSPropertyOp44
 70
     1
102
RTVSPropertyOp45
 70
     1
102
RTVSPropertyOp46
 70
     1
102
RTVSPropertyOp47
 70
     1
102
RTVSPropertyOp48
 70
     1
102
RTVSPropertyOp49
 70
     1
102
RTVSPropertyOp50
 70
     1
102
RTVSPropertyOp51
 70
     0
102
RTVSPropertyOp52
 70
     0
102
RTVSPropertyOp53
 70
     1
102
RTVSPropertyOp54
 70
     1
102
RTVSPropertyOp55
 70
     1
102
RTVSPropertyOp56
 70
     1
102
RTVSPropertyOp57
 70
     1
102
RTVSPost2010Prop28
280
     0
102
RTVSPost2010PropOp28
 70
     1
102
RTVSPost2010Prop29
280
     1
102
RTVSPost2010PropOp29
 70
     1
102
RTVSPost2010Prop30
280
     1
102
RTVSPost2010PropOp30
 70
     1
102
RTVSPost2010Prop31
280
     0
102
RTVSPost2010PropOp31
 70
     1
102
RTVSPost2010Prop32
280
     0
102
RTVSPost2010PropOp32
 70
     1
102
RTVSPost2010Prop33
280
     0
102
RTVSPost2010PropOp33
 70
     1
102
RTVSPost2010Prop34
280
     0
102
RTVSPost2010PropOp34
 70
     1
102
RTVSPost2010Prop35
280
     0
102
RTVSPost2010PropOp35
 70
     1
102
RTVSPost2010Prop36
280
     0
102
RTVSPost2010PropOp36
 70
     1
102
RTVSPost2010Prop37
 90
       50
102
RTVSPost2010PropOp37
 70
     1
102
RTVSPost2010Prop38
140
0.0
102
RTVSPost2010PropOp38
 70
     1
102
RTVSPost2010Prop39
140
1.0
102
RTVSPost2010PropOp39
 70
     1
102
RTVSPost2010Prop40
 90
        0
102
RTVSPost2010PropOp40
 70
     1
102
RTVSPost2010Prop41ColorIndex
 90
       18
102
RTVSPost2010Prop41ColorRGB
 90
        0
102
RTVSPost2010PropOp41
 70
     1
102
RTVSPost2010Prop42
 90
       50
102
RTVSPost2010PropOp42
 70
     1
102
RTVSPost2010Prop43
 90
        3
102
RTVSPost2010PropOp43
 70
     1
102
RTVSPost2010Prop44ColorIndex
 90
        5
102
RTVSPost2010Prop44ColorRGB
 90
      255
102
RTVSPost2010PropOp44
 70
     1
102
RTVSPost2010Prop45
280
     0
102
RTVSPost2010PropOp45
 70
     1
102
RTVSPost2010Prop46
 90
       50
102
RTVSPost2010PropOp46
 70
     1
102
RTVSPost2010Prop47
 90
       50
102
RTVSPost2010PropOp47
 70
     1
102
RTVSPost2010Prop48
 90
       50
102
RTVSPost2010PropOp48
 70
     1
102
RTVSPost2010Prop49
280
     0
102
RTVSPost2010PropOp49
 70
     1
102
RTVSPost2010Prop50
 90
       50
102
RTVSPost2010PropOp50
 70
     1
102
RTVSPost2010Prop51ColorIndex
 90
      256
102
RTVSPost2010Prop51ColorRGB
 90
-16777216
102
RTVSPost2010PropOp51
 70
     0
102
RTVSPost2010Prop52
140
1.0
102
RTVSPost2010PropOp52
 70
     0
102
RTVSPost2010Prop53
 90
        2
102
RTVSPost2010PropOp53
 70
     1
102
RTVSPost2010Prop54
  1
strokes_ogs.tif
102
RTVSPost2010PropOp54
 70
     1
102
RTVSPost2010Prop55
280
     0
102
RTVSPost2010PropOp55
 70
     1
102
RTVSPost2010Prop56
140
1.0
102
RTVSPost2010PropOp56
 70
     1
102
RTVSPost2010Prop57
140
1.0
102
RTVSPost2010PropOp57
 70
     1
  0
XRECORD
  5
618
102
{ACAD_REACTORS
330
617
102
}
330
617
100
AcDbXrecord
280
     1
102
RTVSPropertyOp0
 70
     1
102
RTVSPropertyOp1
 70
     1
102
RTVSPropertyOp2
 70
     1
102
RTVSPropertyOp3
 70
     1
102
RTVSPropertyOp4
 70
     1
102
RTVSPropertyOp5
 70
     1
102
RTVSPropertyOp6
 70
     1
102
RTVSPropertyOp7
 70
     1
102
RTVSPropertyOp8
 70
     1
102
RTVSPropertyOp9
 70
     1
102
RTVSPropertyOp10
 70
     1
102
RTVSPropertyOp11
 70
     1
102
RTVSPropertyOp12
 70
     1
102
RTVSPropertyOp13
 70
     1
102
RTVSPropertyOp14
 70
     1
102
RTVSPropertyOp15
 70
     1
102
RTVSPropertyOp16
 70
     1
102
RTVSPropertyOp17
 70
     1
102
RTVSPropertyOp18
 70
     1
102
RTVSPropertyOp19
 70
     1
102
RTVSPropertyOp20
 70
     1
102
RTVSPropertyOp21
 70
     1
102
RTVSPropertyOp22
 70
     1
102
RTVSPropertyOp23
 70
     1
102
RTVSPropertyOp24
 70
     1
102
RTVSPropertyOp25
 70
     1
102
RTVSPropertyOp26
 70
     1
102
RTVSPropertyOp27
 70
     1
102
RTVSPropertyOp28
 70
     1
102
RTVSPropertyOp29
 70
     1
102
RTVSPropertyOp30
 70
     1
102
RTVSPropertyOp31
 70
     1
102
RTVSPropertyOp32
 70
     1
102
RTVSPropertyOp33
 70
     1
102
RTVSPropertyOp34
 70
     1
102
RTVSPropertyOp35
 70
     1
102
RTVSPropertyOp36
 70
     1
102
RTVSPropertyOp37
 70
     1
102
RTVSPropertyOp38
 70
     1
102
RTVSPropertyOp39
 70
     1
102
RTVSPropertyOp40
 70
     1
102
RTVSPropertyOp41
 70
     1
102
RTVSPropertyOp42
 70
     1
102
RTVSPropertyOp43
 70
     1
102
RTVSPropertyOp44
 70
     1
102
RTVSPropertyOp45
 70
     1
102
RTVSPropertyOp46
 70
     1
102
RTVSPropertyOp47
 70
     1
102
RTVSPropertyOp48
 70
     1
102
RTVSPropertyOp49
 70
     1
102
RTVSPropertyOp50
 70
     1
102
RTVSPropertyOp51
 70
     0
102
RTVSPropertyOp52
 70
     0
102
RTVSPropertyOp53
 70
     1
102
RTVSPropertyOp54
 70
     1
102
RTVSPropertyOp55
 70
     1
102
RTVSPropertyOp56
 70
     1
102
RTVSPropertyOp57
 70
     1
102
RTVSPost2010Prop28
280
     0
102
RTVSPost2010PropOp28
 70
     1
102
RTVSPost2010Prop29
280
     1
102
RTVSPost2010PropOp29
 70
     1
102
RTVSPost2010Prop30
280
     1
102
RTVSPost2010PropOp30
 70
     1
102
RTVSPost2010Prop31
280
     0
102
RTVSPost2010PropOp31
 70
     1
102
RTVSPost2010Prop32
280
     0
102
RTVSPost2010PropOp32
 70
     1
102
RTVSPost2010Prop33
280
     0
102
RTVSPost2010PropOp33
 70
     1
102
RTVSPost2010Prop34
280
     0
102
RTVSPost2010PropOp34
 70
     1
102
RTVSPost2010Prop35
280
     0
102
RTVSPost2010PropOp35
 70
     1
102
RTVSPost2010Prop36
280
     0
102
RTVSPost2010PropOp36
 70
     1
102
RTVSPost2010Prop37
 90
       50
102
RTVSPost2010PropOp37
 70
     1
102
RTVSPost2010Prop38
140
0.0
102
RTVSPost2010PropOp38
 70
     1
102
RTVSPost2010Prop39
140
1.0
102
RTVSPost2010PropOp39
 70
     1
102
RTVSPost2010Prop40
 90
        0
102
RTVSPost2010PropOp40
 70
     1
102
RTVSPost2010Prop41ColorIndex
 90
       18
102
RTVSPost2010Prop41ColorRGB
 90
        0
102
RTVSPost2010PropOp41
 70
     1
102
RTVSPost2010Prop42
 90
       50
102
RTVSPost2010PropOp42
 70
     1
102
RTVSPost2010Prop43
 90
        3
102
RTVSPost2010PropOp43
 70
     1
102
RTVSPost2010Prop44ColorIndex
 90
        5
102
RTVSPost2010Prop44ColorRGB
 90
      255
102
RTVSPost2010PropOp44
 70
     1
102
RTVSPost2010Prop45
280
     0
102
RTVSPost2010PropOp45
 70
     1
102
RTVSPost2010Prop46
 90
       50
102
RTVSPost2010PropOp46
 70
     1
102
RTVSPost2010Prop47
 90
       50
102
RTVSPost2010PropOp47
 70
     1
102
RTVSPost2010Prop48
 90
       50
102
RTVSPost2010PropOp48
 70
     1
102
RTVSPost2010Prop49
280
     0
102
RTVSPost2010PropOp49
 70
     1
102
RTVSPost2010Prop50
 90
       50
102
RTVSPost2010PropOp50
 70
     1
102
RTVSPost2010Prop51ColorIndex
 90
      256
102
RTVSPost2010Prop51ColorRGB
 90
-16777216
102
RTVSPost2010PropOp51
 70
     0
102
RTVSPost2010Prop52
140
1.0
102
RTVSPost2010PropOp52
 70
     0
102
RTVSPost2010Prop53
 90
        2
102
RTVSPost2010PropOp53
 70
     1
102
RTVSPost2010Prop54
  1
strokes_ogs.tif
102
RTVSPost2010PropOp54
 70
     1
102
RTVSPost2010Prop55
280
     0
102
RTVSPost2010PropOp55
 70
     1
102
RTVSPost2010Prop56
140
1.0
102
RTVSPost2010PropOp56
 70
     1
102
RTVSPost2010Prop57
140
1.0
102
RTVSPost2010PropOp57
 70
     1
  0
XRECORD
  5
61A
102
{ACAD_REACTORS
330
619
102
}
330
619
100
AcDbXrecord
280
     1
102
RTVSPropertyOp0
 70
     1
102
RTVSPropertyOp1
 70
     1
102
RTVSPropertyOp2
 70
     1
102
RTVSPropertyOp3
 70
     1
102
RTVSPropertyOp4
 70
     1
102
RTVSPropertyOp5
 70
     1
102
RTVSPropertyOp6
 70
     1
102
RTVSPropertyOp7
 70
     1
102
RTVSPropertyOp8
 70
     1
102
RTVSPropertyOp9
 70
     1
102
RTVSPropertyOp10
 70
     1
102
RTVSPropertyOp11
 70
     1
102
RTVSPropertyOp12
 70
     1
102
RTVSPropertyOp13
 70
     1
102
RTVSPropertyOp14
 70
     1
102
RTVSPropertyOp15
 70
     1
102
RTVSPropertyOp16
 70
     1
102
RTVSPropertyOp17
 70
     1
102
RTVSPropertyOp18
 70
     1
102
RTVSPropertyOp19
 70
     1
102
RTVSPropertyOp20
 70
     1
102
RTVSPropertyOp21
 70
     1
102
RTVSPropertyOp22
 70
     1
102
RTVSPropertyOp23
 70
     1
102
RTVSPropertyOp24
 70
     1
102
RTVSPropertyOp25
 70
     1
102
RTVSPropertyOp26
 70
     1
102
RTVSPropertyOp27
 70
     1
102
RTVSPropertyOp28
 70
     1
102
RTVSPropertyOp29
 70
     1
102
RTVSPropertyOp30
 70
     1
102
RTVSPropertyOp31
 70
     1
102
RTVSPropertyOp32
 70
     1
102
RTVSPropertyOp33
 70
     1
102
RTVSPropertyOp34
 70
     1
102
RTVSPropertyOp35
 70
     1
102
RTVSPropertyOp36
 70
     1
102
RTVSPropertyOp37
 70
     1
102
RTVSPropertyOp38
 70
     1
102
RTVSPropertyOp39
 70
     1
102
RTVSPropertyOp40
 70
     1
102
RTVSPropertyOp41
 70
     1
102
RTVSPropertyOp42
 70
     1
102
RTVSPropertyOp43
 70
     1
102
RTVSPropertyOp44
 70
     1
102
RTVSPropertyOp45
 70
     1
102
RTVSPropertyOp46
 70
     1
102
RTVSPropertyOp47
 70
     1
102
RTVSPropertyOp48
 70
     1
102
RTVSPropertyOp49
 70
     1
102
RTVSPropertyOp50
 70
     1
102
RTVSPropertyOp51
 70
     0
102
RTVSPropertyOp52
 70
     0
102
RTVSPropertyOp53
 70
     1
102
RTVSPropertyOp54
 70
     1
102
RTVSPropertyOp55
 70
     1
102
RTVSPropertyOp56
 70
     1
102
RTVSPropertyOp57
 70
     1
102
RTVSPost2010Prop28
280
     0
102
RTVSPost2010PropOp28
 70
     1
102
RTVSPost2010Prop29
280
     1
102
RTVSPost2010PropOp29
 70
     1
102
RTVSPost2010Prop30
280
     1
102
RTVSPost2010PropOp30
 70
     1
102
RTVSPost2010Prop31
280
     0
102
RTVSPost2010PropOp31
 70
     1
102
RTVSPost2010Prop32
280
     0
102
RTVSPost2010PropOp32
 70
     1
102
RTVSPost2010Prop33
280
     0
102
RTVSPost2010PropOp33
 70
     1
102
RTVSPost2010Prop34
280
     0
102
RTVSPost2010PropOp34
 70
     1
102
RTVSPost2010Prop35
280
     0
102
RTVSPost2010PropOp35
 70
     1
102
RTVSPost2010Prop36
280
     0
102
RTVSPost2010PropOp36
 70
     1
102
RTVSPost2010Prop37
 90
       50
102
RTVSPost2010PropOp37
 70
     1
102
RTVSPost2010Prop38
140
0.0
102
RTVSPost2010PropOp38
 70
     1
102
RTVSPost2010Prop39
140
1.0
102
RTVSPost2010PropOp39
 70
     1
102
RTVSPost2010Prop40
 90
        0
102
RTVSPost2010PropOp40
 70
     1
102
RTVSPost2010Prop41ColorIndex
 90
       18
102
RTVSPost2010Prop41ColorRGB
 90
        0
102
RTVSPost2010PropOp41
 70
     1
102
RTVSPost2010Prop42
 90
       50
102
RTVSPost2010PropOp42
 70
     1
102
RTVSPost2010Prop43
 90
        3
102
RTVSPost2010PropOp43
 70
     1
102
RTVSPost2010Prop44ColorIndex
 90
        5
102
RTVSPost2010Prop44ColorRGB
 90
      255
102
RTVSPost2010PropOp44
 70
     1
102
RTVSPost2010Prop45
280
     0
102
RTVSPost2010PropOp45
 70
     1
102
RTVSPost2010Prop46
 90
       50
102
RTVSPost2010PropOp46
 70
     1
102
RTVSPost2010Prop47
 90
       50
102
RTVSPost2010PropOp47
 70
     1
102
RTVSPost2010Prop48
 90
       50
102
RTVSPost2010PropOp48
 70
     1
102
RTVSPost2010Prop49
280
     0
102
RTVSPost2010PropOp49
 70
     1
102
RTVSPost2010Prop50
 90
       50
102
RTVSPost2010PropOp50
 70
     1
102
RTVSPost2010Prop51ColorIndex
 90
      256
102
RTVSPost2010Prop51ColorRGB
 90
-16777216
102
RTVSPost2010PropOp51
 70
     0
102
RTVSPost2010Prop52
140
1.0
102
RTVSPost2010PropOp52
 70
     0
102
RTVSPost2010Prop53
 90
        2
102
RTVSPost2010PropOp53
 70
     1
102
RTVSPost2010Prop54
  1
strokes_ogs.tif
102
RTVSPost2010PropOp54
 70
     1
102
RTVSPost2010Prop55
280
     0
102
RTVSPost2010PropOp55
 70
     1
102
RTVSPost2010Prop56
140
1.0
102
RTVSPost2010PropOp56
 70
     1
102
RTVSPost2010Prop57
140
1.0
102
RTVSPost2010PropOp57
 70
     1
  0
XRECORD
  5
61C
102
{ACAD_REACTORS
330
61B
102
}
330
61B
100
AcDbXrecord
280
     1
102
RTVSPropertyOp0
 70
     1
102
RTVSPropertyOp1
 70
     1
102
RTVSPropertyOp2
 70
     1
102
RTVSPropertyOp3
 70
     1
102
RTVSPropertyOp4
 70
     1
102
RTVSPropertyOp5
 70
     1
102
RTVSPropertyOp6
 70
     1
102
RTVSPropertyOp7
 70
     1
102
RTVSPropertyOp8
 70
     1
102
RTVSPropertyOp9
 70
     1
102
RTVSPropertyOp10
 70
     1
102
RTVSPropertyOp11
 70
     1
102
RTVSPropertyOp12
 70
     1
102
RTVSPropertyOp13
 70
     1
102
RTVSPropertyOp14
 70
     1
102
RTVSPropertyOp15
 70
     1
102
RTVSPropertyOp16
 70
     1
102
RTVSPropertyOp17
 70
     1
102
RTVSPropertyOp18
 70
     1
102
RTVSPropertyOp19
 70
     1
102
RTVSPropertyOp20
 70
     1
102
RTVSPropertyOp21
 70
     1
102
RTVSPropertyOp22
 70
     1
102
RTVSPropertyOp23
 70
     1
102
RTVSPropertyOp24
 70
     1
102
RTVSPropertyOp25
 70
     1
102
RTVSPropertyOp26
 70
     1
102
RTVSPropertyOp27
 70
     1
102
RTVSPropertyOp28
 70
     1
102
RTVSPropertyOp29
 70
     1
102
RTVSPropertyOp30
 70
     1
102
RTVSPropertyOp31
 70
     1
102
RTVSPropertyOp32
 70
     1
102
RTVSPropertyOp33
 70
     1
102
RTVSPropertyOp34
 70
     1
102
RTVSPropertyOp35
 70
     1
102
RTVSPropertyOp36
 70
     1
102
RTVSPropertyOp37
 70
     1
102
RTVSPropertyOp38
 70
     1
102
RTVSPropertyOp39
 70
     1
102
RTVSPropertyOp40
 70
     1
102
RTVSPropertyOp41
 70
     1
102
RTVSPropertyOp42
 70
     1
102
RTVSPropertyOp43
 70
     1
102
RTVSPropertyOp44
 70
     1
102
RTVSPropertyOp45
 70
     1
102
RTVSPropertyOp46
 70
     1
102
RTVSPropertyOp47
 70
     1
102
RTVSPropertyOp48
 70
     1
102
RTVSPropertyOp49
 70
     1
102
RTVSPropertyOp50
 70
     1
102
RTVSPropertyOp51
 70
     0
102
RTVSPropertyOp52
 70
     0
102
RTVSPropertyOp53
 70
     1
102
RTVSPropertyOp54
 70
     1
102
RTVSPropertyOp55
 70
     1
102
RTVSPropertyOp56
 70
     1
102
RTVSPropertyOp57
 70
     1
102
RTVSPost2010Prop28
280
     0
102
RTVSPost2010PropOp28
 70
     1
102
RTVSPost2010Prop29
280
     1
102
RTVSPost2010PropOp29
 70
     1
102
RTVSPost2010Prop30
280
     1
102
RTVSPost2010PropOp30
 70
     1
102
RTVSPost2010Prop31
280
     0
102
RTVSPost2010PropOp31
 70
     1
102
RTVSPost2010Prop32
280
     0
102
RTVSPost2010PropOp32
 70
     1
102
RTVSPost2010Prop33
280
     0
102
RTVSPost2010PropOp33
 70
     1
102
RTVSPost2010Prop34
280
     0
102
RTVSPost2010PropOp34
 70
     1
102
RTVSPost2010Prop35
280
     0
102
RTVSPost2010PropOp35
 70
     1
102
RTVSPost2010Prop36
280
     0
102
RTVSPost2010PropOp36
 70
     1
102
RTVSPost2010Prop37
 90
       50
102
RTVSPost2010PropOp37
 70
     1
102
RTVSPost2010Prop38
140
0.0
102
RTVSPost2010PropOp38
 70
     1
102
RTVSPost2010Prop39
140
1.0
102
RTVSPost2010PropOp39
 70
     1
102
RTVSPost2010Prop40
 90
        0
102
RTVSPost2010PropOp40
 70
     1
102
RTVSPost2010Prop41ColorIndex
 90
       18
102
RTVSPost2010Prop41ColorRGB
 90
        0
102
RTVSPost2010PropOp41
 70
     1
102
RTVSPost2010Prop42
 90
       50
102
RTVSPost2010PropOp42
 70
     1
102
RTVSPost2010Prop43
 90
        3
102
RTVSPost2010PropOp43
 70
     1
102
RTVSPost2010Prop44ColorIndex
 90
        5
102
RTVSPost2010Prop44ColorRGB
 90
      255
102
RTVSPost2010PropOp44
 70
     1
102
RTVSPost2010Prop45
280
     0
102
RTVSPost2010PropOp45
 70
     1
102
RTVSPost2010Prop46
 90
       50
102
RTVSPost2010PropOp46
 70
     1
102
RTVSPost2010Prop47
 90
       50
102
RTVSPost2010PropOp47
 70
     1
102
RTVSPost2010Prop48
 90
       50
102
RTVSPost2010PropOp48
 70
     1
102
RTVSPost2010Prop49
280
     0
102
RTVSPost2010PropOp49
 70
     1
102
RTVSPost2010Prop50
 90
       50
102
RTVSPost2010PropOp50
 70
     1
102
RTVSPost2010Prop51ColorIndex
 90
      256
102
RTVSPost2010Prop51ColorRGB
 90
-16777216
102
RTVSPost2010PropOp51
 70
     0
102
RTVSPost2010Prop52
140
1.0
102
RTVSPost2010PropOp52
 70
     0
102
RTVSPost2010Prop53
 90
        2
102
RTVSPost2010PropOp53
 70
     1
102
RTVSPost2010Prop54
  1
strokes_ogs.tif
102
RTVSPost2010PropOp54
 70
     1
102
RTVSPost2010Prop55
280
     0
102
RTVSPost2010PropOp55
 70
     1
102
RTVSPost2010Prop56
140
1.0
102
RTVSPost2010PropOp56
 70
     1
102
RTVSPost2010Prop57
140
1.0
102
RTVSPost2010PropOp57
 70
     1
  0
XRECORD
  5
61E
102
{ACAD_REACTORS
330
61D
102
}
330
61D
100
AcDbXrecord
280
     1
102
RTVSPropertyOp0
 70
     1
102
RTVSPropertyOp1
 70
     1
102
RTVSPropertyOp2
 70
     1
102
RTVSPropertyOp3
 70
     1
102
RTVSPropertyOp4
 70
     1
102
RTVSPropertyOp5
 70
     1
102
RTVSPropertyOp6
 70
     1
102
RTVSPropertyOp7
 70
     1
102
RTVSPropertyOp8
 70
     1
102
RTVSPropertyOp9
 70
     1
102
RTVSPropertyOp10
 70
     1
102
RTVSPropertyOp11
 70
     1
102
RTVSPropertyOp12
 70
     1
102
RTVSPropertyOp13
 70
     1
102
RTVSPropertyOp14
 70
     1
102
RTVSPropertyOp15
 70
     1
102
RTVSPropertyOp16
 70
     1
102
RTVSPropertyOp17
 70
     1
102
RTVSPropertyOp18
 70
     1
102
RTVSPropertyOp19
 70
     1
102
RTVSPropertyOp20
 70
     1
102
RTVSPropertyOp21
 70
     1
102
RTVSPropertyOp22
 70
     1
102
RTVSPropertyOp23
 70
     1
102
RTVSPropertyOp24
 70
     1
102
RTVSPropertyOp25
 70
     1
102
RTVSPropertyOp26
 70
     1
102
RTVSPropertyOp27
 70
     1
102
RTVSPropertyOp28
 70
     1
102
RTVSPropertyOp29
 70
     1
102
RTVSPropertyOp30
 70
     1
102
RTVSPropertyOp31
 70
     1
102
RTVSPropertyOp32
 70
     1
102
RTVSPropertyOp33
 70
     1
102
RTVSPropertyOp34
 70
     1
102
RTVSPropertyOp35
 70
     1
102
RTVSPropertyOp36
 70
     1
102
RTVSPropertyOp37
 70
     1
102
RTVSPropertyOp38
 70
     1
102
RTVSPropertyOp39
 70
     1
102
RTVSPropertyOp40
 70
     1
102
RTVSPropertyOp41
 70
     1
102
RTVSPropertyOp42
 70
     1
102
RTVSPropertyOp43
 70
     1
102
RTVSPropertyOp44
 70
     1
102
RTVSPropertyOp45
 70
     1
102
RTVSPropertyOp46
 70
     1
102
RTVSPropertyOp47
 70
     1
102
RTVSPropertyOp48
 70
     1
102
RTVSPropertyOp49
 70
     1
102
RTVSPropertyOp50
 70
     1
102
RTVSPropertyOp51
 70
     0
102
RTVSPropertyOp52
 70
     0
102
RTVSPropertyOp53
 70
     1
102
RTVSPropertyOp54
 70
     1
102
RTVSPropertyOp55
 70
     1
102
RTVSPropertyOp56
 70
     1
102
RTVSPropertyOp57
 70
     1
102
RTVSPost2010Prop28
280
     0
102
RTVSPost2010PropOp28
 70
     1
102
RTVSPost2010Prop29
280
     1
102
RTVSPost2010PropOp29
 70
     1
102
RTVSPost2010Prop30
280
     1
102
RTVSPost2010PropOp30
 70
     1
102
RTVSPost2010Prop31
280
     0
102
RTVSPost2010PropOp31
 70
     1
102
RTVSPost2010Prop32
280
     0
102
RTVSPost2010PropOp32
 70
     1
102
RTVSPost2010Prop33
280
     0
102
RTVSPost2010PropOp33
 70
     1
102
RTVSPost2010Prop34
280
     0
102
RTVSPost2010PropOp34
 70
     1
102
RTVSPost2010Prop35
280
     0
102
RTVSPost2010PropOp35
 70
     1
102
RTVSPost2010Prop36
280
     0
102
RTVSPost2010PropOp36
 70
     1
102
RTVSPost2010Prop37
 90
       50
102
RTVSPost2010PropOp37
 70
     1
102
RTVSPost2010Prop38
140
0.0
102
RTVSPost2010PropOp38
 70
     1
102
RTVSPost2010Prop39
140
1.0
102
RTVSPost2010PropOp39
 70
     1
102
RTVSPost2010Prop40
 90
        0
102
RTVSPost2010PropOp40
 70
     1
102
RTVSPost2010Prop41ColorIndex
 90
       18
102
RTVSPost2010Prop41ColorRGB
 90
        0
102
RTVSPost2010PropOp41
 70
     1
102
RTVSPost2010Prop42
 90
       50
102
RTVSPost2010PropOp42
 70
     1
102
RTVSPost2010Prop43
 90
        3
102
RTVSPost2010PropOp43
 70
     1
102
RTVSPost2010Prop44ColorIndex
 90
        5
102
RTVSPost2010Prop44ColorRGB
 90
      255
102
RTVSPost2010PropOp44
 70
     1
102
RTVSPost2010Prop45
280
     0
102
RTVSPost2010PropOp45
 70
     1
102
RTVSPost2010Prop46
 90
       50
102
RTVSPost2010PropOp46
 70
     1
102
RTVSPost2010Prop47
 90
       50
102
RTVSPost2010PropOp47
 70
     1
102
RTVSPost2010Prop48
 90
       50
102
RTVSPost2010PropOp48
 70
     1
102
RTVSPost2010Prop49
280
     0
102
RTVSPost2010PropOp49
 70
     1
102
RTVSPost2010Prop50
 90
       50
102
RTVSPost2010PropOp50
 70
     1
102
RTVSPost2010Prop51ColorIndex
 90
      256
102
RTVSPost2010Prop51ColorRGB
 90
-16777216
102
RTVSPost2010PropOp51
 70
     0
102
RTVSPost2010Prop52
140
1.0
102
RTVSPost2010PropOp52
 70
     0
102
RTVSPost2010Prop53
 90
        2
102
RTVSPost2010PropOp53
 70
     1
102
RTVSPost2010Prop54
  1
strokes_ogs.tif
102
RTVSPost2010PropOp54
 70
     1
102
RTVSPost2010Prop55
280
     0
102
RTVSPost2010PropOp55
 70
     1
102
RTVSPost2010Prop56
140
1.0
102
RTVSPost2010PropOp56
 70
     1
102
RTVSPost2010Prop57
140
1.0
102
RTVSPost2010PropOp57
 70
     1
  0
XRECORD
  5
624
102
{ACAD_REACTORS
330
623
102
}
330
623
100
AcDbXrecord
280
     1
102
RTVSPropertyOp0
 70
     1
102
RTVSPropertyOp1
 70
     1
102
RTVSPropertyOp2
 70
     1
102
RTVSPropertyOp3
 70
     1
102
RTVSPropertyOp4
 70
     1
102
RTVSPropertyOp5
 70
     1
102
RTVSPropertyOp6
 70
     1
102
RTVSPropertyOp7
 70
     1
102
RTVSPropertyOp8
 70
     1
102
RTVSPropertyOp9
 70
     1
102
RTVSPropertyOp10
 70
     1
102
RTVSPropertyOp11
 70
     1
102
RTVSPropertyOp12
 70
     1
102
RTVSPropertyOp13
 70
     1
102
RTVSPropertyOp14
 70
     1
102
RTVSPropertyOp15
 70
     1
102
RTVSPropertyOp16
 70
     1
102
RTVSPropertyOp17
 70
     1
102
RTVSPropertyOp18
 70
     1
102
RTVSPropertyOp19
 70
     1
102
RTVSPropertyOp20
 70
     1
102
RTVSPropertyOp21
 70
     1
102
RTVSPropertyOp22
 70
     1
102
RTVSPropertyOp23
 70
     1
102
RTVSPropertyOp24
 70
     1
102
RTVSPropertyOp25
 70
     1
102
RTVSPropertyOp26
 70
     1
102
RTVSPropertyOp27
 70
     1
102
RTVSPropertyOp28
 70
     1
102
RTVSPropertyOp29
 70
     1
102
RTVSPropertyOp30
 70
     1
102
RTVSPropertyOp31
 70
     1
102
RTVSPropertyOp32
 70
     1
102
RTVSPropertyOp33
 70
     1
102
RTVSPropertyOp34
 70
     1
102
RTVSPropertyOp35
 70
     1
102
RTVSPropertyOp36
 70
     1
102
RTVSPropertyOp37
 70
     1
102
RTVSPropertyOp38
 70
     1
102
RTVSPropertyOp39
 70
     1
102
RTVSPropertyOp40
 70
     1
102
RTVSPropertyOp41
 70
     1
102
RTVSPropertyOp42
 70
     1
102
RTVSPropertyOp43
 70
     1
102
RTVSPropertyOp44
 70
     1
102
RTVSPropertyOp45
 70
     1
102
RTVSPropertyOp46
 70
     1
102
RTVSPropertyOp47
 70
     1
102
RTVSPropertyOp48
 70
     1
102
RTVSPropertyOp49
 70
     1
102
RTVSPropertyOp50
 70
     1
102
RTVSPropertyOp51
 70
     0
102
RTVSPropertyOp52
 70
     0
102
RTVSPropertyOp53
 70
     1
102
RTVSPropertyOp54
 70
     1
102
RTVSPropertyOp55
 70
     1
102
RTVSPropertyOp56
 70
     1
102
RTVSPropertyOp57
 70
     1
102
RTVSPost2010Prop28
280
     0
102
RTVSPost2010PropOp28
 70
     1
102
RTVSPost2010Prop29
280
     1
102
RTVSPost2010PropOp29
 70
     1
102
RTVSPost2010Prop30
280
     1
102
RTVSPost2010PropOp30
 70
     1
102
RTVSPost2010Prop31
280
     0
102
RTVSPost2010PropOp31
 70
     1
102
RTVSPost2010Prop32
280
     0
102
RTVSPost2010PropOp32
 70
     1
102
RTVSPost2010Prop33
280
     0
102
RTVSPost2010PropOp33
 70
     1
102
RTVSPost2010Prop34
280
     0
102
RTVSPost2010PropOp34
 70
     1
102
RTVSPost2010Prop35
280
     0
102
RTVSPost2010PropOp35
 70
     1
102
RTVSPost2010Prop36
280
     0
102
RTVSPost2010PropOp36
 70
     1
102
RTVSPost2010Prop37
 90
       50
102
RTVSPost2010PropOp37
 70
     1
102
RTVSPost2010Prop38
140
0.0
102
RTVSPost2010PropOp38
 70
     1
102
RTVSPost2010Prop39
140
1.0
102
RTVSPost2010PropOp39
 70
     1
102
RTVSPost2010Prop40
 90
        0
102
RTVSPost2010PropOp40
 70
     1
102
RTVSPost2010Prop41ColorIndex
 90
       18
102
RTVSPost2010Prop41ColorRGB
 90
        0
102
RTVSPost2010PropOp41
 70
     1
102
RTVSPost2010Prop42
 90
       50
102
RTVSPost2010PropOp42
 70
     1
102
RTVSPost2010Prop43
 90
        3
102
RTVSPost2010PropOp43
 70
     1
102
RTVSPost2010Prop44ColorIndex
 90
        5
102
RTVSPost2010Prop44ColorRGB
 90
      255
102
RTVSPost2010PropOp44
 70
     1
102
RTVSPost2010Prop45
280
     0
102
RTVSPost2010PropOp45
 70
     1
102
RTVSPost2010Prop46
 90
       50
102
RTVSPost2010PropOp46
 70
     1
102
RTVSPost2010Prop47
 90
       50
102
RTVSPost2010PropOp47
 70
     1
102
RTVSPost2010Prop48
 90
       50
102
RTVSPost2010PropOp48
 70
     1
102
RTVSPost2010Prop49
280
     0
102
RTVSPost2010PropOp49
 70
     1
102
RTVSPost2010Prop50
 90
       50
102
RTVSPost2010PropOp50
 70
     1
102
RTVSPost2010Prop51ColorIndex
 90
      256
102
RTVSPost2010Prop51ColorRGB
 90
-16777216
102
RTVSPost2010PropOp51
 70
     0
102
RTVSPost2010Prop52
140
1.0
102
RTVSPost2010PropOp52
 70
     0
102
RTVSPost2010Prop53
 90
        2
102
RTVSPost2010PropOp53
 70
     1
102
RTVSPost2010Prop54
  1
strokes_ogs.tif
102
RTVSPost2010PropOp54
 70
     1
102
RTVSPost2010Prop55
280
     0
102
RTVSPost2010PropOp55
 70
     1
102
RTVSPost2010Prop56
140
1.0
102
RTVSPost2010PropOp56
 70
     1
102
RTVSPost2010Prop57
140
1.0
102
RTVSPost2010PropOp57
 70
     1
  0
XRECORD
  5
638
102
{ACAD_REACTORS
330
637
102
}
330
637
100
AcDbXrecord
280
     1
102
RTVSPropertyOp0
 70
     0
102
RTVSPropertyOp1
 70
     0
102
RTVSPropertyOp2
 70
     0
102
RTVSPropertyOp3
 70
     0
102
RTVSPropertyOp4
 70
     0
102
RTVSPropertyOp5
 70
     0
102
RTVSPropertyOp6
 70
     0
102
RTVSPropertyOp7
 70
     0
102
RTVSPropertyOp8
 70
     0
102
RTVSPropertyOp9
 70
     0
102
RTVSPropertyOp10
 70
     0
102
RTVSPropertyOp11
 70
     0
102
RTVSPropertyOp12
 70
     0
102
RTVSPropertyOp13
 70
     0
102
RTVSPropertyOp14
 70
     0
102
RTVSPropertyOp15
 70
     0
102
RTVSPropertyOp16
 70
     0
102
RTVSPropertyOp17
 70
     0
102
RTVSPropertyOp18
 70
     0
102
RTVSPropertyOp19
 70
     0
102
RTVSPropertyOp20
 70
     0
102
RTVSPropertyOp21
 70
     0
102
RTVSPropertyOp22
 70
     0
102
RTVSPropertyOp23
 70
     0
102
RTVSPropertyOp24
 70
     0
102
RTVSPropertyOp25
 70
     0
102
RTVSPropertyOp26
 70
     0
102
RTVSPropertyOp27
 70
     0
102
RTVSPropertyOp28
 70
     1
102
RTVSPropertyOp29
 70
     1
102
RTVSPropertyOp30
 70
     1
102
RTVSPropertyOp31
 70
     1
102
RTVSPropertyOp32
 70
     1
102
RTVSPropertyOp33
 70
     1
102
RTVSPropertyOp34
 70
     1
102
RTVSPropertyOp35
 70
     1
102
RTVSPropertyOp36
 70
     1
102
RTVSPropertyOp37
 70
     1
102
RTVSPropertyOp38
 70
     1
102
RTVSPropertyOp39
 70
     1
102
RTVSPropertyOp40
 70
     1
102
RTVSPropertyOp41
 70
     1
102
RTVSPropertyOp42
 70
     1
102
RTVSPropertyOp43
 70
     1
102
RTVSPropertyOp44
 70
     1
102
RTVSPropertyOp45
 70
     1
102
RTVSPropertyOp46
 70
     1
102
RTVSPropertyOp47
 70
     1
102
RTVSPropertyOp48
 70
     1
102
RTVSPropertyOp49
 70
     1
102
RTVSPropertyOp50
 70
     1
102
RTVSPropertyOp51
 70
     0
102
RTVSPropertyOp52
 70
     0
102
RTVSPropertyOp53
 70
     1
102
RTVSPropertyOp54
 70
     1
102
RTVSPropertyOp55
 70
     1
102
RTVSPropertyOp56
 70
     1
102
RTVSPropertyOp57
 70
     1
102
RTVSPost2010Prop28
280
     0
102
RTVSPost2010PropOp28
 70
     1
102
RTVSPost2010Prop29
280
     1
102
RTVSPost2010PropOp29
 70
     1
102
RTVSPost2010Prop30
280
     1
102
RTVSPost2010PropOp30
 70
     1
102
RTVSPost2010Prop31
280
     0
102
RTVSPost2010PropOp31
 70
     1
102
RTVSPost2010Prop32
280
     0
102
RTVSPost2010PropOp32
 70
     1
102
RTVSPost2010Prop33
280
     0
102
RTVSPost2010PropOp33
 70
     1
102
RTVSPost2010Prop34
280
     0
102
RTVSPost2010PropOp34
 70
     1
102
RTVSPost2010Prop35
280
     0
102
RTVSPost2010PropOp35
 70
     1
102
RTVSPost2010Prop36
280
     0
102
RTVSPost2010PropOp36
 70
     1
102
RTVSPost2010Prop37
 90
       50
102
RTVSPost2010PropOp37
 70
     1
102
RTVSPost2010Prop38
140
0.0
102
RTVSPost2010PropOp38
 70
     1
102
RTVSPost2010Prop39
140
1.0
102
RTVSPost2010PropOp39
 70
     1
102
RTVSPost2010Prop40
 90
        0
102
RTVSPost2010PropOp40
 70
     1
102
RTVSPost2010Prop41ColorIndex
 90
       18
102
RTVSPost2010Prop41ColorRGB
 90
        0
102
RTVSPost2010PropOp41
 70
     1
102
RTVSPost2010Prop42
 90
       50
102
RTVSPost2010PropOp42
 70
     1
102
RTVSPost2010Prop43
 90
        3
102
RTVSPost2010PropOp43
 70
     1
102
RTVSPost2010Prop44ColorIndex
 90
        5
102
RTVSPost2010Prop44ColorRGB
 90
      255
102
RTVSPost2010PropOp44
 70
     1
102
RTVSPost2010Prop45
280
     0
102
RTVSPost2010PropOp45
 70
     1
102
RTVSPost2010Prop46
 90
       50
102
RTVSPost2010PropOp46
 70
     1
102
RTVSPost2010Prop47
 90
       50
102
RTVSPost2010PropOp47
 70
     1
102
RTVSPost2010Prop48
 90
       50
102
RTVSPost2010PropOp48
 70
     1
102
RTVSPost2010Prop49
280
     0
102
RTVSPost2010PropOp49
 70
     1
102
RTVSPost2010Prop50
 90
       50
102
RTVSPost2010PropOp50
 70
     1
102
RTVSPost2010Prop51ColorIndex
 90
      256
102
RTVSPost2010Prop51ColorRGB
 90
-16777216
102
RTVSPost2010PropOp51
 70
     0
102
RTVSPost2010Prop52
140
1.0
102
RTVSPost2010PropOp52
 70
     0
102
RTVSPost2010Prop53
 90
        2
102
RTVSPost2010PropOp53
 70
     1
102
RTVSPost2010Prop54
  1
strokes_ogs.tif
102
RTVSPost2010PropOp54
 70
     1
102
RTVSPost2010Prop55
280
     0
102
RTVSPost2010PropOp55
 70
     1
102
RTVSPost2010Prop56
140
1.0
102
RTVSPost2010PropOp56
 70
     1
102
RTVSPost2010Prop57
140
1.0
102
RTVSPost2010PropOp57
 70
     1
  0
XRECORD
  5
632
102
{ACAD_REACTORS
330
631
102
}
330
631
100
AcDbXrecord
280
     1
102
RTVSPropertyOp0
 70
     1
102
RTVSPropertyOp1
 70
     1
102
RTVSPropertyOp2
 70
     1
102
RTVSPropertyOp3
 70
     1
102
RTVSPropertyOp4
 70
     1
102
RTVSPropertyOp5
 70
     1
102
RTVSPropertyOp6
 70
     1
102
RTVSPropertyOp7
 70
     1
102
RTVSPropertyOp8
 70
     1
102
RTVSPropertyOp9
 70
     1
102
RTVSPropertyOp10
 70
     1
102
RTVSPropertyOp11
 70
     1
102
RTVSPropertyOp12
 70
     1
102
RTVSPropertyOp13
 70
     1
102
RTVSPropertyOp14
 70
     1
102
RTVSPropertyOp15
 70
     1
102
RTVSPropertyOp16
 70
     1
102
RTVSPropertyOp17
 70
     1
102
RTVSPropertyOp18
 70
     1
102
RTVSPropertyOp19
 70
     1
102
RTVSPropertyOp20
 70
     1
102
RTVSPropertyOp21
 70
     1
102
RTVSPropertyOp22
 70
     1
102
RTVSPropertyOp23
 70
     1
102
RTVSPropertyOp24
 70
     1
102
RTVSPropertyOp25
 70
     1
102
RTVSPropertyOp26
 70
     1
102
RTVSPropertyOp27
 70
     1
102
RTVSPropertyOp28
 70
     1
102
RTVSPropertyOp29
 70
     1
102
RTVSPropertyOp30
 70
     1
102
RTVSPropertyOp31
 70
     1
102
RTVSPropertyOp32
 70
     1
102
RTVSPropertyOp33
 70
     1
102
RTVSPropertyOp34
 70
     1
102
RTVSPropertyOp35
 70
     1
102
RTVSPropertyOp36
 70
     1
102
RTVSPropertyOp37
 70
     1
102
RTVSPropertyOp38
 70
     1
102
RTVSPropertyOp39
 70
     1
102
RTVSPropertyOp40
 70
     1
102
RTVSPropertyOp41
 70
     1
102
RTVSPropertyOp42
 70
     1
102
RTVSPropertyOp43
 70
     1
102
RTVSPropertyOp44
 70
     1
102
RTVSPropertyOp45
 70
     1
102
RTVSPropertyOp46
 70
     1
102
RTVSPropertyOp47
 70
     1
102
RTVSPropertyOp48
 70
     1
102
RTVSPropertyOp49
 70
     1
102
RTVSPropertyOp50
 70
     1
102
RTVSPropertyOp51
 70
     0
102
RTVSPropertyOp52
 70
     0
102
RTVSPropertyOp53
 70
     1
102
RTVSPropertyOp54
 70
     1
102
RTVSPropertyOp55
 70
     1
102
RTVSPropertyOp56
 70
     1
102
RTVSPropertyOp57
 70
     1
102
RTVSPost2010Prop28
280
     0
102
RTVSPost2010PropOp28
 70
     1
102
RTVSPost2010Prop29
280
     1
102
RTVSPost2010PropOp29
 70
     1
102
RTVSPost2010Prop30
280
     1
102
RTVSPost2010PropOp30
 70
     1
102
RTVSPost2010Prop31
280
     0
102
RTVSPost2010PropOp31
 70
     1
102
RTVSPost2010Prop32
280
     0
102
RTVSPost2010PropOp32
 70
     1
102
RTVSPost2010Prop33
280
     0
102
RTVSPost2010PropOp33
 70
     1
102
RTVSPost2010Prop34
280
     0
102
RTVSPost2010PropOp34
 70
     1
102
RTVSPost2010Prop35
280
     0
102
RTVSPost2010PropOp35
 70
     1
102
RTVSPost2010Prop36
280
     0
102
RTVSPost2010PropOp36
 70
     1
102
RTVSPost2010Prop37
 90
       50
102
RTVSPost2010PropOp37
 70
     1
102
RTVSPost2010Prop38
140
0.0
102
RTVSPost2010PropOp38
 70
     1
102
RTVSPost2010Prop39
140
1.0
102
RTVSPost2010PropOp39
 70
     1
102
RTVSPost2010Prop40
 90
        0
102
RTVSPost2010PropOp40
 70
     1
102
RTVSPost2010Prop41ColorIndex
 90
       18
102
RTVSPost2010Prop41ColorRGB
 90
        0
102
RTVSPost2010PropOp41
 70
     1
102
RTVSPost2010Prop42
 90
       50
102
RTVSPost2010PropOp42
 70
     1
102
RTVSPost2010Prop43
 90
        3
102
RTVSPost2010PropOp43
 70
     1
102
RTVSPost2010Prop44ColorIndex
 90
        5
102
RTVSPost2010Prop44ColorRGB
 90
      255
102
RTVSPost2010PropOp44
 70
     1
102
RTVSPost2010Prop45
280
     0
102
RTVSPost2010PropOp45
 70
     1
102
RTVSPost2010Prop46
 90
       50
102
RTVSPost2010PropOp46
 70
     1
102
RTVSPost2010Prop47
 90
       50
102
RTVSPost2010PropOp47
 70
     1
102
RTVSPost2010Prop48
 90
       50
102
RTVSPost2010PropOp48
 70
     1
102
RTVSPost2010Prop49
280
     0
102
RTVSPost2010PropOp49
 70
     1
102
RTVSPost2010Prop50
 90
       50
102
RTVSPost2010PropOp50
 70
     1
102
RTVSPost2010Prop51ColorIndex
 90
      256
102
RTVSPost2010Prop51ColorRGB
 90
-16777216
102
RTVSPost2010PropOp51
 70
     0
102
RTVSPost2010Prop52
140
1.0
102
RTVSPost2010PropOp52
 70
     0
102
RTVSPost2010Prop53
 90
        2
102
RTVSPost2010PropOp53
 70
     1
102
RTVSPost2010Prop54
  1
strokes_ogs.tif
102
RTVSPost2010PropOp54
 70
     1
102
RTVSPost2010Prop55
280
     0
102
RTVSPost2010PropOp55
 70
     1
102
RTVSPost2010Prop56
140
1.0
102
RTVSPost2010PropOp56
 70
     1
102
RTVSPost2010Prop57
140
1.0
102
RTVSPost2010PropOp57
 70
     1
  0
XRECORD
  5
63A
102
{ACAD_REACTORS
330
639
102
}
330
639
100
AcDbXrecord
280
     1
102
RTVSPropertyOp0
 70
     0
102
RTVSPropertyOp1
 70
     0
102
RTVSPropertyOp2
 70
     0
102
RTVSPropertyOp3
 70
     0
102
RTVSPropertyOp4
 70
     0
102
RTVSPropertyOp5
 70
     0
102
RTVSPropertyOp6
 70
     0
102
RTVSPropertyOp7
 70
     0
102
RTVSPropertyOp8
 70
     0
102
RTVSPropertyOp9
 70
     0
102
RTVSPropertyOp10
 70
     0
102
RTVSPropertyOp11
 70
     0
102
RTVSPropertyOp12
 70
     0
102
RTVSPropertyOp13
 70
     0
102
RTVSPropertyOp14
 70
     0
102
RTVSPropertyOp15
 70
     0
102
RTVSPropertyOp16
 70
     0
102
RTVSPropertyOp17
 70
     0
102
RTVSPropertyOp18
 70
     0
102
RTVSPropertyOp19
 70
     0
102
RTVSPropertyOp20
 70
     0
102
RTVSPropertyOp21
 70
     0
102
RTVSPropertyOp22
 70
     0
102
RTVSPropertyOp23
 70
     0
102
RTVSPropertyOp24
 70
     0
102
RTVSPropertyOp25
 70
     0
102
RTVSPropertyOp26
 70
     0
102
RTVSPropertyOp27
 70
     0
102
RTVSPropertyOp28
 70
     1
102
RTVSPropertyOp29
 70
     1
102
RTVSPropertyOp30
 70
     1
102
RTVSPropertyOp31
 70
     1
102
RTVSPropertyOp32
 70
     1
102
RTVSPropertyOp33
 70
     1
102
RTVSPropertyOp34
 70
     1
102
RTVSPropertyOp35
 70
     1
102
RTVSPropertyOp36
 70
     1
102
RTVSPropertyOp37
 70
     1
102
RTVSPropertyOp38
 70
     1
102
RTVSPropertyOp39
 70
     1
102
RTVSPropertyOp40
 70
     1
102
RTVSPropertyOp41
 70
     1
102
RTVSPropertyOp42
 70
     1
102
RTVSPropertyOp43
 70
     1
102
RTVSPropertyOp44
 70
     1
102
RTVSPropertyOp45
 70
     1
102
RTVSPropertyOp46
 70
     1
102
RTVSPropertyOp47
 70
     1
102
RTVSPropertyOp48
 70
     1
102
RTVSPropertyOp49
 70
     1
102
RTVSPropertyOp50
 70
     1
102
RTVSPropertyOp51
 70
     0
102
RTVSPropertyOp52
 70
     0
102
RTVSPropertyOp53
 70
     1
102
RTVSPropertyOp54
 70
     1
102
RTVSPropertyOp55
 70
     1
102
RTVSPropertyOp56
 70
     1
102
RTVSPropertyOp57
 70
     1
102
RTVSPost2010Prop28
280
     0
102
RTVSPost2010PropOp28
 70
     1
102
RTVSPost2010Prop29
280
     1
102
RTVSPost2010PropOp29
 70
     1
102
RTVSPost2010Prop30
280
     1
102
RTVSPost2010PropOp30
 70
     1
102
RTVSPost2010Prop31
280
     0
102
RTVSPost2010PropOp31
 70
     1
102
RTVSPost2010Prop32
280
     0
102
RTVSPost2010PropOp32
 70
     1
102
RTVSPost2010Prop33
280
     0
102
RTVSPost2010PropOp33
 70
     1
102
RTVSPost2010Prop34
280
     0
102
RTVSPost2010PropOp34
 70
     1
102
RTVSPost2010Prop35
280
     0
102
RTVSPost2010PropOp35
 70
     1
102
RTVSPost2010Prop36
280
     0
102
RTVSPost2010PropOp36
 70
     1
102
RTVSPost2010Prop37
 90
       50
102
RTVSPost2010PropOp37
 70
     1
102
RTVSPost2010Prop38
140
0.0
102
RTVSPost2010PropOp38
 70
     1
102
RTVSPost2010Prop39
140
1.0
102
RTVSPost2010PropOp39
 70
     1
102
RTVSPost2010Prop40
 90
        0
102
RTVSPost2010PropOp40
 70
     1
102
RTVSPost2010Prop41ColorIndex
 90
       18
102
RTVSPost2010Prop41ColorRGB
 90
        0
102
RTVSPost2010PropOp41
 70
     1
102
RTVSPost2010Prop42
 90
       50
102
RTVSPost2010PropOp42
 70
     1
102
RTVSPost2010Prop43
 90
        3
102
RTVSPost2010PropOp43
 70
     1
102
RTVSPost2010Prop44ColorIndex
 90
        5
102
RTVSPost2010Prop44ColorRGB
 90
      255
102
RTVSPost2010PropOp44
 70
     1
102
RTVSPost2010Prop45
280
     0
102
RTVSPost2010PropOp45
 70
     1
102
RTVSPost2010Prop46
 90
       50
102
RTVSPost2010PropOp46
 70
     1
102
RTVSPost2010Prop47
 90
       50
102
RTVSPost2010PropOp47
 70
     1
102
RTVSPost2010Prop48
 90
       50
102
RTVSPost2010PropOp48
 70
     1
102
RTVSPost2010Prop49
280
     0
102
RTVSPost2010PropOp49
 70
     1
102
RTVSPost2010Prop50
 90
       50
102
RTVSPost2010PropOp50
 70
     1
102
RTVSPost2010Prop51ColorIndex
 90
      256
102
RTVSPost2010Prop51ColorRGB
 90
-16777216
102
RTVSPost2010PropOp51
 70
     0
102
RTVSPost2010Prop52
140
1.0
102
RTVSPost2010PropOp52
 70
     0
102
RTVSPost2010Prop53
 90
        2
102
RTVSPost2010PropOp53
 70
     1
102
RTVSPost2010Prop54
  1
strokes_ogs.tif
102
RTVSPost2010PropOp54
 70
     1
102
RTVSPost2010Prop55
280
     0
102
RTVSPost2010PropOp55
 70
     1
102
RTVSPost2010Prop56
140
1.0
102
RTVSPost2010PropOp56
 70
     1
102
RTVSPost2010Prop57
140
1.0
102
RTVSPost2010PropOp57
 70
     1
  0
XRECORD
  5
628
102
{ACAD_REACTORS
330
627
102
}
330
627
100
AcDbXrecord
280
     1
102
RTVSPropertyOp0
 70
     1
102
RTVSPropertyOp1
 70
     1
102
RTVSPropertyOp2
 70
     1
102
RTVSPropertyOp3
 70
     1
102
RTVSPropertyOp4
 70
     1
102
RTVSPropertyOp5
 70
     1
102
RTVSPropertyOp6
 70
     1
102
RTVSPropertyOp7
 70
     1
102
RTVSPropertyOp8
 70
     1
102
RTVSPropertyOp9
 70
     1
102
RTVSPropertyOp10
 70
     1
102
RTVSPropertyOp11
 70
     1
102
RTVSPropertyOp12
 70
     1
102
RTVSPropertyOp13
 70
     1
102
RTVSPropertyOp14
 70
     1
102
RTVSPropertyOp15
 70
     1
102
RTVSPropertyOp16
 70
     1
102
RTVSPropertyOp17
 70
     1
102
RTVSPropertyOp18
 70
     1
102
RTVSPropertyOp19
 70
     1
102
RTVSPropertyOp20
 70
     1
102
RTVSPropertyOp21
 70
     1
102
RTVSPropertyOp22
 70
     1
102
RTVSPropertyOp23
 70
     1
102
RTVSPropertyOp24
 70
     1
102
RTVSPropertyOp25
 70
     1
102
RTVSPropertyOp26
 70
     1
102
RTVSPropertyOp27
 70
     1
102
RTVSPropertyOp28
 70
     1
102
RTVSPropertyOp29
 70
     1
102
RTVSPropertyOp30
 70
     1
102
RTVSPropertyOp31
 70
     1
102
RTVSPropertyOp32
 70
     1
102
RTVSPropertyOp33
 70
     1
102
RTVSPropertyOp34
 70
     1
102
RTVSPropertyOp35
 70
     1
102
RTVSPropertyOp36
 70
     1
102
RTVSPropertyOp37
 70
     1
102
RTVSPropertyOp38
 70
     1
102
RTVSPropertyOp39
 70
     1
102
RTVSPropertyOp40
 70
     1
102
RTVSPropertyOp41
 70
     1
102
RTVSPropertyOp42
 70
     1
102
RTVSPropertyOp43
 70
     1
102
RTVSPropertyOp44
 70
     1
102
RTVSPropertyOp45
 70
     1
102
RTVSPropertyOp46
 70
     1
102
RTVSPropertyOp47
 70
     1
102
RTVSPropertyOp48
 70
     1
102
RTVSPropertyOp49
 70
     1
102
RTVSPropertyOp50
 70
     1
102
RTVSPropertyOp51
 70
     0
102
RTVSPropertyOp52
 70
     0
102
RTVSPropertyOp53
 70
     1
102
RTVSPropertyOp54
 70
     1
102
RTVSPropertyOp55
 70
     1
102
RTVSPropertyOp56
 70
     1
102
RTVSPropertyOp57
 70
     1
102
RTVSPost2010Prop28
280
     0
102
RTVSPost2010PropOp28
 70
     1
102
RTVSPost2010Prop29
280
     1
102
RTVSPost2010PropOp29
 70
     1
102
RTVSPost2010Prop30
280
     1
102
RTVSPost2010PropOp30
 70
     1
102
RTVSPost2010Prop31
280
     0
102
RTVSPost2010PropOp31
 70
     1
102
RTVSPost2010Prop32
280
     0
102
RTVSPost2010PropOp32
 70
     1
102
RTVSPost2010Prop33
280
     0
102
RTVSPost2010PropOp33
 70
     1
102
RTVSPost2010Prop34
280
     0
102
RTVSPost2010PropOp34
 70
     1
102
RTVSPost2010Prop35
280
     0
102
RTVSPost2010PropOp35
 70
     1
102
RTVSPost2010Prop36
280
     0
102
RTVSPost2010PropOp36
 70
     1
102
RTVSPost2010Prop37
 90
       50
102
RTVSPost2010PropOp37
 70
     1
102
RTVSPost2010Prop38
140
0.0
102
RTVSPost2010PropOp38
 70
     1
102
RTVSPost2010Prop39
140
1.0
102
RTVSPost2010PropOp39
 70
     1
102
RTVSPost2010Prop40
 90
        0
102
RTVSPost2010PropOp40
 70
     1
102
RTVSPost2010Prop41ColorIndex
 90
       18
102
RTVSPost2010Prop41ColorRGB
 90
        0
102
RTVSPost2010PropOp41
 70
     1
102
RTVSPost2010Prop42
 90
       50
102
RTVSPost2010PropOp42
 70
     1
102
RTVSPost2010Prop43
 90
        3
102
RTVSPost2010PropOp43
 70
     1
102
RTVSPost2010Prop44ColorIndex
 90
        5
102
RTVSPost2010Prop44ColorRGB
 90
      255
102
RTVSPost2010PropOp44
 70
     1
102
RTVSPost2010Prop45
280
     0
102
RTVSPost2010PropOp45
 70
     1
102
RTVSPost2010Prop46
 90
       50
102
RTVSPost2010PropOp46
 70
     1
102
RTVSPost2010Prop47
 90
       50
102
RTVSPost2010PropOp47
 70
     1
102
RTVSPost2010Prop48
 90
       50
102
RTVSPost2010PropOp48
 70
     1
102
RTVSPost2010Prop49
280
     0
102
RTVSPost2010PropOp49
 70
     1
102
RTVSPost2010Prop50
 90
       50
102
RTVSPost2010PropOp50
 70
     1
102
RTVSPost2010Prop51ColorIndex
 90
      256
102
RTVSPost2010Prop51ColorRGB
 90
-16777216
102
RTVSPost2010PropOp51
 70
     0
102
RTVSPost2010Prop52
140
1.0
102
RTVSPost2010PropOp52
 70
     0
102
RTVSPost2010Prop53
 90
        2
102
RTVSPost2010PropOp53
 70
     1
102
RTVSPost2010Prop54
  1
strokes_ogs.tif
102
RTVSPost2010PropOp54
 70
     1
102
RTVSPost2010Prop55
280
     0
102
RTVSPost2010PropOp55
 70
     1
102
RTVSPost2010Prop56
140
1.0
102
RTVSPost2010PropOp56
 70
     1
102
RTVSPost2010Prop57
140
1.0
102
RTVSPost2010PropOp57
 70
     1
  0
XRECORD
  5
646
102
{ACAD_REACTORS
330
645
102
}
330
645
100
AcDbXrecord
280
     1
102
RTVSPropertyOp0
 70
     1
102
RTVSPropertyOp1
 70
     1
102
RTVSPropertyOp2
 70
     1
102
RTVSPropertyOp3
 70
     1
102
RTVSPropertyOp4
 70
     1
102
RTVSPropertyOp5
 70
     1
102
RTVSPropertyOp6
 70
     1
102
RTVSPropertyOp7
 70
     1
102
RTVSPropertyOp8
 70
     1
102
RTVSPropertyOp9
 70
     1
102
RTVSPropertyOp10
 70
     1
102
RTVSPropertyOp11
 70
     1
102
RTVSPropertyOp12
 70
     1
102
RTVSPropertyOp13
 70
     1
102
RTVSPropertyOp14
 70
     1
102
RTVSPropertyOp15
 70
     1
102
RTVSPropertyOp16
 70
     1
102
RTVSPropertyOp17
 70
     1
102
RTVSPropertyOp18
 70
     1
102
RTVSPropertyOp19
 70
     1
102
RTVSPropertyOp20
 70
     1
102
RTVSPropertyOp21
 70
     1
102
RTVSPropertyOp22
 70
     1
102
RTVSPropertyOp23
 70
     1
102
RTVSPropertyOp24
 70
     1
102
RTVSPropertyOp25
 70
     1
102
RTVSPropertyOp26
 70
     1
102
RTVSPropertyOp27
 70
     1
102
RTVSPropertyOp28
 70
     1
102
RTVSPropertyOp29
 70
     1
102
RTVSPropertyOp30
 70
     1
102
RTVSPropertyOp31
 70
     1
102
RTVSPropertyOp32
 70
     1
102
RTVSPropertyOp33
 70
     1
102
RTVSPropertyOp34
 70
     1
102
RTVSPropertyOp35
 70
     1
102
RTVSPropertyOp36
 70
     1
102
RTVSPropertyOp37
 70
     1
102
RTVSPropertyOp38
 70
     1
102
RTVSPropertyOp39
 70
     1
102
RTVSPropertyOp40
 70
     1
102
RTVSPropertyOp41
 70
     1
102
RTVSPropertyOp42
 70
     1
102
RTVSPropertyOp43
 70
     1
102
RTVSPropertyOp44
 70
     1
102
RTVSPropertyOp45
 70
     1
102
RTVSPropertyOp46
 70
     1
102
RTVSPropertyOp47
 70
     1
102
RTVSPropertyOp48
 70
     1
102
RTVSPropertyOp49
 70
     1
102
RTVSPropertyOp50
 70
     1
102
RTVSPropertyOp51
 70
     0
102
RTVSPropertyOp52
 70
     0
102
RTVSPropertyOp53
 70
     1
102
RTVSPropertyOp54
 70
     1
102
RTVSPropertyOp55
 70
     1
102
RTVSPropertyOp56
 70
     1
102
RTVSPropertyOp57
 70
     1
102
RTVSPost2010Prop28
280
     0
102
RTVSPost2010PropOp28
 70
     1
102
RTVSPost2010Prop29
280
     1
102
RTVSPost2010PropOp29
 70
     1
102
RTVSPost2010Prop30
280
     1
102
RTVSPost2010PropOp30
 70
     1
102
RTVSPost2010Prop31
280
     0
102
RTVSPost2010PropOp31
 70
     1
102
RTVSPost2010Prop32
280
     0
102
RTVSPost2010PropOp32
 70
     1
102
RTVSPost2010Prop33
280
     0
102
RTVSPost2010PropOp33
 70
     1
102
RTVSPost2010Prop34
280
     0
102
RTVSPost2010PropOp34
 70
     1
102
RTVSPost2010Prop35
280
     0
102
RTVSPost2010PropOp35
 70
     1
102
RTVSPost2010Prop36
280
     0
102
RTVSPost2010PropOp36
 70
     1
102
RTVSPost2010Prop37
 90
       50
102
RTVSPost2010PropOp37
 70
     1
102
RTVSPost2010Prop38
140
0.0
102
RTVSPost2010PropOp38
 70
     1
102
RTVSPost2010Prop39
140
1.0
102
RTVSPost2010PropOp39
 70
     1
102
RTVSPost2010Prop40
 90
        0
102
RTVSPost2010PropOp40
 70
     1
102
RTVSPost2010Prop41ColorIndex
 90
       18
102
RTVSPost2010Prop41ColorRGB
 90
        0
102
RTVSPost2010PropOp41
 70
     1
102
RTVSPost2010Prop42
 90
       50
102
RTVSPost2010PropOp42
 70
     1
102
RTVSPost2010Prop43
 90
        3
102
RTVSPost2010PropOp43
 70
     1
102
RTVSPost2010Prop44ColorIndex
 90
        5
102
RTVSPost2010Prop44ColorRGB
 90
      255
102
RTVSPost2010PropOp44
 70
     1
102
RTVSPost2010Prop45
280
     0
102
RTVSPost2010PropOp45
 70
     1
102
RTVSPost2010Prop46
 90
       50
102
RTVSPost2010PropOp46
 70
     1
102
RTVSPost2010Prop47
 90
       50
102
RTVSPost2010PropOp47
 70
     1
102
RTVSPost2010Prop48
 90
       50
102
RTVSPost2010PropOp48
 70
     1
102
RTVSPost2010Prop49
280
     0
102
RTVSPost2010PropOp49
 70
     1
102
RTVSPost2010Prop50
 90
       50
102
RTVSPost2010PropOp50
 70
     1
102
RTVSPost2010Prop51ColorIndex
 90
      256
102
RTVSPost2010Prop51ColorRGB
 90
-16777216
102
RTVSPost2010PropOp51
 70
     0
102
RTVSPost2010Prop52
140
1.0
102
RTVSPost2010PropOp52
 70
     0
102
RTVSPost2010Prop53
 90
        2
102
RTVSPost2010PropOp53
 70
     1
102
RTVSPost2010Prop54
  1
strokes_ogs.tif
102
RTVSPost2010PropOp54
 70
     1
102
RTVSPost2010Prop55
280
     0
102
RTVSPost2010PropOp55
 70
     1
102
RTVSPost2010Prop56
140
1.0
102
RTVSPost2010PropOp56
 70
     1
102
RTVSPost2010Prop57
140
1.0
102
RTVSPost2010PropOp57
 70
     1
  0
XRECORD
  5
644
102
{ACAD_REACTORS
330
643
102
}
330
643
100
AcDbXrecord
280
     1
102
RTVSPropertyOp0
 70
     1
102
RTVSPropertyOp1
 70
     1
102
RTVSPropertyOp2
 70
     1
102
RTVSPropertyOp3
 70
     1
102
RTVSPropertyOp4
 70
     1
102
RTVSPropertyOp5
 70
     1
102
RTVSPropertyOp6
 70
     1
102
RTVSPropertyOp7
 70
     1
102
RTVSPropertyOp8
 70
     1
102
RTVSPropertyOp9
 70
     1
102
RTVSPropertyOp10
 70
     1
102
RTVSPropertyOp11
 70
     1
102
RTVSPropertyOp12
 70
     1
102
RTVSPropertyOp13
 70
     1
102
RTVSPropertyOp14
 70
     1
102
RTVSPropertyOp15
 70
     1
102
RTVSPropertyOp16
 70
     1
102
RTVSPropertyOp17
 70
     1
102
RTVSPropertyOp18
 70
     1
102
RTVSPropertyOp19
 70
     1
102
RTVSPropertyOp20
 70
     1
102
RTVSPropertyOp21
 70
     1
102
RTVSPropertyOp22
 70
     1
102
RTVSPropertyOp23
 70
     1
102
RTVSPropertyOp24
 70
     1
102
RTVSPropertyOp25
 70
     1
102
RTVSPropertyOp26
 70
     1
102
RTVSPropertyOp27
 70
     1
102
RTVSPropertyOp28
 70
     1
102
RTVSPropertyOp29
 70
     1
102
RTVSPropertyOp30
 70
     1
102
RTVSPropertyOp31
 70
     1
102
RTVSPropertyOp32
 70
     1
102
RTVSPropertyOp33
 70
     1
102
RTVSPropertyOp34
 70
     1
102
RTVSPropertyOp35
 70
     1
102
RTVSPropertyOp36
 70
     1
102
RTVSPropertyOp37
 70
     1
102
RTVSPropertyOp38
 70
     1
102
RTVSPropertyOp39
 70
     1
102
RTVSPropertyOp40
 70
     1
102
RTVSPropertyOp41
 70
     1
102
RTVSPropertyOp42
 70
     1
102
RTVSPropertyOp43
 70
     1
102
RTVSPropertyOp44
 70
     1
102
RTVSPropertyOp45
 70
     1
102
RTVSPropertyOp46
 70
     1
102
RTVSPropertyOp47
 70
     1
102
RTVSPropertyOp48
 70
     1
102
RTVSPropertyOp49
 70
     1
102
RTVSPropertyOp50
 70
     1
102
RTVSPropertyOp51
 70
     0
102
RTVSPropertyOp52
 70
     0
102
RTVSPropertyOp53
 70
     1
102
RTVSPropertyOp54
 70
     1
102
RTVSPropertyOp55
 70
     1
102
RTVSPropertyOp56
 70
     1
102
RTVSPropertyOp57
 70
     1
102
RTVSPost2010Prop28
280
     0
102
RTVSPost2010PropOp28
 70
     1
102
RTVSPost2010Prop29
280
     1
102
RTVSPost2010PropOp29
 70
     1
102
RTVSPost2010Prop30
280
     1
102
RTVSPost2010PropOp30
 70
     1
102
RTVSPost2010Prop31
280
     0
102
RTVSPost2010PropOp31
 70
     1
102
RTVSPost2010Prop32
280
     0
102
RTVSPost2010PropOp32
 70
     1
102
RTVSPost2010Prop33
280
     0
102
RTVSPost2010PropOp33
 70
     1
102
RTVSPost2010Prop34
280
     0
102
RTVSPost2010PropOp34
 70
     1
102
RTVSPost2010Prop35
280
     0
102
RTVSPost2010PropOp35
 70
     1
102
RTVSPost2010Prop36
280
     0
102
RTVSPost2010PropOp36
 70
     1
102
RTVSPost2010Prop37
 90
       50
102
RTVSPost2010PropOp37
 70
     1
102
RTVSPost2010Prop38
140
0.0
102
RTVSPost2010PropOp38
 70
     1
102
RTVSPost2010Prop39
140
1.0
102
RTVSPost2010PropOp39
 70
     1
102
RTVSPost2010Prop40
 90
        0
102
RTVSPost2010PropOp40
 70
     1
102
RTVSPost2010Prop41ColorIndex
 90
       18
102
RTVSPost2010Prop41ColorRGB
 90
        0
102
RTVSPost2010PropOp41
 70
     1
102
RTVSPost2010Prop42
 90
       50
102
RTVSPost2010PropOp42
 70
     1
102
RTVSPost2010Prop43
 90
        3
102
RTVSPost2010PropOp43
 70
     1
102
RTVSPost2010Prop44ColorIndex
 90
        5
102
RTVSPost2010Prop44ColorRGB
 90
      255
102
RTVSPost2010PropOp44
 70
     1
102
RTVSPost2010Prop45
280
     0
102
RTVSPost2010PropOp45
 70
     1
102
RTVSPost2010Prop46
 90
       50
102
RTVSPost2010PropOp46
 70
     1
102
RTVSPost2010Prop47
 90
       50
102
RTVSPost2010PropOp47
 70
     1
102
RTVSPost2010Prop48
 90
       50
102
RTVSPost2010PropOp48
 70
     1
102
RTVSPost2010Prop49
280
     0
102
RTVSPost2010PropOp49
 70
     1
102
RTVSPost2010Prop50
 90
       50
102
RTVSPost2010PropOp50
 70
     1
102
RTVSPost2010Prop51ColorIndex
 90
      256
102
RTVSPost2010Prop51ColorRGB
 90
-16777216
102
RTVSPost2010PropOp51
 70
     0
102
RTVSPost2010Prop52
140
1.0
102
RTVSPost2010PropOp52
 70
     0
102
RTVSPost2010Prop53
 90
        2
102
RTVSPost2010PropOp53
 70
     1
102
RTVSPost2010Prop54
  1
strokes_ogs.tif
102
RTVSPost2010PropOp54
 70
     1
102
RTVSPost2010Prop55
280
     0
102
RTVSPost2010PropOp55
 70
     1
102
RTVSPost2010Prop56
140
1.0
102
RTVSPost2010PropOp56
 70
     1
102
RTVSPost2010Prop57
140
1.0
102
RTVSPost2010PropOp57
 70
     1
  0
XRECORD
  5
63E
102
{ACAD_REACTORS
330
63D
102
}
330
63D
100
AcDbXrecord
280
     1
102
RTVSPropertyOp0
 70
     1
102
RTVSPropertyOp1
 70
     1
102
RTVSPropertyOp2
 70
     1
102
RTVSPropertyOp3
 70
     1
102
RTVSPropertyOp4
 70
     1
102
RTVSPropertyOp5
 70
     1
102
RTVSPropertyOp6
 70
     1
102
RTVSPropertyOp7
 70
     1
102
RTVSPropertyOp8
 70
     1
102
RTVSPropertyOp9
 70
     1
102
RTVSPropertyOp10
 70
     1
102
RTVSPropertyOp11
 70
     1
102
RTVSPropertyOp12
 70
     1
102
RTVSPropertyOp13
 70
     1
102
RTVSPropertyOp14
 70
     1
102
RTVSPropertyOp15
 70
     1
102
RTVSPropertyOp16
 70
     1
102
RTVSPropertyOp17
 70
     1
102
RTVSPropertyOp18
 70
     1
102
RTVSPropertyOp19
 70
     1
102
RTVSPropertyOp20
 70
     1
102
RTVSPropertyOp21
 70
     1
102
RTVSPropertyOp22
 70
     1
102
RTVSPropertyOp23
 70
     1
102
RTVSPropertyOp24
 70
     1
102
RTVSPropertyOp25
 70
     1
102
RTVSPropertyOp26
 70
     1
102
RTVSPropertyOp27
 70
     1
102
RTVSPropertyOp28
 70
     1
102
RTVSPropertyOp29
 70
     1
102
RTVSPropertyOp30
 70
     1
102
RTVSPropertyOp31
 70
     1
102
RTVSPropertyOp32
 70
     1
102
RTVSPropertyOp33
 70
     1
102
RTVSPropertyOp34
 70
     1
102
RTVSPropertyOp35
 70
     1
102
RTVSPropertyOp36
 70
     1
102
RTVSPropertyOp37
 70
     1
102
RTVSPropertyOp38
 70
     1
102
RTVSPropertyOp39
 70
     1
102
RTVSPropertyOp40
 70
     1
102
RTVSPropertyOp41
 70
     1
102
RTVSPropertyOp42
 70
     1
102
RTVSPropertyOp43
 70
     1
102
RTVSPropertyOp44
 70
     1
102
RTVSPropertyOp45
 70
     1
102
RTVSPropertyOp46
 70
     1
102
RTVSPropertyOp47
 70
     1
102
RTVSPropertyOp48
 70
     1
102
RTVSPropertyOp49
 70
     1
102
RTVSPropertyOp50
 70
     1
102
RTVSPropertyOp51
 70
     0
102
RTVSPropertyOp52
 70
     0
102
RTVSPropertyOp53
 70
     1
102
RTVSPropertyOp54
 70
     1
102
RTVSPropertyOp55
 70
     1
102
RTVSPropertyOp56
 70
     1
102
RTVSPropertyOp57
 70
     1
102
RTVSPost2010Prop28
280
     0
102
RTVSPost2010PropOp28
 70
     1
102
RTVSPost2010Prop29
280
     1
102
RTVSPost2010PropOp29
 70
     1
102
RTVSPost2010Prop30
280
     1
102
RTVSPost2010PropOp30
 70
     1
102
RTVSPost2010Prop31
280
     0
102
RTVSPost2010PropOp31
 70
     1
102
RTVSPost2010Prop32
280
     0
102
RTVSPost2010PropOp32
 70
     1
102
RTVSPost2010Prop33
280
     0
102
RTVSPost2010PropOp33
 70
     1
102
RTVSPost2010Prop34
280
     0
102
RTVSPost2010PropOp34
 70
     1
102
RTVSPost2010Prop35
280
     0
102
RTVSPost2010PropOp35
 70
     1
102
RTVSPost2010Prop36
280
     0
102
RTVSPost2010PropOp36
 70
     1
102
RTVSPost2010Prop37
 90
       50
102
RTVSPost2010PropOp37
 70
     1
102
RTVSPost2010Prop38
140
0.0
102
RTVSPost2010PropOp38
 70
     1
102
RTVSPost2010Prop39
140
1.0
102
RTVSPost2010PropOp39
 70
     1
102
RTVSPost2010Prop40
 90
        0
102
RTVSPost2010PropOp40
 70
     1
102
RTVSPost2010Prop41ColorIndex
 90
       18
102
RTVSPost2010Prop41ColorRGB
 90
        0
102
RTVSPost2010PropOp41
 70
     1
102
RTVSPost2010Prop42
 90
       50
102
RTVSPost2010PropOp42
 70
     1
102
RTVSPost2010Prop43
 90
        3
102
RTVSPost2010PropOp43
 70
     1
102
RTVSPost2010Prop44ColorIndex
 90
        5
102
RTVSPost2010Prop44ColorRGB
 90
      255
102
RTVSPost2010PropOp44
 70
     1
102
RTVSPost2010Prop45
280
     0
102
RTVSPost2010PropOp45
 70
     1
102
RTVSPost2010Prop46
 90
       50
102
RTVSPost2010PropOp46
 70
     1
102
RTVSPost2010Prop47
 90
       50
102
RTVSPost2010PropOp47
 70
     1
102
RTVSPost2010Prop48
 90
       50
102
RTVSPost2010PropOp48
 70
     1
102
RTVSPost2010Prop49
280
     0
102
RTVSPost2010PropOp49
 70
     1
102
RTVSPost2010Prop50
 90
       50
102
RTVSPost2010PropOp50
 70
     1
102
RTVSPost2010Prop51ColorIndex
 90
      256
102
RTVSPost2010Prop51ColorRGB
 90
-16777216
102
RTVSPost2010PropOp51
 70
     0
102
RTVSPost2010Prop52
140
1.0
102
RTVSPost2010PropOp52
 70
     0
102
RTVSPost2010Prop53
 90
        2
102
RTVSPost2010PropOp53
 70
     1
102
RTVSPost2010Prop54
  1
strokes_ogs.tif
102
RTVSPost2010PropOp54
 70
     1
102
RTVSPost2010Prop55
280
     0
102
RTVSPost2010PropOp55
 70
     1
102
RTVSPost2010Prop56
140
1.0
102
RTVSPost2010PropOp56
 70
     1
102
RTVSPost2010Prop57
140
1.0
102
RTVSPost2010PropOp57
 70
     1
  0
XRECORD
  5
640
102
{ACAD_REACTORS
330
63F
102
}
330
63F
100
AcDbXrecord
280
     1
102
RTVSPropertyOp0
 70
     1
102
RTVSPropertyOp1
 70
     1
102
RTVSPropertyOp2
 70
     1
102
RTVSPropertyOp3
 70
     1
102
RTVSPropertyOp4
 70
     1
102
RTVSPropertyOp5
 70
     1
102
RTVSPropertyOp6
 70
     1
102
RTVSPropertyOp7
 70
     1
102
RTVSPropertyOp8
 70
     1
102
RTVSPropertyOp9
 70
     1
102
RTVSPropertyOp10
 70
     1
102
RTVSPropertyOp11
 70
     1
102
RTVSPropertyOp12
 70
     1
102
RTVSPropertyOp13
 70
     1
102
RTVSPropertyOp14
 70
     1
102
RTVSPropertyOp15
 70
     1
102
RTVSPropertyOp16
 70
     1
102
RTVSPropertyOp17
 70
     1
102
RTVSPropertyOp18
 70
     1
102
RTVSPropertyOp19
 70
     1
102
RTVSPropertyOp20
 70
     1
102
RTVSPropertyOp21
 70
     1
102
RTVSPropertyOp22
 70
     1
102
RTVSPropertyOp23
 70
     1
102
RTVSPropertyOp24
 70
     1
102
RTVSPropertyOp25
 70
     1
102
RTVSPropertyOp26
 70
     1
102
RTVSPropertyOp27
 70
     1
102
RTVSPropertyOp28
 70
     1
102
RTVSPropertyOp29
 70
     1
102
RTVSPropertyOp30
 70
     1
102
RTVSPropertyOp31
 70
     1
102
RTVSPropertyOp32
 70
     1
102
RTVSPropertyOp33
 70
     1
102
RTVSPropertyOp34
 70
     1
102
RTVSPropertyOp35
 70
     1
102
RTVSPropertyOp36
 70
     1
102
RTVSPropertyOp37
 70
     1
102
RTVSPropertyOp38
 70
     1
102
RTVSPropertyOp39
 70
     1
102
RTVSPropertyOp40
 70
     1
102
RTVSPropertyOp41
 70
     1
102
RTVSPropertyOp42
 70
     1
102
RTVSPropertyOp43
 70
     1
102
RTVSPropertyOp44
 70
     1
102
RTVSPropertyOp45
 70
     1
102
RTVSPropertyOp46
 70
     1
102
RTVSPropertyOp47
 70
     1
102
RTVSPropertyOp48
 70
     1
102
RTVSPropertyOp49
 70
     1
102
RTVSPropertyOp50
 70
     1
102
RTVSPropertyOp51
 70
     0
102
RTVSPropertyOp52
 70
     0
102
RTVSPropertyOp53
 70
     1
102
RTVSPropertyOp54
 70
     1
102
RTVSPropertyOp55
 70
     1
102
RTVSPropertyOp56
 70
     1
102
RTVSPropertyOp57
 70
     1
102
RTVSPost2010Prop28
280
     0
102
RTVSPost2010PropOp28
 70
     1
102
RTVSPost2010Prop29
280
     1
102
RTVSPost2010PropOp29
 70
     1
102
RTVSPost2010Prop30
280
     1
102
RTVSPost2010PropOp30
 70
     1
102
RTVSPost2010Prop31
280
     0
102
RTVSPost2010PropOp31
 70
     1
102
RTVSPost2010Prop32
280
     0
102
RTVSPost2010PropOp32
 70
     1
102
RTVSPost2010Prop33
280
     0
102
RTVSPost2010PropOp33
 70
     1
102
RTVSPost2010Prop34
280
     0
102
RTVSPost2010PropOp34
 70
     1
102
RTVSPost2010Prop35
280
     0
102
RTVSPost2010PropOp35
 70
     1
102
RTVSPost2010Prop36
280
     0
102
RTVSPost2010PropOp36
 70
     1
102
RTVSPost2010Prop37
 90
       50
102
RTVSPost2010PropOp37
 70
     1
102
RTVSPost2010Prop38
140
0.0
102
RTVSPost2010PropOp38
 70
     1
102
RTVSPost2010Prop39
140
1.0
102
RTVSPost2010PropOp39
 70
     1
102
RTVSPost2010Prop40
 90
        0
102
RTVSPost2010PropOp40
 70
     1
102
RTVSPost2010Prop41ColorIndex
 90
       18
102
RTVSPost2010Prop41ColorRGB
 90
        0
102
RTVSPost2010PropOp41
 70
     1
102
RTVSPost2010Prop42
 90
       50
102
RTVSPost2010PropOp42
 70
     1
102
RTVSPost2010Prop43
 90
        3
102
RTVSPost2010PropOp43
 70
     1
102
RTVSPost2010Prop44ColorIndex
 90
        5
102
RTVSPost2010Prop44ColorRGB
 90
      255
102
RTVSPost2010PropOp44
 70
     1
102
RTVSPost2010Prop45
280
     0
102
RTVSPost2010PropOp45
 70
     1
102
RTVSPost2010Prop46
 90
       50
102
RTVSPost2010PropOp46
 70
     1
102
RTVSPost2010Prop47
 90
       50
102
RTVSPost2010PropOp47
 70
     1
102
RTVSPost2010Prop48
 90
       50
102
RTVSPost2010PropOp48
 70
     1
102
RTVSPost2010Prop49
280
     0
102
RTVSPost2010PropOp49
 70
     1
102
RTVSPost2010Prop50
 90
       50
102
RTVSPost2010PropOp50
 70
     1
102
RTVSPost2010Prop51ColorIndex
 90
      256
102
RTVSPost2010Prop51ColorRGB
 90
-16777216
102
RTVSPost2010PropOp51
 70
     0
102
RTVSPost2010Prop52
140
1.0
102
RTVSPost2010PropOp52
 70
     0
102
RTVSPost2010Prop53
 90
        2
102
RTVSPost2010PropOp53
 70
     1
102
RTVSPost2010Prop54
  1
strokes_ogs.tif
102
RTVSPost2010PropOp54
 70
     1
102
RTVSPost2010Prop55
280
     0
102
RTVSPost2010PropOp55
 70
     1
102
RTVSPost2010Prop56
140
1.0
102
RTVSPost2010PropOp56
 70
     1
102
RTVSPost2010Prop57
140
1.0
102
RTVSPost2010PropOp57
 70
     1
  0
XRECORD
  5
630
102
{ACAD_REACTORS
330
62F
102
}
330
62F
100
AcDbXrecord
280
     1
102
RTVSPropertyOp0
 70
     1
102
RTVSPropertyOp1
 70
     1
102
RTVSPropertyOp2
 70
     1
102
RTVSPropertyOp3
 70
     1
102
RTVSPropertyOp4
 70
     1
102
RTVSPropertyOp5
 70
     1
102
RTVSPropertyOp6
 70
     1
102
RTVSPropertyOp7
 70
     1
102
RTVSPropertyOp8
 70
     1
102
RTVSPropertyOp9
 70
     1
102
RTVSPropertyOp10
 70
     1
102
RTVSPropertyOp11
 70
     1
102
RTVSPropertyOp12
 70
     1
102
RTVSPropertyOp13
 70
     1
102
RTVSPropertyOp14
 70
     1
102
RTVSPropertyOp15
 70
     1
102
RTVSPropertyOp16
 70
     1
102
RTVSPropertyOp17
 70
     1
102
RTVSPropertyOp18
 70
     1
102
RTVSPropertyOp19
 70
     1
102
RTVSPropertyOp20
 70
     1
102
RTVSPropertyOp21
 70
     1
102
RTVSPropertyOp22
 70
     1
102
RTVSPropertyOp23
 70
     1
102
RTVSPropertyOp24
 70
     1
102
RTVSPropertyOp25
 70
     1
102
RTVSPropertyOp26
 70
     1
102
RTVSPropertyOp27
 70
     1
102
RTVSPropertyOp28
 70
     1
102
RTVSPropertyOp29
 70
     1
102
RTVSPropertyOp30
 70
     1
102
RTVSPropertyOp31
 70
     1
102
RTVSPropertyOp32
 70
     1
102
RTVSPropertyOp33
 70
     1
102
RTVSPropertyOp34
 70
     1
102
RTVSPropertyOp35
 70
     1
102
RTVSPropertyOp36
 70
     1
102
RTVSPropertyOp37
 70
     1
102
RTVSPropertyOp38
 70
     1
102
RTVSPropertyOp39
 70
     1
102
RTVSPropertyOp40
 70
     1
102
RTVSPropertyOp41
 70
     1
102
RTVSPropertyOp42
 70
     1
102
RTVSPropertyOp43
 70
     1
102
RTVSPropertyOp44
 70
     1
102
RTVSPropertyOp45
 70
     1
102
RTVSPropertyOp46
 70
     1
102
RTVSPropertyOp47
 70
     1
102
RTVSPropertyOp48
 70
     1
102
RTVSPropertyOp49
 70
     1
102
RTVSPropertyOp50
 70
     1
102
RTVSPropertyOp51
 70
     0
102
RTVSPropertyOp52
 70
     0
102
RTVSPropertyOp53
 70
     1
102
RTVSPropertyOp54
 70
     1
102
RTVSPropertyOp55
 70
     1
102
RTVSPropertyOp56
 70
     1
102
RTVSPropertyOp57
 70
     1
102
RTVSPost2010Prop28
280
     0
102
RTVSPost2010PropOp28
 70
     1
102
RTVSPost2010Prop29
280
     1
102
RTVSPost2010PropOp29
 70
     1
102
RTVSPost2010Prop30
280
     1
102
RTVSPost2010PropOp30
 70
     1
102
RTVSPost2010Prop31
280
     0
102
RTVSPost2010PropOp31
 70
     1
102
RTVSPost2010Prop32
280
     0
102
RTVSPost2010PropOp32
 70
     1
102
RTVSPost2010Prop33
280
     0
102
RTVSPost2010PropOp33
 70
     1
102
RTVSPost2010Prop34
280
     0
102
RTVSPost2010PropOp34
 70
     1
102
RTVSPost2010Prop35
280
     0
102
RTVSPost2010PropOp35
 70
     1
102
RTVSPost2010Prop36
280
     0
102
RTVSPost2010PropOp36
 70
     1
102
RTVSPost2010Prop37
 90
       50
102
RTVSPost2010PropOp37
 70
     1
102
RTVSPost2010Prop38
140
0.0
102
RTVSPost2010PropOp38
 70
     1
102
RTVSPost2010Prop39
140
1.0
102
RTVSPost2010PropOp39
 70
     1
102
RTVSPost2010Prop40
 90
        0
102
RTVSPost2010PropOp40
 70
     1
102
RTVSPost2010Prop41ColorIndex
 90
       18
102
RTVSPost2010Prop41ColorRGB
 90
        0
102
RTVSPost2010PropOp41
 70
     1
102
RTVSPost2010Prop42
 90
       50
102
RTVSPost2010PropOp42
 70
     1
102
RTVSPost2010Prop43
 90
        3
102
RTVSPost2010PropOp43
 70
     1
102
RTVSPost2010Prop44ColorIndex
 90
        5
102
RTVSPost2010Prop44ColorRGB
 90
      255
102
RTVSPost2010PropOp44
 70
     1
102
RTVSPost2010Prop45
280
     0
102
RTVSPost2010PropOp45
 70
     1
102
RTVSPost2010Prop46
 90
       50
102
RTVSPost2010PropOp46
 70
     1
102
RTVSPost2010Prop47
 90
       50
102
RTVSPost2010PropOp47
 70
     1
102
RTVSPost2010Prop48
 90
       50
102
RTVSPost2010PropOp48
 70
     1
102
RTVSPost2010Prop49
280
     0
102
RTVSPost2010PropOp49
 70
     1
102
RTVSPost2010Prop50
 90
       50
102
RTVSPost2010PropOp50
 70
     1
102
RTVSPost2010Prop51ColorIndex
 90
      256
102
RTVSPost2010Prop51ColorRGB
 90
-16777216
102
RTVSPost2010PropOp51
 70
     0
102
RTVSPost2010Prop52
140
1.0
102
RTVSPost2010PropOp52
 70
     0
102
RTVSPost2010Prop53
 90
        2
102
RTVSPost2010PropOp53
 70
     1
102
RTVSPost2010Prop54
  1
strokes_ogs.tif
102
RTVSPost2010PropOp54
 70
     1
102
RTVSPost2010Prop55
280
     0
102
RTVSPost2010PropOp55
 70
     1
102
RTVSPost2010Prop56
140
1.0
102
RTVSPost2010PropOp56
 70
     1
102
RTVSPost2010Prop57
140
1.0
102
RTVSPost2010PropOp57
 70
     1
  0
XRECORD
  5
622
102
{ACAD_REACTORS
330
621
102
}
330
621
100
AcDbXrecord
280
     1
102
RTVSPropertyOp0
 70
     1
102
RTVSPropertyOp1
 70
     1
102
RTVSPropertyOp2
 70
     1
102
RTVSPropertyOp3
 70
     1
102
RTVSPropertyOp4
 70
     1
102
RTVSPropertyOp5
 70
     1
102
RTVSPropertyOp6
 70
     1
102
RTVSPropertyOp7
 70
     1
102
RTVSPropertyOp8
 70
     1
102
RTVSPropertyOp9
 70
     1
102
RTVSPropertyOp10
 70
     1
102
RTVSPropertyOp11
 70
     1
102
RTVSPropertyOp12
 70
     1
102
RTVSPropertyOp13
 70
     1
102
RTVSPropertyOp14
 70
     1
102
RTVSPropertyOp15
 70
     1
102
RTVSPropertyOp16
 70
     1
102
RTVSPropertyOp17
 70
     1
102
RTVSPropertyOp18
 70
     1
102
RTVSPropertyOp19
 70
     1
102
RTVSPropertyOp20
 70
     1
102
RTVSPropertyOp21
 70
     1
102
RTVSPropertyOp22
 70
     1
102
RTVSPropertyOp23
 70
     1
102
RTVSPropertyOp24
 70
     1
102
RTVSPropertyOp25
 70
     1
102
RTVSPropertyOp26
 70
     1
102
RTVSPropertyOp27
 70
     1
102
RTVSPropertyOp28
 70
     1
102
RTVSPropertyOp29
 70
     1
102
RTVSPropertyOp30
 70
     1
102
RTVSPropertyOp31
 70
     1
102
RTVSPropertyOp32
 70
     1
102
RTVSPropertyOp33
 70
     1
102
RTVSPropertyOp34
 70
     1
102
RTVSPropertyOp35
 70
     1
102
RTVSPropertyOp36
 70
     1
102
RTVSPropertyOp37
 70
     1
102
RTVSPropertyOp38
 70
     1
102
RTVSPropertyOp39
 70
     1
102
RTVSPropertyOp40
 70
     1
102
RTVSPropertyOp41
 70
     1
102
RTVSPropertyOp42
 70
     1
102
RTVSPropertyOp43
 70
     1
102
RTVSPropertyOp44
 70
     1
102
RTVSPropertyOp45
 70
     1
102
RTVSPropertyOp46
 70
     1
102
RTVSPropertyOp47
 70
     1
102
RTVSPropertyOp48
 70
     1
102
RTVSPropertyOp49
 70
     1
102
RTVSPropertyOp50
 70
     1
102
RTVSPropertyOp51
 70
     0
102
RTVSPropertyOp52
 70
     0
102
RTVSPropertyOp53
 70
     1
102
RTVSPropertyOp54
 70
     1
102
RTVSPropertyOp55
 70
     1
102
RTVSPropertyOp56
 70
     1
102
RTVSPropertyOp57
 70
     1
102
RTVSPost2010Prop28
280
     0
102
RTVSPost2010PropOp28
 70
     1
102
RTVSPost2010Prop29
280
     1
102
RTVSPost2010PropOp29
 70
     1
102
RTVSPost2010Prop30
280
     1
102
RTVSPost2010PropOp30
 70
     1
102
RTVSPost2010Prop31
280
     0
102
RTVSPost2010PropOp31
 70
     1
102
RTVSPost2010Prop32
280
     0
102
RTVSPost2010PropOp32
 70
     1
102
RTVSPost2010Prop33
280
     0
102
RTVSPost2010PropOp33
 70
     1
102
RTVSPost2010Prop34
280
     0
102
RTVSPost2010PropOp34
 70
     1
102
RTVSPost2010Prop35
280
     0
102
RTVSPost2010PropOp35
 70
     1
102
RTVSPost2010Prop36
280
     0
102
RTVSPost2010PropOp36
 70
     1
102
RTVSPost2010Prop37
 90
       50
102
RTVSPost2010PropOp37
 70
     1
102
RTVSPost2010Prop38
140
0.0
102
RTVSPost2010PropOp38
 70
     1
102
RTVSPost2010Prop39
140
1.0
102
RTVSPost2010PropOp39
 70
     1
102
RTVSPost2010Prop40
 90
        0
102
RTVSPost2010PropOp40
 70
     1
102
RTVSPost2010Prop41ColorIndex
 90
       18
102
RTVSPost2010Prop41ColorRGB
 90
        0
102
RTVSPost2010PropOp41
 70
     1
102
RTVSPost2010Prop42
 90
       50
102
RTVSPost2010PropOp42
 70
     1
102
RTVSPost2010Prop43
 90
        3
102
RTVSPost2010PropOp43
 70
     1
102
RTVSPost2010Prop44ColorIndex
 90
        5
102
RTVSPost2010Prop44ColorRGB
 90
      255
102
RTVSPost2010PropOp44
 70
     1
102
RTVSPost2010Prop45
280
     0
102
RTVSPost2010PropOp45
 70
     1
102
RTVSPost2010Prop46
 90
       50
102
RTVSPost2010PropOp46
 70
     1
102
RTVSPost2010Prop47
 90
       50
102
RTVSPost2010PropOp47
 70
     1
102
RTVSPost2010Prop48
 90
       50
102
RTVSPost2010PropOp48
 70
     1
102
RTVSPost2010Prop49
280
     0
102
RTVSPost2010PropOp49
 70
     1
102
RTVSPost2010Prop50
 90
       50
102
RTVSPost2010PropOp50
 70
     1
102
RTVSPost2010Prop51ColorIndex
 90
      256
102
RTVSPost2010Prop51ColorRGB
 90
-16777216
102
RTVSPost2010PropOp51
 70
     0
102
RTVSPost2010Prop52
140
1.0
102
RTVSPost2010PropOp52
 70
     0
102
RTVSPost2010Prop53
 90
        2
102
RTVSPost2010PropOp53
 70
     1
102
RTVSPost2010Prop54
  1
strokes_ogs.tif
102
RTVSPost2010PropOp54
 70
     1
102
RTVSPost2010Prop55
280
     0
102
RTVSPost2010PropOp55
 70
     1
102
RTVSPost2010Prop56
140
1.0
102
RTVSPost2010PropOp56
 70
     1
102
RTVSPost2010Prop57
140
1.0
102
RTVSPost2010PropOp57
 70
     1
  0
XRECORD
  5
642
102
{ACAD_REACTORS
330
641
102
}
330
641
100
AcDbXrecord
280
     1
102
RTVSPropertyOp0
 70
     1
102
RTVSPropertyOp1
 70
     1
102
RTVSPropertyOp2
 70
     1
102
RTVSPropertyOp3
 70
     1
102
RTVSPropertyOp4
 70
     1
102
RTVSPropertyOp5
 70
     1
102
RTVSPropertyOp6
 70
     1
102
RTVSPropertyOp7
 70
     1
102
RTVSPropertyOp8
 70
     1
102
RTVSPropertyOp9
 70
     1
102
RTVSPropertyOp10
 70
     1
102
RTVSPropertyOp11
 70
     1
102
RTVSPropertyOp12
 70
     1
102
RTVSPropertyOp13
 70
     1
102
RTVSPropertyOp14
 70
     1
102
RTVSPropertyOp15
 70
     1
102
RTVSPropertyOp16
 70
     1
102
RTVSPropertyOp17
 70
     1
102
RTVSPropertyOp18
 70
     1
102
RTVSPropertyOp19
 70
     1
102
RTVSPropertyOp20
 70
     1
102
RTVSPropertyOp21
 70
     1
102
RTVSPropertyOp22
 70
     1
102
RTVSPropertyOp23
 70
     1
102
RTVSPropertyOp24
 70
     1
102
RTVSPropertyOp25
 70
     1
102
RTVSPropertyOp26
 70
     1
102
RTVSPropertyOp27
 70
     1
102
RTVSPropertyOp28
 70
     1
102
RTVSPropertyOp29
 70
     1
102
RTVSPropertyOp30
 70
     1
102
RTVSPropertyOp31
 70
     1
102
RTVSPropertyOp32
 70
     1
102
RTVSPropertyOp33
 70
     1
102
RTVSPropertyOp34
 70
     1
102
RTVSPropertyOp35
 70
     1
102
RTVSPropertyOp36
 70
     1
102
RTVSPropertyOp37
 70
     1
102
RTVSPropertyOp38
 70
     1
102
RTVSPropertyOp39
 70
     1
102
RTVSPropertyOp40
 70
     1
102
RTVSPropertyOp41
 70
     1
102
RTVSPropertyOp42
 70
     1
102
RTVSPropertyOp43
 70
     1
102
RTVSPropertyOp44
 70
     1
102
RTVSPropertyOp45
 70
     1
102
RTVSPropertyOp46
 70
     1
102
RTVSPropertyOp47
 70
     1
102
RTVSPropertyOp48
 70
     1
102
RTVSPropertyOp49
 70
     1
102
RTVSPropertyOp50
 70
     1
102
RTVSPropertyOp51
 70
     0
102
RTVSPropertyOp52
 70
     0
102
RTVSPropertyOp53
 70
     1
102
RTVSPropertyOp54
 70
     1
102
RTVSPropertyOp55
 70
     1
102
RTVSPropertyOp56
 70
     1
102
RTVSPropertyOp57
 70
     1
102
RTVSPost2010Prop28
280
     0
102
RTVSPost2010PropOp28
 70
     1
102
RTVSPost2010Prop29
280
     1
102
RTVSPost2010PropOp29
 70
     1
102
RTVSPost2010Prop30
280
     1
102
RTVSPost2010PropOp30
 70
     1
102
RTVSPost2010Prop31
280
     0
102
RTVSPost2010PropOp31
 70
     1
102
RTVSPost2010Prop32
280
     0
102
RTVSPost2010PropOp32
 70
     1
102
RTVSPost2010Prop33
280
     0
102
RTVSPost2010PropOp33
 70
     1
102
RTVSPost2010Prop34
280
     0
102
RTVSPost2010PropOp34
 70
     1
102
RTVSPost2010Prop35
280
     0
102
RTVSPost2010PropOp35
 70
     1
102
RTVSPost2010Prop36
280
     0
102
RTVSPost2010PropOp36
 70
     1
102
RTVSPost2010Prop37
 90
       50
102
RTVSPost2010PropOp37
 70
     1
102
RTVSPost2010Prop38
140
0.0
102
RTVSPost2010PropOp38
 70
     1
102
RTVSPost2010Prop39
140
1.0
102
RTVSPost2010PropOp39
 70
     1
102
RTVSPost2010Prop40
 90
        0
102
RTVSPost2010PropOp40
 70
     1
102
RTVSPost2010Prop41ColorIndex
 90
       18
102
RTVSPost2010Prop41ColorRGB
 90
        0
102
RTVSPost2010PropOp41
 70
     1
102
RTVSPost2010Prop42
 90
       50
102
RTVSPost2010PropOp42
 70
     1
102
RTVSPost2010Prop43
 90
        3
102
RTVSPost2010PropOp43
 70
     1
102
RTVSPost2010Prop44ColorIndex
 90
        5
102
RTVSPost2010Prop44ColorRGB
 90
      255
102
RTVSPost2010PropOp44
 70
     1
102
RTVSPost2010Prop45
280
     0
102
RTVSPost2010PropOp45
 70
     1
102
RTVSPost2010Prop46
 90
       50
102
RTVSPost2010PropOp46
 70
     1
102
RTVSPost2010Prop47
 90
       50
102
RTVSPost2010PropOp47
 70
     1
102
RTVSPost2010Prop48
 90
       50
102
RTVSPost2010PropOp48
 70
     1
102
RTVSPost2010Prop49
280
     0
102
RTVSPost2010PropOp49
 70
     1
102
RTVSPost2010Prop50
 90
       50
102
RTVSPost2010PropOp50
 70
     1
102
RTVSPost2010Prop51ColorIndex
 90
      256
102
RTVSPost2010Prop51ColorRGB
 90
-16777216
102
RTVSPost2010PropOp51
 70
     0
102
RTVSPost2010Prop52
140
1.0
102
RTVSPost2010PropOp52
 70
     0
102
RTVSPost2010Prop53
 90
        2
102
RTVSPost2010PropOp53
 70
     1
102
RTVSPost2010Prop54
  1
strokes_ogs.tif
102
RTVSPost2010PropOp54
 70
     1
102
RTVSPost2010Prop55
280
     0
102
RTVSPost2010PropOp55
 70
     1
102
RTVSPost2010Prop56
140
1.0
102
RTVSPost2010PropOp56
 70
     1
102
RTVSPost2010Prop57
140
1.0
102
RTVSPost2010PropOp57
 70
     1
  0
ENDSEC
  0
EOF
