  0
SECTION
  2
HEADER
  9
$ACADVER
  1
AC1015
  9
$ACADMAINTVER
 70
     6
  9
$DWGCODEPAGE
  3
ANSI_932
  9
$INSBASE
 10
3112.055554466871
 20
1891.955333212003
 30
0.0
  9
$EXTMIN
 10
154.2108794416527
 20
26.1817014394353
 30
0.0
  9
$EXTMAX
 10
2376.638542352441
 20
1898.101016775871
 30
0.0
  9
$LIMMIN
 10
0.0
 20
0.0
  9
$LIMMAX
 10
816.5000000000001
 20
565.0
  9
$ORTHOMODE
 70
     0
  9
$REGENMODE
 70
     1
  9
$FILLMODE
 70
     1
  9
$QTEXTMODE
 70
     0
  9
$MIRRTEXT
 70
     1
  9
$LTSCALE
 40
20.0
  9
$ATTMODE
 70
     1
  9
$TEXTSIZE
 40
21.0
  9
$TRACEWID
 40
0.05
  9
$TEXTSTYLE
  7
KANJI
  9
$CLAYER
  8
2
  9
$CELTYPE
  6
BYLAYER
  9
$CECOLOR
 62
   256
  9
$CELTSCALE
 40
1.0
  9
$DISPSILH
 70
     0
  9
$DIMSCALE
 40
7.0
  9
$DIMASZ
 40
2.0
  9
$DIMEXO
 40
0.5
  9
$DIMDLI
 40
0.0
  9
$DIMRND
 40
0.0
  9
$DIMDLE
 40
0.0
  9
$DIMEXE
 40
1.0
  9
$DIMTP
 40
0.0
  9
$DIMTM
 40
0.0
  9
$DIMTXT
 40
3.0
  9
$DIMCEN
 40
0.09
  9
$DIMTSZ
 40
0.0
  9
$DIMTOL
 70
     0
  9
$DIMLIM
 70
     0
  9
$DIMTIH
 70
     0
  9
$DIMTOH
 70
     0
  9
$DIMSE1
 70
     0
  9
$DIMSE2
 70
     0
  9
$DIMTAD
 70
     0
  9
$DIMZIN
 70
     8
  9
$DIMBLK
  1

  9
$DIMASO
 70
     0
  9
$DIMSHO
 70
     0
  9
$DIMPOST
  1

  9
$DIMAPOST
  1

  9
$DIMALT
 70
     0
  9
$DIMALTD
 70
     2
  9
$DIMALTF
 40
25.4
  9
$DIMLFAC
 40
1.0
  9
$DIMTOFL
 70
     1
  9
$DIMTVP
 40
1.0
  9
$DIMTIX
 70
     1
  9
$DIMSOXD
 70
     1
  9
$DIMSAH
 70
     0
  9
$DIMBLK1
  1

  9
$DIMBLK2
  1

  9
$DIMSTYLE
  2
STANDARD
  9
$DIMCLRD
 70
   256
  9
$DIMCLRE
 70
   256
  9
$DIMCLRT
 70
   256
  9
$DIMTFAC
 40
1.0
  9
$DIMGAP
 40
0.09
  9
$DIMJUST
 70
     0
  9
$DIMSD1
 70
     0
  9
$DIMSD2
 70
     0
  9
$DIMTOLJ
 70
     1
  9
$DIMTZIN
 70
     0
  9
$DIMALTZ
 70
     0
  9
$DIMALTTZ
 70
     0
  9
$DIMUPT
 70
     0
  9
$DIMDEC
 70
     1
  9
$DIMTDEC
 70
     4
  9
$DIMALTU
 70
     2
  9
$DIMALTTD
 70
     2
  9
$DIMTXSTY
  7
STANDARD
  9
$DIMAUNIT
 70
     0
  9
$DIMADEC
 70
     0
  9
$DIMALTRND
 40
0.0
  9
$DIMAZIN
 70
     0
  9
$DIMDSEP
 70
    46
  9
$DIMATFIT
 70
     3
  9
$DIMFRAC
 70
     0
  9
$DIMLDRBLK
  1

  9
$DIMLUNIT
 70
     2
  9
$DIMLWD
 70
    -2
  9
$DIMLWE
 70
    -2
  9
$DIMTMOVE
 70
     0
  9
$LUNITS
 70
     2
  9
$LUPREC
 70
     3
  9
$SKETCHINC
 40
0.1
  9
$FILLETRAD
 40
3.0
  9
$AUNITS
 70
     0
  9
$AUPREC
 70
     3
  9
$MENU
  1
C:\R13\WIN\SUPPORT\ACADFULL
  9
$ELEVATION
 40
0.0
  9
$PELEVATION
 40
0.0
  9
$THICKNESS
 40
0.0
  9
$LIMCHECK
 70
     0
  9
$CHAMFERA
 40
0.0
  9
$CHAMFERB
 40
0.0
  9
$CHAMFERC
 40
0.0
  9
$CHAMFERD
 40
0.0
  9
$SKPOLY
 70
     0
  9
$TDCREATE
 40
2457240.490428437
  9
$TDUCREATE
 40
2457240.115428437
  9
$TDUPDATE
 40
2457871.835191783
  9
$TDUUPDATE
 40
2457871.460191783
  9
$TDINDWG
 40
0.0431765856
  9
$TDUSRTIMER
 40
0.0431758681
  9
$USRTIMER
 70
     1
  9
$ANGBASE
 50
0.0
  9
$ANGDIR
 70
     0
  9
$PDMODE
 70
     0
  9
$PDSIZE
 40
0.0
  9
$PLINEWID
 40
0.0
  9
$SPLFRAME
 70
     0
  9
$SPLINETYPE
 70
     6
  9
$SPLINESEGS
 70
     8
  9
$HANDSEED
  5
65F
  9
$SURFTAB1
 70
     6
  9
$SURFTAB2
 70
     6
  9
$SURFTYPE
 70
     6
  9
$SURFU
 70
     6
  9
$SURFV
 70
     6
  9
$UCSBASE
  2

  9
$UCSNAME
  2

  9
$UCSORG
 10
0.0
 20
0.0
 30
0.0
  9
$UCSXDIR
 10
1.0
 20
0.0
 30
0.0
  9
$UCSYDIR
 10
0.0
 20
1.0
 30
0.0
  9
$UCSORTHOREF
  2

  9
$UCSORTHOVIEW
 70
     0
  9
$UCSORGTOP
 10
0.0
 20
0.0
 30
0.0
  9
$UCSORGBOTTOM
 10
0.0
 20
0.0
 30
0.0
  9
$UCSORGLEFT
 10
0.0
 20
0.0
 30
0.0
  9
$UCSORGRIGHT
 10
0.0
 20
0.0
 30
0.0
  9
$UCSORGFRONT
 10
0.0
 20
0.0
 30
0.0
  9
$UCSORGBACK
 10
0.0
 20
0.0
 30
0.0
  9
$PUCSBASE
  2

  9
$PUCSNAME
  2

  9
$PUCSORG
 10
0.0
 20
0.0
 30
0.0
  9
$PUCSXDIR
 10
1.0
 20
0.0
 30
0.0
  9
$PUCSYDIR
 10
0.0
 20
1.0
 30
0.0
  9
$PUCSORTHOREF
  2

  9
$PUCSORTHOVIEW
 70
     0
  9
$PUCSORGTOP
 10
0.0
 20
0.0
 30
0.0
  9
$PUCSORGBOTTOM
 10
0.0
 20
0.0
 30
0.0
  9
$PUCSORGLEFT
 10
0.0
 20
0.0
 30
0.0
  9
$PUCSORGRIGHT
 10
0.0
 20
0.0
 30
0.0
  9
$PUCSORGFRONT
 10
0.0
 20
0.0
 30
0.0
  9
$PUCSORGBACK
 10
0.0
 20
0.0
 30
0.0
  9
$USERI1
 70
     0
  9
$USERI2
 70
     0
  9
$USERI3
 70
     0
  9
$USERI4
 70
     0
  9
$USERI5
 70
     0
  9
$USERR1
 40
0.0
  9
$USERR2
 40
0.0
  9
$USERR3
 40
0.0
  9
$USERR4
 40
2448925.372986111
  9
$USERR5
 40
0.04166667
  9
$WORLDVIEW
 70
     1
  9
$SHADEDGE
 70
     3
  9
$SHADEDIF
 70
    70
  9
$TILEMODE
 70
     1
  9
$MAXACTVP
 70
    16
  9
$PINSBASE
 10
0.0
 20
0.0
 30
0.0
  9
$PLIMCHECK
 70
     0
  9
$PEXTMIN
 10
1.000000000000000E+20
 20
1.000000000000000E+20
 30
1.000000000000000E+20
  9
$PEXTMAX
 10
-1.000000000000000E+20
 20
-1.000000000000000E+20
 30
-1.000000000000000E+20
  9
$PLIMMIN
 10
0.0
 20
0.0
  9
$PLIMMAX
 10
12.0
 20
9.0
  9
$UNITMODE
 70
     0
  9
$VISRETAIN
 70
     0
  9
$PLINEGEN
 70
     0
  9
$PSLTSCALE
 70
     0
  9
$TREEDEPTH
 70
  3020
  9
$CMLSTYLE
  2
STANDARD
  9
$CMLJUST
 70
     0
  9
$CMLSCALE
 40
1.0
  9
$PROXYGRAPHICS
 70
     1
  9
$MEASUREMENT
 70
     0
  9
$CELWEIGHT
370
    -1
  9
$ENDCAPS
280
     0
  9
$JOINSTYLE
280
     0
  9
$LWDISPLAY
290
     0
  9
$INSUNITS
 70
     0
  9
$HYPERLINKBASE
  1

  9
$STYLESHEET
  1

  9
$XEDIT
290
     1
  9
$CEPSNTYPE
380
     0
  9
$PSTYLEMODE
290
     1
  9
$FINGERPRINTGUID
  2
{55E465B5-3B9E-478D-8045-983A30E7D355}
  9
$VERSIONGUID
  2
{83B6759B-213C-411F-B8FB-BC17A64F6077}
  9
$EXTNAMES
290
     1
  9
$PSVPSCALE
 40
0.0
  9
$OLESTARTUP
290
     0
  0
ENDSEC
  0
SECTION
  2
CLASSES
  0
CLASS
  1
ACDBDICTIONARYWDFLT
  2
AcDbDictionaryWithDefault
  3
ObjectDBX Classes
 90
        0
280
     0
281
     0
  0
CLASS
  1
MATERIAL
  2
AcDbMaterial
  3
ObjectDBX Classes
 90
     1153
280
     0
281
     0
  0
CLASS
  1
SORTENTSTABLE
  2
AcDbSortentsTable
  3
ObjectDBX Classes
 90
        0
280
     0
281
     0
  0
CLASS
  1
SCALE
  2
AcDbScale
  3
ObjectDBX Classes
 90
     1153
280
     0
281
     0
  0
CLASS
  1
DICTIONARYVAR
  2
AcDbDictionaryVar
  3
ObjectDBX Classes
 90
        0
280
     0
281
     0
  0
CLASS
  1
VISUALSTYLE
  2
AcDbVisualStyle
  3
ObjectDBX Classes
 90
     4095
280
     0
281
     0
  0
CLASS
  1
MLEADERSTYLE
  2
AcDbMLeaderStyle
  3
ACDB_MLEADERSTYLE_CLASS
 90
     4095
280
     0
281
     0
  0
CLASS
  1
TABLESTYLE
  2
AcDbTableStyle
  3
ObjectDBX Classes
 90
     4095
280
     0
281
     0
  0
CLASS
  1
ACDBPLACEHOLDER
  2
AcDbPlaceHolder
  3
ObjectDBX Classes
 90
        0
280
     0
281
     0
  0
CLASS
  1
LAYOUT
  2
AcDbLayout
  3
ObjectDBX Classes
 90
        0
280
     0
281
     0
  0
ENDSEC
  0
SECTION
  2
TABLES
  0
TABLE
  2
VPORT
  5
26
102
{ACAD_XDICTIONARY
360
624
102
}
330
0
100
AcDbSymbolTable
 70
     2
  0
VPORT
  5
2B
330
26
100
AcDbSymbolTableRecord
100
AcDbViewportTableRecord
  2
*Active
 70
     0
 10
0.0
 20
0.0
 11
1.0
 21
1.0
 12
1980.989324324098
 22
964.6205255713303
 13
0.0
 23
0.0
 14
1.0
 24
1.0
 15
50.0
 25
50.0
 16
0.0
 26
0.0
 36
1.0
 17
0.0
 27
0.0
 37
0.0
 40
2221.124983492114
 41
2.174107142857143
 42
50.0
 43
0.0
 44
0.0
 50
0.0
 51
0.0
 71
     0
 72
  5000
 73
     1
 74
     0
 75
     0
 76
     0
 77
     0
 78
     0
281
     0
 65
     1
110
0.0
120
0.0
130
0.0
111
1.0
121
0.0
131
0.0
112
0.0
122
1.0
132
0.0
 79
     0
146
0.0
  0
ENDTAB
  0
TABLE
  2
LTYPE
  5
B
330
0
100
AcDbSymbolTable
 70
     2
  0
LTYPE
  5
C
330
B
100
AcDbSymbolTableRecord
100
AcDbLinetypeTableRecord
  2
BYBLOCK
 70
     0
  3

 72
    65
 73
     0
 40
0.0
  0
LTYPE
  5
D
330
B
100
AcDbSymbolTableRecord
100
AcDbLinetypeTableRecord
  2
BYLAYER
 70
     0
  3

 72
    65
 73
     0
 40
0.0
  0
LTYPE
  5
A
330
B
100
AcDbSymbolTableRecord
100
AcDbLinetypeTableRecord
  2
CONTINUOUS
 70
     0
  3
Solid line
 72
    65
 73
     0
 40
0.0
  0
LTYPE
  5
82
330
B
100
AcDbSymbolTableRecord
100
AcDbLinetypeTableRecord
  2
CENTER
 70
     0
  3
____ _ ____ _ ____ _ ____ _ ____ _ ____ _ ____
 72
    65
 73
     4
 40
2.0
 49
1.25
 74
     0
 49
-0.25
 74
     0
 49
0.25
 74
     0
 49
-0.25
 74
     0
  0
ENDTAB
  0
TABLE
  2
LAYER
  5
2
330
0
100
AcDbSymbolTable
 70
     9
  0
LAYER
  5
1B
330
2
100
AcDbSymbolTableRecord
100
AcDbLayerTableRecord
  2
0
 70
     0
 62
     7
  6
CONTINUOUS
370
    -3
390
3
  0
LAYER
  5
445
330
2
100
AcDbSymbolTableRecord
100
AcDbLayerTableRecord
  2
1
 70
     0
 62
     9
  6
CONTINUOUS
370
    -3
390
3
  0
LAYER
  5
1
330
2
100
AcDbSymbolTableRecord
100
AcDbLayerTableRecord
  2
2
 70
     0
 62
     4
  6
CONTINUOUS
370
    -3
390
3
  0
LAYER
  5
72
330
2
100
AcDbSymbolTableRecord
100
AcDbLayerTableRecord
  2
4
 70
     0
 62
     3
  6
CONTINUOUS
370
    -3
390
3
  0
LAYER
  5
81
330
2
100
AcDbSymbolTableRecord
100
AcDbLayerTableRecord
  2
L-CENTER
 70
     0
 62
     1
  6
CENTER
370
    -3
390
3
  0
LAYER
  5
9D
330
2
100
AcDbSymbolTableRecord
100
AcDbLayerTableRecord
  2
3
 70
     0
 62
     2
  6
CONTINUOUS
370
    -3
390
3
  0
LAYER
  5
43E
330
2
100
AcDbSymbolTableRecord
100
AcDbLayerTableRecord
  2
5
 70
     0
 62
     6
  6
CONTINUOUS
370
    -3
390
3
  0
LAYER
  5
5F0
330
2
100
AcDbSymbolTableRecord
100
AcDbLayerTableRecord
  2
Defpoints
 70
     0
 62
     7
  6
CONTINUOUS
290
     0
370
    -3
390
3
  0
ENDTAB
  0
TABLE
  2
STYLE
  5
F
330
0
100
AcDbSymbolTable
 70
     2
  0
STYLE
  5
13
330
F
100
AcDbSymbolTableRecord
100
AcDbTextStyleTableRecord
  2
STANDARD
 70
     0
 40
0.0
 41
1.0
 50
0.0
 71
     0
 42
12.6
  3
TXT
  4

  0
STYLE
  5
E
330
F
100
AcDbSymbolTableRecord
100
AcDbTextStyleTableRecord
  2
KANJI
 70
     0
 40
0.0
 41
1.0
 50
0.0
 71
     0
 42
21.0
  3
TXT
  4
BIGFONT
  0
ENDTAB
  0
TABLE
  2
VIEW
  5
24
330
0
100
AcDbSymbolTable
 70
     0
  0
ENDTAB
  0
TABLE
  2
UCS
  5
25
330
0
100
AcDbSymbolTable
 70
     0
  0
ENDTAB
  0
TABLE
  2
APPID
  5
9
330
0
100
AcDbSymbolTable
 70
     3
  0
APPID
  5
8
330
9
100
AcDbSymbolTableRecord
100
AcDbRegAppTableRecord
  2
ACAD
 70
     0
  0
APPID
  5
1F
330
9
100
AcDbSymbolTableRecord
100
AcDbRegAppTableRecord
  2
ACAD_PSEXT
 70
     0
  0
APPID
  5
5C7
330
9
100
AcDbSymbolTableRecord
100
AcDbRegAppTableRecord
  2
ACAD_MLEADERVER
 70
     0
  0
ENDTAB
  0
TABLE
  2
DIMSTYLE
  5
12
330
0
100
AcDbSymbolTable
 70
     1
100
AcDbDimStyleTable
  0
DIMSTYLE
105
11
330
12
100
AcDbSymbolTableRecord
100
AcDbDimStyleTableRecord
  2
STANDARD
 70
     0
178
     0
340
13
  0
ENDTAB
  0
TABLE
  2
BLOCK_RECORD
  5
16
330
0
100
AcDbSymbolTable
 70
     0
  0
BLOCK_RECORD
  5
17
102
{ACAD_XDICTIONARY
360
18
102
}
330
16
100
AcDbSymbolTableRecord
100
AcDbBlockTableRecord
  2
*MODEL_SPACE
340
1D
  0
BLOCK_RECORD
  5
20
330
16
100
AcDbSymbolTableRecord
100
AcDbBlockTableRecord
  2
*PAPER_SPACE
340
23
  0
ENDTAB
  0
ENDSEC
  0
SECTION
  2
BLOCKS
  0
BLOCK
  5
1A
330
17
100
AcDbEntity
  8
0
100
AcDbBlockBegin
  2
*MODEL_SPACE
 70
     0
 10
0.0
 20
0.0
 30
0.0
  3
*MODEL_SPACE
  1

  0
ENDBLK
  5
1C
330
17
100
AcDbEntity
  8
0
100
AcDbBlockEnd
  0
BLOCK
  5
21
330
20
100
AcDbEntity
 67
     1
  8
0
100
AcDbBlockBegin
  2
*PAPER_SPACE
 70
     0
 10
0.0
 20
0.0
 30
0.0
  3
*PAPER_SPACE
  1

  0
ENDBLK
  5
22
330
20
100
AcDbEntity
 67
     1
  8
0
100
AcDbBlockEnd
  0
ENDSEC
  0
SECTION
  2
ENTITIES
  0
LINE
  5
71
330
17
100
AcDbEntity
  8
4
100
AcDbLine
 10
712.5475591628806
 20
1883.225021123423
 30
0.0
 11
747.0475591628806
 21
1883.225021123423
 31
0.0
  0
LINE
  5
73
330
17
100
AcDbEntity
  8
4
100
AcDbLine
 10
714.5475591628806
 20
1885.225021123423
 30
0.0
 11
803.5475591628806
 21
1885.225021123423
 31
0.0
  0
LINE
  5
74
330
17
100
AcDbEntity
  8
4
100
AcDbLine
 10
771.0475591628806
 20
1883.225021123423
 30
0.0
 11
805.5475591628806
 21
1883.225021123423
 31
0.0
  0
LINE
  5
75
330
17
100
AcDbEntity
  8
4
100
AcDbLine
 10
805.5475591628806
 20
1883.225021123423
 30
0.0
 11
803.5475591628806
 21
1885.225021123423
 31
0.0
  0
LINE
  5
76
330
17
100
AcDbEntity
  8
4
100
AcDbLine
 10
712.5475591628806
 20
1883.225021123423
 30
0.0
 11
714.5475591628806
 21
1885.225021123423
 31
0.0
  0
LINE
  5
77
330
17
100
AcDbEntity
  8
4
100
AcDbLine
 10
1050.047562162882
 20
283.4451284394354
 30
0.0
 11
1050.047562162882
 21
113.1817064394354
 31
0.0
  0
ARC
  5
78
330
17
100
AcDbEntity
  8
4
100
AcDbCircle
 10
55.54755916288104
 20
388.1817044394354
 30
0.0
 40
999.9999799999999
100
AcDbArc
 50
344.997174
 51
15.00329100000002
  0
LINE
  5
79
330
17
100
AcDbEntity
  8
4
100
AcDbLine
 10
979.0475561628814
 20
148.1817064394354
 30
0.0
 11
979.0475561628814
 21
103.1817024394354
 31
0.0
  0
LINE
  5
7A
330
17
100
AcDbEntity
  8
4
100
AcDbLine
 10
831.2433611628808
 20
270.8850704394354
 30
0.0
 11
817.1359391628816
 21
136.6314124394355
 31
0.0
  0
LINE
  5
7B
330
17
100
AcDbEntity
  8
4
100
AcDbLine
 10
539.0475621628811
 20
148.1817064394354
 30
0.0
 11
539.0475621628811
 21
103.1817024394354
 31
0.0
  0
LINE
  5
7C
330
17
100
AcDbEntity
  8
4
100
AcDbLine
 10
686.8517571628809
 20
270.8850704394354
 30
0.0
 11
700.9591791628809
 21
136.6314124394355
 31
0.0
  0
LINE
  5
7D
330
17
100
AcDbEntity
  8
4
100
AcDbLine
 10
468.0475561628809
 20
283.4451284394354
 30
0.0
 11
468.0475561628809
 21
113.1817064394354
 31
0.0
  0
ARC
  5
7E
330
17
100
AcDbEntity
  8
4
100
AcDbCircle
 10
1462.547559162881
 20
388.1817044394354
 30
0.0
 40
999.9999869999999
100
AcDbArc
 50
164.997041
 51
195.003216
  0
ARC
  5
7F
330
17
100
AcDbEntity
  8
4
100
AcDbCircle
 10
759.0475591628806
 20
388.1817044394354
 30
0.0
 40
263.499999
100
AcDbArc
 50
95.61760396893148
 51
84.38239603106854
  0
LINE
  5
80
330
17
100
AcDbEntity
  8
L-CENTER
 48
2.0
100
AcDbLine
 10
759.0475591628806
 20
903.181707439436
 30
0.0
 11
759.0475591628806
 21
76.73932773444608
 31
0.0
  0
LINE
  5
83
330
17
100
AcDbEntity
  8
4
100
AcDbLine
 10
554.0475611628813
 20
148.1817064394354
 30
0.0
 11
554.0475611628813
 21
48.1817014394353
 31
0.0
  0
LINE
  5
84
330
17
100
AcDbEntity
  8
4
100
AcDbLine
 10
964.0475571628817
 20
148.1817064394354
 30
0.0
 11
964.0475571628817
 21
48.1817014394353
 31
0.0
  0
CIRCLE
  5
85
330
17
100
AcDbEntity
  8
4
100
AcDbCircle
 10
759.0475591628806
 20
388.1817044394354
 30
0.0
 40
293.499997
  0
ARC
  5
86
330
17
100
AcDbEntity
  8
4
100
AcDbCircle
 10
759.0478041628817
 20
1091.681949439436
 30
0.0
 40
999.999952
100
AcDbArc
 50
254.9967529999999
 51
257.29121
  0
LINE
  5
87
330
17
100
AcDbEntity
  8
4
100
AcDbLine
 10
551.0475571628808
 20
103.1817024394354
 30
0.0
 11
422.0475601628809
 21
103.1817024394354
 31
0.0
  0
LINE
  5
88
330
17
100
AcDbEntity
  8
4
100
AcDbLine
 10
589.0475611628808
 20
48.1817014394353
 30
0.0
 11
419.0475561628809
 21
48.1817014394353
 31
0.0
  0
LINE
  5
8F
330
17
100
AcDbEntity
  8
4
100
AcDbLine
 10
419.0475561628809
 20
48.1817014394353
 30
0.0
 11
419.0475561628809
 21
100.1817054394355
 31
0.0
  0
LINE
  5
90
330
17
100
AcDbEntity
  8
L-CENTER
 48
2.0
100
AcDbLine
 10
479.047559162881
 20
125.1817024394354
 30
0.0
 11
479.047559162881
 21
26.1817014394353
 31
0.0
  0
ARC
  5
91
330
17
100
AcDbEntity
  8
4
100
AcDbCircle
 10
422.0475601628809
 20
100.1817054394355
 30
0.0
 40
2.999997
100
AcDbArc
 50
90.0
 51
180.0
  0
ARC
  5
92
330
17
100
AcDbEntity
  8
4
100
AcDbCircle
 10
458.047559162881
 20
113.1817064394354
 30
0.0
 40
9.999996999999999
100
AcDbArc
 50
270.0
 51
0.0
  0
LINE
  5
93
330
17
100
AcDbEntity
  8
4
100
AcDbLine
 10
465.047559162881
 20
106.0402784394355
 30
0.0
 11
465.047559162881
 21
118.1817014394353
 31
0.0
  0
LINE
  5
94
330
17
100
AcDbEntity
  8
4
100
AcDbLine
 10
465.047559162881
 20
110.6817054394355
 30
0.0
 11
463.5475571628808
 21
110.6817054394355
 31
0.0
  0
LINE
  5
95
330
17
100
AcDbEntity
  8
4
100
AcDbLine
 10
463.5475571628808
 20
104.8300554394352
 30
0.0
 11
463.5475571628808
 21
110.6817054394355
 31
0.0
  0
LINE
  5
96
330
17
100
AcDbEntity
  8
4
100
AcDbLine
 10
465.047559162881
 20
118.1817014394353
 30
0.0
 11
468.0475561628809
 21
118.1817014394353
 31
0.0
  0
ARC
  5
97
330
17
100
AcDbEntity
  8
4
100
AcDbCircle
 10
501.4662631628808
 20
130.6008914394354
 30
0.0
 40
5.000016
100
AcDbArc
 50
195.0038580000004
 51
254.9988459999981
  0
ARC
  5
98
330
17
100
AcDbEntity
  8
4
100
AcDbCircle
 10
759.0473141628813
 20
1091.681949439436
 30
0.0
 40
999.999952
100
AcDbArc
 50
282.709235
 51
285.0036810000001
  0
LINE
  5
99
330
17
100
AcDbEntity
  8
4
100
AcDbLine
 10
967.0475611628813
 20
103.1817024394354
 30
0.0
 11
1096.04755816288
 21
103.1817024394354
 31
0.0
  0
LINE
  5
9A
330
17
100
AcDbEntity
  8
4
100
AcDbLine
 10
929.0475571628817
 20
48.1817014394353
 30
0.0
 11
1099.047562162882
 21
48.1817014394353
 31
0.0
  0
LINE
  5
9B
330
17
100
AcDbEntity
  8
4
100
AcDbLine
 10
855.0475611628813
 20
88.1817034394353
 30
0.0
 11
663.0475571628813
 21
88.1817034394353
 31
0.0
  0
ARC
  5
9F
330
17
100
AcDbEntity
  8
4
100
AcDbCircle
 10
759.0478041628817
 20
1091.681949439436
 30
0.0
 40
999.9999590000002
100
AcDbArc
 50
258.170657
 51
281.829485
  0
LINE
  5
A0
330
17
100
AcDbEntity
  8
4
100
AcDbLine
 10
596.438427162881
 20
70.17926443943543
 30
0.0
 11
663.0475571628813
 21
88.1817034394353
 31
0.0
  0
ARC
  5
A1
330
17
100
AcDbEntity
  8
4
100
AcDbCircle
 10
599.0475581628812
 20
60.52569743943536
 30
0.0
 40
9.999969
100
AcDbArc
 50
105.1243370000003
 51
180.0
  0
LINE
  5
A2
330
17
100
AcDbEntity
  8
4
100
AcDbLine
 10
589.0475611628808
 20
60.52569743943536
 30
0.0
 11
589.0475611628808
 21
48.1817014394353
 31
0.0
  0
ARC
  5
A3
330
17
100
AcDbEntity
  8
4
100
AcDbCircle
 10
551.0475571628808
 20
100.1817054394355
 30
0.0
 40
2.999997
100
AcDbArc
 50
0.0
 51
90.0
  0
ARC
  5
A4
330
17
100
AcDbEntity
  8
4
100
AcDbCircle
 10
696.9811561628812
 20
136.2134424394355
 30
0.0
 40
3.999919
100
AcDbArc
 50
256.1605359999976
 51
5.998026999999534
  0
LINE
  5
A5
330
17
100
AcDbEntity
  8
4
100
AcDbLine
 10
921.6566911628811
 20
70.17926443943543
 30
0.0
 11
855.0475611628813
 21
88.1817034394353
 31
0.0
  0
ARC
  5
A6
330
17
100
AcDbEntity
  8
4
100
AcDbCircle
 10
821.113969162881
 20
136.2134424394355
 30
0.0
 40
3.999919
100
AcDbArc
 50
174.0019740000006
 51
283.8394640000024
  0
ARC
  5
A7
330
17
100
AcDbEntity
  8
4
100
AcDbCircle
 10
919.0475601628809
 20
60.52569743943536
 30
0.0
 40
9.999969
100
AcDbArc
 50
0.0
 51
74.87566299999703
  0
LWPOLYLINE
  5
A8
330
17
100
AcDbEntity
  8
4
100
AcDbPolyline
 90
       43
 70
     0
 43
0.0
 10
1007.940791162881
 20
103.1817024394354
 10
1007.501520162882
 20
102.4268434394355
 10
1007.120447162881
 20
101.6572004394354
 10
1006.804579162882
 20
100.8710024394354
 10
1006.560923162881
 20
100.0664714394354
 10
1006.396479162881
 20
99.24182243943528
 10
1006.318268162881
 20
98.3952844394355
 10
1006.358385162881
 20
97.09813543943528
 10
1006.519798162881
 20
95.7708164394353
 10
1006.718059162881
 20
94.43542643943533
 10
1006.86872016288
 20
93.11403643943527
 10
1006.887340162881
 20
91.82873143943539
 10
1006.689464162881
 20
90.6015964394353
 10
1006.321145162882
 20
89.6525784394355
 10
1005.787290162881
 20
88.74838143943543
 10
1005.12392116288
 20
87.88008743943533
 10
1002.716789162881
 20
85.40148543943542
 10
1000.440319162881
 20
82.92502543943533
 10
999.8785831628816
 20
82.05839743943557
 10
999.4753971628811
 20
81.15633543943545
 10
999.266783162881
 20
80.20992843943532
 10
999.3195071628811
 20
78.84785443943542
 10
999.6482061628817
 20
77.41935743943554
 10
1000.104305162881
 20
75.9560704394355
 10
1000.539243162881
 20
74.48964743943543
 10
1000.804445162882
 20
73.05172143943537
 10
1000.751357162881
 20
71.67395343943531
 10
1000.157120162882
 20
70.15825743943537
 10
999.1366041628812
 20
68.73107643943536
 10
997.9094411628816
 20
67.35393143943543
 10
996.6952561628809
 20
65.98835043943541
 10
995.7136811628811
 20
64.59585443943547
 10
995.1843411628811
 20
63.13796443943534
 10
995.2244371628808
 20
61.72698143943535
 10
995.6455641628804
 20
60.25437043943543
 10
996.2693271628809
 20
58.74499543943534
 10
996.9173031628811
 20
57.22370643943555
 10
997.4110901628815
 20
55.71537443943521
 10
997.6098551628806
 20
54.14129843943533
 10
997.4709191628813
 20
52.6056104394354
 10
997.0358481628814
 20
51.10359943943536
 10
996.3461731628809
 20
49.63054043943544
 10
995.4434391628806
 20
48.1817014394353
  0
LINE
  5
A9
330
17
100
AcDbEntity
  8
4
100
AcDbLine
 10
929.0475571628817
 20
60.52569743943536
 30
0.0
 11
929.0475571628817
 21
48.1817014394353
 31
0.0
  0
ARC
  5
AA
330
17
100
AcDbEntity
  8
4
100
AcDbCircle
 10
967.0475611628813
 20
100.1817054394355
 30
0.0
 40
2.999997
100
AcDbArc
 50
90.0
 51
180.0
  0
TEXT
  5
AC
330
17
100
AcDbEntity
  8
3
100
AcDbText
 10
1295.85407279918
 20
40.03430588860522
 30
0.0
 40
21.0
  1
4×φ26
  7
KANJI
100
AcDbText
  0
LINE
  5
B4
330
17
100
AcDbEntity
  8
4
100
AcDbLine
 10
1099.047562162882
 20
48.1817014394353
 30
0.0
 11
1099.047562162882
 21
100.1817054394355
 31
0.0
  0
LINE
  5
B5
330
17
100
AcDbEntity
  8
4
100
AcDbLine
 10
1026.04755816288
 20
103.1817024394354
 30
0.0
 11
1026.04755816288
 21
48.1817014394353
 31
0.0
  0
LINE
  5
B6
330
17
100
AcDbEntity
  8
L-CENTER
100
AcDbLine
 10
1039.047559162881
 20
125.1817024394354
 30
0.0
 11
1039.047559162881
 21
26.1817014394353
 31
0.0
  0
LINE
  5
B7
330
17
100
AcDbEntity
  8
4
100
AcDbLine
 10
1052.047560162881
 20
103.1817024394354
 30
0.0
 11
1052.047560162881
 21
48.1817014394353
 31
0.0
  0
ARC
  5
B9
330
17
100
AcDbEntity
  8
4
100
AcDbCircle
 10
1060.047559162881
 20
113.1817064394354
 30
0.0
 40
9.999996999999999
100
AcDbArc
 50
180.0
 51
270.0
  0
ARC
  5
BA
330
17
100
AcDbEntity
  8
4
100
AcDbCircle
 10
1016.628855162881
 20
130.6008914394354
 30
0.0
 40
5.000016
100
AcDbArc
 50
285.0011650000034
 51
344.9961450000004
  0
ARC
  5
BB
330
17
100
AcDbEntity
  8
4
100
AcDbCircle
 10
1096.04755816288
 20
100.1817054394355
 30
0.0
 40
2.999997
100
AcDbArc
 50
0.0
 51
90.0
  0
LINE
  5
C2
330
17
100
AcDbEntity
  8
4
100
AcDbLine
 10
506.0475601628809
 20
831.1817024394352
 30
0.0
 11
522.0475581628812
 21
831.1817024394352
 31
0.0
  0
LINE
  5
C3
330
17
100
AcDbEntity
  8
4
100
AcDbLine
 10
522.0475581628812
 20
833.1817074394355
 30
0.0
 11
506.0475601628809
 21
833.1817074394355
 31
0.0
  0
LINE
  5
C4
330
17
100
AcDbEntity
  8
4
100
AcDbLine
 10
522.0475581628812
 20
834.1817064394356
 30
0.0
 11
508.0475581628812
 21
834.1817064394356
 31
0.0
  0
LINE
  5
C5
330
17
100
AcDbEntity
  8
4
100
AcDbLine
 10
526.297559162881
 20
807.1817054394357
 30
0.0
 11
517.7975571628808
 21
807.1817054394357
 31
0.0
  0
ARC
  5
C6
330
17
100
AcDbEntity
  8
4
100
AcDbCircle
 10
517.7975571628808
 20
797.6504564394356
 30
0.0
 40
9.531249
100
AcDbArc
 50
63.51896000000171
 51
116.4810399999983
  0
LINE
  5
C7
330
17
100
AcDbEntity
  8
4
100
AcDbLine
 10
522.0475581628812
 20
815.1817044394354
 30
0.0
 11
507.047559162881
 21
815.1817044394354
 31
0.0
  0
LINE
  5
C8
330
17
100
AcDbEntity
  8
4
100
AcDbLine
 10
641.7509251628808
 20
315.9859024394354
 30
0.0
 11
507.4972671628811
 21
330.0933244394355
 31
0.0
  0
LINE
  5
C9
330
17
100
AcDbEntity
  8
4
100
AcDbLine
 10
641.7509251628808
 20
460.3775064394356
 30
0.0
 11
507.4972671628811
 21
446.2700844394355
 31
0.0
  0
LINE
  5
CA
330
17
100
AcDbEntity
  8
L-CENTER
 48
2.0
100
AcDbLine
 10
1070.489935867871
 20
388.1817044394354
 30
0.0
 11
447.6051824578917
 21
388.1817044394354
 31
0.0
  0
ARC
  5
CB
330
17
100
AcDbEntity
  8
4
100
AcDbCircle
 10
759.0478041628817
 20
-315.3185405605645
 30
0.0
 40
999.999945
100
AcDbArc
 50
74.99665200000001
 51
105.0035540000001
  0
LINE
  5
CC
330
17
100
AcDbEntity
  8
4
100
AcDbLine
 10
1046.047559162881
 20
800.1817054394357
 30
0.0
 11
472.047559162881
 21
800.1817054394357
 31
0.0
  0
LINE
  5
CD
330
17
100
AcDbEntity
  8
L-CENTER
 48
2.0
100
AcDbLine
 10
1088.44643116288
 20
683.1817034394351
 30
0.0
 11
296.8412481628807
 21
683.1817034394351
 31
0.0
  0
LINE
  5
CF
330
17
100
AcDbEntity
  8
4
100
AcDbLine
 10
467.0475571628808
 20
568.6817024394352
 30
0.0
 11
467.0475571628808
 21
797.6817044394354
 31
0.0
  0
LINE
  5
D0
330
17
100
AcDbEntity
  8
4
100
AcDbLine
 10
472.047559162881
 20
710.6817074394355
 30
0.0
 11
472.047559162881
 21
800.1817054394357
 31
0.0
  0
LINE
  5
D1
330
17
100
AcDbEntity
  8
4
100
AcDbLine
 10
446.6476591628812
 20
569.6817014394353
 30
0.0
 11
446.6476591628812
 21
796.6817054394348
 31
0.0
  0
LINE
  5
D2
330
17
100
AcDbEntity
  8
4
100
AcDbLine
 10
459.5475611628813
 20
277.1817034394353
 30
0.0
 11
454.547559162881
 21
277.1817034394353
 31
0.0
  0
LINE
  5
D3
330
17
100
AcDbEntity
  8
L-CENTER
 48
2.0
100
AcDbLine
 10
448.2793251628809
 20
268.1817054394355
 30
0.0
 11
499.039391789177
 21
268.1817054394355
 31
0.0
  0
LINE
  5
D4
330
17
100
AcDbEntity
  8
4
100
AcDbLine
 10
461.547559162881
 20
286.1817014394353
 30
0.0
 11
454.547559162881
 21
286.1817014394353
 31
0.0
  0
LINE
  5
D5
330
17
100
AcDbEntity
  8
4
100
AcDbLine
 10
461.547559162881
 20
250.1817024394356
 30
0.0
 11
454.547559162881
 21
250.1817024394356
 31
0.0
  0
LINE
  5
D6
330
17
100
AcDbEntity
  8
4
100
AcDbLine
 10
459.5475611628813
 20
259.1817074394355
 30
0.0
 11
454.547559162881
 21
259.1817074394355
 31
0.0
  0
LINE
  5
D7
330
17
100
AcDbEntity
  8
4
100
AcDbLine
 10
454.547559162881
 20
250.1817024394356
 30
0.0
 11
454.547559162881
 21
286.1817014394353
 31
0.0
  0
LINE
  5
D8
330
17
100
AcDbEntity
  8
4
100
AcDbLine
 10
463.0475611628813
 20
288.1817064394352
 30
0.0
 11
463.0475611628813
 21
248.1817044394354
 31
0.0
  0
LINE
  5
D9
330
17
100
AcDbEntity
  8
4
100
AcDbLine
 10
459.5475611628813
 20
250.1817024394356
 30
0.0
 11
459.5475611628813
 21
286.1817014394353
 31
0.0
  0
LINE
  5
DA
330
17
100
AcDbEntity
  8
4
100
AcDbLine
 10
461.547559162881
 20
250.1817024394356
 30
0.0
 11
461.547559162881
 21
286.1817014394353
 31
0.0
  0
LINE
  5
DB
330
17
100
AcDbEntity
  8
4
100
AcDbLine
 10
463.0475611628813
 20
251.1817014394353
 30
0.0
 11
463.0475611628813
 21
285.1817024394356
 31
0.0
  0
LINE
  5
DC
330
17
100
AcDbEntity
  8
4
100
AcDbLine
 10
461.547559162881
 20
251.1817014394353
 30
0.0
 11
463.0475611628813
 21
251.1817014394353
 31
0.0
  0
LINE
  5
DD
330
17
100
AcDbEntity
  8
4
100
AcDbLine
 10
468.0475561628809
 20
248.1817044394354
 30
0.0
 11
463.0475611628813
 21
248.1817044394354
 31
0.0
  0
LINE
  5
DE
330
17
100
AcDbEntity
  8
4
100
AcDbLine
 10
463.0475611628813
 20
285.1817024394356
 30
0.0
 11
461.547559162881
 21
285.1817024394356
 31
0.0
  0
LINE
  5
DF
330
17
100
AcDbEntity
  8
4
100
AcDbLine
 10
463.0475611628813
 20
288.1817064394352
 30
0.0
 11
467.5600131628808
 21
288.1817064394352
 31
0.0
  0
ARC
  5
E0
330
17
100
AcDbEntity
  8
4
100
AcDbCircle
 10
507.0792971628812
 20
326.1152944394355
 30
0.0
 40
3.999919
100
AcDbArc
 50
84.00198900000268
 51
193.8394639999988
  0
ARC
  5
E1
330
17
100
AcDbEntity
  8
4
100
AcDbCircle
 10
507.0792971628812
 20
450.2481074394352
 30
0.0
 40
3.999919
100
AcDbArc
 50
166.1605360000012
 51
275.9980130000007
  0
LINE
  5
E2
330
17
100
AcDbEntity
  8
4
100
AcDbLine
 10
472.047559162881
 20
525.6944014394355
 30
0.0
 11
472.047559162881
 21
655.6817064394356
 31
0.0
  0
LINE
  5
E3
330
17
100
AcDbEntity
  8
4
100
AcDbLine
 10
447.6476551628812
 20
568.6817054394348
 30
0.0
 11
472.0475591628815
 21
568.6817054394344
 31
0.0
  0
ARC
  5
E4
330
17
100
AcDbEntity
  8
4
100
AcDbCircle
 10
447.6476551628812
 20
569.6817014394353
 30
0.0
 40
1.000002
100
AcDbArc
 50
180.0
 51
270.0
  0
ARC
  5
E5
330
17
100
AcDbEntity
  8
4
100
AcDbCircle
 10
467.0475571628808
 20
655.6817064394356
 30
0.0
 40
5.000002
100
AcDbArc
 50
0.0
 51
90.0
  0
ARC
  5
E6
330
17
100
AcDbEntity
  8
4
100
AcDbCircle
 10
501.4665081628809
 20
645.7627554394355
 30
0.0
 40
5.000051000000001
100
AcDbArc
 50
105.0038660000003
 51
164.9961340000001
  0
ARC
  5
E7
330
17
100
AcDbEntity
  8
4
100
AcDbCircle
 10
467.0475571628808
 20
710.6817074394355
 30
0.0
 40
5.000002
100
AcDbArc
 50
270.0
 51
0.0
  0
LINE
  5
E8
330
17
100
AcDbEntity
  8
4
100
AcDbLine
 10
447.6476551628812
 20
797.6817014394353
 30
0.0
 11
472.1034691628811
 21
797.6817014394353
 31
0.0
  0
ARC
  5
E9
330
17
100
AcDbEntity
  8
4
100
AcDbCircle
 10
447.6476551628812
 20
796.6817054394348
 30
0.0
 40
1.000002
100
AcDbArc
 50
90.0
 51
180.0
  0
LINE
  5
EA
330
17
100
AcDbEntity
  8
4
100
AcDbLine
 10
507.047559162881
 20
815.1817044394354
 30
0.0
 11
507.047559162881
 21
831.1817024394352
 31
0.0
  0
ARC
  5
EB
330
17
100
AcDbEntity
  8
4
100
AcDbCircle
 10
507.5475621628811
 20
809.1817034394351
 30
0.0
 40
6.000001
100
AcDbArc
 50
0.0
 51
90.0
  0
LINE
  5
EC
330
17
100
AcDbEntity
  8
4
100
AcDbLine
 10
513.5475561628809
 20
809.1817034394351
 30
0.0
 11
513.5475561628809
 21
800.1817054394357
 31
0.0
  0
LINE
  5
ED
330
17
100
AcDbEntity
  8
4
100
AcDbLine
 10
508.0475581628812
 20
834.1817064394356
 30
0.0
 11
506.0475601628809
 21
833.1817074394355
 31
0.0
  0
LINE
  5
EE
330
17
100
AcDbEntity
  8
4
100
AcDbLine
 10
506.0475601628809
 20
831.1817024394352
 30
0.0
 11
506.0475601628809
 21
833.1817074394355
 31
0.0
  0
LINE
  5
F2
330
17
100
AcDbEntity
  8
L-CENTER
 48
2.0
100
AcDbLine
 10
599.0475581628812
 20
821.2317624394352
 30
0.0
 11
599.0475581628812
 21
780.1896708651154
 31
0.0
  0
LINE
  5
F3
330
17
100
AcDbEntity
  8
L-CENTER
 48
2.0
100
AcDbLine
 10
522.0475581628812
 20
839.7312084394355
 30
0.0
 11
522.0475581628812
 21
785.3234280635431
 31
0.0
  0
LINE
  5
F5
330
17
100
AcDbEntity
  8
4
100
AcDbLine
 10
1051.047561162881
 20
568.6817024394352
 30
0.0
 11
1051.047561162881
 21
797.6817044394354
 31
0.0
  0
LINE
  5
F7
330
17
100
AcDbEntity
  8
4
100
AcDbLine
 10
1071.447459162881
 20
796.6817054394348
 30
0.0
 11
1071.447459162881
 21
569.6817014394353
 31
0.0
  0
LINE
  5
F8
330
17
100
AcDbEntity
  8
4
100
AcDbLine
 10
1046.047559162881
 20
710.6817074394355
 30
0.0
 11
1046.047559162881
 21
800.1817054394357
 31
0.0
  0
ARC
  5
F9
330
17
100
AcDbEntity
  8
4
100
AcDbCircle
 10
1011.015821162881
 20
450.2481074394352
 30
0.0
 40
3.999919
100
AcDbArc
 50
264.0019730000022
 51
13.8394639999992
  0
ARC
  5
FA
330
17
100
AcDbEntity
  8
4
100
AcDbCircle
 10
1011.015821162881
 20
326.1152944394355
 30
0.0
 40
3.999919
100
AcDbArc
 50
346.1605360000008
 51
95.99802599999295
  0
ARC
  5
FB
330
17
100
AcDbEntity
  8
4
100
AcDbCircle
 10
1144.047559162881
 20
388.1814594394355
 30
0.0
 40
499.999997
100
AcDbArc
 50
168.365257
 51
191.634886
  0
ARC
  5
FC
330
17
100
AcDbEntity
  8
4
100
AcDbCircle
 10
1151.047559162881
 20
388.1814594394355
 30
0.0
 40
499.999934
100
AcDbArc
 50
169.0540530000001
 51
190.946089
  0
ARC
  5
FD
330
17
100
AcDbEntity
  8
4
100
AcDbCircle
 10
374.047559162881
 20
388.1814594394355
 30
0.0
 40
500.000018
100
AcDbArc
 50
348.365427
 51
11.63493999999998
  0
ARC
  5
FE
330
17
100
AcDbEntity
  8
4
100
AcDbCircle
 10
367.047559162881
 20
388.1814594394355
 30
0.0
 40
499.999934
100
AcDbArc
 50
349.054196
 51
10.946232
  0
ARC
  5
FF
330
17
100
AcDbEntity
  8
4
100
AcDbCircle
 10
759.0475591628806
 20
780.1817044394354
 30
0.0
 40
500.000018
100
AcDbArc
 50
259.053998
 51
280.9461720000001
  0
ARC
  5
100
330
17
100
AcDbEntity
  8
4
100
AcDbCircle
 10
759.0475591628806
 20
773.1817044394354
 30
0.0
 40
500.000018
100
AcDbArc
 50
258.3652299999999
 51
281.63492
  0
LINE
  5
101
330
17
100
AcDbEntity
  8
4
100
AcDbLine
 10
539.0475621628811
 20
148.1817064394354
 30
0.0
 11
554.0475611628813
 21
148.1817064394354
 31
0.0
  0
ARC
  5
102
330
17
100
AcDbEntity
  8
4
100
AcDbCircle
 10
659.2184591628811
 20
288.3526044394355
 30
0.0
 40
4.999939
100
AcDbArc
 50
191.6342
 51
258.3658
  0
ARC
  5
103
330
17
100
AcDbEntity
  8
4
100
AcDbCircle
 10
665.0536661628812
 20
294.1878044394355
 30
0.0
 40
4.999910999999999
100
AcDbArc
 50
190.9467090000004
 51
259.0532890000006
  0
ARC
  5
104
330
17
100
AcDbEntity
  8
4
100
AcDbCircle
 10
676.9066891628809
 20
269.8399074394354
 30
0.0
 40
10.000011
100
AcDbArc
 50
5.999267999999933
 51
80.73153799999903
  0
ARC
  5
105
330
17
100
AcDbEntity
  8
4
100
AcDbCircle
 10
640.7060071628812
 20
470.3225744394356
 30
0.0
 40
9.999996999999999
100
AcDbArc
 50
275.9978719999987
 51
350.731537
  0
ARC
  5
106
330
17
100
AcDbEntity
  8
4
100
AcDbCircle
 10
640.705762162881
 20
306.0408344394355
 30
0.0
 40
10.000011
100
AcDbArc
 50
9.26845599999964
 51
84.0007320000007
  0
ARC
  5
107
330
17
100
AcDbEntity
  8
4
100
AcDbCircle
 10
841.1884291628817
 20
269.8399074394354
 30
0.0
 40
10.000011
100
AcDbArc
 50
99.2684560000036
 51
174.0007320000008
  0
ARC
  5
108
330
17
100
AcDbEntity
  8
4
100
AcDbCircle
 10
853.041459162881
 20
294.1878044394355
 30
0.0
 40
4.999910999999999
100
AcDbArc
 50
280.9467110000047
 51
349.0532890000007
  0
ARC
  5
109
330
17
100
AcDbEntity
  8
4
100
AcDbCircle
 10
858.8766591628814
 20
288.3526044394355
 30
0.0
 40
4.999939
100
AcDbArc
 50
281.6341999999893
 51
348.3658
  0
LINE
  5
10A
330
17
100
AcDbEntity
  8
4
100
AcDbLine
 10
979.0475561628814
 20
148.1817064394354
 30
0.0
 11
964.0475571628817
 21
148.1817064394354
 31
0.0
  0
LINE
  5
10B
330
17
100
AcDbEntity
  8
4
100
AcDbLine
 10
876.3441931628809
 20
460.3775064394356
 30
0.0
 11
1010.59785116288
 21
446.2700844394355
 31
0.0
  0
LINE
  5
10C
330
17
100
AcDbEntity
  8
4
100
AcDbLine
 10
876.3441931628809
 20
315.9859024394354
 30
0.0
 11
1010.59785116288
 21
330.0933244394355
 31
0.0
  0
ARC
  5
10D
330
17
100
AcDbEntity
  8
4
100
AcDbCircle
 10
877.3893561628815
 20
306.0408344394355
 30
0.0
 40
10.000011
100
AcDbArc
 50
95.99926800000198
 51
170.7315440000017
  0
ARC
  5
10E
330
17
100
AcDbEntity
  8
4
100
AcDbCircle
 10
877.3891111628805
 20
470.3225744394356
 30
0.0
 40
9.999996999999999
100
AcDbArc
 50
189.2684620000003
 51
264.0021230000042
  0
ARC
  5
10F
330
17
100
AcDbEntity
  8
4
100
AcDbCircle
 10
759.0475591628806
 20
-3.818295560564593
 30
0.0
 40
500.000032
100
AcDbArc
 50
79.05382799999997
 51
100.946314
  0
ARC
  5
110
330
17
100
AcDbEntity
  8
4
100
AcDbCircle
 10
759.0475591628806
 20
3.181704439435407
 30
0.0
 40
499.999976
100
AcDbArc
 50
78.36510699999998
 51
101.634858
  0
ARC
  5
111
330
17
100
AcDbEntity
  8
4
100
AcDbCircle
 10
659.2187041628808
 20
488.0108044394353
 30
0.0
 40
4.999967000000001
100
AcDbArc
 50
101.6369389999988
 51
168.365800000001
  0
ARC
  5
112
330
17
100
AcDbEntity
  8
4
100
AcDbCircle
 10
665.0536661628812
 20
482.1755974394353
 30
0.0
 40
4.999910999999999
100
AcDbArc
 50
100.9467089999976
 51
169.0532909999996
  0
ARC
  5
113
330
17
100
AcDbEntity
  8
4
100
AcDbCircle
 10
853.041459162881
 20
482.1755974394353
 30
0.0
 40
4.999910999999999
100
AcDbArc
 50
10.94671099999932
 51
79.05329099999679
  0
ARC
  5
114
330
17
100
AcDbEntity
  8
4
100
AcDbCircle
 10
858.8764141628812
 20
488.0108044394353
 30
0.0
 40
4.999967000000001
100
AcDbArc
 50
11.63419999999898
 51
78.36306099999615
  0
LINE
  5
117
330
17
100
AcDbEntity
  8
4
100
AcDbLine
 10
1046.047559162881
 20
525.6944014394355
 30
0.0
 11
1046.047559162881
 21
655.6817064394356
 31
0.0
  0
LINE
  5
118
330
17
100
AcDbEntity
  8
L-CENTER
 48
2.0
100
AcDbLine
 10
1088.44643116288
 20
598.7444474394349
 30
0.0
 11
1025.865429162881
 21
598.7444474394349
 31
0.0
  0
ARC
  5
119
330
17
100
AcDbEntity
  8
4
100
AcDbCircle
 10
1070.44746316288
 20
569.6817014394353
 30
0.0
 40
1.000002
100
AcDbArc
 50
270.0
 51
0.0
  0
LINE
  5
11A
330
17
100
AcDbEntity
  8
4
100
AcDbLine
 10
1070.44746316288
 20
568.6817054394348
 30
0.0
 11
1046.047559162881
 21
568.6817054394348
 31
0.0
  0
ARC
  5
123
330
17
100
AcDbEntity
  8
4
100
AcDbCircle
 10
1051.047561162881
 20
655.6817064394356
 30
0.0
 40
5.000002
100
AcDbArc
 50
90.0
 51
180.0
  0
ARC
  5
124
330
17
100
AcDbEntity
  8
4
100
AcDbCircle
 10
1016.62861716288
 20
645.7627554394355
 30
0.0
 40
5.000051000000001
100
AcDbArc
 50
15.00386600000025
 51
74.996133999989
  0
ARC
  5
125
330
17
100
AcDbEntity
  8
4
100
AcDbCircle
 10
1051.047561162881
 20
710.6817074394355
 30
0.0
 40
5.000002
100
AcDbArc
 50
180.0
 51
270.0
  0
LINE
  5
126
330
17
100
AcDbEntity
  8
L-CENTER
 48
2.0
100
AcDbLine
 10
1088.44643116288
 20
767.6189594394352
 30
0.0
 11
1025.865429162881
 21
767.6189594394352
 31
0.0
  0
LINE
  5
130
330
17
100
AcDbEntity
  8
4
100
AcDbLine
 10
741.7614231628818
 20
821.1817054394357
 30
0.0
 11
776.3336951628812
 21
821.1817054394357
 31
0.0
  0
LINE
  5
131
330
17
100
AcDbEntity
  8
4
100
AcDbLine
 10
759.0475591628806
 20
823.1817034394351
 30
0.0
 11
776.5395021628815
 21
821.1697424394354
 31
0.0
  0
CIRCLE
  5
132
330
17
100
AcDbEntity
  8
4
100
AcDbCircle
 10
759.0475591628806
 20
848.1817064394356
 30
0.0
 40
25.000003
  0
LINE
  5
133
330
17
100
AcDbEntity
  8
4
100
AcDbLine
 10
736.5475571628817
 20
803.1817024394352
 30
0.0
 11
781.5475611628813
 21
803.1817024394352
 31
0.0
  0
LINE
  5
134
330
17
100
AcDbEntity
  8
4
100
AcDbLine
 10
734.0475561628814
 20
803.1817024394352
 30
0.0
 11
784.0475621628816
 21
803.1817024394352
 31
0.0
  0
ARC
  5
135
330
17
100
AcDbEntity
  8
4
100
AcDbCircle
 10
759.0475591628806
 20
848.1817064394356
 30
0.0
 40
45.000011
100
AcDbArc
 50
307.2407440000011
 51
232.7601280000011
  0
LINE
  5
136
330
17
100
AcDbEntity
  8
L-CENTER
 48
2.0
100
AcDbLine
 10
704.0475581628807
 20
848.1817064394356
 30
0.0
 11
814.0475601628809
 21
848.1817064394356
 31
0.0
  0
LINE
  5
139
330
17
100
AcDbEntity
  8
4
100
AcDbLine
 10
576.0475601628809
 20
804.6817044394354
 30
0.0
 11
622.0475561628809
 21
804.6817044394354
 31
0.0
  0
LINE
  5
13A
330
17
100
AcDbEntity
  8
4
100
AcDbLine
 10
576.0475601628809
 20
808.6817074394355
 30
0.0
 11
622.0475561628809
 21
808.6817074394355
 31
0.0
  0
LINE
  5
13B
330
17
100
AcDbEntity
  8
4
100
AcDbLine
 10
574.0475621628811
 20
803.1817024394352
 30
0.0
 11
624.0475611628808
 21
803.1817024394352
 31
0.0
  0
LINE
  5
13C
330
17
100
AcDbEntity
  8
4
100
AcDbLine
 10
577.047559162881
 20
803.1817024394352
 30
0.0
 11
621.0475571628813
 21
803.1817024394352
 31
0.0
  0
LINE
  5
13D
330
17
100
AcDbEntity
  8
4
100
AcDbLine
 10
576.0475601628809
 20
813.6817024394352
 30
0.0
 11
622.0475561628809
 21
813.6817024394352
 31
0.0
  0
LINE
  5
13E
330
17
100
AcDbEntity
  8
4
100
AcDbLine
 10
537.0475571628808
 20
815.1817044394354
 30
0.0
 11
537.0475571628808
 21
831.1817024394352
 31
0.0
  0
ARC
  5
13F
330
17
100
AcDbEntity
  8
4
100
AcDbCircle
 10
536.5475611628813
 20
809.1817034394351
 30
0.0
 40
6.000001
100
AcDbArc
 50
90.0
 51
180.0
  0
ARC
  5
140
330
17
100
AcDbEntity
  8
4
100
AcDbCircle
 10
526.297559162881
 20
797.6504564394356
 30
0.0
 40
9.531249
100
AcDbArc
 50
63.51895999999864
 51
116.4810400000014
  0
LINE
  5
141
330
17
100
AcDbEntity
  8
4
100
AcDbLine
 10
530.5475601628809
 20
800.1817054394357
 30
0.0
 11
530.5475601628809
 21
809.1817034394351
 31
0.0
  0
LINE
  5
142
330
17
100
AcDbEntity
  8
4
100
AcDbLine
 10
522.0475581628812
 20
815.1817044394354
 30
0.0
 11
537.0475571628808
 21
815.1817044394354
 31
0.0
  0
LINE
  5
143
330
17
100
AcDbEntity
  8
4
100
AcDbLine
 10
522.0475581628812
 20
834.1817064394356
 30
0.0
 11
536.0475581628812
 21
834.1817064394356
 31
0.0
  0
LINE
  5
144
330
17
100
AcDbEntity
  8
4
100
AcDbLine
 10
522.0475581628812
 20
833.1817074394355
 30
0.0
 11
538.0475561628809
 21
833.1817074394355
 31
0.0
  0
LINE
  5
145
330
17
100
AcDbEntity
  8
4
100
AcDbLine
 10
538.0475561628809
 20
831.1817024394352
 30
0.0
 11
522.0475581628812
 21
831.1817024394352
 31
0.0
  0
LINE
  5
146
330
17
100
AcDbEntity
  8
4
100
AcDbLine
 10
536.0475581628812
 20
834.1817064394356
 30
0.0
 11
538.0475561628809
 21
833.1817074394355
 31
0.0
  0
LINE
  5
147
330
17
100
AcDbEntity
  8
4
100
AcDbLine
 10
538.0475561628809
 20
831.1817024394352
 30
0.0
 11
538.0475561628809
 21
833.1817074394355
 31
0.0
  0
LINE
  5
148
330
17
100
AcDbEntity
  8
4
100
AcDbLine
 10
576.0475601628809
 20
804.6817044394354
 30
0.0
 11
576.0475601628809
 21
813.6817024394352
 31
0.0
  0
LINE
  5
149
330
17
100
AcDbEntity
  8
4
100
AcDbLine
 10
577.047559162881
 20
804.6817044394354
 30
0.0
 11
577.047559162881
 21
803.1817024394352
 31
0.0
  0
LINE
  5
14A
330
17
100
AcDbEntity
  8
4
100
AcDbLine
 10
574.0475621628811
 20
800.1817054394357
 30
0.0
 11
574.0475621628811
 21
803.1817024394352
 31
0.0
  0
LINE
  5
14B
330
17
100
AcDbEntity
  8
4
100
AcDbLine
 10
610.5475571628813
 20
808.6817074394355
 30
0.0
 11
610.5475571628813
 21
813.6817024394352
 31
0.0
  0
LINE
  5
14C
330
17
100
AcDbEntity
  8
4
100
AcDbLine
 10
587.547559162881
 20
808.6817074394355
 30
0.0
 11
587.547559162881
 21
813.6817024394352
 31
0.0
  0
LINE
  5
14D
330
17
100
AcDbEntity
  8
4
100
AcDbLine
 10
622.0475561628809
 20
804.6817044394354
 30
0.0
 11
622.0475561628809
 21
813.6817024394352
 31
0.0
  0
LINE
  5
14E
330
17
100
AcDbEntity
  8
4
100
AcDbLine
 10
621.0475571628813
 20
804.6817044394354
 30
0.0
 11
621.0475571628813
 21
803.1817024394352
 31
0.0
  0
LINE
  5
14F
330
17
100
AcDbEntity
  8
4
100
AcDbLine
 10
624.0475611628808
 20
800.1817054394357
 30
0.0
 11
624.0475611628808
 21
803.1817024394352
 31
0.0
  0
ARC
  5
150
330
17
100
AcDbEntity
  8
4
100
AcDbCircle
 10
724.5536661628817
 20
802.8037724394351
 30
0.0
 40
12.000051
100
AcDbArc
 50
1.804767000000549
 51
52.7594130000015
  0
LINE
  5
151
330
17
100
AcDbEntity
  8
4
100
AcDbLine
 10
734.0475561628814
 20
800.1817054394357
 30
0.0
 11
734.0475561628814
 21
803.1817024394352
 31
0.0
  0
LINE
  5
152
330
17
100
AcDbEntity
  8
4
100
AcDbLine
 10
739.9992221628804
 20
819.7488404394351
 30
0.0
 11
736.5475571628817
 21
803.1817024394352
 31
0.0
  0
LINE
  5
153
330
17
100
AcDbEntity
  8
4
100
AcDbLine
 10
759.0475591628806
 20
823.1817034394351
 30
0.0
 11
741.5556161628815
 21
821.1697424394354
 31
0.0
  0
ARC
  5
154
330
17
100
AcDbEntity
  8
4
100
AcDbCircle
 10
741.7614231628818
 20
819.3816554394355
 30
0.0
 40
1.80005
100
AcDbArc
 50
90.0
 51
168.2298250000008
  0
LINE
  5
159
330
17
100
AcDbEntity
  8
4
100
AcDbLine
 10
778.0958961628808
 20
819.7488404394351
 30
0.0
 11
781.5475611628813
 21
803.1817024394352
 31
0.0
  0
ARC
  5
15A
330
17
100
AcDbEntity
  8
4
100
AcDbCircle
 10
793.541459162881
 20
802.8037724394351
 30
0.0
 40
12.000051
100
AcDbArc
 50
127.2405869999985
 51
178.1952329999995
  0
LINE
  5
15B
330
17
100
AcDbEntity
  8
4
100
AcDbLine
 10
784.0475621628816
 20
800.1817054394357
 30
0.0
 11
784.0475621628816
 21
803.1817024394352
 31
0.0
  0
ARC
  5
15C
330
17
100
AcDbEntity
  8
4
100
AcDbCircle
 10
776.3336951628812
 20
819.3816554394355
 30
0.0
 40
1.80005
100
AcDbArc
 50
11.7701750000063
 51
90.0
  0
LINE
  5
162
330
17
100
AcDbEntity
  8
4
100
AcDbLine
 10
1070.44746316288
 20
797.6817014394353
 30
0.0
 11
1045.991649162881
 21
797.6817014394353
 31
0.0
  0
ARC
  5
163
330
17
100
AcDbEntity
  8
4
100
AcDbCircle
 10
1070.44746316288
 20
796.6817054394348
 30
0.0
 40
1.000002
100
AcDbArc
 50
0.0
 51
90.0
  0
LINE
  5
16B
330
17
100
AcDbEntity
  8
4
100
AcDbLine
 10
1889.964972137175
 20
388.1817044394354
 30
0.0
 11
1889.964972137175
 21
113.1817064394354
 31
0.0
  0
LINE
  5
16C
330
17
100
AcDbEntity
  8
4
100
AcDbLine
 10
1981.964971137176
 20
103.1817024394354
 30
0.0
 11
1899.464973137175
 21
149.0150354394352
 31
0.0
  0
LINE
  5
16D
330
17
100
AcDbEntity
  8
4
100
AcDbLine
 10
1931.264874137175
 20
131.3484234729716
 30
0.0
 11
1931.264874137175
 21
682.6817014394353
 31
0.0
  0
LINE
  5
16E
330
17
100
AcDbEntity
  8
4
100
AcDbLine
 10
1899.464973137175
 20
113.1817064394354
 30
0.0
 11
1899.464973137175
 21
683.1817034394351
 31
0.0
  0
LINE
  5
16F
330
17
100
AcDbEntity
  8
4
100
AcDbLine
 10
1587.964973137175
 20
103.1817024394354
 30
0.0
 11
1670.464971137174
 21
149.0150354394352
 31
0.0
  0
LINE
  5
170
330
17
100
AcDbEntity
  8
4
100
AcDbLine
 10
1679.964972137175
 20
388.1817044394354
 30
0.0
 11
1679.964972137175
 21
113.1817064394354
 31
0.0
  0
LINE
  5
171
330
17
100
AcDbEntity
  8
4
100
AcDbLine
 10
1670.464971137174
 20
113.1817064394354
 30
0.0
 11
1670.464971137174
 21
683.1817034394351
 31
0.0
  0
LINE
  5
172
330
17
100
AcDbEntity
  8
4
100
AcDbLine
 10
1640.964969137175
 20
132.6261454394355
 30
0.0
 11
1640.964969137175
 21
681.6817014394353
 31
0.0
  0
LINE
  5
173
330
17
100
AcDbEntity
  8
L-CENTER
 48
2.0
100
AcDbLine
 10
1784.964972137175
 20
903.181707439436
 30
0.0
 11
1784.964972137175
 21
29.72230243943545
 31
0.0
  0
LINE
  5
175
330
17
100
AcDbEntity
  8
4
100
AcDbLine
 10
1981.964971137176
 20
103.1817024394354
 30
0.0
 11
1587.964973137175
 21
103.1817024394354
 31
0.0
  0
LINE
  5
176
330
17
100
AcDbEntity
  8
4
100
AcDbLine
 10
1984.964975137174
 20
48.1817014394353
 30
0.0
 11
1584.964969137175
 21
48.1817014394353
 31
0.0
  0
LINE
  5
183
330
17
100
AcDbEntity
  8
4
100
AcDbLine
 10
1584.964969137175
 20
100.1817054394355
 30
0.0
 11
1584.964969137175
 21
48.1817014394353
 31
0.0
  0
LINE
  5
184
330
17
100
AcDbEntity
  8
L-CENTER
 48
2.0
100
AcDbLine
 10
1634.964975137176
 20
26.1817014394353
 30
0.0
 11
1634.964975137176
 21
125.1817024394354
 31
0.0
  0
LINE
  5
185
330
17
100
AcDbEntity
  8
4
100
AcDbLine
 10
1668.964969137175
 20
103.1817024394354
 30
0.0
 11
1587.964973137175
 21
103.1817024394354
 31
0.0
  0
ARC
  5
186
330
17
100
AcDbEntity
  8
4
100
AcDbCircle
 10
1587.964973137175
 20
100.1817054394355
 30
0.0
 40
2.999997
100
AcDbArc
 50
90.0
 51
180.0
  0
ARC
  5
187
330
17
100
AcDbEntity
  8
4
100
AcDbCircle
 10
1669.964975137176
 20
113.1817064394354
 30
0.0
 40
9.999996999999999
100
AcDbArc
 50
270.0
 51
0.0
  0
ARC
  5
188
330
17
100
AcDbEntity
  8
4
100
AcDbCircle
 10
1660.464974137175
 20
113.1817064394354
 30
0.0
 40
9.999996999999999
100
AcDbArc
 50
270.0
 51
0.0
  0
LINE
  5
18D
330
17
100
AcDbEntity
  8
L-CENTER
 48
2.0
100
AcDbLine
 10
1934.964969137175
 20
26.1817014394353
 30
0.0
 11
1934.964969137175
 21
125.1817024394354
 31
0.0
  0
ARC
  5
18E
330
17
100
AcDbEntity
  8
4
100
AcDbCircle
 10
1909.464970137174
 20
113.1817064394354
 30
0.0
 40
9.999996999999999
100
AcDbArc
 50
180.0
 51
270.0
  0
ARC
  5
18F
330
17
100
AcDbEntity
  8
4
100
AcDbCircle
 10
1899.964969137175
 20
113.1817064394354
 30
0.0
 40
9.999996999999999
100
AcDbArc
 50
180.0
 51
270.0
  0
LINE
  5
192
330
17
100
AcDbEntity
  8
4
100
AcDbLine
 10
1984.964975137174
 20
100.1817054394355
 30
0.0
 11
1984.964975137174
 21
48.1817014394353
 31
0.0
  0
ARC
  5
193
330
17
100
AcDbEntity
  8
4
100
AcDbCircle
 10
1981.964971137176
 20
100.1817054394355
 30
0.0
 40
2.999997
100
AcDbArc
 50
0.0
 51
90.0
  0
ARC
  5
199
330
17
100
AcDbEntity
  8
4
100
AcDbCircle
 10
1784.964972137175
 20
200.1817034394355
 30
0.0
 40
599.999953
100
AcDbArc
 50
80.281964
 51
99.71803699999995
  0
CIRCLE
  5
19A
330
17
100
AcDbEntity
  8
4
100
AcDbCircle
 10
1784.964972137175
 20
683.1817034394351
 30
0.0
 40
114.500001
  0
LINE
  5
19C
330
17
100
AcDbEntity
  8
L-CENTER
 48
2.0
100
AcDbLine
 10
1910.122656225917
 20
683.1817034394351
 30
0.0
 11
1659.807288048432
 21
683.1817034394351
 31
0.0
  0
LINE
  5
19D
330
17
100
AcDbEntity
  8
L-CENTER
 48
2.0
100
AcDbLine
 10
2156.826369497902
 20
388.1817044394354
 30
0.0
 11
1579.455376453446
 21
388.1817044394354
 31
0.0
  0
CIRCLE
  5
19E
330
17
100
AcDbEntity
  8
L-CENTER
 48
2.0
100
AcDbCircle
 10
1784.964972137175
 20
683.1817034394351
 30
0.0
 40
97.5
  0
LINE
  5
1A0
330
17
100
AcDbEntity
  8
4
100
AcDbLine
 10
1668.964969137175
 20
148.1817064394354
 30
0.0
 11
1668.964969137175
 21
684.6817054394357
 31
0.0
  0
LINE
  5
1A1
330
17
100
AcDbEntity
  8
4
100
AcDbLine
 10
1620.964975137176
 20
273.1817074394355
 30
0.0
 11
1620.964975137176
 21
503.1817014394353
 31
0.0
  0
LINE
  5
1A2
330
17
100
AcDbEntity
  8
4
100
AcDbLine
 10
1594.964973137175
 20
280.1817074394355
 30
0.0
 11
1594.964973137175
 21
496.1817014394353
 31
0.0
  0
LINE
  5
1A6
330
17
100
AcDbEntity
  8
4
100
AcDbLine
 10
1640.964969137175
 20
144.0513354394354
 30
0.0
 11
1620.964975137176
 21
273.1817074394355
 31
0.0
  0
LINE
  5
1A7
330
17
100
AcDbEntity
  8
4
100
AcDbLine
 10
1620.964975137176
 20
273.1817074394355
 30
0.0
 11
1594.964973137175
 21
280.1817074394355
 31
0.0
  0
LINE
  5
1AC
330
17
100
AcDbEntity
  8
4
100
AcDbLine
 10
1620.964975137176
 20
315.1817074394355
 30
0.0
 11
1640.964969137175
 21
330.6817024394356
 31
0.0
  0
LINE
  5
1AD
330
17
100
AcDbEntity
  8
4
100
AcDbLine
 10
1620.964975137176
 20
461.1817014394353
 30
0.0
 11
1640.964969137175
 21
445.6817064394352
 31
0.0
  0
LINE
  5
1B3
330
17
100
AcDbEntity
  8
4
100
AcDbLine
 10
1640.964969137175
 20
632.3120734394354
 30
0.0
 11
1620.964975137176
 21
503.1817014394353
 31
0.0
  0
LINE
  5
1B4
330
17
100
AcDbEntity
  8
4
100
AcDbLine
 10
1620.964975137176
 20
503.1817014394353
 30
0.0
 11
1594.964973137175
 21
496.1817014394353
 31
0.0
  0
ARC
  5
1B7
330
17
100
AcDbEntity
  8
4
100
AcDbCircle
 10
2270.464973137175
 20
683.1817034394351
 30
0.0
 40
600.00003
100
AcDbArc
 50
169.986478
 51
180.0001859992476
  0
LINE
  5
1B8
330
17
100
AcDbEntity
  8
4
100
AcDbLine
 10
1668.964969137175
 20
681.6817014394353
 30
0.0
 11
1640.964969137175
 21
681.6817014394353
 31
0.0
  0
LINE
  5
1B9
330
17
100
AcDbEntity
  8
4
100
AcDbLine
 10
1670.466924137175
 20
684.6817054394357
 30
0.0
 11
1668.964969137175
 21
684.6817054394357
 31
0.0
  0
ARC
  5
1BA
330
17
100
AcDbEntity
  8
4
100
AcDbCircle
 10
1684.529182137175
 20
786.6436214394355
 30
0.0
 40
5.000002
100
AcDbArc
 50
99.71804499999627
 51
169.9839159999985
  0
LINE
  5
1BD
330
17
100
AcDbEntity
  8
4
100
AcDbLine
 10
1900.964975137176
 20
148.1817064394354
 30
0.0
 11
1900.964975137176
 21
684.6817054394357
 31
0.0
  0
LINE
  5
1BE
330
17
100
AcDbEntity
  8
4
100
AcDbLine
 10
1903.964972137175
 20
146.5150344394353
 30
0.0
 11
1903.964972137175
 21
681.6817014394353
 31
0.0
  0
LINE
  5
1BF
330
17
100
AcDbEntity
  8
4
100
AcDbLine
 10
1904.264972137175
 20
146.5150344394353
 30
0.0
 11
1904.264972137175
 21
683.6817014394353
 31
0.0
  0
LINE
  5
1C0
330
17
100
AcDbEntity
  8
4
100
AcDbLine
 10
1975.264872137175
 20
496.1817014394353
 30
0.0
 11
1975.264872137175
 21
280.1817074394355
 31
0.0
  0
LINE
  5
1C1
330
17
100
AcDbEntity
  8
4
100
AcDbLine
 10
1949.264877137174
 20
503.1817014394353
 30
0.0
 11
1949.264877137174
 21
273.1817074394355
 31
0.0
  0
LINE
  5
1C2
330
17
100
AcDbEntity
  8
4
100
AcDbLine
 10
1975.264872137175
 20
280.1817074394355
 30
0.0
 11
1949.264877137174
 21
273.1817074394355
 31
0.0
  0
LINE
  5
1C3
330
17
100
AcDbEntity
  8
4
100
AcDbLine
 10
1932.971351595602
 20
157.9632846000715
 30
0.0
 11
1949.264877137174
 21
273.1817074394355
 31
0.0
  0
LINE
  5
1C4
330
17
100
AcDbEntity
  8
4
100
AcDbLine
 10
1931.264874137175
 20
330.6817024394356
 30
0.0
 11
1949.264877137174
 21
315.1817074394355
 31
0.0
  0
LINE
  5
1C5
330
17
100
AcDbEntity
  8
4
100
AcDbLine
 10
1931.264874137175
 20
445.6817064394352
 30
0.0
 11
1949.264877137174
 21
461.1817014394353
 31
0.0
  0
LINE
  5
1C6
330
17
100
AcDbEntity
  8
4
100
AcDbLine
 10
1984.964975137174
 20
434.6817034394353
 30
0.0
 11
2142.964971137176
 21
434.6817034394353
 31
0.0
  0
LINE
  5
1C7
330
17
100
AcDbEntity
  8
4
100
AcDbLine
 10
2144.964969137175
 20
442.6817024394354
 30
0.0
 11
1994.964972137175
 21
442.6817024394354
 31
0.0
  0
LINE
  5
1C8
330
17
100
AcDbEntity
  8
4
100
AcDbLine
 10
1984.964975137174
 20
341.6817054394355
 30
0.0
 11
2142.964971137176
 21
341.6817054394355
 31
0.0
  0
LINE
  5
1C9
330
17
100
AcDbEntity
  8
4
100
AcDbLine
 10
1976.264871137176
 20
453.1817074394355
 30
0.0
 11
1976.264871137176
 21
323.1817014394353
 31
0.0
  0
LINE
  5
1CA
330
17
100
AcDbEntity
  8
4
100
AcDbLine
 10
1984.964975137174
 20
435.6817024394354
 30
0.0
 11
1984.964975137174
 21
340.6817064394354
 31
0.0
  0
LINE
  5
1CB
330
17
100
AcDbEntity
  8
4
100
AcDbLine
 10
1976.264871137176
 20
340.6817064394354
 30
0.0
 11
1984.964975137174
 21
340.6817064394354
 31
0.0
  0
LINE
  5
1CD
330
17
100
AcDbEntity
  8
4
100
AcDbLine
 10
1984.964975137174
 20
435.6817024394354
 30
0.0
 11
1976.264871137176
 21
435.6817024394354
 31
0.0
  0
LINE
  5
1CF
330
17
100
AcDbEntity
  8
4
100
AcDbLine
 10
1994.964972137175
 20
442.6817024394354
 30
0.0
 11
1994.964972137175
 21
434.6817034394353
 31
0.0
  0
LINE
  5
1D1
330
17
100
AcDbEntity
  8
4
100
AcDbLine
 10
2142.964971137176
 20
434.6817034394353
 30
0.0
 11
2142.964971137176
 21
341.6817054394355
 31
0.0
  0
LINE
  5
1D2
330
17
100
AcDbEntity
  8
4
100
AcDbLine
 10
2144.964969137175
 20
442.6817024394354
 30
0.0
 11
2144.964969137175
 21
343.6817034394353
 31
0.0
  0
LINE
  5
1D3
330
17
100
AcDbEntity
  8
4
100
AcDbLine
 10
2142.964971137176
 20
341.6817054394355
 30
0.0
 11
2144.964969137175
 21
343.6817034394353
 31
0.0
  0
LINE
  5
1D4
330
17
100
AcDbEntity
  8
4
100
AcDbLine
 10
2144.964969137175
 20
432.6817054394355
 30
0.0
 11
2142.964971137176
 21
434.6817034394353
 31
0.0
  0
LINE
  5
1D5
330
17
100
AcDbEntity
  8
4
100
AcDbLine
 10
1975.264872137175
 20
496.1817014394353
 30
0.0
 11
1949.264877137174
 21
503.1817014394353
 31
0.0
  0
LINE
  5
1D6
330
17
100
AcDbEntity
  8
L-CENTER
 48
2.0
100
AcDbLine
 10
1843.793972658278
 20
581.2863373934642
 30
0.0
 11
1823.537812409385
 21
616.3711678039269
 31
0.0
  0
LINE
  5
1D7
330
17
100
AcDbEntity
  8
L-CENTER
 48
2.0
100
AcDbLine
 10
1746.391734137174
 20
616.3713974394348
 30
0.0
 11
1726.135521196183
 21
581.2865974434981
 31
0.0
  0
LINE
  5
1D8
330
17
100
AcDbEntity
  8
4
100
AcDbLine
 10
1932.971351595602
 20
618.4001242787992
 30
0.0
 11
1949.264877137174
 21
503.1817014394353
 31
0.0
  0
LINE
  5
1D9
330
17
100
AcDbEntity
  8
L-CENTER
 48
2.0
100
AcDbLine
 10
1823.635476109807
 20
750.1615772111445
 30
0.0
 11
1843.793918896822
 21
785.0771005243669
 31
0.0
  0
LINE
  5
1DE
330
17
100
AcDbEntity
  8
L-CENTER
 48
2.0
100
AcDbLine
 10
1726.135502223241
 20
785.07679848112
 30
0.0
 11
1746.293915538815
 21
750.1612581526067
 31
0.0
  0
ARC
  5
1E0
330
17
100
AcDbEntity
  8
4
100
AcDbCircle
 10
1299.464971137174
 20
683.1817034394351
 30
0.0
 40
600.000023
100
AcDbArc
 50
0.000047004096946
 51
10.01378299999999
  0
LINE
  5
1E1
330
17
100
AcDbEntity
  8
4
100
AcDbLine
 10
1904.264972137175
 20
681.6817014394353
 30
0.0
 11
1900.964975137176
 21
681.6817014394353
 31
0.0
  0
LINE
  5
1E2
330
17
100
AcDbEntity
  8
4
100
AcDbLine
 10
1930.264874137175
 20
683.6817014394353
 30
0.0
 11
1904.264972137175
 21
683.6817014394353
 31
0.0
  0
LINE
  5
1E3
330
17
100
AcDbEntity
  8
4
100
AcDbLine
 10
1899.463020137174
 20
684.6817054394357
 30
0.0
 11
1900.964975137176
 21
684.6817054394357
 31
0.0
  0
ARC
  5
1E4
330
17
100
AcDbEntity
  8
4
100
AcDbCircle
 10
1885.400762137174
 20
786.6436214394355
 30
0.0
 40
5.000002
100
AcDbArc
 50
10.0160839999959
 51
80.28195499999303
  0
LINE
  5
1F6
330
17
100
AcDbEntity
  8
4
100
AcDbLine
 10
1794.964969137175
 20
834.1817064394356
 30
0.0
 11
1794.964969137175
 21
883.1817064394356
 31
0.0
  0
LINE
  5
1F7
330
17
100
AcDbEntity
  8
4
100
AcDbLine
 10
1774.964975137176
 20
834.1817064394356
 30
0.0
 11
1774.964975137176
 21
883.1817064394356
 31
0.0
  0
LINE
  5
1F8
330
17
100
AcDbEntity
  8
4
100
AcDbLine
 10
1765.916635137174
 20
819.7488404394351
 30
0.0
 11
1762.464970137174
 21
803.1817024394352
 31
0.0
  0
LINE
  5
1F9
330
17
100
AcDbEntity
  8
4
100
AcDbLine
 10
1762.464970137174
 20
803.1817024394352
 30
0.0
 11
1775.165413137175
 21
803.1817024394352
 31
0.0
  0
LINE
  5
1FA
330
17
100
AcDbEntity
  8
4
100
AcDbLine
 10
1762.964973137175
 20
803.1817024394352
 30
0.0
 11
1775.165413137175
 21
803.1817024394352
 31
0.0
  0
LINE
  5
1FB
330
17
100
AcDbEntity
  8
4
100
AcDbLine
 10
1762.964973137175
 20
803.1817024394352
 30
0.0
 11
1775.165413137175
 21
803.1817024394352
 31
0.0
  0
LINE
  5
1FC
330
17
100
AcDbEntity
  8
4
100
AcDbLine
 10
1775.165413137175
 20
803.1817024394352
 30
0.0
 11
1759.964969137175
 21
803.1817024394352
 31
0.0
  0
LINE
  5
1FD
330
17
100
AcDbEntity
  8
4
100
AcDbLine
 10
1763.714974137175
 20
809.1817034394351
 30
0.0
 11
1761.964974137175
 21
809.1817034394351
 31
0.0
  0
LINE
  5
1FE
330
17
100
AcDbEntity
  8
4
100
AcDbLine
 10
1761.964974137175
 20
805.1817074394355
 30
0.0
 11
1761.964974137175
 21
809.1817034394351
 31
0.0
  0
LINE
  5
1FF
330
17
100
AcDbEntity
  8
4
100
AcDbLine
 10
1759.964969137175
 20
799.6607094394355
 30
0.0
 11
1759.964969137175
 21
803.1817024394352
 31
0.0
  0
LINE
  5
200
330
17
100
AcDbEntity
  8
4
100
AcDbLine
 10
1762.881722137175
 20
805.1817074394355
 30
0.0
 11
1761.964974137175
 21
805.1817074394355
 31
0.0
  0
ARC
  5
201
330
17
100
AcDbEntity
  8
4
100
AcDbCircle
 10
1799.464975137176
 20
809.1817034394351
 30
0.0
 40
6.000001
100
AcDbArc
 50
90.0
 51
180.0
  0
ARC
  5
202
330
17
100
AcDbEntity
  8
4
100
AcDbCircle
 10
1792.315070137175
 20
803.6804804394353
 30
0.0
 40
3.501197
100
AcDbArc
 50
45.59327200000384
 51
134.4067160000001
  0
LINE
  5
203
330
17
100
AcDbEntity
  8
4
100
AcDbLine
 10
1799.964971137174
 20
815.1817044394354
 30
0.0
 11
1769.964973137175
 21
815.1817044394354
 31
0.0
  0
LINE
  5
204
330
17
100
AcDbEntity
  8
4
100
AcDbLine
 10
1798.964972137175
 20
834.1817064394356
 30
0.0
 11
1770.964972137175
 21
834.1817064394356
 31
0.0
  0
LINE
  5
205
330
17
100
AcDbEntity
  8
4
100
AcDbLine
 10
1800.964970137174
 20
833.1817074394355
 30
0.0
 11
1768.964974137175
 21
833.1817074394355
 31
0.0
  0
LINE
  5
206
330
17
100
AcDbEntity
  8
4
100
AcDbLine
 10
1768.964974137175
 20
831.1817024394352
 30
0.0
 11
1800.964970137174
 21
831.1817024394352
 31
0.0
  0
LINE
  5
207
330
17
100
AcDbEntity
  8
4
100
AcDbLine
 10
1769.964973137175
 20
815.1817044394354
 30
0.0
 11
1769.964973137175
 21
831.1817024394352
 31
0.0
  0
LINE
  5
208
330
17
100
AcDbEntity
  8
4
100
AcDbLine
 10
1793.464974137175
 20
806.9876094394356
 30
0.0
 11
1793.464974137175
 21
809.1817034394351
 31
0.0
  0
ARC
  5
209
330
17
100
AcDbEntity
  8
4
100
AcDbCircle
 10
1770.464969137175
 20
809.1817034394351
 30
0.0
 40
6.000001
100
AcDbArc
 50
0.0
 51
90.0
  0
LINE
  5
20A
330
17
100
AcDbEntity
  8
4
100
AcDbLine
 10
1777.615364137174
 20
807.1817054394357
 30
0.0
 11
1792.315070137175
 21
807.1817054394357
 31
0.0
  0
ARC
  5
20B
330
17
100
AcDbEntity
  8
4
100
AcDbCircle
 10
1784.964972137175
 20
794.6768214394358
 30
0.0
 40
12.50508
100
AcDbArc
 50
66.93139999999451
 51
113.0686039999956
  0
LINE
  5
20C
330
17
100
AcDbEntity
  8
4
100
AcDbLine
 10
1780.065315137175
 20
800.1817054394357
 30
0.0
 11
1780.065315137175
 21
806.1817064394356
 31
0.0
  0
LINE
  5
20D
330
17
100
AcDbEntity
  8
4
100
AcDbLine
 10
1776.464970137174
 20
806.9873714394355
 30
0.0
 11
1776.464970137174
 21
809.1817034394351
 31
0.0
  0
LINE
  5
20E
330
17
100
AcDbEntity
  8
4
100
AcDbLine
 10
1775.165413137175
 20
800.1817054394357
 30
0.0
 11
1775.165413137175
 21
806.1817064394356
 31
0.0
  0
ARC
  5
20F
330
17
100
AcDbEntity
  8
4
100
AcDbCircle
 10
1777.615364137174
 20
803.6804804394353
 30
0.0
 40
3.501197
100
AcDbArc
 50
45.59327199998539
 51
134.4067160000001
  0
LINE
  5
210
330
17
100
AcDbEntity
  8
4
100
AcDbLine
 10
1789.865119137175
 20
800.1817054394357
 30
0.0
 11
1789.865119137175
 21
806.1817064394356
 31
0.0
  0
LINE
  5
211
330
17
100
AcDbEntity
  8
4
100
AcDbLine
 10
1769.964973137175
 20
821.4563644394354
 30
0.0
 11
1767.473029137175
 21
821.1697424394354
 31
0.0
  0
LINE
  5
212
330
17
100
AcDbEntity
  8
4
100
AcDbLine
 10
1769.964973137175
 20
821.1817054394357
 30
0.0
 11
1767.678836137176
 21
821.1817054394357
 31
0.0
  0
LINE
  5
213
330
17
100
AcDbEntity
  8
4
100
AcDbLine
 10
1770.964972137175
 20
834.1817064394356
 30
0.0
 11
1768.964974137175
 21
833.1817074394355
 31
0.0
  0
LINE
  5
214
330
17
100
AcDbEntity
  8
4
100
AcDbLine
 10
1768.964974137175
 20
831.1817024394352
 30
0.0
 11
1768.964974137175
 21
833.1817074394355
 31
0.0
  0
ARC
  5
215
330
17
100
AcDbEntity
  8
4
100
AcDbCircle
 10
1767.678836137176
 20
819.3816554394355
 30
0.0
 40
1.80005
100
AcDbArc
 50
90.0
 51
168.2298250000008
  0
LINE
  5
216
330
17
100
AcDbEntity
  8
4
100
AcDbLine
 10
1804.013309137175
 20
819.7488404394351
 30
0.0
 11
1807.464974137175
 21
803.1817024394352
 31
0.0
  0
LINE
  5
217
330
17
100
AcDbEntity
  8
4
100
AcDbLine
 10
1799.964971137174
 20
815.1817044394354
 30
0.0
 11
1799.964971137174
 21
831.1817024394352
 31
0.0
  0
LINE
  5
218
330
17
100
AcDbEntity
  8
4
100
AcDbLine
 10
1794.765021137176
 20
803.1817024394352
 30
0.0
 11
1807.464974137175
 21
803.1817024394352
 31
0.0
  0
LINE
  5
219
330
17
100
AcDbEntity
  8
4
100
AcDbLine
 10
1794.765021137176
 20
803.1817024394352
 30
0.0
 11
1806.964971137174
 21
803.1817024394352
 31
0.0
  0
LINE
  5
21A
330
17
100
AcDbEntity
  8
4
100
AcDbLine
 10
1794.765021137176
 20
803.1817024394352
 30
0.0
 11
1806.964971137174
 21
803.1817024394352
 31
0.0
  0
LINE
  5
21B
330
17
100
AcDbEntity
  8
4
100
AcDbLine
 10
1794.765021137176
 20
803.1817024394352
 30
0.0
 11
1809.964975137176
 21
803.1817024394352
 31
0.0
  0
LINE
  5
21C
330
17
100
AcDbEntity
  8
4
100
AcDbLine
 10
1794.765021137176
 20
800.1817054394357
 30
0.0
 11
1794.765021137176
 21
806.1817064394356
 31
0.0
  0
LINE
  5
21D
330
17
100
AcDbEntity
  8
4
100
AcDbLine
 10
1806.214970137174
 20
809.1817034394351
 30
0.0
 11
1807.964970137174
 21
809.1817034394351
 31
0.0
  0
LINE
  5
21E
330
17
100
AcDbEntity
  8
4
100
AcDbLine
 10
1807.048222137174
 20
805.1817074394355
 30
0.0
 11
1807.964970137174
 21
805.1817074394355
 31
0.0
  0
LINE
  5
21F
330
17
100
AcDbEntity
  8
4
100
AcDbLine
 10
1807.964970137174
 20
805.1817074394355
 30
0.0
 11
1807.964970137174
 21
809.1817034394351
 31
0.0
  0
LINE
  5
220
330
17
100
AcDbEntity
  8
4
100
AcDbLine
 10
1809.964975137176
 20
799.6607094394355
 30
0.0
 11
1809.964975137176
 21
803.1817024394352
 31
0.0
  0
ARC
  5
221
330
17
100
AcDbEntity
  8
4
100
AcDbCircle
 10
1802.251108137175
 20
819.3816554394355
 30
0.0
 40
1.80005
100
AcDbArc
 50
11.7701750000063
 51
90.0
  0
LINE
  5
222
330
17
100
AcDbEntity
  8
4
100
AcDbLine
 10
1799.964971137174
 20
821.4563644394354
 30
0.0
 11
1802.456915137175
 21
821.1697424394354
 31
0.0
  0
LINE
  5
223
330
17
100
AcDbEntity
  8
4
100
AcDbLine
 10
1799.964971137174
 20
821.1817054394357
 30
0.0
 11
1802.251108137175
 21
821.1817054394357
 31
0.0
  0
LINE
  5
224
330
17
100
AcDbEntity
  8
4
100
AcDbLine
 10
1800.964970137174
 20
831.1817024394352
 30
0.0
 11
1800.964970137174
 21
833.1817074394355
 31
0.0
  0
LINE
  5
225
330
17
100
AcDbEntity
  8
4
100
AcDbLine
 10
1798.964972137175
 20
834.1817064394356
 30
0.0
 11
1800.964970137174
 21
833.1817074394355
 31
0.0
  0
LINE
  5
226
330
17
100
AcDbEntity
  8
L-CENTER
 48
2.0
100
AcDbLine
 10
1806.161322563743
 20
848.1817064394356
 30
0.0
 11
1763.768621710606
 21
848.1817064394356
 31
0.0
  0
ARC
  5
227
330
17
100
AcDbEntity
  8
4
100
AcDbCircle
 10
1784.964972137175
 20
883.1817064394356
 30
0.0
 40
9.999996999999999
100
AcDbArc
 50
0.0
 51
180.0
  0
LINE
  5
230
330
17
100
AcDbEntity
  8
4
100
AcDbLine
 10
1089.047559162881
 20
1725.225021123423
 30
0.0
 11
974.0475591628806
 21
1725.225021123423
 31
0.0
  0
LINE
  5
231
330
17
100
AcDbEntity
  8
4
100
AcDbLine
 10
1089.047559162881
 20
1325.225021123423
 30
0.0
 11
974.0475591628806
 21
1325.225021123423
 31
0.0
  0
LINE
  5
232
330
17
100
AcDbEntity
  8
L-CENTER
 48
2.0
100
AcDbLine
 10
1105.895398465457
 20
1525.225021123423
 30
0.0
 11
296.8388151615173
 21
1525.225021123423
 31
0.0
  0
LINE
  5
233
330
17
100
AcDbEntity
  8
4
100
AcDbLine
 10
544.047559162881
 20
1725.225021123422
 30
0.0
 11
429.047559162881
 21
1725.225021123423
 31
0.0
  0
LINE
  5
234
330
17
100
AcDbEntity
  8
L-CENTER
 48
2.0
100
AcDbLine
 10
506.3475591628821
 20
1675.225021123423
 30
0.0
 11
451.7475591628818
 21
1675.225021123423
 31
0.0
  0
ARC
  5
235
330
17
100
AcDbEntity
  8
4
100
AcDbCircle
 10
479.047559162881
 20
1675.225021123423
 30
0.0
 40
13.0
100
AcDbArc
 50
343.5777460805699
 51
16.42225391942804
  0
LINE
  5
236
330
17
100
AcDbEntity
  8
L-CENTER
 48
2.0
100
AcDbLine
 10
506.3475591628812
 20
1375.225021123423
 30
0.0
 11
451.7475591628809
 21
1375.225021123423
 31
0.0
  0
LINE
  5
237
330
17
100
AcDbEntity
  8
4
100
AcDbLine
 10
544.047559162881
 20
1325.225021123423
 30
0.0
 11
429.047559162881
 21
1325.225021123423
 31
0.0
  0
ARC
  5
238
330
17
100
AcDbEntity
  8
4
100
AcDbCircle
 10
479.047559162881
 20
1375.225021123423
 30
0.0
 40
13.0
100
AcDbArc
 50
152.5135737496188
 51
27.48642625038124
  0
LINE
  5
239
330
17
100
AcDbEntity
  8
4
100
AcDbLine
 10
419.047559162881
 20
1715.225021123423
 30
0.0
 11
419.047559162881
 21
1556.725021123423
 31
0.0
  0
ARC
  5
23A
330
17
100
AcDbEntity
  8
4
100
AcDbCircle
 10
429.047559162881
 20
1335.225021123423
 30
0.0
 40
10.0
100
AcDbArc
 50
180.0
 51
270.0
  0
LINE
  5
23B
330
17
100
AcDbEntity
  8
L-CENTER
 48
2.0
100
AcDbLine
 10
479.047559162881
 20
1402.525021123423
 30
0.0
 11
479.047559162881
 21
1347.925021123423
 31
0.0
  0
LINE
  5
23C
330
17
100
AcDbEntity
  8
L-CENTER
 48
2.0
100
AcDbLine
 10
479.047559162881
 20
1702.525021123423
 30
0.0
 11
479.047559162881
 21
1647.925021123423
 31
0.0
  0
ARC
  5
23D
330
17
100
AcDbEntity
  8
4
100
AcDbCircle
 10
429.047559162881
 20
1715.225021123423
 30
0.0
 40
10.0
100
AcDbArc
 50
90.0
 51
180.0
  0
LINE
  5
23E
330
17
100
AcDbEntity
  8
L-CENTER
 48
2.0
100
AcDbLine
 10
759.0475591628806
 20
1898.101016775871
 30
0.0
 11
759.0475591628806
 21
1322.369267108147
 31
0.0
  0
LINE
  5
23F
330
17
100
AcDbEntity
  8
4
100
AcDbLine
 10
652.5803148579325
 20
1335.225021123423
 30
0.0
 11
865.51480346783
 21
1335.225021123423
 31
0.0
  0
LINE
  5
240
330
17
100
AcDbEntity
  8
4
100
AcDbLine
 10
465.547559162881
 20
1381.225021123423
 30
0.0
 11
1052.547559162881
 21
1381.225021123423
 31
0.0
  0
LINE
  5
241
330
17
100
AcDbEntity
  8
4
100
AcDbLine
 10
514.917124380273
 20
1381.225021123423
 30
0.0
 11
642.7609218672314
 21
1361.424298280325
 31
0.0
  0
LINE
  5
242
330
17
100
AcDbEntity
  8
4
100
AcDbLine
 10
501.8501166175324
 20
1381.225021123423
 30
0.0
 11
644.6161505817463
 21
1359.113110139067
 31
0.0
  0
LINE
  5
243
330
17
100
AcDbEntity
  8
4
100
AcDbLine
 10
554.047559162881
 20
1373.140568742662
 30
0.0
 11
554.047559162881
 21
1335.225021123423
 31
0.0
  0
ARC
  5
244
330
17
100
AcDbEntity
  8
4
100
AcDbCircle
 10
544.047559162881
 20
1335.225021123423
 30
0.0
 40
10.0
100
AcDbArc
 50
270.0
 51
0.0
  0
LINE
  5
245
330
17
100
AcDbEntity
  8
4
100
AcDbLine
 10
650.6490833408916
 20
1336.705074176527
 30
0.0
 11
644.3860389261945
 21
1359.967810573974
 31
0.0
  0
ARC
  5
246
330
17
100
AcDbEntity
  8
4
100
AcDbCircle
 10
652.5803148579325
 20
1337.225021123423
 30
0.0
 40
2.0
100
AcDbArc
 50
195.0684881594917
 51
270.0
  0
ARC
  5
247
330
17
100
AcDbEntity
  8
4
100
AcDbCircle
 10
642.4548074091535
 20
1359.447863627078
 30
0.0
 40
2.0
100
AcDbArc
 50
15.06848815950512
 51
81.19586074785528
  0
LINE
  5
248
330
17
100
AcDbEntity
  8
4
100
AcDbLine
 10
867.446034984871
 20
1336.705074176527
 30
0.0
 11
873.7090793995671
 21
1359.967810573974
 31
0.0
  0
LINE
  5
249
330
17
100
AcDbEntity
  8
4
100
AcDbLine
 10
964.0475591628806
 20
1373.140568742662
 30
0.0
 11
964.0475591628806
 21
1335.225021123423
 31
0.0
  0
ARC
  5
24A
330
17
100
AcDbEntity
  8
4
100
AcDbCircle
 10
865.51480346783
 20
1337.225021123423
 30
0.0
 40
2.0
100
AcDbArc
 50
270.0
 51
344.9315118405075
  0
ARC
  5
24B
330
17
100
AcDbEntity
  8
4
100
AcDbCircle
 10
974.0475591628806
 20
1335.225021123423
 30
0.0
 40
10.0
100
AcDbArc
 50
180.0
 51
270.0
  0
LINE
  5
24C
330
17
100
AcDbEntity
  8
4
100
AcDbLine
 10
1016.24500170823
 20
1381.225021123423
 30
0.0
 11
873.4789677440153
 21
1359.113110139067
 31
0.0
  0
LINE
  5
24D
330
17
100
AcDbEntity
  8
4
100
AcDbLine
 10
1003.177993945489
 20
1381.225021123423
 30
0.0
 11
875.3341964585311
 21
1361.424298280325
 31
0.0
  0
ARC
  5
24E
330
17
100
AcDbEntity
  8
4
100
AcDbCircle
 10
875.6403109166081
 20
1359.447863627078
 30
0.0
 40
2.0
100
AcDbArc
 50
98.80413925211897
 51
164.931511840494
  0
LINE
  5
24F
330
17
100
AcDbEntity
  8
4
100
AcDbLine
 10
554.047559162881
 20
1715.225021123422
 30
0.0
 11
554.047559162881
 21
1684.525021123416
 31
0.0
  0
ARC
  5
250
330
17
100
AcDbEntity
  8
4
100
AcDbCircle
 10
544.047559162881
 20
1715.225021123422
 30
0.0
 40
10.0
100
AcDbArc
 50
0.0
 51
90.0
  0
LINE
  5
251
330
17
100
AcDbEntity
  8
4
100
AcDbLine
 10
964.0475591628806
 20
1715.225021123423
 30
0.0
 11
964.0475591628806
 21
1678.817647363312
 31
0.0
  0
ARC
  5
252
330
17
100
AcDbEntity
  8
4
100
AcDbCircle
 10
974.0475591628806
 20
1715.225021123423
 30
0.0
 40
10.0
100
AcDbArc
 50
90.0
 51
180.0
  0
ARC
  5
254
330
17
100
AcDbEntity
  8
4
100
AcDbCircle
 10
1089.047559162881
 20
1335.225021123423
 30
0.0
 40
10.0
100
AcDbArc
 50
270.0
 51
0.0
  0
LINE
  5
255
330
17
100
AcDbEntity
  8
L-CENTER
 48
2.0
100
AcDbLine
 10
1066.34755916288
 20
1375.225021123423
 30
0.0
 11
1011.747559162881
 21
1375.225021123423
 31
0.0
  0
ARC
  5
256
330
17
100
AcDbEntity
  8
4
100
AcDbCircle
 10
1039.047559162881
 20
1375.225021123423
 30
0.0
 40
13.0
100
AcDbArc
 50
152.5135737496163
 51
27.48642625037921
  0
LINE
  5
257
330
17
100
AcDbEntity
  8
L-CENTER
 48
2.0
100
AcDbLine
 10
1039.047559162881
 20
1402.525021123423
 30
0.0
 11
1039.047559162881
 21
1347.925021123423
 31
0.0
  0
ARC
  5
258
330
17
100
AcDbEntity
  8
4
100
AcDbCircle
 10
1039.047559162881
 20
1675.225021123423
 30
0.0
 40
13.0
100
AcDbArc
 50
343.4641403460575
 51
146.7543667683544
  0
LINE
  5
259
330
17
100
AcDbEntity
  8
L-CENTER
 48
2.0
100
AcDbLine
 10
1039.047559162881
 20
1702.525021123423
 30
0.0
 11
1039.047559162881
 21
1647.925021123423
 31
0.0
  0
LINE
  5
25A
330
17
100
AcDbEntity
  8
L-CENTER
 48
2.0
100
AcDbLine
 10
1066.347559162882
 20
1675.225021123423
 30
0.0
 11
1011.747559162881
 21
1675.225021123423
 31
0.0
  0
ARC
  5
25B
330
17
100
AcDbEntity
  8
4
100
AcDbCircle
 10
1089.047559162881
 20
1715.225021123423
 30
0.0
 40
10.0
100
AcDbArc
 50
0.0
 51
90.0
  0
LINE
  5
25C
330
17
100
AcDbEntity
  8
4
 48
2.0
100
AcDbLine
 10
1051.047559162881
 20
1639.725021123423
 30
0.0
 11
467.047559162881
 21
1639.725021123423
 31
0.0
  0
LINE
  5
25D
330
17
100
AcDbEntity
  8
4
100
AcDbLine
 10
1051.047559162881
 20
1410.725021123423
 30
0.0
 11
467.047559162881
 21
1410.725021123423
 31
0.0
  0
LINE
  5
25E
330
17
100
AcDbEntity
  8
4
100
AcDbLine
 10
467.047559162881
 20
1639.725021123423
 30
0.0
 11
467.047559162881
 21
1410.725021123423
 31
0.0
  0
LINE
  5
25F
330
17
100
AcDbEntity
  8
4
100
AcDbLine
 10
1051.047559162881
 20
1639.725021123423
 30
0.0
 11
1051.047559162881
 21
1410.725021123423
 31
0.0
  0
LINE
  5
260
330
17
100
AcDbEntity
  8
4
100
AcDbLine
 10
1046.047559162881
 20
1639.725021123423
 30
0.0
 11
1046.047559162881
 21
1410.725021123423
 31
0.0
  0
LINE
  5
261
330
17
100
AcDbEntity
  8
4
100
AcDbLine
 10
472.047559162881
 20
1639.725021123423
 30
0.0
 11
472.047559162881
 21
1410.725021123423
 31
0.0
  0
LINE
  5
262
330
17
100
AcDbEntity
  8
4
100
AcDbLine
 10
1055.547559162881
 20
1641.225021123423
 30
0.0
 11
462.547559162881
 21
1641.225021123423
 31
0.0
  0
LINE
  5
263
330
17
100
AcDbEntity
  8
4
100
AcDbLine
 10
1055.547559162881
 20
1409.225021123423
 30
0.0
 11
462.547559162881
 21
1409.225021123423
 31
0.0
  0
LINE
  5
264
330
17
100
AcDbEntity
  8
4
100
AcDbLine
 10
1055.547559162881
 20
1641.225021123423
 30
0.0
 11
1055.547559162881
 21
1639.725021123423
 31
0.0
  0
LINE
  5
265
330
17
100
AcDbEntity
  8
4
100
AcDbLine
 10
462.547559162881
 20
1641.225021123423
 30
0.0
 11
462.547559162881
 21
1639.725021123423
 31
0.0
  0
LINE
  5
266
330
17
100
AcDbEntity
  8
4
100
AcDbLine
 10
1052.547559162881
 20
1644.225021123423
 30
0.0
 11
465.547559162881
 21
1644.225021123423
 31
0.0
  0
LINE
  5
267
330
17
100
AcDbEntity
  8
4
100
AcDbLine
 10
465.547559162881
 20
1644.225021123423
 30
0.0
 11
465.547559162881
 21
1641.225021123423
 31
0.0
  0
LINE
  5
268
330
17
100
AcDbEntity
  8
4
100
AcDbLine
 10
1052.547559162881
 20
1644.225021123423
 30
0.0
 11
1052.547559162881
 21
1641.225021123423
 31
0.0
  0
LINE
  5
269
330
17
100
AcDbEntity
  8
4
100
AcDbLine
 10
1052.547559162881
 20
1409.225021123423
 30
0.0
 11
1052.547559162881
 21
1381.225021123423
 31
0.0
  0
LINE
  5
26A
330
17
100
AcDbEntity
  8
4
100
AcDbLine
 10
465.547559162881
 20
1409.225021123423
 30
0.0
 11
465.547559162881
 21
1381.225021123423
 31
0.0
  0
LINE
  5
26B
330
17
100
AcDbEntity
  8
4
100
AcDbLine
 10
651.8139370104068
 20
1689.525021123416
 30
0.0
 11
866.2811813153553
 21
1689.525021123416
 31
0.0
  0
LINE
  5
26C
330
17
100
AcDbEntity
  8
4
100
AcDbLine
 10
694.047559162881
 20
1716.525021123416
 30
0.0
 11
824.0475591628815
 21
1716.525021123416
 31
0.0
  0
LINE
  5
26D
330
17
100
AcDbEntity
  8
4
100
AcDbLine
 10
651.8139370104068
 20
1715.525021123416
 30
0.0
 11
866.2811813153553
 21
1715.525021123416
 31
0.0
  0
LINE
  5
26E
330
17
100
AcDbEntity
  8
4
100
AcDbLine
 10
464.5475591628806
 20
1671.525021123416
 30
0.0
 11
1053.547559162881
 21
1671.525021123416
 31
0.0
  0
LINE
  5
26F
330
17
100
AcDbEntity
  8
4
100
AcDbLine
 10
463.547559162881
 20
1644.525021123416
 30
0.0
 11
1054.547559162881
 21
1644.525021123432
 31
0.0
  0
LINE
  5
270
330
17
100
AcDbEntity
  8
4
100
AcDbLine
 10
463.5475591628806
 20
1644.525021123416
 30
0.0
 11
463.5475591628806
 21
1670.525021123416
 31
0.0
  0
ARC
  5
271
330
17
100
AcDbEntity
  8
4
100
AcDbCircle
 10
464.5475591628806
 20
1670.525021123416
 30
0.0
 40
1.0
100
AcDbArc
 50
90.0
 51
180.0
  0
LINE
  5
272
330
17
100
AcDbEntity
  8
L-CENTER
 48
2.0
100
AcDbLine
 10
554.047559162881
 20
1652.233603944471
 30
0.0
 11
554.047559162881
 21
1693.535943489121
 31
0.0
  0
LINE
  5
273
330
17
100
AcDbEntity
  8
4
100
AcDbLine
 10
516.7618448771641
 20
1671.525021123416
 30
0.0
 11
642.7397485169149
 21
1689.340078203785
 31
0.0
  0
LINE
  5
274
330
17
100
AcDbEntity
  8
4
100
AcDbLine
 10
502.4782736093293
 20
1671.525021123416
 30
0.0
 11
643.7675171534283
 21
1691.505318190257
 31
0.0
  0
LINE
  5
275
330
17
100
AcDbEntity
  8
4
100
AcDbLine
 10
579.047559162881
 20
1684.525021123416
 30
0.0
 11
529.047559162881
 21
1684.525021123416
 31
0.0
  0
LINE
  5
276
330
17
100
AcDbEntity
  8
4
100
AcDbLine
 10
529.047559162881
 20
1675.282293827957
 30
0.0
 11
529.047559162881
 21
1684.525021123416
 31
0.0
  0
LINE
  5
277
330
17
100
AcDbEntity
  8
4
100
AcDbLine
 10
579.047559162881
 20
1682.353000898665
 30
0.0
 11
579.047559162881
 21
1684.525021123416
 31
0.0
  0
LINE
  5
278
330
17
100
AcDbEntity
  8
4
100
AcDbLine
 10
644.3909380245041
 20
1690.800428323731
 30
0.0
 11
650.8483212518859
 21
1714.784994596864
 31
0.0
  0
ARC
  5
279
330
17
100
AcDbEntity
  8
4
100
AcDbCircle
 10
642.4597065074627
 20
1691.320375270626
 30
0.0
 40
2.0
100
AcDbArc
 50
278.0490617016718
 51
344.931511840494
  0
ARC
  5
27A
330
17
100
AcDbEntity
  8
4
100
AcDbCircle
 10
651.8139370104068
 20
1714.525021123416
 30
0.0
 40
1.0
100
AcDbArc
 50
90.0
 51
164.9315118405208
  0
LINE
  5
27B
330
17
100
AcDbEntity
  8
4
100
AcDbLine
 10
694.047559162881
 20
1715.525021123416
 30
0.0
 11
694.047559162881
 21
1716.525021123416
 31
0.0
  0
LINE
  5
27C
330
17
100
AcDbEntity
  8
4
100
AcDbLine
 10
1001.333273448596
 20
1671.525021123416
 30
0.0
 11
875.3553698088467
 21
1689.340078203785
 31
0.0
  0
LINE
  5
27D
330
17
100
AcDbEntity
  8
4
100
AcDbLine
 10
1015.616844716434
 20
1671.525021123416
 30
0.0
 11
874.3276011723333
 21
1691.505318190257
 31
0.0
  0
LINE
  5
27E
330
17
100
AcDbEntity
  8
4
100
AcDbLine
 10
759.0475591628806
 20
1644.625021123416
 30
0.0
 11
759.0475591628806
 21
1644.625021123416
 31
0.0
  0
LINE
  5
27F
330
17
100
AcDbEntity
  8
4
100
AcDbLine
 10
759.0475591628806
 20
1644.625021123416
 30
0.0
 11
759.0475591628806
 21
1644.625021123416
 31
0.0
  0
LINE
  5
280
330
17
100
AcDbEntity
  8
4
100
AcDbLine
 10
784.0475591628806
 20
1673.868152413816
 30
0.0
 11
734.0475591628806
 21
1673.868152413816
 31
0.0
  0
LINE
  5
281
330
17
100
AcDbEntity
  8
4
100
AcDbLine
 10
784.0475591628806
 20
1681.525021123416
 30
0.0
 11
734.0475591628806
 21
1681.525021123416
 31
0.0
  0
LINE
  5
282
330
17
100
AcDbEntity
  8
4
100
AcDbLine
 10
734.0475591628806
 20
1681.525021123416
 30
0.0
 11
734.0475591628806
 21
1673.868152413816
 31
0.0
  0
LINE
  5
283
330
17
100
AcDbEntity
  8
4
100
AcDbLine
 10
784.0475591628806
 20
1681.525021123416
 30
0.0
 11
784.0475591628806
 21
1673.868152413816
 31
0.0
  0
LINE
  5
284
330
17
100
AcDbEntity
  8
4
100
AcDbLine
 10
824.0475591628824
 20
1715.525021123416
 30
0.0
 11
824.0475591628815
 21
1716.525021123416
 31
0.0
  0
LINE
  5
285
330
17
100
AcDbEntity
  8
4
100
AcDbLine
 10
873.7041803012576
 20
1690.800428323731
 30
0.0
 11
867.2467970738758
 21
1714.784994596864
 31
0.0
  0
ARC
  5
286
330
17
100
AcDbEntity
  8
4
100
AcDbCircle
 10
875.6354118182994
 20
1691.320375270626
 30
0.0
 40
2.0
100
AcDbArc
 50
195.068488159506
 51
261.9509382983153
  0
ARC
  5
287
330
17
100
AcDbEntity
  8
4
100
AcDbCircle
 10
866.2811813153553
 20
1714.525021123416
 30
0.0
 40
1.0
100
AcDbArc
 50
15.06848815947916
 51
90.0
  0
LINE
  5
288
330
17
100
AcDbEntity
  8
4
100
AcDbLine
 10
1054.547559162881
 20
1644.525021123416
 30
0.0
 11
1054.547559162881
 21
1670.525021123416
 31
0.0
  0
ARC
  5
289
330
17
100
AcDbEntity
  8
4
100
AcDbCircle
 10
1053.547559162881
 20
1670.525021123416
 30
0.0
 40
1.0
100
AcDbArc
 50
0.0
 51
90.0
  0
LINE
  5
28A
330
17
100
AcDbEntity
  8
4
100
AcDbLine
 10
1745.714708881028
 20
762.134200759562
 30
0.0
 11
1745.714708881028
 21
773.1038558741645
 31
0.0
  0
LINE
  5
28B
330
17
100
AcDbEntity
  8
4
100
AcDbLine
 10
1726.714708881028
 20
773.1038558741645
 30
0.0
 11
1726.714708881028
 21
762.134200759562
 31
0.0
  0
CIRCLE
  5
28C
330
17
100
AcDbEntity
  8
4
100
AcDbCircle
 10
1736.214708881028
 20
767.6190283168633
 30
0.0
 40
9.5
  0
LINE
  5
28D
330
17
100
AcDbEntity
  8
4
100
AcDbLine
 10
1736.214708881028
 20
778.5886834314658
 30
0.0
 11
1726.714708881028
 21
773.1038558741645
 31
0.0
  0
LINE
  5
28E
330
17
100
AcDbEntity
  8
4
100
AcDbLine
 10
1745.714708881028
 20
773.1038558741645
 30
0.0
 11
1736.214708881028
 21
778.5886834314658
 31
0.0
  0
LINE
  5
28F
330
17
100
AcDbEntity
  8
4
100
AcDbLine
 10
1736.214708881028
 20
756.6493732022598
 30
0.0
 11
1745.714708881028
 21
762.134200759562
 31
0.0
  0
LINE
  5
290
330
17
100
AcDbEntity
  8
4
100
AcDbLine
 10
1726.714708881028
 20
762.134200759562
 30
0.0
 11
1736.214708881028
 21
756.6493732022598
 31
0.0
  0
LINE
  5
291
330
17
100
AcDbEntity
  8
4
100
AcDbLine
 10
1843.215235393323
 20
762.134200759562
 30
0.0
 11
1833.715235393323
 21
756.6493732022598
 31
0.0
  0
LINE
  5
292
330
17
100
AcDbEntity
  8
4
100
AcDbLine
 10
1833.715235393323
 20
778.5886834314658
 30
0.0
 11
1843.215235393323
 21
773.1038558741645
 31
0.0
  0
CIRCLE
  5
293
330
17
100
AcDbEntity
  8
4
100
AcDbCircle
 10
1833.715235393323
 20
767.6190283168633
 30
0.0
 40
9.5
  0
LINE
  5
294
330
17
100
AcDbEntity
  8
4
100
AcDbLine
 10
1843.215235393323
 20
773.1038558741645
 30
0.0
 11
1843.215235393323
 21
762.134200759562
 31
0.0
  0
LINE
  5
295
330
17
100
AcDbEntity
  8
4
100
AcDbLine
 10
1833.715235393323
 20
756.6493732022598
 30
0.0
 11
1824.215235393323
 21
762.134200759562
 31
0.0
  0
LINE
  5
296
330
17
100
AcDbEntity
  8
4
100
AcDbLine
 10
1824.215235393323
 20
773.1038558741645
 30
0.0
 11
1833.715235393323
 21
778.5886834314658
 31
0.0
  0
LINE
  5
297
330
17
100
AcDbEntity
  8
4
100
AcDbLine
 10
1824.215235393323
 20
762.134200759562
 30
0.0
 11
1824.215235393323
 21
773.1038558741645
 31
0.0
  0
LINE
  5
298
330
17
100
AcDbEntity
  8
4
100
AcDbLine
 10
1872.965510027182
 20
688.6662204458439
 30
0.0
 11
1882.465510027182
 21
694.1510480031452
 31
0.0
  0
LINE
  5
299
330
17
100
AcDbEntity
  8
4
100
AcDbLine
 10
1882.465510027182
 20
672.2117377739391
 30
0.0
 11
1872.965510027182
 21
677.6965653312413
 31
0.0
  0
CIRCLE
  5
29A
330
17
100
AcDbEntity
  8
4
100
AcDbCircle
 10
1882.465510027182
 20
683.1813928885426
 30
0.0
 40
9.5
  0
LINE
  5
29B
330
17
100
AcDbEntity
  8
4
100
AcDbLine
 10
1872.965510027182
 20
677.6965653312413
 30
0.0
 11
1872.965510027182
 21
688.6662204458439
 31
0.0
  0
LINE
  5
29C
330
17
100
AcDbEntity
  8
4
100
AcDbLine
 10
1891.965510027182
 20
688.6662204458439
 30
0.0
 11
1891.965510027182
 21
677.6965653312413
 31
0.0
  0
LINE
  5
29D
330
17
100
AcDbEntity
  8
4
100
AcDbLine
 10
1882.465510027182
 20
694.1510480031452
 30
0.0
 11
1891.965510027182
 21
688.6662204458439
 31
0.0
  0
LINE
  5
29E
330
17
100
AcDbEntity
  8
4
100
AcDbLine
 10
1891.965510027182
 20
677.6965653312413
 30
0.0
 11
1882.465510027182
 21
672.2117377739391
 31
0.0
  0
LINE
  5
29F
330
17
100
AcDbEntity
  8
4
100
AcDbLine
 10
1677.964972137175
 20
677.6968758821338
 30
0.0
 11
1687.464972137175
 21
672.2120483248316
 31
0.0
  0
LINE
  5
2A0
330
17
100
AcDbEntity
  8
4
100
AcDbLine
 10
1687.464972137175
 20
694.1513585540376
 30
0.0
 11
1677.964972137175
 21
688.6665309967364
 31
0.0
  0
CIRCLE
  5
2A1
330
17
100
AcDbEntity
  8
4
100
AcDbCircle
 10
1687.464972137175
 20
683.1817034394351
 30
0.0
 40
9.5
  0
LINE
  5
2A2
330
17
100
AcDbEntity
  8
4
100
AcDbLine
 10
1677.964972137175
 20
688.6665309967364
 30
0.0
 11
1677.964972137175
 21
677.6968758821338
 31
0.0
  0
LINE
  5
2A3
330
17
100
AcDbEntity
  8
4
100
AcDbLine
 10
1687.464972137175
 20
672.2120483248316
 30
0.0
 11
1696.964972137175
 21
677.6968758821338
 31
0.0
  0
LINE
  5
2A4
330
17
100
AcDbEntity
  8
4
100
AcDbLine
 10
1696.964972137175
 20
688.6665309967364
 30
0.0
 11
1687.464972137175
 21
694.1513585540376
 31
0.0
  0
LINE
  5
2A5
330
17
100
AcDbEntity
  8
4
100
AcDbLine
 10
1696.964972137175
 20
677.6968758821338
 30
0.0
 11
1696.964972137175
 21
688.6665309967364
 31
0.0
  0
LINE
  5
2A6
330
17
100
AcDbEntity
  8
4
100
AcDbLine
 10
1726.714708881028
 20
604.2292061193082
 30
0.0
 11
1736.214708881028
 21
609.7140336766104
 31
0.0
  0
LINE
  5
2A7
330
17
100
AcDbEntity
  8
4
100
AcDbLine
 10
1736.214708881028
 20
587.7747234474043
 30
0.0
 11
1726.714708881028
 21
593.2595510047056
 31
0.0
  0
CIRCLE
  5
2A8
330
17
100
AcDbEntity
  8
4
100
AcDbCircle
 10
1736.214708881028
 20
598.7443785620069
 30
0.0
 40
9.5
  0
LINE
  5
2A9
330
17
100
AcDbEntity
  8
4
100
AcDbLine
 10
1726.714708881028
 20
593.2595510047056
 30
0.0
 11
1726.714708881028
 21
604.2292061193082
 31
0.0
  0
LINE
  5
2AA
330
17
100
AcDbEntity
  8
4
100
AcDbLine
 10
1736.214708881028
 20
609.7140336766104
 30
0.0
 11
1745.714708881028
 21
604.2292061193082
 31
0.0
  0
LINE
  5
2AB
330
17
100
AcDbEntity
  8
4
100
AcDbLine
 10
1745.714708881028
 20
593.2595510047056
 30
0.0
 11
1736.214708881028
 21
587.7747234474043
 31
0.0
  0
LINE
  5
2AC
330
17
100
AcDbEntity
  8
4
100
AcDbLine
 10
1745.714708881028
 20
604.2292061193082
 30
0.0
 11
1745.714708881028
 21
593.2595510047056
 31
0.0
  0
LINE
  5
2AD
330
17
100
AcDbEntity
  8
4
100
AcDbLine
 10
1824.215235393323
 20
593.2595510047056
 30
0.0
 11
1833.715235393323
 21
587.7747234474043
 31
0.0
  0
LINE
  5
2AE
330
17
100
AcDbEntity
  8
4
100
AcDbLine
 10
1833.715235393323
 20
609.7140336766104
 30
0.0
 11
1824.215235393323
 21
604.2292061193082
 31
0.0
  0
CIRCLE
  5
2AF
330
17
100
AcDbEntity
  8
4
100
AcDbCircle
 10
1833.715235393323
 20
598.7443785620069
 30
0.0
 40
9.5
  0
LINE
  5
2B0
330
17
100
AcDbEntity
  8
4
100
AcDbLine
 10
1824.215235393323
 20
604.2292061193082
 30
0.0
 11
1824.215235393323
 21
593.2595510047056
 31
0.0
  0
LINE
  5
2B1
330
17
100
AcDbEntity
  8
4
100
AcDbLine
 10
1843.215235393323
 20
593.2595510047056
 30
0.0
 11
1843.215235393323
 21
604.2292061193082
 31
0.0
  0
LINE
  5
2B2
330
17
100
AcDbEntity
  8
4
100
AcDbLine
 10
1833.715235393323
 20
587.7747234474043
 30
0.0
 11
1843.215235393323
 21
593.2595510047056
 31
0.0
  0
LINE
  5
2B3
330
17
100
AcDbEntity
  8
4
100
AcDbLine
 10
1843.215235393323
 20
604.2292061193082
 30
0.0
 11
1833.715235393323
 21
609.7140336766104
 31
0.0
  0
CIRCLE
  5
2B5
330
17
100
AcDbEntity
  8
4
100
AcDbCircle
 10
1784.964972137175
 20
683.1817034394351
 30
0.0
 40
50.0
  0
CIRCLE
  5
2B6
330
17
100
AcDbEntity
  8
4
100
AcDbCircle
 10
1784.964972137175
 20
683.1817034394351
 30
0.0
 40
72.0
  0
LINE
  5
2B7
330
17
100
AcDbEntity
  8
4
100
AcDbLine
 10
1071.447559162881
 20
1639.725021123423
 30
0.0
 11
1071.447559162881
 21
1410.725021123423
 31
0.0
  0
LINE
  5
2B8
330
17
100
AcDbEntity
  8
4
100
AcDbLine
 10
446.647559162881
 20
1639.725021123423
 30
0.0
 11
446.647559162881
 21
1410.725021123423
 31
0.0
  0
LINE
  5
2B9
330
17
100
AcDbEntity
  8
4
100
AcDbLine
 10
1051.047559162881
 20
1639.725021123423
 30
0.0
 11
1071.447559162881
 21
1639.725021123423
 31
0.0
  0
LINE
  5
2BA
330
17
100
AcDbEntity
  8
4
100
AcDbLine
 10
1051.047559162881
 20
1410.725021123423
 30
0.0
 11
1071.447559162881
 21
1410.725021123423
 31
0.0
  0
LINE
  5
2BB
330
17
100
AcDbEntity
  8
4
100
AcDbLine
 10
1055.547559162881
 20
1410.725021123423
 30
0.0
 11
1055.547559162881
 21
1409.225021123423
 31
0.0
  0
LINE
  5
2BC
330
17
100
AcDbEntity
  8
4
100
AcDbLine
 10
1051.447559162881
 20
1639.725021123423
 30
0.0
 11
1051.447559162881
 21
1410.725021123423
 31
0.0
  0
LINE
  5
2BD
330
17
100
AcDbEntity
  8
4
100
AcDbLine
 10
467.047559162881
 20
1639.725021123423
 30
0.0
 11
446.647559162881
 21
1639.725021123423
 31
0.0
  0
LINE
  5
2BE
330
17
100
AcDbEntity
  8
4
100
AcDbLine
 10
446.647559162881
 20
1410.725021123423
 30
0.0
 11
467.047559162881
 21
1410.725021123423
 31
0.0
  0
LINE
  5
2BF
330
17
100
AcDbEntity
  8
4
100
AcDbLine
 10
462.547559162881
 20
1410.725021123423
 30
0.0
 11
462.547559162881
 21
1409.225021123423
 31
0.0
  0
LINE
  5
2C0
330
17
100
AcDbEntity
  8
4
100
AcDbLine
 10
466.647559162881
 20
1639.725021123423
 30
0.0
 11
466.647559162881
 21
1410.725021123423
 31
0.0
  0
ARC
  5
2C1
330
17
100
AcDbEntity
  8
4
100
AcDbCircle
 10
1068.651815027704
 20
1622.725021123423
 30
0.0
 40
13.7957441351769
100
AcDbArc
 50
336.5734024913729
 51
23.42659750862713
  0
LINE
  5
2C2
330
17
100
AcDbEntity
  8
4
100
AcDbLine
 10
1082.447559162881
 20
1614.497779787472
 30
0.0
 11
1082.447559162881
 21
1630.952262459376
 31
0.0
  0
LINE
  5
2C3
330
17
100
AcDbEntity
  8
4
100
AcDbLine
 10
1071.447559162881
 20
1633.694676238027
 30
0.0
 11
1071.447559162881
 21
1611.755366008821
 31
0.0
  0
LINE
  5
2C4
330
17
100
AcDbEntity
  8
4
100
AcDbLine
 10
1074.447559162881
 20
1633.694676238027
 30
0.0
 11
1074.447559162881
 21
1611.755366008821
 31
0.0
  0
LINE
  5
2C5
330
17
100
AcDbEntity
  8
4
100
AcDbLine
 10
1081.310378252254
 20
1628.209848680724
 30
0.0
 11
1074.447559162881
 21
1628.209848680724
 31
0.0
  0
LINE
  5
2C6
330
17
100
AcDbEntity
  8
4
100
AcDbLine
 10
1081.310378252254
 20
1633.694676238027
 30
0.0
 11
1071.447559162881
 21
1633.694676238027
 31
0.0
  0
ARC
  5
2C7
330
17
100
AcDbEntity
  8
4
100
AcDbCircle
 10
1078.572180287602
 20
1630.952262459376
 30
0.0
 40
3.875378875279244
100
AcDbArc
 50
314.9559267627452
 51
45.04407323726194
  0
LINE
  5
2C8
330
17
100
AcDbEntity
  8
4
100
AcDbLine
 10
1081.310378252254
 20
1617.240193566122
 30
0.0
 11
1074.447559162881
 21
1617.240193566122
 31
0.0
  0
LINE
  5
2C9
330
17
100
AcDbEntity
  8
4
100
AcDbLine
 10
1071.447559162881
 20
1611.755366008821
 30
0.0
 11
1081.310378252254
 21
1611.755366008821
 31
0.0
  0
LINE
  5
2CA
330
17
100
AcDbEntity
  8
L-CENTER
 48
2.0
100
AcDbLine
 10
1086.048399042985
 20
1622.725021123423
 30
0.0
 11
1041.607275687255
 21
1622.725021123423
 31
0.0
  0
ARC
  5
2CB
330
17
100
AcDbEntity
  8
4
100
AcDbCircle
 10
1078.572180287602
 20
1614.497779787472
 30
0.0
 40
3.875378875279264
100
AcDbArc
 50
314.9559267627452
 51
45.04407323726194
  0
ARC
  5
2CC
330
17
100
AcDbEntity
  8
4
100
AcDbCircle
 10
1078.572180287602
 20
1565.747505153611
 30
0.0
 40
3.875378875279264
100
AcDbArc
 50
314.9559267627452
 51
45.04407323726194
  0
LINE
  5
2CD
330
17
100
AcDbEntity
  8
4
100
AcDbLine
 10
1071.447559162881
 20
1584.944401604166
 30
0.0
 11
1071.447559162881
 21
1563.00509137496
 31
0.0
  0
LINE
  5
2CE
330
17
100
AcDbEntity
  8
4
100
AcDbLine
 10
1074.447559162881
 20
1584.944401604166
 30
0.0
 11
1074.447559162881
 21
1563.00509137496
 31
0.0
  0
LINE
  5
2CF
330
17
100
AcDbEntity
  8
4
100
AcDbLine
 10
1071.447559162881
 20
1563.00509137496
 30
0.0
 11
1081.310378252254
 21
1563.00509137496
 31
0.0
  0
LINE
  5
2D0
330
17
100
AcDbEntity
  8
L-CENTER
 48
2.0
100
AcDbLine
 10
1086.048399042985
 20
1573.974746489563
 30
0.0
 11
1041.607275687256
 21
1573.974746489563
 31
0.0
  0
LINE
  5
2D1
330
17
100
AcDbEntity
  8
4
100
AcDbLine
 10
1081.310378252254
 20
1579.459574046864
 30
0.0
 11
1074.447559162881
 21
1579.459574046864
 31
0.0
  0
LINE
  5
2D2
330
17
100
AcDbEntity
  8
4
100
AcDbLine
 10
1081.310378252254
 20
1568.489918932261
 30
0.0
 11
1074.447559162881
 21
1568.489918932261
 31
0.0
  0
LINE
  5
2D3
330
17
100
AcDbEntity
  8
4
100
AcDbLine
 10
1081.310378252254
 20
1584.944401604166
 30
0.0
 11
1071.447559162881
 21
1584.944401604166
 31
0.0
  0
ARC
  5
2D4
330
17
100
AcDbEntity
  8
4
100
AcDbCircle
 10
1068.651815027704
 20
1573.974746489563
 30
0.0
 40
13.7957441351769
100
AcDbArc
 50
336.5734024913729
 51
23.42659750862713
  0
LINE
  5
2D5
330
17
100
AcDbEntity
  8
4
100
AcDbLine
 10
1082.447559162881
 20
1565.747505153611
 30
0.0
 11
1082.447559162881
 21
1582.201987825515
 31
0.0
  0
ARC
  5
2D6
330
17
100
AcDbEntity
  8
4
100
AcDbCircle
 10
1078.572180287602
 20
1582.201987825515
 30
0.0
 40
3.875378875279244
100
AcDbArc
 50
314.9559267627452
 51
45.04407323726194
  0
ARC
  5
2D7
330
17
100
AcDbEntity
  8
4
100
AcDbCircle
 10
1078.572180287602
 20
1435.952262459374
 30
0.0
 40
3.875378875279264
100
AcDbArc
 50
314.9559267627452
 51
45.04407323726194
  0
LINE
  5
2D8
330
17
100
AcDbEntity
  8
4
100
AcDbLine
 10
1071.447559162881
 20
1416.755366008819
 30
0.0
 11
1071.447559162881
 21
1438.694676238025
 31
0.0
  0
LINE
  5
2D9
330
17
100
AcDbEntity
  8
4
100
AcDbLine
 10
1074.447559162881
 20
1416.755366008819
 30
0.0
 11
1074.447559162881
 21
1438.694676238025
 31
0.0
  0
LINE
  5
2DA
330
17
100
AcDbEntity
  8
4
100
AcDbLine
 10
1081.310378252254
 20
1465.505640642679
 30
0.0
 11
1071.447559162881
 21
1465.505640642679
 31
0.0
  0
LINE
  5
2DB
330
17
100
AcDbEntity
  8
4
100
AcDbLine
 10
1081.310378252254
 20
1481.960123314584
 30
0.0
 11
1074.447559162881
 21
1481.960123314584
 31
0.0
  0
LINE
  5
2DC
330
17
100
AcDbEntity
  8
4
100
AcDbLine
 10
1081.310378252254
 20
1470.990468199981
 30
0.0
 11
1074.447559162881
 21
1470.990468199981
 31
0.0
  0
LINE
  5
2DD
330
17
100
AcDbEntity
  8
L-CENTER
 48
2.0
100
AcDbLine
 10
1086.048399042985
 20
1476.475295757283
 30
0.0
 11
1041.607275687256
 21
1476.475295757283
 31
0.0
  0
LINE
  5
2DE
330
17
100
AcDbEntity
  8
4
100
AcDbLine
 10
1071.447559162881
 20
1487.444950871885
 30
0.0
 11
1081.310378252254
 21
1487.444950871885
 31
0.0
  0
LINE
  5
2DF
330
17
100
AcDbEntity
  8
4
100
AcDbLine
 10
1071.447559162881
 20
1438.694676238025
 30
0.0
 11
1081.310378252254
 21
1438.694676238025
 31
0.0
  0
LINE
  5
2E0
330
17
100
AcDbEntity
  8
4
100
AcDbLine
 10
1074.447559162881
 20
1465.505640642679
 30
0.0
 11
1074.447559162881
 21
1487.444950871885
 31
0.0
  0
LINE
  5
2E1
330
17
100
AcDbEntity
  8
4
100
AcDbLine
 10
1071.447559162881
 20
1465.505640642679
 30
0.0
 11
1071.447559162881
 21
1487.444950871885
 31
0.0
  0
LINE
  5
2E2
330
17
100
AcDbEntity
  8
4
100
AcDbLine
 10
1082.447559162881
 20
1484.702537093234
 30
0.0
 11
1082.447559162881
 21
1468.24805442133
 31
0.0
  0
ARC
  5
2E3
330
17
100
AcDbEntity
  8
4
100
AcDbCircle
 10
1068.651815027704
 20
1476.475295757283
 30
0.0
 40
13.7957441351769
100
AcDbArc
 50
336.5734024913729
 51
23.42659750862713
  0
ARC
  5
2E4
330
17
100
AcDbEntity
  8
4
100
AcDbCircle
 10
1078.572180287602
 20
1484.702537093234
 30
0.0
 40
3.875378875279264
100
AcDbArc
 50
314.9559267627452
 51
45.04407323726194
  0
ARC
  5
2E5
330
17
100
AcDbEntity
  8
4
100
AcDbCircle
 10
1078.572180287602
 20
1468.24805442133
 30
0.0
 40
3.875378875279244
100
AcDbArc
 50
314.9559267627452
 51
45.04407323726194
  0
LINE
  5
2E6
330
17
100
AcDbEntity
  8
L-CENTER
 48
2.0
100
AcDbLine
 10
1086.048399042985
 20
1427.725021123422
 30
0.0
 11
1041.607275687255
 21
1427.725021123422
 31
0.0
  0
LINE
  5
2E7
330
17
100
AcDbEntity
  8
4
100
AcDbLine
 10
1081.310378252254
 20
1422.240193566121
 30
0.0
 11
1074.447559162881
 21
1422.240193566121
 31
0.0
  0
LINE
  5
2E8
330
17
100
AcDbEntity
  8
4
100
AcDbLine
 10
1081.310378252254
 20
1433.209848680724
 30
0.0
 11
1074.447559162881
 21
1433.209848680724
 31
0.0
  0
LINE
  5
2E9
330
17
100
AcDbEntity
  8
4
100
AcDbLine
 10
1081.310378252254
 20
1416.755366008819
 30
0.0
 11
1071.447559162881
 21
1416.755366008819
 31
0.0
  0
ARC
  5
2EA
330
17
100
AcDbEntity
  8
4
100
AcDbCircle
 10
1068.651815027704
 20
1427.725021123422
 30
0.0
 40
13.7957441351769
100
AcDbArc
 50
336.5734024913729
 51
23.42659750862713
  0
LINE
  5
2EB
330
17
100
AcDbEntity
  8
4
100
AcDbLine
 10
1082.447559162881
 20
1435.952262459374
 30
0.0
 11
1082.447559162881
 21
1419.49777978747
 31
0.0
  0
ARC
  5
2EC
330
17
100
AcDbEntity
  8
4
100
AcDbCircle
 10
1078.572180287602
 20
1419.49777978747
 30
0.0
 40
3.875378875279244
100
AcDbArc
 50
314.9559267627452
 51
45.04407323726194
  0
ARC
  5
2ED
330
17
100
AcDbEntity
  8
4
100
AcDbCircle
 10
439.5229380381602
 20
1614.497779787472
 30
0.0
 40
3.875378875279264
100
AcDbArc
 50
134.9559267627387
 51
225.0440732372518
  0
LINE
  5
2EE
330
17
100
AcDbEntity
  8
4
100
AcDbLine
 10
446.647559162881
 20
1633.694676238027
 30
0.0
 11
446.647559162881
 21
1611.755366008821
 31
0.0
  0
LINE
  5
2EF
330
17
100
AcDbEntity
  8
4
100
AcDbLine
 10
443.647559162881
 20
1633.694676238027
 30
0.0
 11
443.647559162881
 21
1611.755366008821
 31
0.0
  0
LINE
  5
2F0
330
17
100
AcDbEntity
  8
4
100
AcDbLine
 10
436.7847400735077
 20
1584.944401604166
 30
0.0
 11
446.647559162881
 21
1584.944401604166
 31
0.0
  0
LINE
  5
2F1
330
17
100
AcDbEntity
  8
4
100
AcDbLine
 10
436.7847400735077
 20
1568.489918932261
 30
0.0
 11
443.647559162881
 21
1568.489918932261
 31
0.0
  0
LINE
  5
2F2
330
17
100
AcDbEntity
  8
4
100
AcDbLine
 10
436.7847400735077
 20
1579.459574046864
 30
0.0
 11
443.647559162881
 21
1579.459574046864
 31
0.0
  0
LINE
  5
2F3
330
17
100
AcDbEntity
  8
L-CENTER
 48
2.0
100
AcDbLine
 10
432.0467192827768
 20
1573.974746489563
 30
0.0
 11
476.4878426385062
 21
1573.974746489563
 31
0.0
  0
LINE
  5
2F4
330
17
100
AcDbEntity
  8
4
100
AcDbLine
 10
446.647559162881
 20
1563.00509137496
 30
0.0
 11
436.7847400735077
 21
1563.00509137496
 31
0.0
  0
LINE
  5
2F5
330
17
100
AcDbEntity
  8
4
100
AcDbLine
 10
446.647559162881
 20
1611.755366008821
 30
0.0
 11
436.7847400735077
 21
1611.755366008821
 31
0.0
  0
LINE
  5
2F6
330
17
100
AcDbEntity
  8
4
100
AcDbLine
 10
443.647559162881
 20
1584.944401604166
 30
0.0
 11
443.647559162881
 21
1563.00509137496
 31
0.0
  0
LINE
  5
2F7
330
17
100
AcDbEntity
  8
4
100
AcDbLine
 10
446.647559162881
 20
1584.944401604166
 30
0.0
 11
446.647559162881
 21
1563.00509137496
 31
0.0
  0
LINE
  5
2F8
330
17
100
AcDbEntity
  8
4
100
AcDbLine
 10
435.647559162881
 20
1565.747505153611
 30
0.0
 11
435.647559162881
 21
1582.201987825515
 31
0.0
  0
ARC
  5
2F9
330
17
100
AcDbEntity
  8
4
100
AcDbCircle
 10
449.4433032980583
 20
1573.974746489563
 30
0.0
 40
13.7957441351769
100
AcDbArc
 50
156.5734024913727
 51
203.4265975086273
  0
ARC
  5
2FA
330
17
100
AcDbEntity
  8
4
100
AcDbCircle
 10
439.5229380381602
 20
1565.747505153611
 30
0.0
 40
3.875378875279264
100
AcDbArc
 50
134.9559267627387
 51
225.0440732372518
  0
ARC
  5
2FB
330
17
100
AcDbEntity
  8
4
100
AcDbCircle
 10
439.5229380381602
 20
1582.201987825515
 30
0.0
 40
3.875378875279244
100
AcDbArc
 50
134.9559267627387
 51
225.0440732372518
  0
LINE
  5
2FC
330
17
100
AcDbEntity
  8
L-CENTER
 48
2.0
100
AcDbLine
 10
432.0467192827768
 20
1622.725021123423
 30
0.0
 11
476.4878426385067
 21
1622.725021123423
 31
0.0
  0
LINE
  5
2FD
330
17
100
AcDbEntity
  8
4
100
AcDbLine
 10
436.7847400735077
 20
1628.209848680724
 30
0.0
 11
443.647559162881
 21
1628.209848680724
 31
0.0
  0
LINE
  5
2FE
330
17
100
AcDbEntity
  8
4
100
AcDbLine
 10
436.7847400735077
 20
1617.240193566122
 30
0.0
 11
443.647559162881
 21
1617.240193566122
 31
0.0
  0
LINE
  5
2FF
330
17
100
AcDbEntity
  8
4
100
AcDbLine
 10
436.7847400735077
 20
1633.694676238027
 30
0.0
 11
446.647559162881
 21
1633.694676238027
 31
0.0
  0
ARC
  5
300
330
17
100
AcDbEntity
  8
4
100
AcDbCircle
 10
449.4433032980583
 20
1622.725021123423
 30
0.0
 40
13.7957441351769
100
AcDbArc
 50
156.5734024913727
 51
203.4265975086273
  0
LINE
  5
301
330
17
100
AcDbEntity
  8
4
100
AcDbLine
 10
435.647559162881
 20
1614.497779787472
 30
0.0
 11
435.647559162881
 21
1630.952262459376
 31
0.0
  0
ARC
  5
302
330
17
100
AcDbEntity
  8
4
100
AcDbCircle
 10
439.5229380381602
 20
1630.952262459376
 30
0.0
 40
3.875378875279244
100
AcDbArc
 50
134.9559267627387
 51
225.0440732372518
  0
LINE
  5
303
330
17
100
AcDbEntity
  8
4
100
AcDbLine
 10
436.7847400735077
 20
1416.755366008819
 30
0.0
 11
446.647559162881
 21
1416.755366008819
 31
0.0
  0
LINE
  5
304
330
17
100
AcDbEntity
  8
4
100
AcDbLine
 10
436.7847400735077
 20
1433.209848680724
 30
0.0
 11
443.647559162881
 21
1433.209848680724
 31
0.0
  0
LINE
  5
305
330
17
100
AcDbEntity
  8
4
100
AcDbLine
 10
436.7847400735077
 20
1422.240193566121
 30
0.0
 11
443.647559162881
 21
1422.240193566121
 31
0.0
  0
LINE
  5
306
330
17
100
AcDbEntity
  8
L-CENTER
 48
2.0
100
AcDbLine
 10
432.0467192827768
 20
1427.725021123422
 30
0.0
 11
476.4878426385067
 21
1427.725021123422
 31
0.0
  0
LINE
  5
307
330
17
100
AcDbEntity
  8
4
100
AcDbLine
 10
446.647559162881
 20
1438.694676238025
 30
0.0
 11
436.7847400735077
 21
1438.694676238025
 31
0.0
  0
LINE
  5
308
330
17
100
AcDbEntity
  8
4
100
AcDbLine
 10
443.647559162881
 20
1416.755366008819
 30
0.0
 11
443.647559162881
 21
1438.694676238025
 31
0.0
  0
LINE
  5
309
330
17
100
AcDbEntity
  8
4
100
AcDbLine
 10
446.647559162881
 20
1416.755366008819
 30
0.0
 11
446.647559162881
 21
1438.694676238025
 31
0.0
  0
ARC
  5
30A
330
17
100
AcDbEntity
  8
4
100
AcDbCircle
 10
439.5229380381602
 20
1419.49777978747
 30
0.0
 40
3.875378875279244
100
AcDbArc
 50
134.9559267627387
 51
225.0440732372518
  0
LINE
  5
30B
330
17
100
AcDbEntity
  8
4
100
AcDbLine
 10
435.647559162881
 20
1435.952262459374
 30
0.0
 11
435.647559162881
 21
1419.49777978747
 31
0.0
  0
ARC
  5
30C
330
17
100
AcDbEntity
  8
4
100
AcDbCircle
 10
449.4433032980583
 20
1427.725021123422
 30
0.0
 40
13.7957441351769
100
AcDbArc
 50
156.5734024913727
 51
203.4265975086273
  0
ARC
  5
30D
330
17
100
AcDbEntity
  8
4
100
AcDbCircle
 10
439.5229380381602
 20
1435.952262459374
 30
0.0
 40
3.875378875279264
100
AcDbArc
 50
134.9559267627387
 51
225.0440732372518
  0
LINE
  5
30E
330
17
100
AcDbEntity
  8
4
100
AcDbLine
 10
446.647559162881
 20
1487.444950871885
 30
0.0
 11
436.7847400735077
 21
1487.444950871885
 31
0.0
  0
LINE
  5
30F
330
17
100
AcDbEntity
  8
L-CENTER
 48
2.0
100
AcDbLine
 10
432.0467192827768
 20
1476.475295757283
 30
0.0
 11
476.4878426385062
 21
1476.475295757283
 31
0.0
  0
LINE
  5
310
330
17
100
AcDbEntity
  8
4
100
AcDbLine
 10
436.7847400735077
 20
1470.990468199981
 30
0.0
 11
443.647559162881
 21
1470.990468199981
 31
0.0
  0
LINE
  5
311
330
17
100
AcDbEntity
  8
4
100
AcDbLine
 10
436.7847400735077
 20
1481.960123314584
 30
0.0
 11
443.647559162881
 21
1481.960123314584
 31
0.0
  0
LINE
  5
312
330
17
100
AcDbEntity
  8
4
100
AcDbLine
 10
436.7847400735077
 20
1465.505640642679
 30
0.0
 11
446.647559162881
 21
1465.505640642679
 31
0.0
  0
LINE
  5
313
330
17
100
AcDbEntity
  8
4
100
AcDbLine
 10
446.647559162881
 20
1465.505640642679
 30
0.0
 11
446.647559162881
 21
1487.444950871885
 31
0.0
  0
LINE
  5
314
330
17
100
AcDbEntity
  8
4
100
AcDbLine
 10
443.647559162881
 20
1465.505640642679
 30
0.0
 11
443.647559162881
 21
1487.444950871885
 31
0.0
  0
ARC
  5
315
330
17
100
AcDbEntity
  8
4
100
AcDbCircle
 10
439.5229380381602
 20
1468.24805442133
 30
0.0
 40
3.875378875279244
100
AcDbArc
 50
134.9559267627387
 51
225.0440732372518
  0
ARC
  5
316
330
17
100
AcDbEntity
  8
4
100
AcDbCircle
 10
439.5229380381602
 20
1484.702537093234
 30
0.0
 40
3.875378875279264
100
AcDbArc
 50
134.9559267627387
 51
225.0440732372518
  0
ARC
  5
317
330
17
100
AcDbEntity
  8
4
100
AcDbCircle
 10
449.4433032980583
 20
1476.475295757283
 30
0.0
 40
13.7957441351769
100
AcDbArc
 50
156.5734024913727
 51
203.4265975086273
  0
LINE
  5
318
330
17
100
AcDbEntity
  8
4
100
AcDbLine
 10
435.647559162881
 20
1484.702537093234
 30
0.0
 11
435.647559162881
 21
1468.24805442133
 31
0.0
  0
LINE
  5
329
330
17
100
AcDbEntity
  8
4
100
AcDbLine
 10
1099.047559162881
 20
1715.225021123423
 30
0.0
 11
1099.047559162881
 21
1335.225021123423
 31
0.0
  0
LINE
  5
32A
330
17
100
AcDbEntity
  8
4
100
AcDbLine
 10
712.5475591628806
 20
1726.225021123423
 30
0.0
 11
712.5475591628806
 21
1883.225021123423
 31
0.0
  0
LINE
  5
32B
330
17
100
AcDbEntity
  8
4
100
AcDbLine
 10
747.0475591628806
 20
1885.225021123423
 30
0.0
 11
747.0475591628806
 21
1747.225021123423
 31
0.0
  0
LINE
  5
32C
330
17
100
AcDbEntity
  8
4
100
AcDbLine
 10
805.5475591628806
 20
1726.225021123423
 30
0.0
 11
805.5475591628806
 21
1883.225021123423
 31
0.0
  0
LINE
  5
32D
330
17
100
AcDbEntity
  8
4
100
AcDbLine
 10
771.0475591628806
 20
1885.225021123423
 30
0.0
 11
771.0475591628806
 21
1747.225021123423
 31
0.0
  0
LINE
  5
32E
330
17
100
AcDbEntity
  8
4
100
AcDbLine
 10
711.547559162881
 20
1725.225021123423
 30
0.0
 11
806.5475591628806
 21
1725.225021123423
 31
0.0
  0
ARC
  5
32F
330
17
100
AcDbEntity
  8
4
100
AcDbCircle
 10
806.5475591628815
 20
1726.225021123423
 30
0.0
 40
1.0
100
AcDbArc
 50
180.0
 51
270.0
  0
LINE
  5
330
330
17
100
AcDbEntity
  8
4
100
AcDbLine
 10
806.5475591628806
 20
1725.225021123423
 30
0.0
 11
806.5475591628806
 21
1725.225021123423
 31
0.0
  0
ARC
  5
331
330
17
100
AcDbEntity
  8
4
100
AcDbCircle
 10
759.0475591628815
 20
1747.225021123423
 30
0.0
 40
12.0
100
AcDbArc
 50
180.0
 51
0.0
  0
LINE
  5
332
330
17
100
AcDbEntity
  8
4
100
AcDbLine
 10
711.547559162881
 20
1725.225021123423
 30
0.0
 11
711.547559162881
 21
1725.225021123423
 31
0.0
  0
ARC
  5
333
330
17
100
AcDbEntity
  8
4
100
AcDbCircle
 10
711.547559162881
 20
1726.225021123423
 30
0.0
 40
1.0
100
AcDbArc
 50
270.0
 51
0.0
  0
LINE
  5
334
330
17
100
AcDbEntity
  8
4
100
AcDbLine
 10
711.547559162881
 20
1716.525021123416
 30
0.0
 11
711.547559162881
 21
1725.225021123423
 31
0.0
  0
LINE
  5
335
330
17
100
AcDbEntity
  8
4
100
AcDbLine
 10
806.5475591628806
 20
1716.525021123416
 30
0.0
 11
806.5475591628806
 21
1725.225021123423
 31
0.0
  0
ARC
  5
336
330
17
100
AcDbEntity
  8
4
100
AcDbCircle
 10
1938.389495261897
 20
621.1425380574503
 30
0.0
 40
3.875378875279264
100
AcDbArc
 50
314.9559267627452
 51
45.04407323725481
  0
LINE
  5
337
330
17
100
AcDbEntity
  8
4
100
AcDbLine
 10
1931.264874137175
 20
640.3394345080053
 30
0.0
 11
1931.264874137175
 21
618.4001242787992
 31
0.0
  0
LINE
  5
338
330
17
100
AcDbEntity
  8
4
100
AcDbLine
 10
1934.264874137175
 20
640.3394345080053
 30
0.0
 11
1934.264874137175
 21
618.4001242787992
 31
0.0
  0
LINE
  5
339
330
17
100
AcDbEntity
  8
4
100
AcDbLine
 10
1931.264874137175
 20
618.4001242787992
 30
0.0
 11
1941.127693226549
 21
618.4001242787992
 31
0.0
  0
LINE
  5
33A
330
17
100
AcDbEntity
  8
L-CENTER
 48
2.0
100
AcDbLine
 10
1945.865714017279
 20
629.3697793934018
 30
0.0
 11
1901.42459066155
 21
629.3697793934018
 31
0.0
  0
LINE
  5
33B
330
17
100
AcDbEntity
  8
4
100
AcDbLine
 10
1941.127693226549
 20
634.8546069507031
 30
0.0
 11
1934.264874137175
 21
634.8546069507031
 31
0.0
  0
LINE
  5
33C
330
17
100
AcDbEntity
  8
4
100
AcDbLine
 10
1941.127693226549
 20
623.8849518361005
 30
0.0
 11
1934.264874137175
 21
623.8849518361005
 31
0.0
  0
LINE
  5
33D
330
17
100
AcDbEntity
  8
4
100
AcDbLine
 10
1941.127693226549
 20
640.3394345080053
 30
0.0
 11
1931.264874137175
 21
640.3394345080053
 31
0.0
  0
ARC
  5
33E
330
17
100
AcDbEntity
  8
4
100
AcDbCircle
 10
1928.469130001998
 20
629.3697793934018
 30
0.0
 40
13.7957441351769
100
AcDbArc
 50
336.5734024913729
 51
23.42659750862626
  0
LINE
  5
33F
330
17
100
AcDbEntity
  8
4
100
AcDbLine
 10
1942.264874137175
 20
621.1425380574503
 30
0.0
 11
1942.264874137175
 21
637.5970207293542
 31
0.0
  0
ARC
  5
340
330
17
100
AcDbEntity
  8
4
100
AcDbCircle
 10
1938.389495261897
 20
637.5970207293542
 30
0.0
 40
3.875378875279244
100
AcDbArc
 50
314.9559267627452
 51
45.04407323725481
  0
LINE
  5
341
330
17
100
AcDbEntity
  8
4
100
AcDbLine
 10
1942.264874137175
 20
155.2208708214205
 30
0.0
 11
1942.264874137175
 21
138.7663881495166
 31
0.0
  0
ARC
  5
342
330
17
100
AcDbEntity
  8
4
100
AcDbCircle
 10
1928.469130001998
 20
146.993629485469
 30
0.0
 40
13.7957441351769
100
AcDbArc
 50
336.5734024913724
 51
23.42659750862713
  0
LINE
  5
343
330
17
100
AcDbEntity
  8
4
100
AcDbLine
 10
1934.264874137175
 20
136.0239743708655
 30
0.0
 11
1934.264874137175
 21
157.9632846000716
 31
0.0
  0
LINE
  5
344
330
17
100
AcDbEntity
  8
4
100
AcDbLine
 10
1931.264874137175
 20
136.0239743708655
 30
0.0
 11
1931.264874137175
 21
157.9632846000716
 31
0.0
  0
LINE
  5
345
330
17
100
AcDbEntity
  8
L-CENTER
 48
2.0
100
AcDbLine
 10
1945.865714017279
 20
146.993629485469
 30
0.0
 11
1901.42459066155
 21
146.993629485469
 31
0.0
  0
LINE
  5
346
330
17
100
AcDbEntity
  8
4
100
AcDbLine
 10
1941.127693226549
 20
152.4784570427703
 30
0.0
 11
1934.264874137175
 21
152.4784570427703
 31
0.0
  0
LINE
  5
347
330
17
100
AcDbEntity
  8
4
100
AcDbLine
 10
1931.264874137175
 20
157.9632846000716
 30
0.0
 11
1941.127693226549
 21
157.9632846000716
 31
0.0
  0
ARC
  5
348
330
17
100
AcDbEntity
  8
4
100
AcDbCircle
 10
1938.389495261897
 20
155.2208708214205
 30
0.0
 40
3.875378875279264
100
AcDbArc
 50
314.955926762744
 51
45.04407323725601
  0
ARC
  5
349
330
17
100
AcDbEntity
  8
4
100
AcDbCircle
 10
1938.389495261897
 20
138.7663881495166
 30
0.0
 40
3.875378875279244
100
AcDbArc
 50
314.955926762744
 51
45.04407323725601
  0
LINE
  5
34A
330
17
100
AcDbEntity
  8
4
100
AcDbLine
 10
1941.127693226549
 20
136.0239743708655
 30
0.0
 11
1931.264874137175
 21
136.0239743708655
 31
0.0
  0
LINE
  5
34B
330
17
100
AcDbEntity
  8
4
100
AcDbLine
 10
1941.127693226549
 20
141.5088019281677
 30
0.0
 11
1934.264874137175
 21
141.5088019281677
 31
0.0
  0
LINE
  5
34C
330
17
100
AcDbEntity
  8
4
100
AcDbLine
 10
1942.264874137175
 20
379.9544631034839
 30
0.0
 11
1942.264874137175
 21
396.4089457753878
 31
0.0
  0
ARC
  5
34D
330
17
100
AcDbEntity
  8
4
100
AcDbCircle
 10
1928.469130001998
 20
388.1817044394354
 30
0.0
 40
13.7957441351769
100
AcDbArc
 50
336.5734024913729
 51
23.42659750862626
  0
LINE
  5
34E
330
17
100
AcDbEntity
  8
4
100
AcDbLine
 10
1934.264874137175
 20
399.1513595540389
 30
0.0
 11
1934.264874137175
 21
377.2120493248328
 31
0.0
  0
LINE
  5
34F
330
17
100
AcDbEntity
  8
4
100
AcDbLine
 10
1931.264874137175
 20
399.1513595540389
 30
0.0
 11
1931.264874137175
 21
377.2120493248328
 31
0.0
  0
LINE
  5
350
330
17
100
AcDbEntity
  8
4
100
AcDbLine
 10
1941.127693226549
 20
382.6968768821341
 30
0.0
 11
1934.264874137175
 21
382.6968768821341
 31
0.0
  0
LINE
  5
351
330
17
100
AcDbEntity
  8
4
100
AcDbLine
 10
1931.264874137175
 20
377.2120493248328
 30
0.0
 11
1941.127693226549
 21
377.2120493248328
 31
0.0
  0
ARC
  5
352
330
17
100
AcDbEntity
  8
4
100
AcDbCircle
 10
1938.389495261897
 20
379.9544631034839
 30
0.0
 40
3.875378875279264
100
AcDbArc
 50
314.9559267627452
 51
45.04407323725481
  0
ARC
  5
353
330
17
100
AcDbEntity
  8
4
100
AcDbCircle
 10
1938.389495261897
 20
396.4089457753878
 30
0.0
 40
3.875378875279244
100
AcDbArc
 50
314.9559267627452
 51
45.04407323725481
  0
LINE
  5
354
330
17
100
AcDbEntity
  8
4
100
AcDbLine
 10
1941.127693226549
 20
399.1513595540389
 30
0.0
 11
1931.264874137175
 21
399.1513595540389
 31
0.0
  0
LINE
  5
355
330
17
100
AcDbEntity
  8
4
100
AcDbLine
 10
1941.127693226549
 20
393.6665319967367
 30
0.0
 11
1934.264874137175
 21
393.6665319967367
 31
0.0
  0
LINE
  5
356
330
17
100
AcDbEntity
  8
L-CENTER
 48
2.0
100
AcDbLine
 10
898.2975591628806
 20
1686.12586100352
 30
0.0
 11
898.2975591628806
 21
1641.68473764779
 31
0.0
  0
LINE
  5
357
330
17
100
AcDbEntity
  8
4
100
AcDbLine
 10
906.5248004988321
 20
1682.525021123416
 30
0.0
 11
890.0703178269291
 21
1682.525021123416
 31
0.0
  0
ARC
  5
358
330
17
100
AcDbEntity
  8
4
100
AcDbCircle
 10
898.2975591628815
 20
1668.729276988238
 30
0.0
 40
13.7957441351769
100
AcDbArc
 50
66.5734024913725
 51
113.4265975086275
  0
LINE
  5
359
330
17
100
AcDbEntity
  8
4
100
AcDbLine
 10
887.327904048278
 20
1674.525021123416
 30
0.0
 11
909.2672142774832
 21
1674.525021123416
 31
0.0
  0
LINE
  5
35A
330
17
100
AcDbEntity
  8
4
100
AcDbLine
 10
887.327904048278
 20
1671.525021123416
 30
0.0
 11
909.2672142774832
 21
1671.525021123416
 31
0.0
  0
LINE
  5
35B
330
17
100
AcDbEntity
  8
4
100
AcDbLine
 10
903.7823867201828
 20
1681.387840212789
 30
0.0
 11
903.7823867201828
 21
1674.525021123416
 31
0.0
  0
LINE
  5
35C
330
17
100
AcDbEntity
  8
4
100
AcDbLine
 10
909.2672142774832
 20
1671.525021123416
 30
0.0
 11
909.2672142774832
 21
1681.387840212789
 31
0.0
  0
ARC
  5
35D
330
17
100
AcDbEntity
  8
4
100
AcDbCircle
 10
906.524800498833
 20
1678.649642248136
 30
0.0
 40
3.875378875279264
100
AcDbArc
 50
44.95592676275351
 51
135.0440732372572
  0
ARC
  5
35E
330
17
100
AcDbEntity
  8
4
100
AcDbCircle
 10
890.0703178269291
 20
1678.649642248136
 30
0.0
 40
3.875378875279244
100
AcDbArc
 50
44.95592676275351
 51
135.044073237256
  0
LINE
  5
35F
330
17
100
AcDbEntity
  8
4
100
AcDbLine
 10
887.327904048278
 20
1681.387840212789
 30
0.0
 11
887.327904048278
 21
1671.525021123416
 31
0.0
  0
LINE
  5
360
330
17
100
AcDbEntity
  8
4
100
AcDbLine
 10
892.8127316055802
 20
1681.387840212789
 30
0.0
 11
892.8127316055802
 21
1674.525021123416
 31
0.0
  0
LINE
  5
361
330
17
100
AcDbEntity
  8
L-CENTER
 48
2.0
100
AcDbLine
 10
1037.547559162881
 20
1686.12586100352
 30
0.0
 11
1037.547559162881
 21
1641.68473764779
 31
0.0
  0
LINE
  5
362
330
17
100
AcDbEntity
  8
4
100
AcDbLine
 10
1045.774800498832
 20
1682.525021123416
 30
0.0
 11
1029.320317826929
 21
1682.525021123416
 31
0.0
  0
ARC
  5
363
330
17
100
AcDbEntity
  8
4
100
AcDbCircle
 10
1037.547559162881
 20
1668.729276988238
 30
0.0
 40
13.7957441351769
100
AcDbArc
 50
66.5734024913683
 51
113.4265975086275
  0
LINE
  5
364
330
17
100
AcDbEntity
  8
4
100
AcDbLine
 10
1026.577904048278
 20
1674.525021123416
 30
0.0
 11
1048.517214277483
 21
1674.525021123416
 31
0.0
  0
LINE
  5
365
330
17
100
AcDbEntity
  8
4
100
AcDbLine
 10
1026.577904048278
 20
1671.525021123416
 30
0.0
 11
1048.517214277483
 21
1671.525021123416
 31
0.0
  0
LINE
  5
366
330
17
100
AcDbEntity
  8
4
100
AcDbLine
 10
1043.032386720183
 20
1681.387840212789
 30
0.0
 11
1043.032386720183
 21
1674.525021123416
 31
0.0
  0
LINE
  5
367
330
17
100
AcDbEntity
  8
4
100
AcDbLine
 10
1048.517214277483
 20
1671.525021123416
 30
0.0
 11
1048.517214277483
 21
1681.387840212789
 31
0.0
  0
ARC
  5
368
330
17
100
AcDbEntity
  8
4
100
AcDbCircle
 10
1045.774800498833
 20
1678.649642248136
 30
0.0
 40
3.875378875279264
100
AcDbArc
 50
44.9559267627547
 51
135.0440732372572
  0
ARC
  5
369
330
17
100
AcDbEntity
  8
4
100
AcDbCircle
 10
1029.320317826929
 20
1678.649642248136
 30
0.0
 40
3.875378875279244
100
AcDbArc
 50
44.9559267627547
 51
135.0440732372572
  0
LINE
  5
36A
330
17
100
AcDbEntity
  8
4
100
AcDbLine
 10
1026.577904048278
 20
1681.387840212789
 30
0.0
 11
1026.577904048278
 21
1671.525021123416
 31
0.0
  0
LINE
  5
36B
330
17
100
AcDbEntity
  8
4
100
AcDbLine
 10
1032.06273160558
 20
1681.387840212789
 30
0.0
 11
1032.06273160558
 21
1674.525021123416
 31
0.0
  0
ARC
  5
36C
330
17
100
AcDbEntity
  8
4
100
AcDbCircle
 10
1039.047559162881
 20
1675.225021123423
 30
0.0
 40
13.0
100
AcDbArc
 50
163.5777460805699
 51
196.0766498316402
  0
ARC
  5
36D
330
17
100
AcDbEntity
  8
4
100
AcDbCircle
 10
628.0248004988334
 20
1678.649642248136
 30
0.0
 40
3.875378875279244
100
AcDbArc
 50
44.955926762744
 51
135.044073237256
  0
LINE
  5
36E
330
17
100
AcDbEntity
  8
4
100
AcDbLine
 10
630.7672142774845
 20
1671.525021123416
 30
0.0
 11
608.8279040482785
 21
1671.525021123416
 31
0.0
  0
LINE
  5
36F
330
17
100
AcDbEntity
  8
4
100
AcDbLine
 10
630.7672142774845
 20
1674.525021123416
 30
0.0
 11
608.8279040482785
 21
1674.525021123416
 31
0.0
  0
LINE
  5
370
330
17
100
AcDbEntity
  8
4
100
AcDbLine
 10
611.5703178269296
 20
1682.525021123416
 30
0.0
 11
628.0248004988334
 21
1682.525021123416
 31
0.0
  0
LINE
  5
371
330
17
100
AcDbEntity
  8
4
100
AcDbLine
 10
630.7672142774845
 20
1681.387840212789
 30
0.0
 11
630.7672142774845
 21
1671.525021123416
 31
0.0
  0
LINE
  5
372
330
17
100
AcDbEntity
  8
L-CENTER
100
AcDbLine
 10
619.797559162881
 20
1686.12586100352
 30
0.0
 11
619.797559162881
 21
1641.68473764779
 31
0.0
  0
LINE
  5
373
330
17
100
AcDbEntity
  8
4
100
AcDbLine
 10
625.2823867201823
 20
1681.387840212789
 30
0.0
 11
625.2823867201823
 21
1674.525021123416
 31
0.0
  0
ARC
  5
374
330
17
100
AcDbEntity
  8
4
100
AcDbCircle
 10
611.5703178269291
 20
1678.649642248136
 30
0.0
 40
3.875378875279264
100
AcDbArc
 50
44.95592676274281
 51
135.044073237256
  0
LINE
  5
375
330
17
100
AcDbEntity
  8
4
100
AcDbLine
 10
608.8279040482785
 20
1671.525021123416
 30
0.0
 11
608.8279040482785
 21
1681.387840212789
 31
0.0
  0
LINE
  5
376
330
17
100
AcDbEntity
  8
4
100
AcDbLine
 10
614.3127316055798
 20
1681.387840212789
 30
0.0
 11
614.3127316055798
 21
1674.525021123416
 31
0.0
  0
ARC
  5
377
330
17
100
AcDbEntity
  8
4
100
AcDbCircle
 10
619.797559162881
 20
1668.729276988238
 30
0.0
 40
13.7957441351769
100
AcDbArc
 50
66.5734024913725
 51
113.4265975086292
  0
ARC
  5
378
330
17
100
AcDbEntity
  8
4
100
AcDbCircle
 10
472.3203178269291
 20
1678.649642248136
 30
0.0
 40
3.875378875279264
100
AcDbArc
 50
44.95592676274281
 51
135.044073237256
  0
LINE
  5
379
330
17
100
AcDbEntity
  8
4
100
AcDbLine
 10
491.5172142774845
 20
1671.525021123416
 30
0.0
 11
469.5779040482785
 21
1671.525021123416
 31
0.0
  0
LINE
  5
37A
330
17
100
AcDbEntity
  8
4
100
AcDbLine
 10
491.5172142774845
 20
1674.525021123416
 30
0.0
 11
469.5779040482785
 21
1674.525021123416
 31
0.0
  0
LINE
  5
37B
330
17
100
AcDbEntity
  8
4
100
AcDbLine
 10
472.3203178269296
 20
1682.525021123416
 30
0.0
 11
488.7748004988334
 21
1682.525021123416
 31
0.0
  0
LINE
  5
37C
330
17
100
AcDbEntity
  8
4
100
AcDbLine
 10
486.0323867201823
 20
1681.387840212789
 30
0.0
 11
486.0323867201823
 21
1674.525021123416
 31
0.0
  0
LINE
  5
37D
330
17
100
AcDbEntity
  8
4
100
AcDbLine
 10
491.5172142774845
 20
1681.387840212789
 30
0.0
 11
491.5172142774845
 21
1671.525021123416
 31
0.0
  0
ARC
  5
37E
330
17
100
AcDbEntity
  8
4
100
AcDbCircle
 10
488.7748004988334
 20
1678.649642248136
 30
0.0
 40
3.875378875279244
100
AcDbArc
 50
44.955926762744
 51
135.044073237256
  0
LINE
  5
37F
330
17
100
AcDbEntity
  8
4
100
AcDbLine
 10
475.0627316055798
 20
1681.387840212789
 30
0.0
 11
475.0627316055798
 21
1674.525021123416
 31
0.0
  0
ARC
  5
380
330
17
100
AcDbEntity
  8
4
100
AcDbCircle
 10
480.547559162881
 20
1668.729276988238
 30
0.0
 40
13.7957441351769
100
AcDbArc
 50
66.5734024913725
 51
113.4265975086275
  0
LINE
  5
381
330
17
100
AcDbEntity
  8
4
100
AcDbLine
 10
469.5779040482785
 20
1671.525021123416
 30
0.0
 11
469.5779040482785
 21
1681.387840212789
 31
0.0
  0
LINE
  5
382
330
17
100
AcDbEntity
  8
L-CENTER
 48
2.0
100
AcDbLine
 10
480.547559162881
 20
1686.12586100352
 30
0.0
 11
480.547559162881
 21
1641.68473764779
 31
0.0
  0
ARC
  5
383
330
17
100
AcDbEntity
  8
4
100
AcDbCircle
 10
479.047559162881
 20
1675.225021123423
 30
0.0
 40
13.0
100
AcDbArc
 50
33.2456332316481
 51
196.5358596539425
  0
LINE
  5
384
330
17
100
AcDbEntity
  8
4
100
AcDbLine
 10
1071.447459162881
 20
778.5886145540387
 30
0.0
 11
1071.447459162881
 21
756.6493043248327
 31
0.0
  0
LINE
  5
385
330
17
100
AcDbEntity
  8
4
100
AcDbLine
 10
1074.447459162881
 20
778.5886145540387
 30
0.0
 11
1074.447459162881
 21
756.6493043248327
 31
0.0
  0
ARC
  5
386
330
17
100
AcDbEntity
  8
4
100
AcDbCircle
 10
1068.651715027704
 20
767.6189594394352
 30
0.0
 40
13.7957441351769
100
AcDbArc
 50
336.5734024913729
 51
23.42659750862626
  0
LINE
  5
387
330
17
100
AcDbEntity
  8
4
100
AcDbLine
 10
1082.447459162881
 20
759.3917181034838
 30
0.0
 11
1082.447459162881
 21
775.8462007753876
 31
0.0
  0
ARC
  5
388
330
17
100
AcDbEntity
  8
4
100
AcDbCircle
 10
1078.572080287603
 20
759.3917181034838
 30
0.0
 40
3.875378875279264
100
AcDbArc
 50
314.9559267627452
 51
45.04407323725481
  0
LINE
  5
389
330
17
100
AcDbEntity
  8
4
100
AcDbLine
 10
1071.447459162881
 20
756.6493043248327
 30
0.0
 11
1081.310278252255
 21
756.6493043248327
 31
0.0
  0
LINE
  5
38A
330
17
100
AcDbEntity
  8
4
100
AcDbLine
 10
1081.310278252255
 20
762.1341318821339
 30
0.0
 11
1074.447459162881
 21
762.1341318821339
 31
0.0
  0
LINE
  5
38B
330
17
100
AcDbEntity
  8
4
100
AcDbLine
 10
1081.310278252255
 20
773.1037869967365
 30
0.0
 11
1074.447459162881
 21
773.1037869967365
 31
0.0
  0
LINE
  5
38C
330
17
100
AcDbEntity
  8
4
100
AcDbLine
 10
1081.310278252255
 20
778.5886145540387
 30
0.0
 11
1071.447459162881
 21
778.5886145540387
 31
0.0
  0
ARC
  5
38D
330
17
100
AcDbEntity
  8
4
100
AcDbCircle
 10
1078.572080287603
 20
775.8462007753876
 30
0.0
 40
3.875378875279244
100
AcDbArc
 50
314.9559267627452
 51
45.04407323725481
  0
LINE
  5
38E
330
17
100
AcDbEntity
  8
4
100
AcDbLine
 10
1081.310278252255
 20
694.1513585540386
 30
0.0
 11
1071.447459162881
 21
694.1513585540386
 31
0.0
  0
LINE
  5
38F
330
17
100
AcDbEntity
  8
4
100
AcDbLine
 10
1081.310278252255
 20
688.6665309967364
 30
0.0
 11
1074.447459162881
 21
688.6665309967364
 31
0.0
  0
LINE
  5
390
330
17
100
AcDbEntity
  8
4
100
AcDbLine
 10
1081.310278252255
 20
677.6968758821338
 30
0.0
 11
1074.447459162881
 21
677.6968758821338
 31
0.0
  0
LINE
  5
391
330
17
100
AcDbEntity
  8
4
100
AcDbLine
 10
1071.447459162881
 20
672.2120483248325
 30
0.0
 11
1081.310278252255
 21
672.2120483248325
 31
0.0
  0
LINE
  5
392
330
17
100
AcDbEntity
  8
4
100
AcDbLine
 10
1074.447459162881
 20
694.1513585540386
 30
0.0
 11
1074.447459162881
 21
672.2120483248325
 31
0.0
  0
LINE
  5
393
330
17
100
AcDbEntity
  8
4
100
AcDbLine
 10
1071.447459162881
 20
694.1513585540386
 30
0.0
 11
1071.447459162881
 21
672.2120483248325
 31
0.0
  0
ARC
  5
394
330
17
100
AcDbEntity
  8
4
100
AcDbCircle
 10
1078.572080287603
 20
691.4089447753875
 30
0.0
 40
3.875378875279244
100
AcDbArc
 50
314.9559267627452
 51
45.04407323725481
  0
ARC
  5
395
330
17
100
AcDbEntity
  8
4
100
AcDbCircle
 10
1078.572080287603
 20
674.9544621034836
 30
0.0
 40
3.875378875279264
100
AcDbArc
 50
314.9559267627452
 51
45.04407323725481
  0
LINE
  5
396
330
17
100
AcDbEntity
  8
4
100
AcDbLine
 10
1082.447459162881
 20
674.9544621034836
 30
0.0
 11
1082.447459162881
 21
691.4089447753875
 31
0.0
  0
ARC
  5
397
330
17
100
AcDbEntity
  8
4
100
AcDbCircle
 10
1068.651715027704
 20
683.1817034394351
 30
0.0
 40
13.7957441351769
100
AcDbArc
 50
336.5734024913729
 51
23.42659750862626
  0
LINE
  5
398
330
17
100
AcDbEntity
  8
4
100
AcDbLine
 10
1071.447459162881
 20
587.7747923248323
 30
0.0
 11
1081.310278252255
 21
587.7747923248323
 31
0.0
  0
LINE
  5
399
330
17
100
AcDbEntity
  8
4
100
AcDbLine
 10
1081.310278252255
 20
593.2596198821336
 30
0.0
 11
1074.447459162881
 21
593.2596198821336
 31
0.0
  0
LINE
  5
39A
330
17
100
AcDbEntity
  8
4
100
AcDbLine
 10
1081.310278252255
 20
604.2292749967362
 30
0.0
 11
1074.447459162881
 21
604.2292749967362
 31
0.0
  0
LINE
  5
39B
330
17
100
AcDbEntity
  8
4
100
AcDbLine
 10
1081.310278252255
 20
609.7141025540384
 30
0.0
 11
1071.447459162881
 21
609.7141025540384
 31
0.0
  0
LINE
  5
39C
330
17
100
AcDbEntity
  8
4
100
AcDbLine
 10
1071.447459162881
 20
609.7141025540384
 30
0.0
 11
1071.447459162881
 21
587.7747923248323
 31
0.0
  0
LINE
  5
39D
330
17
100
AcDbEntity
  8
4
100
AcDbLine
 10
1074.447459162881
 20
609.7141025540384
 30
0.0
 11
1074.447459162881
 21
587.7747923248323
 31
0.0
  0
ARC
  5
39E
330
17
100
AcDbEntity
  8
4
100
AcDbCircle
 10
1078.572080287603
 20
590.5172061034834
 30
0.0
 40
3.875378875279264
100
AcDbArc
 50
314.9559267627452
 51
45.04407323725481
  0
ARC
  5
39F
330
17
100
AcDbEntity
  8
4
100
AcDbCircle
 10
1068.651715027704
 20
598.7444474394349
 30
0.0
 40
13.7957441351769
100
AcDbArc
 50
336.5734024913729
 51
23.42659750862626
  0
LINE
  5
3A0
330
17
100
AcDbEntity
  8
4
100
AcDbLine
 10
1082.447459162881
 20
590.5172061034834
 30
0.0
 11
1082.447459162881
 21
606.9716887753873
 31
0.0
  0
ARC
  5
3A1
330
17
100
AcDbEntity
  8
4
100
AcDbCircle
 10
1078.572080287603
 20
606.9716887753873
 30
0.0
 40
3.875378875279244
100
AcDbArc
 50
314.9559267627452
 51
45.04407323725481
  0
LINE
  5
3A2
330
17
100
AcDbEntity
  8
4
100
AcDbLine
 10
436.7848400735079
 20
778.5886145540494
 30
0.0
 11
446.6476591628812
 21
778.5886145540492
 31
0.0
  0
LINE
  5
3A3
330
17
100
AcDbEntity
  8
4
100
AcDbLine
 10
436.7848400735074
 20
773.1037869967472
 30
0.0
 11
443.6476591628807
 21
773.103786996747
 31
0.0
  0
LINE
  5
3A4
330
17
100
AcDbEntity
  8
4
100
AcDbLine
 10
436.784840073507
 20
762.1341318821446
 30
0.0
 11
443.6476591628802
 21
762.1341318821444
 31
0.0
  0
LINE
  5
3A5
330
17
100
AcDbEntity
  8
4
100
AcDbLine
 10
446.6476591628802
 20
756.6493043248431
 30
0.0
 11
436.784840073507
 21
756.6493043248433
 31
0.0
  0
LINE
  5
3A6
330
17
100
AcDbEntity
  8
4
100
AcDbLine
 10
443.6476591628812
 20
778.5886145540492
 30
0.0
 11
443.6476591628802
 21
756.6493043248431
 31
0.0
  0
LINE
  5
3A7
330
17
100
AcDbEntity
  8
4
100
AcDbLine
 10
446.6476591628812
 20
778.5886145540492
 30
0.0
 11
446.6476591628802
 21
756.6493043248431
 31
0.0
  0
ARC
  5
3A8
330
17
100
AcDbEntity
  8
4
100
AcDbCircle
 10
439.5230380381604
 20
775.8462007753983
 30
0.0
 40
3.875378875279244
100
AcDbArc
 50
134.9559267627422
 51
225.0440732372483
  0
ARC
  5
3A9
330
17
100
AcDbEntity
  8
4
100
AcDbCircle
 10
439.5230380381595
 20
759.3917181034944
 30
0.0
 40
3.875378875279264
100
AcDbArc
 50
134.9559267627422
 51
225.0440732372542
  0
LINE
  5
3AA
330
17
100
AcDbEntity
  8
4
100
AcDbLine
 10
435.6476591628802
 20
759.3917181034944
 30
0.0
 11
435.6476591628812
 21
775.8462007753983
 31
0.0
  0
ARC
  5
3AB
330
17
100
AcDbEntity
  8
4
100
AcDbCircle
 10
449.4434032980575
 20
767.6189594394455
 30
0.0
 40
13.7957441351769
100
AcDbArc
 50
156.5734024913697
 51
203.4265975086263
  0
LINE
  5
3AC
330
17
100
AcDbEntity
  8
4
100
AcDbLine
 10
446.6476591628775
 20
672.212048324843
 30
0.0
 11
436.7848400735043
 21
672.2120483248432
 31
0.0
  0
LINE
  5
3AD
330
17
100
AcDbEntity
  8
4
100
AcDbLine
 10
436.7848400735043
 20
677.6968758821445
 30
0.0
 11
443.6476591628775
 21
677.6968758821442
 31
0.0
  0
LINE
  5
3AE
330
17
100
AcDbEntity
  8
4
100
AcDbLine
 10
436.7848400735047
 20
688.666530996747
 30
0.0
 11
443.647659162878
 21
688.6665309967468
 31
0.0
  0
LINE
  5
3AF
330
17
100
AcDbEntity
  8
4
100
AcDbLine
 10
436.7848400735052
 20
694.1513585540492
 30
0.0
 11
446.6476591628784
 21
694.151358554049
 31
0.0
  0
LINE
  5
3B0
330
17
100
AcDbEntity
  8
4
100
AcDbLine
 10
446.6476591628784
 20
694.151358554049
 30
0.0
 11
446.6476591628775
 21
672.212048324843
 31
0.0
  0
LINE
  5
3B1
330
17
100
AcDbEntity
  8
4
100
AcDbLine
 10
443.6476591628784
 20
694.151358554049
 30
0.0
 11
443.6476591628775
 21
672.212048324843
 31
0.0
  0
ARC
  5
3B2
330
17
100
AcDbEntity
  8
4
100
AcDbCircle
 10
439.5230380381568
 20
674.9544621034943
 30
0.0
 40
3.875378875279264
100
AcDbArc
 50
134.9559267627422
 51
225.0440732372542
  0
ARC
  5
3B3
330
17
100
AcDbEntity
  8
4
100
AcDbCircle
 10
449.4434032980548
 20
683.1817034394453
 30
0.0
 40
13.7957441351769
100
AcDbArc
 50
156.5734024913697
 51
203.4265975086263
  0
LINE
  5
3B4
330
17
100
AcDbEntity
  8
4
100
AcDbLine
 10
435.6476591628775
 20
674.9544621034943
 30
0.0
 11
435.647659162878
 21
691.4089447753981
 31
0.0
  0
ARC
  5
3B5
330
17
100
AcDbEntity
  8
4
100
AcDbCircle
 10
439.5230380381572
 20
691.4089447753981
 30
0.0
 40
3.875378875279244
100
AcDbArc
 50
134.9559267627422
 51
225.0440732372542
  0
LINE
  5
3B6
330
17
100
AcDbEntity
  8
4
100
AcDbLine
 10
436.784840073502
 20
609.7141025540491
 30
0.0
 11
446.6476591628752
 21
609.7141025540488
 31
0.0
  0
LINE
  5
3B7
330
17
100
AcDbEntity
  8
4
100
AcDbLine
 10
436.7848400735015
 20
604.2292749967469
 30
0.0
 11
443.6476591628748
 21
604.2292749967467
 31
0.0
  0
LINE
  5
3B8
330
17
100
AcDbEntity
  8
4
100
AcDbLine
 10
436.7848400735015
 20
593.2596198821443
 30
0.0
 11
443.6476591628748
 21
593.2596198821441
 31
0.0
  0
LINE
  5
3B9
330
17
100
AcDbEntity
  8
4
100
AcDbLine
 10
446.6476591628748
 20
587.7747923248428
 30
0.0
 11
436.7848400735015
 21
587.774792324843
 31
0.0
  0
LINE
  5
3BA
330
17
100
AcDbEntity
  8
4
100
AcDbLine
 10
443.6476591628752
 20
609.7141025540488
 30
0.0
 11
443.6476591628748
 21
587.7747923248428
 31
0.0
  0
LINE
  5
3BB
330
17
100
AcDbEntity
  8
4
100
AcDbLine
 10
446.6476591628752
 20
609.7141025540488
 30
0.0
 11
446.6476591628748
 21
587.7747923248428
 31
0.0
  0
LINE
  5
3BC
330
17
100
AcDbEntity
  8
4
100
AcDbLine
 10
435.6476591628748
 20
590.5172061034941
 30
0.0
 11
435.6476591628752
 21
606.971688775398
 31
0.0
  0
ARC
  5
3BD
330
17
100
AcDbEntity
  8
4
100
AcDbCircle
 10
439.523038038154
 20
590.5172061034941
 30
0.0
 40
3.875378875279264
100
AcDbArc
 50
134.9559267627422
 51
225.0440732372483
  0
ARC
  5
3BE
330
17
100
AcDbEntity
  8
4
100
AcDbCircle
 10
439.5230380381545
 20
606.971688775398
 30
0.0
 40
3.875378875279244
100
AcDbArc
 50
134.9559267627422
 51
225.0440732372542
  0
ARC
  5
3BF
330
17
100
AcDbEntity
  8
4
100
AcDbCircle
 10
449.4434032980521
 20
598.7444474394451
 30
0.0
 40
13.7957441351769
100
AcDbArc
 50
156.5734024913697
 51
203.4265975086263
  0
ARC
  5
3C0
330
17
100
AcDbEntity
  8
4
100
AcDbCircle
 10
759.0475591628806
 20
1525.225021123423
 30
0.0
 40
25.0
100
AcDbArc
 50
23.57817847820079
 51
156.4218215217982
  0
LINE
  5
3C1
330
17
100
AcDbEntity
  8
L-CENTER
 48
2.0
100
AcDbLine
 10
599.047559162881
 20
1567.560725132059
 30
0.0
 11
599.047559162881
 21
1485.327359852571
 31
0.0
  0
CIRCLE
  5
3C2
330
17
100
AcDbEntity
  8
4
100
AcDbCircle
 10
599.047559162881
 20
1525.225021123423
 30
0.0
 40
25.0
  0
CIRCLE
  5
3C3
330
17
100
AcDbEntity
  8
4
100
AcDbCircle
 10
599.047559162881
 20
1525.225021123423
 30
0.0
 40
23.0
  0
LWPOLYLINE
  5
3C4
330
17
100
AcDbEntity
  8
4
100
AcDbPolyline
 90
        6
 70
     1
 43
0.0
 10
622.047559162881
 20
1525.225021123423
 10
610.547559162881
 20
1545.143605410465
 10
587.547559162881
 20
1545.143605410465
 10
576.047559162881
 20
1525.225021123423
 10
587.547559162881
 20
1505.306436836381
 10
610.547559162881
 20
1505.306436836381
  0
LINE
  5
3C5
330
17
100
AcDbEntity
  8
4
100
AcDbLine
 10
724.0475591628806
 20
1515.225021123423
 30
0.0
 11
794.0475591628806
 21
1515.225021123423
 31
0.0
  0
LINE
  5
3C6
330
17
100
AcDbEntity
  8
4
100
AcDbLine
 10
724.0475591628806
 20
1535.225021123423
 30
0.0
 11
794.0475591628806
 21
1535.225021123423
 31
0.0
  0
ARC
  5
3C7
330
17
100
AcDbEntity
  8
4
100
AcDbCircle
 10
759.0475591628806
 20
1525.225021123423
 30
0.0
 40
22.5
100
AcDbArc
 50
206.3877999612431
 51
333.6122000387571
  0
ARC
  5
3C8
330
17
100
AcDbEntity
  8
4
100
AcDbCircle
 10
759.0475591628806
 20
1525.225021123423
 30
0.0
 40
20.0
100
AcDbArc
 50
209.9999999999999
 51
330.0000000000002
  0
ARC
  5
3C9
330
17
100
AcDbEntity
  8
4
100
AcDbCircle
 10
759.0475591628806
 20
1525.225021123423
 30
0.0
 40
20.0
100
AcDbArc
 50
29.99999999999988
 51
150.0000000000001
  0
ARC
  5
3CA
330
17
100
AcDbEntity
  8
4
100
AcDbCircle
 10
759.0475591628806
 20
1525.225021123423
 30
0.0
 40
22.5
100
AcDbArc
 50
26.38779996124289
 51
153.6122000387569
  0
ARC
  5
3CB
330
17
100
AcDbEntity
  8
4
100
AcDbCircle
 10
794.0475591628806
 20
1525.225021123423
 30
0.0
 40
10.0
100
AcDbArc
 50
270.0
 51
90.0
  0
ARC
  5
3CC
330
17
100
AcDbEntity
  8
4
100
AcDbCircle
 10
724.0475591628806
 20
1525.225021123423
 30
0.0
 40
10.0
100
AcDbArc
 50
90.0
 51
270.0
  0
ARC
  5
3CD
330
17
100
AcDbEntity
  8
4
100
AcDbCircle
 10
759.0475591628806
 20
1525.225021123423
 30
0.0
 40
25.0
100
AcDbArc
 50
203.5781784782018
 51
336.4218215217992
  0
LINE
  5
3CE
330
17
100
AcDbEntity
  8
L-CENTER
 48
2.0
100
AcDbLine
 10
522.0475581628812
 20
1501.838754571393
 30
0.0
 11
522.0475581628812
 21
1549.946046493033
 31
0.0
  0
CIRCLE
  5
3CF
330
17
100
AcDbEntity
  8
4
100
AcDbCircle
 10
522.0475581628812
 20
1525.225021123423
 30
0.0
 40
16.0
  0
CIRCLE
  5
3D0
330
17
100
AcDbEntity
  8
4
100
AcDbCircle
 10
996.0475601628809
 20
1525.225021123423
 30
0.0
 40
16.0
  0
LINE
  5
3D1
330
17
100
AcDbEntity
  8
L-CENTER
 48
2.0
100
AcDbLine
 10
996.0475601628809
 20
1501.838754571393
 30
0.0
 11
996.0475601628809
 21
1549.946046493033
 31
0.0
  0
LINE
  5
3D2
330
17
100
AcDbEntity
  8
4
100
AcDbLine
 10
686.0475621628811
 20
1359.113110139067
 30
0.0
 11
832.0475577128805
 21
1359.113110139067
 31
0.0
  0
LINE
  5
3D3
330
17
100
AcDbEntity
  8
4
100
AcDbLine
 10
686.0475621628811
 20
1361.225021123423
 30
0.0
 11
686.0475621628811
 21
1359.113110139067
 31
0.0
  0
LINE
  5
3D4
330
17
100
AcDbEntity
  8
4
100
AcDbLine
 10
700.0671535178612
 20
1381.225021123423
 30
0.0
 11
686.0475621628811
 21
1361.225021123421
 31
0.0
  0
LINE
  5
3D5
330
17
100
AcDbEntity
  8
4
100
AcDbLine
 10
686.0475621628811
 20
1361.225021123423
 30
0.0
 11
644.047559162881
 21
1361.225021123423
 31
0.0
  0
LINE
  5
3D6
330
17
100
AcDbEntity
  8
4
100
AcDbLine
 10
701.5475599667997
 20
1381.225021123423
 30
0.0
 11
686.0475621628811
 21
1359.113110139067
 31
0.0
  0
LINE
  5
3D7
330
17
100
AcDbEntity
  8
4
100
AcDbLine
 10
1012.047558162881
 20
831.1817024394352
 30
0.0
 11
996.0475601628809
 21
831.1817024394352
 31
0.0
  0
LINE
  5
3D8
330
17
100
AcDbEntity
  8
4
100
AcDbLine
 10
996.0475601628809
 20
833.1817074394355
 30
0.0
 11
1012.047558162881
 21
833.1817074394355
 31
0.0
  0
LINE
  5
3D9
330
17
100
AcDbEntity
  8
4
100
AcDbLine
 10
996.0475601628809
 20
834.1817064394356
 30
0.0
 11
1010.047560162881
 21
834.1817064394356
 31
0.0
  0
LINE
  5
3DA
330
17
100
AcDbEntity
  8
4
100
AcDbLine
 10
991.7975591628806
 20
807.1817054394357
 30
0.0
 11
1000.297561162881
 21
807.1817054394357
 31
0.0
  0
ARC
  5
3DB
330
17
100
AcDbEntity
  8
4
100
AcDbCircle
 10
1000.297561162881
 20
797.6504564394356
 30
0.0
 40
9.531249
100
AcDbArc
 50
63.51896000000171
 51
116.4810399999983
  0
LINE
  5
3DC
330
17
100
AcDbEntity
  8
4
100
AcDbLine
 10
996.0475601628809
 20
815.1817044394354
 30
0.0
 11
1011.047559162881
 21
815.1817044394354
 31
0.0
  0
LINE
  5
3DD
330
17
100
AcDbEntity
  8
4
100
AcDbLine
 10
1011.047559162881
 20
815.1817044394354
 30
0.0
 11
1011.047559162881
 21
831.1817024394352
 31
0.0
  0
ARC
  5
3DE
330
17
100
AcDbEntity
  8
4
100
AcDbCircle
 10
1010.547556162881
 20
809.1817034394351
 30
0.0
 40
6.000001
100
AcDbArc
 50
90.0
 51
180.0
  0
LINE
  5
3DF
330
17
100
AcDbEntity
  8
4
100
AcDbLine
 10
1004.547562162882
 20
809.1817034394351
 30
0.0
 11
1004.547562162882
 21
800.1817054394357
 31
0.0
  0
LINE
  5
3E0
330
17
100
AcDbEntity
  8
4
100
AcDbLine
 10
1010.047560162881
 20
834.1817064394356
 30
0.0
 11
1012.047558162881
 21
833.1817074394355
 31
0.0
  0
LINE
  5
3E1
330
17
100
AcDbEntity
  8
4
100
AcDbLine
 10
1012.047558162881
 20
831.1817024394352
 30
0.0
 11
1012.047558162881
 21
833.1817074394355
 31
0.0
  0
LINE
  5
3E2
330
17
100
AcDbEntity
  8
L-CENTER
 48
2.0
100
AcDbLine
 10
996.0475601628809
 20
839.7312084394355
 30
0.0
 11
996.0475601628809
 21
785.3234280635431
 31
0.0
  0
LINE
  5
3E3
330
17
100
AcDbEntity
  8
4
100
AcDbLine
 10
981.0475611628813
 20
815.1817044394354
 30
0.0
 11
981.0475611628813
 21
831.1817024394352
 31
0.0
  0
ARC
  5
3E4
330
17
100
AcDbEntity
  8
4
100
AcDbCircle
 10
981.5475571628808
 20
809.1817034394351
 30
0.0
 40
6.000001
100
AcDbArc
 50
0.0
 51
90.0
  0
ARC
  5
3E5
330
17
100
AcDbEntity
  8
4
100
AcDbCircle
 10
991.7975591628806
 20
797.6504564394356
 30
0.0
 40
9.531249
100
AcDbArc
 50
63.51895999999559
 51
116.4810399999983
  0
LINE
  5
3E6
330
17
100
AcDbEntity
  8
4
100
AcDbLine
 10
987.5475581628812
 20
800.1817054394357
 30
0.0
 11
987.5475581628812
 21
809.1817034394351
 31
0.0
  0
LINE
  5
3E7
330
17
100
AcDbEntity
  8
4
100
AcDbLine
 10
996.0475601628809
 20
815.1817044394354
 30
0.0
 11
981.0475611628813
 21
815.1817044394354
 31
0.0
  0
LINE
  5
3E8
330
17
100
AcDbEntity
  8
4
100
AcDbLine
 10
996.0475601628809
 20
834.1817064394356
 30
0.0
 11
982.0475601628809
 21
834.1817064394356
 31
0.0
  0
LINE
  5
3E9
330
17
100
AcDbEntity
  8
4
100
AcDbLine
 10
996.0475601628809
 20
833.1817074394355
 30
0.0
 11
980.0475621628816
 21
833.1817074394355
 31
0.0
  0
LINE
  5
3EA
330
17
100
AcDbEntity
  8
4
100
AcDbLine
 10
980.0475621628816
 20
831.1817024394352
 30
0.0
 11
996.0475601628809
 21
831.1817024394352
 31
0.0
  0
LINE
  5
3EB
330
17
100
AcDbEntity
  8
4
100
AcDbLine
 10
982.0475601628809
 20
834.1817064394356
 30
0.0
 11
980.0475621628816
 21
833.1817074394355
 31
0.0
  0
LINE
  5
3EC
330
17
100
AcDbEntity
  8
4
100
AcDbLine
 10
980.0475621628816
 20
831.1817024394352
 30
0.0
 11
980.0475621628816
 21
833.1817074394355
 31
0.0
  0
LINE
  5
3ED
330
17
100
AcDbEntity
  8
L-CENTER
 48
2.0
100
AcDbLine
 10
429.6486871628813
 20
598.7444474394349
 30
0.0
 11
492.2296891628812
 21
598.7444474394349
 31
0.0
  0
LINE
  5
3EE
330
17
100
AcDbEntity
  8
L-CENTER
 48
2.0
100
AcDbLine
 10
429.6486871628813
 20
767.6189594394352
 30
0.0
 11
492.2296891628812
 21
767.6189594394352
 31
0.0
  0
LINE
  5
514
330
17
100
AcDbEntity
  8
4
100
AcDbLine
 10
2321.379898352441
 20
442.6817024394354
 30
0.0
 11
2297.379898352441
 21
442.6817024394354
 31
0.0
  0
LINE
  5
515
330
17
100
AcDbEntity
  8
4
100
AcDbLine
 10
2321.379898352441
 20
426.6817004394352
 30
0.0
 11
2297.379898352441
 21
426.6817004394352
 31
0.0
  0
LINE
  5
516
330
17
100
AcDbEntity
  8
4
100
AcDbLine
 10
2297.379898352441
 20
442.6817024394354
 30
0.0
 11
2297.379898352441
 21
426.6817004394352
 31
0.0
  0
LINE
  5
517
330
17
100
AcDbEntity
  8
4
100
AcDbLine
 10
2321.379898352441
 20
426.6817004394352
 30
0.0
 11
2321.379898352441
 21
442.6817024394354
 31
0.0
  0
LINE
  5
51A
330
17
100
AcDbEntity
  8
L-CENTER
 48
2.0
100
AcDbLine
 10
2309.379898352441
 20
320.9230604394355
 30
0.0
 11
2309.379898352441
 21
455.4403484394352
 31
0.0
  0
LINE
  5
52A
330
17
100
AcDbEntity
  8
L-CENTER
 48
2.0
100
AcDbLine
 10
2242.121254352441
 20
388.1817044394356
 30
0.0
 11
2376.638542352441
 21
388.1817044394352
 31
0.0
  0
ARC
  5
52B
330
17
100
AcDbEntity
  8
4
100
AcDbCircle
 10
2309.379898352441
 20
388.1817044394352
 30
0.0
 40
46.500054
100
AcDbArc
 50
104.9552305438094
 51
75.04478700000072
  0
LINE
  5
537
330
17
100
AcDbEntity
  8
4
100
AcDbLine
 10
208.5559000960785
 20
720.6817034394348
 30
0.0
 11
190.5559000960785
 21
720.6817034394348
 31
0.0
  0
LINE
  5
538
330
17
100
AcDbEntity
  8
4
100
AcDbLine
 10
208.5559000960785
 20
708.6817034394348
 30
0.0
 11
190.5559000960785
 21
708.6817034394348
 31
0.0
  0
LINE
  5
539
330
17
100
AcDbEntity
  8
4
100
AcDbLine
 10
190.5559000960785
 20
720.6817034394348
 30
0.0
 11
190.5559000960785
 21
708.6817034394348
 31
0.0
  0
LINE
  5
53B
330
17
100
AcDbEntity
  8
4
100
AcDbLine
 10
208.5559000960785
 20
708.6817034394348
 30
0.0
 11
208.5559000960785
 21
720.6817034394348
 31
0.0
  0
LINE
  5
53E
330
17
100
AcDbEntity
  8
L-CENTER
 48
2.0
100
AcDbLine
 10
199.5559000960785
 20
728.5267240938606
 30
0.0
 11
199.5559000960785
 21
637.8366827850093
 31
0.0
  0
ARC
  5
54A
330
17
100
AcDbEntity
  8
4
100
AcDbCircle
 10
199.5559000960785
 20
683.1817034394351
 30
0.0
 40
31.500048
100
AcDbArc
 50
106.6015235688887
 51
73.39849900000029
  0
LINE
  5
54C
330
17
100
AcDbEntity
  8
L-CENTER
 48
2.0
100
AcDbLine
 10
244.9009207505043
 20
683.1817034394351
 30
0.0
 11
154.2108794416527
 21
683.1817034394351
 31
0.0
  0
ARC
  5
560
330
17
100
AcDbEntity
  8
4
100
AcDbCircle
 10
1930.264874137175
 20
682.6817014394353
 30
0.0
 40
1.0
100
AcDbArc
 50
0.0
 51
90.0
  0
ARC
  5
561
330
17
100
AcDbEntity
  8
4
100
AcDbCircle
 10
759.0475591628806
 20
620.1817044394354
 30
0.0
 40
22.5
100
AcDbArc
 50
180.0
 51
0.0
  0
LINE
  5
562
330
17
100
AcDbEntity
  8
4
100
AcDbLine
 10
781.5475591628806
 20
620.1817044394354
 30
0.0
 11
781.5475591628806
 21
647.4306185721662
 31
0.0
  0
ARC
  5
563
330
17
100
AcDbEntity
  8
4
100
AcDbCircle
 10
910.0475591628815
 20
748.1817044394361
 30
0.0
 40
9.0
100
AcDbArc
 50
0.0
 51
90.0
  0
LINE
  5
564
330
17
100
AcDbEntity
  8
4
100
AcDbLine
 10
842.0475591628797
 20
754.1817044394359
 30
0.0
 11
842.0475591628797
 21
715.1817044394356
 31
0.0
  0
LINE
  5
565
330
17
100
AcDbEntity
  8
4
100
AcDbLine
 10
845.0475591628797
 20
712.1817044394356
 30
0.0
 11
873.0475591628797
 21
712.1817044394363
 31
0.0
  0
ARC
  5
566
330
17
100
AcDbEntity
  8
4
100
AcDbCircle
 10
910.0475591628797
 20
721.1817044394361
 30
0.0
 40
9.0
100
AcDbArc
 50
270.0
 51
0.0
  0
LINE
  5
567
330
17
100
AcDbEntity
  8
4
100
AcDbLine
 10
888.0475591628797
 20
712.1817044394363
 30
0.0
 11
910.0475591628797
 21
712.1817044394365
 31
0.0
  0
LINE
  5
568
330
17
100
AcDbEntity
  8
4
100
AcDbLine
 10
919.0475591628815
 20
748.1817044394361
 30
0.0
 11
919.0475591628815
 21
746.6817044394361
 31
0.0
  0
LINE
  5
569
330
17
100
AcDbEntity
  8
4
100
AcDbLine
 10
919.0475591628797
 20
722.6817044394365
 30
0.0
 11
919.0475591628797
 21
721.1817044394356
 31
0.0
  0
LINE
  5
56A
330
17
100
AcDbEntity
  8
4
100
AcDbLine
 10
845.0475591628797
 20
757.1817044394359
 30
0.0
 11
850.0475591628797
 21
757.1817044394356
 31
0.0
  0
LINE
  5
56B
330
17
100
AcDbEntity
  8
4
100
AcDbLine
 10
888.0475591628815
 20
757.1817044394361
 30
0.0
 11
910.0475591628815
 21
757.1817044394361
 31
0.0
  0
LINE
  5
56C
330
17
100
AcDbEntity
  8
4
100
AcDbLine
 10
853.0475591628797
 20
754.1817044394356
 30
0.0
 11
853.0475591628797
 21
726.1817044394363
 31
0.0
  0
LINE
  5
56D
330
17
100
AcDbEntity
  8
4
100
AcDbLine
 10
856.0475591628797
 20
723.1817044394363
 30
0.0
 11
873.0475591628797
 21
723.1817044394359
 31
0.0
  0
LINE
  5
56E
330
17
100
AcDbEntity
  8
4
100
AcDbLine
 10
876.0475591628797
 20
720.1817044394359
 30
0.0
 11
876.0475591628797
 21
715.1817044394363
 31
0.0
  0
ARC
  5
56F
330
17
100
AcDbEntity
  8
4
100
AcDbCircle
 10
845.0475591628797
 20
754.1817044394359
 30
0.0
 40
3.0
100
AcDbArc
 50
90.0
 51
180.0
  0
ARC
  5
570
330
17
100
AcDbEntity
  8
4
100
AcDbCircle
 10
850.0475591628797
 20
754.1817044394356
 30
0.0
 40
3.0
100
AcDbArc
 50
0.0
 51
90.0
  0
ARC
  5
571
330
17
100
AcDbEntity
  8
4
100
AcDbCircle
 10
856.0475591628797
 20
726.1817044394363
 30
0.0
 40
3.0
100
AcDbArc
 50
180.0
 51
270.0
  0
ARC
  5
572
330
17
100
AcDbEntity
  8
4
100
AcDbCircle
 10
873.0475591628797
 20
720.1817044394359
 30
0.0
 40
3.0
100
AcDbArc
 50
0.0
 51
90.0
  0
ARC
  5
573
330
17
100
AcDbEntity
  8
4
100
AcDbCircle
 10
845.0475591628797
 20
715.1817044394356
 30
0.0
 40
3.0
100
AcDbArc
 50
180.0
 51
270.0
  0
ARC
  5
574
330
17
100
AcDbEntity
  8
4
100
AcDbCircle
 10
873.0475591628797
 20
715.1817044394363
 30
0.0
 40
3.0
100
AcDbArc
 50
270.0
 51
0.0
  0
LINE
  5
575
330
17
100
AcDbEntity
  8
4
100
AcDbLine
 10
885.0475591628815
 20
754.1817044394361
 30
0.0
 11
885.0475591628797
 21
715.1817044394363
 31
0.0
  0
ARC
  5
576
330
17
100
AcDbEntity
  8
4
100
AcDbCircle
 10
888.0475591628797
 20
715.1817044394363
 30
0.0
 40
3.0
100
AcDbArc
 50
180.0
 51
270.0
  0
ARC
  5
577
330
17
100
AcDbEntity
  8
4
100
AcDbCircle
 10
888.0475591628815
 20
754.1817044394361
 30
0.0
 40
3.0
100
AcDbArc
 50
90.0
 51
180.0
  0
ARC
  5
578
330
17
100
AcDbEntity
  8
4
100
AcDbCircle
 10
919.0475591628815
 20
734.6817044394361
 30
0.0
 40
6.0
100
AcDbArc
 50
126.8698976458484
 51
233.1301023541516
  0
ARC
  5
579
330
17
100
AcDbEntity
  8
4
100
AcDbCircle
 10
910.0475591628815
 20
746.6817044394361
 30
0.0
 40
9.0
100
AcDbArc
 50
306.8698976458411
 51
0.0
  0
ARC
  5
57A
330
17
100
AcDbEntity
  8
4
100
AcDbCircle
 10
910.0475591628797
 20
722.6817044394365
 30
0.0
 40
9.0
100
AcDbArc
 50
0.0
 51
53.13010235415164
  0
LINE
  5
57B
330
17
100
AcDbEntity
  8
4
100
AcDbLine
 10
928.0475591628815
 20
737.1817044394359
 30
0.0
 11
928.0475591628815
 21
732.1817044394361
 31
0.0
  0
LINE
  5
57C
330
17
100
AcDbEntity
  8
4
100
AcDbLine
 10
939.0475591628815
 20
737.1817044394359
 30
0.0
 11
939.0475591628806
 21
732.1817044394359
 31
0.0
  0
LINE
  5
57D
330
17
100
AcDbEntity
  8
4
100
AcDbLine
 10
931.0475591628815
 20
740.1817044394359
 30
0.0
 11
936.0475591628815
 21
740.1817044394359
 31
0.0
  0
LINE
  5
57E
330
17
100
AcDbEntity
  8
4
100
AcDbLine
 10
931.0475591628815
 20
729.1817044394361
 30
0.0
 11
936.0475591628806
 21
729.1817044394359
 31
0.0
  0
ARC
  5
57F
330
17
100
AcDbEntity
  8
4
100
AcDbCircle
 10
931.0475591628815
 20
737.1817044394359
 30
0.0
 40
3.0
100
AcDbArc
 50
90.0
 51
180.0
  0
ARC
  5
580
330
17
100
AcDbEntity
  8
4
100
AcDbCircle
 10
936.0475591628815
 20
737.1817044394359
 30
0.0
 40
3.0
100
AcDbArc
 50
0.0
 51
90.0
  0
ARC
  5
581
330
17
100
AcDbEntity
  8
4
100
AcDbCircle
 10
936.0475591628806
 20
732.1817044394359
 30
0.0
 40
3.0
100
AcDbArc
 50
270.0
 51
0.0
  0
ARC
  5
582
330
17
100
AcDbEntity
  8
4
100
AcDbCircle
 10
931.0475591628815
 20
732.1817044394361
 30
0.0
 40
3.0
100
AcDbArc
 50
180.0
 51
270.0
  0
LINE
  5
583
330
17
100
AcDbEntity
  8
4
100
AcDbLine
 10
948.0475591628815
 20
754.1817044394359
 30
0.0
 11
948.0475591628797
 21
715.1817044394363
 31
0.0
  0
LINE
  5
584
330
17
100
AcDbEntity
  8
4
100
AcDbLine
 10
959.0475591628815
 20
754.1817044394359
 30
0.0
 11
959.0475591628797
 21
715.1817044394363
 31
0.0
  0
LINE
  5
585
330
17
100
AcDbEntity
  8
4
100
AcDbLine
 10
951.0475591628815
 20
757.1817044394359
 30
0.0
 11
956.0475591628815
 21
757.1817044394359
 31
0.0
  0
LINE
  5
586
330
17
100
AcDbEntity
  8
4
100
AcDbLine
 10
951.0475591628797
 20
712.1817044394363
 30
0.0
 11
956.0475591628797
 21
712.1817044394363
 31
0.0
  0
ARC
  5
587
330
17
100
AcDbEntity
  8
4
100
AcDbCircle
 10
951.0475591628797
 20
715.1817044394363
 30
0.0
 40
3.0
100
AcDbArc
 50
180.0
 51
270.0
  0
ARC
  5
588
330
17
100
AcDbEntity
  8
4
100
AcDbCircle
 10
956.0475591628797
 20
715.1817044394363
 30
0.0
 40
3.0
100
AcDbArc
 50
270.0
 51
0.0
  0
ARC
  5
589
330
17
100
AcDbEntity
  8
4
100
AcDbCircle
 10
956.0475591628815
 20
754.1817044394359
 30
0.0
 40
3.0
100
AcDbArc
 50
0.0
 51
90.0
  0
ARC
  5
58A
330
17
100
AcDbEntity
  8
4
100
AcDbCircle
 10
951.0475591628815
 20
754.1817044394359
 30
0.0
 40
3.0
100
AcDbArc
 50
90.0
 51
180.0
  0
LINE
  5
58B
330
17
100
AcDbEntity
  8
4
100
AcDbLine
 10
968.0475591628815
 20
748.1817044394361
 30
0.0
 11
968.0475591628806
 21
721.1817044394363
 31
0.0
  0
LINE
  5
58C
330
17
100
AcDbEntity
  8
4
100
AcDbLine
 10
977.0475591628806
 20
712.1817044394361
 30
0.0
 11
989.0475591628815
 21
712.1817044394368
 31
0.0
  0
LINE
  5
58D
330
17
100
AcDbEntity
  8
4
100
AcDbLine
 10
977.0475591628815
 20
757.1817044394359
 30
0.0
 11
989.0475591628815
 21
757.1817044394359
 31
0.0
  0
LINE
  5
58E
330
17
100
AcDbEntity
  8
4
100
AcDbLine
 10
998.0475591628815
 20
748.1817044394354
 30
0.0
 11
998.0475591628815
 21
721.1817044394363
 31
0.0
  0
ARC
  5
58F
330
17
100
AcDbEntity
  8
4
100
AcDbCircle
 10
977.0475591628806
 20
721.1817044394361
 30
0.0
 40
9.0
100
AcDbArc
 50
180.0
 51
270.0
  0
ARC
  5
590
330
17
100
AcDbEntity
  8
4
100
AcDbCircle
 10
977.0475591628815
 20
748.1817044394359
 30
0.0
 40
9.0
100
AcDbArc
 50
90.0
 51
180.0
  0
ARC
  5
591
330
17
100
AcDbEntity
  8
4
100
AcDbCircle
 10
989.0475591628815
 20
748.1817044394356
 30
0.0
 40
9.0
100
AcDbArc
 50
0.0
 51
90.0
  0
ARC
  5
592
330
17
100
AcDbEntity
  8
4
100
AcDbCircle
 10
989.0475591628815
 20
721.1817044394365
 30
0.0
 40
9.0
100
AcDbArc
 50
270.0
 51
0.0
  0
LINE
  5
593
330
17
100
AcDbEntity
  8
4
100
AcDbLine
 10
1011.047559162881
 20
761.1817044394361
 30
0.0
 11
1011.04755916288
 21
708.1817044394375
 31
0.0
  0
LINE
  5
594
330
17
100
AcDbEntity
  8
4
100
AcDbLine
 10
838.0475591628797
 20
770.181704439434
 30
0.0
 11
1002.047559162881
 21
770.1817044394361
 31
0.0
  0
LINE
  5
595
330
17
100
AcDbEntity
  8
4
100
AcDbLine
 10
838.0475591628815
 20
699.1817044394284
 30
0.0
 11
1002.047559162881
 21
699.1817044394375
 31
0.0
  0
LINE
  5
596
330
17
100
AcDbEntity
  8
4
100
AcDbLine
 10
829.0475591628797
 20
761.181704439434
 30
0.0
 11
829.0475591628797
 21
708.1817044394284
 31
0.0
  0
ARC
  5
597
330
17
100
AcDbEntity
  8
4
100
AcDbCircle
 10
838.0475591628797
 20
708.1817044394284
 30
0.0
 40
9.0
100
AcDbArc
 50
180.0
 51
270.0000000000058
  0
ARC
  5
598
330
17
100
AcDbEntity
  8
4
100
AcDbCircle
 10
1002.04755916288
 20
708.1817044394375
 30
0.0
 40
9.0
100
AcDbArc
 50
270.0000000000058
 51
0.0
  0
ARC
  5
599
330
17
100
AcDbEntity
  8
4
100
AcDbCircle
 10
1002.047559162881
 20
761.1817044394361
 30
0.0
 40
9.0
100
AcDbArc
 50
0.0
 51
90.0
  0
ARC
  5
59A
330
17
100
AcDbEntity
  8
4
100
AcDbCircle
 10
838.0475591628797
 20
761.181704439434
 30
0.0
 40
9.0
100
AcDbArc
 50
90.0
 51
180.0
  0
LINE
  5
59B
330
17
100
AcDbEntity
  8
4
100
AcDbLine
 10
831.2432428435054
 20
505.4783647777533
 30
0.0
 11
817.1359540515045
 21
639.7319411219587
 31
0.0
  0
ARC
  5
59C
330
17
100
AcDbEntity
  8
4
100
AcDbCircle
 10
841.188487443263
 20
506.5234053755262
 30
0.0
 40
10.0
100
AcDbArc
 50
185.9985940830393
 51
260.7315348759806
  0
ARC
  5
59D
330
17
100
AcDbEntity
  8
4
100
AcDbCircle
 10
821.1140518914076
 20
640.1499573610679
 30
0.0
 40
4.0
100
AcDbArc
 50
76.16201473835778
 51
185.9985940830366
  0
LINE
  5
59E
330
17
100
AcDbEntity
  8
4
100
AcDbLine
 10
736.5475591628806
 20
620.1817044394354
 30
0.0
 11
736.5475591628806
 21
647.4306185721662
 31
0.0
  0
ARC
  5
59F
330
17
100
AcDbEntity
  8
4
100
AcDbCircle
 10
696.9810664343536
 20
640.1499573610679
 30
0.0
 40
4.0
100
AcDbArc
 50
354.0014059169634
 51
103.8379852616422
  0
LINE
  5
5A0
330
17
100
AcDbEntity
  8
4
100
AcDbLine
 10
686.8518754822558
 20
505.4783647777533
 30
0.0
 11
700.9591642742566
 21
639.7319411219587
 31
0.0
  0
ARC
  5
5A1
330
17
100
AcDbEntity
  8
4
100
AcDbCircle
 10
676.9066308824981
 20
506.5234053755262
 30
0.0
 40
10.0
100
AcDbArc
 50
279.2684651240194
 51
354.0014059169607
  0
ARC
  5
5A2
330
17
100
AcDbEntity
  8
4
100
AcDbCircle
 10
784.5475591628806
 20
647.4306185721662
 30
0.0
 40
3.0
100
AcDbArc
 50
84.38239603106855
 51
180.0
  0
ARC
  5
5A3
330
17
100
AcDbEntity
  8
4
100
AcDbCircle
 10
733.5475591628806
 20
647.4306185721662
 30
0.0
 40
3.0
100
AcDbArc
 50
0.0
 51
95.61760396893146
  0
LINE
  5
5A4
330
17
100
AcDbEntity
  8
4
100
AcDbLine
 10
832.04755616288
 20
1361.225021123423
 30
0.0
 11
832.04755616288
 21
1359.113110139067
 31
0.0
  0
LINE
  5
5A5
330
17
100
AcDbEntity
  8
4
100
AcDbLine
 10
818.0279648078999
 20
1381.225021123423
 30
0.0
 11
832.04755616288
 21
1361.225021123421
 31
0.0
  0
LINE
  5
5A6
330
17
100
AcDbEntity
  8
4
100
AcDbLine
 10
832.04755616288
 20
1361.225021123423
 30
0.0
 11
874.0475591628801
 21
1361.225021123423
 31
0.0
  0
LINE
  5
5A7
330
17
100
AcDbEntity
  8
4
100
AcDbLine
 10
816.5475583589615
 20
1381.225021123423
 30
0.0
 11
832.04755616288
 21
1359.113110139067
 31
0.0
  0
LINE
  5
5CC
330
17
100
AcDbEntity
  8
4
100
AcDbLine
 10
445.6476571628796
 20
638.1817054394348
 30
0.0
 11
445.6476571628796
 21
672.2120483248325
 31
0.0
  0
LINE
  5
5CD
330
17
100
AcDbEntity
  8
4
100
AcDbLine
 10
446.6476591628802
 20
638.1817054394348
 30
0.0
 11
445.6476571628796
 21
638.1817054394348
 31
0.0
  0
LINE
  5
5CE
330
17
100
AcDbEntity
  8
4
100
AcDbLine
 10
429.0475591628806
 20
651.6817034394351
 30
0.0
 11
310.0475611628794
 21
651.6817034394351
 31
0.0
  0
LINE
  5
5CF
330
17
100
AcDbEntity
  8
4
100
AcDbLine
 10
309.0475591628806
 20
720.6817034394351
 30
0.0
 11
419.0475571628799
 21
720.6817034394351
 31
0.0
  0
LINE
  5
5D0
330
17
100
AcDbEntity
  8
4
100
AcDbLine
 10
429.0475591628806
 20
714.6817034394351
 30
0.0
 11
310.0475611628794
 21
714.6817034394351
 31
0.0
  0
LINE
  5
5D1
330
17
100
AcDbEntity
  8
4
100
AcDbLine
 10
419.0475571628799
 20
720.6817034394351
 30
0.0
 11
419.0475571628799
 21
714.6817034394351
 31
0.0
  0
LINE
  5
5D2
330
17
100
AcDbEntity
  8
4
100
AcDbLine
 10
445.6476571628796
 20
694.1513585540386
 30
0.0
 11
445.6476571628796
 21
728.1817014394353
 31
0.0
  0
LINE
  5
5D3
330
17
100
AcDbEntity
  8
4
100
AcDbLine
 10
429.0475591628806
 20
715.6817054394348
 30
0.0
 11
429.0475591628806
 21
650.6817014394353
 31
0.0
  0
LINE
  5
5D4
330
17
100
AcDbEntity
  8
4
100
AcDbLine
 10
429.0475591628806
 20
650.6817014394353
 30
0.0
 11
445.6476571628796
 21
650.6817014394353
 31
0.0
  0
LINE
  5
5D5
330
17
100
AcDbEntity
  8
4
100
AcDbLine
 10
429.0475591628806
 20
715.6817054394348
 30
0.0
 11
445.6476571628796
 21
715.6817054394348
 31
0.0
  0
LINE
  5
5D6
330
17
100
AcDbEntity
  8
4
100
AcDbLine
 10
446.6476591628802
 20
728.1817014394353
 30
0.0
 11
445.6476571628796
 21
728.1817014394353
 31
0.0
  0
LINE
  5
5D7
330
17
100
AcDbEntity
  8
4
100
AcDbLine
 10
309.0475591628806
 20
720.6817034394351
 30
0.0
 11
309.0475591628806
 21
652.6817054394348
 31
0.0
  0
LINE
  5
5D8
330
17
100
AcDbEntity
  8
4
100
AcDbLine
 10
310.0475611628794
 20
651.6817034394351
 30
0.0
 11
310.0475611628794
 21
714.6817034394351
 31
0.0
  0
LINE
  5
5D9
330
17
100
AcDbEntity
  8
4
100
AcDbLine
 10
310.0475611628794
 20
651.6817034394351
 30
0.0
 11
309.0475591628806
 21
652.6817054394348
 31
0.0
  0
LINE
  5
5DA
330
17
100
AcDbEntity
  8
4
100
AcDbLine
 10
309.0475591628806
 20
713.6817014394353
 30
0.0
 11
310.0475611628794
 21
714.6817034394351
 31
0.0
  0
LINE
  5
5DF
330
17
100
AcDbEntity
  8
4
100
AcDbLine
 10
410.0475591628806
 20
1534.225021123423
 30
0.0
 11
309.0475591628806
 21
1534.225021123423
 31
0.0
  0
LINE
  5
5E0
330
17
100
AcDbEntity
  8
4
100
AcDbLine
 10
410.0475591628806
 20
1516.225021123423
 30
0.0
 11
309.0475591628806
 21
1516.225021123423
 31
0.0
  0
LINE
  5
5E1
330
17
100
AcDbEntity
  8
4
100
AcDbLine
 10
428.0475591628806
 20
1556.725021123423
 30
0.0
 11
310.0475591628806
 21
1556.725021123423
 31
0.0
  0
LINE
  5
5E2
330
17
100
AcDbEntity
  8
4
100
AcDbLine
 10
428.0475591628806
 20
1493.725021123423
 30
0.0
 11
310.0475591628806
 21
1493.725021123423
 31
0.0
  0
LINE
  5
5E3
330
17
100
AcDbEntity
  8
4
100
AcDbLine
 10
429.0475591628806
 20
1557.725021123423
 30
0.0
 11
429.0475591628806
 21
1492.725021123423
 31
0.0
  0
ARC
  5
5E4
330
17
100
AcDbEntity
  8
4
100
AcDbCircle
 10
428.0475591628806
 20
1492.725021123423
 30
0.0
 40
1.0
100
AcDbArc
 50
0.0
 51
90.0
  0
ARC
  5
5E5
330
17
100
AcDbEntity
  8
4
100
AcDbCircle
 10
410.0475591628806
 20
1525.225021123423
 30
0.0
 40
9.0
100
AcDbArc
 50
270.0
 51
90.0
  0
ARC
  5
5E6
330
17
100
AcDbEntity
  8
4
100
AcDbCircle
 10
428.0475591628806
 20
1557.725021123423
 30
0.0
 40
1.0
100
AcDbArc
 50
270.0
 51
0.0
  0
LINE
  5
5E7
330
17
100
AcDbEntity
  8
4
100
AcDbLine
 10
310.0475591628806
 20
1516.225021123423
 30
0.0
 11
310.0475591628806
 21
1493.725021123423
 31
0.0
  0
LINE
  5
5E8
330
17
100
AcDbEntity
  8
4
100
AcDbLine
 10
309.0475591628806
 20
1555.725021123423
 30
0.0
 11
309.0475591628806
 21
1494.725021123423
 31
0.0
  0
LINE
  5
5E9
330
17
100
AcDbEntity
  8
4
100
AcDbLine
 10
310.0475591628806
 20
1493.725021123423
 30
0.0
 11
309.0475591628806
 21
1494.725021123423
 31
0.0
  0
LINE
  5
5EA
330
17
100
AcDbEntity
  8
4
100
AcDbLine
 10
310.0475591628806
 20
1556.725021123423
 30
0.0
 11
310.0475591628806
 21
1534.225021123423
 31
0.0
  0
LINE
  5
5EB
330
17
100
AcDbEntity
  8
4
100
AcDbLine
 10
310.0475591628806
 20
1556.725021123423
 30
0.0
 11
309.0475591628806
 21
1555.725021123423
 31
0.0
  0
LINE
  5
5EC
330
17
100
AcDbEntity
  8
4
100
AcDbLine
 10
429.0475591628788
 20
1557.725021123423
 30
0.0
 11
445.6475571628803
 21
1557.725021123423
 31
0.0
  0
LINE
  5
5ED
330
17
100
AcDbEntity
  8
4
100
AcDbLine
 10
429.0475591628788
 20
1492.725021123423
 30
0.0
 11
445.6475571628803
 21
1492.725021123423
 31
0.0
  0
LINE
  5
5EE
330
17
100
AcDbEntity
  8
4
100
AcDbLine
 10
445.6475571628803
 20
1487.444950871885
 30
0.0
 11
445.6475571628803
 21
1563.00509137496
 31
0.0
  0
LINE
  5
5EF
330
17
100
AcDbEntity
  8
4
100
AcDbLine
 10
419.047559162881
 20
1493.725021123423
 30
0.0
 11
419.047559162881
 21
1335.225021123423
 31
0.0
  0
LINE
  5
603
330
17
100
AcDbEntity
  8
4
100
AcDbLine
 10
1975.264872137175
 20
453.1817074394355
 30
0.0
 11
1976.264871137176
 21
453.1817074394355
 31
0.0
  0
LINE
  5
604
330
17
100
AcDbEntity
  8
4
100
AcDbLine
 10
1975.264872137175
 20
323.1817014394353
 30
0.0
 11
1976.264871137176
 21
323.1817014394353
 31
0.0
  0
ENDSEC
  0
SECTION
  2
OBJECTS
  0
DICTIONARY
  5
5
330
0
100
AcDbDictionary
281
     1
  3
ACAD_COLOR
350
29
  3
ACAD_GROUP
350
27
  3
ACAD_LAYOUT
350
1E
  3
ACAD_MATERIAL
350
7
  3
ACAD_MLEADERSTYLE
350
5AB
  3
ACAD_MLINESTYLE
350
15
  3
ACAD_PLOTSETTINGS
350
28
  3
ACAD_PLOTSTYLENAME
350
4
  3
ACAD_SCALELIST
350
2D
  3
ACAD_TABLESTYLE
350
5AA
  3
ACAD_VISUALSTYLE
350
2A
  3
ACDBHEADERROUNDTRIPXREC
350
620
  3
AcDbVariableDictionary
350
5A8
  3
DWGPROPS
350
623
  0
DICTIONARY
  5
624
330
26
100
AcDbDictionary
280
     1
281
     1
  3
ACAD_XREC_ROUNDTRIP
360
625
  0
DICTIONARY
  5
18
330
17
100
AcDbDictionary
280
     1
281
     1
  3
ACAD_SORTENTS
360
19
  0
DICTIONARY
  5
29
102
{ACAD_REACTORS
330
5
102
}
330
5
100
AcDbDictionary
281
     1
  0
DICTIONARY
  5
27
102
{ACAD_REACTORS
330
5
102
}
330
5
100
AcDbDictionary
281
     1
  0
DICTIONARY
  5
1E
102
{ACAD_REACTORS
330
5
102
}
330
5
100
AcDbDictionary
281
     1
  3
Model
350
1D
  3
ﾚｲｱｳﾄ1
350
23
  0
DICTIONARY
  5
7
102
{ACAD_REACTORS
330
5
102
}
330
5
100
AcDbDictionary
281
     1
  3
ByBlock
350
70
  3
ByLayer
350
10
  3
Global
350
6
  0
DICTIONARY
  5
5AB
102
{ACAD_REACTORS
330
5
102
}
330
5
100
AcDbDictionary
281
     1
  3
Standard
350
5C6
  0
DICTIONARY
  5
15
102
{ACAD_REACTORS
330
5
102
}
330
5
100
AcDbDictionary
281
     1
  3
STANDARD
350
14
  0
DICTIONARY
  5
28
102
{ACAD_REACTORS
330
5
102
}
330
5
100
AcDbDictionary
281
     1
  0
ACDBDICTIONARYWDFLT
  5
4
102
{ACAD_REACTORS
330
5
102
}
330
5
100
AcDbDictionary
281
     1
  3
Normal
350
3
100
AcDbDictionaryWithDefault
340
3
  0
DICTIONARY
  5
2D
102
{ACAD_REACTORS
330
5
102
}
330
5
100
AcDbDictionary
281
     1
  3
*A1
350
4F
  3
*A10
350
58
  3
*A11
350
59
  3
*A12
350
5A
  3
*A13
350
5B
  3
*A14
350
5C
  3
*A15
350
5D
  3
*A16
350
5E
  3
*A17
350
5F
  3
*A18
350
60
  3
*A19
350
61
  3
*A2
350
50
  3
*A20
350
62
  3
*A21
350
63
  3
*A22
350
64
  3
*A23
350
65
  3
*A24
350
66
  3
*A25
350
67
  3
*A26
350
68
  3
*A27
350
69
  3
*A28
350
6A
  3
*A29
350
6B
  3
*A3
350
51
  3
*A30
350
6C
  3
*A31
350
6D
  3
*A32
350
6E
  3
*A33
350
6F
  3
*A4
350
52
  3
*A5
350
53
  3
*A6
350
54
  3
*A7
350
55
  3
*A8
350
56
  3
*A9
350
57
  0
DICTIONARY
  5
5AA
102
{ACAD_REACTORS
330
5
102
}
330
5
100
AcDbDictionary
281
     1
  3
Standard
350
61C
  0
DICTIONARY
  5
2A
102
{ACAD_REACTORS
330
5
102
}
330
5
100
AcDbDictionary
281
     1
  3
2dWireframe
350
5B2
  3
Basic
350
5B5
  3
Brighten
350
5B9
  3
ColorChange
350
5BD
  3
Conceptual
350
5B7
  3
Dim
350
5B8
  3
EdgeColorOff
350
5C0
  3
Facepattern
350
5BC
  3
Flat
350
5AE
  3
FlatWithEdges
350
5AF
  3
Gouraud
350
5B0
  3
GouraudWithEdges
350
5B1
  3
Hidden
350
5B4
  3
JitterOff
350
5BE
  3
Linepattern
350
5BB
  3
OverhangOff
350
5BF
  3
Realistic
350
5B6
  3
Shaded
350
5C5
  3
Shaded with edges
350
5C4
  3
Shades of Gray
350
5C1
  3
Sketchy
350
5C2
  3
Thicken
350
5BA
  3
Wireframe
350
5B3
  3
X-Ray
350
5C3
  0
DICTIONARY
  5
620
102
{ACAD_REACTORS
330
5
102
}
330
5
100
AcDbDictionary
281
     1
  3
COLORDICT
350
621
  3
MATERIALDICT
350
622
  0
DICTIONARY
  5
5A8
102
{ACAD_REACTORS
330
5
102
}
330
5
100
AcDbDictionary
281
     1
  3
CANNOSCALE
350
5A9
  3
CMLEADERSTYLE
350
5C8
  3
CTABLESTYLE
350
61D
  3
DIMASSOC
350
61E
  3
HIDETEXT
350
61F
  3
MSLTSCALE
350
626
  0
XRECORD
  5
623
102
{ACAD_REACTORS
330
5
102
}
330
5
100
AcDbXrecord
280
     1
  1
DWGPROPS COOKIE
  2

  3

  4

  6

  7

  8
sg-d04
  9

300
=
301
=
302
=
303
=
304
=
305
=
306
=
307
=
308
=
309
=
 40
0.0
 41
2457240.115428437
 42
2457871.460191783
  1

 90
        0
  0
XRECORD
  5
625
102
{ACAD_REACTORS
330
624
102
}
330
624
100
AcDbXrecord
280
     1
102
VTR_0.000_0.000_1.000_1.000_VISUALSTYLE
340
5B2
102
VTR_0.000_0.000_1.000_1.000_GRIDDISPLAY
 70
     3
102
VTR_0.000_0.000_1.000_1.000_GRIDMAJOR
 70
     5
102
VTR_0.000_0.000_1.000_1.000_DEFAULTLIGHTING
280
     1
102
VTR_0.000_0.000_1.000_1.000_DEFAULTLIGHTINGTYPE
 70
     1
102
VTR_0.000_0.000_1.000_1.000_BRIGHTNESS
141
0.0
102
VTR_0.000_0.000_1.000_1.000_CONTRAST
142
0.0
  0
SORTENTSTABLE
  5
19
102
{ACAD_REACTORS
330
18
102
}
330
18
100
AcDbSortentsTable
330
17
331
0
  5
F5
331
71
  5
333
331
73
  5
334
331
74
  5
335
331
75
  5
336
331
76
  5
337
331
CF
  5
D0
331
D0
  5
D1
331
D1
  5
D2
331
D2
  5
D3
331
D3
  5
D4
331
D4
  5
D5
331
D5
  5
D6
331
D6
  5
D7
331
D7
  5
D8
331
D8
  5
D9
331
D9
  5
DA
331
DA
  5
DB
331
DB
  5
DC
331
DC
  5
DD
331
DD
  5
DE
331
DE
  5
DF
331
DF
  5
E0
331
E0
  5
E1
331
E1
  5
E2
331
E2
  5
E3
331
E3
  5
E4
331
E4
  5
E5
331
E5
  5
E6
331
E6
  5
E7
331
E7
  5
E8
331
E8
  5
E9
331
E9
  5
EA
331
EA
  5
EB
331
EB
  5
EC
331
EC
  5
ED
331
ED
  5
EE
331
EE
  5
F2
331
F2
  5
F3
331
F3
  5
F4
331
F5
  5
F6
331
F7
  5
F8
331
F8
  5
F9
331
F9
  5
FA
331
FA
  5
FB
331
FB
  5
FC
331
FC
  5
FD
331
FD
  5
FE
331
FE
  5
FF
331
FF
  5
100
331
100
  5
101
331
101
  5
102
331
102
  5
103
331
103
  5
104
331
104
  5
105
331
105
  5
106
331
106
  5
107
331
107
  5
108
331
108
  5
109
331
109
  5
10A
331
10A
  5
10B
331
10B
  5
10C
331
10C
  5
10D
331
10D
  5
10E
331
10E
  5
10F
331
10F
  5
110
331
110
  5
111
331
111
  5
112
331
112
  5
113
331
113
  5
114
331
114
  5
115
331
117
  5
118
331
118
  5
119
331
119
  5
11A
331
11A
  5
11B
331
123
  5
124
331
124
  5
125
331
125
  5
126
331
126
  5
127
331
130
  5
131
331
131
  5
132
331
132
  5
133
331
133
  5
134
331
134
  5
135
331
135
  5
136
331
136
  5
137
331
139
  5
13A
331
13A
  5
13B
331
13B
  5
13C
331
13C
  5
13D
331
13D
  5
13E
331
13E
  5
13F
331
13F
  5
140
331
140
  5
141
331
141
  5
142
331
142
  5
143
331
143
  5
144
331
144
  5
145
331
145
  5
146
331
146
  5
147
331
147
  5
148
331
148
  5
149
331
149
  5
14A
331
14A
  5
14B
331
14B
  5
14C
331
14C
  5
14D
331
14D
  5
14E
331
14E
  5
14F
331
14F
  5
150
331
150
  5
151
331
151
  5
152
331
152
  5
153
331
153
  5
154
331
154
  5
157
331
159
  5
15A
331
15A
  5
15B
331
15B
  5
15C
331
15C
  5
15E
331
162
  5
163
331
163
  5
164
331
16B
  5
16C
331
16C
  5
16D
331
16D
  5
16E
331
16E
  5
16F
331
16F
  5
170
331
170
  5
171
331
171
  5
172
331
172
  5
173
331
173
  5
174
331
175
  5
176
331
176
  5
177
331
183
  5
184
331
184
  5
185
331
185
  5
186
331
186
  5
187
331
187
  5
188
331
188
  5
189
331
18D
  5
18E
331
18E
  5
18F
331
18F
  5
190
331
192
  5
193
331
193
  5
194
331
199
  5
19A
331
19A
  5
19B
331
19C
  5
19D
331
19D
  5
19E
331
19E
  5
19F
331
1A0
  5
1A1
331
1A1
  5
1A2
331
1A2
  5
1A3
331
1A6
  5
1A7
331
1A7
  5
1A8
331
1AC
  5
1AD
331
1AD
  5
1AE
331
1B3
  5
1B4
331
1B4
  5
1B5
331
1B7
  5
1B8
331
1B8
  5
1B9
331
1B9
  5
1BA
331
1BA
  5
1BB
331
1BD
  5
1BE
331
1BE
  5
1BF
331
1BF
  5
71
331
1C0
  5
73
331
1C1
  5
74
331
1C2
  5
75
331
1C3
  5
76
331
1C4
  5
1C0
331
1C5
  5
1C1
331
1C6
  5
1C2
331
1C7
  5
1C3
331
1C8
  5
1C4
331
1C9
  5
1C5
331
1CA
  5
1C6
331
1CB
  5
1C8
331
1CD
  5
1CB
331
1CF
  5
1CD
331
1D1
  5
1CF
331
1D2
  5
1D0
331
1D3
  5
1D1
331
1D4
  5
1D2
331
1D5
  5
1D3
331
1D6
  5
1D4
331
1D7
  5
1D5
331
1D8
  5
1D6
331
1D9
  5
1D7
331
1DE
  5
1DC
331
1E0
  5
1DE
331
1E1
  5
1DF
331
1E2
  5
1E0
331
1E3
  5
1E1
331
1E4
  5
1E2
331
1F6
  5
1F4
331
1F7
  5
1F5
331
1F8
  5
1F6
331
1F9
  5
1F7
331
1FA
  5
1F8
331
1FB
  5
1F9
331
1FC
  5
1FA
331
1FD
  5
1FB
331
1FE
  5
1FC
331
1FF
  5
1FD
331
200
  5
1FE
331
201
  5
1FF
331
202
  5
200
331
203
  5
201
331
204
  5
202
331
205
  5
203
331
206
  5
204
331
207
  5
205
331
208
  5
206
331
209
  5
207
331
20A
  5
208
331
20B
  5
209
331
20C
  5
20A
331
20D
  5
20B
331
20E
  5
20C
331
20F
  5
20D
331
210
  5
20E
331
211
  5
20F
331
212
  5
210
331
213
  5
211
331
214
  5
212
331
215
  5
213
331
216
  5
214
331
217
  5
215
331
218
  5
216
331
219
  5
217
331
21A
  5
218
331
21B
  5
219
331
21C
  5
21A
331
21D
  5
21B
331
21E
  5
21C
331
21F
  5
21D
331
220
  5
21E
331
221
  5
21F
331
222
  5
220
331
223
  5
221
331
224
  5
222
331
225
  5
223
331
226
  5
224
331
227
  5
225
331
230
  5
22E
331
231
  5
22F
331
232
  5
230
331
233
  5
231
331
234
  5
232
331
235
  5
233
331
236
  5
234
331
237
  5
235
331
238
  5
236
331
239
  5
237
331
23A
  5
239
331
23B
  5
23A
331
23C
  5
23B
331
23D
  5
23C
331
23E
  5
23D
331
23F
  5
23E
331
240
  5
23F
331
241
  5
240
331
242
  5
241
331
243
  5
242
331
244
  5
243
331
245
  5
244
331
246
  5
245
331
247
  5
246
331
248
  5
247
331
249
  5
248
331
24A
  5
249
331
24B
  5
24A
331
24C
  5
24B
331
24D
  5
24C
331
24E
  5
24D
331
24F
  5
24E
331
250
  5
24F
331
251
  5
250
331
252
  5
251
331
254
  5
253
331
255
  5
254
331
256
  5
255
331
257
  5
256
331
258
  5
257
331
259
  5
258
331
25A
  5
259
331
25B
  5
25A
331
25C
  5
25B
331
25D
  5
25C
331
25E
  5
25D
331
25F
  5
25E
331
260
  5
25F
331
261
  5
260
331
262
  5
261
331
263
  5
262
331
264
  5
263
331
265
  5
264
331
266
  5
265
331
267
  5
266
331
268
  5
267
331
269
  5
268
331
26A
  5
269
331
26B
  5
26A
331
26C
  5
26B
331
26D
  5
26C
331
26E
  5
26D
331
26F
  5
26E
331
270
  5
26F
331
271
  5
270
331
272
  5
271
331
273
  5
272
331
274
  5
273
331
275
  5
274
331
276
  5
275
331
277
  5
276
331
278
  5
277
331
279
  5
278
331
27A
  5
279
331
27B
  5
27A
331
27C
  5
27B
331
27D
  5
27C
331
27E
  5
27D
331
27F
  5
27E
331
280
  5
27F
331
281
  5
280
331
282
  5
281
331
283
  5
282
331
284
  5
283
331
285
  5
284
331
286
  5
285
331
287
  5
286
331
288
  5
287
331
289
  5
288
331
28A
  5
289
331
28B
  5
28A
331
28C
  5
28B
331
28D
  5
28C
331
28E
  5
28D
331
28F
  5
28E
331
290
  5
28F
331
291
  5
290
331
292
  5
291
331
293
  5
292
331
294
  5
293
331
295
  5
294
331
296
  5
295
331
297
  5
296
331
298
  5
297
331
299
  5
298
331
29A
  5
299
331
29B
  5
29A
331
29C
  5
29B
331
29D
  5
29C
331
29E
  5
29D
331
29F
  5
29E
331
2A0
  5
29F
331
2A1
  5
2A0
331
2A2
  5
2A1
331
2A3
  5
2A2
331
2A4
  5
2A3
331
2A5
  5
2A4
331
2A6
  5
2A5
331
2A7
  5
2A6
331
2A8
  5
2A7
331
2A9
  5
2A8
331
2AA
  5
2A9
331
2AB
  5
2AA
331
2AC
  5
2AB
331
2AD
  5
2AC
331
2AE
  5
2AD
331
2AF
  5
2AE
331
2B0
  5
2AF
331
2B1
  5
2B0
331
2B2
  5
2B1
331
2B3
  5
2B2
331
2B5
  5
2B4
331
2B6
  5
2B5
331
2B7
  5
2B6
331
2B8
  5
2B7
331
2B9
  5
2B8
331
2BA
  5
2B9
331
2BB
  5
2BA
331
2BC
  5
2BB
331
2BD
  5
2BC
331
2BE
  5
2BD
331
2BF
  5
2BE
331
2C0
  5
2BF
331
2C1
  5
2C0
331
2C2
  5
2C1
331
2C3
  5
2C2
331
2C4
  5
2C3
331
2C5
  5
2C4
331
2C6
  5
2C5
331
2C7
  5
2C6
331
2C8
  5
2C7
331
2C9
  5
2C8
331
2CA
  5
2C9
331
2CB
  5
2CA
331
2CC
  5
2CB
331
2CD
  5
2CC
331
2CE
  5
2CD
331
2CF
  5
2CE
331
2D0
  5
2CF
331
2D1
  5
2D0
331
2D2
  5
2D1
331
2D3
  5
2D2
331
2D4
  5
2D3
331
2D5
  5
2D4
331
2D6
  5
2D5
331
2D7
  5
2D6
331
2D8
  5
2D7
331
2D9
  5
2D8
331
2DA
  5
2D9
331
2DB
  5
2DA
331
2DC
  5
2DB
331
2DD
  5
2DC
331
2DE
  5
2DD
331
2DF
  5
2DE
331
2E0
  5
2DF
331
2E1
  5
2E0
331
2E2
  5
2E1
331
2E3
  5
2E2
331
2E4
  5
2E3
331
2E5
  5
2E4
331
2E6
  5
2E5
331
2E7
  5
2E6
331
2E8
  5
2E7
331
2E9
  5
2E8
331
2EA
  5
2E9
331
2EB
  5
2EA
331
2EC
  5
2EB
331
2ED
  5
2EC
331
2EE
  5
2ED
331
2EF
  5
2EE
331
2F0
  5
2EF
331
2F1
  5
2F0
331
2F2
  5
2F1
331
2F3
  5
2F2
331
2F4
  5
2F3
331
2F5
  5
2F4
331
2F6
  5
2F5
331
2F7
  5
2F6
331
2F8
  5
2F7
331
2F9
  5
2F8
331
2FA
  5
2F9
331
2FB
  5
2FA
331
2FC
  5
2FB
331
2FD
  5
2FC
331
2FE
  5
2FD
331
2FF
  5
2FE
331
300
  5
2FF
331
301
  5
300
331
302
  5
301
331
303
  5
302
331
304
  5
303
331
305
  5
304
331
306
  5
305
331
307
  5
306
331
308
  5
307
331
309
  5
308
331
30A
  5
309
331
30B
  5
30A
331
30C
  5
30B
331
30D
  5
30C
331
30E
  5
30D
331
30F
  5
30E
331
310
  5
30F
331
311
  5
310
331
312
  5
311
331
313
  5
312
331
314
  5
313
331
315
  5
314
331
316
  5
315
331
317
  5
316
331
318
  5
317
331
329
  5
328
331
32A
  5
329
331
32B
  5
32A
331
32C
  5
32B
331
32D
  5
32C
331
32E
  5
32D
331
32F
  5
32E
331
330
  5
32F
331
331
  5
330
331
332
  5
331
331
333
  5
332
331
334
  5
338
331
335
  5
339
331
336
  5
33A
331
337
  5
33B
331
338
  5
33C
331
339
  5
33D
331
33A
  5
33E
331
33B
  5
33F
331
33C
  5
340
331
33D
  5
341
331
33E
  5
342
331
33F
  5
343
331
340
  5
344
331
341
  5
345
331
342
  5
346
331
343
  5
347
331
344
  5
348
331
345
  5
349
331
346
  5
34A
331
347
  5
34B
331
348
  5
34C
331
349
  5
34D
331
34A
  5
34E
331
34B
  5
34F
331
34C
  5
350
331
34D
  5
351
331
34E
  5
352
331
34F
  5
353
331
350
  5
354
331
351
  5
355
331
352
  5
356
331
353
  5
357
331
354
  5
358
331
355
  5
359
331
356
  5
35A
331
357
  5
35B
331
358
  5
35C
331
359
  5
35D
331
35A
  5
35E
331
35B
  5
35F
331
35C
  5
360
331
35D
  5
361
331
35E
  5
362
331
35F
  5
363
331
360
  5
364
331
361
  5
365
331
362
  5
366
331
363
  5
367
331
364
  5
368
331
365
  5
369
331
366
  5
36A
331
367
  5
36B
331
368
  5
36C
331
369
  5
36D
331
36A
  5
36E
331
36B
  5
36F
331
36C
  5
370
331
36D
  5
371
331
36E
  5
372
331
36F
  5
373
331
370
  5
374
331
371
  5
375
331
372
  5
376
331
373
  5
377
331
374
  5
378
331
375
  5
379
331
376
  5
37A
331
377
  5
37B
331
378
  5
37C
331
379
  5
37D
331
37A
  5
37E
331
37B
  5
37F
331
37C
  5
380
331
37D
  5
381
331
37E
  5
382
331
37F
  5
383
331
380
  5
384
331
381
  5
385
331
382
  5
386
331
383
  5
387
331
384
  5
388
331
385
  5
389
331
386
  5
38A
331
387
  5
38B
331
388
  5
38C
331
389
  5
38D
331
38A
  5
38E
331
38B
  5
38F
331
38C
  5
390
331
38D
  5
391
331
38E
  5
392
331
38F
  5
393
331
390
  5
394
331
391
  5
395
331
392
  5
396
331
393
  5
397
331
394
  5
398
331
395
  5
399
331
396
  5
39A
331
397
  5
39B
331
398
  5
39C
331
399
  5
39D
331
39A
  5
39E
331
39B
  5
39F
331
39C
  5
3A0
331
39D
  5
3A1
331
39E
  5
3A2
331
39F
  5
3A3
331
3A0
  5
3A4
331
3A1
  5
3A5
331
3A2
  5
3A6
331
3A3
  5
3A7
331
3A4
  5
3A8
331
3A5
  5
3A9
331
3A6
  5
3AA
331
3A7
  5
3AB
331
3A8
  5
3AC
331
3A9
  5
3AD
331
3AA
  5
3AE
331
3AB
  5
3AF
331
3AC
  5
3B0
331
3AD
  5
3B1
331
3AE
  5
3B2
331
3AF
  5
3B3
331
3B0
  5
3B4
331
3B1
  5
3B5
331
3B2
  5
3B6
331
3B3
  5
3B7
331
3B4
  5
3B8
331
3B5
  5
3B9
331
3B6
  5
3BA
331
3B7
  5
3BB
331
3B8
  5
3BC
331
3B9
  5
3BD
331
3BA
  5
3BE
331
3BB
  5
3BF
331
3BC
  5
3C0
331
3BD
  5
3C1
331
3BE
  5
3C2
331
3BF
  5
3C3
331
3C0
  5
3C4
331
3C1
  5
3C5
331
3C2
  5
3C6
331
3C3
  5
3C7
331
3C4
  5
3C8
331
3C5
  5
3C9
331
3C6
  5
3CA
331
3C7
  5
3CB
331
3C8
  5
3CC
331
3C9
  5
3CD
331
3CA
  5
3CE
331
3CB
  5
3CF
331
3CC
  5
3D0
331
3CD
  5
3D1
331
3CE
  5
3D2
331
3CF
  5
3D3
331
3D0
  5
3D4
331
3D1
  5
3D5
331
3D2
  5
3D6
331
3D3
  5
3D7
331
3D4
  5
3D8
331
3D5
  5
3D9
331
3D6
  5
3DA
331
3D7
  5
3DB
331
3D8
  5
3DC
331
3D9
  5
3DD
331
3DA
  5
3DE
331
3DB
  5
3DF
331
3DC
  5
3E0
331
3DD
  5
3E1
331
3DE
  5
3E2
331
3DF
  5
3E3
331
3E0
  5
3E4
331
3E1
  5
3E5
331
3E2
  5
3E6
331
3E3
  5
3E7
331
3E4
  5
3E8
331
3E5
  5
3E9
331
3E6
  5
3EA
331
3E7
  5
3EB
331
3E8
  5
3EC
331
3E9
  5
3ED
331
3EA
  5
3EE
331
3EB
  5
3EF
331
3EC
  5
3F0
331
3ED
  5
3F1
331
3EE
  5
3F2
331
514
  5
518
331
515
  5
519
331
516
  5
51A
331
517
  5
51B
331
51A
  5
51E
331
52A
  5
52E
331
52B
  5
52F
331
537
  5
53B
331
538
  5
53C
331
539
  5
53D
331
53B
  5
53F
331
53E
  5
542
331
54A
  5
54E
331
54C
  5
550
331
560
  5
564
331
561
  5
565
331
562
  5
566
331
563
  5
567
331
564
  5
568
331
565
  5
569
331
566
  5
56A
331
567
  5
56B
331
568
  5
56C
331
569
  5
56D
331
56A
  5
56E
331
56B
  5
56F
331
56C
  5
570
331
56D
  5
571
331
56E
  5
572
331
56F
  5
573
331
570
  5
574
331
571
  5
575
331
572
  5
576
331
573
  5
577
331
574
  5
578
331
575
  5
579
331
576
  5
57A
331
577
  5
57B
331
578
  5
57C
331
579
  5
57D
331
57A
  5
57E
331
57B
  5
57F
331
57C
  5
580
331
57D
  5
581
331
57E
  5
582
331
57F
  5
583
331
580
  5
584
331
581
  5
585
331
582
  5
586
331
583
  5
587
331
584
  5
588
331
585
  5
589
331
586
  5
58A
331
587
  5
58B
331
588
  5
58C
331
589
  5
58D
331
58A
  5
58E
331
58B
  5
58F
331
58C
  5
590
331
58D
  5
591
331
58E
  5
592
331
58F
  5
593
331
590
  5
594
331
591
  5
595
331
592
  5
596
331
593
  5
597
331
594
  5
598
331
595
  5
599
331
596
  5
59A
331
597
  5
59B
331
598
  5
59C
331
599
  5
59D
331
59A
  5
59E
331
59B
  5
59F
331
59C
  5
5A0
331
59D
  5
5A1
331
59E
  5
5A2
331
59F
  5
5A3
331
5A0
  5
5A4
331
5A1
  5
5A5
331
5A2
  5
5A6
331
5A3
  5
5A7
331
5A4
  5
5C9
331
5A5
  5
5CA
331
5A6
  5
5CB
331
5A7
  5
5CC
331
5CC
  5
5D0
331
5CD
  5
5D1
331
5CE
  5
5D2
331
5CF
  5
5D3
331
5D0
  5
5D4
331
5D1
  5
5D5
331
5D2
  5
5D6
331
5D3
  5
5D7
331
5D4
  5
5DA
331
5D5
  5
5DB
331
5D6
  5
5DC
331
5D7
  5
5DE
331
5D8
  5
5E0
331
5D9
  5
5E1
331
5DA
  5
5E2
331
5DF
  5
5E5
331
5E0
  5
5E6
331
5E1
  5
5E7
331
5E2
  5
5E8
331
5E3
  5
5E9
331
5E4
  5
5EA
331
5E5
  5
5EB
331
5E6
  5
5EC
331
5E7
  5
5ED
331
5E8
  5
5EE
331
5E9
  5
5EF
331
5EA
  5
5F1
331
5EB
  5
5F2
331
5EC
  5
5F3
331
5ED
  5
5F4
331
5EE
  5
5F5
331
5EF
  5
238
331
603
  5
1CC
331
604
  5
1C9
  0
LAYOUT
  5
1D
102
{ACAD_REACTORS
330
1E
102
}
330
1E
100
AcDbPlotSettings
  1

  2
Bullzip PDF Printer.pc3
  4
A3
  6

 40
0.2
 41
0.0
 42
0.0
 43
0.0
 44
420.2
 45
297.1
 46
25.0
 47
12.0
 48
139.9999997783334
 49
0.0
140
2813.999993653335
141
1907.499995549166
142
1.0
143
7.0
 70
 11936
 72
     1
 73
     0
 74
     4
  7
monochrome.ctb
 75
     0
147
0.1428571428571428
148
-139.9999997783334
149
0.0
100
AcDbLayout
  1
Model
 70
     0
 71
     0
 10
0.0
 20
0.0
 11
12.0
 21
9.0
 12
0.0
 22
0.0
 32
0.0
 14
154.2108794416527
 24
26.1817014394353
 34
0.0
 15
2376.638542352441
 25
1898.101016775871
 35
0.0
146
0.0
 13
0.0
 23
0.0
 33
0.0
 16
1.0
 26
0.0
 36
0.0
 17
0.0
 27
1.0
 37
0.0
 76
     0
330
17
331
2B
1001
ACAD_PSEXT
1000
Bullzip PDF Printer.pc3
1000
Bullzip PDF Printer
1000
BULLZIP
1000
Bullzip PDF Printer 10.1.0.1871
1070
     0
  0
LAYOUT
  5
23
102
{ACAD_REACTORS
330
1E
102
}
330
1E
100
AcDbPlotSettings
  1

  2
SR-LP8300F
  4

  6

 40
0.0
 41
0.0
 42
0.0
 43
0.0
 44
0.0
 45
0.0
 46
0.0
 47
0.0
 48
0.0
 49
0.0
140
0.0
141
0.0
142
1.0
143
1.0
 70
   688
 72
     0
 73
     0
 74
     5
  7
monochrome.ctb
 75
    16
147
1.0
148
0.0
149
0.0
100
AcDbLayout
  1
ﾚｲｱｳﾄ1
 70
     0
 71
     1
 10
0.0
 20
0.0
 11
12.0
 21
9.0
 12
0.0
 22
0.0
 32
0.0
 14
1.000000000000000E+20
 24
1.000000000000000E+20
 34
1.000000000000000E+20
 15
-1.000000000000000E+20
 25
-1.000000000000000E+20
 35
-1.000000000000000E+20
146
0.0
 13
0.0
 23
0.0
 33
0.0
 16
1.0
 26
0.0
 36
0.0
 17
0.0
 27
1.0
 37
0.0
 76
     0
330
20
  0
MATERIAL
  5
70
102
{ACAD_REACTORS
330
7
102
}
102
{ACAD_XDICTIONARY
360
62B
102
}
330
7
100
AcDbMaterial
  1
ByBlock
  0
MATERIAL
  5
10
102
{ACAD_REACTORS
330
7
102
}
102
{ACAD_XDICTIONARY
360
627
102
}
330
7
100
AcDbMaterial
  1
ByLayer
  0
MATERIAL
  5
6
102
{ACAD_REACTORS
330
7
102
}
102
{ACAD_XDICTIONARY
360
629
102
}
330
7
100
AcDbMaterial
  1
Global
1001
ACAD
1070
    -1
1070
     3
1070
     0
1000

1071
        0
  0
MLEADERSTYLE
  5
5C6
102
{ACAD_REACTORS
330
5AB
102
}
102
{ACAD_XDICTIONARY
360
65D
102
}
330
5AB
100
AcDbMLeaderStyle
170
     2
171
     1
172
     0
 90
        2
 40
0.0
 41
0.0
173
     1
 91
-1056964608
340
D
 92
       -2
290
     1
 42
0.09
291
     1
 43
0.36
  3
Standard
341
0
 44
0.18
300

342
E
174
     1
178
     6
175
     1
176
     0
 93
-1056964608
 45
0.18
292
     0
297
     0
 46
0.18
343
0
 94
-1056964608
 47
1.0
 49
1.0
140
1.0
293
     1
141
0.0
294
     1
177
     0
142
1.0
295
     0
296
     0
143
0.125
1001
ACAD_MLEADERVER
1070
     2
  0
MLINESTYLE
  5
14
102
{ACAD_REACTORS
330
15
102
}
330
15
100
AcDbMlineStyle
  2
STANDARD
 70
     0
  3

 62
     0
 51
90.0
 52
90.0
 71
     2
 49
0.5
 62
   256
  6
BYLAYER
 49
-0.5
 62
   256
  6
BYLAYER
  0
ACDBPLACEHOLDER
  5
3
102
{ACAD_REACTORS
330
4
102
}
330
4
  0
SCALE
  5
4F
102
{ACAD_REACTORS
330
2D
102
}
330
2D
100
AcDbScale
 70
     0
300
1:1
140
1.0
141
1.0
290
     1
  0
SCALE
  5
58
102
{ACAD_REACTORS
330
2D
102
}
330
2D
100
AcDbScale
 70
     0
300
1:40
140
1.0
141
40.0
290
     0
  0
SCALE
  5
59
102
{ACAD_REACTORS
330
2D
102
}
330
2D
100
AcDbScale
 70
     0
300
1:50
140
1.0
141
50.0
290
     0
  0
SCALE
  5
5A
102
{ACAD_REACTORS
330
2D
102
}
330
2D
100
AcDbScale
 70
     0
300
1:100
140
1.0
141
100.0
290
     0
  0
SCALE
  5
5B
102
{ACAD_REACTORS
330
2D
102
}
330
2D
100
AcDbScale
 70
     0
300
2:1
140
2.0
141
1.0
290
     0
  0
SCALE
  5
5C
102
{ACAD_REACTORS
330
2D
102
}
330
2D
100
AcDbScale
 70
     0
300
4:1
140
4.0
141
1.0
290
     0
  0
SCALE
  5
5D
102
{ACAD_REACTORS
330
2D
102
}
330
2D
100
AcDbScale
 70
     0
300
8:1
140
8.0
141
1.0
290
     0
  0
SCALE
  5
5E
102
{ACAD_REACTORS
330
2D
102
}
330
2D
100
AcDbScale
 70
     0
300
10:1
140
10.0
141
1.0
290
     0
  0
SCALE
  5
5F
102
{ACAD_REACTORS
330
2D
102
}
330
2D
100
AcDbScale
 70
     0
300
100:1
140
100.0
141
1.0
290
     0
  0
SCALE
  5
60
102
{ACAD_REACTORS
330
2D
102
}
330
2D
100
AcDbScale
 70
     0
300
1/128" = 1'-0"
140
0.0078125
141
12.0
290
     0
  0
SCALE
  5
61
102
{ACAD_REACTORS
330
2D
102
}
330
2D
100
AcDbScale
 70
     0
300
1/64" = 1'-0"
140
0.015625
141
12.0
290
     0
  0
SCALE
  5
50
102
{ACAD_REACTORS
330
2D
102
}
330
2D
100
AcDbScale
 70
     0
300
1:2
140
1.0
141
2.0
290
     0
  0
SCALE
  5
62
102
{ACAD_REACTORS
330
2D
102
}
330
2D
100
AcDbScale
 70
     0
300
1/32" = 1'-0"
140
0.03125
141
12.0
290
     0
  0
SCALE
  5
63
102
{ACAD_REACTORS
330
2D
102
}
330
2D
100
AcDbScale
 70
     0
300
1/16" = 1'-0"
140
0.0625
141
12.0
290
     0
  0
SCALE
  5
64
102
{ACAD_REACTORS
330
2D
102
}
330
2D
100
AcDbScale
 70
     0
300
3/32" = 1'-0"
140
0.09375
141
12.0
290
     0
  0
SCALE
  5
65
102
{ACAD_REACTORS
330
2D
102
}
330
2D
100
AcDbScale
 70
     0
300
1/8" = 1'-0"
140
0.125
141
12.0
290
     0
  0
SCALE
  5
66
102
{ACAD_REACTORS
330
2D
102
}
330
2D
100
AcDbScale
 70
     0
300
3/16" = 1'-0"
140
0.1875
141
12.0
290
     0
  0
SCALE
  5
67
102
{ACAD_REACTORS
330
2D
102
}
330
2D
100
AcDbScale
 70
     0
300
1/4" = 1'-0"
140
0.25
141
12.0
290
     0
  0
SCALE
  5
68
102
{ACAD_REACTORS
330
2D
102
}
330
2D
100
AcDbScale
 70
     0
300
3/8" = 1'-0"
140
0.375
141
12.0
290
     0
  0
SCALE
  5
69
102
{ACAD_REACTORS
330
2D
102
}
330
2D
100
AcDbScale
 70
     0
300
1/2" = 1'-0"
140
0.5
141
12.0
290
     0
  0
SCALE
  5
6A
102
{ACAD_REACTORS
330
2D
102
}
330
2D
100
AcDbScale
 70
     0
300
3/4" = 1'-0"
140
0.75
141
12.0
290
     0
  0
SCALE
  5
6B
102
{ACAD_REACTORS
330
2D
102
}
330
2D
100
AcDbScale
 70
     0
300
1" = 1'-0"
140
1.0
141
12.0
290
     0
  0
SCALE
  5
51
102
{ACAD_REACTORS
330
2D
102
}
330
2D
100
AcDbScale
 70
     0
300
1:4
140
1.0
141
4.0
290
     0
  0
SCALE
  5
6C
102
{ACAD_REACTORS
330
2D
102
}
330
2D
100
AcDbScale
 70
     0
300
1-1/2" = 1'-0"
140
1.5
141
12.0
290
     0
  0
SCALE
  5
6D
102
{ACAD_REACTORS
330
2D
102
}
330
2D
100
AcDbScale
 70
     0
300
3" = 1'-0"
140
3.0
141
12.0
290
     0
  0
SCALE
  5
6E
102
{ACAD_REACTORS
330
2D
102
}
330
2D
100
AcDbScale
 70
     0
300
6" = 1'-0"
140
6.0
141
12.0
290
     0
  0
SCALE
  5
6F
102
{ACAD_REACTORS
330
2D
102
}
330
2D
100
AcDbScale
 70
     0
300
1'-0" = 1'-0"
140
12.0
141
12.0
290
     0
  0
SCALE
  5
52
102
{ACAD_REACTORS
330
2D
102
}
330
2D
100
AcDbScale
 70
     0
300
1:5
140
1.0
141
5.0
290
     0
  0
SCALE
  5
53
102
{ACAD_REACTORS
330
2D
102
}
330
2D
100
AcDbScale
 70
     0
300
1:8
140
1.0
141
8.0
290
     0
  0
SCALE
  5
54
102
{ACAD_REACTORS
330
2D
102
}
330
2D
100
AcDbScale
 70
     0
300
1:10
140
1.0
141
10.0
290
     0
  0
SCALE
  5
55
102
{ACAD_REACTORS
330
2D
102
}
330
2D
100
AcDbScale
 70
     0
300
1:16
140
1.0
141
16.0
290
     0
  0
SCALE
  5
56
102
{ACAD_REACTORS
330
2D
102
}
330
2D
100
AcDbScale
 70
     0
300
1:20
140
1.0
141
20.0
290
     0
  0
SCALE
  5
57
102
{ACAD_REACTORS
330
2D
102
}
330
2D
100
AcDbScale
 70
     0
300
1:30
140
1.0
141
30.0
290
     0
  0
TABLESTYLE
  5
61C
102
{ACAD_REACTORS
330
5AA
102
}
330
5AA
100
AcDbTableStyle
  3
Standard
 70
     0
 71
     0
 40
0.06
 41
0.06
280
     0
281
     0
  7
STANDARD
140
0.18
170
     2
 62
     0
 63
   257
283
     0
274
    -2
284
     1
 64
     0
275
    -2
285
     1
 65
     0
276
    -2
286
     1
 66
     0
277
    -2
287
     1
 67
     0
278
    -2
288
     1
 68
     0
279
    -2
289
     1
 69
     0
  7
STANDARD
140
0.25
170
     5
 62
     0
 63
   257
283
     0
274
    -2
284
     1
 64
     0
275
    -2
285
     1
 65
     0
276
    -2
286
     1
 66
     0
277
    -2
287
     1
 67
     0
278
    -2
288
     1
 68
     0
279
    -2
289
     1
 69
     0
  7
STANDARD
140
0.18
170
     5
 62
     0
 63
   257
283
     0
274
    -2
284
     1
 64
     0
275
    -2
285
     1
 65
     0
276
    -2
286
     1
 66
     0
277
    -2
287
     1
 67
     0
278
    -2
288
     1
 68
     0
279
    -2
289
     1
 69
     0
  0
VISUALSTYLE
  5
5B2
102
{ACAD_REACTORS
330
2A
102
}
102
{ACAD_XDICTIONARY
360
635
102
}
330
2A
100
AcDbVisualStyle
  2
2dWireframe
 70
     4
 71
     0
 72
     2
 73
     0
 90
        0
 40
0.6
 41
30.0
 62
     5
 63
     7
 74
     1
 91
        4
 64
     7
 65
   257
 75
     1
175
     1
 42
1.0
 92
        0
 66
   257
 43
1.0
 76
     1
 77
     6
 78
     2
 67
     7
 79
     5
170
     0
171
     0
290
     0
174
     0
 93
        1
 44
0.0
173
     0
291
     0
 45
0.0
1001
ACAD
1000
AcDbSavedByObjectVersion
1070
     0
  0
VISUALSTYLE
  5
5B5
102
{ACAD_REACTORS
330
2A
102
}
102
{ACAD_XDICTIONARY
360
63B
102
}
330
2A
100
AcDbVisualStyle
  2
Basic
 70
     7
 71
     1
 72
     0
 73
     1
 90
        0
 40
0.6
 41
30.0
 62
     5
 63
     7
 74
     0
 91
        4
 64
     7
 65
   257
 75
     1
175
     1
 42
1.0
 92
        8
 66
     7
 43
1.0
 76
     1
 77
     6
 78
     2
 67
     7
 79
     5
170
     0
171
     0
290
     0
174
     0
 93
        1
 44
0.0
173
     0
291
     1
 45
0.0
1001
ACAD
1000
AcDbSavedByObjectVersion
1070
     0
  0
VISUALSTYLE
  5
5B9
102
{ACAD_REACTORS
330
2A
102
}
102
{ACAD_XDICTIONARY
360
643
102
}
330
2A
100
AcDbVisualStyle
  2
Brighten
 70
    12
 71
     2
 72
     2
 73
     0
 90
        0
 40
0.6
 41
30.0
 62
     5
 63
     7
 74
     1
 91
        4
 64
     7
 65
   257
 75
     1
175
     1
 42
1.0
 92
        8
 66
     7
 43
1.0
 76
     1
 77
     6
 78
     2
 67
     7
 79
     5
170
     0
171
     0
290
     0
174
     0
 93
        1
 44
50.0
173
     0
291
     1
 45
0.0
1001
ACAD
1000
AcDbSavedByObjectVersion
1070
     0
  0
VISUALSTYLE
  5
5BD
102
{ACAD_REACTORS
330
2A
102
}
102
{ACAD_XDICTIONARY
360
64B
102
}
330
2A
100
AcDbVisualStyle
  2
ColorChange
 70
    16
 71
     2
 72
     2
 73
     3
 90
        0
 40
0.6
 41
30.0
 62
     5
 63
     8
 74
     1
 91
        4
 64
     7
 65
   257
 75
     1
175
     1
 42
1.0
 92
        8
 66
     8
 43
1.0
 76
     1
 77
     6
 78
     2
 67
     7
 79
     5
170
     0
171
     0
290
     0
174
     0
 93
        1
 44
0.0
173
     0
291
     1
 45
0.0
1001
ACAD
1000
AcDbSavedByObjectVersion
1070
     0
  0
VISUALSTYLE
  5
5B7
102
{ACAD_REACTORS
330
2A
102
}
102
{ACAD_XDICTIONARY
360
63F
102
}
330
2A
100
AcDbVisualStyle
  2
Conceptual
 70
     9
 71
     3
 72
     2
 73
     0
 90
        0
 40
0.6
 41
30.0
 62
     5
 63
     7
 74
     2
 91
        2
 64
     7
 65
   257
 75
     1
175
     1
 42
40.0
 92
        8
 66
     7
 43
1.0
 76
     1
 77
     6
 78
     2
 67
     7
 79
     3
170
     0
171
     0
290
     0
174
     0
 93
        1
 44
0.0
173
     0
291
     0
 45
0.0
1001
ACAD
1000
AcDbSavedByObjectVersion
1070
     0
  0
VISUALSTYLE
  5
5B8
102
{ACAD_REACTORS
330
2A
102
}
102
{ACAD_XDICTIONARY
360
641
102
}
330
2A
100
AcDbVisualStyle
  2
Dim
 70
    11
 71
     2
 72
     2
 73
     0
 90
        0
 40
0.6
 41
30.0
 62
     5
 63
     7
 74
     1
 91
        4
 64
     7
 65
   257
 75
     1
175
     1
 42
1.0
 92
        8
 66
     7
 43
1.0
 76
     1
 77
     6
 78
     2
 67
     7
 79
     5
170
     0
171
     0
290
     0
174
     0
 93
        1
 44
-50.0
173
     0
291
     1
 45
0.0
1001
ACAD
1000
AcDbSavedByObjectVersion
1070
     0
  0
VISUALSTYLE
  5
5C0
102
{ACAD_REACTORS
330
2A
102
}
102
{ACAD_XDICTIONARY
360
651
102
}
330
2A
100
AcDbVisualStyle
  2
EdgeColorOff
 70
    22
 71
     2
 72
     2
 73
     0
 90
        0
 40
0.6
 41
30.0
 62
     5
 63
     7
 74
     1
 91
        4
 64
     7
 65
   257
 75
     1
175
     1
 42
1.0
 92
        8
 66
     7
 43
1.0
 76
     1
 77
     6
 78
     2
 67
     7
 79
     5
170
     0
171
     0
290
     0
174
     0
 93
        1
 44
0.0
173
     0
291
     1
 45
0.0
1001
ACAD
1000
AcDbSavedByObjectVersion
1070
     0
  0
VISUALSTYLE
  5
5BC
102
{ACAD_REACTORS
330
2A
102
}
102
{ACAD_XDICTIONARY
360
649
102
}
330
2A
100
AcDbVisualStyle
  2
Facepattern
 70
    15
 71
     2
 72
     2
 73
     0
 90
        0
 40
0.6
 41
30.0
 62
     5
 63
     7
 74
     1
 91
        4
 64
     7
 65
   257
 75
     1
175
     1
 42
1.0
 92
        8
 66
     7
 43
1.0
 76
     1
 77
     6
 78
     2
 67
     7
 79
     5
170
     0
171
     0
290
     0
174
     0
 93
        1
 44
0.0
173
     0
291
     1
 45
0.0
1001
ACAD
1000
AcDbSavedByObjectVersion
1070
     0
  0
VISUALSTYLE
  5
5AE
102
{ACAD_REACTORS
330
2A
102
}
102
{ACAD_XDICTIONARY
360
62D
102
}
330
2A
100
AcDbVisualStyle
  2
Flat
 70
     0
 71
     2
 72
     1
 73
     1
 90
        2
 40
0.6
 41
30.0
 62
     5
 63
     7
 74
     0
 91
        4
 64
     7
 65
   257
 75
     1
175
     1
 42
1.0
 92
        8
 66
     7
 43
1.0
 76
     1
 77
     6
 78
     2
 67
     7
 79
     5
170
     0
171
     0
290
     0
174
     0
 93
       13
 44
0.0
173
     0
291
     1
 45
0.0
1001
ACAD
1000
AcDbSavedByObjectVersion
1070
     0
  0
VISUALSTYLE
  5
5AF
102
{ACAD_REACTORS
330
2A
102
}
102
{ACAD_XDICTIONARY
360
62F
102
}
330
2A
100
AcDbVisualStyle
  2
FlatWithEdges
 70
     1
 71
     2
 72
     1
 73
     1
 90
        2
 40
0.6
 41
30.0
 62
     5
 63
     7
 74
     1
 91
        4
 64
     7
 65
   257
 75
     1
175
     1
 42
1.0
 92
        0
 66
   257
 43
1.0
 76
     1
 77
     6
 78
     2
 67
     7
 79
     5
170
     0
171
     0
290
     0
174
     0
 93
       13
 44
0.0
173
     0
291
     1
 45
0.0
1001
ACAD
1000
AcDbSavedByObjectVersion
1070
     0
  0
VISUALSTYLE
  5
5B0
102
{ACAD_REACTORS
330
2A
102
}
102
{ACAD_XDICTIONARY
360
631
102
}
330
2A
100
AcDbVisualStyle
  2
Gouraud
 70
     2
 71
     2
 72
     2
 73
     1
 90
        2
 40
0.6
 41
30.0
 62
     5
 63
     7
 74
     0
 91
        4
 64
     7
 65
   257
 75
     1
175
     1
 42
1.0
 92
        0
 66
     7
 43
1.0
 76
     1
 77
     6
 78
     2
 67
     7
 79
     5
170
     0
171
     0
290
     0
174
     0
 93
       13
 44
0.0
173
     0
291
     1
 45
0.0
1001
ACAD
1000
AcDbSavedByObjectVersion
1070
     0
  0
VISUALSTYLE
  5
5B1
102
{ACAD_REACTORS
330
2A
102
}
102
{ACAD_XDICTIONARY
360
633
102
}
330
2A
100
AcDbVisualStyle
  2
GouraudWithEdges
 70
     3
 71
     2
 72
     2
 73
     1
 90
        2
 40
0.6
 41
30.0
 62
     5
 63
     7
 74
     1
 91
        4
 64
     7
 65
   257
 75
     1
175
     1
 42
1.0
 92
        0
 66
   257
 43
1.0
 76
     1
 77
     6
 78
     2
 67
     7
 79
     5
170
     0
171
     0
290
     0
174
     0
 93
       13
 44
0.0
173
     0
291
     1
 45
0.0
1001
ACAD
1000
AcDbSavedByObjectVersion
1070
     0
  0
VISUALSTYLE
  5
5B4
102
{ACAD_REACTORS
330
2A
102
}
102
{ACAD_XDICTIONARY
360
639
102
}
330
2A
100
AcDbVisualStyle
  2
Hidden
 70
     6
 71
     1
 72
     2
 73
     2
 90
        0
 40
0.6
 41
30.0
 62
     5
 63
     7
 74
     2
 91
        2
 64
     7
 65
   257
 75
     2
175
     1
 42
40.0
 92
        0
 66
   257
 43
1.0
 76
     1
 77
     6
 78
     2
 67
     7
 79
     3
170
     0
171
     0
290
     0
174
     0
 93
        1
 44
0.0
173
     0
291
     0
 45
0.0
1001
ACAD
1000
AcDbSavedByObjectVersion
1070
     0
  0
VISUALSTYLE
  5
5BE
102
{ACAD_REACTORS
330
2A
102
}
102
{ACAD_XDICTIONARY
360
64D
102
}
330
2A
100
AcDbVisualStyle
  2
JitterOff
 70
    20
 71
     2
 72
     2
 73
     0
 90
        0
 40
0.6
 41
30.0
 62
     5
 63
     7
 74
     1
 91
        4
 64
     7
 65
   257
 75
     1
175
     1
 42
1.0
 92
       10
 66
     7
 43
1.0
 76
     1
 77
     6
 78
     2
 67
     7
 79
     5
170
     0
171
     0
290
     0
174
     0
 93
        1
 44
0.0
173
     0
291
     1
 45
0.0
1001
ACAD
1000
AcDbSavedByObjectVersion
1070
     0
  0
VISUALSTYLE
  5
5BB
102
{ACAD_REACTORS
330
2A
102
}
102
{ACAD_XDICTIONARY
360
647
102
}
330
2A
100
AcDbVisualStyle
  2
Linepattern
 70
    14
 71
     2
 72
     2
 73
     0
 90
        0
 40
0.6
 41
30.0
 62
     5
 63
     7
 74
     1
 91
        4
 64
     7
 65
   257
 75
     7
175
     7
 42
1.0
 92
        8
 66
     7
 43
1.0
 76
     1
 77
     6
 78
     2
 67
     7
 79
     5
170
     0
171
     0
290
     0
174
     0
 93
        1
 44
0.0
173
     0
291
     1
 45
0.0
1001
ACAD
1000
AcDbSavedByObjectVersion
1070
     0
  0
VISUALSTYLE
  5
5BF
102
{ACAD_REACTORS
330
2A
102
}
102
{ACAD_XDICTIONARY
360
64F
102
}
330
2A
100
AcDbVisualStyle
  2
OverhangOff
 70
    21
 71
     2
 72
     2
 73
     0
 90
        0
 40
0.6
 41
30.0
 62
     5
 63
     7
 74
     1
 91
        4
 64
     7
 65
   257
 75
     1
175
     1
 42
1.0
 92
        9
 66
     7
 43
1.0
 76
     1
 77
     6
 78
     2
 67
     7
 79
     5
170
     0
171
     0
290
     0
174
     0
 93
        1
 44
0.0
173
     0
291
     1
 45
0.0
1001
ACAD
1000
AcDbSavedByObjectVersion
1070
     0
  0
VISUALSTYLE
  5
5B6
102
{ACAD_REACTORS
330
2A
102
}
102
{ACAD_XDICTIONARY
360
63D
102
}
330
2A
100
AcDbVisualStyle
  2
Realistic
 70
     8
 71
     2
 72
     3
 73
     0
 90
        2
 40
0.6
 41
30.0
 62
     5
 63
     7
 74
     0
 91
        0
 64
     7
 65
   257
 75
     1
175
     1
 42
1.0
 92
        8
 66
   257
 43
1.0
 76
     1
 77
     6
 78
     2
 67
     7
 79
     3
170
     0
171
     0
290
     0
174
     0
 93
       13
 44
0.0
173
     0
291
     0
 45
0.0
1001
ACAD
1000
AcDbSavedByObjectVersion
1070
     0
  0
VISUALSTYLE
  5
5C5
102
{ACAD_REACTORS
330
2A
102
}
102
{ACAD_XDICTIONARY
360
65B
102
}
330
2A
100
AcDbVisualStyle
  2
Shaded
 70
    27
 71
     2
 72
     2
 73
     1
 90
        2
 40
0.6
 41
30.0
 62
     5
 63
     7
 74
     0
 91
        4
 64
     7
 65
   257
 75
     1
175
     1
 42
1.0
 92
        8
 66
   257
 43
1.0
 76
     1
 77
     6
 78
     2
 67
   251
 79
     3
170
     0
171
     0
290
     0
174
     0
 93
        5
 44
0.0
173
     0
291
     0
 45
0.0
1001
ACAD
1000
AcDbSavedByObjectVersion
1070
     0
  0
VISUALSTYLE
  5
5C4
102
{ACAD_REACTORS
330
2A
102
}
102
{ACAD_XDICTIONARY
360
659
102
}
330
2A
100
AcDbVisualStyle
  2
Shaded with edges
 70
    26
 71
     2
 72
     2
 73
     1
 90
        2
 40
0.6
 41
30.0
 62
     5
 63
     7
 74
     1
 91
       10
 64
     7
 65
   257
 75
     2
175
     1
 42
1.0
 92
        8
 66
   257
 43
1.0
 76
     1
 77
     6
 78
     2
 67
     7
 79
     3
170
     0
171
     0
290
     0
174
     0
 93
        5
 44
0.0
173
     0
291
     0
 45
0.0
1001
ACAD
1000
AcDbSavedByObjectVersion
1070
     0
  0
VISUALSTYLE
  5
5C1
102
{ACAD_REACTORS
330
2A
102
}
102
{ACAD_XDICTIONARY
360
653
102
}
330
2A
100
AcDbVisualStyle
  2
Shades of Gray
 70
    23
 71
     2
 72
     2
 73
     3
 90
        0
 40
0.6
 41
30.0
 62
     5
 63
     7
 74
     2
 91
        2
 64
     7
 65
     7
 75
     1
175
     1
 42
40.0
 92
        8
 66
     7
 43
1.0
 76
     1
 77
     6
 78
     2
 67
     7
 79
     3
170
     0
171
     0
290
     0
174
     0
 93
        1
 44
0.0
173
     0
291
     0
 45
0.0
1001
ACAD
1000
AcDbSavedByObjectVersion
1070
     0
  0
VISUALSTYLE
  5
5C2
102
{ACAD_REACTORS
330
2A
102
}
102
{ACAD_XDICTIONARY
360
655
102
}
330
2A
100
AcDbVisualStyle
  2
Sketchy
 70
    24
 71
     1
 72
     2
 73
     2
 90
        0
 40
0.6
 41
30.0
 62
     5
 63
     7
 74
     2
 91
        2
 64
     7
 65
     7
 75
     1
175
     1
 42
40.0
 92
       11
 66
     7
 43
1.0
 76
     1
 77
     6
 78
     2
 67
     7
 79
     6
170
     0
171
     0
290
     0
174
     0
 93
        1
 44
0.0
173
     0
291
     0
 45
0.0
1001
ACAD
1000
AcDbSavedByObjectVersion
1070
     0
  0
VISUALSTYLE
  5
5BA
102
{ACAD_REACTORS
330
2A
102
}
102
{ACAD_XDICTIONARY
360
645
102
}
330
2A
100
AcDbVisualStyle
  2
Thicken
 70
    13
 71
     2
 72
     2
 73
     0
 90
        0
 40
0.6
 41
30.0
 62
     5
 63
     7
 74
     1
 91
        4
 64
     7
 65
   257
 75
     1
175
     1
 42
1.0
 92
       12
 66
     7
 43
1.0
 76
     1
 77
     6
 78
     2
 67
     7
 79
     5
170
     0
171
     0
290
     0
174
     0
 93
        1
 44
0.0
173
     0
291
     1
 45
0.0
1001
ACAD
1000
AcDbSavedByObjectVersion
1070
     0
  0
VISUALSTYLE
  5
5B3
102
{ACAD_REACTORS
330
2A
102
}
102
{ACAD_XDICTIONARY
360
637
102
}
330
2A
100
AcDbVisualStyle
  2
Wireframe
 70
     5
 71
     0
 72
     2
 73
     0
 90
        0
 40
0.6
 41
30.0
 62
     5
 63
     7
 74
     1
 91
        4
 64
     7
 65
   257
 75
     1
175
     1
 42
1.0
 92
        0
 66
   257
 43
1.0
 76
     1
 77
     6
 78
     2
 67
     7
 79
     5
170
     0
171
     0
290
     0
174
     0
 93
        1
 44
0.0
173
     0
291
     0
 45
0.0
1001
ACAD
1000
AcDbSavedByObjectVersion
1070
     0
  0
VISUALSTYLE
  5
5C3
102
{ACAD_REACTORS
330
2A
102
}
102
{ACAD_XDICTIONARY
360
657
102
}
330
2A
100
AcDbVisualStyle
  2
X-Ray
 70
    25
 71
     2
 72
     2
 73
     1
 90
        1
 40
0.5
 41
30.0
 62
     5
 63
     7
 74
     1
 91
        0
 64
     7
 65
   257
 75
     1
175
     1
 42
1.0
 92
        8
 66
     7
 43
1.0
 76
     1
 77
     6
 78
     2
 67
     7
 79
     3
170
     0
171
     0
290
     0
174
     0
 93
       13
 44
0.0
173
     0
291
     0
 45
0.0
1001
ACAD
1000
AcDbSavedByObjectVersion
1070
     0
  0
XRECORD
  5
621
102
{ACAD_REACTORS
330
620
102
}
330
620
100
AcDbXrecord
280
     1
340
29
  0
XRECORD
  5
622
102
{ACAD_REACTORS
330
620
102
}
330
620
100
AcDbXrecord
280
     1
340
7
  0
DICTIONARYVAR
  5
5A9
102
{ACAD_REACTORS
330
5A8
102
}
330
5A8
100
DictionaryVariables
280
     0
  1
1:1
  0
DICTIONARYVAR
  5
5C8
102
{ACAD_REACTORS
330
5A8
102
}
330
5A8
100
DictionaryVariables
280
     0
  1
Standard
  0
DICTIONARYVAR
  5
61D
102
{ACAD_REACTORS
330
5A8
102
}
330
5A8
100
DictionaryVariables
280
     0
  1
Standard
  0
DICTIONARYVAR
  5
61E
102
{ACAD_REACTORS
330
5A8
102
}
330
5A8
100
DictionaryVariables
280
     0
  1
0
  0
DICTIONARYVAR
  5
61F
102
{ACAD_REACTORS
330
5A8
102
}
330
5A8
100
DictionaryVariables
280
     0
  1
1
  0
DICTIONARYVAR
  5
626
102
{ACAD_REACTORS
330
5A8
102
}
330
5A8
100
DictionaryVariables
280
     0
  1
1
  0
DICTIONARY
  5
62B
330
70
100
AcDbDictionary
280
     1
281
     1
  3
ACAD_XREC_ROUNDTRIP
360
62C
  0
DICTIONARY
  5
627
330
10
100
AcDbDictionary
280
     1
281
     1
  3
ACAD_XREC_ROUNDTRIP
360
628
  0
DICTIONARY
  5
629
330
6
100
AcDbDictionary
280
     1
281
     1
  3
ACAD_XREC_ROUNDTRIP
360
62A
  0
DICTIONARY
  5
65D
330
5C6
100
AcDbDictionary
280
     1
281
     1
  3
ACAD_XREC_ROUNDTRIP
360
65E
  0
DICTIONARY
  5
635
330
5B2
100
AcDbDictionary
280
     1
281
     1
  3
ACAD_XREC_ROUNDTRIP
360
636
  0
DICTIONARY
  5
63B
330
5B5
100
AcDbDictionary
280
     1
281
     1
  3
ACAD_XREC_ROUNDTRIP
360
63C
  0
DICTIONARY
  5
643
330
5B9
100
AcDbDictionary
280
     1
281
     1
  3
ACAD_XREC_ROUNDTRIP
360
644
  0
DICTIONARY
  5
64B
330
5BD
100
AcDbDictionary
280
     1
281
     1
  3
ACAD_XREC_ROUNDTRIP
360
64C
  0
DICTIONARY
  5
63F
330
5B7
100
AcDbDictionary
280
     1
281
     1
  3
ACAD_XREC_ROUNDTRIP
360
640
  0
DICTIONARY
  5
641
330
5B8
100
AcDbDictionary
280
     1
281
     1
  3
ACAD_XREC_ROUNDTRIP
360
642
  0
DICTIONARY
  5
651
330
5C0
100
AcDbDictionary
280
     1
281
     1
  3
ACAD_XREC_ROUNDTRIP
360
652
  0
DICTIONARY
  5
649
330
5BC
100
AcDbDictionary
280
     1
281
     1
  3
ACAD_XREC_ROUNDTRIP
360
64A
  0
DICTIONARY
  5
62D
330
5AE
100
AcDbDictionary
280
     1
281
     1
  3
ACAD_XREC_ROUNDTRIP
360
62E
  0
DICTIONARY
  5
62F
330
5AF
100
AcDbDictionary
280
     1
281
     1
  3
ACAD_XREC_ROUNDTRIP
360
630
  0
DICTIONARY
  5
631
330
5B0
100
AcDbDictionary
280
     1
281
     1
  3
ACAD_XREC_ROUNDTRIP
360
632
  0
DICTIONARY
  5
633
330
5B1
100
AcDbDictionary
280
     1
281
     1
  3
ACAD_XREC_ROUNDTRIP
360
634
  0
DICTIONARY
  5
639
330
5B4
100
AcDbDictionary
280
     1
281
     1
  3
ACAD_XREC_ROUNDTRIP
360
63A
  0
DICTIONARY
  5
64D
330
5BE
100
AcDbDictionary
280
     1
281
     1
  3
ACAD_XREC_ROUNDTRIP
360
64E
  0
DICTIONARY
  5
647
330
5BB
100
AcDbDictionary
280
     1
281
     1
  3
ACAD_XREC_ROUNDTRIP
360
648
  0
DICTIONARY
  5
64F
330
5BF
100
AcDbDictionary
280
     1
281
     1
  3
ACAD_XREC_ROUNDTRIP
360
650
  0
DICTIONARY
  5
63D
330
5B6
100
AcDbDictionary
280
     1
281
     1
  3
ACAD_XREC_ROUNDTRIP
360
63E
  0
DICTIONARY
  5
65B
330
5C5
100
AcDbDictionary
280
     1
281
     1
  3
ACAD_XREC_ROUNDTRIP
360
65C
  0
DICTIONARY
  5
659
330
5C4
100
AcDbDictionary
280
     1
281
     1
  3
ACAD_XREC_ROUNDTRIP
360
65A
  0
DICTIONARY
  5
653
330
5C1
100
AcDbDictionary
280
     1
281
     1
  3
ACAD_XREC_ROUNDTRIP
360
654
  0
DICTIONARY
  5
655
330
5C2
100
AcDbDictionary
280
     1
281
     1
  3
ACAD_XREC_ROUNDTRIP
360
656
  0
DICTIONARY
  5
645
330
5BA
100
AcDbDictionary
280
     1
281
     1
  3
ACAD_XREC_ROUNDTRIP
360
646
  0
DICTIONARY
  5
637
330
5B3
100
AcDbDictionary
280
     1
281
     1
  3
ACAD_XREC_ROUNDTRIP
360
638
  0
DICTIONARY
  5
657
330
5C3
100
AcDbDictionary
280
     1
281
     1
  3
ACAD_XREC_ROUNDTRIP
360
658
  0
XRECORD
  5
62C
102
{ACAD_REACTORS
330
62B
102
}
330
62B
100
AcDbXrecord
280
     1
102
MATERIAL
148
0.0
149
0.0
149
0.0
 93
        0
 94
      127
282
     0
 72
     1
 77
     1
171
     1
175
     1
179
     1
273
     0
  0
XRECORD
  5
628
102
{ACAD_REACTORS
330
627
102
}
330
627
100
AcDbXrecord
280
     1
102
MATERIAL
148
0.0
149
0.0
149
0.0
 93
        0
 94
      127
282
     0
 72
     1
 77
     1
171
     1
175
     1
179
     1
273
     0
  0
XRECORD
  5
62A
102
{ACAD_REACTORS
330
629
102
}
330
629
100
AcDbXrecord
280
     1
102
MATERIAL
148
0.0
149
0.0
149
0.0
 93
        0
 94
      127
282
     0
 72
     1
 77
     1
171
     1
175
     1
179
     1
273
     0
  0
XRECORD
  5
65E
102
{ACAD_REACTORS
330
65D
102
}
330
65D
100
AcDbXrecord
280
     1
102
ACAD_ROUNDTRIP_2010_MLEADER_STYLE
  0
XRECORD
  5
636
102
{ACAD_REACTORS
330
635
102
}
330
635
100
AcDbXrecord
280
     1
102
RTVSPropertyOp0
 70
     1
102
RTVSPropertyOp1
 70
     1
102
RTVSPropertyOp2
 70
     1
102
RTVSPropertyOp3
 70
     1
102
RTVSPropertyOp4
 70
     1
102
RTVSPropertyOp5
 70
     1
102
RTVSPropertyOp6
 70
     1
102
RTVSPropertyOp7
 70
     1
102
RTVSPropertyOp8
 70
     1
102
RTVSPropertyOp9
 70
     1
102
RTVSPropertyOp10
 70
     1
102
RTVSPropertyOp11
 70
     1
102
RTVSPropertyOp12
 70
     1
102
RTVSPropertyOp13
 70
     1
102
RTVSPropertyOp14
 70
     1
102
RTVSPropertyOp15
 70
     1
102
RTVSPropertyOp16
 70
     1
102
RTVSPropertyOp17
 70
     1
102
RTVSPropertyOp18
 70
     1
102
RTVSPropertyOp19
 70
     1
102
RTVSPropertyOp20
 70
     1
102
RTVSPropertyOp21
 70
     1
102
RTVSPropertyOp22
 70
     1
102
RTVSPropertyOp23
 70
     1
102
RTVSPropertyOp24
 70
     1
102
RTVSPropertyOp25
 70
     1
102
RTVSPropertyOp26
 70
     1
102
RTVSPropertyOp27
 70
     1
102
RTVSPropertyOp28
 70
     1
102
RTVSPropertyOp29
 70
     1
102
RTVSPropertyOp30
 70
     1
102
RTVSPropertyOp31
 70
     1
102
RTVSPropertyOp32
 70
     1
102
RTVSPropertyOp33
 70
     1
102
RTVSPropertyOp34
 70
     1
102
RTVSPropertyOp35
 70
     1
102
RTVSPropertyOp36
 70
     1
102
RTVSPropertyOp37
 70
     1
102
RTVSPropertyOp38
 70
     1
102
RTVSPropertyOp39
 70
     1
102
RTVSPropertyOp40
 70
     1
102
RTVSPropertyOp41
 70
     1
102
RTVSPropertyOp42
 70
     1
102
RTVSPropertyOp43
 70
     1
102
RTVSPropertyOp44
 70
     1
102
RTVSPropertyOp45
 70
     1
102
RTVSPropertyOp46
 70
     1
102
RTVSPropertyOp47
 70
     1
102
RTVSPropertyOp48
 70
     1
102
RTVSPropertyOp49
 70
     1
102
RTVSPropertyOp50
 70
     1
102
RTVSPropertyOp51
 70
     0
102
RTVSPropertyOp52
 70
     0
102
RTVSPropertyOp53
 70
     1
102
RTVSPropertyOp54
 70
     1
102
RTVSPropertyOp55
 70
     1
102
RTVSPropertyOp56
 70
     1
102
RTVSPropertyOp57
 70
     1
102
RTVSPost2010Prop28
280
     1
102
RTVSPost2010PropOp28
 70
     1
102
RTVSPost2010Prop29
280
     1
102
RTVSPost2010PropOp29
 70
     1
102
RTVSPost2010Prop30
280
     0
102
RTVSPost2010PropOp30
 70
     1
102
RTVSPost2010Prop31
280
     0
102
RTVSPost2010PropOp31
 70
     1
102
RTVSPost2010Prop32
280
     0
102
RTVSPost2010PropOp32
 70
     1
102
RTVSPost2010Prop33
280
     0
102
RTVSPost2010PropOp33
 70
     1
102
RTVSPost2010Prop34
280
     0
102
RTVSPost2010PropOp34
 70
     1
102
RTVSPost2010Prop35
280
     0
102
RTVSPost2010PropOp35
 70
     1
102
RTVSPost2010Prop36
280
     0
102
RTVSPost2010PropOp36
 70
     1
102
RTVSPost2010Prop37
 90
       50
102
RTVSPost2010PropOp37
 70
     1
102
RTVSPost2010Prop38
140
0.0
102
RTVSPost2010PropOp38
 70
     1
102
RTVSPost2010Prop39
140
1.0
102
RTVSPost2010PropOp39
 70
     1
102
RTVSPost2010Prop40
 90
        0
102
RTVSPost2010PropOp40
 70
     1
102
RTVSPost2010Prop41ColorIndex
 90
       18
102
RTVSPost2010Prop41ColorRGB
 90
        0
102
RTVSPost2010PropOp41
 70
     1
102
RTVSPost2010Prop42
 90
       50
102
RTVSPost2010PropOp42
 70
     1
102
RTVSPost2010Prop43
 90
        3
102
RTVSPost2010PropOp43
 70
     1
102
RTVSPost2010Prop44ColorIndex
 90
        5
102
RTVSPost2010Prop44ColorRGB
 90
      255
102
RTVSPost2010PropOp44
 70
     1
102
RTVSPost2010Prop45
280
     0
102
RTVSPost2010PropOp45
 70
     1
102
RTVSPost2010Prop46
 90
       50
102
RTVSPost2010PropOp46
 70
     1
102
RTVSPost2010Prop47
 90
       50
102
RTVSPost2010PropOp47
 70
     1
102
RTVSPost2010Prop48
 90
       50
102
RTVSPost2010PropOp48
 70
     1
102
RTVSPost2010Prop49
280
     0
102
RTVSPost2010PropOp49
 70
     1
102
RTVSPost2010Prop50
 90
       50
102
RTVSPost2010PropOp50
 70
     1
102
RTVSPost2010Prop51ColorIndex
 90
      256
102
RTVSPost2010Prop51ColorRGB
 90
-16777216
102
RTVSPost2010PropOp51
 70
     0
102
RTVSPost2010Prop52
140
1.0
102
RTVSPost2010PropOp52
 70
     0
102
RTVSPost2010Prop53
 90
        2
102
RTVSPost2010PropOp53
 70
     1
102
RTVSPost2010Prop54
  1
strokes_ogs.tif
102
RTVSPost2010PropOp54
 70
     1
102
RTVSPost2010Prop55
280
     0
102
RTVSPost2010PropOp55
 70
     1
102
RTVSPost2010Prop56
140
1.0
102
RTVSPost2010PropOp56
 70
     1
102
RTVSPost2010Prop57
140
1.0
102
RTVSPost2010PropOp57
 70
     1
  0
XRECORD
  5
63C
102
{ACAD_REACTORS
330
63B
102
}
330
63B
100
AcDbXrecord
280
     1
102
RTVSPropertyOp0
 70
     1
102
RTVSPropertyOp1
 70
     1
102
RTVSPropertyOp2
 70
     1
102
RTVSPropertyOp3
 70
     1
102
RTVSPropertyOp4
 70
     1
102
RTVSPropertyOp5
 70
     1
102
RTVSPropertyOp6
 70
     1
102
RTVSPropertyOp7
 70
     1
102
RTVSPropertyOp8
 70
     1
102
RTVSPropertyOp9
 70
     1
102
RTVSPropertyOp10
 70
     1
102
RTVSPropertyOp11
 70
     1
102
RTVSPropertyOp12
 70
     1
102
RTVSPropertyOp13
 70
     1
102
RTVSPropertyOp14
 70
     1
102
RTVSPropertyOp15
 70
     1
102
RTVSPropertyOp16
 70
     1
102
RTVSPropertyOp17
 70
     1
102
RTVSPropertyOp18
 70
     1
102
RTVSPropertyOp19
 70
     1
102
RTVSPropertyOp20
 70
     1
102
RTVSPropertyOp21
 70
     1
102
RTVSPropertyOp22
 70
     1
102
RTVSPropertyOp23
 70
     1
102
RTVSPropertyOp24
 70
     1
102
RTVSPropertyOp25
 70
     1
102
RTVSPropertyOp26
 70
     1
102
RTVSPropertyOp27
 70
     1
102
RTVSPropertyOp28
 70
     1
102
RTVSPropertyOp29
 70
     1
102
RTVSPropertyOp30
 70
     1
102
RTVSPropertyOp31
 70
     1
102
RTVSPropertyOp32
 70
     1
102
RTVSPropertyOp33
 70
     1
102
RTVSPropertyOp34
 70
     1
102
RTVSPropertyOp35
 70
     1
102
RTVSPropertyOp36
 70
     1
102
RTVSPropertyOp37
 70
     1
102
RTVSPropertyOp38
 70
     1
102
RTVSPropertyOp39
 70
     1
102
RTVSPropertyOp40
 70
     1
102
RTVSPropertyOp41
 70
     1
102
RTVSPropertyOp42
 70
     1
102
RTVSPropertyOp43
 70
     1
102
RTVSPropertyOp44
 70
     1
102
RTVSPropertyOp45
 70
     1
102
RTVSPropertyOp46
 70
     1
102
RTVSPropertyOp47
 70
     1
102
RTVSPropertyOp48
 70
     1
102
RTVSPropertyOp49
 70
     1
102
RTVSPropertyOp50
 70
     1
102
RTVSPropertyOp51
 70
     0
102
RTVSPropertyOp52
 70
     0
102
RTVSPropertyOp53
 70
     1
102
RTVSPropertyOp54
 70
     1
102
RTVSPropertyOp55
 70
     1
102
RTVSPropertyOp56
 70
     1
102
RTVSPropertyOp57
 70
     1
102
RTVSPost2010Prop28
280
     0
102
RTVSPost2010PropOp28
 70
     1
102
RTVSPost2010Prop29
280
     1
102
RTVSPost2010PropOp29
 70
     1
102
RTVSPost2010Prop30
280
     1
102
RTVSPost2010PropOp30
 70
     1
102
RTVSPost2010Prop31
280
     0
102
RTVSPost2010PropOp31
 70
     1
102
RTVSPost2010Prop32
280
     0
102
RTVSPost2010PropOp32
 70
     1
102
RTVSPost2010Prop33
280
     0
102
RTVSPost2010PropOp33
 70
     1
102
RTVSPost2010Prop34
280
     0
102
RTVSPost2010PropOp34
 70
     1
102
RTVSPost2010Prop35
280
     0
102
RTVSPost2010PropOp35
 70
     1
102
RTVSPost2010Prop36
280
     0
102
RTVSPost2010PropOp36
 70
     1
102
RTVSPost2010Prop37
 90
       50
102
RTVSPost2010PropOp37
 70
     1
102
RTVSPost2010Prop38
140
0.0
102
RTVSPost2010PropOp38
 70
     1
102
RTVSPost2010Prop39
140
1.0
102
RTVSPost2010PropOp39
 70
     1
102
RTVSPost2010Prop40
 90
        0
102
RTVSPost2010PropOp40
 70
     1
102
RTVSPost2010Prop41ColorIndex
 90
       18
102
RTVSPost2010Prop41ColorRGB
 90
        0
102
RTVSPost2010PropOp41
 70
     1
102
RTVSPost2010Prop42
 90
       50
102
RTVSPost2010PropOp42
 70
     1
102
RTVSPost2010Prop43
 90
        3
102
RTVSPost2010PropOp43
 70
     1
102
RTVSPost2010Prop44ColorIndex
 90
        5
102
RTVSPost2010Prop44ColorRGB
 90
      255
102
RTVSPost2010PropOp44
 70
     1
102
RTVSPost2010Prop45
280
     0
102
RTVSPost2010PropOp45
 70
     1
102
RTVSPost2010Prop46
 90
       50
102
RTVSPost2010PropOp46
 70
     1
102
RTVSPost2010Prop47
 90
       50
102
RTVSPost2010PropOp47
 70
     1
102
RTVSPost2010Prop48
 90
       50
102
RTVSPost2010PropOp48
 70
     1
102
RTVSPost2010Prop49
280
     0
102
RTVSPost2010PropOp49
 70
     1
102
RTVSPost2010Prop50
 90
       50
102
RTVSPost2010PropOp50
 70
     1
102
RTVSPost2010Prop51ColorIndex
 90
      256
102
RTVSPost2010Prop51ColorRGB
 90
-16777216
102
RTVSPost2010PropOp51
 70
     0
102
RTVSPost2010Prop52
140
1.0
102
RTVSPost2010PropOp52
 70
     0
102
RTVSPost2010Prop53
 90
        2
102
RTVSPost2010PropOp53
 70
     1
102
RTVSPost2010Prop54
  1
strokes_ogs.tif
102
RTVSPost2010PropOp54
 70
     1
102
RTVSPost2010Prop55
280
     0
102
RTVSPost2010PropOp55
 70
     1
102
RTVSPost2010Prop56
140
1.0
102
RTVSPost2010PropOp56
 70
     1
102
RTVSPost2010Prop57
140
1.0
102
RTVSPost2010PropOp57
 70
     1
  0
XRECORD
  5
644
102
{ACAD_REACTORS
330
643
102
}
330
643
100
AcDbXrecord
280
     1
102
RTVSPropertyOp0
 70
     1
102
RTVSPropertyOp1
 70
     1
102
RTVSPropertyOp2
 70
     1
102
RTVSPropertyOp3
 70
     1
102
RTVSPropertyOp4
 70
     1
102
RTVSPropertyOp5
 70
     1
102
RTVSPropertyOp6
 70
     1
102
RTVSPropertyOp7
 70
     1
102
RTVSPropertyOp8
 70
     1
102
RTVSPropertyOp9
 70
     1
102
RTVSPropertyOp10
 70
     1
102
RTVSPropertyOp11
 70
     1
102
RTVSPropertyOp12
 70
     1
102
RTVSPropertyOp13
 70
     1
102
RTVSPropertyOp14
 70
     1
102
RTVSPropertyOp15
 70
     1
102
RTVSPropertyOp16
 70
     1
102
RTVSPropertyOp17
 70
     1
102
RTVSPropertyOp18
 70
     1
102
RTVSPropertyOp19
 70
     1
102
RTVSPropertyOp20
 70
     1
102
RTVSPropertyOp21
 70
     1
102
RTVSPropertyOp22
 70
     1
102
RTVSPropertyOp23
 70
     1
102
RTVSPropertyOp24
 70
     1
102
RTVSPropertyOp25
 70
     1
102
RTVSPropertyOp26
 70
     1
102
RTVSPropertyOp27
 70
     1
102
RTVSPropertyOp28
 70
     1
102
RTVSPropertyOp29
 70
     1
102
RTVSPropertyOp30
 70
     1
102
RTVSPropertyOp31
 70
     1
102
RTVSPropertyOp32
 70
     1
102
RTVSPropertyOp33
 70
     1
102
RTVSPropertyOp34
 70
     1
102
RTVSPropertyOp35
 70
     1
102
RTVSPropertyOp36
 70
     1
102
RTVSPropertyOp37
 70
     1
102
RTVSPropertyOp38
 70
     1
102
RTVSPropertyOp39
 70
     1
102
RTVSPropertyOp40
 70
     1
102
RTVSPropertyOp41
 70
     1
102
RTVSPropertyOp42
 70
     1
102
RTVSPropertyOp43
 70
     1
102
RTVSPropertyOp44
 70
     1
102
RTVSPropertyOp45
 70
     1
102
RTVSPropertyOp46
 70
     1
102
RTVSPropertyOp47
 70
     1
102
RTVSPropertyOp48
 70
     1
102
RTVSPropertyOp49
 70
     1
102
RTVSPropertyOp50
 70
     1
102
RTVSPropertyOp51
 70
     0
102
RTVSPropertyOp52
 70
     0
102
RTVSPropertyOp53
 70
     1
102
RTVSPropertyOp54
 70
     1
102
RTVSPropertyOp55
 70
     1
102
RTVSPropertyOp56
 70
     1
102
RTVSPropertyOp57
 70
     1
102
RTVSPost2010Prop28
280
     0
102
RTVSPost2010PropOp28
 70
     1
102
RTVSPost2010Prop29
280
     1
102
RTVSPost2010PropOp29
 70
     1
102
RTVSPost2010Prop30
280
     1
102
RTVSPost2010PropOp30
 70
     1
102
RTVSPost2010Prop31
280
     0
102
RTVSPost2010PropOp31
 70
     1
102
RTVSPost2010Prop32
280
     0
102
RTVSPost2010PropOp32
 70
     1
102
RTVSPost2010Prop33
280
     0
102
RTVSPost2010PropOp33
 70
     1
102
RTVSPost2010Prop34
280
     0
102
RTVSPost2010PropOp34
 70
     1
102
RTVSPost2010Prop35
280
     0
102
RTVSPost2010PropOp35
 70
     1
102
RTVSPost2010Prop36
280
     0
102
RTVSPost2010PropOp36
 70
     1
102
RTVSPost2010Prop37
 90
       50
102
RTVSPost2010PropOp37
 70
     1
102
RTVSPost2010Prop38
140
0.0
102
RTVSPost2010PropOp38
 70
     1
102
RTVSPost2010Prop39
140
1.0
102
RTVSPost2010PropOp39
 70
     1
102
RTVSPost2010Prop40
 90
        0
102
RTVSPost2010PropOp40
 70
     1
102
RTVSPost2010Prop41ColorIndex
 90
       18
102
RTVSPost2010Prop41ColorRGB
 90
        0
102
RTVSPost2010PropOp41
 70
     1
102
RTVSPost2010Prop42
 90
       50
102
RTVSPost2010PropOp42
 70
     1
102
RTVSPost2010Prop43
 90
        3
102
RTVSPost2010PropOp43
 70
     1
102
RTVSPost2010Prop44ColorIndex
 90
        5
102
RTVSPost2010Prop44ColorRGB
 90
      255
102
RTVSPost2010PropOp44
 70
     1
102
RTVSPost2010Prop45
280
     0
102
RTVSPost2010PropOp45
 70
     1
102
RTVSPost2010Prop46
 90
       50
102
RTVSPost2010PropOp46
 70
     1
102
RTVSPost2010Prop47
 90
       50
102
RTVSPost2010PropOp47
 70
     1
102
RTVSPost2010Prop48
 90
       50
102
RTVSPost2010PropOp48
 70
     1
102
RTVSPost2010Prop49
280
     0
102
RTVSPost2010PropOp49
 70
     1
102
RTVSPost2010Prop50
 90
       50
102
RTVSPost2010PropOp50
 70
     1
102
RTVSPost2010Prop51ColorIndex
 90
      256
102
RTVSPost2010Prop51ColorRGB
 90
-16777216
102
RTVSPost2010PropOp51
 70
     0
102
RTVSPost2010Prop52
140
1.0
102
RTVSPost2010PropOp52
 70
     0
102
RTVSPost2010Prop53
 90
        2
102
RTVSPost2010PropOp53
 70
     1
102
RTVSPost2010Prop54
  1
strokes_ogs.tif
102
RTVSPost2010PropOp54
 70
     1
102
RTVSPost2010Prop55
280
     0
102
RTVSPost2010PropOp55
 70
     1
102
RTVSPost2010Prop56
140
1.0
102
RTVSPost2010PropOp56
 70
     1
102
RTVSPost2010Prop57
140
1.0
102
RTVSPost2010PropOp57
 70
     1
  0
XRECORD
  5
64C
102
{ACAD_REACTORS
330
64B
102
}
330
64B
100
AcDbXrecord
280
     1
102
RTVSPropertyOp0
 70
     1
102
RTVSPropertyOp1
 70
     1
102
RTVSPropertyOp2
 70
     1
102
RTVSPropertyOp3
 70
     1
102
RTVSPropertyOp4
 70
     1
102
RTVSPropertyOp5
 70
     1
102
RTVSPropertyOp6
 70
     1
102
RTVSPropertyOp7
 70
     1
102
RTVSPropertyOp8
 70
     1
102
RTVSPropertyOp9
 70
     1
102
RTVSPropertyOp10
 70
     1
102
RTVSPropertyOp11
 70
     1
102
RTVSPropertyOp12
 70
     1
102
RTVSPropertyOp13
 70
     1
102
RTVSPropertyOp14
 70
     1
102
RTVSPropertyOp15
 70
     1
102
RTVSPropertyOp16
 70
     1
102
RTVSPropertyOp17
 70
     1
102
RTVSPropertyOp18
 70
     1
102
RTVSPropertyOp19
 70
     1
102
RTVSPropertyOp20
 70
     1
102
RTVSPropertyOp21
 70
     1
102
RTVSPropertyOp22
 70
     1
102
RTVSPropertyOp23
 70
     1
102
RTVSPropertyOp24
 70
     1
102
RTVSPropertyOp25
 70
     1
102
RTVSPropertyOp26
 70
     1
102
RTVSPropertyOp27
 70
     1
102
RTVSPropertyOp28
 70
     1
102
RTVSPropertyOp29
 70
     1
102
RTVSPropertyOp30
 70
     1
102
RTVSPropertyOp31
 70
     1
102
RTVSPropertyOp32
 70
     1
102
RTVSPropertyOp33
 70
     1
102
RTVSPropertyOp34
 70
     1
102
RTVSPropertyOp35
 70
     1
102
RTVSPropertyOp36
 70
     1
102
RTVSPropertyOp37
 70
     1
102
RTVSPropertyOp38
 70
     1
102
RTVSPropertyOp39
 70
     1
102
RTVSPropertyOp40
 70
     1
102
RTVSPropertyOp41
 70
     1
102
RTVSPropertyOp42
 70
     1
102
RTVSPropertyOp43
 70
     1
102
RTVSPropertyOp44
 70
     1
102
RTVSPropertyOp45
 70
     1
102
RTVSPropertyOp46
 70
     1
102
RTVSPropertyOp47
 70
     1
102
RTVSPropertyOp48
 70
     1
102
RTVSPropertyOp49
 70
     1
102
RTVSPropertyOp50
 70
     1
102
RTVSPropertyOp51
 70
     0
102
RTVSPropertyOp52
 70
     0
102
RTVSPropertyOp53
 70
     1
102
RTVSPropertyOp54
 70
     1
102
RTVSPropertyOp55
 70
     1
102
RTVSPropertyOp56
 70
     1
102
RTVSPropertyOp57
 70
     1
102
RTVSPost2010Prop28
280
     0
102
RTVSPost2010PropOp28
 70
     1
102
RTVSPost2010Prop29
280
     1
102
RTVSPost2010PropOp29
 70
     1
102
RTVSPost2010Prop30
280
     1
102
RTVSPost2010PropOp30
 70
     1
102
RTVSPost2010Prop31
280
     0
102
RTVSPost2010PropOp31
 70
     1
102
RTVSPost2010Prop32
280
     0
102
RTVSPost2010PropOp32
 70
     1
102
RTVSPost2010Prop33
280
     0
102
RTVSPost2010PropOp33
 70
     1
102
RTVSPost2010Prop34
280
     0
102
RTVSPost2010PropOp34
 70
     1
102
RTVSPost2010Prop35
280
     0
102
RTVSPost2010PropOp35
 70
     1
102
RTVSPost2010Prop36
280
     0
102
RTVSPost2010PropOp36
 70
     1
102
RTVSPost2010Prop37
 90
       50
102
RTVSPost2010PropOp37
 70
     1
102
RTVSPost2010Prop38
140
0.0
102
RTVSPost2010PropOp38
 70
     1
102
RTVSPost2010Prop39
140
1.0
102
RTVSPost2010PropOp39
 70
     1
102
RTVSPost2010Prop40
 90
        0
102
RTVSPost2010PropOp40
 70
     1
102
RTVSPost2010Prop41ColorIndex
 90
       18
102
RTVSPost2010Prop41ColorRGB
 90
        0
102
RTVSPost2010PropOp41
 70
     1
102
RTVSPost2010Prop42
 90
       50
102
RTVSPost2010PropOp42
 70
     1
102
RTVSPost2010Prop43
 90
        3
102
RTVSPost2010PropOp43
 70
     1
102
RTVSPost2010Prop44ColorIndex
 90
        5
102
RTVSPost2010Prop44ColorRGB
 90
      255
102
RTVSPost2010PropOp44
 70
     1
102
RTVSPost2010Prop45
280
     0
102
RTVSPost2010PropOp45
 70
     1
102
RTVSPost2010Prop46
 90
       50
102
RTVSPost2010PropOp46
 70
     1
102
RTVSPost2010Prop47
 90
       50
102
RTVSPost2010PropOp47
 70
     1
102
RTVSPost2010Prop48
 90
       50
102
RTVSPost2010PropOp48
 70
     1
102
RTVSPost2010Prop49
280
     0
102
RTVSPost2010PropOp49
 70
     1
102
RTVSPost2010Prop50
 90
       50
102
RTVSPost2010PropOp50
 70
     1
102
RTVSPost2010Prop51ColorIndex
 90
      256
102
RTVSPost2010Prop51ColorRGB
 90
-16777216
102
RTVSPost2010PropOp51
 70
     0
102
RTVSPost2010Prop52
140
1.0
102
RTVSPost2010PropOp52
 70
     0
102
RTVSPost2010Prop53
 90
        2
102
RTVSPost2010PropOp53
 70
     1
102
RTVSPost2010Prop54
  1
strokes_ogs.tif
102
RTVSPost2010PropOp54
 70
     1
102
RTVSPost2010Prop55
280
     0
102
RTVSPost2010PropOp55
 70
     1
102
RTVSPost2010Prop56
140
1.0
102
RTVSPost2010PropOp56
 70
     1
102
RTVSPost2010Prop57
140
1.0
102
RTVSPost2010PropOp57
 70
     1
  0
XRECORD
  5
640
102
{ACAD_REACTORS
330
63F
102
}
330
63F
100
AcDbXrecord
280
     1
102
RTVSPropertyOp0
 70
     1
102
RTVSPropertyOp1
 70
     1
102
RTVSPropertyOp2
 70
     1
102
RTVSPropertyOp3
 70
     1
102
RTVSPropertyOp4
 70
     1
102
RTVSPropertyOp5
 70
     1
102
RTVSPropertyOp6
 70
     1
102
RTVSPropertyOp7
 70
     1
102
RTVSPropertyOp8
 70
     1
102
RTVSPropertyOp9
 70
     1
102
RTVSPropertyOp10
 70
     1
102
RTVSPropertyOp11
 70
     1
102
RTVSPropertyOp12
 70
     1
102
RTVSPropertyOp13
 70
     1
102
RTVSPropertyOp14
 70
     1
102
RTVSPropertyOp15
 70
     1
102
RTVSPropertyOp16
 70
     1
102
RTVSPropertyOp17
 70
     1
102
RTVSPropertyOp18
 70
     1
102
RTVSPropertyOp19
 70
     1
102
RTVSPropertyOp20
 70
     1
102
RTVSPropertyOp21
 70
     1
102
RTVSPropertyOp22
 70
     1
102
RTVSPropertyOp23
 70
     1
102
RTVSPropertyOp24
 70
     1
102
RTVSPropertyOp25
 70
     1
102
RTVSPropertyOp26
 70
     1
102
RTVSPropertyOp27
 70
     1
102
RTVSPropertyOp28
 70
     1
102
RTVSPropertyOp29
 70
     1
102
RTVSPropertyOp30
 70
     1
102
RTVSPropertyOp31
 70
     1
102
RTVSPropertyOp32
 70
     1
102
RTVSPropertyOp33
 70
     1
102
RTVSPropertyOp34
 70
     1
102
RTVSPropertyOp35
 70
     1
102
RTVSPropertyOp36
 70
     1
102
RTVSPropertyOp37
 70
     1
102
RTVSPropertyOp38
 70
     1
102
RTVSPropertyOp39
 70
     1
102
RTVSPropertyOp40
 70
     1
102
RTVSPropertyOp41
 70
     1
102
RTVSPropertyOp42
 70
     1
102
RTVSPropertyOp43
 70
     1
102
RTVSPropertyOp44
 70
     1
102
RTVSPropertyOp45
 70
     1
102
RTVSPropertyOp46
 70
     1
102
RTVSPropertyOp47
 70
     1
102
RTVSPropertyOp48
 70
     1
102
RTVSPropertyOp49
 70
     1
102
RTVSPropertyOp50
 70
     1
102
RTVSPropertyOp51
 70
     0
102
RTVSPropertyOp52
 70
     0
102
RTVSPropertyOp53
 70
     1
102
RTVSPropertyOp54
 70
     1
102
RTVSPropertyOp55
 70
     1
102
RTVSPropertyOp56
 70
     1
102
RTVSPropertyOp57
 70
     1
102
RTVSPost2010Prop28
280
     0
102
RTVSPost2010PropOp28
 70
     1
102
RTVSPost2010Prop29
280
     1
102
RTVSPost2010PropOp29
 70
     1
102
RTVSPost2010Prop30
280
     1
102
RTVSPost2010PropOp30
 70
     1
102
RTVSPost2010Prop31
280
     0
102
RTVSPost2010PropOp31
 70
     1
102
RTVSPost2010Prop32
280
     0
102
RTVSPost2010PropOp32
 70
     1
102
RTVSPost2010Prop33
280
     0
102
RTVSPost2010PropOp33
 70
     1
102
RTVSPost2010Prop34
280
     0
102
RTVSPost2010PropOp34
 70
     1
102
RTVSPost2010Prop35
280
     0
102
RTVSPost2010PropOp35
 70
     1
102
RTVSPost2010Prop36
280
     0
102
RTVSPost2010PropOp36
 70
     1
102
RTVSPost2010Prop37
 90
       50
102
RTVSPost2010PropOp37
 70
     1
102
RTVSPost2010Prop38
140
0.0
102
RTVSPost2010PropOp38
 70
     1
102
RTVSPost2010Prop39
140
1.0
102
RTVSPost2010PropOp39
 70
     1
102
RTVSPost2010Prop40
 90
        0
102
RTVSPost2010PropOp40
 70
     1
102
RTVSPost2010Prop41ColorIndex
 90
       18
102
RTVSPost2010Prop41ColorRGB
 90
        0
102
RTVSPost2010PropOp41
 70
     1
102
RTVSPost2010Prop42
 90
       50
102
RTVSPost2010PropOp42
 70
     1
102
RTVSPost2010Prop43
 90
        3
102
RTVSPost2010PropOp43
 70
     1
102
RTVSPost2010Prop44ColorIndex
 90
        5
102
RTVSPost2010Prop44ColorRGB
 90
      255
102
RTVSPost2010PropOp44
 70
     1
102
RTVSPost2010Prop45
280
     0
102
RTVSPost2010PropOp45
 70
     1
102
RTVSPost2010Prop46
 90
       50
102
RTVSPost2010PropOp46
 70
     1
102
RTVSPost2010Prop47
 90
       50
102
RTVSPost2010PropOp47
 70
     1
102
RTVSPost2010Prop48
 90
       50
102
RTVSPost2010PropOp48
 70
     1
102
RTVSPost2010Prop49
280
     0
102
RTVSPost2010PropOp49
 70
     1
102
RTVSPost2010Prop50
 90
       50
102
RTVSPost2010PropOp50
 70
     1
102
RTVSPost2010Prop51ColorIndex
 90
      256
102
RTVSPost2010Prop51ColorRGB
 90
-16777216
102
RTVSPost2010PropOp51
 70
     0
102
RTVSPost2010Prop52
140
1.0
102
RTVSPost2010PropOp52
 70
     0
102
RTVSPost2010Prop53
 90
        2
102
RTVSPost2010PropOp53
 70
     1
102
RTVSPost2010Prop54
  1
strokes_ogs.tif
102
RTVSPost2010PropOp54
 70
     1
102
RTVSPost2010Prop55
280
     0
102
RTVSPost2010PropOp55
 70
     1
102
RTVSPost2010Prop56
140
1.0
102
RTVSPost2010PropOp56
 70
     1
102
RTVSPost2010Prop57
140
1.0
102
RTVSPost2010PropOp57
 70
     1
  0
XRECORD
  5
642
102
{ACAD_REACTORS
330
641
102
}
330
641
100
AcDbXrecord
280
     1
102
RTVSPropertyOp0
 70
     1
102
RTVSPropertyOp1
 70
     1
102
RTVSPropertyOp2
 70
     1
102
RTVSPropertyOp3
 70
     1
102
RTVSPropertyOp4
 70
     1
102
RTVSPropertyOp5
 70
     1
102
RTVSPropertyOp6
 70
     1
102
RTVSPropertyOp7
 70
     1
102
RTVSPropertyOp8
 70
     1
102
RTVSPropertyOp9
 70
     1
102
RTVSPropertyOp10
 70
     1
102
RTVSPropertyOp11
 70
     1
102
RTVSPropertyOp12
 70
     1
102
RTVSPropertyOp13
 70
     1
102
RTVSPropertyOp14
 70
     1
102
RTVSPropertyOp15
 70
     1
102
RTVSPropertyOp16
 70
     1
102
RTVSPropertyOp17
 70
     1
102
RTVSPropertyOp18
 70
     1
102
RTVSPropertyOp19
 70
     1
102
RTVSPropertyOp20
 70
     1
102
RTVSPropertyOp21
 70
     1
102
RTVSPropertyOp22
 70
     1
102
RTVSPropertyOp23
 70
     1
102
RTVSPropertyOp24
 70
     1
102
RTVSPropertyOp25
 70
     1
102
RTVSPropertyOp26
 70
     1
102
RTVSPropertyOp27
 70
     1
102
RTVSPropertyOp28
 70
     1
102
RTVSPropertyOp29
 70
     1
102
RTVSPropertyOp30
 70
     1
102
RTVSPropertyOp31
 70
     1
102
RTVSPropertyOp32
 70
     1
102
RTVSPropertyOp33
 70
     1
102
RTVSPropertyOp34
 70
     1
102
RTVSPropertyOp35
 70
     1
102
RTVSPropertyOp36
 70
     1
102
RTVSPropertyOp37
 70
     1
102
RTVSPropertyOp38
 70
     1
102
RTVSPropertyOp39
 70
     1
102
RTVSPropertyOp40
 70
     1
102
RTVSPropertyOp41
 70
     1
102
RTVSPropertyOp42
 70
     1
102
RTVSPropertyOp43
 70
     1
102
RTVSPropertyOp44
 70
     1
102
RTVSPropertyOp45
 70
     1
102
RTVSPropertyOp46
 70
     1
102
RTVSPropertyOp47
 70
     1
102
RTVSPropertyOp48
 70
     1
102
RTVSPropertyOp49
 70
     1
102
RTVSPropertyOp50
 70
     1
102
RTVSPropertyOp51
 70
     0
102
RTVSPropertyOp52
 70
     0
102
RTVSPropertyOp53
 70
     1
102
RTVSPropertyOp54
 70
     1
102
RTVSPropertyOp55
 70
     1
102
RTVSPropertyOp56
 70
     1
102
RTVSPropertyOp57
 70
     1
102
RTVSPost2010Prop28
280
     0
102
RTVSPost2010PropOp28
 70
     1
102
RTVSPost2010Prop29
280
     1
102
RTVSPost2010PropOp29
 70
     1
102
RTVSPost2010Prop30
280
     1
102
RTVSPost2010PropOp30
 70
     1
102
RTVSPost2010Prop31
280
     0
102
RTVSPost2010PropOp31
 70
     1
102
RTVSPost2010Prop32
280
     0
102
RTVSPost2010PropOp32
 70
     1
102
RTVSPost2010Prop33
280
     0
102
RTVSPost2010PropOp33
 70
     1
102
RTVSPost2010Prop34
280
     0
102
RTVSPost2010PropOp34
 70
     1
102
RTVSPost2010Prop35
280
     0
102
RTVSPost2010PropOp35
 70
     1
102
RTVSPost2010Prop36
280
     0
102
RTVSPost2010PropOp36
 70
     1
102
RTVSPost2010Prop37
 90
       50
102
RTVSPost2010PropOp37
 70
     1
102
RTVSPost2010Prop38
140
0.0
102
RTVSPost2010PropOp38
 70
     1
102
RTVSPost2010Prop39
140
1.0
102
RTVSPost2010PropOp39
 70
     1
102
RTVSPost2010Prop40
 90
        0
102
RTVSPost2010PropOp40
 70
     1
102
RTVSPost2010Prop41ColorIndex
 90
       18
102
RTVSPost2010Prop41ColorRGB
 90
        0
102
RTVSPost2010PropOp41
 70
     1
102
RTVSPost2010Prop42
 90
       50
102
RTVSPost2010PropOp42
 70
     1
102
RTVSPost2010Prop43
 90
        3
102
RTVSPost2010PropOp43
 70
     1
102
RTVSPost2010Prop44ColorIndex
 90
        5
102
RTVSPost2010Prop44ColorRGB
 90
      255
102
RTVSPost2010PropOp44
 70
     1
102
RTVSPost2010Prop45
280
     0
102
RTVSPost2010PropOp45
 70
     1
102
RTVSPost2010Prop46
 90
       50
102
RTVSPost2010PropOp46
 70
     1
102
RTVSPost2010Prop47
 90
       50
102
RTVSPost2010PropOp47
 70
     1
102
RTVSPost2010Prop48
 90
       50
102
RTVSPost2010PropOp48
 70
     1
102
RTVSPost2010Prop49
280
     0
102
RTVSPost2010PropOp49
 70
     1
102
RTVSPost2010Prop50
 90
       50
102
RTVSPost2010PropOp50
 70
     1
102
RTVSPost2010Prop51ColorIndex
 90
      256
102
RTVSPost2010Prop51ColorRGB
 90
-16777216
102
RTVSPost2010PropOp51
 70
     0
102
RTVSPost2010Prop52
140
1.0
102
RTVSPost2010PropOp52
 70
     0
102
RTVSPost2010Prop53
 90
        2
102
RTVSPost2010PropOp53
 70
     1
102
RTVSPost2010Prop54
  1
strokes_ogs.tif
102
RTVSPost2010PropOp54
 70
     1
102
RTVSPost2010Prop55
280
     0
102
RTVSPost2010PropOp55
 70
     1
102
RTVSPost2010Prop56
140
1.0
102
RTVSPost2010PropOp56
 70
     1
102
RTVSPost2010Prop57
140
1.0
102
RTVSPost2010PropOp57
 70
     1
  0
XRECORD
  5
652
102
{ACAD_REACTORS
330
651
102
}
330
651
100
AcDbXrecord
280
     1
102
RTVSPropertyOp0
 70
     0
102
RTVSPropertyOp1
 70
     0
102
RTVSPropertyOp2
 70
     0
102
RTVSPropertyOp3
 70
     0
102
RTVSPropertyOp4
 70
     0
102
RTVSPropertyOp5
 70
     0
102
RTVSPropertyOp6
 70
     0
102
RTVSPropertyOp7
 70
     0
102
RTVSPropertyOp8
 70
     0
102
RTVSPropertyOp9
 70
     0
102
RTVSPropertyOp10
 70
     0
102
RTVSPropertyOp11
 70
     0
102
RTVSPropertyOp12
 70
     0
102
RTVSPropertyOp13
 70
     0
102
RTVSPropertyOp14
 70
     0
102
RTVSPropertyOp15
 70
     0
102
RTVSPropertyOp16
 70
     0
102
RTVSPropertyOp17
 70
     0
102
RTVSPropertyOp18
 70
     0
102
RTVSPropertyOp19
 70
     0
102
RTVSPropertyOp20
 70
     0
102
RTVSPropertyOp21
 70
     0
102
RTVSPropertyOp22
 70
     0
102
RTVSPropertyOp23
 70
     0
102
RTVSPropertyOp24
 70
     0
102
RTVSPropertyOp25
 70
     0
102
RTVSPropertyOp26
 70
     0
102
RTVSPropertyOp27
 70
     0
102
RTVSPropertyOp28
 70
     1
102
RTVSPropertyOp29
 70
     1
102
RTVSPropertyOp30
 70
     1
102
RTVSPropertyOp31
 70
     1
102
RTVSPropertyOp32
 70
     1
102
RTVSPropertyOp33
 70
     1
102
RTVSPropertyOp34
 70
     1
102
RTVSPropertyOp35
 70
     1
102
RTVSPropertyOp36
 70
     1
102
RTVSPropertyOp37
 70
     1
102
RTVSPropertyOp38
 70
     1
102
RTVSPropertyOp39
 70
     1
102
RTVSPropertyOp40
 70
     1
102
RTVSPropertyOp41
 70
     1
102
RTVSPropertyOp42
 70
     1
102
RTVSPropertyOp43
 70
     1
102
RTVSPropertyOp44
 70
     1
102
RTVSPropertyOp45
 70
     1
102
RTVSPropertyOp46
 70
     1
102
RTVSPropertyOp47
 70
     1
102
RTVSPropertyOp48
 70
     1
102
RTVSPropertyOp49
 70
     1
102
RTVSPropertyOp50
 70
     1
102
RTVSPropertyOp51
 70
     0
102
RTVSPropertyOp52
 70
     0
102
RTVSPropertyOp53
 70
     1
102
RTVSPropertyOp54
 70
     1
102
RTVSPropertyOp55
 70
     1
102
RTVSPropertyOp56
 70
     1
102
RTVSPropertyOp57
 70
     1
102
RTVSPost2010Prop28
280
     0
102
RTVSPost2010PropOp28
 70
     1
102
RTVSPost2010Prop29
280
     1
102
RTVSPost2010PropOp29
 70
     1
102
RTVSPost2010Prop30
280
     1
102
RTVSPost2010PropOp30
 70
     1
102
RTVSPost2010Prop31
280
     0
102
RTVSPost2010PropOp31
 70
     1
102
RTVSPost2010Prop32
280
     0
102
RTVSPost2010PropOp32
 70
     1
102
RTVSPost2010Prop33
280
     0
102
RTVSPost2010PropOp33
 70
     1
102
RTVSPost2010Prop34
280
     0
102
RTVSPost2010PropOp34
 70
     1
102
RTVSPost2010Prop35
280
     0
102
RTVSPost2010PropOp35
 70
     1
102
RTVSPost2010Prop36
280
     0
102
RTVSPost2010PropOp36
 70
     1
102
RTVSPost2010Prop37
 90
       50
102
RTVSPost2010PropOp37
 70
     1
102
RTVSPost2010Prop38
140
0.0
102
RTVSPost2010PropOp38
 70
     1
102
RTVSPost2010Prop39
140
1.0
102
RTVSPost2010PropOp39
 70
     1
102
RTVSPost2010Prop40
 90
        0
102
RTVSPost2010PropOp40
 70
     1
102
RTVSPost2010Prop41ColorIndex
 90
       18
102
RTVSPost2010Prop41ColorRGB
 90
        0
102
RTVSPost2010PropOp41
 70
     1
102
RTVSPost2010Prop42
 90
       50
102
RTVSPost2010PropOp42
 70
     1
102
RTVSPost2010Prop43
 90
        3
102
RTVSPost2010PropOp43
 70
     1
102
RTVSPost2010Prop44ColorIndex
 90
        5
102
RTVSPost2010Prop44ColorRGB
 90
      255
102
RTVSPost2010PropOp44
 70
     1
102
RTVSPost2010Prop45
280
     0
102
RTVSPost2010PropOp45
 70
     1
102
RTVSPost2010Prop46
 90
       50
102
RTVSPost2010PropOp46
 70
     1
102
RTVSPost2010Prop47
 90
       50
102
RTVSPost2010PropOp47
 70
     1
102
RTVSPost2010Prop48
 90
       50
102
RTVSPost2010PropOp48
 70
     1
102
RTVSPost2010Prop49
280
     0
102
RTVSPost2010PropOp49
 70
     1
102
RTVSPost2010Prop50
 90
       50
102
RTVSPost2010PropOp50
 70
     1
102
RTVSPost2010Prop51ColorIndex
 90
      256
102
RTVSPost2010Prop51ColorRGB
 90
-16777216
102
RTVSPost2010PropOp51
 70
     0
102
RTVSPost2010Prop52
140
1.0
102
RTVSPost2010PropOp52
 70
     0
102
RTVSPost2010Prop53
 90
        2
102
RTVSPost2010PropOp53
 70
     1
102
RTVSPost2010Prop54
  1
strokes_ogs.tif
102
RTVSPost2010PropOp54
 70
     1
102
RTVSPost2010Prop55
280
     0
102
RTVSPost2010PropOp55
 70
     1
102
RTVSPost2010Prop56
140
1.0
102
RTVSPost2010PropOp56
 70
     1
102
RTVSPost2010Prop57
140
1.0
102
RTVSPost2010PropOp57
 70
     1
  0
XRECORD
  5
64A
102
{ACAD_REACTORS
330
649
102
}
330
649
100
AcDbXrecord
280
     1
102
RTVSPropertyOp0
 70
     1
102
RTVSPropertyOp1
 70
     1
102
RTVSPropertyOp2
 70
     1
102
RTVSPropertyOp3
 70
     1
102
RTVSPropertyOp4
 70
     1
102
RTVSPropertyOp5
 70
     1
102
RTVSPropertyOp6
 70
     1
102
RTVSPropertyOp7
 70
     1
102
RTVSPropertyOp8
 70
     1
102
RTVSPropertyOp9
 70
     1
102
RTVSPropertyOp10
 70
     1
102
RTVSPropertyOp11
 70
     1
102
RTVSPropertyOp12
 70
     1
102
RTVSPropertyOp13
 70
     1
102
RTVSPropertyOp14
 70
     1
102
RTVSPropertyOp15
 70
     1
102
RTVSPropertyOp16
 70
     1
102
RTVSPropertyOp17
 70
     1
102
RTVSPropertyOp18
 70
     1
102
RTVSPropertyOp19
 70
     1
102
RTVSPropertyOp20
 70
     1
102
RTVSPropertyOp21
 70
     1
102
RTVSPropertyOp22
 70
     1
102
RTVSPropertyOp23
 70
     1
102
RTVSPropertyOp24
 70
     1
102
RTVSPropertyOp25
 70
     1
102
RTVSPropertyOp26
 70
     1
102
RTVSPropertyOp27
 70
     1
102
RTVSPropertyOp28
 70
     1
102
RTVSPropertyOp29
 70
     1
102
RTVSPropertyOp30
 70
     1
102
RTVSPropertyOp31
 70
     1
102
RTVSPropertyOp32
 70
     1
102
RTVSPropertyOp33
 70
     1
102
RTVSPropertyOp34
 70
     1
102
RTVSPropertyOp35
 70
     1
102
RTVSPropertyOp36
 70
     1
102
RTVSPropertyOp37
 70
     1
102
RTVSPropertyOp38
 70
     1
102
RTVSPropertyOp39
 70
     1
102
RTVSPropertyOp40
 70
     1
102
RTVSPropertyOp41
 70
     1
102
RTVSPropertyOp42
 70
     1
102
RTVSPropertyOp43
 70
     1
102
RTVSPropertyOp44
 70
     1
102
RTVSPropertyOp45
 70
     1
102
RTVSPropertyOp46
 70
     1
102
RTVSPropertyOp47
 70
     1
102
RTVSPropertyOp48
 70
     1
102
RTVSPropertyOp49
 70
     1
102
RTVSPropertyOp50
 70
     1
102
RTVSPropertyOp51
 70
     0
102
RTVSPropertyOp52
 70
     0
102
RTVSPropertyOp53
 70
     1
102
RTVSPropertyOp54
 70
     1
102
RTVSPropertyOp55
 70
     1
102
RTVSPropertyOp56
 70
     1
102
RTVSPropertyOp57
 70
     1
102
RTVSPost2010Prop28
280
     0
102
RTVSPost2010PropOp28
 70
     1
102
RTVSPost2010Prop29
280
     1
102
RTVSPost2010PropOp29
 70
     1
102
RTVSPost2010Prop30
280
     1
102
RTVSPost2010PropOp30
 70
     1
102
RTVSPost2010Prop31
280
     0
102
RTVSPost2010PropOp31
 70
     1
102
RTVSPost2010Prop32
280
     0
102
RTVSPost2010PropOp32
 70
     1
102
RTVSPost2010Prop33
280
     0
102
RTVSPost2010PropOp33
 70
     1
102
RTVSPost2010Prop34
280
     0
102
RTVSPost2010PropOp34
 70
     1
102
RTVSPost2010Prop35
280
     0
102
RTVSPost2010PropOp35
 70
     1
102
RTVSPost2010Prop36
280
     0
102
RTVSPost2010PropOp36
 70
     1
102
RTVSPost2010Prop37
 90
       50
102
RTVSPost2010PropOp37
 70
     1
102
RTVSPost2010Prop38
140
0.0
102
RTVSPost2010PropOp38
 70
     1
102
RTVSPost2010Prop39
140
1.0
102
RTVSPost2010PropOp39
 70
     1
102
RTVSPost2010Prop40
 90
        0
102
RTVSPost2010PropOp40
 70
     1
102
RTVSPost2010Prop41ColorIndex
 90
       18
102
RTVSPost2010Prop41ColorRGB
 90
        0
102
RTVSPost2010PropOp41
 70
     1
102
RTVSPost2010Prop42
 90
       50
102
RTVSPost2010PropOp42
 70
     1
102
RTVSPost2010Prop43
 90
        3
102
RTVSPost2010PropOp43
 70
     1
102
RTVSPost2010Prop44ColorIndex
 90
        5
102
RTVSPost2010Prop44ColorRGB
 90
      255
102
RTVSPost2010PropOp44
 70
     1
102
RTVSPost2010Prop45
280
     0
102
RTVSPost2010PropOp45
 70
     1
102
RTVSPost2010Prop46
 90
       50
102
RTVSPost2010PropOp46
 70
     1
102
RTVSPost2010Prop47
 90
       50
102
RTVSPost2010PropOp47
 70
     1
102
RTVSPost2010Prop48
 90
       50
102
RTVSPost2010PropOp48
 70
     1
102
RTVSPost2010Prop49
280
     0
102
RTVSPost2010PropOp49
 70
     1
102
RTVSPost2010Prop50
 90
       50
102
RTVSPost2010PropOp50
 70
     1
102
RTVSPost2010Prop51ColorIndex
 90
      256
102
RTVSPost2010Prop51ColorRGB
 90
-16777216
102
RTVSPost2010PropOp51
 70
     0
102
RTVSPost2010Prop52
140
1.0
102
RTVSPost2010PropOp52
 70
     0
102
RTVSPost2010Prop53
 90
        2
102
RTVSPost2010PropOp53
 70
     1
102
RTVSPost2010Prop54
  1
strokes_ogs.tif
102
RTVSPost2010PropOp54
 70
     1
102
RTVSPost2010Prop55
280
     0
102
RTVSPost2010PropOp55
 70
     1
102
RTVSPost2010Prop56
140
1.0
102
RTVSPost2010PropOp56
 70
     1
102
RTVSPost2010Prop57
140
1.0
102
RTVSPost2010PropOp57
 70
     1
  0
XRECORD
  5
62E
102
{ACAD_REACTORS
330
62D
102
}
330
62D
100
AcDbXrecord
280
     1
102
RTVSPropertyOp0
 70
     1
102
RTVSPropertyOp1
 70
     1
102
RTVSPropertyOp2
 70
     1
102
RTVSPropertyOp3
 70
     1
102
RTVSPropertyOp4
 70
     1
102
RTVSPropertyOp5
 70
     1
102
RTVSPropertyOp6
 70
     1
102
RTVSPropertyOp7
 70
     1
102
RTVSPropertyOp8
 70
     1
102
RTVSPropertyOp9
 70
     1
102
RTVSPropertyOp10
 70
     1
102
RTVSPropertyOp11
 70
     1
102
RTVSPropertyOp12
 70
     1
102
RTVSPropertyOp13
 70
     1
102
RTVSPropertyOp14
 70
     1
102
RTVSPropertyOp15
 70
     1
102
RTVSPropertyOp16
 70
     1
102
RTVSPropertyOp17
 70
     1
102
RTVSPropertyOp18
 70
     1
102
RTVSPropertyOp19
 70
     1
102
RTVSPropertyOp20
 70
     1
102
RTVSPropertyOp21
 70
     1
102
RTVSPropertyOp22
 70
     1
102
RTVSPropertyOp23
 70
     1
102
RTVSPropertyOp24
 70
     1
102
RTVSPropertyOp25
 70
     1
102
RTVSPropertyOp26
 70
     1
102
RTVSPropertyOp27
 70
     1
102
RTVSPropertyOp28
 70
     1
102
RTVSPropertyOp29
 70
     1
102
RTVSPropertyOp30
 70
     1
102
RTVSPropertyOp31
 70
     1
102
RTVSPropertyOp32
 70
     1
102
RTVSPropertyOp33
 70
     1
102
RTVSPropertyOp34
 70
     1
102
RTVSPropertyOp35
 70
     1
102
RTVSPropertyOp36
 70
     1
102
RTVSPropertyOp37
 70
     1
102
RTVSPropertyOp38
 70
     1
102
RTVSPropertyOp39
 70
     1
102
RTVSPropertyOp40
 70
     1
102
RTVSPropertyOp41
 70
     1
102
RTVSPropertyOp42
 70
     1
102
RTVSPropertyOp43
 70
     1
102
RTVSPropertyOp44
 70
     1
102
RTVSPropertyOp45
 70
     1
102
RTVSPropertyOp46
 70
     1
102
RTVSPropertyOp47
 70
     1
102
RTVSPropertyOp48
 70
     1
102
RTVSPropertyOp49
 70
     1
102
RTVSPropertyOp50
 70
     1
102
RTVSPropertyOp51
 70
     0
102
RTVSPropertyOp52
 70
     0
102
RTVSPropertyOp53
 70
     1
102
RTVSPropertyOp54
 70
     1
102
RTVSPropertyOp55
 70
     1
102
RTVSPropertyOp56
 70
     1
102
RTVSPropertyOp57
 70
     1
102
RTVSPost2010Prop28
280
     0
102
RTVSPost2010PropOp28
 70
     1
102
RTVSPost2010Prop29
280
     1
102
RTVSPost2010PropOp29
 70
     1
102
RTVSPost2010Prop30
280
     1
102
RTVSPost2010PropOp30
 70
     1
102
RTVSPost2010Prop31
280
     0
102
RTVSPost2010PropOp31
 70
     1
102
RTVSPost2010Prop32
280
     0
102
RTVSPost2010PropOp32
 70
     1
102
RTVSPost2010Prop33
280
     0
102
RTVSPost2010PropOp33
 70
     1
102
RTVSPost2010Prop34
280
     0
102
RTVSPost2010PropOp34
 70
     1
102
RTVSPost2010Prop35
280
     0
102
RTVSPost2010PropOp35
 70
     1
102
RTVSPost2010Prop36
280
     0
102
RTVSPost2010PropOp36
 70
     1
102
RTVSPost2010Prop37
 90
       50
102
RTVSPost2010PropOp37
 70
     1
102
RTVSPost2010Prop38
140
0.0
102
RTVSPost2010PropOp38
 70
     1
102
RTVSPost2010Prop39
140
1.0
102
RTVSPost2010PropOp39
 70
     1
102
RTVSPost2010Prop40
 90
        0
102
RTVSPost2010PropOp40
 70
     1
102
RTVSPost2010Prop41ColorIndex
 90
       18
102
RTVSPost2010Prop41ColorRGB
 90
        0
102
RTVSPost2010PropOp41
 70
     1
102
RTVSPost2010Prop42
 90
       50
102
RTVSPost2010PropOp42
 70
     1
102
RTVSPost2010Prop43
 90
        3
102
RTVSPost2010PropOp43
 70
     1
102
RTVSPost2010Prop44ColorIndex
 90
        5
102
RTVSPost2010Prop44ColorRGB
 90
      255
102
RTVSPost2010PropOp44
 70
     1
102
RTVSPost2010Prop45
280
     0
102
RTVSPost2010PropOp45
 70
     1
102
RTVSPost2010Prop46
 90
       50
102
RTVSPost2010PropOp46
 70
     1
102
RTVSPost2010Prop47
 90
       50
102
RTVSPost2010PropOp47
 70
     1
102
RTVSPost2010Prop48
 90
       50
102
RTVSPost2010PropOp48
 70
     1
102
RTVSPost2010Prop49
280
     0
102
RTVSPost2010PropOp49
 70
     1
102
RTVSPost2010Prop50
 90
       50
102
RTVSPost2010PropOp50
 70
     1
102
RTVSPost2010Prop51ColorIndex
 90
      256
102
RTVSPost2010Prop51ColorRGB
 90
-16777216
102
RTVSPost2010PropOp51
 70
     0
102
RTVSPost2010Prop52
140
1.0
102
RTVSPost2010PropOp52
 70
     0
102
RTVSPost2010Prop53
 90
        2
102
RTVSPost2010PropOp53
 70
     1
102
RTVSPost2010Prop54
  1
strokes_ogs.tif
102
RTVSPost2010PropOp54
 70
     1
102
RTVSPost2010Prop55
280
     0
102
RTVSPost2010PropOp55
 70
     1
102
RTVSPost2010Prop56
140
1.0
102
RTVSPost2010PropOp56
 70
     1
102
RTVSPost2010Prop57
140
1.0
102
RTVSPost2010PropOp57
 70
     1
  0
XRECORD
  5
630
102
{ACAD_REACTORS
330
62F
102
}
330
62F
100
AcDbXrecord
280
     1
102
RTVSPropertyOp0
 70
     1
102
RTVSPropertyOp1
 70
     1
102
RTVSPropertyOp2
 70
     1
102
RTVSPropertyOp3
 70
     1
102
RTVSPropertyOp4
 70
     1
102
RTVSPropertyOp5
 70
     1
102
RTVSPropertyOp6
 70
     1
102
RTVSPropertyOp7
 70
     1
102
RTVSPropertyOp8
 70
     1
102
RTVSPropertyOp9
 70
     1
102
RTVSPropertyOp10
 70
     1
102
RTVSPropertyOp11
 70
     1
102
RTVSPropertyOp12
 70
     1
102
RTVSPropertyOp13
 70
     1
102
RTVSPropertyOp14
 70
     1
102
RTVSPropertyOp15
 70
     1
102
RTVSPropertyOp16
 70
     1
102
RTVSPropertyOp17
 70
     1
102
RTVSPropertyOp18
 70
     1
102
RTVSPropertyOp19
 70
     1
102
RTVSPropertyOp20
 70
     1
102
RTVSPropertyOp21
 70
     1
102
RTVSPropertyOp22
 70
     1
102
RTVSPropertyOp23
 70
     1
102
RTVSPropertyOp24
 70
     1
102
RTVSPropertyOp25
 70
     1
102
RTVSPropertyOp26
 70
     1
102
RTVSPropertyOp27
 70
     1
102
RTVSPropertyOp28
 70
     1
102
RTVSPropertyOp29
 70
     1
102
RTVSPropertyOp30
 70
     1
102
RTVSPropertyOp31
 70
     1
102
RTVSPropertyOp32
 70
     1
102
RTVSPropertyOp33
 70
     1
102
RTVSPropertyOp34
 70
     1
102
RTVSPropertyOp35
 70
     1
102
RTVSPropertyOp36
 70
     1
102
RTVSPropertyOp37
 70
     1
102
RTVSPropertyOp38
 70
     1
102
RTVSPropertyOp39
 70
     1
102
RTVSPropertyOp40
 70
     1
102
RTVSPropertyOp41
 70
     1
102
RTVSPropertyOp42
 70
     1
102
RTVSPropertyOp43
 70
     1
102
RTVSPropertyOp44
 70
     1
102
RTVSPropertyOp45
 70
     1
102
RTVSPropertyOp46
 70
     1
102
RTVSPropertyOp47
 70
     1
102
RTVSPropertyOp48
 70
     1
102
RTVSPropertyOp49
 70
     1
102
RTVSPropertyOp50
 70
     1
102
RTVSPropertyOp51
 70
     0
102
RTVSPropertyOp52
 70
     0
102
RTVSPropertyOp53
 70
     1
102
RTVSPropertyOp54
 70
     1
102
RTVSPropertyOp55
 70
     1
102
RTVSPropertyOp56
 70
     1
102
RTVSPropertyOp57
 70
     1
102
RTVSPost2010Prop28
280
     0
102
RTVSPost2010PropOp28
 70
     1
102
RTVSPost2010Prop29
280
     1
102
RTVSPost2010PropOp29
 70
     1
102
RTVSPost2010Prop30
280
     1
102
RTVSPost2010PropOp30
 70
     1
102
RTVSPost2010Prop31
280
     0
102
RTVSPost2010PropOp31
 70
     1
102
RTVSPost2010Prop32
280
     0
102
RTVSPost2010PropOp32
 70
     1
102
RTVSPost2010Prop33
280
     0
102
RTVSPost2010PropOp33
 70
     1
102
RTVSPost2010Prop34
280
     0
102
RTVSPost2010PropOp34
 70
     1
102
RTVSPost2010Prop35
280
     0
102
RTVSPost2010PropOp35
 70
     1
102
RTVSPost2010Prop36
280
     0
102
RTVSPost2010PropOp36
 70
     1
102
RTVSPost2010Prop37
 90
       50
102
RTVSPost2010PropOp37
 70
     1
102
RTVSPost2010Prop38
140
0.0
102
RTVSPost2010PropOp38
 70
     1
102
RTVSPost2010Prop39
140
1.0
102
RTVSPost2010PropOp39
 70
     1
102
RTVSPost2010Prop40
 90
        0
102
RTVSPost2010PropOp40
 70
     1
102
RTVSPost2010Prop41ColorIndex
 90
       18
102
RTVSPost2010Prop41ColorRGB
 90
        0
102
RTVSPost2010PropOp41
 70
     1
102
RTVSPost2010Prop42
 90
       50
102
RTVSPost2010PropOp42
 70
     1
102
RTVSPost2010Prop43
 90
        3
102
RTVSPost2010PropOp43
 70
     1
102
RTVSPost2010Prop44ColorIndex
 90
        5
102
RTVSPost2010Prop44ColorRGB
 90
      255
102
RTVSPost2010PropOp44
 70
     1
102
RTVSPost2010Prop45
280
     0
102
RTVSPost2010PropOp45
 70
     1
102
RTVSPost2010Prop46
 90
       50
102
RTVSPost2010PropOp46
 70
     1
102
RTVSPost2010Prop47
 90
       50
102
RTVSPost2010PropOp47
 70
     1
102
RTVSPost2010Prop48
 90
       50
102
RTVSPost2010PropOp48
 70
     1
102
RTVSPost2010Prop49
280
     0
102
RTVSPost2010PropOp49
 70
     1
102
RTVSPost2010Prop50
 90
       50
102
RTVSPost2010PropOp50
 70
     1
102
RTVSPost2010Prop51ColorIndex
 90
      256
102
RTVSPost2010Prop51ColorRGB
 90
-16777216
102
RTVSPost2010PropOp51
 70
     0
102
RTVSPost2010Prop52
140
1.0
102
RTVSPost2010PropOp52
 70
     0
102
RTVSPost2010Prop53
 90
        2
102
RTVSPost2010PropOp53
 70
     1
102
RTVSPost2010Prop54
  1
strokes_ogs.tif
102
RTVSPost2010PropOp54
 70
     1
102
RTVSPost2010Prop55
280
     0
102
RTVSPost2010PropOp55
 70
     1
102
RTVSPost2010Prop56
140
1.0
102
RTVSPost2010PropOp56
 70
     1
102
RTVSPost2010Prop57
140
1.0
102
RTVSPost2010PropOp57
 70
     1
  0
XRECORD
  5
632
102
{ACAD_REACTORS
330
631
102
}
330
631
100
AcDbXrecord
280
     1
102
RTVSPropertyOp0
 70
     1
102
RTVSPropertyOp1
 70
     1
102
RTVSPropertyOp2
 70
     1
102
RTVSPropertyOp3
 70
     1
102
RTVSPropertyOp4
 70
     1
102
RTVSPropertyOp5
 70
     1
102
RTVSPropertyOp6
 70
     1
102
RTVSPropertyOp7
 70
     1
102
RTVSPropertyOp8
 70
     1
102
RTVSPropertyOp9
 70
     1
102
RTVSPropertyOp10
 70
     1
102
RTVSPropertyOp11
 70
     1
102
RTVSPropertyOp12
 70
     1
102
RTVSPropertyOp13
 70
     1
102
RTVSPropertyOp14
 70
     1
102
RTVSPropertyOp15
 70
     1
102
RTVSPropertyOp16
 70
     1
102
RTVSPropertyOp17
 70
     1
102
RTVSPropertyOp18
 70
     1
102
RTVSPropertyOp19
 70
     1
102
RTVSPropertyOp20
 70
     1
102
RTVSPropertyOp21
 70
     1
102
RTVSPropertyOp22
 70
     1
102
RTVSPropertyOp23
 70
     1
102
RTVSPropertyOp24
 70
     1
102
RTVSPropertyOp25
 70
     1
102
RTVSPropertyOp26
 70
     1
102
RTVSPropertyOp27
 70
     1
102
RTVSPropertyOp28
 70
     1
102
RTVSPropertyOp29
 70
     1
102
RTVSPropertyOp30
 70
     1
102
RTVSPropertyOp31
 70
     1
102
RTVSPropertyOp32
 70
     1
102
RTVSPropertyOp33
 70
     1
102
RTVSPropertyOp34
 70
     1
102
RTVSPropertyOp35
 70
     1
102
RTVSPropertyOp36
 70
     1
102
RTVSPropertyOp37
 70
     1
102
RTVSPropertyOp38
 70
     1
102
RTVSPropertyOp39
 70
     1
102
RTVSPropertyOp40
 70
     1
102
RTVSPropertyOp41
 70
     1
102
RTVSPropertyOp42
 70
     1
102
RTVSPropertyOp43
 70
     1
102
RTVSPropertyOp44
 70
     1
102
RTVSPropertyOp45
 70
     1
102
RTVSPropertyOp46
 70
     1
102
RTVSPropertyOp47
 70
     1
102
RTVSPropertyOp48
 70
     1
102
RTVSPropertyOp49
 70
     1
102
RTVSPropertyOp50
 70
     1
102
RTVSPropertyOp51
 70
     0
102
RTVSPropertyOp52
 70
     0
102
RTVSPropertyOp53
 70
     1
102
RTVSPropertyOp54
 70
     1
102
RTVSPropertyOp55
 70
     1
102
RTVSPropertyOp56
 70
     1
102
RTVSPropertyOp57
 70
     1
102
RTVSPost2010Prop28
280
     0
102
RTVSPost2010PropOp28
 70
     1
102
RTVSPost2010Prop29
280
     1
102
RTVSPost2010PropOp29
 70
     1
102
RTVSPost2010Prop30
280
     1
102
RTVSPost2010PropOp30
 70
     1
102
RTVSPost2010Prop31
280
     0
102
RTVSPost2010PropOp31
 70
     1
102
RTVSPost2010Prop32
280
     0
102
RTVSPost2010PropOp32
 70
     1
102
RTVSPost2010Prop33
280
     0
102
RTVSPost2010PropOp33
 70
     1
102
RTVSPost2010Prop34
280
     0
102
RTVSPost2010PropOp34
 70
     1
102
RTVSPost2010Prop35
280
     0
102
RTVSPost2010PropOp35
 70
     1
102
RTVSPost2010Prop36
280
     0
102
RTVSPost2010PropOp36
 70
     1
102
RTVSPost2010Prop37
 90
       50
102
RTVSPost2010PropOp37
 70
     1
102
RTVSPost2010Prop38
140
0.0
102
RTVSPost2010PropOp38
 70
     1
102
RTVSPost2010Prop39
140
1.0
102
RTVSPost2010PropOp39
 70
     1
102
RTVSPost2010Prop40
 90
        0
102
RTVSPost2010PropOp40
 70
     1
102
RTVSPost2010Prop41ColorIndex
 90
       18
102
RTVSPost2010Prop41ColorRGB
 90
        0
102
RTVSPost2010PropOp41
 70
     1
102
RTVSPost2010Prop42
 90
       50
102
RTVSPost2010PropOp42
 70
     1
102
RTVSPost2010Prop43
 90
        3
102
RTVSPost2010PropOp43
 70
     1
102
RTVSPost2010Prop44ColorIndex
 90
        5
102
RTVSPost2010Prop44ColorRGB
 90
      255
102
RTVSPost2010PropOp44
 70
     1
102
RTVSPost2010Prop45
280
     0
102
RTVSPost2010PropOp45
 70
     1
102
RTVSPost2010Prop46
 90
       50
102
RTVSPost2010PropOp46
 70
     1
102
RTVSPost2010Prop47
 90
       50
102
RTVSPost2010PropOp47
 70
     1
102
RTVSPost2010Prop48
 90
       50
102
RTVSPost2010PropOp48
 70
     1
102
RTVSPost2010Prop49
280
     0
102
RTVSPost2010PropOp49
 70
     1
102
RTVSPost2010Prop50
 90
       50
102
RTVSPost2010PropOp50
 70
     1
102
RTVSPost2010Prop51ColorIndex
 90
      256
102
RTVSPost2010Prop51ColorRGB
 90
-16777216
102
RTVSPost2010PropOp51
 70
     0
102
RTVSPost2010Prop52
140
1.0
102
RTVSPost2010PropOp52
 70
     0
102
RTVSPost2010Prop53
 90
        2
102
RTVSPost2010PropOp53
 70
     1
102
RTVSPost2010Prop54
  1
strokes_ogs.tif
102
RTVSPost2010PropOp54
 70
     1
102
RTVSPost2010Prop55
280
     0
102
RTVSPost2010PropOp55
 70
     1
102
RTVSPost2010Prop56
140
1.0
102
RTVSPost2010PropOp56
 70
     1
102
RTVSPost2010Prop57
140
1.0
102
RTVSPost2010PropOp57
 70
     1
  0
XRECORD
  5
634
102
{ACAD_REACTORS
330
633
102
}
330
633
100
AcDbXrecord
280
     1
102
RTVSPropertyOp0
 70
     1
102
RTVSPropertyOp1
 70
     1
102
RTVSPropertyOp2
 70
     1
102
RTVSPropertyOp3
 70
     1
102
RTVSPropertyOp4
 70
     1
102
RTVSPropertyOp5
 70
     1
102
RTVSPropertyOp6
 70
     1
102
RTVSPropertyOp7
 70
     1
102
RTVSPropertyOp8
 70
     1
102
RTVSPropertyOp9
 70
     1
102
RTVSPropertyOp10
 70
     1
102
RTVSPropertyOp11
 70
     1
102
RTVSPropertyOp12
 70
     1
102
RTVSPropertyOp13
 70
     1
102
RTVSPropertyOp14
 70
     1
102
RTVSPropertyOp15
 70
     1
102
RTVSPropertyOp16
 70
     1
102
RTVSPropertyOp17
 70
     1
102
RTVSPropertyOp18
 70
     1
102
RTVSPropertyOp19
 70
     1
102
RTVSPropertyOp20
 70
     1
102
RTVSPropertyOp21
 70
     1
102
RTVSPropertyOp22
 70
     1
102
RTVSPropertyOp23
 70
     1
102
RTVSPropertyOp24
 70
     1
102
RTVSPropertyOp25
 70
     1
102
RTVSPropertyOp26
 70
     1
102
RTVSPropertyOp27
 70
     1
102
RTVSPropertyOp28
 70
     1
102
RTVSPropertyOp29
 70
     1
102
RTVSPropertyOp30
 70
     1
102
RTVSPropertyOp31
 70
     1
102
RTVSPropertyOp32
 70
     1
102
RTVSPropertyOp33
 70
     1
102
RTVSPropertyOp34
 70
     1
102
RTVSPropertyOp35
 70
     1
102
RTVSPropertyOp36
 70
     1
102
RTVSPropertyOp37
 70
     1
102
RTVSPropertyOp38
 70
     1
102
RTVSPropertyOp39
 70
     1
102
RTVSPropertyOp40
 70
     1
102
RTVSPropertyOp41
 70
     1
102
RTVSPropertyOp42
 70
     1
102
RTVSPropertyOp43
 70
     1
102
RTVSPropertyOp44
 70
     1
102
RTVSPropertyOp45
 70
     1
102
RTVSPropertyOp46
 70
     1
102
RTVSPropertyOp47
 70
     1
102
RTVSPropertyOp48
 70
     1
102
RTVSPropertyOp49
 70
     1
102
RTVSPropertyOp50
 70
     1
102
RTVSPropertyOp51
 70
     0
102
RTVSPropertyOp52
 70
     0
102
RTVSPropertyOp53
 70
     1
102
RTVSPropertyOp54
 70
     1
102
RTVSPropertyOp55
 70
     1
102
RTVSPropertyOp56
 70
     1
102
RTVSPropertyOp57
 70
     1
102
RTVSPost2010Prop28
280
     0
102
RTVSPost2010PropOp28
 70
     1
102
RTVSPost2010Prop29
280
     1
102
RTVSPost2010PropOp29
 70
     1
102
RTVSPost2010Prop30
280
     1
102
RTVSPost2010PropOp30
 70
     1
102
RTVSPost2010Prop31
280
     0
102
RTVSPost2010PropOp31
 70
     1
102
RTVSPost2010Prop32
280
     0
102
RTVSPost2010PropOp32
 70
     1
102
RTVSPost2010Prop33
280
     0
102
RTVSPost2010PropOp33
 70
     1
102
RTVSPost2010Prop34
280
     0
102
RTVSPost2010PropOp34
 70
     1
102
RTVSPost2010Prop35
280
     0
102
RTVSPost2010PropOp35
 70
     1
102
RTVSPost2010Prop36
280
     0
102
RTVSPost2010PropOp36
 70
     1
102
RTVSPost2010Prop37
 90
       50
102
RTVSPost2010PropOp37
 70
     1
102
RTVSPost2010Prop38
140
0.0
102
RTVSPost2010PropOp38
 70
     1
102
RTVSPost2010Prop39
140
1.0
102
RTVSPost2010PropOp39
 70
     1
102
RTVSPost2010Prop40
 90
        0
102
RTVSPost2010PropOp40
 70
     1
102
RTVSPost2010Prop41ColorIndex
 90
       18
102
RTVSPost2010Prop41ColorRGB
 90
        0
102
RTVSPost2010PropOp41
 70
     1
102
RTVSPost2010Prop42
 90
       50
102
RTVSPost2010PropOp42
 70
     1
102
RTVSPost2010Prop43
 90
        3
102
RTVSPost2010PropOp43
 70
     1
102
RTVSPost2010Prop44ColorIndex
 90
        5
102
RTVSPost2010Prop44ColorRGB
 90
      255
102
RTVSPost2010PropOp44
 70
     1
102
RTVSPost2010Prop45
280
     0
102
RTVSPost2010PropOp45
 70
     1
102
RTVSPost2010Prop46
 90
       50
102
RTVSPost2010PropOp46
 70
     1
102
RTVSPost2010Prop47
 90
       50
102
RTVSPost2010PropOp47
 70
     1
102
RTVSPost2010Prop48
 90
       50
102
RTVSPost2010PropOp48
 70
     1
102
RTVSPost2010Prop49
280
     0
102
RTVSPost2010PropOp49
 70
     1
102
RTVSPost2010Prop50
 90
       50
102
RTVSPost2010PropOp50
 70
     1
102
RTVSPost2010Prop51ColorIndex
 90
      256
102
RTVSPost2010Prop51ColorRGB
 90
-16777216
102
RTVSPost2010PropOp51
 70
     0
102
RTVSPost2010Prop52
140
1.0
102
RTVSPost2010PropOp52
 70
     0
102
RTVSPost2010Prop53
 90
        2
102
RTVSPost2010PropOp53
 70
     1
102
RTVSPost2010Prop54
  1
strokes_ogs.tif
102
RTVSPost2010PropOp54
 70
     1
102
RTVSPost2010Prop55
280
     0
102
RTVSPost2010PropOp55
 70
     1
102
RTVSPost2010Prop56
140
1.0
102
RTVSPost2010PropOp56
 70
     1
102
RTVSPost2010Prop57
140
1.0
102
RTVSPost2010PropOp57
 70
     1
  0
XRECORD
  5
63A
102
{ACAD_REACTORS
330
639
102
}
330
639
100
AcDbXrecord
280
     1
102
RTVSPropertyOp0
 70
     1
102
RTVSPropertyOp1
 70
     1
102
RTVSPropertyOp2
 70
     1
102
RTVSPropertyOp3
 70
     1
102
RTVSPropertyOp4
 70
     1
102
RTVSPropertyOp5
 70
     1
102
RTVSPropertyOp6
 70
     1
102
RTVSPropertyOp7
 70
     1
102
RTVSPropertyOp8
 70
     1
102
RTVSPropertyOp9
 70
     1
102
RTVSPropertyOp10
 70
     1
102
RTVSPropertyOp11
 70
     1
102
RTVSPropertyOp12
 70
     1
102
RTVSPropertyOp13
 70
     1
102
RTVSPropertyOp14
 70
     1
102
RTVSPropertyOp15
 70
     1
102
RTVSPropertyOp16
 70
     1
102
RTVSPropertyOp17
 70
     1
102
RTVSPropertyOp18
 70
     1
102
RTVSPropertyOp19
 70
     1
102
RTVSPropertyOp20
 70
     1
102
RTVSPropertyOp21
 70
     1
102
RTVSPropertyOp22
 70
     1
102
RTVSPropertyOp23
 70
     1
102
RTVSPropertyOp24
 70
     1
102
RTVSPropertyOp25
 70
     1
102
RTVSPropertyOp26
 70
     1
102
RTVSPropertyOp27
 70
     1
102
RTVSPropertyOp28
 70
     1
102
RTVSPropertyOp29
 70
     1
102
RTVSPropertyOp30
 70
     1
102
RTVSPropertyOp31
 70
     1
102
RTVSPropertyOp32
 70
     1
102
RTVSPropertyOp33
 70
     1
102
RTVSPropertyOp34
 70
     1
102
RTVSPropertyOp35
 70
     1
102
RTVSPropertyOp36
 70
     1
102
RTVSPropertyOp37
 70
     1
102
RTVSPropertyOp38
 70
     1
102
RTVSPropertyOp39
 70
     1
102
RTVSPropertyOp40
 70
     1
102
RTVSPropertyOp41
 70
     1
102
RTVSPropertyOp42
 70
     1
102
RTVSPropertyOp43
 70
     1
102
RTVSPropertyOp44
 70
     1
102
RTVSPropertyOp45
 70
     1
102
RTVSPropertyOp46
 70
     1
102
RTVSPropertyOp47
 70
     1
102
RTVSPropertyOp48
 70
     1
102
RTVSPropertyOp49
 70
     1
102
RTVSPropertyOp50
 70
     1
102
RTVSPropertyOp51
 70
     0
102
RTVSPropertyOp52
 70
     0
102
RTVSPropertyOp53
 70
     1
102
RTVSPropertyOp54
 70
     1
102
RTVSPropertyOp55
 70
     1
102
RTVSPropertyOp56
 70
     1
102
RTVSPropertyOp57
 70
     1
102
RTVSPost2010Prop28
280
     0
102
RTVSPost2010PropOp28
 70
     1
102
RTVSPost2010Prop29
280
     1
102
RTVSPost2010PropOp29
 70
     1
102
RTVSPost2010Prop30
280
     1
102
RTVSPost2010PropOp30
 70
     1
102
RTVSPost2010Prop31
280
     0
102
RTVSPost2010PropOp31
 70
     1
102
RTVSPost2010Prop32
280
     0
102
RTVSPost2010PropOp32
 70
     1
102
RTVSPost2010Prop33
280
     0
102
RTVSPost2010PropOp33
 70
     1
102
RTVSPost2010Prop34
280
     0
102
RTVSPost2010PropOp34
 70
     1
102
RTVSPost2010Prop35
280
     0
102
RTVSPost2010PropOp35
 70
     1
102
RTVSPost2010Prop36
280
     0
102
RTVSPost2010PropOp36
 70
     1
102
RTVSPost2010Prop37
 90
       50
102
RTVSPost2010PropOp37
 70
     1
102
RTVSPost2010Prop38
140
0.0
102
RTVSPost2010PropOp38
 70
     1
102
RTVSPost2010Prop39
140
1.0
102
RTVSPost2010PropOp39
 70
     1
102
RTVSPost2010Prop40
 90
        0
102
RTVSPost2010PropOp40
 70
     1
102
RTVSPost2010Prop41ColorIndex
 90
       18
102
RTVSPost2010Prop41ColorRGB
 90
        0
102
RTVSPost2010PropOp41
 70
     1
102
RTVSPost2010Prop42
 90
       50
102
RTVSPost2010PropOp42
 70
     1
102
RTVSPost2010Prop43
 90
        3
102
RTVSPost2010PropOp43
 70
     1
102
RTVSPost2010Prop44ColorIndex
 90
        5
102
RTVSPost2010Prop44ColorRGB
 90
      255
102
RTVSPost2010PropOp44
 70
     1
102
RTVSPost2010Prop45
280
     0
102
RTVSPost2010PropOp45
 70
     1
102
RTVSPost2010Prop46
 90
       50
102
RTVSPost2010PropOp46
 70
     1
102
RTVSPost2010Prop47
 90
       50
102
RTVSPost2010PropOp47
 70
     1
102
RTVSPost2010Prop48
 90
       50
102
RTVSPost2010PropOp48
 70
     1
102
RTVSPost2010Prop49
280
     0
102
RTVSPost2010PropOp49
 70
     1
102
RTVSPost2010Prop50
 90
       50
102
RTVSPost2010PropOp50
 70
     1
102
RTVSPost2010Prop51ColorIndex
 90
      256
102
RTVSPost2010Prop51ColorRGB
 90
-16777216
102
RTVSPost2010PropOp51
 70
     0
102
RTVSPost2010Prop52
140
1.0
102
RTVSPost2010PropOp52
 70
     0
102
RTVSPost2010Prop53
 90
        2
102
RTVSPost2010PropOp53
 70
     1
102
RTVSPost2010Prop54
  1
strokes_ogs.tif
102
RTVSPost2010PropOp54
 70
     1
102
RTVSPost2010Prop55
280
     0
102
RTVSPost2010PropOp55
 70
     1
102
RTVSPost2010Prop56
140
1.0
102
RTVSPost2010PropOp56
 70
     1
102
RTVSPost2010Prop57
140
1.0
102
RTVSPost2010PropOp57
 70
     1
  0
XRECORD
  5
64E
102
{ACAD_REACTORS
330
64D
102
}
330
64D
100
AcDbXrecord
280
     1
102
RTVSPropertyOp0
 70
     0
102
RTVSPropertyOp1
 70
     0
102
RTVSPropertyOp2
 70
     0
102
RTVSPropertyOp3
 70
     0
102
RTVSPropertyOp4
 70
     0
102
RTVSPropertyOp5
 70
     0
102
RTVSPropertyOp6
 70
     0
102
RTVSPropertyOp7
 70
     0
102
RTVSPropertyOp8
 70
     0
102
RTVSPropertyOp9
 70
     0
102
RTVSPropertyOp10
 70
     0
102
RTVSPropertyOp11
 70
     0
102
RTVSPropertyOp12
 70
     0
102
RTVSPropertyOp13
 70
     0
102
RTVSPropertyOp14
 70
     0
102
RTVSPropertyOp15
 70
     0
102
RTVSPropertyOp16
 70
     0
102
RTVSPropertyOp17
 70
     0
102
RTVSPropertyOp18
 70
     0
102
RTVSPropertyOp19
 70
     0
102
RTVSPropertyOp20
 70
     0
102
RTVSPropertyOp21
 70
     0
102
RTVSPropertyOp22
 70
     0
102
RTVSPropertyOp23
 70
     0
102
RTVSPropertyOp24
 70
     0
102
RTVSPropertyOp25
 70
     0
102
RTVSPropertyOp26
 70
     0
102
RTVSPropertyOp27
 70
     0
102
RTVSPropertyOp28
 70
     1
102
RTVSPropertyOp29
 70
     1
102
RTVSPropertyOp30
 70
     1
102
RTVSPropertyOp31
 70
     1
102
RTVSPropertyOp32
 70
     1
102
RTVSPropertyOp33
 70
     1
102
RTVSPropertyOp34
 70
     1
102
RTVSPropertyOp35
 70
     1
102
RTVSPropertyOp36
 70
     1
102
RTVSPropertyOp37
 70
     1
102
RTVSPropertyOp38
 70
     1
102
RTVSPropertyOp39
 70
     1
102
RTVSPropertyOp40
 70
     1
102
RTVSPropertyOp41
 70
     1
102
RTVSPropertyOp42
 70
     1
102
RTVSPropertyOp43
 70
     1
102
RTVSPropertyOp44
 70
     1
102
RTVSPropertyOp45
 70
     1
102
RTVSPropertyOp46
 70
     1
102
RTVSPropertyOp47
 70
     1
102
RTVSPropertyOp48
 70
     1
102
RTVSPropertyOp49
 70
     1
102
RTVSPropertyOp50
 70
     1
102
RTVSPropertyOp51
 70
     0
102
RTVSPropertyOp52
 70
     0
102
RTVSPropertyOp53
 70
     1
102
RTVSPropertyOp54
 70
     1
102
RTVSPropertyOp55
 70
     1
102
RTVSPropertyOp56
 70
     1
102
RTVSPropertyOp57
 70
     1
102
RTVSPost2010Prop28
280
     0
102
RTVSPost2010PropOp28
 70
     1
102
RTVSPost2010Prop29
280
     1
102
RTVSPost2010PropOp29
 70
     1
102
RTVSPost2010Prop30
280
     1
102
RTVSPost2010PropOp30
 70
     1
102
RTVSPost2010Prop31
280
     0
102
RTVSPost2010PropOp31
 70
     1
102
RTVSPost2010Prop32
280
     0
102
RTVSPost2010PropOp32
 70
     1
102
RTVSPost2010Prop33
280
     0
102
RTVSPost2010PropOp33
 70
     1
102
RTVSPost2010Prop34
280
     0
102
RTVSPost2010PropOp34
 70
     1
102
RTVSPost2010Prop35
280
     0
102
RTVSPost2010PropOp35
 70
     1
102
RTVSPost2010Prop36
280
     0
102
RTVSPost2010PropOp36
 70
     1
102
RTVSPost2010Prop37
 90
       50
102
RTVSPost2010PropOp37
 70
     1
102
RTVSPost2010Prop38
140
0.0
102
RTVSPost2010PropOp38
 70
     1
102
RTVSPost2010Prop39
140
1.0
102
RTVSPost2010PropOp39
 70
     1
102
RTVSPost2010Prop40
 90
        0
102
RTVSPost2010PropOp40
 70
     1
102
RTVSPost2010Prop41ColorIndex
 90
       18
102
RTVSPost2010Prop41ColorRGB
 90
        0
102
RTVSPost2010PropOp41
 70
     1
102
RTVSPost2010Prop42
 90
       50
102
RTVSPost2010PropOp42
 70
     1
102
RTVSPost2010Prop43
 90
        3
102
RTVSPost2010PropOp43
 70
     1
102
RTVSPost2010Prop44ColorIndex
 90
        5
102
RTVSPost2010Prop44ColorRGB
 90
      255
102
RTVSPost2010PropOp44
 70
     1
102
RTVSPost2010Prop45
280
     0
102
RTVSPost2010PropOp45
 70
     1
102
RTVSPost2010Prop46
 90
       50
102
RTVSPost2010PropOp46
 70
     1
102
RTVSPost2010Prop47
 90
       50
102
RTVSPost2010PropOp47
 70
     1
102
RTVSPost2010Prop48
 90
       50
102
RTVSPost2010PropOp48
 70
     1
102
RTVSPost2010Prop49
280
     0
102
RTVSPost2010PropOp49
 70
     1
102
RTVSPost2010Prop50
 90
       50
102
RTVSPost2010PropOp50
 70
     1
102
RTVSPost2010Prop51ColorIndex
 90
      256
102
RTVSPost2010Prop51ColorRGB
 90
-16777216
102
RTVSPost2010PropOp51
 70
     0
102
RTVSPost2010Prop52
140
1.0
102
RTVSPost2010PropOp52
 70
     0
102
RTVSPost2010Prop53
 90
        2
102
RTVSPost2010PropOp53
 70
     1
102
RTVSPost2010Prop54
  1
strokes_ogs.tif
102
RTVSPost2010PropOp54
 70
     1
102
RTVSPost2010Prop55
280
     0
102
RTVSPost2010PropOp55
 70
     1
102
RTVSPost2010Prop56
140
1.0
102
RTVSPost2010PropOp56
 70
     1
102
RTVSPost2010Prop57
140
1.0
102
RTVSPost2010PropOp57
 70
     1
  0
XRECORD
  5
648
102
{ACAD_REACTORS
330
647
102
}
330
647
100
AcDbXrecord
280
     1
102
RTVSPropertyOp0
 70
     1
102
RTVSPropertyOp1
 70
     1
102
RTVSPropertyOp2
 70
     1
102
RTVSPropertyOp3
 70
     1
102
RTVSPropertyOp4
 70
     1
102
RTVSPropertyOp5
 70
     1
102
RTVSPropertyOp6
 70
     1
102
RTVSPropertyOp7
 70
     1
102
RTVSPropertyOp8
 70
     1
102
RTVSPropertyOp9
 70
     1
102
RTVSPropertyOp10
 70
     1
102
RTVSPropertyOp11
 70
     1
102
RTVSPropertyOp12
 70
     1
102
RTVSPropertyOp13
 70
     1
102
RTVSPropertyOp14
 70
     1
102
RTVSPropertyOp15
 70
     1
102
RTVSPropertyOp16
 70
     1
102
RTVSPropertyOp17
 70
     1
102
RTVSPropertyOp18
 70
     1
102
RTVSPropertyOp19
 70
     1
102
RTVSPropertyOp20
 70
     1
102
RTVSPropertyOp21
 70
     1
102
RTVSPropertyOp22
 70
     1
102
RTVSPropertyOp23
 70
     1
102
RTVSPropertyOp24
 70
     1
102
RTVSPropertyOp25
 70
     1
102
RTVSPropertyOp26
 70
     1
102
RTVSPropertyOp27
 70
     1
102
RTVSPropertyOp28
 70
     1
102
RTVSPropertyOp29
 70
     1
102
RTVSPropertyOp30
 70
     1
102
RTVSPropertyOp31
 70
     1
102
RTVSPropertyOp32
 70
     1
102
RTVSPropertyOp33
 70
     1
102
RTVSPropertyOp34
 70
     1
102
RTVSPropertyOp35
 70
     1
102
RTVSPropertyOp36
 70
     1
102
RTVSPropertyOp37
 70
     1
102
RTVSPropertyOp38
 70
     1
102
RTVSPropertyOp39
 70
     1
102
RTVSPropertyOp40
 70
     1
102
RTVSPropertyOp41
 70
     1
102
RTVSPropertyOp42
 70
     1
102
RTVSPropertyOp43
 70
     1
102
RTVSPropertyOp44
 70
     1
102
RTVSPropertyOp45
 70
     1
102
RTVSPropertyOp46
 70
     1
102
RTVSPropertyOp47
 70
     1
102
RTVSPropertyOp48
 70
     1
102
RTVSPropertyOp49
 70
     1
102
RTVSPropertyOp50
 70
     1
102
RTVSPropertyOp51
 70
     0
102
RTVSPropertyOp52
 70
     0
102
RTVSPropertyOp53
 70
     1
102
RTVSPropertyOp54
 70
     1
102
RTVSPropertyOp55
 70
     1
102
RTVSPropertyOp56
 70
     1
102
RTVSPropertyOp57
 70
     1
102
RTVSPost2010Prop28
280
     0
102
RTVSPost2010PropOp28
 70
     1
102
RTVSPost2010Prop29
280
     1
102
RTVSPost2010PropOp29
 70
     1
102
RTVSPost2010Prop30
280
     1
102
RTVSPost2010PropOp30
 70
     1
102
RTVSPost2010Prop31
280
     0
102
RTVSPost2010PropOp31
 70
     1
102
RTVSPost2010Prop32
280
     0
102
RTVSPost2010PropOp32
 70
     1
102
RTVSPost2010Prop33
280
     0
102
RTVSPost2010PropOp33
 70
     1
102
RTVSPost2010Prop34
280
     0
102
RTVSPost2010PropOp34
 70
     1
102
RTVSPost2010Prop35
280
     0
102
RTVSPost2010PropOp35
 70
     1
102
RTVSPost2010Prop36
280
     0
102
RTVSPost2010PropOp36
 70
     1
102
RTVSPost2010Prop37
 90
       50
102
RTVSPost2010PropOp37
 70
     1
102
RTVSPost2010Prop38
140
0.0
102
RTVSPost2010PropOp38
 70
     1
102
RTVSPost2010Prop39
140
1.0
102
RTVSPost2010PropOp39
 70
     1
102
RTVSPost2010Prop40
 90
        0
102
RTVSPost2010PropOp40
 70
     1
102
RTVSPost2010Prop41ColorIndex
 90
       18
102
RTVSPost2010Prop41ColorRGB
 90
        0
102
RTVSPost2010PropOp41
 70
     1
102
RTVSPost2010Prop42
 90
       50
102
RTVSPost2010PropOp42
 70
     1
102
RTVSPost2010Prop43
 90
        3
102
RTVSPost2010PropOp43
 70
     1
102
RTVSPost2010Prop44ColorIndex
 90
        5
102
RTVSPost2010Prop44ColorRGB
 90
      255
102
RTVSPost2010PropOp44
 70
     1
102
RTVSPost2010Prop45
280
     0
102
RTVSPost2010PropOp45
 70
     1
102
RTVSPost2010Prop46
 90
       50
102
RTVSPost2010PropOp46
 70
     1
102
RTVSPost2010Prop47
 90
       50
102
RTVSPost2010PropOp47
 70
     1
102
RTVSPost2010Prop48
 90
       50
102
RTVSPost2010PropOp48
 70
     1
102
RTVSPost2010Prop49
280
     0
102
RTVSPost2010PropOp49
 70
     1
102
RTVSPost2010Prop50
 90
       50
102
RTVSPost2010PropOp50
 70
     1
102
RTVSPost2010Prop51ColorIndex
 90
      256
102
RTVSPost2010Prop51ColorRGB
 90
-16777216
102
RTVSPost2010PropOp51
 70
     0
102
RTVSPost2010Prop52
140
1.0
102
RTVSPost2010PropOp52
 70
     0
102
RTVSPost2010Prop53
 90
        2
102
RTVSPost2010PropOp53
 70
     1
102
RTVSPost2010Prop54
  1
strokes_ogs.tif
102
RTVSPost2010PropOp54
 70
     1
102
RTVSPost2010Prop55
280
     0
102
RTVSPost2010PropOp55
 70
     1
102
RTVSPost2010Prop56
140
1.0
102
RTVSPost2010PropOp56
 70
     1
102
RTVSPost2010Prop57
140
1.0
102
RTVSPost2010PropOp57
 70
     1
  0
XRECORD
  5
650
102
{ACAD_REACTORS
330
64F
102
}
330
64F
100
AcDbXrecord
280
     1
102
RTVSPropertyOp0
 70
     0
102
RTVSPropertyOp1
 70
     0
102
RTVSPropertyOp2
 70
     0
102
RTVSPropertyOp3
 70
     0
102
RTVSPropertyOp4
 70
     0
102
RTVSPropertyOp5
 70
     0
102
RTVSPropertyOp6
 70
     0
102
RTVSPropertyOp7
 70
     0
102
RTVSPropertyOp8
 70
     0
102
RTVSPropertyOp9
 70
     0
102
RTVSPropertyOp10
 70
     0
102
RTVSPropertyOp11
 70
     0
102
RTVSPropertyOp12
 70
     0
102
RTVSPropertyOp13
 70
     0
102
RTVSPropertyOp14
 70
     0
102
RTVSPropertyOp15
 70
     0
102
RTVSPropertyOp16
 70
     0
102
RTVSPropertyOp17
 70
     0
102
RTVSPropertyOp18
 70
     0
102
RTVSPropertyOp19
 70
     0
102
RTVSPropertyOp20
 70
     0
102
RTVSPropertyOp21
 70
     0
102
RTVSPropertyOp22
 70
     0
102
RTVSPropertyOp23
 70
     0
102
RTVSPropertyOp24
 70
     0
102
RTVSPropertyOp25
 70
     0
102
RTVSPropertyOp26
 70
     0
102
RTVSPropertyOp27
 70
     0
102
RTVSPropertyOp28
 70
     1
102
RTVSPropertyOp29
 70
     1
102
RTVSPropertyOp30
 70
     1
102
RTVSPropertyOp31
 70
     1
102
RTVSPropertyOp32
 70
     1
102
RTVSPropertyOp33
 70
     1
102
RTVSPropertyOp34
 70
     1
102
RTVSPropertyOp35
 70
     1
102
RTVSPropertyOp36
 70
     1
102
RTVSPropertyOp37
 70
     1
102
RTVSPropertyOp38
 70
     1
102
RTVSPropertyOp39
 70
     1
102
RTVSPropertyOp40
 70
     1
102
RTVSPropertyOp41
 70
     1
102
RTVSPropertyOp42
 70
     1
102
RTVSPropertyOp43
 70
     1
102
RTVSPropertyOp44
 70
     1
102
RTVSPropertyOp45
 70
     1
102
RTVSPropertyOp46
 70
     1
102
RTVSPropertyOp47
 70
     1
102
RTVSPropertyOp48
 70
     1
102
RTVSPropertyOp49
 70
     1
102
RTVSPropertyOp50
 70
     1
102
RTVSPropertyOp51
 70
     0
102
RTVSPropertyOp52
 70
     0
102
RTVSPropertyOp53
 70
     1
102
RTVSPropertyOp54
 70
     1
102
RTVSPropertyOp55
 70
     1
102
RTVSPropertyOp56
 70
     1
102
RTVSPropertyOp57
 70
     1
102
RTVSPost2010Prop28
280
     0
102
RTVSPost2010PropOp28
 70
     1
102
RTVSPost2010Prop29
280
     1
102
RTVSPost2010PropOp29
 70
     1
102
RTVSPost2010Prop30
280
     1
102
RTVSPost2010PropOp30
 70
     1
102
RTVSPost2010Prop31
280
     0
102
RTVSPost2010PropOp31
 70
     1
102
RTVSPost2010Prop32
280
     0
102
RTVSPost2010PropOp32
 70
     1
102
RTVSPost2010Prop33
280
     0
102
RTVSPost2010PropOp33
 70
     1
102
RTVSPost2010Prop34
280
     0
102
RTVSPost2010PropOp34
 70
     1
102
RTVSPost2010Prop35
280
     0
102
RTVSPost2010PropOp35
 70
     1
102
RTVSPost2010Prop36
280
     0
102
RTVSPost2010PropOp36
 70
     1
102
RTVSPost2010Prop37
 90
       50
102
RTVSPost2010PropOp37
 70
     1
102
RTVSPost2010Prop38
140
0.0
102
RTVSPost2010PropOp38
 70
     1
102
RTVSPost2010Prop39
140
1.0
102
RTVSPost2010PropOp39
 70
     1
102
RTVSPost2010Prop40
 90
        0
102
RTVSPost2010PropOp40
 70
     1
102
RTVSPost2010Prop41ColorIndex
 90
       18
102
RTVSPost2010Prop41ColorRGB
 90
        0
102
RTVSPost2010PropOp41
 70
     1
102
RTVSPost2010Prop42
 90
       50
102
RTVSPost2010PropOp42
 70
     1
102
RTVSPost2010Prop43
 90
        3
102
RTVSPost2010PropOp43
 70
     1
102
RTVSPost2010Prop44ColorIndex
 90
        5
102
RTVSPost2010Prop44ColorRGB
 90
      255
102
RTVSPost2010PropOp44
 70
     1
102
RTVSPost2010Prop45
280
     0
102
RTVSPost2010PropOp45
 70
     1
102
RTVSPost2010Prop46
 90
       50
102
RTVSPost2010PropOp46
 70
     1
102
RTVSPost2010Prop47
 90
       50
102
RTVSPost2010PropOp47
 70
     1
102
RTVSPost2010Prop48
 90
       50
102
RTVSPost2010PropOp48
 70
     1
102
RTVSPost2010Prop49
280
     0
102
RTVSPost2010PropOp49
 70
     1
102
RTVSPost2010Prop50
 90
       50
102
RTVSPost2010PropOp50
 70
     1
102
RTVSPost2010Prop51ColorIndex
 90
      256
102
RTVSPost2010Prop51ColorRGB
 90
-16777216
102
RTVSPost2010PropOp51
 70
     0
102
RTVSPost2010Prop52
140
1.0
102
RTVSPost2010PropOp52
 70
     0
102
RTVSPost2010Prop53
 90
        2
102
RTVSPost2010PropOp53
 70
     1
102
RTVSPost2010Prop54
  1
strokes_ogs.tif
102
RTVSPost2010PropOp54
 70
     1
102
RTVSPost2010Prop55
280
     0
102
RTVSPost2010PropOp55
 70
     1
102
RTVSPost2010Prop56
140
1.0
102
RTVSPost2010PropOp56
 70
     1
102
RTVSPost2010Prop57
140
1.0
102
RTVSPost2010PropOp57
 70
     1
  0
XRECORD
  5
63E
102
{ACAD_REACTORS
330
63D
102
}
330
63D
100
AcDbXrecord
280
     1
102
RTVSPropertyOp0
 70
     1
102
RTVSPropertyOp1
 70
     1
102
RTVSPropertyOp2
 70
     1
102
RTVSPropertyOp3
 70
     1
102
RTVSPropertyOp4
 70
     1
102
RTVSPropertyOp5
 70
     1
102
RTVSPropertyOp6
 70
     1
102
RTVSPropertyOp7
 70
     1
102
RTVSPropertyOp8
 70
     1
102
RTVSPropertyOp9
 70
     1
102
RTVSPropertyOp10
 70
     1
102
RTVSPropertyOp11
 70
     1
102
RTVSPropertyOp12
 70
     1
102
RTVSPropertyOp13
 70
     1
102
RTVSPropertyOp14
 70
     1
102
RTVSPropertyOp15
 70
     1
102
RTVSPropertyOp16
 70
     1
102
RTVSPropertyOp17
 70
     1
102
RTVSPropertyOp18
 70
     1
102
RTVSPropertyOp19
 70
     1
102
RTVSPropertyOp20
 70
     1
102
RTVSPropertyOp21
 70
     1
102
RTVSPropertyOp22
 70
     1
102
RTVSPropertyOp23
 70
     1
102
RTVSPropertyOp24
 70
     1
102
RTVSPropertyOp25
 70
     1
102
RTVSPropertyOp26
 70
     1
102
RTVSPropertyOp27
 70
     1
102
RTVSPropertyOp28
 70
     1
102
RTVSPropertyOp29
 70
     1
102
RTVSPropertyOp30
 70
     1
102
RTVSPropertyOp31
 70
     1
102
RTVSPropertyOp32
 70
     1
102
RTVSPropertyOp33
 70
     1
102
RTVSPropertyOp34
 70
     1
102
RTVSPropertyOp35
 70
     1
102
RTVSPropertyOp36
 70
     1
102
RTVSPropertyOp37
 70
     1
102
RTVSPropertyOp38
 70
     1
102
RTVSPropertyOp39
 70
     1
102
RTVSPropertyOp40
 70
     1
102
RTVSPropertyOp41
 70
     1
102
RTVSPropertyOp42
 70
     1
102
RTVSPropertyOp43
 70
     1
102
RTVSPropertyOp44
 70
     1
102
RTVSPropertyOp45
 70
     1
102
RTVSPropertyOp46
 70
     1
102
RTVSPropertyOp47
 70
     1
102
RTVSPropertyOp48
 70
     1
102
RTVSPropertyOp49
 70
     1
102
RTVSPropertyOp50
 70
     1
102
RTVSPropertyOp51
 70
     0
102
RTVSPropertyOp52
 70
     0
102
RTVSPropertyOp53
 70
     1
102
RTVSPropertyOp54
 70
     1
102
RTVSPropertyOp55
 70
     1
102
RTVSPropertyOp56
 70
     1
102
RTVSPropertyOp57
 70
     1
102
RTVSPost2010Prop28
280
     0
102
RTVSPost2010PropOp28
 70
     1
102
RTVSPost2010Prop29
280
     1
102
RTVSPost2010PropOp29
 70
     1
102
RTVSPost2010Prop30
280
     1
102
RTVSPost2010PropOp30
 70
     1
102
RTVSPost2010Prop31
280
     0
102
RTVSPost2010PropOp31
 70
     1
102
RTVSPost2010Prop32
280
     0
102
RTVSPost2010PropOp32
 70
     1
102
RTVSPost2010Prop33
280
     0
102
RTVSPost2010PropOp33
 70
     1
102
RTVSPost2010Prop34
280
     0
102
RTVSPost2010PropOp34
 70
     1
102
RTVSPost2010Prop35
280
     0
102
RTVSPost2010PropOp35
 70
     1
102
RTVSPost2010Prop36
280
     0
102
RTVSPost2010PropOp36
 70
     1
102
RTVSPost2010Prop37
 90
       50
102
RTVSPost2010PropOp37
 70
     1
102
RTVSPost2010Prop38
140
0.0
102
RTVSPost2010PropOp38
 70
     1
102
RTVSPost2010Prop39
140
1.0
102
RTVSPost2010PropOp39
 70
     1
102
RTVSPost2010Prop40
 90
        0
102
RTVSPost2010PropOp40
 70
     1
102
RTVSPost2010Prop41ColorIndex
 90
       18
102
RTVSPost2010Prop41ColorRGB
 90
        0
102
RTVSPost2010PropOp41
 70
     1
102
RTVSPost2010Prop42
 90
       50
102
RTVSPost2010PropOp42
 70
     1
102
RTVSPost2010Prop43
 90
        3
102
RTVSPost2010PropOp43
 70
     1
102
RTVSPost2010Prop44ColorIndex
 90
        5
102
RTVSPost2010Prop44ColorRGB
 90
      255
102
RTVSPost2010PropOp44
 70
     1
102
RTVSPost2010Prop45
280
     0
102
RTVSPost2010PropOp45
 70
     1
102
RTVSPost2010Prop46
 90
       50
102
RTVSPost2010PropOp46
 70
     1
102
RTVSPost2010Prop47
 90
       50
102
RTVSPost2010PropOp47
 70
     1
102
RTVSPost2010Prop48
 90
       50
102
RTVSPost2010PropOp48
 70
     1
102
RTVSPost2010Prop49
280
     0
102
RTVSPost2010PropOp49
 70
     1
102
RTVSPost2010Prop50
 90
       50
102
RTVSPost2010PropOp50
 70
     1
102
RTVSPost2010Prop51ColorIndex
 90
      256
102
RTVSPost2010Prop51ColorRGB
 90
-16777216
102
RTVSPost2010PropOp51
 70
     0
102
RTVSPost2010Prop52
140
1.0
102
RTVSPost2010PropOp52
 70
     0
102
RTVSPost2010Prop53
 90
        2
102
RTVSPost2010PropOp53
 70
     1
102
RTVSPost2010Prop54
  1
strokes_ogs.tif
102
RTVSPost2010PropOp54
 70
     1
102
RTVSPost2010Prop55
280
     0
102
RTVSPost2010PropOp55
 70
     1
102
RTVSPost2010Prop56
140
1.0
102
RTVSPost2010PropOp56
 70
     1
102
RTVSPost2010Prop57
140
1.0
102
RTVSPost2010PropOp57
 70
     1
  0
XRECORD
  5
65C
102
{ACAD_REACTORS
330
65B
102
}
330
65B
100
AcDbXrecord
280
     1
102
RTVSPropertyOp0
 70
     1
102
RTVSPropertyOp1
 70
     1
102
RTVSPropertyOp2
 70
     1
102
RTVSPropertyOp3
 70
     1
102
RTVSPropertyOp4
 70
     1
102
RTVSPropertyOp5
 70
     1
102
RTVSPropertyOp6
 70
     1
102
RTVSPropertyOp7
 70
     1
102
RTVSPropertyOp8
 70
     1
102
RTVSPropertyOp9
 70
     1
102
RTVSPropertyOp10
 70
     1
102
RTVSPropertyOp11
 70
     1
102
RTVSPropertyOp12
 70
     1
102
RTVSPropertyOp13
 70
     1
102
RTVSPropertyOp14
 70
     1
102
RTVSPropertyOp15
 70
     1
102
RTVSPropertyOp16
 70
     1
102
RTVSPropertyOp17
 70
     1
102
RTVSPropertyOp18
 70
     1
102
RTVSPropertyOp19
 70
     1
102
RTVSPropertyOp20
 70
     1
102
RTVSPropertyOp21
 70
     1
102
RTVSPropertyOp22
 70
     1
102
RTVSPropertyOp23
 70
     1
102
RTVSPropertyOp24
 70
     1
102
RTVSPropertyOp25
 70
     1
102
RTVSPropertyOp26
 70
     1
102
RTVSPropertyOp27
 70
     1
102
RTVSPropertyOp28
 70
     1
102
RTVSPropertyOp29
 70
     1
102
RTVSPropertyOp30
 70
     1
102
RTVSPropertyOp31
 70
     1
102
RTVSPropertyOp32
 70
     1
102
RTVSPropertyOp33
 70
     1
102
RTVSPropertyOp34
 70
     1
102
RTVSPropertyOp35
 70
     1
102
RTVSPropertyOp36
 70
     1
102
RTVSPropertyOp37
 70
     1
102
RTVSPropertyOp38
 70
     1
102
RTVSPropertyOp39
 70
     1
102
RTVSPropertyOp40
 70
     1
102
RTVSPropertyOp41
 70
     1
102
RTVSPropertyOp42
 70
     1
102
RTVSPropertyOp43
 70
     1
102
RTVSPropertyOp44
 70
     1
102
RTVSPropertyOp45
 70
     1
102
RTVSPropertyOp46
 70
     1
102
RTVSPropertyOp47
 70
     1
102
RTVSPropertyOp48
 70
     1
102
RTVSPropertyOp49
 70
     1
102
RTVSPropertyOp50
 70
     1
102
RTVSPropertyOp51
 70
     0
102
RTVSPropertyOp52
 70
     0
102
RTVSPropertyOp53
 70
     1
102
RTVSPropertyOp54
 70
     1
102
RTVSPropertyOp55
 70
     1
102
RTVSPropertyOp56
 70
     1
102
RTVSPropertyOp57
 70
     1
102
RTVSPost2010Prop28
280
     0
102
RTVSPost2010PropOp28
 70
     1
102
RTVSPost2010Prop29
280
     1
102
RTVSPost2010PropOp29
 70
     1
102
RTVSPost2010Prop30
280
     1
102
RTVSPost2010PropOp30
 70
     1
102
RTVSPost2010Prop31
280
     0
102
RTVSPost2010PropOp31
 70
     1
102
RTVSPost2010Prop32
280
     0
102
RTVSPost2010PropOp32
 70
     1
102
RTVSPost2010Prop33
280
     0
102
RTVSPost2010PropOp33
 70
     1
102
RTVSPost2010Prop34
280
     0
102
RTVSPost2010PropOp34
 70
     1
102
RTVSPost2010Prop35
280
     0
102
RTVSPost2010PropOp35
 70
     1
102
RTVSPost2010Prop36
280
     0
102
RTVSPost2010PropOp36
 70
     1
102
RTVSPost2010Prop37
 90
       50
102
RTVSPost2010PropOp37
 70
     1
102
RTVSPost2010Prop38
140
0.0
102
RTVSPost2010PropOp38
 70
     1
102
RTVSPost2010Prop39
140
1.0
102
RTVSPost2010PropOp39
 70
     1
102
RTVSPost2010Prop40
 90
        0
102
RTVSPost2010PropOp40
 70
     1
102
RTVSPost2010Prop41ColorIndex
 90
       18
102
RTVSPost2010Prop41ColorRGB
 90
        0
102
RTVSPost2010PropOp41
 70
     1
102
RTVSPost2010Prop42
 90
       50
102
RTVSPost2010PropOp42
 70
     1
102
RTVSPost2010Prop43
 90
        3
102
RTVSPost2010PropOp43
 70
     1
102
RTVSPost2010Prop44ColorIndex
 90
        5
102
RTVSPost2010Prop44ColorRGB
 90
      255
102
RTVSPost2010PropOp44
 70
     1
102
RTVSPost2010Prop45
280
     0
102
RTVSPost2010PropOp45
 70
     1
102
RTVSPost2010Prop46
 90
       50
102
RTVSPost2010PropOp46
 70
     1
102
RTVSPost2010Prop47
 90
       50
102
RTVSPost2010PropOp47
 70
     1
102
RTVSPost2010Prop48
 90
       50
102
RTVSPost2010PropOp48
 70
     1
102
RTVSPost2010Prop49
280
     0
102
RTVSPost2010PropOp49
 70
     1
102
RTVSPost2010Prop50
 90
       50
102
RTVSPost2010PropOp50
 70
     1
102
RTVSPost2010Prop51ColorIndex
 90
      256
102
RTVSPost2010Prop51ColorRGB
 90
-16777216
102
RTVSPost2010PropOp51
 70
     0
102
RTVSPost2010Prop52
140
1.0
102
RTVSPost2010PropOp52
 70
     0
102
RTVSPost2010Prop53
 90
        2
102
RTVSPost2010PropOp53
 70
     1
102
RTVSPost2010Prop54
  1
strokes_ogs.tif
102
RTVSPost2010PropOp54
 70
     1
102
RTVSPost2010Prop55
280
     0
102
RTVSPost2010PropOp55
 70
     1
102
RTVSPost2010Prop56
140
1.0
102
RTVSPost2010PropOp56
 70
     1
102
RTVSPost2010Prop57
140
1.0
102
RTVSPost2010PropOp57
 70
     1
  0
XRECORD
  5
65A
102
{ACAD_REACTORS
330
659
102
}
330
659
100
AcDbXrecord
280
     1
102
RTVSPropertyOp0
 70
     1
102
RTVSPropertyOp1
 70
     1
102
RTVSPropertyOp2
 70
     1
102
RTVSPropertyOp3
 70
     1
102
RTVSPropertyOp4
 70
     1
102
RTVSPropertyOp5
 70
     1
102
RTVSPropertyOp6
 70
     1
102
RTVSPropertyOp7
 70
     1
102
RTVSPropertyOp8
 70
     1
102
RTVSPropertyOp9
 70
     1
102
RTVSPropertyOp10
 70
     1
102
RTVSPropertyOp11
 70
     1
102
RTVSPropertyOp12
 70
     1
102
RTVSPropertyOp13
 70
     1
102
RTVSPropertyOp14
 70
     1
102
RTVSPropertyOp15
 70
     1
102
RTVSPropertyOp16
 70
     1
102
RTVSPropertyOp17
 70
     1
102
RTVSPropertyOp18
 70
     1
102
RTVSPropertyOp19
 70
     1
102
RTVSPropertyOp20
 70
     1
102
RTVSPropertyOp21
 70
     1
102
RTVSPropertyOp22
 70
     1
102
RTVSPropertyOp23
 70
     1
102
RTVSPropertyOp24
 70
     1
102
RTVSPropertyOp25
 70
     1
102
RTVSPropertyOp26
 70
     1
102
RTVSPropertyOp27
 70
     1
102
RTVSPropertyOp28
 70
     1
102
RTVSPropertyOp29
 70
     1
102
RTVSPropertyOp30
 70
     1
102
RTVSPropertyOp31
 70
     1
102
RTVSPropertyOp32
 70
     1
102
RTVSPropertyOp33
 70
     1
102
RTVSPropertyOp34
 70
     1
102
RTVSPropertyOp35
 70
     1
102
RTVSPropertyOp36
 70
     1
102
RTVSPropertyOp37
 70
     1
102
RTVSPropertyOp38
 70
     1
102
RTVSPropertyOp39
 70
     1
102
RTVSPropertyOp40
 70
     1
102
RTVSPropertyOp41
 70
     1
102
RTVSPropertyOp42
 70
     1
102
RTVSPropertyOp43
 70
     1
102
RTVSPropertyOp44
 70
     1
102
RTVSPropertyOp45
 70
     1
102
RTVSPropertyOp46
 70
     1
102
RTVSPropertyOp47
 70
     1
102
RTVSPropertyOp48
 70
     1
102
RTVSPropertyOp49
 70
     1
102
RTVSPropertyOp50
 70
     1
102
RTVSPropertyOp51
 70
     0
102
RTVSPropertyOp52
 70
     0
102
RTVSPropertyOp53
 70
     1
102
RTVSPropertyOp54
 70
     1
102
RTVSPropertyOp55
 70
     1
102
RTVSPropertyOp56
 70
     1
102
RTVSPropertyOp57
 70
     1
102
RTVSPost2010Prop28
280
     0
102
RTVSPost2010PropOp28
 70
     1
102
RTVSPost2010Prop29
280
     1
102
RTVSPost2010PropOp29
 70
     1
102
RTVSPost2010Prop30
280
     1
102
RTVSPost2010PropOp30
 70
     1
102
RTVSPost2010Prop31
280
     0
102
RTVSPost2010PropOp31
 70
     1
102
RTVSPost2010Prop32
280
     0
102
RTVSPost2010PropOp32
 70
     1
102
RTVSPost2010Prop33
280
     0
102
RTVSPost2010PropOp33
 70
     1
102
RTVSPost2010Prop34
280
     0
102
RTVSPost2010PropOp34
 70
     1
102
RTVSPost2010Prop35
280
     0
102
RTVSPost2010PropOp35
 70
     1
102
RTVSPost2010Prop36
280
     0
102
RTVSPost2010PropOp36
 70
     1
102
RTVSPost2010Prop37
 90
       50
102
RTVSPost2010PropOp37
 70
     1
102
RTVSPost2010Prop38
140
0.0
102
RTVSPost2010PropOp38
 70
     1
102
RTVSPost2010Prop39
140
1.0
102
RTVSPost2010PropOp39
 70
     1
102
RTVSPost2010Prop40
 90
        0
102
RTVSPost2010PropOp40
 70
     1
102
RTVSPost2010Prop41ColorIndex
 90
       18
102
RTVSPost2010Prop41ColorRGB
 90
        0
102
RTVSPost2010PropOp41
 70
     1
102
RTVSPost2010Prop42
 90
       50
102
RTVSPost2010PropOp42
 70
     1
102
RTVSPost2010Prop43
 90
        3
102
RTVSPost2010PropOp43
 70
     1
102
RTVSPost2010Prop44ColorIndex
 90
        5
102
RTVSPost2010Prop44ColorRGB
 90
      255
102
RTVSPost2010PropOp44
 70
     1
102
RTVSPost2010Prop45
280
     0
102
RTVSPost2010PropOp45
 70
     1
102
RTVSPost2010Prop46
 90
       50
102
RTVSPost2010PropOp46
 70
     1
102
RTVSPost2010Prop47
 90
       50
102
RTVSPost2010PropOp47
 70
     1
102
RTVSPost2010Prop48
 90
       50
102
RTVSPost2010PropOp48
 70
     1
102
RTVSPost2010Prop49
280
     0
102
RTVSPost2010PropOp49
 70
     1
102
RTVSPost2010Prop50
 90
       50
102
RTVSPost2010PropOp50
 70
     1
102
RTVSPost2010Prop51ColorIndex
 90
      256
102
RTVSPost2010Prop51ColorRGB
 90
-16777216
102
RTVSPost2010PropOp51
 70
     0
102
RTVSPost2010Prop52
140
1.0
102
RTVSPost2010PropOp52
 70
     0
102
RTVSPost2010Prop53
 90
        2
102
RTVSPost2010PropOp53
 70
     1
102
RTVSPost2010Prop54
  1
strokes_ogs.tif
102
RTVSPost2010PropOp54
 70
     1
102
RTVSPost2010Prop55
280
     0
102
RTVSPost2010PropOp55
 70
     1
102
RTVSPost2010Prop56
140
1.0
102
RTVSPost2010PropOp56
 70
     1
102
RTVSPost2010Prop57
140
1.0
102
RTVSPost2010PropOp57
 70
     1
  0
XRECORD
  5
654
102
{ACAD_REACTORS
330
653
102
}
330
653
100
AcDbXrecord
280
     1
102
RTVSPropertyOp0
 70
     1
102
RTVSPropertyOp1
 70
     1
102
RTVSPropertyOp2
 70
     1
102
RTVSPropertyOp3
 70
     1
102
RTVSPropertyOp4
 70
     1
102
RTVSPropertyOp5
 70
     1
102
RTVSPropertyOp6
 70
     1
102
RTVSPropertyOp7
 70
     1
102
RTVSPropertyOp8
 70
     1
102
RTVSPropertyOp9
 70
     1
102
RTVSPropertyOp10
 70
     1
102
RTVSPropertyOp11
 70
     1
102
RTVSPropertyOp12
 70
     1
102
RTVSPropertyOp13
 70
     1
102
RTVSPropertyOp14
 70
     1
102
RTVSPropertyOp15
 70
     1
102
RTVSPropertyOp16
 70
     1
102
RTVSPropertyOp17
 70
     1
102
RTVSPropertyOp18
 70
     1
102
RTVSPropertyOp19
 70
     1
102
RTVSPropertyOp20
 70
     1
102
RTVSPropertyOp21
 70
     1
102
RTVSPropertyOp22
 70
     1
102
RTVSPropertyOp23
 70
     1
102
RTVSPropertyOp24
 70
     1
102
RTVSPropertyOp25
 70
     1
102
RTVSPropertyOp26
 70
     1
102
RTVSPropertyOp27
 70
     1
102
RTVSPropertyOp28
 70
     1
102
RTVSPropertyOp29
 70
     1
102
RTVSPropertyOp30
 70
     1
102
RTVSPropertyOp31
 70
     1
102
RTVSPropertyOp32
 70
     1
102
RTVSPropertyOp33
 70
     1
102
RTVSPropertyOp34
 70
     1
102
RTVSPropertyOp35
 70
     1
102
RTVSPropertyOp36
 70
     1
102
RTVSPropertyOp37
 70
     1
102
RTVSPropertyOp38
 70
     1
102
RTVSPropertyOp39
 70
     1
102
RTVSPropertyOp40
 70
     1
102
RTVSPropertyOp41
 70
     1
102
RTVSPropertyOp42
 70
     1
102
RTVSPropertyOp43
 70
     1
102
RTVSPropertyOp44
 70
     1
102
RTVSPropertyOp45
 70
     1
102
RTVSPropertyOp46
 70
     1
102
RTVSPropertyOp47
 70
     1
102
RTVSPropertyOp48
 70
     1
102
RTVSPropertyOp49
 70
     1
102
RTVSPropertyOp50
 70
     1
102
RTVSPropertyOp51
 70
     0
102
RTVSPropertyOp52
 70
     0
102
RTVSPropertyOp53
 70
     1
102
RTVSPropertyOp54
 70
     1
102
RTVSPropertyOp55
 70
     1
102
RTVSPropertyOp56
 70
     1
102
RTVSPropertyOp57
 70
     1
102
RTVSPost2010Prop28
280
     0
102
RTVSPost2010PropOp28
 70
     1
102
RTVSPost2010Prop29
280
     1
102
RTVSPost2010PropOp29
 70
     1
102
RTVSPost2010Prop30
280
     1
102
RTVSPost2010PropOp30
 70
     1
102
RTVSPost2010Prop31
280
     0
102
RTVSPost2010PropOp31
 70
     1
102
RTVSPost2010Prop32
280
     0
102
RTVSPost2010PropOp32
 70
     1
102
RTVSPost2010Prop33
280
     0
102
RTVSPost2010PropOp33
 70
     1
102
RTVSPost2010Prop34
280
     0
102
RTVSPost2010PropOp34
 70
     1
102
RTVSPost2010Prop35
280
     0
102
RTVSPost2010PropOp35
 70
     1
102
RTVSPost2010Prop36
280
     0
102
RTVSPost2010PropOp36
 70
     1
102
RTVSPost2010Prop37
 90
       50
102
RTVSPost2010PropOp37
 70
     1
102
RTVSPost2010Prop38
140
0.0
102
RTVSPost2010PropOp38
 70
     1
102
RTVSPost2010Prop39
140
1.0
102
RTVSPost2010PropOp39
 70
     1
102
RTVSPost2010Prop40
 90
        0
102
RTVSPost2010PropOp40
 70
     1
102
RTVSPost2010Prop41ColorIndex
 90
       18
102
RTVSPost2010Prop41ColorRGB
 90
        0
102
RTVSPost2010PropOp41
 70
     1
102
RTVSPost2010Prop42
 90
       50
102
RTVSPost2010PropOp42
 70
     1
102
RTVSPost2010Prop43
 90
        3
102
RTVSPost2010PropOp43
 70
     1
102
RTVSPost2010Prop44ColorIndex
 90
        5
102
RTVSPost2010Prop44ColorRGB
 90
      255
102
RTVSPost2010PropOp44
 70
     1
102
RTVSPost2010Prop45
280
     0
102
RTVSPost2010PropOp45
 70
     1
102
RTVSPost2010Prop46
 90
       50
102
RTVSPost2010PropOp46
 70
     1
102
RTVSPost2010Prop47
 90
       50
102
RTVSPost2010PropOp47
 70
     1
102
RTVSPost2010Prop48
 90
       50
102
RTVSPost2010PropOp48
 70
     1
102
RTVSPost2010Prop49
280
     0
102
RTVSPost2010PropOp49
 70
     1
102
RTVSPost2010Prop50
 90
       50
102
RTVSPost2010PropOp50
 70
     1
102
RTVSPost2010Prop51ColorIndex
 90
      256
102
RTVSPost2010Prop51ColorRGB
 90
-16777216
102
RTVSPost2010PropOp51
 70
     0
102
RTVSPost2010Prop52
140
1.0
102
RTVSPost2010PropOp52
 70
     0
102
RTVSPost2010Prop53
 90
        2
102
RTVSPost2010PropOp53
 70
     1
102
RTVSPost2010Prop54
  1
strokes_ogs.tif
102
RTVSPost2010PropOp54
 70
     1
102
RTVSPost2010Prop55
280
     0
102
RTVSPost2010PropOp55
 70
     1
102
RTVSPost2010Prop56
140
1.0
102
RTVSPost2010PropOp56
 70
     1
102
RTVSPost2010Prop57
140
1.0
102
RTVSPost2010PropOp57
 70
     1
  0
XRECORD
  5
656
102
{ACAD_REACTORS
330
655
102
}
330
655
100
AcDbXrecord
280
     1
102
RTVSPropertyOp0
 70
     1
102
RTVSPropertyOp1
 70
     1
102
RTVSPropertyOp2
 70
     1
102
RTVSPropertyOp3
 70
     1
102
RTVSPropertyOp4
 70
     1
102
RTVSPropertyOp5
 70
     1
102
RTVSPropertyOp6
 70
     1
102
RTVSPropertyOp7
 70
     1
102
RTVSPropertyOp8
 70
     1
102
RTVSPropertyOp9
 70
     1
102
RTVSPropertyOp10
 70
     1
102
RTVSPropertyOp11
 70
     1
102
RTVSPropertyOp12
 70
     1
102
RTVSPropertyOp13
 70
     1
102
RTVSPropertyOp14
 70
     1
102
RTVSPropertyOp15
 70
     1
102
RTVSPropertyOp16
 70
     1
102
RTVSPropertyOp17
 70
     1
102
RTVSPropertyOp18
 70
     1
102
RTVSPropertyOp19
 70
     1
102
RTVSPropertyOp20
 70
     1
102
RTVSPropertyOp21
 70
     1
102
RTVSPropertyOp22
 70
     1
102
RTVSPropertyOp23
 70
     1
102
RTVSPropertyOp24
 70
     1
102
RTVSPropertyOp25
 70
     1
102
RTVSPropertyOp26
 70
     1
102
RTVSPropertyOp27
 70
     1
102
RTVSPropertyOp28
 70
     1
102
RTVSPropertyOp29
 70
     1
102
RTVSPropertyOp30
 70
     1
102
RTVSPropertyOp31
 70
     1
102
RTVSPropertyOp32
 70
     1
102
RTVSPropertyOp33
 70
     1
102
RTVSPropertyOp34
 70
     1
102
RTVSPropertyOp35
 70
     1
102
RTVSPropertyOp36
 70
     1
102
RTVSPropertyOp37
 70
     1
102
RTVSPropertyOp38
 70
     1
102
RTVSPropertyOp39
 70
     1
102
RTVSPropertyOp40
 70
     1
102
RTVSPropertyOp41
 70
     1
102
RTVSPropertyOp42
 70
     1
102
RTVSPropertyOp43
 70
     1
102
RTVSPropertyOp44
 70
     1
102
RTVSPropertyOp45
 70
     1
102
RTVSPropertyOp46
 70
     1
102
RTVSPropertyOp47
 70
     1
102
RTVSPropertyOp48
 70
     1
102
RTVSPropertyOp49
 70
     1
102
RTVSPropertyOp50
 70
     1
102
RTVSPropertyOp51
 70
     0
102
RTVSPropertyOp52
 70
     0
102
RTVSPropertyOp53
 70
     1
102
RTVSPropertyOp54
 70
     1
102
RTVSPropertyOp55
 70
     1
102
RTVSPropertyOp56
 70
     1
102
RTVSPropertyOp57
 70
     1
102
RTVSPost2010Prop28
280
     0
102
RTVSPost2010PropOp28
 70
     1
102
RTVSPost2010Prop29
280
     1
102
RTVSPost2010PropOp29
 70
     1
102
RTVSPost2010Prop30
280
     1
102
RTVSPost2010PropOp30
 70
     1
102
RTVSPost2010Prop31
280
     0
102
RTVSPost2010PropOp31
 70
     1
102
RTVSPost2010Prop32
280
     0
102
RTVSPost2010PropOp32
 70
     1
102
RTVSPost2010Prop33
280
     0
102
RTVSPost2010PropOp33
 70
     1
102
RTVSPost2010Prop34
280
     0
102
RTVSPost2010PropOp34
 70
     1
102
RTVSPost2010Prop35
280
     0
102
RTVSPost2010PropOp35
 70
     1
102
RTVSPost2010Prop36
280
     0
102
RTVSPost2010PropOp36
 70
     1
102
RTVSPost2010Prop37
 90
       50
102
RTVSPost2010PropOp37
 70
     1
102
RTVSPost2010Prop38
140
0.0
102
RTVSPost2010PropOp38
 70
     1
102
RTVSPost2010Prop39
140
1.0
102
RTVSPost2010PropOp39
 70
     1
102
RTVSPost2010Prop40
 90
        0
102
RTVSPost2010PropOp40
 70
     1
102
RTVSPost2010Prop41ColorIndex
 90
       18
102
RTVSPost2010Prop41ColorRGB
 90
        0
102
RTVSPost2010PropOp41
 70
     1
102
RTVSPost2010Prop42
 90
       50
102
RTVSPost2010PropOp42
 70
     1
102
RTVSPost2010Prop43
 90
        3
102
RTVSPost2010PropOp43
 70
     1
102
RTVSPost2010Prop44ColorIndex
 90
        5
102
RTVSPost2010Prop44ColorRGB
 90
      255
102
RTVSPost2010PropOp44
 70
     1
102
RTVSPost2010Prop45
280
     0
102
RTVSPost2010PropOp45
 70
     1
102
RTVSPost2010Prop46
 90
       50
102
RTVSPost2010PropOp46
 70
     1
102
RTVSPost2010Prop47
 90
       50
102
RTVSPost2010PropOp47
 70
     1
102
RTVSPost2010Prop48
 90
       50
102
RTVSPost2010PropOp48
 70
     1
102
RTVSPost2010Prop49
280
     0
102
RTVSPost2010PropOp49
 70
     1
102
RTVSPost2010Prop50
 90
       50
102
RTVSPost2010PropOp50
 70
     1
102
RTVSPost2010Prop51ColorIndex
 90
      256
102
RTVSPost2010Prop51ColorRGB
 90
-16777216
102
RTVSPost2010PropOp51
 70
     0
102
RTVSPost2010Prop52
140
1.0
102
RTVSPost2010PropOp52
 70
     0
102
RTVSPost2010Prop53
 90
        2
102
RTVSPost2010PropOp53
 70
     1
102
RTVSPost2010Prop54
  1
strokes_ogs.tif
102
RTVSPost2010PropOp54
 70
     1
102
RTVSPost2010Prop55
280
     0
102
RTVSPost2010PropOp55
 70
     1
102
RTVSPost2010Prop56
140
1.0
102
RTVSPost2010PropOp56
 70
     1
102
RTVSPost2010Prop57
140
1.0
102
RTVSPost2010PropOp57
 70
     1
  0
XRECORD
  5
646
102
{ACAD_REACTORS
330
645
102
}
330
645
100
AcDbXrecord
280
     1
102
RTVSPropertyOp0
 70
     1
102
RTVSPropertyOp1
 70
     1
102
RTVSPropertyOp2
 70
     1
102
RTVSPropertyOp3
 70
     1
102
RTVSPropertyOp4
 70
     1
102
RTVSPropertyOp5
 70
     1
102
RTVSPropertyOp6
 70
     1
102
RTVSPropertyOp7
 70
     1
102
RTVSPropertyOp8
 70
     1
102
RTVSPropertyOp9
 70
     1
102
RTVSPropertyOp10
 70
     1
102
RTVSPropertyOp11
 70
     1
102
RTVSPropertyOp12
 70
     1
102
RTVSPropertyOp13
 70
     1
102
RTVSPropertyOp14
 70
     1
102
RTVSPropertyOp15
 70
     1
102
RTVSPropertyOp16
 70
     1
102
RTVSPropertyOp17
 70
     1
102
RTVSPropertyOp18
 70
     1
102
RTVSPropertyOp19
 70
     1
102
RTVSPropertyOp20
 70
     1
102
RTVSPropertyOp21
 70
     1
102
RTVSPropertyOp22
 70
     1
102
RTVSPropertyOp23
 70
     1
102
RTVSPropertyOp24
 70
     1
102
RTVSPropertyOp25
 70
     1
102
RTVSPropertyOp26
 70
     1
102
RTVSPropertyOp27
 70
     1
102
RTVSPropertyOp28
 70
     1
102
RTVSPropertyOp29
 70
     1
102
RTVSPropertyOp30
 70
     1
102
RTVSPropertyOp31
 70
     1
102
RTVSPropertyOp32
 70
     1
102
RTVSPropertyOp33
 70
     1
102
RTVSPropertyOp34
 70
     1
102
RTVSPropertyOp35
 70
     1
102
RTVSPropertyOp36
 70
     1
102
RTVSPropertyOp37
 70
     1
102
RTVSPropertyOp38
 70
     1
102
RTVSPropertyOp39
 70
     1
102
RTVSPropertyOp40
 70
     1
102
RTVSPropertyOp41
 70
     1
102
RTVSPropertyOp42
 70
     1
102
RTVSPropertyOp43
 70
     1
102
RTVSPropertyOp44
 70
     1
102
RTVSPropertyOp45
 70
     1
102
RTVSPropertyOp46
 70
     1
102
RTVSPropertyOp47
 70
     1
102
RTVSPropertyOp48
 70
     1
102
RTVSPropertyOp49
 70
     1
102
RTVSPropertyOp50
 70
     1
102
RTVSPropertyOp51
 70
     0
102
RTVSPropertyOp52
 70
     0
102
RTVSPropertyOp53
 70
     1
102
RTVSPropertyOp54
 70
     1
102
RTVSPropertyOp55
 70
     1
102
RTVSPropertyOp56
 70
     1
102
RTVSPropertyOp57
 70
     1
102
RTVSPost2010Prop28
280
     0
102
RTVSPost2010PropOp28
 70
     1
102
RTVSPost2010Prop29
280
     1
102
RTVSPost2010PropOp29
 70
     1
102
RTVSPost2010Prop30
280
     1
102
RTVSPost2010PropOp30
 70
     1
102
RTVSPost2010Prop31
280
     0
102
RTVSPost2010PropOp31
 70
     1
102
RTVSPost2010Prop32
280
     0
102
RTVSPost2010PropOp32
 70
     1
102
RTVSPost2010Prop33
280
     0
102
RTVSPost2010PropOp33
 70
     1
102
RTVSPost2010Prop34
280
     0
102
RTVSPost2010PropOp34
 70
     1
102
RTVSPost2010Prop35
280
     0
102
RTVSPost2010PropOp35
 70
     1
102
RTVSPost2010Prop36
280
     0
102
RTVSPost2010PropOp36
 70
     1
102
RTVSPost2010Prop37
 90
       50
102
RTVSPost2010PropOp37
 70
     1
102
RTVSPost2010Prop38
140
0.0
102
RTVSPost2010PropOp38
 70
     1
102
RTVSPost2010Prop39
140
1.0
102
RTVSPost2010PropOp39
 70
     1
102
RTVSPost2010Prop40
 90
        0
102
RTVSPost2010PropOp40
 70
     1
102
RTVSPost2010Prop41ColorIndex
 90
       18
102
RTVSPost2010Prop41ColorRGB
 90
        0
102
RTVSPost2010PropOp41
 70
     1
102
RTVSPost2010Prop42
 90
       50
102
RTVSPost2010PropOp42
 70
     1
102
RTVSPost2010Prop43
 90
        3
102
RTVSPost2010PropOp43
 70
     1
102
RTVSPost2010Prop44ColorIndex
 90
        5
102
RTVSPost2010Prop44ColorRGB
 90
      255
102
RTVSPost2010PropOp44
 70
     1
102
RTVSPost2010Prop45
280
     0
102
RTVSPost2010PropOp45
 70
     1
102
RTVSPost2010Prop46
 90
       50
102
RTVSPost2010PropOp46
 70
     1
102
RTVSPost2010Prop47
 90
       50
102
RTVSPost2010PropOp47
 70
     1
102
RTVSPost2010Prop48
 90
       50
102
RTVSPost2010PropOp48
 70
     1
102
RTVSPost2010Prop49
280
     0
102
RTVSPost2010PropOp49
 70
     1
102
RTVSPost2010Prop50
 90
       50
102
RTVSPost2010PropOp50
 70
     1
102
RTVSPost2010Prop51ColorIndex
 90
      256
102
RTVSPost2010Prop51ColorRGB
 90
-16777216
102
RTVSPost2010PropOp51
 70
     0
102
RTVSPost2010Prop52
140
1.0
102
RTVSPost2010PropOp52
 70
     0
102
RTVSPost2010Prop53
 90
        2
102
RTVSPost2010PropOp53
 70
     1
102
RTVSPost2010Prop54
  1
strokes_ogs.tif
102
RTVSPost2010PropOp54
 70
     1
102
RTVSPost2010Prop55
280
     0
102
RTVSPost2010PropOp55
 70
     1
102
RTVSPost2010Prop56
140
1.0
102
RTVSPost2010PropOp56
 70
     1
102
RTVSPost2010Prop57
140
1.0
102
RTVSPost2010PropOp57
 70
     1
  0
XRECORD
  5
638
102
{ACAD_REACTORS
330
637
102
}
330
637
100
AcDbXrecord
280
     1
102
RTVSPropertyOp0
 70
     1
102
RTVSPropertyOp1
 70
     1
102
RTVSPropertyOp2
 70
     1
102
RTVSPropertyOp3
 70
     1
102
RTVSPropertyOp4
 70
     1
102
RTVSPropertyOp5
 70
     1
102
RTVSPropertyOp6
 70
     1
102
RTVSPropertyOp7
 70
     1
102
RTVSPropertyOp8
 70
     1
102
RTVSPropertyOp9
 70
     1
102
RTVSPropertyOp10
 70
     1
102
RTVSPropertyOp11
 70
     1
102
RTVSPropertyOp12
 70
     1
102
RTVSPropertyOp13
 70
     1
102
RTVSPropertyOp14
 70
     1
102
RTVSPropertyOp15
 70
     1
102
RTVSPropertyOp16
 70
     1
102
RTVSPropertyOp17
 70
     1
102
RTVSPropertyOp18
 70
     1
102
RTVSPropertyOp19
 70
     1
102
RTVSPropertyOp20
 70
     1
102
RTVSPropertyOp21
 70
     1
102
RTVSPropertyOp22
 70
     1
102
RTVSPropertyOp23
 70
     1
102
RTVSPropertyOp24
 70
     1
102
RTVSPropertyOp25
 70
     1
102
RTVSPropertyOp26
 70
     1
102
RTVSPropertyOp27
 70
     1
102
RTVSPropertyOp28
 70
     1
102
RTVSPropertyOp29
 70
     1
102
RTVSPropertyOp30
 70
     1
102
RTVSPropertyOp31
 70
     1
102
RTVSPropertyOp32
 70
     1
102
RTVSPropertyOp33
 70
     1
102
RTVSPropertyOp34
 70
     1
102
RTVSPropertyOp35
 70
     1
102
RTVSPropertyOp36
 70
     1
102
RTVSPropertyOp37
 70
     1
102
RTVSPropertyOp38
 70
     1
102
RTVSPropertyOp39
 70
     1
102
RTVSPropertyOp40
 70
     1
102
RTVSPropertyOp41
 70
     1
102
RTVSPropertyOp42
 70
     1
102
RTVSPropertyOp43
 70
     1
102
RTVSPropertyOp44
 70
     1
102
RTVSPropertyOp45
 70
     1
102
RTVSPropertyOp46
 70
     1
102
RTVSPropertyOp47
 70
     1
102
RTVSPropertyOp48
 70
     1
102
RTVSPropertyOp49
 70
     1
102
RTVSPropertyOp50
 70
     1
102
RTVSPropertyOp51
 70
     0
102
RTVSPropertyOp52
 70
     0
102
RTVSPropertyOp53
 70
     1
102
RTVSPropertyOp54
 70
     1
102
RTVSPropertyOp55
 70
     1
102
RTVSPropertyOp56
 70
     1
102
RTVSPropertyOp57
 70
     1
102
RTVSPost2010Prop28
280
     0
102
RTVSPost2010PropOp28
 70
     1
102
RTVSPost2010Prop29
280
     1
102
RTVSPost2010PropOp29
 70
     1
102
RTVSPost2010Prop30
280
     1
102
RTVSPost2010PropOp30
 70
     1
102
RTVSPost2010Prop31
280
     0
102
RTVSPost2010PropOp31
 70
     1
102
RTVSPost2010Prop32
280
     0
102
RTVSPost2010PropOp32
 70
     1
102
RTVSPost2010Prop33
280
     0
102
RTVSPost2010PropOp33
 70
     1
102
RTVSPost2010Prop34
280
     0
102
RTVSPost2010PropOp34
 70
     1
102
RTVSPost2010Prop35
280
     0
102
RTVSPost2010PropOp35
 70
     1
102
RTVSPost2010Prop36
280
     0
102
RTVSPost2010PropOp36
 70
     1
102
RTVSPost2010Prop37
 90
       50
102
RTVSPost2010PropOp37
 70
     1
102
RTVSPost2010Prop38
140
0.0
102
RTVSPost2010PropOp38
 70
     1
102
RTVSPost2010Prop39
140
1.0
102
RTVSPost2010PropOp39
 70
     1
102
RTVSPost2010Prop40
 90
        0
102
RTVSPost2010PropOp40
 70
     1
102
RTVSPost2010Prop41ColorIndex
 90
       18
102
RTVSPost2010Prop41ColorRGB
 90
        0
102
RTVSPost2010PropOp41
 70
     1
102
RTVSPost2010Prop42
 90
       50
102
RTVSPost2010PropOp42
 70
     1
102
RTVSPost2010Prop43
 90
        3
102
RTVSPost2010PropOp43
 70
     1
102
RTVSPost2010Prop44ColorIndex
 90
        5
102
RTVSPost2010Prop44ColorRGB
 90
      255
102
RTVSPost2010PropOp44
 70
     1
102
RTVSPost2010Prop45
280
     0
102
RTVSPost2010PropOp45
 70
     1
102
RTVSPost2010Prop46
 90
       50
102
RTVSPost2010PropOp46
 70
     1
102
RTVSPost2010Prop47
 90
       50
102
RTVSPost2010PropOp47
 70
     1
102
RTVSPost2010Prop48
 90
       50
102
RTVSPost2010PropOp48
 70
     1
102
RTVSPost2010Prop49
280
     0
102
RTVSPost2010PropOp49
 70
     1
102
RTVSPost2010Prop50
 90
       50
102
RTVSPost2010PropOp50
 70
     1
102
RTVSPost2010Prop51ColorIndex
 90
      256
102
RTVSPost2010Prop51ColorRGB
 90
-16777216
102
RTVSPost2010PropOp51
 70
     0
102
RTVSPost2010Prop52
140
1.0
102
RTVSPost2010PropOp52
 70
     0
102
RTVSPost2010Prop53
 90
        2
102
RTVSPost2010PropOp53
 70
     1
102
RTVSPost2010Prop54
  1
strokes_ogs.tif
102
RTVSPost2010PropOp54
 70
     1
102
RTVSPost2010Prop55
280
     0
102
RTVSPost2010PropOp55
 70
     1
102
RTVSPost2010Prop56
140
1.0
102
RTVSPost2010PropOp56
 70
     1
102
RTVSPost2010Prop57
140
1.0
102
RTVSPost2010PropOp57
 70
     1
  0
XRECORD
  5
658
102
{ACAD_REACTORS
330
657
102
}
330
657
100
AcDbXrecord
280
     1
102
RTVSPropertyOp0
 70
     1
102
RTVSPropertyOp1
 70
     1
102
RTVSPropertyOp2
 70
     1
102
RTVSPropertyOp3
 70
     1
102
RTVSPropertyOp4
 70
     1
102
RTVSPropertyOp5
 70
     1
102
RTVSPropertyOp6
 70
     1
102
RTVSPropertyOp7
 70
     1
102
RTVSPropertyOp8
 70
     1
102
RTVSPropertyOp9
 70
     1
102
RTVSPropertyOp10
 70
     1
102
RTVSPropertyOp11
 70
     1
102
RTVSPropertyOp12
 70
     1
102
RTVSPropertyOp13
 70
     1
102
RTVSPropertyOp14
 70
     1
102
RTVSPropertyOp15
 70
     1
102
RTVSPropertyOp16
 70
     1
102
RTVSPropertyOp17
 70
     1
102
RTVSPropertyOp18
 70
     1
102
RTVSPropertyOp19
 70
     1
102
RTVSPropertyOp20
 70
     1
102
RTVSPropertyOp21
 70
     1
102
RTVSPropertyOp22
 70
     1
102
RTVSPropertyOp23
 70
     1
102
RTVSPropertyOp24
 70
     1
102
RTVSPropertyOp25
 70
     1
102
RTVSPropertyOp26
 70
     1
102
RTVSPropertyOp27
 70
     1
102
RTVSPropertyOp28
 70
     1
102
RTVSPropertyOp29
 70
     1
102
RTVSPropertyOp30
 70
     1
102
RTVSPropertyOp31
 70
     1
102
RTVSPropertyOp32
 70
     1
102
RTVSPropertyOp33
 70
     1
102
RTVSPropertyOp34
 70
     1
102
RTVSPropertyOp35
 70
     1
102
RTVSPropertyOp36
 70
     1
102
RTVSPropertyOp37
 70
     1
102
RTVSPropertyOp38
 70
     1
102
RTVSPropertyOp39
 70
     1
102
RTVSPropertyOp40
 70
     1
102
RTVSPropertyOp41
 70
     1
102
RTVSPropertyOp42
 70
     1
102
RTVSPropertyOp43
 70
     1
102
RTVSPropertyOp44
 70
     1
102
RTVSPropertyOp45
 70
     1
102
RTVSPropertyOp46
 70
     1
102
RTVSPropertyOp47
 70
     1
102
RTVSPropertyOp48
 70
     1
102
RTVSPropertyOp49
 70
     1
102
RTVSPropertyOp50
 70
     1
102
RTVSPropertyOp51
 70
     0
102
RTVSPropertyOp52
 70
     0
102
RTVSPropertyOp53
 70
     1
102
RTVSPropertyOp54
 70
     1
102
RTVSPropertyOp55
 70
     1
102
RTVSPropertyOp56
 70
     1
102
RTVSPropertyOp57
 70
     1
102
RTVSPost2010Prop28
280
     0
102
RTVSPost2010PropOp28
 70
     1
102
RTVSPost2010Prop29
280
     1
102
RTVSPost2010PropOp29
 70
     1
102
RTVSPost2010Prop30
280
     1
102
RTVSPost2010PropOp30
 70
     1
102
RTVSPost2010Prop31
280
     0
102
RTVSPost2010PropOp31
 70
     1
102
RTVSPost2010Prop32
280
     0
102
RTVSPost2010PropOp32
 70
     1
102
RTVSPost2010Prop33
280
     0
102
RTVSPost2010PropOp33
 70
     1
102
RTVSPost2010Prop34
280
     0
102
RTVSPost2010PropOp34
 70
     1
102
RTVSPost2010Prop35
280
     0
102
RTVSPost2010PropOp35
 70
     1
102
RTVSPost2010Prop36
280
     0
102
RTVSPost2010PropOp36
 70
     1
102
RTVSPost2010Prop37
 90
       50
102
RTVSPost2010PropOp37
 70
     1
102
RTVSPost2010Prop38
140
0.0
102
RTVSPost2010PropOp38
 70
     1
102
RTVSPost2010Prop39
140
1.0
102
RTVSPost2010PropOp39
 70
     1
102
RTVSPost2010Prop40
 90
        0
102
RTVSPost2010PropOp40
 70
     1
102
RTVSPost2010Prop41ColorIndex
 90
       18
102
RTVSPost2010Prop41ColorRGB
 90
        0
102
RTVSPost2010PropOp41
 70
     1
102
RTVSPost2010Prop42
 90
       50
102
RTVSPost2010PropOp42
 70
     1
102
RTVSPost2010Prop43
 90
        3
102
RTVSPost2010PropOp43
 70
     1
102
RTVSPost2010Prop44ColorIndex
 90
        5
102
RTVSPost2010Prop44ColorRGB
 90
      255
102
RTVSPost2010PropOp44
 70
     1
102
RTVSPost2010Prop45
280
     0
102
RTVSPost2010PropOp45
 70
     1
102
RTVSPost2010Prop46
 90
       50
102
RTVSPost2010PropOp46
 70
     1
102
RTVSPost2010Prop47
 90
       50
102
RTVSPost2010PropOp47
 70
     1
102
RTVSPost2010Prop48
 90
       50
102
RTVSPost2010PropOp48
 70
     1
102
RTVSPost2010Prop49
280
     0
102
RTVSPost2010PropOp49
 70
     1
102
RTVSPost2010Prop50
 90
       50
102
RTVSPost2010PropOp50
 70
     1
102
RTVSPost2010Prop51ColorIndex
 90
      256
102
RTVSPost2010Prop51ColorRGB
 90
-16777216
102
RTVSPost2010PropOp51
 70
     0
102
RTVSPost2010Prop52
140
1.0
102
RTVSPost2010PropOp52
 70
     0
102
RTVSPost2010Prop53
 90
        2
102
RTVSPost2010PropOp53
 70
     1
102
RTVSPost2010Prop54
  1
strokes_ogs.tif
102
RTVSPost2010PropOp54
 70
     1
102
RTVSPost2010Prop55
280
     0
102
RTVSPost2010PropOp55
 70
     1
102
RTVSPost2010Prop56
140
1.0
102
RTVSPost2010PropOp56
 70
     1
102
RTVSPost2010Prop57
140
1.0
102
RTVSPost2010PropOp57
 70
     1
  0
ENDSEC
  0
EOF
