  0
SECTION
  2
HEADER
  9
$ACADVER
  1
AC1015
  9
$ACADMAINTVER
 70
     6
  9
$DWGCODEPAGE
  3
ANSI_932
  9
$INSBASE
 10
573.9525138845856
 20
514.3356693042533
 30
0.0
  9
$EXTMIN
 10
63.84822234697748
 20
9.35353235412569
 30
0.0
  9
$EXTMAX
 10
572.5701570568096
 20
468.1422350133306
 30
0.0
  9
$LIMMIN
 10
0.0
 20
0.0
  9
$LIMMAX
 10
816.5000000000001
 20
565.0
  9
$ORTHOMODE
 70
     1
  9
$REGENMODE
 70
     1
  9
$FILLMODE
 70
     1
  9
$QTEXTMODE
 70
     0
  9
$MIRRTEXT
 70
     1
  9
$LTSCALE
 40
5.0
  9
$ATTMODE
 70
     1
  9
$TEXTSIZE
 40
4.5
  9
$TRACEWID
 40
0.05
  9
$TEXTSTYLE
  7
KANJI
  9
$CLAYER
  8
2
  9
$CELTYPE
  6
BYLAYER
  9
$CECOLOR
 62
   256
  9
$CELTSCALE
 40
1.0
  9
$DISPSILH
 70
     0
  9
$DIMSCALE
 40
1.5
  9
$DIMASZ
 40
2.0
  9
$DIMEXO
 40
0.5
  9
$DIMDLI
 40
0.0
  9
$DIMRND
 40
0.0
  9
$DIMDLE
 40
0.0
  9
$DIMEXE
 40
1.0
  9
$DIMTP
 40
0.0
  9
$DIMTM
 40
0.0
  9
$DIMTXT
 40
3.0
  9
$DIMCEN
 40
0.09
  9
$DIMTSZ
 40
0.0
  9
$DIMTOL
 70
     0
  9
$DIMLIM
 70
     0
  9
$DIMTIH
 70
     0
  9
$DIMTOH
 70
     0
  9
$DIMSE1
 70
     0
  9
$DIMSE2
 70
     0
  9
$DIMTAD
 70
     0
  9
$DIMZIN
 70
     8
  9
$DIMBLK
  1

  9
$DIMASO
 70
     0
  9
$DIMSHO
 70
     0
  9
$DIMPOST
  1

  9
$DIMAPOST
  1

  9
$DIMALT
 70
     0
  9
$DIMALTD
 70
     2
  9
$DIMALTF
 40
25.4
  9
$DIMLFAC
 40
1.0
  9
$DIMTOFL
 70
     1
  9
$DIMTVP
 40
1.0
  9
$DIMTIX
 70
     1
  9
$DIMSOXD
 70
     1
  9
$DIMSAH
 70
     0
  9
$DIMBLK1
  1

  9
$DIMBLK2
  1

  9
$DIMSTYLE
  2
STANDARD
  9
$DIMCLRD
 70
   256
  9
$DIMCLRE
 70
   256
  9
$DIMCLRT
 70
   256
  9
$DIMTFAC
 40
1.0
  9
$DIMGAP
 40
0.09
  9
$DIMJUST
 70
     0
  9
$DIMSD1
 70
     0
  9
$DIMSD2
 70
     0
  9
$DIMTOLJ
 70
     1
  9
$DIMTZIN
 70
     0
  9
$DIMALTZ
 70
     0
  9
$DIMALTTZ
 70
     0
  9
$DIMUPT
 70
     0
  9
$DIMDEC
 70
     1
  9
$DIMTDEC
 70
     4
  9
$DIMALTU
 70
     2
  9
$DIMALTTD
 70
     2
  9
$DIMTXSTY
  7
STANDARD
  9
$DIMAUNIT
 70
     0
  9
$DIMADEC
 70
     0
  9
$DIMALTRND
 40
0.0
  9
$DIMAZIN
 70
     0
  9
$DIMDSEP
 70
    46
  9
$DIMATFIT
 70
     3
  9
$DIMFRAC
 70
     0
  9
$DIMLDRBLK
  1

  9
$DIMLUNIT
 70
     2
  9
$DIMLWD
 70
    -2
  9
$DIMLWE
 70
    -2
  9
$DIMTMOVE
 70
     0
  9
$LUNITS
 70
     2
  9
$LUPREC
 70
     3
  9
$SKETCHINC
 40
0.1
  9
$FILLETRAD
 40
1.0
  9
$AUNITS
 70
     0
  9
$AUPREC
 70
     3
  9
$MENU
  1
C:\R13\WIN\SUPPORT\ACADFULL
  9
$ELEVATION
 40
0.0
  9
$PELEVATION
 40
0.0
  9
$THICKNESS
 40
0.0
  9
$LIMCHECK
 70
     0
  9
$CHAMFERA
 40
0.0
  9
$CHAMFERB
 40
0.0
  9
$CHAMFERC
 40
0.0
  9
$CHAMFERD
 40
0.0
  9
$SKPOLY
 70
     0
  9
$TDCREATE
 40
2457322.70698941
  9
$TDUCREATE
 40
2457322.33198941
  9
$TDUPDATE
 40
2457870.604091852
  9
$TDUUPDATE
 40
2457870.229091852
  9
$TDINDWG
 40
0.0078284838
  9
$TDUSRTIMER
 40
0.0078279282
  9
$USRTIMER
 70
     1
  9
$ANGBASE
 50
0.0
  9
$ANGDIR
 70
     0
  9
$PDMODE
 70
     0
  9
$PDSIZE
 40
0.0
  9
$PLINEWID
 40
0.0
  9
$SPLFRAME
 70
     0
  9
$SPLINETYPE
 70
     6
  9
$SPLINESEGS
 70
     8
  9
$HANDSEED
  5
542
  9
$SURFTAB1
 70
     6
  9
$SURFTAB2
 70
     6
  9
$SURFTYPE
 70
     6
  9
$SURFU
 70
     6
  9
$SURFV
 70
     6
  9
$UCSBASE
  2

  9
$UCSNAME
  2

  9
$UCSORG
 10
0.0
 20
0.0
 30
0.0
  9
$UCSXDIR
 10
1.0
 20
0.0
 30
0.0
  9
$UCSYDIR
 10
0.0
 20
1.0
 30
0.0
  9
$UCSORTHOREF
  2

  9
$UCSORTHOVIEW
 70
     0
  9
$UCSORGTOP
 10
0.0
 20
0.0
 30
0.0
  9
$UCSORGBOTTOM
 10
0.0
 20
0.0
 30
0.0
  9
$UCSORGLEFT
 10
0.0
 20
0.0
 30
0.0
  9
$UCSORGRIGHT
 10
0.0
 20
0.0
 30
0.0
  9
$UCSORGFRONT
 10
0.0
 20
0.0
 30
0.0
  9
$UCSORGBACK
 10
0.0
 20
0.0
 30
0.0
  9
$PUCSBASE
  2

  9
$PUCSNAME
  2

  9
$PUCSORG
 10
0.0
 20
0.0
 30
0.0
  9
$PUCSXDIR
 10
1.0
 20
0.0
 30
0.0
  9
$PUCSYDIR
 10
0.0
 20
1.0
 30
0.0
  9
$PUCSORTHOREF
  2

  9
$PUCSORTHOVIEW
 70
     0
  9
$PUCSORGTOP
 10
0.0
 20
0.0
 30
0.0
  9
$PUCSORGBOTTOM
 10
0.0
 20
0.0
 30
0.0
  9
$PUCSORGLEFT
 10
0.0
 20
0.0
 30
0.0
  9
$PUCSORGRIGHT
 10
0.0
 20
0.0
 30
0.0
  9
$PUCSORGFRONT
 10
0.0
 20
0.0
 30
0.0
  9
$PUCSORGBACK
 10
0.0
 20
0.0
 30
0.0
  9
$USERI1
 70
     0
  9
$USERI2
 70
     0
  9
$USERI3
 70
     0
  9
$USERI4
 70
     0
  9
$USERI5
 70
     0
  9
$USERR1
 40
0.0
  9
$USERR2
 40
0.0
  9
$USERR3
 40
0.0
  9
$USERR4
 40
2448925.372986111
  9
$USERR5
 40
0.04166667
  9
$WORLDVIEW
 70
     1
  9
$SHADEDGE
 70
     3
  9
$SHADEDIF
 70
    70
  9
$TILEMODE
 70
     1
  9
$MAXACTVP
 70
    16
  9
$PINSBASE
 10
0.0
 20
0.0
 30
0.0
  9
$PLIMCHECK
 70
     0
  9
$PEXTMIN
 10
1.000000000000000E+20
 20
1.000000000000000E+20
 30
1.000000000000000E+20
  9
$PEXTMAX
 10
-1.000000000000000E+20
 20
-1.000000000000000E+20
 30
-1.000000000000000E+20
  9
$PLIMMIN
 10
0.0
 20
0.0
  9
$PLIMMAX
 10
12.0
 20
9.0
  9
$UNITMODE
 70
     0
  9
$VISRETAIN
 70
     0
  9
$PLINEGEN
 70
     0
  9
$PSLTSCALE
 70
     0
  9
$TREEDEPTH
 70
  3020
  9
$CMLSTYLE
  2
STANDARD
  9
$CMLJUST
 70
     0
  9
$CMLSCALE
 40
1.0
  9
$PROXYGRAPHICS
 70
     1
  9
$MEASUREMENT
 70
     0
  9
$CELWEIGHT
370
    -1
  9
$ENDCAPS
280
     0
  9
$JOINSTYLE
280
     0
  9
$LWDISPLAY
290
     0
  9
$INSUNITS
 70
     0
  9
$HYPERLINKBASE
  1

  9
$STYLESHEET
  1
monochrome.ctb
  9
$XEDIT
290
     1
  9
$CEPSNTYPE
380
     0
  9
$PSTYLEMODE
290
     1
  9
$FINGERPRINTGUID
  2
{99066774-8038-4758-AA49-372A0CEE91BF}
  9
$VERSIONGUID
  2
{4E572705-026B-4D20-BA74-74A6288DEB47}
  9
$EXTNAMES
290
     1
  9
$PSVPSCALE
 40
0.0
  9
$OLESTARTUP
290
     0
  0
ENDSEC
  0
SECTION
  2
CLASSES
  0
CLASS
  1
LWPOLYLINE
  2
AcDbPolyline
  3
AutoCAD 2000
 90
        0
280
     0
281
     1
  0
CLASS
  1
ACDBDICTIONARYWDFLT
  2
AcDbDictionaryWithDefault
  3
ObjectDBX Classes
 90
        0
280
     0
281
     0
  0
CLASS
  1
ACDBPLACEHOLDER
  2
AcDbPlaceHolder
  3
ObjectDBX Classes
 90
        0
280
     0
281
     0
  0
CLASS
  1
LAYOUT
  2
AcDbLayout
  3
ObjectDBX Classes
 90
        0
280
     0
281
     0
  0
CLASS
  1
DICTIONARYVAR
  2
AcDbDictionaryVar
  3
ObjectDBX Classes
 90
        0
280
     0
281
     0
  0
CLASS
  1
DUMMY
  2
AcDbLongTransaction
  3
DUMMY
 90
        0
280
     0
281
     0
  0
CLASS
  1
LWPOLYLINE
  2
AcDbPolyline
  3
AutoCAD 2000
 90
        0
280
     0
281
     1
  0
CLASS
  1
HATCH
  2
AcDbHatch
  3
AutoCAD 2000
 90
        0
280
     0
281
     1
  0
CLASS
  1
XRECORD
  2
AcDbXrecord
  3
AutoCAD 2000
 90
        0
280
     0
281
     0
  0
CLASS
  1
DUMMY
  2
AcDbLongTransaction
  3
DUMMY
 90
        0
280
     0
281
     0
  0
CLASS
  1
LWPOLYLINE
  2
AcDbPolyline
  3
AutoCAD 2000
 90
        0
280
     0
281
     1
  0
CLASS
  1
HATCH
  2
AcDbHatch
  3
AutoCAD 2000
 90
        0
280
     0
281
     1
  0
CLASS
  1
XRECORD
  2
AcDbXrecord
  3
AutoCAD 2000
 90
        0
280
     0
281
     0
  0
CLASS
  1
DUMMY
  2
AcDbLongTransaction
  3
DUMMY
 90
        0
280
     0
281
     0
  0
CLASS
  1
LWPOLYLINE
  2
AcDbPolyline
  3
AutoCAD 2000
 90
        0
280
     0
281
     1
  0
CLASS
  1
HATCH
  2
AcDbHatch
  3
AutoCAD 2000
 90
        0
280
     0
281
     1
  0
CLASS
  1
XRECORD
  2
AcDbXrecord
  3
AutoCAD 2000
 90
        0
280
     0
281
     0
  0
CLASS
  1
DUMMY
  2
AcDbLongTransaction
  3
DUMMY
 90
        0
280
     0
281
     0
  0
CLASS
  1
LWPOLYLINE
  2
AcDbPolyline
  3
AutoCAD 2000
 90
        0
280
     0
281
     1
  0
CLASS
  1
HATCH
  2
AcDbHatch
  3
AutoCAD 2000
 90
        0
280
     0
281
     1
  0
CLASS
  1
XRECORD
  2
AcDbXrecord
  3
AutoCAD 2000
 90
        0
280
     0
281
     0
  0
CLASS
  1
MATERIAL
  2
AcDbMaterial
  3
ObjectDBX Classes
 90
     1153
280
     0
281
     0
  0
CLASS
  1
VISUALSTYLE
  2
AcDbVisualStyle
  3
ObjectDBX Classes
 90
     4095
280
     0
281
     0
  0
CLASS
  1
TABLESTYLE
  2
AcDbTableStyle
  3
ObjectDBX Classes
 90
     4095
280
     0
281
     0
  0
CLASS
  1
SCALE
  2
AcDbScale
  3
ObjectDBX Classes
 90
     1153
280
     0
281
     0
  0
CLASS
  1
MLEADERSTYLE
  2
AcDbMLeaderStyle
  3
ACDB_MLEADERSTYLE_CLASS
 90
     4095
280
     0
281
     0
  0
CLASS
  1
ACDBSECTIONVIEWSTYLE
  2
AcDbSectionViewStyle
  3
ObjectDBX Classes
 90
     1025
280
     0
281
     0
  0
CLASS
  1
ACDBDETAILVIEWSTYLE
  2
AcDbDetailViewStyle
  3
ObjectDBX Classes
 90
     1025
280
     0
281
     0
  0
CLASS
  1
SORTENTSTABLE
  2
AcDbSortentsTable
  3
ObjectDBX Classes
 90
        0
280
     0
281
     0
  0
ENDSEC
  0
SECTION
  2
TABLES
  0
TABLE
  2
VPORT
  5
2C
102
{ACAD_XDICTIONARY
360
506
102
}
330
0
100
AcDbSymbolTable
 70
     1
  0
VPORT
  5
2D
330
2C
100
AcDbSymbolTableRecord
100
AcDbViewportTableRecord
  2
*Active
 70
     0
 10
0.0
 20
0.0
 11
1.0
 21
1.0
 12
424.2063724520988
 22
194.7318059929231
 13
0.0
 23
0.0
 14
1.0
 24
1.0
 15
50.0
 25
50.0
 16
0.0
 26
0.0
 36
1.0
 17
0.0
 27
0.0
 37
0.0
 40
565.7423625020716
 41
2.171641791044776
 42
50.0
 43
0.0
 44
0.0
 50
0.0
 51
0.0
 71
     0
 72
  5000
 73
     1
 74
     0
 75
     0
 76
     0
 77
     0
 78
     0
281
     0
 65
     1
110
0.0
120
0.0
130
0.0
111
1.0
121
0.0
131
0.0
112
0.0
122
1.0
132
0.0
 79
     0
146
0.0
1001
ACAD_NAV_VCDISPLAY
1070
     3
  0
ENDTAB
  0
TABLE
  2
LTYPE
  5
27
330
0
100
AcDbSymbolTable
 70
     2
  0
LTYPE
  5
28
330
27
100
AcDbSymbolTableRecord
100
AcDbLinetypeTableRecord
  2
BYBLOCK
 70
     0
  3

 72
    65
 73
     0
 40
0.0
  0
LTYPE
  5
29
330
27
100
AcDbSymbolTableRecord
100
AcDbLinetypeTableRecord
  2
BYLAYER
 70
     0
  3

 72
    65
 73
     0
 40
0.0
  0
LTYPE
  5
16
330
27
100
AcDbSymbolTableRecord
100
AcDbLinetypeTableRecord
  2
CONTINUOUS
 70
     0
  3
Solid line
 72
    65
 73
     0
 40
0.0
  0
LTYPE
  5
6C
330
27
100
AcDbSymbolTableRecord
100
AcDbLinetypeTableRecord
  2
CENTER
 70
     0
  3
____ _ ____ _ ____ _ ____ _ ____ _ ____ _ ____
 72
    65
 73
     4
 40
2.0
 49
1.25
 74
     0
 49
-0.25
 74
     0
 49
0.25
 74
     0
 49
-0.25
 74
     0
  0
ENDTAB
  0
TABLE
  2
LAYER
  5
21
102
{ACAD_XDICTIONARY
360
22
102
}
330
0
100
AcDbSymbolTable
 70
     8
  0
LAYER
  5
7
102
{ACAD_XDICTIONARY
360
8
102
}
330
21
100
AcDbSymbolTableRecord
100
AcDbLayerTableRecord
  2
0
 70
     0
 62
     7
  6
CONTINUOUS
370
    -3
390
A
  0
LAYER
  5
2B9
102
{ACAD_XDICTIONARY
360
2BA
102
}
330
21
100
AcDbSymbolTableRecord
100
AcDbLayerTableRecord
  2
1
 70
     0
 62
     9
  6
CONTINUOUS
370
    -3
390
A
  0
LAYER
  5
4C
102
{ACAD_XDICTIONARY
360
4D
102
}
330
21
100
AcDbSymbolTableRecord
100
AcDbLayerTableRecord
  2
2
 70
     0
 62
     4
  6
CONTINUOUS
370
    -3
390
A
  0
LAYER
  5
6E
102
{ACAD_XDICTIONARY
360
6F
102
}
330
21
100
AcDbSymbolTableRecord
100
AcDbLayerTableRecord
  2
4
 70
     0
 62
     3
  6
CONTINUOUS
370
    -3
390
A
  0
LAYER
  5
69
102
{ACAD_XDICTIONARY
360
6A
102
}
330
21
100
AcDbSymbolTableRecord
100
AcDbLayerTableRecord
  2
L-CENTER
 70
     0
 62
     1
  6
CENTER
370
    -3
390
A
  0
LAYER
  5
88
102
{ACAD_XDICTIONARY
360
89
102
}
330
21
100
AcDbSymbolTableRecord
100
AcDbLayerTableRecord
  2
3
 70
     0
 62
     2
  6
CONTINUOUS
370
    -3
390
A
  0
LAYER
  5
2B2
330
21
100
AcDbSymbolTableRecord
100
AcDbLayerTableRecord
  2
5
 70
     0
 62
     6
  6
CONTINUOUS
370
    -3
390
A
  0
LAYER
  5
4D1
330
21
100
AcDbSymbolTableRecord
100
AcDbLayerTableRecord
  2
Defpoints
 70
     0
 62
     7
  6
CONTINUOUS
290
     0
370
    -3
390
A
  0
ENDTAB
  0
TABLE
  2
STYLE
  5
24
330
0
100
AcDbSymbolTable
 70
     2
  0
STYLE
  5
25
330
24
100
AcDbSymbolTableRecord
100
AcDbTextStyleTableRecord
  2
STANDARD
 70
     0
 40
0.0
 41
1.0
 50
0.0
 71
     0
 42
2.7
  3
TXT
  4

  0
STYLE
  5
4F
330
24
100
AcDbSymbolTableRecord
100
AcDbTextStyleTableRecord
  2
KANJI
 70
     0
 40
0.0
 41
1.0
 50
0.0
 71
     0
 42
4.5
  3
TXT
  4
BIGFONT
  0
ENDTAB
  0
TABLE
  2
VIEW
  5
2A
330
0
100
AcDbSymbolTable
 70
     0
  0
ENDTAB
  0
TABLE
  2
UCS
  5
2B
330
0
100
AcDbSymbolTable
 70
     0
  0
ENDTAB
  0
TABLE
  2
APPID
  5
31
330
0
100
AcDbSymbolTable
 70
     5
  0
APPID
  5
32
330
31
100
AcDbSymbolTableRecord
100
AcDbRegAppTableRecord
  2
ACAD
 70
     0
  0
APPID
  5
30
330
31
100
AcDbSymbolTableRecord
100
AcDbRegAppTableRecord
  2
ACAD_NAV_VCDISPLAY
 70
     0
  0
APPID
  5
48B
330
31
100
AcDbSymbolTableRecord
100
AcDbRegAppTableRecord
  2
ACAD_PSEXT
 70
     0
  0
APPID
  5
4A1
330
31
100
AcDbSymbolTableRecord
100
AcDbRegAppTableRecord
  2
ACAD_EXEMPT_FROM_CAD_STANDARDS
 70
     0
  0
APPID
  5
4BF
330
31
100
AcDbSymbolTableRecord
100
AcDbRegAppTableRecord
  2
ACAD_MLEADERVER
 70
     0
  0
ENDTAB
  0
TABLE
  2
DIMSTYLE
  5
33
330
0
100
AcDbSymbolTable
 70
     1
100
AcDbDimStyleTable
  0
DIMSTYLE
105
54
330
33
100
AcDbSymbolTableRecord
100
AcDbDimStyleTableRecord
  2
STANDARD
 70
     0
178
     0
340
25
  0
ENDTAB
  0
TABLE
  2
BLOCK_RECORD
  5
1
330
0
100
AcDbSymbolTable
 70
     0
  0
BLOCK_RECORD
  5
2
102
{ACAD_XDICTIONARY
360
3
102
}
330
1
100
AcDbSymbolTableRecord
100
AcDbBlockTableRecord
  2
*MODEL_SPACE
340
18
  0
BLOCK_RECORD
  5
1B
330
1
100
AcDbSymbolTableRecord
100
AcDbBlockTableRecord
  2
*PAPER_SPACE
340
20
  0
ENDTAB
  0
ENDSEC
  0
SECTION
  2
BLOCKS
  0
BLOCK
  5
6
330
2
100
AcDbEntity
  8
0
100
AcDbBlockBegin
  2
*MODEL_SPACE
 70
     0
 10
0.0
 20
0.0
 30
0.0
  3
*MODEL_SPACE
  1

  0
ENDBLK
  5
17
330
2
100
AcDbEntity
  8
0
100
AcDbBlockEnd
  0
BLOCK
  5
1E
330
1B
100
AcDbEntity
 67
     1
  8
0
100
AcDbBlockBegin
  2
*PAPER_SPACE
 70
     0
 10
0.0
 20
0.0
 30
0.0
  3
*PAPER_SPACE
  1

  0
ENDBLK
  5
1F
330
1B
100
AcDbEntity
 67
     1
  8
0
100
AcDbBlockEnd
  0
ENDSEC
  0
SECTION
  2
ENTITIES
  0
LINE
  5
68
330
2
100
AcDbEntity
  8
L-CENTER
 48
1.5
100
AcDbLine
 10
521.7178855765399
 20
84.36525954247156
 30
0.0
 11
365.6143783035146
 21
84.36525954247156
 31
0.0
  0
LINE
  5
6D
330
2
100
AcDbEntity
  8
4
100
AcDbLine
 10
381.6241360765399
 20
130.6152590424715
 30
0.0
 11
373.6241365765398
 21
111.3652595424716
 31
0.0
  0
LINE
  5
71
330
2
100
AcDbEntity
  8
4
100
AcDbLine
 10
381.6241360765399
 20
39.11545704247158
 30
0.0
 11
373.6241365765398
 21
58.36545804247146
 31
0.0
  0
LINE
  5
75
330
2
100
AcDbEntity
  8
4
100
AcDbLine
 10
240.5815844258607
 20
117.3652595424716
 30
0.0
 11
240.5815844258607
 21
157.3652595424716
 31
0.0
  0
LINE
  5
76
330
2
100
AcDbEntity
  8
4
100
AcDbLine
 10
112.5815844258609
 20
157.3652595424717
 30
0.0
 11
112.5815844258609
 21
117.3652595424716
 31
0.0
  0
LINE
  5
77
330
2
100
AcDbEntity
  8
4
100
AcDbLine
 10
112.5815844258607
 20
117.3652595424716
 30
0.0
 11
112.5815844258607
 21
157.3652595424716
 31
0.0
  0
LINE
  5
78
330
2
100
AcDbEntity
  8
4
100
AcDbLine
 10
256.5815089258606
 20
144.8652590424715
 30
0.0
 11
256.5815089258606
 21
129.8652590424715
 31
0.0
  0
LINE
  5
79
330
2
100
AcDbEntity
  8
4
100
AcDbLine
 10
286.0815079258608
 20
144.3652595424714
 30
0.0
 11
286.0815079258608
 21
130.3652600424715
 31
0.0
  0
LINE
  5
7A
330
2
100
AcDbEntity
  8
4
100
AcDbLine
 10
286.5815089258606
 20
146.3652590424715
 30
0.0
 11
286.5815089258606
 21
130.8652595424714
 31
0.0
  0
ARC
  5
7B
330
2
100
AcDbEntity
  8
4
100
AcDbCircle
 10
176.581584425861
 20
-35.63474045752844
 30
0.0
 40
180.0
100
AcDbArc
 50
73.47017294928303
 51
87.34005047028424
  0
ARC
  5
7C
330
2
100
AcDbEntity
  8
4
100
AcDbCircle
 10
176.581584425861
 20
-35.63474045752844
 30
0.0
 40
180.0
100
AcDbArc
 50
92.65994952971597
 51
106.5298270507171
  0
LINE
  5
7E
330
2
100
AcDbEntity
  8
L-CENTER
 48
1.5
100
AcDbLine
 10
176.5815844258607
 20
170.7644300424714
 30
0.0
 11
176.5815844258607
 21
19.771558193224
 31
0.0
  0
ARC
  5
7F
330
2
100
AcDbEntity
  8
4
100
AcDbCircle
 10
176.5815844258607
 20
84.36525954247156
 30
0.0
 40
58.0
100
AcDbArc
 50
102.3091627059809
 51
269.5840313378258
  0
ARC
  5
80
330
2
100
AcDbEntity
  8
4
100
AcDbCircle
 10
176.5815844258606
 20
84.36525954247156
 30
0.0
 40
58.0
100
AcDbArc
 50
270.4159686621741
 51
77.69083729401903
  0
LINE
  5
81
330
2
100
AcDbEntity
  8
4
100
AcDbLine
 10
113.5815844258609
 20
163.3652595424716
 30
0.0
 11
113.5815844258609
 21
111.3652595424716
 31
0.0
  0
LINE
  5
82
330
2
100
AcDbEntity
  8
4
100
AcDbLine
 10
113.5815844258609
 20
166.3652595424716
 30
0.0
 11
113.5815844258609
 21
108.3652595424716
 31
0.0
  0
LINE
  5
83
330
2
100
AcDbEntity
  8
4
100
AcDbLine
 10
239.5815844258607
 20
108.3652595424716
 30
0.0
 11
239.5815844258607
 21
166.3652595424716
 31
0.0
  0
LINE
  5
85
330
2
100
AcDbEntity
  8
L-CENTER
 48
1.5
100
AcDbLine
 10
289.4550734691857
 20
137.3652595424716
 30
0.0
 11
64.06784649056384
 21
137.3652595424714
 31
0.0
  0
ARC
  5
86
330
2
100
AcDbEntity
  8
4
100
AcDbCircle
 10
176.581584425861
 20
204.3652595424716
 30
0.0
 40
180.0
100
AcDbArc
 50
269.9999999999999
 51
282.9466515969071
  0
ARC
  5
8E
330
2
100
AcDbEntity
  8
4
100
AcDbCircle
 10
176.5815844258607
 20
207.3652595424718
 30
0.0
 40
150.0
100
AcDbArc
 50
261.274950690954
 51
278.7250493090459
  0
ARC
  5
8F
330
2
100
AcDbEntity
  8
4
100
AcDbCircle
 10
176.5815844258607
 20
208.3652595424718
 30
0.0
 40
150.0
100
AcDbArc
 50
261.6175694223651
 51
278.3824305776348
  0
LINE
  5
90
330
2
100
AcDbEntity
  8
4
100
AcDbLine
 10
217.5815844258607
 20
24.36525954247156
 30
0.0
 11
135.5815844258606
 21
24.36525954247156
 31
0.0
  0
LINE
  5
91
330
2
100
AcDbEntity
  8
L-CENTER
 48
1.5
100
AcDbLine
 10
239.4896533318702
 20
84.36525954247156
 30
0.0
 11
111.6744649258607
 21
84.36525954247156
 31
0.0
  0
ARC
  5
92
330
2
100
AcDbEntity
  8
4
100
AcDbCircle
 10
176.5815844258606
 20
-39.63474045752844
 30
0.0
 40
150.0
100
AcDbArc
 50
81.61756942236518
 51
98.38243057763482
  0
ARC
  5
93
330
2
100
AcDbEntity
  8
4
100
AcDbCircle
 10
176.5815844258606
 20
-38.63474045752844
 30
0.0
 40
150.0
100
AcDbArc
 50
81.27495069095411
 51
98.72504930904587
  0
ARC
  5
94
330
2
100
AcDbEntity
  8
4
100
AcDbCircle
 10
176.5815844258607
 20
84.36525954247156
 30
0.0
 40
47.0
100
AcDbArc
 50
269.9999999999999
 51
69.14440594131996
  0
LINE
  5
B6
330
2
100
AcDbEntity
  8
4
100
AcDbLine
 10
116.581584425861
 20
37.86525954247156
 30
0.0
 11
116.581584425861
 21
37.36525954247156
 31
0.0
  0
ARC
  5
B7
330
2
100
AcDbEntity
  8
4
100
AcDbCircle
 10
119.4573342510183
 20
38.36525954247156
 30
0.0
 40
3.0
100
AcDbArc
 50
270.0
 51
14.55836687017033
  0
LINE
  5
B8
330
2
100
AcDbEntity
  8
L-CENTER
 48
1.5
100
AcDbLine
 10
111.5815844258606
 20
40.36525954247156
 30
0.0
 11
111.5815844258606
 21
14.36525954247156
 31
0.0
  0
ARC
  5
B9
330
2
100
AcDbEntity
  8
4
100
AcDbCircle
 10
176.5815844258607
 20
84.36525954247156
 30
0.0
 40
47.0
100
AcDbArc
 50
110.85559405868
 51
270.0
  0
ARC
  5
BA
330
2
100
AcDbEntity
  8
4
100
AcDbCircle
 10
114.581584425861
 20
37.36525954247156
 30
0.0
 40
2.0
100
AcDbArc
 50
270.0
 51
0.0
  0
LINE
  5
BB
330
2
100
AcDbEntity
  8
4
100
AcDbLine
 10
99.58158442586063
 20
35.36525954247156
 30
0.0
 11
131.5815844258605
 21
35.36525954247156
 31
0.0
  0
LINE
  5
BC
330
2
100
AcDbEntity
  8
4
100
AcDbLine
 10
132.5815844258606
 20
19.36525954247156
 30
0.0
 11
98.58158442586063
 21
19.36525954247156
 31
0.0
  0
LINE
  5
C1
330
2
100
AcDbEntity
  8
4
100
AcDbLine
 10
98.58158442586063
 20
34.36525954247156
 30
0.0
 11
98.58158442586063
 21
19.36525954247156
 31
0.0
  0
ARC
  5
C2
330
2
100
AcDbEntity
  8
4
100
AcDbCircle
 10
99.58158442586063
 20
34.36525954247156
 30
0.0
 40
1.0
100
AcDbArc
 50
90.0
 51
180.0
  0
ARC
  5
C3
330
2
100
AcDbEntity
  8
4
100
AcDbCircle
 10
176.5815844258605
 20
204.3652595424716
 30
0.0
 40
180.0
100
AcDbArc
 50
257.0533484030926
 51
270.0
  0
ARC
  5
C4
330
2
100
AcDbEntity
  8
4
100
AcDbCircle
 10
131.5815844258605
 20
34.36525954247156
 30
0.0
 40
1.0
100
AcDbArc
 50
0.0
 51
90.0
  0
ARC
  5
C5
330
2
100
AcDbEntity
  8
4
100
AcDbCircle
 10
135.5815844258605
 20
26.01728506560801
 30
0.0
 40
3.0
100
AcDbArc
 50
77.053348403092
 51
180.0
  0
ARC
  5
C6
330
2
100
AcDbEntity
  8
4
100
AcDbCircle
 10
113.581584425861
 20
37.36525954247156
 30
0.0
 40
3.0
100
AcDbArc
 50
0.0
 51
0.0
  0
ARC
  5
C7
330
2
100
AcDbEntity
  8
4
100
AcDbCircle
 10
135.5815844258606
 20
21.36525954247156
 30
0.0
 40
3.0
100
AcDbArc
 50
90.0
 51
180.0
  0
LINE
  5
C8
330
2
100
AcDbEntity
  8
4
100
AcDbLine
 10
132.5815844258605
 20
19.36525954247156
 30
0.0
 11
132.5815844258605
 21
34.36525954247156
 31
0.0
  0
LINE
  5
C9
330
2
100
AcDbEntity
  8
4
100
AcDbLine
 10
132.5815844258606
 20
21.36525954247156
 30
0.0
 11
132.5815844258606
 21
19.36525954247156
 31
0.0
  0
ARC
  5
CA
330
2
100
AcDbEntity
  8
4
100
AcDbCircle
 10
176.5815844258605
 20
204.3652595424716
 30
0.0
 40
180.0
100
AcDbArc
 50
257.0533484030926
 51
258.0153123102966
  0
ARC
  5
CB
330
2
100
AcDbEntity
  8
4
100
AcDbCircle
 10
115.9161477756815
 20
106.3652595424716
 30
0.0
 40
2.0
100
AcDbArc
 50
353.0571581545964
 51
90.0
  0
ARC
  5
CC
330
2
100
AcDbEntity
  8
4
100
AcDbCircle
 10
114.6805124114279
 20
90.36525954247156
 30
0.0
 40
2.0
100
AcDbArc
 50
270.0
 51
358.1107858348723
  0
LINE
  5
CD
330
2
100
AcDbEntity
  8
L-CENTER
 48
1.5
100
AcDbLine
 10
102.5421518552415
 20
73.36525954247156
 30
0.0
 11
121.7865040852753
 21
73.36525954247156
 31
0.0
  0
ARC
  5
CE
330
2
100
AcDbEntity
  8
4
100
AcDbCircle
 10
114.581584425861
 20
56.36525954247156
 30
0.0
 40
2.0
100
AcDbArc
 50
7.180755781464823
 51
90.0
  0
ARC
  5
CF
330
2
100
AcDbEntity
  8
4
100
AcDbCircle
 10
114.581584425861
 20
56.86525954247156
 30
0.0
 40
2.0
100
AcDbArc
 50
270.0
 51
352.8192442185418
  0
LINE
  5
D0
330
2
100
AcDbEntity
  8
L-CENTER
 48
1.5
100
AcDbLine
 10
127.3716935273447
 20
47.36525954247156
 30
0.0
 11
110.7104579647121
 21
47.36525954247156
 31
0.0
  0
ARC
  5
D1
330
2
100
AcDbEntity
  8
4
100
AcDbCircle
 10
114.581584425861
 20
37.86525954247156
 30
0.0
 40
2.0
100
AcDbArc
 50
0.0
 51
90.0
  0
ARC
  5
D2
330
2
100
AcDbEntity
  8
4
100
AcDbCircle
 10
296.5815844258603
 20
84.36525954247134
 30
0.0
 40
180.0
100
AcDbArc
 50
172.104737960218
 51
194.5583668701703
  0
LINE
  5
D3
330
2
100
AcDbEntity
  8
4
100
AcDbLine
 10
110.0815849258607
 20
60.86525854247145
 30
0.0
 11
110.0815849258607
 21
85.86506104247144
 31
0.0
  0
LINE
  5
D4
330
2
100
AcDbEntity
  8
4
100
AcDbLine
 10
112.0815844258606
 20
60.86525854247145
 30
0.0
 11
112.0815844258606
 21
85.86506104247144
 31
0.0
  0
LINE
  5
D5
330
2
100
AcDbEntity
  8
4
100
AcDbLine
 10
113.5815844258606
 20
88.36525954247156
 30
0.0
 11
113.5815844258606
 21
58.36525954247156
 31
0.0
  0
LINE
  5
D6
330
2
100
AcDbEntity
  8
4
100
AcDbLine
 10
105.0815839258606
 20
60.86525854247145
 30
0.0
 11
105.0815839258606
 21
85.86506104247144
 31
0.0
  0
LINE
  5
D7
330
2
100
AcDbEntity
  8
4
100
AcDbLine
 10
113.5815844258606
 20
54.86525954247156
 30
0.0
 11
113.5815844258606
 21
39.86525954247156
 31
0.0
  0
LINE
  5
D8
330
2
100
AcDbEntity
  8
4
100
AcDbLine
 10
112.5815839258606
 20
42.86525954247156
 30
0.0
 11
112.5815839258606
 21
51.86525954247156
 31
0.0
  0
LINE
  5
D9
330
2
100
AcDbEntity
  8
4
100
AcDbLine
 10
113.5815844258606
 20
42.86525954247156
 30
0.0
 11
112.5815839258606
 21
42.86525954247156
 31
0.0
  0
LINE
  5
DA
330
2
100
AcDbEntity
  8
4
100
AcDbLine
 10
114.581584425861
 20
39.86525954247156
 30
0.0
 11
113.5815844258606
 21
39.86525954247156
 31
0.0
  0
LINE
  5
DB
330
2
100
AcDbEntity
  8
4
100
AcDbLine
 10
105.0815839258606
 20
60.86525854247145
 30
0.0
 11
112.0815844258606
 21
60.86525854247145
 31
0.0
  0
LINE
  5
DC
330
2
100
AcDbEntity
  8
4
100
AcDbLine
 10
113.5815844258606
 20
61.86525904247139
 30
0.0
 11
112.0815844258606
 21
61.86525904247139
 31
0.0
  0
LINE
  5
DD
330
2
100
AcDbEntity
  8
4
100
AcDbLine
 10
113.5815844258606
 20
51.86525954247156
 30
0.0
 11
112.5815839258606
 21
51.86525954247156
 31
0.0
  0
LINE
  5
DE
330
2
100
AcDbEntity
  8
4
100
AcDbLine
 10
114.581584425861
 20
58.36525954247156
 30
0.0
 11
113.5815844258606
 21
58.36525954247156
 31
0.0
  0
LINE
  5
DF
330
2
100
AcDbEntity
  8
4
100
AcDbLine
 10
114.581584425861
 20
54.86525954247156
 30
0.0
 11
113.5815844258606
 21
54.86525954247156
 31
0.0
  0
LINE
  5
E0
330
2
100
AcDbEntity
  8
4
100
AcDbLine
 10
110.0815849258607
 20
67.11527554247152
 30
0.0
 11
105.0815839258606
 21
67.11527554247152
 31
0.0
  0
LINE
  5
E1
330
2
100
AcDbEntity
  8
4
100
AcDbLine
 10
110.0815849258607
 20
79.6150605424715
 30
0.0
 11
105.0815839258606
 21
79.6150605424715
 31
0.0
  0
LINE
  5
E2
330
2
100
AcDbEntity
  8
4
100
AcDbLine
 10
112.0815844258606
 20
85.86506104247144
 30
0.0
 11
105.0815839258606
 21
85.86506104247144
 31
0.0
  0
LINE
  5
E3
330
2
100
AcDbEntity
  8
4
100
AcDbLine
 10
113.5815844258606
 20
84.8650605424715
 30
0.0
 11
112.0815844258606
 21
84.8650605424715
 31
0.0
  0
LINE
  5
E4
330
2
100
AcDbEntity
  8
4
100
AcDbLine
 10
114.6805124114279
 20
88.36525954247156
 30
0.0
 11
113.5815844258606
 21
88.36525954247156
 31
0.0
  0
LINE
  5
E5
330
2
100
AcDbEntity
  8
4
100
AcDbLine
 10
115.9161477756815
 20
108.3652595424716
 30
0.0
 11
113.5815844258609
 21
108.3652595424716
 31
0.0
  0
LINE
  5
E6
330
2
100
AcDbEntity
  8
4
100
AcDbLine
 10
113.5815844258609
 20
117.3652595424717
 30
0.0
 11
112.5815844258609
 21
117.3652595424716
 31
0.0
  0
LINE
  5
E7
330
2
100
AcDbEntity
  8
4
100
AcDbLine
 10
113.5815844258607
 20
117.3652595424716
 30
0.0
 11
112.5815844258607
 21
117.3652595424716
 31
0.0
  0
ARC
  5
E8
330
2
100
AcDbEntity
  8
4
100
AcDbCircle
 10
300.5815844258607
 20
84.36525954247156
 30
0.0
 40
150.0
100
AcDbArc
 50
171.6175694223642
 51
188.3824305776357
  0
ARC
  5
E9
330
2
100
AcDbEntity
  8
4
100
AcDbCircle
 10
299.5815844258607
 20
84.36525954247156
 30
0.0
 40
150.0
100
AcDbArc
 50
171.2749506909566
 51
188.7250493090434
  0
LINE
  5
EA
330
2
100
AcDbEntity
  8
4
100
AcDbLine
 10
116.5816337286911
 20
38.3652595424727
 30
0.0
 11
116.5816337286911
 21
65.0736975665842
 31
0.0
  0
ARC
  5
EB
330
2
100
AcDbEntity
  8
4
100
AcDbCircle
 10
154.2827180850801
 20
62.06639320169131
 30
0.0
 40
3.0
100
AcDbArc
 50
188.7250493090434
 51
261.2749506909545
  0
ARC
  5
EC
330
2
100
AcDbEntity
  8
4
100
AcDbCircle
 10
155.1519733755867
 20
62.93564849219786
 30
0.0
 40
3.0
100
AcDbArc
 50
188.3824305776357
 51
261.6175694223643
  0
ARC
  5
ED
330
2
100
AcDbEntity
  8
4
100
AcDbCircle
 10
296.5815844258603
 20
84.36525954247134
 30
0.0
 40
180.0
100
AcDbArc
 50
163.4701729492837
 51
172.0991981429729
  0
LINE
  5
EE
330
2
100
AcDbEntity
  8
4
100
AcDbLine
 10
118.5815844258607
 20
131.3652595424716
 30
0.0
 11
118.5815844258607
 21
111.1837199784153
 31
0.0
  0
ARC
  5
EF
330
2
100
AcDbEntity
  8
4
100
AcDbCircle
 10
125.9380125384708
 20
135.0088314298614
 30
0.0
 40
2.0
100
AcDbArc
 50
106.5298270507171
 51
163.4701729492837
  0
ARC
  5
F0
330
2
100
AcDbEntity
  8
4
100
AcDbCircle
 10
154.2827180850803
 20
106.6641258832523
 30
0.0
 40
3.0
100
AcDbArc
 50
98.72504930904563
 51
171.2749506909566
  0
ARC
  5
F1
330
2
100
AcDbEntity
  8
4
100
AcDbCircle
 10
154.2827180850801
 20
106.6641258832522
 30
0.0
 40
3.0
100
AcDbArc
 50
98.72504930904563
 51
171.2749506909566
  0
ARC
  5
F2
330
2
100
AcDbEntity
  8
4
100
AcDbCircle
 10
155.1519733755868
 20
105.7948705927457
 30
0.0
 40
3.0
100
AcDbArc
 50
98.38243057763353
 51
171.6175694223642
  0
ARC
  5
F3
330
2
100
AcDbEntity
  8
4
100
AcDbCircle
 10
155.1519733755867
 20
105.7948705927456
 30
0.0
 40
3.0
100
AcDbArc
 50
98.38243057763353
 51
171.6175694223642
  0
LINE
  5
F9
330
2
100
AcDbEntity
  8
4
100
AcDbLine
 10
560.4168360568096
 20
95.86526004247162
 30
0.0
 11
555.4168350568095
 21
95.86526004247162
 31
0.0
  0
LINE
  5
FA
330
2
100
AcDbEntity
  8
4
100
AcDbLine
 10
555.4168350568095
 20
90.86525904247162
 30
0.0
 11
560.4168360568096
 21
90.86525904247162
 31
0.0
  0
LINE
  5
FD
330
2
100
AcDbEntity
  8
L-CENTER
 48
1.5
100
AcDbLine
 10
543.2635140568095
 20
84.36525954247156
 30
0.0
 11
572.5701570568096
 21
84.36525954247156
 31
0.0
  0
LINE
  5
108
330
2
100
AcDbEntity
  8
4
100
AcDbLine
 10
555.4168350568095
 20
90.86525904247162
 30
0.0
 11
555.4168350568095
 21
95.86526004247162
 31
0.0
  0
LINE
  5
10B
330
2
100
AcDbEntity
  8
L-CENTER
 48
1.5
100
AcDbLine
 10
557.9168355568096
 20
69.7119380424715
 30
0.0
 11
557.9168355568096
 21
99.01858104247162
 31
0.0
  0
LINE
  5
111
330
2
100
AcDbEntity
  8
4
100
AcDbLine
 10
560.4168360568096
 20
90.86525904247162
 30
0.0
 11
560.4168360568096
 21
95.86526004247162
 31
0.0
  0
ARC
  5
115
330
2
100
AcDbEntity
  8
4
100
AcDbCircle
 10
241.5815844258607
 20
40.36525954247156
 30
0.0
 40
5.0
100
AcDbArc
 50
180.0
 51
270.0
  0
ARC
  5
116
330
2
100
AcDbEntity
  8
4
100
AcDbCircle
 10
233.705834600703
 20
38.36525954247156
 30
0.0
 40
3.0
100
AcDbArc
 50
165.4416331298297
 51
270.0
  0
LINE
  5
117
330
2
100
AcDbEntity
  8
L-CENTER
 48
1.5
100
AcDbLine
 10
241.5815854258607
 20
40.00239304247145
 30
0.0
 11
241.5815854258607
 21
14.36525954247156
 31
0.0
  0
LINE
  5
118
330
2
100
AcDbEntity
  8
L-CENTER
 48
1.5
100
AcDbLine
 10
241.5815844258606
 20
40.36525954247156
 30
0.0
 11
241.5815844258606
 21
14.36525954247156
 31
0.0
  0
LINE
  5
119
330
2
100
AcDbEntity
  8
4
100
AcDbLine
 10
253.5815844258612
 20
35.36525954247156
 30
0.0
 11
221.4661940735438
 21
35.36525954247156
 31
0.0
  0
LINE
  5
11B
330
2
100
AcDbEntity
  8
4
100
AcDbLine
 10
254.5815844258607
 20
19.36525954247156
 30
0.0
 11
220.5815844258607
 21
19.36525954247156
 31
0.0
  0
ARC
  5
11E
330
2
100
AcDbEntity
  8
4
100
AcDbCircle
 10
217.5815844258607
 20
21.36525954247156
 30
0.0
 40
3.0
100
AcDbArc
 50
0.0
 51
90.0
  0
LINE
  5
11F
330
2
100
AcDbEntity
  8
4
100
AcDbLine
 10
220.5815844258607
 20
19.36525954247156
 30
0.0
 11
220.5815844258607
 21
34.36525954247156
 31
0.0
  0
ARC
  5
120
330
2
100
AcDbEntity
  8
4
100
AcDbCircle
 10
217.5815844258607
 20
26.01728506560789
 30
0.0
 40
3.0
100
AcDbArc
 50
0.0
 51
102.946651596908
  0
ARC
  5
121
330
2
100
AcDbEntity
  8
4
100
AcDbCircle
 10
176.581584425861
 20
204.3652595424716
 30
0.0
 40
180.0
100
AcDbArc
 50
281.9846876897032
 51
282.9466515969071
  0
ARC
  5
122
330
2
100
AcDbEntity
  8
4
100
AcDbCircle
 10
221.5815844258607
 20
34.36525954247156
 30
0.0
 40
1.0
100
AcDbArc
 50
90.0
 51
180.0
  0
LINE
  5
123
330
2
100
AcDbEntity
  8
4
100
AcDbLine
 10
236.5815844258607
 20
19.36525954247156
 30
0.0
 11
236.5815844258607
 21
35.3652600424715
 31
0.0
  0
LWPOLYLINE
  5
124
330
2
100
AcDbEntity
  8
4
100
AcDbPolyline
 90
       27
 70
     0
 43
0.0
 10
230.4732604258607
 20
35.3652600424715
 10
230.7154399258607
 20
34.94967154247149
 10
230.9363194258607
 20
34.53538954247153
 10
231.1302364258607
 20
34.12276054247161
 10
231.4936219258607
 20
32.89825804247164
 10
231.5230954258607
 20
32.4957090424715
 10
231.4973089258606
 20
32.09654704247157
 10
231.4106029258607
 20
31.70112004247164
 10
231.2451874258607
 20
31.27576054247163
 10
231.0209374258607
 20
30.85427854247155
 10
230.7576649258606
 20
30.43573354247155
 10
229.9318099258607
 20
29.18827954247161
 10
229.7105524258607
 20
28.77204904247162
 10
229.5493264258608
 20
28.35403804247153
 10
229.4679454258607
 20
27.93330754247154
 10
229.4903794258608
 20
27.43995304247153
 10
229.6212439258607
 20
26.94226354247155
 10
229.8343279258607
 20
26.44085104247154
 10
230.7048139258607
 20
24.92042704247149
 10
230.9846899258608
 20
24.41026954247161
 10
231.2157424258607
 20
23.89945954247162
 10
231.3717604258607
 20
23.38861204247155
 10
231.4259974258608
 20
22.58204554247152
 10
231.2705419258608
 20
21.7766745424716
 10
230.9486959258607
 20
20.9722500424715
 10
230.5037614258607
 20
20.16852754247145
 10
229.9790359258607
 20
19.36525954247156
  0
TEXT
  5
129
330
2
100
AcDbEntity
  8
3
100
AcDbText
 10
313.906554308198
 20
9.35353235412569
 30
0.0
 40
4.684553993753457
  1
LB1-04
  7
KANJI
100
AcDbText
  0
LINE
  5
12C
330
2
100
AcDbEntity
  8
4
100
AcDbLine
 10
246.5815849258607
 20
19.36525954247156
 30
0.0
 11
246.5815849258607
 21
35.3652600424715
 31
0.0
  0
LINE
  5
12D
330
2
100
AcDbEntity
  8
4
100
AcDbLine
 10
254.5815844258612
 20
34.36525954247156
 30
0.0
 11
254.5815844258607
 21
19.36525954247156
 31
0.0
  0
ARC
  5
12E
330
2
100
AcDbEntity
  8
4
100
AcDbCircle
 10
253.5815844258612
 20
34.36525954247156
 30
0.0
 40
1.0
100
AcDbArc
 50
0.0
 51
90.0
  0
LINE
  5
133
330
2
100
AcDbEntity
  8
4
100
AcDbLine
 10
240.5815084258607
 20
129.8652590424715
 30
0.0
 11
256.5815089258606
 21
129.8652590424715
 31
0.0
  0
ARC
  5
134
330
2
100
AcDbEntity
  8
4
100
AcDbCircle
 10
56.58158442586097
 20
84.36525954247156
 30
0.0
 40
180.0
100
AcDbArc
 50
345.4416331298297
 51
7.895262039781968
  0
ARC
  5
135
330
2
100
AcDbEntity
  8
4
100
AcDbCircle
 10
53.58158442586051
 20
84.36525954247156
 30
0.0
 40
150.0
100
AcDbArc
 50
351.2749506909566
 51
8.72504930904342
  0
ARC
  5
136
330
2
100
AcDbEntity
  8
4
100
AcDbCircle
 10
52.58158442586051
 20
84.36525954247156
 30
0.0
 40
150.0
100
AcDbArc
 50
351.6175694223642
 51
8.382430577635766
  0
ARC
  5
137
330
2
100
AcDbEntity
  8
4
100
AcDbCircle
 10
198.0111954761347
 20
62.93564849219774
 30
0.0
 40
3.0
100
AcDbArc
 50
278.3824305776352
 51
351.6175694223642
  0
ARC
  5
138
330
2
100
AcDbEntity
  8
4
100
AcDbCircle
 10
198.8804507666412
 20
62.0663932016912
 30
0.0
 40
3.0
100
AcDbArc
 50
278.7250493090455
 51
351.2749506909566
  0
LINE
  5
139
330
2
100
AcDbEntity
  8
4
100
AcDbLine
 10
236.581584425861
 20
84.36525954247156
 30
0.0
 11
236.5815844258607
 21
40.36525954247156
 31
0.0
  0
ARC
  5
13A
330
2
100
AcDbEntity
  8
4
100
AcDbCircle
 10
198.0111954761347
 20
105.7948705927455
 30
0.0
 40
3.0
100
AcDbArc
 50
8.382430577635766
 51
81.61756942236595
  0
ARC
  5
13B
330
2
100
AcDbEntity
  8
4
100
AcDbCircle
 10
198.0111954761346
 20
105.7948705927456
 30
0.0
 40
3.0
100
AcDbArc
 50
8.382430577635766
 51
81.61756942236595
  0
ARC
  5
13C
330
2
100
AcDbEntity
  8
4
100
AcDbCircle
 10
198.8804507666412
 20
106.664125883252
 30
0.0
 40
3.0
100
AcDbArc
 50
8.72504930904342
 51
81.27495069095438
  0
ARC
  5
13D
330
2
100
AcDbEntity
  8
4
100
AcDbCircle
 10
198.8804507666411
 20
106.6641258832522
 30
0.0
 40
3.0
100
AcDbArc
 50
8.72504930904342
 51
81.27495069095438
  0
LINE
  5
13E
330
2
100
AcDbEntity
  8
4
100
AcDbLine
 10
234.5815844258607
 20
131.3652595424716
 30
0.0
 11
234.5815844258607
 21
111.1837199784153
 31
0.0
  0
ARC
  5
13F
330
2
100
AcDbEntity
  8
4
100
AcDbCircle
 10
56.58158442586097
 20
84.36525954247156
 30
0.0
 40
180.0
100
AcDbArc
 50
7.900801857027132
 51
16.52982705071628
  0
ARC
  5
140
330
2
100
AcDbEntity
  8
4
100
AcDbCircle
 10
236.8563746767443
 20
106.321998532821
 30
0.0
 40
2.0
100
AcDbArc
 50
90.0
 51
150.5975274316351
  0
LINE
  5
141
330
2
100
AcDbEntity
  8
4
100
AcDbLine
 10
239.5815844258607
 20
108.3652595424716
 30
0.0
 11
236.780647875462
 21
108.3652595424716
 31
0.0
  0
LINE
  5
142
330
2
100
AcDbEntity
  8
4
100
AcDbLine
 10
239.5815844258607
 20
117.3652595424716
 30
0.0
 11
240.5815844258607
 21
117.3652595424716
 31
0.0
  0
ARC
  5
143
330
2
100
AcDbEntity
  8
4
100
AcDbCircle
 10
227.2251563132507
 20
135.0088314298613
 30
0.0
 40
2.0
100
AcDbArc
 50
16.52982705071633
 51
73.47017294928291
  0
LINE
  5
144
330
2
100
AcDbEntity
  8
4
100
AcDbLine
 10
256.5815089258606
 20
130.3652600424715
 30
0.0
 11
286.0815079258608
 21
130.3652600424715
 31
0.0
  0
LINE
  5
146
330
2
100
AcDbEntity
  8
4
100
AcDbLine
 10
286.0815079258608
 20
130.3652600424715
 30
0.0
 11
286.5815089258606
 21
130.8652595424714
 31
0.0
  0
LINE
  5
152
330
2
100
AcDbEntity
  8
4
100
AcDbLine
 10
368.6241355765398
 20
109.5454355424715
 30
0.0
 11
368.6241355765398
 21
60.18526704247154
 31
0.0
  0
LINE
  5
153
330
2
100
AcDbEntity
  8
4
100
AcDbLine
 10
373.6241365765398
 20
111.3652595424716
 30
0.0
 11
373.6241365765398
 21
58.36545804247146
 31
0.0
  0
LINE
  5
15A
330
2
100
AcDbEntity
  8
4
100
AcDbLine
 10
369.4280920765398
 20
59.20467654247147
 30
0.0
 11
373.6241365765398
 21
58.36545804247146
 31
0.0
  0
ARC
  5
15B
330
2
100
AcDbEntity
  8
4
100
AcDbCircle
 10
369.6241360765399
 20
60.18526704247154
 30
0.0
 40
0.9999974999999999
100
AcDbArc
 50
180.0
 51
258.694225000001
  0
LINE
  5
161
330
2
100
AcDbEntity
  8
4
100
AcDbLine
 10
369.4280920765398
 20
110.5261490424715
 30
0.0
 11
373.6241365765398
 21
111.3652595424716
 31
0.0
  0
ARC
  5
162
330
2
100
AcDbEntity
  8
4
100
AcDbCircle
 10
369.6241360765399
 20
109.5454355424715
 30
0.0
 40
1.0000575
100
AcDbArc
 50
101.3043929999985
 51
180.0
  0
LINE
  5
163
330
2
100
AcDbEntity
  8
4
100
AcDbLine
 10
179.0815844258611
 20
463.2716676147946
 30
0.0
 11
186.0815844258611
 21
463.2716676147946
 31
0.0
  0
LINE
  5
164
330
2
100
AcDbEntity
  8
4
100
AcDbLine
 10
201.7617805231422
 20
413.1716676147943
 30
0.0
 11
151.4013883285792
 21
413.1716676147947
 31
0.0
  0
LINE
  5
165
330
2
100
AcDbEntity
  8
4
100
AcDbLine
 10
234.5815844258607
 20
397.5716676147944
 30
0.0
 11
118.5815844258607
 21
397.5716676147944
 31
0.0
  0
LINE
  5
166
330
2
100
AcDbEntity
  8
4
100
AcDbLine
 10
233.5815844258606
 20
405.1716676147943
 30
0.0
 11
119.5815844258609
 21
405.1716676147943
 31
0.0
  0
LINE
  5
167
330
2
100
AcDbEntity
  8
4
100
AcDbLine
 10
196.5815844258609
 20
414.1716676147943
 30
0.0
 11
156.5815844258609
 21
414.1716676147947
 31
0.0
  0
LINE
  5
168
330
2
100
AcDbEntity
  8
4
100
AcDbLine
 10
201.7617805231422
 20
408.1716676147943
 30
0.0
 11
151.4013883285792
 21
408.1716676147947
 31
0.0
  0
LINE
  5
169
330
2
100
AcDbEntity
  8
4
100
AcDbLine
 10
168.0815844258611
 20
464.2716676147946
 30
0.0
 11
185.0815844258611
 21
464.2716676147946
 31
0.0
  0
LINE
  5
16A
330
2
100
AcDbEntity
  8
4
100
AcDbLine
 10
186.5815844258611
 20
434.2716676147944
 30
0.0
 11
166.5815844258611
 21
434.2716676147944
 31
0.0
  0
LINE
  5
16B
330
2
100
AcDbEntity
  8
4
100
AcDbLine
 10
113.5815844258607
 20
393.2716676147946
 30
0.0
 11
239.5815844258607
 21
393.2716676147946
 31
0.0
  0
LINE
  5
16C
330
2
100
AcDbEntity
  8
L-CENTER
 48
1.5
100
AcDbLine
 10
290.4112305047366
 20
364.2716676147946
 30
0.0
 11
63.84822234697762
 21
364.2716676147946
 31
0.0
  0
LINE
  5
16D
330
2
100
AcDbEntity
  8
4
100
AcDbLine
 10
234.5815844258607
 20
397.2716676147946
 30
0.0
 11
118.5815844258607
 21
397.2716676147946
 31
0.0
  0
LINE
  5
16E
330
2
100
AcDbEntity
  8
4
100
AcDbLine
 10
236.5815844258606
 20
394.2716676147946
 30
0.0
 11
116.5815844258607
 21
394.2716676147946
 31
0.0
  0
LINE
  5
16F
330
2
100
AcDbEntity
  8
4
100
AcDbLine
 10
151.3894868614264
 20
315.2716676147946
 30
0.0
 11
201.7498790559892
 21
315.2716676147946
 31
0.0
  0
LINE
  5
170
330
2
100
AcDbEntity
  8
4
100
AcDbLine
 10
203.5696829587078
 20
320.2716676147946
 30
0.0
 11
149.2907378043504
 21
320.2716676147944
 31
0.0
  0
LINE
  5
171
330
2
100
AcDbEntity
  8
4
100
AcDbLine
 10
113.5815844258605
 20
335.2716676147946
 30
0.0
 11
239.5815844258605
 21
335.2716676147944
 31
0.0
  0
LINE
  5
172
330
2
100
AcDbEntity
  8
4
100
AcDbLine
 10
233.5815844258606
 20
328.2716676147946
 30
0.0
 11
119.5815844258605
 21
328.2716676147944
 31
0.0
  0
LINE
  5
173
330
2
100
AcDbEntity
  8
4
100
AcDbLine
 10
236.5815844258605
 20
334.2716676147946
 30
0.0
 11
228.5815844258607
 21
334.2716676147946
 31
0.0
  0
LINE
  5
174
330
2
100
AcDbEntity
  8
4
100
AcDbLine
 10
197.5815844258607
 20
334.2716676147946
 30
0.0
 11
116.5815844258605
 21
334.2716676147946
 31
0.0
  0
LINE
  5
177
330
2
100
AcDbEntity
  8
4
100
AcDbLine
 10
234.5815844258607
 20
167.3652595424716
 30
0.0
 11
118.5815844258607
 21
167.3652595424713
 31
0.0
  0
LINE
  5
178
330
2
100
AcDbEntity
  8
L-CENTER
 48
1.5
100
AcDbLine
 10
176.581584425861
 20
468.1422350133306
 30
0.0
 11
176.5815844258605
 21
313.1563321325735
 31
0.0
  0
LINE
  5
179
330
2
100
AcDbEntity
  8
4
100
AcDbLine
 10
112.5815844258606
 20
344.2716676147946
 30
0.0
 11
112.5815844258606
 21
384.2716676147946
 31
0.0
  0
LINE
  5
17A
330
2
100
AcDbEntity
  8
4
100
AcDbLine
 10
112.5815844258607
 20
384.2716676147946
 30
0.0
 11
112.5815844258607
 21
344.2716676147946
 31
0.0
  0
LINE
  5
17B
330
2
100
AcDbEntity
  8
4
100
AcDbLine
 10
118.5815844258607
 20
393.2716676147946
 30
0.0
 11
118.5815844258605
 21
335.2716676147946
 31
0.0
  0
LINE
  5
17C
330
2
100
AcDbEntity
  8
4
100
AcDbLine
 10
98.5696829587078
 20
404.7716676147946
 30
0.0
 11
98.5696829587079
 21
371.7716671147949
 31
0.0
  0
LINE
  5
17D
330
2
100
AcDbEntity
  8
4
100
AcDbLine
 10
113.5815844258607
 20
393.2716676147946
 30
0.0
 11
113.5815844258605
 21
335.2716676147946
 31
0.0
  0
LINE
  5
17F
330
2
100
AcDbEntity
  8
4
100
AcDbLine
 10
117.5815844258607
 20
166.3652595424716
 30
0.0
 11
113.5815844258609
 21
166.3652595424716
 31
0.0
  0
LINE
  5
181
330
2
100
AcDbEntity
  8
4
100
AcDbLine
 10
113.5815844258609
 20
157.3652595424717
 30
0.0
 11
112.5815844258609
 21
157.3652595424717
 31
0.0
  0
LINE
  5
182
330
2
100
AcDbEntity
  8
4
100
AcDbLine
 10
113.5815844258607
 20
157.3652595424716
 30
0.0
 11
112.5815844258607
 21
157.3652595424716
 31
0.0
  0
LINE
  5
187
330
2
100
AcDbEntity
  8
4
100
AcDbLine
 10
134.0815849258607
 20
176.8652600424716
 30
0.0
 11
159.0815839258608
 21
176.8652600424716
 31
0.0
  0
LINE
  5
188
330
2
100
AcDbEntity
  8
4
100
AcDbLine
 10
134.0815849258607
 20
169.8652595424716
 30
0.0
 11
159.0815839258608
 21
169.8652595424716
 31
0.0
  0
LINE
  5
189
330
2
100
AcDbEntity
  8
4
100
AcDbLine
 10
134.0815849258607
 20
172.8652595424716
 30
0.0
 11
159.0815839258608
 21
172.8652595424716
 31
0.0
  0
LINE
  5
18A
330
2
100
AcDbEntity
  8
4
100
AcDbLine
 10
132.5815844258607
 20
168.3652595424716
 30
0.0
 11
160.5815844258607
 21
168.3652595424716
 31
0.0
  0
LINE
  5
18B
330
2
100
AcDbEntity
  8
4
100
AcDbLine
 10
118.5815844258607
 20
166.3652595424716
 30
0.0
 11
118.5815844258607
 21
146.3652595424716
 31
0.0
  0
LINE
  5
18C
330
2
100
AcDbEntity
  8
L-CENTER
 48
1.5
100
AcDbLine
 10
146.5815844258607
 20
156.8644959564145
 30
0.0
 11
146.5815844258607
 21
179.0981021794975
 31
0.0
  0
ARC
  5
18D
330
2
100
AcDbEntity
  8
4
100
AcDbCircle
 10
131.5815844258607
 20
168.3652595424716
 30
0.0
 40
1.0
100
AcDbArc
 50
270.0
 51
0.0
  0
ARC
  5
18E
330
2
100
AcDbEntity
  8
4
100
AcDbCircle
 10
117.5815844258607
 20
167.3652595424716
 30
0.0
 40
1.0
100
AcDbArc
 50
270.0
 51
0.0
  0
LINE
  5
18F
330
2
100
AcDbEntity
  8
4
100
AcDbLine
 10
135.0815839258608
 20
168.3652595424716
 30
0.0
 11
135.0815839258608
 21
169.8652595424716
 31
0.0
  0
LINE
  5
190
330
2
100
AcDbEntity
  8
4
100
AcDbLine
 10
134.0815849258607
 20
169.8652595424716
 30
0.0
 11
134.0815849258607
 21
176.8652600424716
 31
0.0
  0
LINE
  5
191
330
2
100
AcDbEntity
  8
4
100
AcDbLine
 10
140.3315839258608
 20
172.8652595424716
 30
0.0
 11
140.3315839258608
 21
176.8652600424716
 31
0.0
  0
LINE
  5
192
330
2
100
AcDbEntity
  8
4
100
AcDbLine
 10
152.8315849258607
 20
172.8652595424716
 30
0.0
 11
152.8315849258607
 21
176.8652600424716
 31
0.0
  0
ARC
  5
193
330
2
100
AcDbEntity
  8
4
100
AcDbCircle
 10
161.5815844258607
 20
168.3652595424716
 30
0.0
 40
1.0
100
AcDbArc
 50
180.0
 51
270.0
  0
LINE
  5
194
330
2
100
AcDbEntity
  8
4
100
AcDbLine
 10
158.0815849258607
 20
168.3652595424716
 30
0.0
 11
158.0815849258607
 21
169.8652595424716
 31
0.0
  0
LINE
  5
195
330
2
100
AcDbEntity
  8
4
100
AcDbLine
 10
159.0815839258608
 20
169.8652595424716
 30
0.0
 11
159.0815839258608
 21
176.8652600424716
 31
0.0
  0
LINE
  5
19A
330
2
100
AcDbEntity
  8
4
100
AcDbLine
 10
100.569682958708
 20
321.7716676147946
 30
0.0
 11
130.5696829587076
 21
321.7716676147946
 31
0.0
  0
LINE
  5
19B
330
2
100
AcDbEntity
  8
L-CENTER
 48
1.5
100
AcDbLine
 10
101.710079590321
 20
333.7716676147946
 30
0.0
 11
121.4530892614005
 21
333.7716676147946
 31
0.0
  0
ARC
  5
19C
330
2
100
AcDbEntity
  8
4
100
AcDbCircle
 10
111.5815844258607
 20
333.7716676147946
 30
0.0
 40
5.0
100
AcDbArc
 50
66.42182152179932
 51
17.45760312371936
  0
ARC
  5
19D
330
2
100
AcDbEntity
  8
4
100
AcDbCircle
 10
100.569682958708
 20
323.7716676147946
 30
0.0
 40
2.0
100
AcDbArc
 50
180.0
 51
270.0
  0
LINE
  5
19E
330
2
100
AcDbEntity
  8
L-CENTER
 48
1.5
100
AcDbLine
 10
111.5815844258607
 20
323.9001627792549
 30
0.0
 11
111.5815844258607
 21
343.6431724503344
 31
0.0
  0
LINE
  5
19F
330
2
100
AcDbEntity
  8
4
100
AcDbLine
 10
113.5815844258606
 20
344.2716676147946
 30
0.0
 11
112.5815844258606
 21
344.2716676147946
 31
0.0
  0
LINE
  5
1A0
330
2
100
AcDbEntity
  8
4
100
AcDbLine
 10
113.5815844258607
 20
344.2716676147946
 30
0.0
 11
112.5815844258607
 21
344.2716676147946
 31
0.0
  0
LINE
  5
1A1
330
2
100
AcDbEntity
  8
4
100
AcDbLine
 10
148.7238060841512
 20
320.7147459776576
 30
0.0
 11
126.2395606407342
 21
328.2716676147944
 31
0.0
  0
ARC
  5
1A2
330
2
100
AcDbEntity
  8
4
100
AcDbCircle
 10
130.5696829587076
 20
323.7716676147946
 30
0.0
 40
2.0
100
AcDbArc
 50
270.0
 51
0.0
  0
LINE
  5
1A3
330
2
100
AcDbEntity
  8
4
100
AcDbLine
 10
118.5815844258605
 20
334.2716676147946
 30
0.0
 11
118.5815844258605
 21
329.2716676147944
 31
0.0
  0
ARC
  5
1A4
330
2
100
AcDbEntity
  8
4
100
AcDbCircle
 10
119.5815844258605
 20
329.2716676147944
 30
0.0
 40
1.0
100
AcDbArc
 50
180.0
 51
270.0
  0
LINE
  5
1A5
330
2
100
AcDbEntity
  8
4
100
AcDbLine
 10
116.5815844258605
 20
335.2716676147946
 30
0.0
 11
116.5815844258605
 21
334.2716676147946
 31
0.0
  0
LINE
  5
1A6
330
2
100
AcDbEntity
  8
4
100
AcDbLine
 10
132.5696829587076
 20
326.144122866593
 30
0.0
 11
132.5696829587076
 21
323.7716676147946
 31
0.0
  0
ARC
  5
1A7
330
2
100
AcDbEntity
  8
4
100
AcDbCircle
 10
147.7957920948102
 20
318.9430829070972
 30
0.0
 40
2.0
100
AcDbArc
 50
11.30993247401763
 51
62.35402463626342
  0
ARC
  5
1A8
330
2
100
AcDbEntity
  8
4
100
AcDbCircle
 10
151.3894868614264
 20
316.2716676147946
 30
0.0
 40
1.0
100
AcDbArc
 50
191.3099324740176
 51
270.0
  0
LINE
  5
1A9
330
2
100
AcDbEntity
  8
4
100
AcDbLine
 10
150.4089061857354
 20
316.0755514796564
 30
0.0
 11
149.7569534461921
 21
319.3353151773734
 31
0.0
  0
LINE
  5
1AA
330
2
100
AcDbEntity
  8
4
100
AcDbLine
 10
174.0815844258611
 20
464.2716676147944
 30
0.0
 11
174.0815844258611
 21
439.7716676147946
 31
0.0
  0
LINE
  5
1AB
330
2
100
AcDbEntity
  8
4
100
AcDbLine
 10
179.0815844258611
 20
464.2716676147944
 30
0.0
 11
179.0815844258611
 21
439.7716676147946
 31
0.0
  0
LINE
  5
1AC
330
2
100
AcDbEntity
  8
4
100
AcDbLine
 10
167.0815844258611
 20
434.7716676147944
 30
0.0
 11
167.0815844258611
 21
463.2716676147946
 31
0.0
  0
LINE
  5
1AD
330
2
100
AcDbEntity
  8
4
100
AcDbLine
 10
100.5696829587078
 20
406.7716676147946
 30
0.0
 11
126.5815844258607
 21
406.7716676147946
 31
0.0
  0
LINE
  5
1AE
330
2
100
AcDbEntity
  8
L-CENTER
 48
1.5
100
AcDbLine
 10
101.710079590321
 20
394.7716676147946
 30
0.0
 11
121.4530892614005
 21
394.7716676147946
 31
0.0
  0
ARC
  5
1AF
330
2
100
AcDbEntity
  8
4
100
AcDbCircle
 10
111.5815844258607
 20
394.7716676147946
 30
0.0
 40
5.0
100
AcDbArc
 50
342.5423968762806
 51
293.5781784782026
  0
LINE
  5
1B0
330
2
100
AcDbEntity
  8
L-CENTER
 48
1.5
100
AcDbLine
 10
111.5815844258607
 20
384.9001627792549
 30
0.0
 11
111.5815844258607
 21
404.6431724503344
 31
0.0
  0
LINE
  5
1B1
330
2
100
AcDbEntity
  8
4
100
AcDbLine
 10
111.0815839258606
 20
351.7716676147946
 30
0.0
 11
111.0815839258606
 21
356.7716671147948
 31
0.0
  0
LINE
  5
1B2
330
2
100
AcDbEntity
  8
4
100
AcDbLine
 10
109.0815839258606
 20
351.7716676147946
 30
0.0
 11
109.0815839258606
 21
356.7716671147948
 31
0.0
  0
LINE
  5
1B3
330
2
100
AcDbEntity
  8
4
100
AcDbLine
 10
112.5815839258606
 20
352.7716676147949
 30
0.0
 11
112.5815839258606
 21
375.7716676147946
 31
0.0
  0
LINE
  5
1B4
330
2
100
AcDbEntity
  8
4
100
AcDbLine
 10
105.0815839258606
 20
353.4463500674891
 30
0.0
 11
105.0815839258606
 21
356.7716671147948
 31
0.0
  0
LWPOLYLINE
  5
1B5
330
2
100
AcDbEntity
  8
4
100
AcDbPolyline
 90
        2
 70
     0
 43
0.0
 10
105.0815839258606
 20
353.4463500674891
 10
109.0815839258606
 20
353.4463500674891
  0
LINE
  5
1B6
330
2
100
AcDbEntity
  8
4
100
AcDbLine
 10
109.0815839258606
 20
351.7716676147946
 30
0.0
 11
111.0815839258606
 21
351.7716676147946
 31
0.0
  0
LINE
  5
1B7
330
2
100
AcDbEntity
  8
4
100
AcDbLine
 10
111.0815839258606
 20
352.7716676147949
 30
0.0
 11
112.5815839258606
 21
352.7716676147949
 31
0.0
  0
LWPOLYLINE
  5
1B8
330
2
100
AcDbEntity
  8
4
100
AcDbPolyline
 90
        2
 70
     0
 43
0.0
 10
109.0815839258606
 20
375.0969851620999
 10
105.0815839258606
 20
375.0969851620999
  0
LINE
  5
1B9
330
2
100
AcDbEntity
  8
4
100
AcDbLine
 10
109.0815839258606
 20
376.7716676147946
 30
0.0
 11
111.0815839258606
 21
376.7716676147946
 31
0.0
  0
LINE
  5
1BA
330
2
100
AcDbEntity
  8
4
100
AcDbLine
 10
111.0815839258606
 20
375.7716676147946
 30
0.0
 11
112.5815839258606
 21
375.7716676147946
 31
0.0
  0
LINE
  5
1BB
330
2
100
AcDbEntity
  8
4
100
AcDbLine
 10
113.5815844258606
 20
384.2716676147946
 30
0.0
 11
112.5815844258606
 21
384.2716676147946
 31
0.0
  0
LINE
  5
1BC
330
2
100
AcDbEntity
  8
4
100
AcDbLine
 10
113.5815844258607
 20
384.2716676147946
 30
0.0
 11
112.5815844258607
 21
384.2716676147946
 31
0.0
  0
ARC
  5
1BD
330
2
100
AcDbEntity
  8
4
100
AcDbCircle
 10
100.5696829587078
 20
404.7716676147946
 30
0.0
 40
2.0
100
AcDbArc
 50
90.0
 51
180.0
  0
LINE
  5
1BE
330
2
100
AcDbEntity
  8
L-CENTER
 48
1.5
100
AcDbLine
 10
139.4595844258608
 20
414.0221969883024
 30
0.0
 11
139.4595844258608
 21
393.384038839498
 31
0.0
  0
LINE
  5
1BF
330
2
100
AcDbEntity
  8
4
100
AcDbLine
 10
118.5815844258607
 20
397.2716676147946
 30
0.0
 11
118.5815844258607
 21
394.2716676147946
 31
0.0
  0
LWPOLYLINE
  5
1C0
330
2
100
AcDbEntity
  8
4
100
AcDbPolyline
 90
        6
 70
     1
 43
0.0
 10
159.0815844258607
 20
364.2716676147946
 10
152.8315844258607
 20
375.0969851621002
 10
140.3315844258607
 20
375.0969851621002
 10
134.0815844258607
 20
364.2716676147946
 10
140.3315844258607
 20
353.4463500674891
 10
152.8315844258607
 20
353.4463500674891
  0
CIRCLE
  5
1C1
330
2
100
AcDbEntity
  8
4
100
AcDbCircle
 10
146.5815844258607
 20
364.2716676147946
 30
0.0
 40
12.5
  0
CIRCLE
  5
1C2
330
2
100
AcDbEntity
  8
4
100
AcDbCircle
 10
146.5815844258607
 20
364.2716676147946
 30
0.0
 40
14.0
  0
LINE
  5
1C3
330
2
100
AcDbEntity
  8
L-CENTER
 48
1.5
100
AcDbLine
 10
146.5815844258607
 20
346.9120343465582
 30
0.0
 11
146.5815844258607
 21
381.631300883031
 31
0.0
  0
LINE
  5
1C4
330
2
100
AcDbEntity
  8
4
100
AcDbLine
 10
116.5815844258607
 20
394.2716676147946
 30
0.0
 11
116.5815844258607
 21
393.2716676147946
 31
0.0
  0
LINE
  5
1C5
330
2
100
AcDbEntity
  8
4
100
AcDbLine
 10
148.258742276115
 20
407.9196976815171
 30
0.0
 11
143.7095844258608
 21
407.0531914243269
 31
0.0
  0
LINE
  5
1C6
330
2
100
AcDbEntity
  8
4
100
AcDbLine
 10
126.5815844258607
 20
413.1716676147943
 30
0.0
 11
151.9832159719344
 21
413.1716676147943
 31
0.0
  0
LINE
  5
1C7
330
2
100
AcDbEntity
  8
4
100
AcDbLine
 10
126.5815844258607
 20
413.1716676147943
 30
0.0
 11
126.5815844258607
 21
405.1716676147943
 31
0.0
  0
ARC
  5
1C8
330
2
100
AcDbEntity
  8
4
100
AcDbCircle
 10
119.5815844258609
 20
404.1716676147943
 30
0.0
 40
1.0
100
AcDbArc
 50
90.0
 51
180.0
  0
LINE
  5
1C9
330
2
100
AcDbEntity
  8
4
100
AcDbLine
 10
118.5815844258607
 20
404.1716676147943
 30
0.0
 11
118.5815844258607
 21
397.5716676147944
 31
0.0
  0
LINE
  5
1CA
330
2
100
AcDbEntity
  8
4
100
AcDbLine
 10
135.2095844258608
 20
411.4716676147945
 30
0.0
 11
135.2095844258608
 21
405.1716676147943
 31
0.0
  0
LINE
  5
1CB
330
2
100
AcDbEntity
  8
4
100
AcDbLine
 10
143.7095844258608
 20
411.4716676147945
 30
0.0
 11
143.7095844258608
 21
405.1716676147943
 31
0.0
  0
LINE
  5
1CC
330
2
100
AcDbEntity
  8
4
100
AcDbLine
 10
143.7095844258608
 20
406.4716676147942
 30
0.0
 11
135.2095844258608
 21
406.4716676147942
 31
0.0
  0
LINE
  5
1CD
330
2
100
AcDbEntity
  8
4
100
AcDbLine
 10
143.7095844258608
 20
411.4716676147945
 30
0.0
 11
135.2095844258608
 21
411.4716676147945
 31
0.0
  0
LINE
  5
1CE
330
2
100
AcDbEntity
  8
4
100
AcDbLine
 10
166.5815844258612
 20
414.1716676147947
 30
0.0
 11
166.5815844258612
 21
434.2716676147944
 31
0.0
  0
ARC
  5
1CF
330
2
100
AcDbEntity
  8
4
100
AcDbCircle
 10
147.8845180603356
 20
409.8843748143491
 30
0.0
 40
2.0
100
AcDbArc
 50
280.7842978675748
 51
348.6900675259889
  0
LINE
  5
1D0
330
2
100
AcDbEntity
  8
4
100
AcDbLine
 10
150.4208076528877
 20
412.3677837499275
 30
0.0
 11
149.8456794117174
 21
409.4921425440729
 31
0.0
  0
ARC
  5
1D1
330
2
100
AcDbEntity
  8
4
100
AcDbCircle
 10
151.4013883285787
 20
412.1716676147895
 30
0.0
 40
1.0
100
AcDbArc
 50
90.0000000000114
 51
168.6900675259891
  0
LINE
  5
1D2
330
2
100
AcDbEntity
  8
4
100
AcDbLine
 10
156.5815844258607
 20
414.1716676147947
 30
0.0
 11
156.5815844258609
 21
413.1716676147947
 31
0.0
  0
ARC
  5
1D3
330
2
100
AcDbEntity
  8
4
100
AcDbCircle
 10
166.5815844258611
 20
434.7716676147944
 30
0.0
 40
0.5
100
AcDbArc
 50
270.0
 51
0.0
  0
ARC
  5
1D4
330
2
100
AcDbEntity
  8
4
100
AcDbCircle
 10
176.5815844258612
 20
439.7716676147946
 30
0.0
 40
2.5
100
AcDbArc
 50
180.0
 51
0.0
  0
LINE
  5
1D5
330
2
100
AcDbEntity
  8
4
100
AcDbLine
 10
167.0815844258611
 20
463.2716676147946
 30
0.0
 11
174.0815844258611
 21
463.2716676147946
 31
0.0
  0
LINE
  5
1D6
330
2
100
AcDbEntity
  8
4
100
AcDbLine
 10
167.0815844258611
 20
463.2716676147946
 30
0.0
 11
168.0815844258611
 21
464.2716676147946
 31
0.0
  0
LINE
  5
1D7
330
2
100
AcDbEntity
  8
4
100
AcDbLine
 10
234.5815844258607
 20
393.2716676147946
 30
0.0
 11
234.5815844258606
 21
335.2716676147944
 31
0.0
  0
LINE
  5
1D8
330
2
100
AcDbEntity
  8
4
100
AcDbLine
 10
254.5934858930133
 20
356.7716671147947
 30
0.0
 11
254.593485893013
 21
323.7716676147942
 31
0.0
  0
LINE
  5
1D9
330
2
100
AcDbEntity
  8
4
100
AcDbLine
 10
240.5815844258606
 20
344.2716676147946
 30
0.0
 11
240.5815844258606
 21
384.2716676147946
 31
0.0
  0
LINE
  5
1DA
330
2
100
AcDbEntity
  8
4
100
AcDbLine
 10
239.5815844258607
 20
393.2716676147946
 30
0.0
 11
239.5815844258605
 21
335.2716676147944
 31
0.0
  0
LINE
  5
1DB
330
2
100
AcDbEntity
  8
4
100
AcDbLine
 10
256.5815089258606
 20
144.8652590424715
 30
0.0
 11
240.5815084258607
 21
144.8652590424715
 31
0.0
  0
LINE
  5
1DC
330
2
100
AcDbEntity
  8
4
100
AcDbLine
 10
234.5815844258607
 20
166.3652595424716
 30
0.0
 11
234.5815844258607
 21
146.3652595424716
 31
0.0
  0
LINE
  5
1DD
330
2
100
AcDbEntity
  8
4
100
AcDbLine
 10
239.5815844258607
 20
157.3652595424716
 30
0.0
 11
240.5815844258607
 21
157.3652595424716
 31
0.0
  0
ARC
  5
1DE
330
2
100
AcDbEntity
  8
4
100
AcDbCircle
 10
236.3136352334296
 20
168.3652595424716
 30
0.0
 40
2.0
100
AcDbArc
 50
210.0000000000001
 51
270.0
  0
ARC
  5
1DF
330
2
100
AcDbEntity
  8
4
100
AcDbCircle
 10
233.5815844258607
 20
166.3652595424716
 30
0.0
 40
1.0
100
AcDbArc
 50
0.0
 51
90.0
  0
LINE
  5
1E0
330
2
100
AcDbEntity
  8
4
100
AcDbLine
 10
239.5815844258607
 20
166.3652595424716
 30
0.0
 11
236.3136352334296
 21
166.3652595424716
 31
0.0
  0
LINE
  5
1E5
330
2
100
AcDbEntity
  8
4
100
AcDbLine
 10
286.5815089258606
 20
146.3652590424715
 30
0.0
 11
259.5815089258606
 21
146.3652590424715
 31
0.0
  0
LINE
  5
1E6
330
2
100
AcDbEntity
  8
4
100
AcDbLine
 10
256.5815089258606
 20
144.3652595424714
 30
0.0
 11
286.0815079258608
 21
144.3652595424714
 31
0.0
  0
LINE
  5
1E8
330
2
100
AcDbEntity
  8
4
100
AcDbLine
 10
259.5815089258606
 20
146.3652590424715
 30
0.0
 11
259.5815089258606
 21
144.3652595424714
 31
0.0
  0
LINE
  5
1EC
330
2
100
AcDbEntity
  8
4
100
AcDbLine
 10
286.5815089258606
 20
143.8652600424715
 30
0.0
 11
286.0815079258608
 21
144.3652595424714
 31
0.0
  0
ARC
  5
1F2
330
2
100
AcDbEntity
  8
4
100
AcDbCircle
 10
241.5815844258607
 20
333.7716676147946
 30
0.0
 40
5.0
100
AcDbArc
 50
162.5423968762807
 51
113.5781784782042
  0
LINE
  5
1F3
330
2
100
AcDbEntity
  8
4
100
AcDbLine
 10
252.593485893013
 20
321.7716676147942
 30
0.0
 11
222.5934858930132
 21
321.7716676147942
 31
0.0
  0
LINE
  5
1F4
330
2
100
AcDbEntity
  8
L-CENTER
 48
1.5
100
AcDbLine
 10
231.710079590321
 20
333.7716676147946
 30
0.0
 11
251.4530892614005
 21
333.7716676147946
 31
0.0
  0
LINE
  5
1F5
330
2
100
AcDbEntity
  8
4
100
AcDbLine
 10
204.4155598332644
 20
320.7147459776576
 30
0.0
 11
226.8998052766795
 21
328.2716676147946
 31
0.0
  0
LINE
  5
1F6
330
2
100
AcDbEntity
  8
4
100
AcDbLine
 10
218.2279529315077
 20
335.2716676147946
 30
0.0
 11
194.7171796293376
 21
335.2716676147946
 31
0.0
  0
ARC
  5
1F7
330
2
100
AcDbEntity
  8
4
100
AcDbCircle
 10
205.3435738226054
 20
318.9430829070972
 30
0.0
 40
2.0
100
AcDbArc
 50
117.6459753637366
 51
168.6900675259824
  0
ARC
  5
1F8
330
2
100
AcDbEntity
  8
4
100
AcDbCircle
 10
201.7498790559892
 20
316.2716676147946
 30
0.0
 40
1.0
100
AcDbArc
 50
270.0
 51
348.6900675259823
  0
LINE
  5
1F9
330
2
100
AcDbEntity
  8
4
100
AcDbLine
 10
202.7304597316802
 20
316.0755514796564
 30
0.0
 11
203.3824124712235
 21
319.3353151773734
 31
0.0
  0
LINE
  5
1FA
330
2
100
AcDbEntity
  8
4
100
AcDbLine
 10
203.8486281130652
 20
320.2716676147946
 30
0.0
 11
191.1113771496269
 21
320.2716676147946
 31
0.0
  0
LINE
  5
1FB
330
2
100
AcDbEntity
  8
4
100
AcDbLine
 10
220.5934858930132
 20
326.1521229976066
 30
0.0
 11
220.5934858930132
 21
323.7716676147942
 31
0.0
  0
ARC
  5
1FC
330
2
100
AcDbEntity
  8
4
100
AcDbCircle
 10
222.5934858930132
 20
323.7716676147942
 30
0.0
 40
2.0
100
AcDbArc
 50
180.0
 51
269.9999999999992
  0
LINE
  5
1FD
330
2
100
AcDbEntity
  8
L-CENTER
 48
1.5
100
AcDbLine
 10
241.5815844258607
 20
323.9001627792549
 30
0.0
 11
241.5815844258607
 21
343.6431724503344
 31
0.0
  0
LINE
  5
1FE
330
2
100
AcDbEntity
  8
4
100
AcDbLine
 10
234.5815844258606
 20
334.2716676147946
 30
0.0
 11
234.5815844258606
 21
329.2716676147946
 31
0.0
  0
ARC
  5
1FF
330
2
100
AcDbEntity
  8
4
100
AcDbCircle
 10
233.5815844258606
 20
329.2716676147946
 30
0.0
 40
1.0
100
AcDbArc
 50
270.0
 51
0.0
  0
LINE
  5
200
330
2
100
AcDbEntity
  8
4
100
AcDbLine
 10
239.5815844258606
 20
344.2716676147946
 30
0.0
 11
240.5815844258606
 21
344.2716676147946
 31
0.0
  0
LINE
  5
201
330
2
100
AcDbEntity
  8
4
100
AcDbLine
 10
236.5815844258605
 20
335.2716676147944
 30
0.0
 11
236.5815844258605
 21
334.2716676147946
 31
0.0
  0
ARC
  5
202
330
2
100
AcDbEntity
  8
4
100
AcDbCircle
 10
252.593485893013
 20
323.7716676147942
 30
0.0
 40
2.0
100
AcDbArc
 50
269.9999999999992
 51
0.0
  0
LINE
  5
20B
330
2
100
AcDbEntity
  8
4
100
AcDbLine
 10
186.0815844258611
 20
434.7716676147944
 30
0.0
 11
186.0815844258611
 21
463.2716676147946
 31
0.0
  0
LINE
  5
20C
330
2
100
AcDbEntity
  8
4
100
AcDbLine
 10
256.5815089258605
 20
371.7716671147945
 30
0.0
 11
240.5815084258606
 21
371.7716671147945
 31
0.0
  0
LINE
  5
20D
330
2
100
AcDbEntity
  8
4
100
AcDbLine
 10
240.5815084258606
 20
356.7716671147945
 30
0.0
 11
256.5815089258605
 21
356.7716671147945
 31
0.0
  0
ARC
  5
20E
330
2
100
AcDbEntity
  8
4
100
AcDbCircle
 10
241.5815844258607
 20
394.7716676147946
 30
0.0
 40
5.0
100
AcDbArc
 50
246.4218215217973
 51
197.4576031237193
  0
LINE
  5
20F
330
2
100
AcDbEntity
  8
4
100
AcDbLine
 10
252.5934858930139
 20
406.771667614794
 30
0.0
 11
222.5934858930139
 21
406.7716676147942
 31
0.0
  0
LINE
  5
210
330
2
100
AcDbEntity
  8
L-CENTER
 48
1.5
100
AcDbLine
 10
231.710079590321
 20
394.7716676147946
 30
0.0
 11
251.4530892614005
 21
394.7716676147946
 31
0.0
  0
LINE
  5
211
330
2
100
AcDbEntity
  8
L-CENTER
 48
1.5
100
AcDbLine
 10
213.7035844258608
 20
414.0221969883024
 30
0.0
 11
213.7035844258608
 21
393.384038839498
 31
0.0
  0
LINE
  5
212
330
2
100
AcDbEntity
  8
L-CENTER
 48
1.5
100
AcDbLine
 10
241.5815844258607
 20
384.9001627792549
 30
0.0
 11
241.5815844258607
 21
404.6431724503344
 31
0.0
  0
LINE
  5
213
330
2
100
AcDbEntity
  8
4
100
AcDbLine
 10
234.5815844258607
 20
397.2716676147946
 30
0.0
 11
234.5815844258607
 21
394.2716676147946
 31
0.0
  0
LINE
  5
214
330
2
100
AcDbEntity
  8
4
100
AcDbLine
 10
239.5815844258606
 20
384.2716676147946
 30
0.0
 11
240.5815844258606
 21
384.2716676147946
 31
0.0
  0
LINE
  5
215
330
2
100
AcDbEntity
  8
4
100
AcDbLine
 10
236.5815844258607
 20
394.2716676147946
 30
0.0
 11
236.5815844258607
 21
393.2716676147946
 31
0.0
  0
LINE
  5
216
330
2
100
AcDbEntity
  8
4
100
AcDbLine
 10
209.4535844258608
 20
411.4716676147945
 30
0.0
 11
217.9535844258608
 21
411.4716676147945
 31
0.0
  0
LINE
  5
217
330
2
100
AcDbEntity
  8
4
100
AcDbLine
 10
209.4535844258607
 20
406.4716676147942
 30
0.0
 11
217.9535844258608
 21
406.4716676147942
 31
0.0
  0
LINE
  5
218
330
2
100
AcDbEntity
  8
4
100
AcDbLine
 10
186.5815844258612
 20
414.1716676147943
 30
0.0
 11
186.5815844258611
 21
434.2716676147944
 31
0.0
  0
LINE
  5
219
330
2
100
AcDbEntity
  8
4
100
AcDbLine
 10
209.4535844258608
 20
411.4716676147945
 30
0.0
 11
209.4535844258608
 21
405.1716676147943
 31
0.0
  0
ARC
  5
21A
330
2
100
AcDbEntity
  8
4
100
AcDbCircle
 10
205.2786507913857
 20
409.8843748143548
 30
0.0
 40
2.0
100
AcDbArc
 50
191.3099324740176
 51
259.2157021324385
  0
LINE
  5
21B
330
2
100
AcDbEntity
  8
4
100
AcDbLine
 10
204.9044265756059
 20
407.9196976815095
 30
0.0
 11
209.4535844258608
 21
407.0531914243182
 31
0.0
  0
ARC
  5
21C
330
2
100
AcDbEntity
  8
4
100
AcDbCircle
 10
201.7617805231421
 20
412.1716676147943
 30
0.0
 40
1.0
100
AcDbArc
 50
11.30993247401763
 51
90.0
  0
LINE
  5
21D
330
2
100
AcDbEntity
  8
4
100
AcDbLine
 10
202.7423611988331
 20
412.3677837499325
 30
0.0
 11
203.317489440004
 21
409.4921425440783
 31
0.0
  0
LINE
  5
21E
330
2
100
AcDbEntity
  8
4
100
AcDbLine
 10
196.5815844258607
 20
414.1716676147945
 30
0.0
 11
196.5815844258606
 21
413.1716676147943
 31
0.0
  0
ARC
  5
21F
330
2
100
AcDbEntity
  8
4
100
AcDbCircle
 10
186.5815844258611
 20
434.7716676147944
 30
0.0
 40
0.5
100
AcDbArc
 50
180.0
 51
270.0
  0
LINE
  5
220
330
2
100
AcDbEntity
  8
4
100
AcDbLine
 10
217.9535844258608
 20
411.4716676147945
 30
0.0
 11
217.9535844258608
 21
405.1716676147943
 31
0.0
  0
ARC
  5
221
330
2
100
AcDbEntity
  8
4
100
AcDbCircle
 10
222.5934858930139
 20
404.7716676147942
 30
0.0
 40
2.0
100
AcDbArc
 50
89.99999999999919
 51
168.4630409671819
  0
LINE
  5
222
330
2
100
AcDbEntity
  8
4
100
AcDbLine
 10
234.5815844258607
 20
404.1716676147943
 30
0.0
 11
234.5815844258607
 21
397.5716676147944
 31
0.0
  0
ARC
  5
223
330
2
100
AcDbEntity
  8
4
100
AcDbCircle
 10
233.5815844258606
 20
404.1716676147943
 30
0.0
 40
1.0
100
AcDbArc
 50
0.0
 51
90.0
  0
LINE
  5
224
330
2
100
AcDbEntity
  8
4
100
AcDbLine
 10
254.5934858930139
 20
404.771667614794
 30
0.0
 11
254.5934858930136
 21
371.7716671147947
 31
0.0
  0
LINE
  5
225
330
2
100
AcDbEntity
  8
4
100
AcDbLine
 10
286.5815089258604
 20
361.7716676147946
 30
0.0
 11
262.0815089258604
 21
361.7716676147946
 31
0.0
  0
LINE
  5
226
330
2
100
AcDbEntity
  8
4
100
AcDbLine
 10
286.5815089258604
 20
366.7716676147946
 30
0.0
 11
262.0815089258604
 21
366.7716676147946
 31
0.0
  0
LINE
  5
227
330
2
100
AcDbEntity
  8
4
100
AcDbLine
 10
256.5815089258605
 20
357.2716681147946
 30
0.0
 11
286.0815079258605
 21
357.2716681147946
 31
0.0
  0
LINE
  5
228
330
2
100
AcDbEntity
  8
4
100
AcDbLine
 10
256.5815089258605
 20
371.2716676147946
 30
0.0
 11
286.0815079258605
 21
371.2716676147946
 31
0.0
  0
LINE
  5
229
330
2
100
AcDbEntity
  8
4
100
AcDbLine
 10
256.5815089258605
 20
371.7716671147945
 30
0.0
 11
256.5815089258605
 21
356.7716671147945
 31
0.0
  0
ARC
  5
22A
330
2
100
AcDbEntity
  8
4
100
AcDbCircle
 10
262.0815089258606
 20
364.2716676147946
 30
0.0
 40
2.5
100
AcDbArc
 50
90.0
 51
270.0
  0
LINE
  5
22B
330
2
100
AcDbEntity
  8
4
100
AcDbLine
 10
286.0815079258605
 20
371.2716676147946
 30
0.0
 11
286.0815079258605
 21
366.7716676147946
 31
0.0
  0
LINE
  5
22C
330
2
100
AcDbEntity
  8
4
100
AcDbLine
 10
286.5815089258604
 20
370.7716681147946
 30
0.0
 11
286.5815089258604
 21
357.7716676147946
 31
0.0
  0
LINE
  5
22D
330
2
100
AcDbEntity
  8
4
100
AcDbLine
 10
286.0815079258605
 20
361.7716676147944
 30
0.0
 11
286.0815079258605
 21
357.2716681147946
 31
0.0
  0
LINE
  5
22E
330
2
100
AcDbEntity
  8
4
100
AcDbLine
 10
286.0815079258605
 20
357.2716681147946
 30
0.0
 11
286.5815089258604
 21
357.7716676147946
 31
0.0
  0
LINE
  5
22F
330
2
100
AcDbEntity
  8
4
100
AcDbLine
 10
286.5815089258604
 20
370.7716681147946
 30
0.0
 11
286.0815079258605
 21
371.2716676147946
 31
0.0
  0
ARC
  5
230
330
2
100
AcDbEntity
  8
4
100
AcDbCircle
 10
252.5934858930139
 20
404.771667614794
 30
0.0
 40
2.0
100
AcDbArc
 50
0.0
 51
89.99999999999919
  0
LINE
  5
231
330
2
100
AcDbEntity
  8
4
100
AcDbLine
 10
186.0815844258611
 20
463.2716676147946
 30
0.0
 11
185.0815844258611
 21
464.2716676147946
 31
0.0
  0
ARC
  5
234
330
2
100
AcDbEntity
  8
4
100
AcDbCircle
 10
146.6243350765398
 20
140.3652590424715
 30
0.0
 40
300.0000795
100
AcDbArc
 50
359.059595000002
 51
4.429219999997915
  0
CIRCLE
  5
235
330
2
100
AcDbEntity
  8
4
100
AcDbCircle
 10
417.6241360765399
 20
137.3652590424715
 30
0.0
 40
19.9999995
  0
ARC
  5
236
330
2
100
AcDbEntity
  8
4
100
AcDbCircle
 10
688.6241365765397
 20
140.3652590424715
 30
0.0
 40
299.9999865
100
AcDbArc
 50
175.5707740000006
 51
181.027461000001
  0
CIRCLE
  5
237
330
2
100
AcDbEntity
  8
4
100
AcDbCircle
 10
417.6241360765399
 20
137.3652590424715
 30
0.0
 40
28.9999995
  0
LINE
  5
238
330
2
100
AcDbEntity
  8
4
100
AcDbLine
 10
458.72403857654
 20
141.3652595424716
 30
0.0
 11
458.72403857654
 21
35.36545704247158
 31
0.0
  0
LINE
  5
239
330
2
100
AcDbEntity
  8
4
100
AcDbLine
 10
447.6241360765399
 20
144.3650150424716
 30
0.0
 11
447.6241360765399
 21
35.36545704247158
 31
0.0
  0
LINE
  5
23A
330
2
100
AcDbEntity
  8
4
100
AcDbLine
 10
387.6241360765398
 20
144.3650150424716
 30
0.0
 11
387.6241360765399
 21
35.36545704247158
 31
0.0
  0
LINE
  5
23B
330
2
100
AcDbEntity
  8
4
100
AcDbLine
 10
450.7241365765397
 20
142.3652600424715
 30
0.0
 11
450.7241365765397
 21
35.36545704247158
 31
0.0
  0
LINE
  5
23C
330
2
100
AcDbEntity
  8
4
100
AcDbLine
 10
381.6241360765399
 20
145.3652595424716
 30
0.0
 11
381.6241360765399
 21
35.36545704247158
 31
0.0
  0
LINE
  5
23D
330
2
100
AcDbEntity
  8
L-CENTER
 48
1.5
100
AcDbLine
 10
417.6241360765399
 20
180.9363973467783
 30
0.0
 11
417.6241360765398
 21
16.38943799674587
 31
0.0
  0
LINE
  5
240
330
2
100
AcDbEntity
  8
4
100
AcDbLine
 10
487.6241365765398
 20
74.8652600424715
 30
0.0
 11
516.6241360765398
 21
74.8652600424715
 31
0.0
  0
LINE
  5
241
330
2
100
AcDbEntity
  8
4
100
AcDbLine
 10
490.6241365765398
 20
95.8652600424715
 30
0.0
 11
517.6241365765397
 21
95.8652600424715
 31
0.0
  0
LINE
  5
242
330
2
100
AcDbEntity
  8
4
100
AcDbLine
 10
487.6241365765398
 20
93.86525904247151
 30
0.0
 11
516.6241360765398
 21
93.86525904247151
 31
0.0
  0
ARC
  5
243
330
2
100
AcDbEntity
  8
4
100
AcDbCircle
 10
449.6241355765397
 20
38.36545704247158
 30
0.0
 40
3.0
100
AcDbArc
 50
180.0
 51
270.0
  0
ARC
  5
244
330
2
100
AcDbEntity
  8
4
100
AcDbCircle
 10
385.6241365765398
 20
38.36545704247158
 30
0.0
 40
3.0
100
AcDbArc
 50
270.0
 51
0.0
  0
LINE
  5
245
330
2
100
AcDbEntity
  8
L-CENTER
 48
1.5
100
AcDbLine
 10
448.1241355765397
 20
40.36525954247156
 30
0.0
 11
448.1241355765397
 21
14.36525954247156
 31
0.0
  0
LINE
  5
246
330
2
100
AcDbEntity
  8
L-CENTER
 48
1.5
100
AcDbLine
 10
387.1241365765398
 20
40.36525954247156
 30
0.0
 11
387.1241365765398
 21
14.36525954247156
 31
0.0
  0
LINE
  5
247
330
2
100
AcDbEntity
  8
4
100
AcDbLine
 10
459.1241365765398
 20
35.36545704247158
 30
0.0
 11
376.1241355765398
 21
35.36545704247158
 31
0.0
  0
LINE
  5
248
330
2
100
AcDbEntity
  8
4
100
AcDbLine
 10
460.1241355765399
 20
19.36545804247146
 30
0.0
 11
375.1241365765398
 21
19.36545804247146
 31
0.0
  0
LINE
  5
250
330
2
100
AcDbEntity
  8
4
100
AcDbLine
 10
375.1241365765398
 20
19.36545804247146
 30
0.0
 11
375.1241365765398
 21
34.36545804247146
 31
0.0
  0
ARC
  5
251
330
2
100
AcDbEntity
  8
4
100
AcDbCircle
 10
376.1241355765398
 20
34.36545804247146
 30
0.0
 40
1.0000005
100
AcDbArc
 50
90.0
 51
180.0008589993967
  0
LINE
  5
257
330
2
100
AcDbEntity
  8
4
100
AcDbLine
 10
460.1241355765399
 20
19.36545804247146
 30
0.0
 11
460.1241355765399
 21
34.36545804247146
 31
0.0
  0
ARC
  5
258
330
2
100
AcDbEntity
  8
4
100
AcDbCircle
 10
459.1241365765398
 20
34.36545804247146
 30
0.0
 40
1.0000005
100
AcDbArc
 50
0.0
 51
90.0
  0
LINE
  5
259
330
2
100
AcDbEntity
  8
L-CENTER
 48
1.5
100
AcDbLine
 10
456.6912745765399
 20
137.3652590424715
 30
0.0
 11
378.5569975765398
 21
137.3652590424715
 31
0.0
  0
LINE
  5
25A
330
2
100
AcDbEntity
  8
4
100
AcDbLine
 10
388.6241365765398
 20
137.3652590424715
 30
0.0
 11
388.6241365765398
 21
38.36545704247158
 31
0.0
  0
LINE
  5
25B
330
2
100
AcDbEntity
  8
4
100
AcDbLine
 10
487.6241365765398
 20
94.3652600424715
 30
0.0
 11
487.6241365765398
 21
74.36525904247151
 31
0.0
  0
LINE
  5
25C
330
2
100
AcDbEntity
  8
4
100
AcDbLine
 10
467.7238915765398
 20
104.3652590424715
 30
0.0
 11
467.7238915765396
 21
64.36545704247146
 31
0.0
  0
LINE
  5
25D
330
2
100
AcDbEntity
  8
4
100
AcDbLine
 10
466.7238925765396
 20
109.5454355424715
 30
0.0
 11
466.7238925765396
 21
60.18526704247154
 31
0.0
  0
LINE
  5
25E
330
2
100
AcDbEntity
  8
4
100
AcDbLine
 10
461.7238915765398
 20
111.3652595424716
 30
0.0
 11
461.7238915765398
 21
58.36545804247146
 31
0.0
  0
LINE
  5
25F
330
2
100
AcDbEntity
  8
4
100
AcDbLine
 10
446.6241355765397
 20
137.3652590424715
 30
0.0
 11
446.6241355765397
 21
38.36545704247158
 31
0.0
  0
LINE
  5
260
330
2
100
AcDbEntity
  8
4
100
AcDbLine
 10
487.6241365765398
 20
74.36525904247151
 30
0.0
 11
467.7238915765398
 21
74.36525904247151
 31
0.0
  0
LINE
  5
261
330
2
100
AcDbEntity
  8
L-CENTER
 48
1.5
100
AcDbLine
 10
467.574567950048
 20
47.24325954247149
 30
0.0
 11
446.9364098012435
 21
47.24325954247149
 31
0.0
  0
LINE
  5
262
330
2
100
AcDbEntity
  8
4
100
AcDbLine
 10
460.0240385765398
 20
51.49325954247161
 30
0.0
 11
460.0240385765398
 21
42.99325954247149
 31
0.0
  0
LINE
  5
263
330
2
100
AcDbEntity
  8
4
100
AcDbLine
 10
465.0240385765399
 20
51.49325954247149
 30
0.0
 11
465.0240385765399
 21
42.99325954247149
 31
0.0
  0
LINE
  5
264
330
2
100
AcDbEntity
  8
4
100
AcDbLine
 10
465.0240385765399
 20
42.99325954247149
 30
0.0
 11
458.72403857654
 21
42.99325954247149
 31
0.0
  0
LINE
  5
265
330
2
100
AcDbEntity
  8
2
100
AcDbLine
 10
458.72403857654
 20
47.24325954247149
 30
0.0
 11
460.0240385765398
 21
48.54325954247133
 31
0.0
  0
LINE
  5
266
330
2
100
AcDbEntity
  8
2
100
AcDbLine
 10
458.72403857654
 20
45.82904598009839
 30
0.0
 11
460.0240385765398
 21
47.12904598009823
 31
0.0
  0
LINE
  5
267
330
2
100
AcDbEntity
  8
4
100
AcDbLine
 10
465.0240385765399
 20
51.49325954247149
 30
0.0
 11
458.72403857654
 21
51.49325954247149
 31
0.0
  0
LINE
  5
268
330
2
100
AcDbEntity
  8
4
100
AcDbLine
 10
465.9200095765398
 20
59.20469154247155
 30
0.0
 11
461.7238915765398
 21
58.36545804247146
 31
0.0
  0
LINE
  5
269
330
2
100
AcDbEntity
  8
4
100
AcDbLine
 10
461.7238915765398
 20
58.3652600424715
 30
0.0
 11
460.1647579926237
 21
51.49325954247149
 31
0.0
  0
ARC
  5
26A
330
2
100
AcDbEntity
  8
4
100
AcDbCircle
 10
465.7238920765399
 20
60.18526704247154
 30
0.0
 40
0.9999974999999999
100
AcDbArc
 50
281.3058310000006
 51
0.0
  0
LINE
  5
26B
330
2
100
AcDbEntity
  8
4
100
AcDbLine
 10
467.7238915765398
 20
64.36545704247158
 30
0.0
 11
466.7238925765396
 21
64.36545704247158
 31
0.0
  0
LINE
  5
26C
330
2
100
AcDbEntity
  8
4
100
AcDbLine
 10
467.7238915765398
 20
94.3652600424715
 30
0.0
 11
487.6241365765398
 21
94.3652600424715
 31
0.0
  0
LINE
  5
26D
330
2
100
AcDbEntity
  8
4
100
AcDbLine
 10
461.7238915765398
 20
111.3652595424716
 30
0.0
 11
460.3916401593935
 21
117.2372595424714
 31
0.0
  0
LINE
  5
26E
330
2
100
AcDbEntity
  8
4
100
AcDbLine
 10
465.9200095765398
 20
110.5261340424715
 30
0.0
 11
461.7238915765398
 21
111.3652595424716
 31
0.0
  0
ARC
  5
26F
330
2
100
AcDbEntity
  8
4
100
AcDbCircle
 10
465.7238920765399
 20
109.5454355424715
 30
0.0
 40
1.0000575
100
AcDbArc
 50
0.0
 51
78.69555000000034
  0
LINE
  5
270
330
2
100
AcDbEntity
  8
4
100
AcDbLine
 10
467.7238915765398
 20
104.3652590424715
 30
0.0
 11
466.7238925765396
 21
104.3652590424715
 31
0.0
  0
LINE
  5
271
330
2
100
AcDbEntity
  8
L-CENTER
 48
1.5
100
AcDbLine
 10
467.574567950048
 20
121.4872595424714
 30
0.0
 11
446.9364098012435
 21
121.4872595424714
 31
0.0
  0
LINE
  5
272
330
2
100
AcDbEntity
  8
4
100
AcDbLine
 10
465.0240385765399
 20
117.2372595424714
 30
0.0
 11
458.72403857654
 21
117.2372595424714
 31
0.0
  0
LINE
  5
273
330
2
100
AcDbEntity
  8
4
100
AcDbLine
 10
465.0240385765399
 20
125.7372595424714
 30
0.0
 11
458.72403857654
 21
125.7372595424714
 31
0.0
  0
LINE
  5
274
330
2
100
AcDbEntity
  8
2
100
AcDbLine
 10
458.72403857654
 20
120.0730459800983
 30
0.0
 11
460.0240385765398
 21
121.3730459800983
 31
0.0
  0
LINE
  5
275
330
2
100
AcDbEntity
  8
2
100
AcDbLine
 10
458.72403857654
 20
121.4872595424714
 30
0.0
 11
460.0240385765398
 21
122.7872595424714
 31
0.0
  0
LINE
  5
276
330
2
100
AcDbEntity
  8
4
100
AcDbLine
 10
460.0240385765398
 20
117.2372595424714
 30
0.0
 11
460.0240385765398
 21
125.7372595424714
 31
0.0
  0
LINE
  5
277
330
2
100
AcDbEntity
  8
4
100
AcDbLine
 10
465.0240385765399
 20
117.2372595424714
 30
0.0
 11
465.0240385765399
 21
125.7372595424714
 31
0.0
  0
LINE
  5
279
330
2
100
AcDbEntity
  8
4
100
AcDbLine
 10
490.6241365765398
 20
95.8652600424715
 30
0.0
 11
490.6241365765398
 21
93.86525904247151
 31
0.0
  0
LINE
  5
27B
330
2
100
AcDbEntity
  8
4
100
AcDbLine
 10
517.6241365765397
 20
95.8652600424715
 30
0.0
 11
517.6241365765397
 21
75.86525904247151
 31
0.0
  0
LINE
  5
27C
330
2
100
AcDbEntity
  8
4
100
AcDbLine
 10
516.6241360765398
 20
93.86525904247151
 30
0.0
 11
516.6241360765398
 21
74.8652600424715
 31
0.0
  0
LINE
  5
27F
330
2
100
AcDbEntity
  8
4
100
AcDbLine
 10
516.6241360765398
 20
74.8652600424715
 30
0.0
 11
517.6241365765397
 21
75.86525904247151
 31
0.0
  0
LINE
  5
282
330
2
100
AcDbEntity
  8
4
100
AcDbLine
 10
517.6241365765397
 20
92.8652600424715
 30
0.0
 11
516.6241360765398
 21
93.86525904247151
 31
0.0
  0
ARC
  5
286
330
2
100
AcDbEntity
  8
4
100
AcDbCircle
 10
417.6241360765399
 20
-132.6345429575285
 30
0.0
 40
300.0000255
100
AcDbArc
 50
85.1494769999999
 51
94.85046600000007
  0
LINE
  5
288
330
2
100
AcDbEntity
  8
4
100
AcDbLine
 10
430.1241355765397
 20
172.8652595424716
 30
0.0
 11
405.1241365765398
 21
172.8652595424716
 31
0.0
  0
LINE
  5
289
330
2
100
AcDbEntity
  8
4
100
AcDbLine
 10
430.1241355765397
 20
169.8652595424716
 30
0.0
 11
405.1241365765398
 21
169.8652595424716
 31
0.0
  0
LINE
  5
28A
330
2
100
AcDbEntity
  8
4
100
AcDbLine
 10
431.6241355765397
 20
168.3652595424716
 30
0.0
 11
403.6241365765398
 21
168.3652595424716
 31
0.0
  0
ARC
  5
28B
330
2
100
AcDbEntity
  8
4
100
AcDbCircle
 10
392.5111435765398
 20
163.3018580424715
 30
0.0
 40
3.0
100
AcDbArc
 50
94.85046600000057
 51
175.5707740000006
  0
LINE
  5
28C
330
2
100
AcDbEntity
  8
4
100
AcDbLine
 10
382.6241365765397
 20
141.0319262091383
 30
0.0
 11
387.6241360765398
 21
141.0319262091383
 31
0.0
  0
ARC
  5
28D
330
2
100
AcDbEntity
  8
4
100
AcDbCircle
 10
382.6241365765397
 20
140.0319257091382
 30
0.0
 40
1.0000005
100
AcDbArc
 50
90.0
 51
180.0
  0
LINE
  5
28E
330
2
100
AcDbEntity
  8
4
100
AcDbLine
 10
388.7059240765398
 20
144.3650150424716
 30
0.0
 11
387.6241360765399
 21
144.3650150424716
 31
0.0
  0
ARC
  5
28F
330
2
100
AcDbEntity
  8
4
100
AcDbCircle
 10
402.6241360765399
 20
167.9912360424715
 30
0.0
 40
1.000011
100
AcDbArc
 50
272.8547369999997
 51
0.0
  0
LINE
  5
290
330
2
100
AcDbEntity
  8
4
100
AcDbLine
 10
403.6241365765398
 20
167.9912360424715
 30
0.0
 11
403.6241365765398
 21
168.3652595424716
 31
0.0
  0
LINE
  5
291
330
2
100
AcDbEntity
  8
4
100
AcDbLine
 10
406.1241355765397
 20
168.3652595424716
 30
0.0
 11
406.1241355765397
 21
169.8652595424716
 31
0.0
  0
LINE
  5
292
330
2
100
AcDbEntity
  8
4
100
AcDbLine
 10
405.1241365765398
 20
169.8652595424716
 30
0.0
 11
405.1241365765398
 21
172.8652595424716
 31
0.0
  0
LINE
  5
297
330
2
100
AcDbEntity
  8
4
100
AcDbLine
 10
428.4495760765397
 20
176.8652600424715
 30
0.0
 11
406.7989405765398
 21
176.8652600424715
 31
0.0
  0
LINE
  5
298
330
2
100
AcDbEntity
  8
4
100
AcDbLine
 10
406.7989405765398
 20
172.8652595424716
 30
0.0
 11
406.7989405765398
 21
176.8652600424715
 31
0.0
  0
LINE
  5
299
330
2
100
AcDbEntity
  8
4
100
AcDbLine
 10
430.1241355765397
 20
169.8652595424716
 30
0.0
 11
430.1241355765397
 21
172.8652595424716
 31
0.0
  0
LINE
  5
29A
330
2
100
AcDbEntity
  8
4
100
AcDbLine
 10
429.1241365765398
 20
168.3652595424716
 30
0.0
 11
429.1241365765398
 21
169.8652595424716
 31
0.0
  0
LINE
  5
29B
330
2
100
AcDbEntity
  8
4
100
AcDbLine
 10
428.4495760765397
 20
172.8652595424716
 30
0.0
 11
428.4495760765397
 21
176.8652600424715
 31
0.0
  0
ARC
  5
29C
330
2
100
AcDbEntity
  8
4
100
AcDbCircle
 10
432.6241360765399
 20
167.9912360424715
 30
0.0
 40
1.000011
100
AcDbArc
 50
180.0
 51
267.1453199999998
  0
LINE
  5
29D
330
2
100
AcDbEntity
  8
4
100
AcDbLine
 10
431.6241355765397
 20
167.9912360424715
 30
0.0
 11
431.6241355765397
 21
168.3652595424716
 31
0.0
  0
ARC
  5
2A3
330
2
100
AcDbEntity
  8
4
100
AcDbCircle
 10
442.7374240765399
 20
163.3018325424715
 30
0.0
 40
3.0
100
AcDbArc
 50
4.429219999997834
 51
85.1494770000003
  0
LINE
  5
2A4
330
2
100
AcDbEntity
  8
4
100
AcDbLine
 10
447.6241360765399
 20
142.3652600424715
 30
0.0
 11
457.7240395765398
 21
142.3652600424715
 31
0.0
  0
LINE
  5
2A5
330
2
100
AcDbEntity
  8
4
100
AcDbLine
 10
447.6241360765399
 20
144.3650150424716
 30
0.0
 11
446.5423495765399
 21
144.3650150424716
 31
0.0
  0
ARC
  5
2A6
330
2
100
AcDbEntity
  8
4
100
AcDbCircle
 10
457.7240395765398
 20
141.3652595424716
 30
0.0
 40
1.0000005
100
AcDbArc
 50
0.0
 51
90.0
  0
ARC
  5
3E2
330
2
100
AcDbEntity
  8
4
100
AcDbCircle
 10
176.5815844258607
 20
129.3652595424713
 30
0.0
 40
17.0
100
AcDbArc
 50
43.33592273608313
 51
136.6640772639169
  0
LINE
  5
3E3
330
2
100
AcDbEntity
  8
4
100
AcDbLine
 10
227.5815844258607
 20
161.3652595424714
 30
0.0
 11
198.5815844258607
 21
161.3652595424714
 31
0.0
  0
LINE
  5
3E4
330
2
100
AcDbEntity
  8
4
100
AcDbLine
 10
213.0815844258607
 20
148.8652595424714
 30
0.0
 11
210.0815844258607
 21
148.8652595424714
 31
0.0
  0
LINE
  5
3E5
330
2
100
AcDbEntity
  8
4
100
AcDbLine
 10
213.0815844258607
 20
158.8652595424714
 30
0.0
 11
210.0815844258607
 21
158.8652595424716
 31
0.0
  0
LINE
  5
3E6
330
2
100
AcDbEntity
  8
4
100
AcDbLine
 10
209.5815844258607
 20
158.3652595424716
 30
0.0
 11
209.5815844258607
 21
149.3652595424714
 31
0.0
  0
LINE
  5
3E7
330
2
100
AcDbEntity
  8
4
100
AcDbLine
 10
197.5815844258607
 20
160.3652595424714
 30
0.0
 11
197.5815844258607
 21
147.3652595424713
 31
0.0
  0
LINE
  5
3E8
330
2
100
AcDbEntity
  8
4
100
AcDbLine
 10
202.5815844258607
 20
158.3652595424714
 30
0.0
 11
202.5815844258607
 21
151.8652595424714
 31
0.0
  0
LINE
  5
3E9
330
2
100
AcDbEntity
  8
4
100
AcDbLine
 10
200.0815844258607
 20
158.3652595424714
 30
0.0
 11
200.0815844258607
 21
149.3652595424714
 31
0.0
  0
ARC
  5
3EA
330
2
100
AcDbEntity
  8
4
100
AcDbCircle
 10
203.0815844258607
 20
151.8652595424714
 30
0.0
 40
0.5
100
AcDbArc
 50
180.0
 51
270.0
  0
LINE
  5
3EB
330
2
100
AcDbEntity
  8
4
100
AcDbLine
 10
207.0815844258607
 20
148.8652595424714
 30
0.0
 11
200.5815844258607
 21
148.8652595424714
 31
0.0
  0
ARC
  5
3EC
330
2
100
AcDbEntity
  8
4
100
AcDbCircle
 10
200.5815844258607
 20
149.3652595424714
 30
0.0
 40
0.5
100
AcDbArc
 50
180.0
 51
270.0
  0
ARC
  5
3ED
330
2
100
AcDbEntity
  8
4
100
AcDbCircle
 10
210.0815844258607
 20
149.3652595424714
 30
0.0
 40
0.5
100
AcDbArc
 50
180.0
 51
270.0
  0
ARC
  5
3EE
330
2
100
AcDbEntity
  8
4
100
AcDbCircle
 10
207.0815844258607
 20
149.3652595424714
 30
0.0
 40
0.5
100
AcDbArc
 50
270.0
 51
0.0
  0
ARC
  5
3EF
330
2
100
AcDbEntity
  8
4
100
AcDbCircle
 10
207.0815844258607
 20
150.8652595424714
 30
0.0
 40
0.5
100
AcDbArc
 50
0.0
 51
90.0
  0
LINE
  5
3F0
330
2
100
AcDbEntity
  8
4
100
AcDbLine
 10
207.5815844258607
 20
150.8652595424714
 30
0.0
 11
207.5815844258607
 21
149.3652595424714
 31
0.0
  0
LINE
  5
3F1
330
2
100
AcDbEntity
  8
4
100
AcDbLine
 10
207.0815844258607
 20
151.3652595424714
 30
0.0
 11
203.0815844258607
 21
151.3652595424714
 31
0.0
  0
ARC
  5
3F2
330
2
100
AcDbEntity
  8
4
100
AcDbCircle
 10
202.0815844258607
 20
158.3652595424714
 30
0.0
 40
0.5
100
AcDbArc
 50
0.0
 51
90.0
  0
ARC
  5
3F3
330
2
100
AcDbEntity
  8
4
100
AcDbCircle
 10
200.5815844258607
 20
158.3652595424714
 30
0.0
 40
0.5
100
AcDbArc
 50
90.0
 51
180.0
  0
ARC
  5
3F4
330
2
100
AcDbEntity
  8
4
100
AcDbCircle
 10
198.5815844258607
 20
160.3652595424714
 30
0.0
 40
1.0
100
AcDbArc
 50
90.0
 51
180.0
  0
LINE
  5
3F5
330
2
100
AcDbEntity
  8
4
100
AcDbLine
 10
202.0815844258607
 20
158.8652595424714
 30
0.0
 11
200.5815844258607
 21
158.8652595424714
 31
0.0
  0
ARC
  5
3F6
330
2
100
AcDbEntity
  8
4
100
AcDbCircle
 10
210.0815844258607
 20
158.3652595424716
 30
0.0
 40
0.5
100
AcDbArc
 50
90.0
 51
180.0
  0
LINE
  5
3F7
330
2
100
AcDbEntity
  8
4
100
AcDbLine
 10
226.0815844258607
 20
158.3652595424714
 30
0.0
 11
226.0815844258607
 21
149.3652595424714
 31
0.0
  0
LINE
  5
3F8
330
2
100
AcDbEntity
  8
4
100
AcDbLine
 10
223.5815844258607
 20
158.3652595424714
 30
0.0
 11
223.5815844258607
 21
149.3652595424714
 31
0.0
  0
ARC
  5
3F9
330
2
100
AcDbEntity
  8
4
100
AcDbCircle
 10
215.0815844258607
 20
156.8652595424714
 30
0.0
 40
2.0
100
AcDbArc
 50
0.0
 51
90.0
  0
ARC
  5
3FA
330
2
100
AcDbEntity
  8
4
100
AcDbCircle
 10
217.3176524033605
 20
153.8652595424713
 30
0.0
 40
1.0
100
AcDbArc
 50
138.1896851042239
 51
221.8103148957761
  0
LINE
  5
3FB
330
2
100
AcDbEntity
  8
4
100
AcDbLine
 10
217.0815844258607
 20
155.8652595424713
 30
0.0
 11
217.0815844258607
 21
156.8652595424714
 31
0.0
  0
LINE
  5
3FC
330
2
100
AcDbEntity
  8
4
100
AcDbLine
 10
217.0815844258607
 20
150.8652595424714
 30
0.0
 11
217.0815844258607
 21
151.8652595424713
 31
0.0
  0
ARC
  5
3FD
330
2
100
AcDbEntity
  8
4
100
AcDbCircle
 10
215.0815844258607
 20
151.8652595424713
 30
0.0
 40
2.0
100
AcDbArc
 50
0.0
 51
41.81031489577556
  0
ARC
  5
3FE
330
2
100
AcDbEntity
  8
4
100
AcDbCircle
 10
215.0815844258607
 20
155.8652595424713
 30
0.0
 40
2.0
100
AcDbArc
 50
318.1896851042245
 51
0.0
  0
LINE
  5
3FF
330
2
100
AcDbEntity
  8
4
100
AcDbLine
 10
213.0815844258605
 20
148.8652595424714
 30
0.0
 11
215.0815844258607
 21
148.8652595424714
 31
0.0
  0
ARC
  5
400
330
2
100
AcDbEntity
  8
4
100
AcDbCircle
 10
215.0815844258607
 20
150.8652595424714
 30
0.0
 40
2.0
100
AcDbArc
 50
270.0
 51
0.0
  0
ARC
  5
401
330
2
100
AcDbEntity
  8
4
100
AcDbCircle
 10
224.0815844258607
 20
149.3652595424714
 30
0.0
 40
0.5
100
AcDbArc
 50
180.0
 51
270.0
  0
ARC
  5
402
330
2
100
AcDbEntity
  8
4
100
AcDbCircle
 10
221.0815844258607
 20
153.1152595424714
 30
0.0
 40
0.5
100
AcDbArc
 50
270.0
 51
0.0
  0
ARC
  5
403
330
2
100
AcDbEntity
  8
4
100
AcDbCircle
 10
219.5815844258607
 20
153.1152595424714
 30
0.0
 40
0.5
100
AcDbArc
 50
180.0
 51
270.0
  0
ARC
  5
404
330
2
100
AcDbEntity
  8
4
100
AcDbCircle
 10
221.0815844258607
 20
154.6152595424714
 30
0.0
 40
0.5
100
AcDbArc
 50
0.0
 51
90.0
  0
ARC
  5
405
330
2
100
AcDbEntity
  8
4
100
AcDbCircle
 10
219.5815844258607
 20
154.6152595424714
 30
0.0
 40
0.5
100
AcDbArc
 50
90.0
 51
180.0
  0
LINE
  5
406
330
2
100
AcDbEntity
  8
4
100
AcDbLine
 10
224.0815844258607
 20
148.8652595424714
 30
0.0
 11
225.5815844258607
 21
148.8652595424714
 31
0.0
  0
LINE
  5
407
330
2
100
AcDbEntity
  8
4
100
AcDbLine
 10
221.5815844258607
 20
154.6152595424714
 30
0.0
 11
221.5815844258607
 21
153.1152595424714
 31
0.0
  0
LINE
  5
408
330
2
100
AcDbEntity
  8
4
100
AcDbLine
 10
219.0815844258607
 20
154.6152595424714
 30
0.0
 11
219.0815844258607
 21
153.1152595424714
 31
0.0
  0
LINE
  5
409
330
2
100
AcDbEntity
  8
4
100
AcDbLine
 10
219.5815844258607
 20
152.6152595424714
 30
0.0
 11
221.0815844258607
 21
152.6152595424714
 31
0.0
  0
LINE
  5
40A
330
2
100
AcDbEntity
  8
4
100
AcDbLine
 10
219.5815844258607
 20
155.1152595424714
 30
0.0
 11
221.0815844258607
 21
155.1152595424714
 31
0.0
  0
ARC
  5
40B
330
2
100
AcDbEntity
  8
4
100
AcDbCircle
 10
225.5815844258607
 20
149.3652595424714
 30
0.0
 40
0.5
100
AcDbArc
 50
270.0
 51
0.0
  0
LINE
  5
40C
330
2
100
AcDbEntity
  8
4
100
AcDbLine
 10
213.0815844258605
 20
158.8652595424714
 30
0.0
 11
215.0815844258607
 21
158.8652595424714
 31
0.0
  0
ARC
  5
40D
330
2
100
AcDbEntity
  8
4
100
AcDbCircle
 10
224.0815844258607
 20
158.3652595424714
 30
0.0
 40
0.5
100
AcDbArc
 50
90.0
 51
180.0
  0
LINE
  5
40E
330
2
100
AcDbEntity
  8
4
100
AcDbLine
 10
224.0815844258607
 20
158.8652595424714
 30
0.0
 11
225.5815844258607
 21
158.8652595424714
 31
0.0
  0
ARC
  5
40F
330
2
100
AcDbEntity
  8
4
100
AcDbCircle
 10
225.5815844258607
 20
158.3652595424714
 30
0.0
 40
0.5
100
AcDbArc
 50
0.0
 51
90.0
  0
LINE
  5
410
330
2
100
AcDbEntity
  8
4
100
AcDbLine
 10
228.5815844258607
 20
160.3652595424714
 30
0.0
 11
228.5815844258607
 21
147.3652595424714
 31
0.0
  0
ARC
  5
411
330
2
100
AcDbEntity
  8
4
100
AcDbCircle
 10
227.5815844258607
 20
160.3652595424714
 30
0.0
 40
1.0
100
AcDbArc
 50
0.0
 51
90.0
  0
LINE
  5
412
330
2
100
AcDbEntity
  8
4
100
AcDbLine
 10
227.5815844258607
 20
146.3652595424714
 30
0.0
 11
198.5815844258607
 21
146.3652595424713
 31
0.0
  0
ARC
  5
413
330
2
100
AcDbEntity
  8
4
100
AcDbCircle
 10
198.5815844258607
 20
147.3652595424713
 30
0.0
 40
1.0
100
AcDbArc
 50
180.0
 51
270.0
  0
ARC
  5
414
330
2
100
AcDbEntity
  8
4
100
AcDbCircle
 10
227.5815844258607
 20
147.3652595424714
 30
0.0
 40
1.0
100
AcDbArc
 50
270.0
 51
0.0
  0
ARC
  5
415
330
2
100
AcDbEntity
  8
4
100
AcDbCircle
 10
176.5815844258607
 20
129.3652595424713
 30
0.0
 40
15.5
100
AcDbArc
 50
187.0106522336394
 51
352.9893477663606
  0
ARC
  5
416
330
2
100
AcDbEntity
  8
4
100
AcDbCircle
 10
160.2049470560216
 20
127.3513706535826
 30
0.0
 40
1.0
100
AcDbArc
 50
7.010652233639493
 51
110.8555940586816
  0
ARC
  5
417
330
2
100
AcDbEntity
  8
4
100
AcDbCircle
 10
192.9582217956998
 20
127.3513706535826
 30
0.0
 40
1.0
100
AcDbArc
 50
69.14440594131844
 51
172.9893477663541
  0
LINE
  5
418
330
2
100
AcDbEntity
  8
4
100
AcDbLine
 10
387.4074048229991
 20
160.9021781351281
 30
0.0
 11
386.6807974626916
 21
147.0376837747866
 31
0.0
  0
ARC
  5
419
330
2
100
AcDbEntity
  8
4
100
AcDbCircle
 10
388.4060343577538
 20
160.8498421788853
 30
0.0
 40
1.0
100
AcDbArc
 50
86.99999999999442
 51
177.0000000000009
  0
LINE
  5
41A
330
2
100
AcDbEntity
  8
4
100
AcDbLine
 10
388.4583703139966
 20
161.8484717136398
 30
0.0
 11
389.5015597197485
 21
161.7938004735128
 31
0.0
  0
LINE
  5
41B
330
2
100
AcDbEntity
  8
4
100
AcDbLine
 10
382.6241360765399
 20
146.3652595424716
 30
0.0
 11
386.7890232533533
 21
146.3652595424716
 31
0.0
  0
ARC
  5
41C
330
2
100
AcDbEntity
  8
4
100
AcDbCircle
 10
382.6241360765399
 20
145.3652595424716
 30
0.0
 40
1.0
100
AcDbArc
 50
90.0
 51
180.0
  0
ARC
  5
41D
330
2
100
AcDbEntity
  8
4
100
AcDbCircle
 10
386.7890232533533
 20
148.3652595424716
 30
0.0
 40
2.0
100
AcDbArc
 50
270.0
 51
272.9735751577552
  0
ARC
  5
41E
330
2
100
AcDbEntity
  8
4
100
AcDbCircle
 10
387.679426997446
 20
146.9853478185438
 30
0.0
 40
1.0
100
AcDbArc
 50
177.0000000000009
 51
266.9999999999944
  0
LINE
  5
41F
330
2
100
AcDbEntity
  8
4
100
AcDbLine
 10
387.627091041203
 20
145.9867182837892
 30
0.0
 11
388.7686511823234
 21
145.9268916518751
 31
0.0
  0
LINE
  5
420
330
2
100
AcDbEntity
  8
4
100
AcDbLine
 10
197.5815844258607
 20
335.2716676147944
 30
0.0
 11
197.5815844258607
 21
334.2716676147944
 31
0.0
  0
LINE
  5
421
330
2
100
AcDbEntity
  8
4
100
AcDbLine
 10
228.5815844258607
 20
335.2716676147944
 30
0.0
 11
228.5815844258607
 21
334.2716676147944
 31
0.0
  0
LINE
  5
422
330
2
100
AcDbEntity
  8
4
100
AcDbLine
 10
227.5815844258607
 20
333.2716676147944
 30
0.0
 11
198.5815844258607
 21
333.2716676147944
 31
0.0
  0
ARC
  5
423
330
2
100
AcDbEntity
  8
4
100
AcDbCircle
 10
198.5815844258607
 20
334.2716676147944
 30
0.0
 40
1.0
100
AcDbArc
 50
180.0
 51
270.0
  0
ARC
  5
424
330
2
100
AcDbEntity
  8
4
100
AcDbCircle
 10
227.5815844258607
 20
334.2716676147944
 30
0.0
 40
1.0
100
AcDbArc
 50
270.0
 51
0.0
  0
ARC
  5
425
330
2
100
AcDbEntity
  8
4
100
AcDbCircle
 10
176.5815844258608
 20
341.7908360055486
 30
0.0
 40
20.48020688974221
100
AcDbArc
 50
221.3081844218482
 51
318.6918155781516
  0
LINE
  5
426
330
2
100
AcDbEntity
  8
4
100
AcDbLine
 10
188.9464090865215
 20
329.2716676147946
 30
0.0
 11
188.9464090865215
 21
334.2716676147946
 31
0.0
  0
ARC
  5
427
330
2
100
AcDbEntity
  8
4
100
AcDbCircle
 10
187.9464090865215
 20
329.2716676147946
 30
0.0
 40
1.0
100
AcDbArc
 50
270.0
 51
0.0
  0
LINE
  5
428
330
2
100
AcDbEntity
  8
4
100
AcDbLine
 10
164.2167597651996
 20
329.2716676147946
 30
0.0
 11
164.2167597651996
 21
334.2716676147946
 31
0.0
  0
ARC
  5
429
330
2
100
AcDbEntity
  8
4
100
AcDbCircle
 10
165.2167597651996
 20
329.2716676147946
 30
0.0
 40
1.0
100
AcDbArc
 50
180.0
 51
270.0
  0
ARC
  5
49C
330
2
100
AcDbEntity
  8
4
100
AcDbCircle
 10
557.9168355568096
 20
84.36525954247156
 30
0.0
 40
9.499945499999999
100
AcDbArc
 50
105.2576160761636
 51
74.7422979999999
  0
LINE
  5
4C3
330
2
100
AcDbEntity
  8
4
100
AcDbLine
 10
96.5816599258608
 20
144.8652590424716
 30
0.0
 11
96.5816599258608
 21
129.8652590424716
 31
0.0
  0
LINE
  5
4C4
330
2
100
AcDbEntity
  8
4
100
AcDbLine
 10
67.08166092586072
 20
144.3652595424715
 30
0.0
 11
67.08166092586066
 21
130.3652600424716
 31
0.0
  0
LINE
  5
4C5
330
2
100
AcDbEntity
  8
4
100
AcDbLine
 10
66.58165992586083
 20
146.3652590424716
 30
0.0
 11
66.58165992586078
 21
130.8652595424715
 31
0.0
  0
LINE
  5
4C6
330
2
100
AcDbEntity
  8
4
100
AcDbLine
 10
112.5816604258607
 20
129.8652590424715
 30
0.0
 11
96.5816599258608
 21
129.8652590424716
 31
0.0
  0
LINE
  5
4C7
330
2
100
AcDbEntity
  8
4
100
AcDbLine
 10
96.5816599258608
 20
130.3652600424716
 30
0.0
 11
67.08166092586066
 21
130.3652600424716
 31
0.0
  0
LINE
  5
4C9
330
2
100
AcDbEntity
  8
4
100
AcDbLine
 10
67.08166092586066
 20
130.3652600424716
 30
0.0
 11
66.58165992586078
 21
130.8652595424715
 31
0.0
  0
LINE
  5
4CB
330
2
100
AcDbEntity
  8
4
100
AcDbLine
 10
96.5816599258608
 20
144.8652590424716
 30
0.0
 11
112.5816604258607
 21
144.8652590424715
 31
0.0
  0
LINE
  5
4CC
330
2
100
AcDbEntity
  8
4
100
AcDbLine
 10
66.58165992586083
 20
146.3652590424716
 30
0.0
 11
93.5816599258608
 21
146.3652590424716
 31
0.0
  0
LINE
  5
4CD
330
2
100
AcDbEntity
  8
4
100
AcDbLine
 10
96.5816599258608
 20
144.3652595424715
 30
0.0
 11
67.08166092586072
 21
144.3652595424715
 31
0.0
  0
LINE
  5
4CE
330
2
100
AcDbEntity
  8
4
100
AcDbLine
 10
93.5816599258608
 20
146.3652590424716
 30
0.0
 11
93.5816599258608
 21
144.3652595424715
 31
0.0
  0
LINE
  5
4CF
330
2
100
AcDbEntity
  8
4
100
AcDbLine
 10
66.58165992586083
 20
143.8652600424716
 30
0.0
 11
67.08166092586072
 21
144.3652595424715
 31
0.0
  0
LINE
  5
4E4
330
2
100
AcDbEntity
  8
4
100
AcDbLine
 10
96.58165992586089
 20
371.7716671147949
 30
0.0
 11
112.5816604258608
 21
371.7716671147948
 31
0.0
  0
LINE
  5
4E5
330
2
100
AcDbEntity
  8
4
100
AcDbLine
 10
112.5816604258607
 20
356.7716671147948
 30
0.0
 11
96.58165992586078
 21
356.7716671147949
 31
0.0
  0
LINE
  5
4E6
330
2
100
AcDbEntity
  8
4
100
AcDbLine
 10
66.58165992586095
 20
361.7716676147953
 30
0.0
 11
91.08165992586092
 21
361.7716676147951
 31
0.0
  0
LINE
  5
4E7
330
2
100
AcDbEntity
  8
4
100
AcDbLine
 10
66.58165992586095
 20
366.7716676147953
 30
0.0
 11
91.08165992586098
 21
366.7716676147951
 31
0.0
  0
LINE
  5
4E8
330
2
100
AcDbEntity
  8
4
100
AcDbLine
 10
96.58165992586078
 20
357.271668114795
 30
0.0
 11
67.08166092586077
 21
357.2716681147953
 31
0.0
  0
LINE
  5
4E9
330
2
100
AcDbEntity
  8
4
100
AcDbLine
 10
96.58165992586089
 20
371.2716676147951
 30
0.0
 11
67.08166092586089
 21
371.2716676147953
 31
0.0
  0
LINE
  5
4EA
330
2
100
AcDbEntity
  8
4
100
AcDbLine
 10
96.58165992586089
 20
371.7716671147949
 30
0.0
 11
96.58165992586078
 21
356.7716671147949
 31
0.0
  0
ARC
  5
4EB
330
2
100
AcDbEntity
  8
4
100
AcDbCircle
 10
91.08165992586072
 20
364.2716676147951
 30
0.0
 40
2.5
100
AcDbArc
 50
269.9999999999993
 51
89.99999999999935
  0
LINE
  5
4EC
330
2
100
AcDbEntity
  8
4
100
AcDbLine
 10
67.08166092586089
 20
371.2716676147953
 30
0.0
 11
67.08166092586083
 21
366.7716676147953
 31
0.0
  0
LINE
  5
4ED
330
2
100
AcDbEntity
  8
4
100
AcDbLine
 10
66.581659925861
 20
370.7716681147953
 30
0.0
 11
66.58165992586089
 21
357.7716676147953
 31
0.0
  0
LINE
  5
4EE
330
2
100
AcDbEntity
  8
4
100
AcDbLine
 10
67.08166092586083
 20
361.7716676147951
 30
0.0
 11
67.08166092586077
 21
357.2716681147953
 31
0.0
  0
LINE
  5
4EF
330
2
100
AcDbEntity
  8
4
100
AcDbLine
 10
67.08166092586077
 20
357.2716681147953
 30
0.0
 11
66.58165992586089
 21
357.7716676147953
 31
0.0
  0
LINE
  5
4F0
330
2
100
AcDbEntity
  8
4
100
AcDbLine
 10
66.581659925861
 20
370.7716681147953
 30
0.0
 11
67.08166092586089
 21
371.2716676147953
 31
0.0
  0
LINE
  5
4F1
330
2
100
AcDbEntity
  8
4
100
AcDbLine
 10
109.0815839258606
 20
371.7716671147948
 30
0.0
 11
109.0815839258606
 21
376.7716676147946
 31
0.0
  0
LINE
  5
4F2
330
2
100
AcDbEntity
  8
4
100
AcDbLine
 10
111.0815839258606
 20
371.7716671147948
 30
0.0
 11
111.0815839258606
 21
376.7716676147946
 31
0.0
  0
LINE
  5
4F3
330
2
100
AcDbEntity
  8
4
100
AcDbLine
 10
105.0815839258606
 20
371.7716671147948
 30
0.0
 11
105.0815839258606
 21
375.0969851620999
 31
0.0
  0
LINE
  5
4F4
330
2
100
AcDbEntity
  8
4
100
AcDbLine
 10
98.56968295870793
 20
356.7716671147949
 30
0.0
 11
98.56968295870803
 21
323.7716676147946
 31
0.0
  0
ARC
  5
4F7
330
2
100
AcDbEntity
  8
4
100
AcDbCircle
 10
417.6241360765399
 20
137.3652590424715
 30
0.0
 40
6.999999000000001
100
AcDbArc
 50
110.9248399388129
 51
69.07516099999877
  0
LINE
  5
4F8
330
2
100
AcDbEntity
  8
4
100
AcDbLine
 10
415.1241355765399
 20
141.3652595424716
 30
0.0
 11
420.1241350765399
 21
141.3652595424716
 31
0.0
  0
LINE
  5
4F9
330
2
100
AcDbEntity
  8
4
100
AcDbLine
 10
420.1241350765399
 20
146.3652590424715
 30
0.0
 11
415.1241355765399
 21
146.3652590424715
 31
0.0
  0
LINE
  5
4FA
330
2
100
AcDbEntity
  8
4
100
AcDbLine
 10
415.1241355765399
 20
146.3652590424715
 30
0.0
 11
415.1241355765399
 21
141.3652595424716
 31
0.0
  0
LINE
  5
4FB
330
2
100
AcDbEntity
  8
4
100
AcDbLine
 10
420.1241350765399
 20
146.3652590424715
 30
0.0
 11
420.1241350765399
 21
141.3652595424716
 31
0.0
  0
ENDSEC
  0
SECTION
  2
OBJECTS
  0
DICTIONARY
  5
C
330
0
100
AcDbDictionary
281
     1
  3
ACAD_CIP_PREVIOUS_PRODUCT_INFO
350
459
  3
ACAD_COLOR
350
48
  3
ACAD_DETAILVIEWSTYLE
350
453
  3
ACAD_GROUP
350
35
  3
ACAD_LAYOUT
350
19
  3
ACAD_MATERIAL
350
E
  3
ACAD_MLEADERSTYLE
350
4B
  3
ACAD_MLINESTYLE
350
36
  3
ACAD_PLOTSETTINGS
350
37
  3
ACAD_PLOTSTYLENAME
350
B
  3
ACAD_SCALELIST
350
49
  3
ACAD_SECTIONVIEWSTYLE
350
451
  3
ACAD_TABLESTYLE
350
4A
  3
ACAD_VISUALSTYLE
350
2F
  3
ACDBHEADERROUNDTRIPXREC
350
502
  3
AcDbVariableDictionary
350
430
  3
DWGPROPS
350
505
  0
DICTIONARY
  5
506
330
2C
100
AcDbDictionary
280
     1
281
     1
  3
ACAD_XREC_ROUNDTRIP
360
507
  0
DICTIONARY
  5
22
330
21
100
AcDbDictionary
280
     1
281
     1
  3
ACAD_LAYERSTATES
360
23
  0
DICTIONARY
  5
8
330
7
100
AcDbDictionary
280
     1
281
     1
  3
ADSK_XREC_LAYER_RECONCILED
360
9
  0
DICTIONARY
  5
2BA
330
2B9
100
AcDbDictionary
280
     1
281
     1
  3
ADSK_XREC_LAYER_RECONCILED
360
2BB
  0
DICTIONARY
  5
4D
330
4C
100
AcDbDictionary
280
     1
281
     1
  3
ADSK_XREC_LAYER_RECONCILED
360
4E
  0
DICTIONARY
  5
6F
330
6E
100
AcDbDictionary
280
     1
281
     1
  3
ADSK_XREC_LAYER_RECONCILED
360
70
  0
DICTIONARY
  5
6A
330
69
100
AcDbDictionary
280
     1
281
     1
  3
ADSK_XREC_LAYER_RECONCILED
360
6B
  0
DICTIONARY
  5
89
330
88
100
AcDbDictionary
280
     1
281
     1
  3
ADSK_XREC_LAYER_RECONCILED
360
8A
  0
DICTIONARY
  5
3
330
2
100
AcDbDictionary
280
     1
281
     1
  3
ACAD_SORTENTS
360
42E
  0
XRECORD
  5
459
102
{ACAD_REACTORS
330
C
102
}
330
C
100
AcDbXrecord
280
     1
300
ACD
300
2014
300
ACD_F_S
  0
DICTIONARY
  5
48
102
{ACAD_REACTORS
330
C
102
}
330
C
100
AcDbDictionary
281
     1
  0
DICTIONARY
  5
453
102
{ACAD_REACTORS
330
C
102
}
330
C
100
AcDbDictionary
281
     1
  3
Imperial24
350
454
  0
DICTIONARY
  5
35
102
{ACAD_REACTORS
330
C
102
}
330
C
100
AcDbDictionary
281
     1
  0
DICTIONARY
  5
19
102
{ACAD_REACTORS
330
C
102
}
330
C
100
AcDbDictionary
281
     1
  3
Model
350
18
  3
ﾚｲｱｳﾄ1
350
20
  0
DICTIONARY
  5
E
102
{ACAD_REACTORS
330
C
102
}
330
C
100
AcDbDictionary
281
     1
  3
ByBlock
350
40
  3
ByLayer
350
38
  3
Global
350
D
  0
DICTIONARY
  5
4B
102
{ACAD_REACTORS
330
C
102
}
330
C
100
AcDbDictionary
281
     1
  3
Standard
350
450
  0
DICTIONARY
  5
36
102
{ACAD_REACTORS
330
C
102
}
330
C
100
AcDbDictionary
281
     1
  3
STANDARD
350
50
  0
DICTIONARY
  5
37
102
{ACAD_REACTORS
330
C
102
}
330
C
100
AcDbDictionary
281
     1
  0
ACDBDICTIONARYWDFLT
  5
B
102
{ACAD_REACTORS
330
C
102
}
330
C
100
AcDbDictionary
281
     1
  3
Normal
350
A
100
AcDbDictionaryWithDefault
340
A
  0
DICTIONARY
  5
49
102
{ACAD_REACTORS
330
C
102
}
330
C
100
AcDbDictionary
281
     1
  3
A0
350
55
  3
A1
350
56
  3
A2
350
57
  3
A3
350
58
  3
A4
350
59
  3
A5
350
5A
  3
A6
350
5B
  3
A7
350
5C
  3
A8
350
5D
  3
A9
350
5E
  3
B0
350
5F
  3
B1
350
60
  3
B2
350
61
  3
B3
350
62
  3
B4
350
63
  3
B5
350
64
  3
B6
350
65
  0
DICTIONARY
  5
451
102
{ACAD_REACTORS
330
C
102
}
330
C
100
AcDbDictionary
281
     1
  3
Imperial24
350
452
  0
DICTIONARY
  5
4A
102
{ACAD_REACTORS
330
C
102
}
330
C
100
AcDbDictionary
281
     1
  3
Standard
350
51
  0
DICTIONARY
  5
2F
102
{ACAD_REACTORS
330
C
102
}
330
C
100
AcDbDictionary
281
     1
  3
2dWireframe
350
2E
  3
Basic
350
43F
  3
Brighten
350
443
  3
ColorChange
350
447
  3
Conceptual
350
441
  3
Dim
350
442
  3
EdgeColorOff
350
44F
  3
Facepattern
350
446
  3
Flat
350
43B
  3
FlatWithEdges
350
43C
  3
Gouraud
350
43D
  3
GouraudWithEdges
350
43E
  3
Hidden
350
440
  3
JitterOff
350
44D
  3
Linepattern
350
445
  3
OverhangOff
350
44E
  3
Realistic
350
52
  3
Shaded
350
44C
  3
Shaded with edges
350
44B
  3
Shades of Gray
350
448
  3
Sketchy
350
449
  3
Thicken
350
444
  3
Wireframe
350
53
  3
X-Ray
350
44A
  0
DICTIONARY
  5
502
102
{ACAD_REACTORS
330
C
102
}
330
C
100
AcDbDictionary
281
     1
  3
COLORDICT
350
503
  3
MATERIALDICT
350
504
  0
DICTIONARY
  5
430
102
{ACAD_REACTORS
330
C
102
}
330
C
100
AcDbDictionary
281
     1
  3
CANNOSCALE
350
436
  3
CMLEADERSTYLE
350
432
  3
CTABLESTYLE
350
431
  3
CVIEWDETAILSTYLE
350
433
  3
CVIEWSECTIONSTYLE
350
434
  3
DIMASSOC
350
500
  3
HIDETEXT
350
501
  3
LAYEREVAL
350
438
  3
LAYERNOTIFY
350
439
  3
LIGHTINGUNITS
350
437
  3
MSLTSCALE
350
435
  3
XCLIPFRAME
350
4C0
  0
XRECORD
  5
505
102
{ACAD_REACTORS
330
C
102
}
330
C
100
AcDbXrecord
280
     1
  1
DWGPROPS COOKIE
  2

  3

  4

  6

  7

  8
sg-d04
  9

300
=
301
=
302
=
303
=
304
=
305
=
306
=
307
=
308
=
309
=
 40
0.0
 41
2457322.33198941
 42
2457870.229091852
  1

 90
        0
  0
XRECORD
  5
507
102
{ACAD_REACTORS
330
506
102
}
330
506
100
AcDbXrecord
280
     1
102
VTR_0.000_0.000_1.000_1.000_VISUALSTYLE
340
2E
102
VTR_0.000_0.000_1.000_1.000_GRIDDISPLAY
 70
     3
102
VTR_0.000_0.000_1.000_1.000_GRIDMAJOR
 70
     5
102
VTR_0.000_0.000_1.000_1.000_DEFAULTLIGHTING
280
     1
102
VTR_0.000_0.000_1.000_1.000_DEFAULTLIGHTINGTYPE
 70
     1
102
VTR_0.000_0.000_1.000_1.000_BRIGHTNESS
141
0.0
102
VTR_0.000_0.000_1.000_1.000_CONTRAST
142
0.0
  0
DICTIONARY
  5
23
102
{ACAD_REACTORS
330
22
102
}
330
22
100
AcDbDictionary
281
     1
  0
XRECORD
  5
9
102
{ACAD_REACTORS
330
8
102
}
330
8
100
AcDbXrecord
280
     1
290
     1
  0
XRECORD
  5
2BB
102
{ACAD_REACTORS
330
2BA
102
}
330
2BA
100
AcDbXrecord
280
     1
290
     1
  0
XRECORD
  5
4E
102
{ACAD_REACTORS
330
4D
102
}
330
4D
100
AcDbXrecord
280
     1
290
     1
  0
XRECORD
  5
70
102
{ACAD_REACTORS
330
6F
102
}
330
6F
100
AcDbXrecord
280
     1
290
     1
  0
XRECORD
  5
6B
102
{ACAD_REACTORS
330
6A
102
}
330
6A
100
AcDbXrecord
280
     1
290
     1
  0
XRECORD
  5
8A
102
{ACAD_REACTORS
330
89
102
}
330
89
100
AcDbXrecord
280
     1
290
     1
  0
SORTENTSTABLE
  5
42E
102
{ACAD_REACTORS
330
3
102
}
330
3
100
AcDbSortentsTable
330
2
331
0
  5
BF
331
B6
  5
B7
331
B7
  5
B8
331
B8
  5
B9
331
B9
  5
BA
331
BA
  5
BB
331
BB
  5
BC
331
BC
  5
BE
331
C1
  5
C4
331
C2
  5
C5
331
C3
  5
C6
331
C4
  5
C7
331
C5
  5
C8
331
C6
  5
C9
331
C7
  5
CA
331
C8
  5
CB
331
C9
  5
CC
331
CA
  5
CD
331
CB
  5
CE
331
CC
  5
CF
331
CD
  5
D0
331
CE
  5
D1
331
CF
  5
D2
331
D0
  5
D3
331
D1
  5
D4
331
D2
  5
D5
331
D3
  5
D6
331
D4
  5
D7
331
D5
  5
D8
331
D6
  5
D9
331
D7
  5
DA
331
D8
  5
DB
331
D9
  5
DC
331
DA
  5
DD
331
DB
  5
DE
331
DC
  5
DF
331
DD
  5
E0
331
DE
  5
E1
331
DF
  5
E2
331
E0
  5
E3
331
E1
  5
E4
331
E2
  5
E5
331
E3
  5
E6
331
E4
  5
E7
331
E5
  5
E8
331
E6
  5
E9
331
E7
  5
EA
331
E8
  5
EB
331
E9
  5
EC
331
EA
  5
ED
331
EB
  5
EE
331
EC
  5
EF
331
ED
  5
F0
331
EE
  5
F1
331
EF
  5
F2
331
F0
  5
F3
331
F1
  5
F4
331
F2
  5
F5
331
F3
  5
F6
331
F9
  5
FC
331
FA
  5
FD
331
FD
  5
101
331
108
  5
10C
331
10B
  5
10F
331
111
  5
115
331
115
  5
119
331
116
  5
11A
331
117
  5
11B
331
118
  5
11C
331
119
  5
11D
331
11B
  5
11F
331
11E
  5
122
331
11F
  5
123
331
120
  5
124
331
121
  5
125
331
122
  5
126
331
123
  5
127
331
124
  5
128
331
129
  5
12D
331
12C
  5
130
331
12D
  5
131
331
12E
  5
132
331
133
  5
137
331
134
  5
138
331
135
  5
139
331
136
  5
13A
331
137
  5
13B
331
138
  5
13C
331
139
  5
13D
331
13A
  5
13E
331
13B
  5
13F
331
13C
  5
140
331
13D
  5
141
331
13E
  5
142
331
13F
  5
143
331
140
  5
144
331
141
  5
145
331
142
  5
146
331
143
  5
147
331
144
  5
148
331
146
  5
14A
331
152
  5
156
331
153
  5
157
331
15A
  5
15E
331
15B
  5
15F
331
161
  5
165
331
162
  5
166
331
163
  5
167
331
164
  5
168
331
165
  5
169
331
166
  5
16A
331
167
  5
16B
331
168
  5
16C
331
169
  5
16D
331
16A
  5
16E
331
16B
  5
16F
331
16C
  5
170
331
16D
  5
171
331
16E
  5
172
331
16F
  5
173
331
170
  5
174
331
171
  5
175
331
172
  5
176
331
173
  5
178
331
174
  5
179
331
177
  5
17B
331
178
  5
17C
331
179
  5
17D
331
17A
  5
17E
331
17B
  5
17F
331
17C
  5
180
331
17D
  5
184
331
17F
  5
185
331
181
  5
189
331
182
  5
18A
331
187
  5
18C
331
188
  5
18D
331
189
  5
18E
331
18A
  5
18F
331
18B
  5
190
331
18C
  5
191
331
18D
  5
192
331
18E
  5
193
331
18F
  5
194
331
190
  5
195
331
191
  5
196
331
192
  5
197
331
193
  5
198
331
194
  5
19B
331
195
  5
19C
331
19A
  5
19F
331
19B
  5
1A0
331
19C
  5
1A1
331
19D
  5
1A2
331
19E
  5
1A3
331
19F
  5
1A4
331
1A0
  5
1A5
331
1A1
  5
1A6
331
1A2
  5
1A7
331
1A3
  5
1A8
331
1A4
  5
1A9
331
1A5
  5
1AA
331
1A6
  5
1AB
331
1A7
  5
1AC
331
1A8
  5
1AD
331
1A9
  5
1AE
331
1AA
  5
1AF
331
1AB
  5
1B0
331
1AC
  5
1B1
331
1AD
  5
1B2
331
1AE
  5
1B3
331
1AF
  5
1B4
331
1B0
  5
1B5
331
1B1
  5
1B6
331
1B2
  5
1B8
331
1B3
  5
1BA
331
1B4
  5
1BB
331
1B5
  5
1BD
331
1B6
  5
1BE
331
1B7
  5
1BF
331
1B8
  5
1C0
331
1B9
  5
1C1
331
1BA
  5
1C2
331
1BB
  5
1C3
331
1BC
  5
1C4
331
1BD
  5
1C5
331
1BE
  5
1C6
331
1BF
  5
1C7
331
1C0
  5
1C8
331
1C1
  5
1C9
331
1C2
  5
1CA
331
1C3
  5
1CB
331
1C4
  5
1CC
331
1C5
  5
1CD
331
1C6
  5
1CE
331
1C7
  5
1CF
331
1C8
  5
1D0
331
1C9
  5
1D1
331
1CA
  5
1D2
331
1CB
  5
1D3
331
1CC
  5
1D4
331
1CD
  5
1D5
331
1CE
  5
1D6
331
1CF
  5
1D7
331
1D0
  5
1D8
331
1D1
  5
1D9
331
1D2
  5
1DA
331
1D3
  5
1DB
331
1D4
  5
1DC
331
1D5
  5
1DD
331
1D6
  5
1DE
331
1D7
  5
1DF
331
1D8
  5
1E0
331
1D9
  5
1E1
331
1DA
  5
1E2
331
1DB
  5
1E3
331
1DC
  5
1E4
331
1DD
  5
1E5
331
1DE
  5
1E6
331
1DF
  5
1E8
331
1E0
  5
1E9
331
1E5
  5
1ED
331
1E6
  5
1EE
331
1E8
  5
1F0
331
1EC
  5
1F4
331
1F2
  5
1FA
331
1F3
  5
1FB
331
1F4
  5
1FC
331
1F5
  5
1FD
331
1F6
  5
1FE
331
1F7
  5
1FF
331
1F8
  5
200
331
1F9
  5
201
331
1FA
  5
202
331
1FB
  5
203
331
1FC
  5
204
331
1FD
  5
205
331
1FE
  5
206
331
1FF
  5
207
331
200
  5
208
331
201
  5
209
331
202
  5
20A
331
20B
  5
213
331
20C
  5
214
331
20D
  5
215
331
20E
  5
216
331
20F
  5
217
331
210
  5
218
331
211
  5
219
331
212
  5
21A
331
213
  5
21B
331
214
  5
21C
331
215
  5
21D
331
216
  5
21E
331
217
  5
21F
331
218
  5
220
331
219
  5
221
331
21A
  5
222
331
21B
  5
223
331
21C
  5
224
331
21D
  5
225
331
21E
  5
226
331
21F
  5
227
331
220
  5
228
331
221
  5
229
331
222
  5
22A
331
223
  5
22B
331
224
  5
22C
331
225
  5
22D
331
226
  5
22E
331
227
  5
22F
331
228
  5
230
331
229
  5
231
331
22A
  5
232
331
22B
  5
233
331
22C
  5
234
331
22D
  5
235
331
22E
  5
236
331
22F
  5
237
331
230
  5
239
331
231
  5
23A
331
234
  5
23C
331
235
  5
23D
331
236
  5
23E
331
237
  5
23F
331
238
  5
240
331
239
  5
241
331
23A
  5
242
331
23B
  5
243
331
23C
  5
244
331
23D
  5
245
331
240
  5
248
331
241
  5
249
331
242
  5
24A
331
243
  5
24B
331
244
  5
24C
331
245
  5
24D
331
246
  5
24E
331
247
  5
24F
331
248
  5
250
331
250
  5
258
331
251
  5
259
331
257
  5
25F
331
258
  5
260
331
259
  5
261
331
25A
  5
262
331
25B
  5
263
331
25C
  5
264
331
25D
  5
265
331
25E
  5
266
331
25F
  5
267
331
260
  5
268
331
261
  5
269
331
262
  5
26A
331
263
  5
26B
331
264
  5
26C
331
265
  5
26D
331
266
  5
26E
331
267
  5
26F
331
268
  5
270
331
269
  5
271
331
26A
  5
272
331
26B
  5
273
331
26C
  5
274
331
26D
  5
275
331
26E
  5
276
331
26F
  5
277
331
270
  5
278
331
271
  5
279
331
272
  5
27A
331
273
  5
27B
331
274
  5
27C
331
275
  5
27D
331
276
  5
27E
331
277
  5
27F
331
279
  5
281
331
27B
  5
283
331
27C
  5
284
331
27F
  5
287
331
282
  5
28A
331
286
  5
28E
331
288
  5
290
331
289
  5
291
331
28A
  5
292
331
28B
  5
293
331
28C
  5
294
331
28D
  5
295
331
28E
  5
296
331
28F
  5
297
331
290
  5
298
331
291
  5
29D
331
292
  5
29E
331
297
  5
29F
331
298
  5
2A0
331
299
  5
2A1
331
29A
  5
2A2
331
29B
  5
2A3
331
29C
  5
2A4
331
29D
  5
2A5
331
2A3
  5
2AB
331
2A4
  5
2AC
331
2A5
  5
2AD
331
2A6
  5
2AE
331
3E2
  5
3EA
331
3E3
  5
3EB
331
3E4
  5
3EC
331
3E5
  5
3ED
331
3E6
  5
3EE
331
3E7
  5
3EF
331
3E8
  5
3F0
331
3E9
  5
3F1
331
3EA
  5
3F2
331
3EB
  5
3F3
331
3EC
  5
3F4
331
3ED
  5
3F5
331
3EE
  5
3F6
331
3EF
  5
3F7
331
3F0
  5
3F8
331
3F1
  5
3F9
331
3F2
  5
3FA
331
3F3
  5
3FB
331
3F4
  5
3FC
331
3F5
  5
3FD
331
3F6
  5
3FE
331
3F7
  5
3FF
331
3F8
  5
400
331
3F9
  5
401
331
3FA
  5
402
331
3FB
  5
403
331
3FC
  5
404
331
3FD
  5
405
331
3FE
  5
406
331
3FF
  5
407
331
400
  5
408
331
401
  5
409
331
402
  5
40A
331
403
  5
40B
331
404
  5
40C
331
405
  5
40D
331
406
  5
40E
331
407
  5
40F
331
408
  5
410
331
409
  5
411
331
40A
  5
412
331
40B
  5
413
331
40C
  5
414
331
40D
  5
415
331
40E
  5
416
331
40F
  5
417
331
410
  5
418
331
411
  5
419
331
412
  5
41A
331
413
  5
41B
331
414
  5
41C
331
415
  5
41D
331
416
  5
41E
331
417
  5
41F
331
418
  5
420
331
419
  5
421
331
41A
  5
422
331
41B
  5
423
331
41C
  5
424
331
41D
  5
425
331
41E
  5
426
331
41F
  5
427
331
420
  5
428
331
421
  5
429
331
422
  5
42A
331
423
  5
42B
331
424
  5
42C
331
425
  5
42D
331
426
  5
49B
331
427
  5
49C
331
428
  5
49D
331
429
  5
49E
331
49C
  5
100
331
4C3
  5
4C9
331
4C4
  5
4CA
331
4C5
  5
4CB
331
4C6
  5
4CC
331
4C7
  5
4CD
331
4C9
  5
4CF
331
4CB
  5
4D2
331
4CC
  5
4D3
331
4CD
  5
4D4
331
4CE
  5
4D5
331
4CF
  5
4D6
331
4E4
  5
4EA
331
4E5
  5
4EB
331
4E6
  5
4EC
331
4E7
  5
4ED
331
4E8
  5
4EE
331
4E9
  5
4EF
331
4EA
  5
4F0
331
4EB
  5
4F1
331
4EC
  5
4F2
331
4ED
  5
4F3
331
4EE
  5
4F4
331
4EF
  5
4F5
331
4F0
  5
4F6
331
4F1
  5
1B9
331
4F2
  5
1B7
331
4F3
  5
1BC
331
4F4
  5
182
331
4F7
  5
4F9
331
4F8
  5
4FA
331
4F9
  5
4FB
331
4FA
  5
4FC
331
4FB
  5
4FD
  0
ACDBDETAILVIEWSTYLE
  5
454
102
{ACAD_REACTORS
330
453
102
}
102
{ACAD_XDICTIONARY
360
47B
102
}
330
453
100
AcDbModelDocViewStyle
 70
     0
  3
Imperial24
290
     0
100
AcDbDetailViewStyle
 70
     0
 71
     0
 90
        3
 71
     1
340
25
 40
0.24
340
0
 40
0.24
300

 40
0.36
280
     3
 71
     2
340
16
 90
       25
 71
     3
340
25
 40
0.24
 90
        1
 40
0.75
 90
        1
300
%<\AcVar ViewType \f "%tc1">% %<\AcVar ViewDetailId>%\PSCALE %<\AcVar ViewScale \f "%sn">%
 71
     4
340
16
 90
       25
340
16
 90
       25
280
     0
  0
LAYOUT
  5
18
102
{ACAD_REACTORS
330
19
102
}
102
{ACAD_XDICTIONARY
360
1A
102
}
330
19
100
AcDbPlotSettings
  1

  2
Bullzip PDF Printer.pc3
  4
A3
  6

 40
0.2
 41
0.0
 42
0.0
 43
0.0
 44
420.2
 45
297.1
 46
25.0
 47
12.0
 48
29.99999993000006
 49
0.0
140
602.9999986175001
141
408.74999904625
142
1.0
143
1.5
 70
 11936
 72
     1
 73
     0
 74
     4
  7
monochrome.ctb
 75
     0
147
0.6666666666666666
148
-29.99999993000006
149
0.0
100
AcDbLayout
  1
Model
 70
     0
 71
     0
 10
0.0
 20
0.0
 11
12.0
 21
9.0
 12
0.0
 22
0.0
 32
0.0
 14
63.84822234697748
 24
9.35353235412569
 34
0.0
 15
572.5701570568096
 25
468.1422350133306
 35
0.0
146
0.0
 13
0.0
 23
0.0
 33
0.0
 16
1.0
 26
0.0
 36
0.0
 17
0.0
 27
1.0
 37
0.0
 76
     0
330
2
331
2D
1001
ACAD_PSEXT
1000
Bullzip PDF Printer.pc3
1000
Bullzip PDF Printer
1000
BULLZIP
1000
Bullzip PDF Printer 10.1.0.1871
1070
     0
  0
LAYOUT
  5
20
102
{ACAD_REACTORS
330
19
102
}
330
19
100
AcDbPlotSettings
  1

  2
SR-LP8300F
  4

  6

 40
0.0
 41
0.0
 42
0.0
 43
0.0
 44
0.0
 45
0.0
 46
0.0
 47
0.0
 48
0.0
 49
0.0
140
0.0
141
0.0
142
1.0
143
1.0
 70
   688
 72
     0
 73
     0
 74
     5
  7
monochrome.ctb
 75
    16
147
1.0
148
0.0
149
0.0
100
AcDbLayout
  1
ﾚｲｱｳﾄ1
 70
     0
 71
     1
 10
0.0
 20
0.0
 11
12.0
 21
9.0
 12
0.0
 22
0.0
 32
0.0
 14
1.000000000000000E+20
 24
1.000000000000000E+20
 34
1.000000000000000E+20
 15
-1.000000000000000E+20
 25
-1.000000000000000E+20
 35
-1.000000000000000E+20
146
0.0
 13
0.0
 23
0.0
 33
0.0
 16
1.0
 26
0.0
 36
0.0
 17
0.0
 27
1.0
 37
0.0
 76
     0
330
1B
  0
MATERIAL
  5
40
102
{ACAD_REACTORS
330
E
102
}
102
{ACAD_XDICTIONARY
360
509
102
}
330
E
100
AcDbMaterial
  1
ByBlock
 72
     0
 73
     2
 43
0.0208333333333333
 43
0.0
 43
0.0
 43
0.0
 43
0.0
 43
0.0208333333333333
 43
0.0
 43
0.0
 43
0.0
 43
0.0
 43
1.0
 43
0.0
 43
0.0
 43
0.0
 43
0.0
 43
1.0
 77
     0
 78
     2
 47
0.0208333333333333
 47
0.0
 47
0.0
 47
0.0
 47
0.0
 47
0.0208333333333333
 47
0.0
 47
0.0
 47
0.0
 47
0.0
 47
1.0
 47
0.0
 47
0.0
 47
0.0
 47
0.0
 47
1.0
171
     0
172
     2
 49
0.0208333333333333
 49
0.0
 49
0.0
 49
0.0
 49
0.0
 49
0.0208333333333333
 49
0.0
 49
0.0
 49
0.0
 49
0.0
 49
1.0
 49
0.0
 49
0.0
 49
0.0
 49
0.0
 49
1.0
175
     0
176
     2
142
0.0208333333333333
142
0.0
142
0.0
142
0.0
142
0.0
142
0.0208333333333333
142
0.0
142
0.0
142
0.0
142
0.0
142
1.0
142
0.0
142
0.0
142
0.0
142
0.0
142
1.0
179
     0
270
     2
144
0.0208333333333333
144
0.0
144
0.0
144
0.0
144
0.0
144
0.0208333333333333
144
0.0
144
0.0
144
0.0
144
0.0
144
1.0
144
0.0
144
0.0
144
0.0
144
0.0
144
1.0
274
     2
147
0.0208333333333333
147
0.0
147
0.0
147
0.0
147
0.0
147
0.0208333333333333
147
0.0
147
0.0
147
0.0
147
0.0
147
1.0
147
0.0
147
0.0
147
0.0
147
0.0
147
1.0
  0
MATERIAL
  5
38
102
{ACAD_REACTORS
330
E
102
}
102
{ACAD_XDICTIONARY
360
50B
102
}
330
E
100
AcDbMaterial
  1
ByLayer
 72
     0
 73
     2
 43
0.0208333333333333
 43
0.0
 43
0.0
 43
0.0
 43
0.0
 43
0.0208333333333333
 43
0.0
 43
0.0
 43
0.0
 43
0.0
 43
1.0
 43
0.0
 43
0.0
 43
0.0
 43
0.0
 43
1.0
 77
     0
 78
     2
 47
0.0208333333333333
 47
0.0
 47
0.0
 47
0.0
 47
0.0
 47
0.0208333333333333
 47
0.0
 47
0.0
 47
0.0
 47
0.0
 47
1.0
 47
0.0
 47
0.0
 47
0.0
 47
0.0
 47
1.0
171
     0
172
     2
 49
0.0208333333333333
 49
0.0
 49
0.0
 49
0.0
 49
0.0
 49
0.0208333333333333
 49
0.0
 49
0.0
 49
0.0
 49
0.0
 49
1.0
 49
0.0
 49
0.0
 49
0.0
 49
0.0
 49
1.0
175
     0
176
     2
142
0.0208333333333333
142
0.0
142
0.0
142
0.0
142
0.0
142
0.0208333333333333
142
0.0
142
0.0
142
0.0
142
0.0
142
1.0
142
0.0
142
0.0
142
0.0
142
0.0
142
1.0
179
     0
270
     2
144
0.0208333333333333
144
0.0
144
0.0
144
0.0
144
0.0
144
0.0208333333333333
144
0.0
144
0.0
144
0.0
144
0.0
144
1.0
144
0.0
144
0.0
144
0.0
144
0.0
144
1.0
274
     2
147
0.0208333333333333
147
0.0
147
0.0
147
0.0
147
0.0
147
0.0208333333333333
147
0.0
147
0.0
147
0.0
147
0.0
147
1.0
147
0.0
147
0.0
147
0.0
147
0.0
147
1.0
  0
MATERIAL
  5
D
102
{ACAD_REACTORS
330
E
102
}
102
{ACAD_XDICTIONARY
360
50D
102
}
330
E
100
AcDbMaterial
  1
Global
 72
     0
 73
     2
 43
0.0208333333333333
 43
0.0
 43
0.0
 43
0.0
 43
0.0
 43
0.0208333333333333
 43
0.0
 43
0.0
 43
0.0
 43
0.0
 43
1.0
 43
0.0
 43
0.0
 43
0.0
 43
0.0
 43
1.0
 77
     0
 78
     2
 47
0.0208333333333333
 47
0.0
 47
0.0
 47
0.0
 47
0.0
 47
0.0208333333333333
 47
0.0
 47
0.0
 47
0.0
 47
0.0
 47
1.0
 47
0.0
 47
0.0
 47
0.0
 47
0.0
 47
1.0
171
     0
172
     2
 49
0.0208333333333333
 49
0.0
 49
0.0
 49
0.0
 49
0.0
 49
0.0208333333333333
 49
0.0
 49
0.0
 49
0.0
 49
0.0
 49
1.0
 49
0.0
 49
0.0
 49
0.0
 49
0.0
 49
1.0
175
     0
176
     2
142
0.0208333333333333
142
0.0
142
0.0
142
0.0
142
0.0
142
0.0208333333333333
142
0.0
142
0.0
142
0.0
142
0.0
142
1.0
142
0.0
142
0.0
142
0.0
142
0.0
142
1.0
179
     0
270
     2
144
0.0208333333333333
144
0.0
144
0.0
144
0.0
144
0.0
144
0.0208333333333333
144
0.0
144
0.0
144
0.0
144
0.0
144
1.0
144
0.0
144
0.0
144
0.0
144
0.0
144
1.0
274
     2
147
0.0208333333333333
147
0.0
147
0.0
147
0.0
147
0.0
147
0.0208333333333333
147
0.0
147
0.0
147
0.0
147
0.0
147
1.0
147
0.0
147
0.0
147
0.0
147
0.0
147
1.0
1001
ACAD
1070
    -1
1070
     3
1070
     0
1000

1071
        0
  0
MLEADERSTYLE
  5
450
102
{ACAD_REACTORS
330
4B
102
}
102
{ACAD_XDICTIONARY
360
50F
102
}
330
4B
100
AcDbMLeaderStyle
170
     2
171
     1
172
     0
 90
        2
 40
0.0
 41
0.0
173
     1
 91
-1056964608
340
28
 92
       -2
290
     1
 42
0.09
291
     1
 43
0.36
  3
Standard
341
0
 44
0.18
300

342
25
174
     1
178
     6
175
     1
176
     0
 93
-1056964608
 45
0.18
292
     0
297
     0
 46
0.18
343
0
 94
-1056964608
 47
1.0
 49
1.0
140
1.0
293
     1
141
0.0
294
     1
177
     0
142
1.0
295
     1
296
     0
143
0.125
1001
ACAD_MLEADERVER
1070
     2
  0
MLINESTYLE
  5
50
102
{ACAD_REACTORS
330
36
102
}
330
36
100
AcDbMlineStyle
  2
STANDARD
 70
     0
  3

 62
     0
 51
90.0
 52
90.0
 71
     2
 49
0.5
 62
   256
  6
BYLAYER
 49
-0.5
 62
   256
  6
BYLAYER
  0
ACDBPLACEHOLDER
  5
A
102
{ACAD_REACTORS
330
B
102
}
330
B
  0
SCALE
  5
55
102
{ACAD_REACTORS
330
49
102
}
330
49
100
AcDbScale
 70
     0
300
1:1
140
1.0
141
1.0
290
     1
  0
SCALE
  5
56
102
{ACAD_REACTORS
330
49
102
}
330
49
100
AcDbScale
 70
     0
300
1/128" = 1'-0"
140
0.0078125
141
12.0
290
     0
  0
SCALE
  5
57
102
{ACAD_REACTORS
330
49
102
}
330
49
100
AcDbScale
 70
     0
300
1/64" = 1'-0"
140
0.015625
141
12.0
290
     0
  0
SCALE
  5
58
102
{ACAD_REACTORS
330
49
102
}
330
49
100
AcDbScale
 70
     0
300
1/32" = 1'-0"
140
0.03125
141
12.0
290
     0
  0
SCALE
  5
59
102
{ACAD_REACTORS
330
49
102
}
330
49
100
AcDbScale
 70
     0
300
1/16" = 1'-0"
140
0.0625
141
12.0
290
     0
  0
SCALE
  5
5A
102
{ACAD_REACTORS
330
49
102
}
330
49
100
AcDbScale
 70
     0
300
3/32" = 1'-0"
140
0.09375
141
12.0
290
     0
  0
SCALE
  5
5B
102
{ACAD_REACTORS
330
49
102
}
330
49
100
AcDbScale
 70
     0
300
1/8" = 1'-0"
140
0.125
141
12.0
290
     0
  0
SCALE
  5
5C
102
{ACAD_REACTORS
330
49
102
}
330
49
100
AcDbScale
 70
     0
300
3/16" = 1'-0"
140
0.1875
141
12.0
290
     0
  0
SCALE
  5
5D
102
{ACAD_REACTORS
330
49
102
}
330
49
100
AcDbScale
 70
     0
300
1/4" = 1'-0"
140
0.25
141
12.0
290
     0
  0
SCALE
  5
5E
102
{ACAD_REACTORS
330
49
102
}
330
49
100
AcDbScale
 70
     0
300
3/8" = 1'-0"
140
0.375
141
12.0
290
     0
  0
SCALE
  5
5F
102
{ACAD_REACTORS
330
49
102
}
330
49
100
AcDbScale
 70
     0
300
1/2" = 1'-0"
140
0.5
141
12.0
290
     0
  0
SCALE
  5
60
102
{ACAD_REACTORS
330
49
102
}
330
49
100
AcDbScale
 70
     0
300
3/4" = 1'-0"
140
0.75
141
12.0
290
     0
  0
SCALE
  5
61
102
{ACAD_REACTORS
330
49
102
}
330
49
100
AcDbScale
 70
     0
300
1" = 1'-0"
140
1.0
141
12.0
290
     0
  0
SCALE
  5
62
102
{ACAD_REACTORS
330
49
102
}
330
49
100
AcDbScale
 70
     0
300
1-1/2" = 1'-0"
140
1.5
141
12.0
290
     0
  0
SCALE
  5
63
102
{ACAD_REACTORS
330
49
102
}
330
49
100
AcDbScale
 70
     0
300
3" = 1'-0"
140
3.0
141
12.0
290
     0
  0
SCALE
  5
64
102
{ACAD_REACTORS
330
49
102
}
330
49
100
AcDbScale
 70
     0
300
6" = 1'-0"
140
6.0
141
12.0
290
     0
  0
SCALE
  5
65
102
{ACAD_REACTORS
330
49
102
}
330
49
100
AcDbScale
 70
     0
300
1'-0" = 1'-0"
140
12.0
141
12.0
290
     0
  0
ACDBSECTIONVIEWSTYLE
  5
452
102
{ACAD_REACTORS
330
451
102
}
102
{ACAD_XDICTIONARY
360
479
102
}
330
451
100
AcDbModelDocViewStyle
 70
     0
  3
Imperial24
290
     0
100
AcDbSectionViewStyle
 70
     0
 71
     0
 90
       78
 71
     1
340
25
 40
0.24
340
0
340
0
 40
0.24
300
I, O, Q, S, X, Z
 40
0.48
 90
        3
 40
0.18
 90
        1
 71
     2
340
16
 90
       25
340
16
 90
       50
 40
0.24
 40
0.0
 40
0.24
 71
     3
340
25
 40
0.24
 90
        1
 40
0.75
 90
        1
300
%<\AcVar ViewType \f "%tc1">% %<\AcVar ViewSectionStartId>%-%<\AcVar ViewSectionEndId>%\PSCALE %<\AcVar ViewScale \f "%sn">%
 71
     4
300
ANSI31
 40
1.0
 90
        0
290
     0
290
     0
 90
        6
 40
0.0
 40
1.570796326794897
 40
0.2617993877991494
 40
1.308996938995747
 40
-0.2617993877991494
 40
1.832595714594046
  0
TABLESTYLE
  5
51
102
{ACAD_REACTORS
330
4A
102
}
330
4A
100
AcDbTableStyle
  3
Standard
 70
     0
 71
     0
 40
0.06
 41
0.06
280
     0
281
     0
  7
STANDARD
140
0.18
170
     2
 62
     0
 63
   257
283
     0
274
    -2
284
     1
 64
     0
275
    -2
285
     1
 65
     0
276
    -2
286
     1
 66
     0
277
    -2
287
     1
 67
     0
278
    -2
288
     1
 68
     0
279
    -2
289
     1
 69
     0
  7
STANDARD
140
0.25
170
     5
 62
     0
 63
   257
283
     0
274
    -2
284
     1
 64
     0
275
    -2
285
     1
 65
     0
276
    -2
286
     1
 66
     0
277
    -2
287
     1
 67
     0
278
    -2
288
     1
 68
     0
279
    -2
289
     1
 69
     0
  7
STANDARD
140
0.18
170
     5
 62
     0
 63
   257
283
     0
274
    -2
284
     1
 64
     0
275
    -2
285
     1
 65
     0
276
    -2
286
     1
 66
     0
277
    -2
287
     1
 67
     0
278
    -2
288
     1
 68
     0
279
    -2
289
     1
 69
     0
  0
VISUALSTYLE
  5
2E
102
{ACAD_REACTORS
330
2F
102
}
102
{ACAD_XDICTIONARY
360
512
102
}
330
2F
100
AcDbVisualStyle
  2
2dWireframe
 70
     4
 71
     0
 72
     2
 73
     0
 90
        0
 40
0.6
 41
30.0
 62
     5
 63
     7
 74
     1
 91
        4
 64
     7
 65
   257
 75
     1
175
     1
 42
1.0
 92
        0
 66
   257
 43
1.0
 76
     1
 77
     6
 78
     2
 67
     7
 79
     5
170
     0
171
     0
290
     0
174
     0
 93
        1
 44
0.0
173
     0
291
     0
 45
0.0
1001
ACAD
1000
AcDbSavedByObjectVersion
1070
     0
  0
VISUALSTYLE
  5
43F
102
{ACAD_REACTORS
330
2F
102
}
102
{ACAD_XDICTIONARY
360
514
102
}
330
2F
100
AcDbVisualStyle
  2
Basic
 70
     7
 71
     1
 72
     0
 73
     1
 90
        0
 40
0.6
 41
30.0
 62
     5
 63
     7
 74
     0
 91
        4
 64
     7
 65
   257
 75
     1
175
     1
 42
1.0
 92
        8
 66
     7
 43
1.0
 76
     1
 77
     6
 78
     2
 67
     7
 79
     5
170
     0
171
     0
290
     0
174
     0
 93
        1
 44
0.0
173
     0
291
     1
 45
0.0
1001
ACAD
1000
AcDbSavedByObjectVersion
1070
     0
  0
VISUALSTYLE
  5
443
102
{ACAD_REACTORS
330
2F
102
}
102
{ACAD_XDICTIONARY
360
516
102
}
330
2F
100
AcDbVisualStyle
  2
Brighten
 70
    12
 71
     2
 72
     2
 73
     0
 90
        0
 40
0.6
 41
30.0
 62
     5
 63
     7
 74
     1
 91
        4
 64
     7
 65
   257
 75
     1
175
     1
 42
1.0
 92
        8
 66
     7
 43
1.0
 76
     1
 77
     6
 78
     2
 67
     7
 79
     5
170
     0
171
     0
290
     0
174
     0
 93
        1
 44
50.0
173
     0
291
     1
 45
0.0
1001
ACAD
1000
AcDbSavedByObjectVersion
1070
     0
  0
VISUALSTYLE
  5
447
102
{ACAD_REACTORS
330
2F
102
}
102
{ACAD_XDICTIONARY
360
518
102
}
330
2F
100
AcDbVisualStyle
  2
ColorChange
 70
    16
 71
     2
 72
     2
 73
     3
 90
        0
 40
0.6
 41
30.0
 62
     5
 63
     8
 74
     1
 91
        4
 64
     7
 65
   257
 75
     1
175
     1
 42
1.0
 92
        8
 66
     8
 43
1.0
 76
     1
 77
     6
 78
     2
 67
     7
 79
     5
170
     0
171
     0
290
     0
174
     0
 93
        1
 44
0.0
173
     0
291
     1
 45
0.0
1001
ACAD
1000
AcDbSavedByObjectVersion
1070
     0
  0
VISUALSTYLE
  5
441
102
{ACAD_REACTORS
330
2F
102
}
102
{ACAD_XDICTIONARY
360
51A
102
}
330
2F
100
AcDbVisualStyle
  2
Conceptual
 70
     9
 71
     3
 72
     2
 73
     0
 90
        0
 40
0.6
 41
30.0
 62
     5
 63
     7
 74
     2
 91
        2
 64
     7
 65
   257
 75
     1
175
     1
 42
179.0
 92
        8
 66
     7
 43
1.0
 76
     1
 77
     6
 78
     2
 67
     7
 79
     3
170
     0
171
     0
290
     0
174
     0
 93
        1
 44
0.0
173
     0
291
     0
 45
0.0
1001
ACAD
1000
AcDbSavedByObjectVersion
1070
     0
  0
VISUALSTYLE
  5
442
102
{ACAD_REACTORS
330
2F
102
}
102
{ACAD_XDICTIONARY
360
51C
102
}
330
2F
100
AcDbVisualStyle
  2
Dim
 70
    11
 71
     2
 72
     2
 73
     0
 90
        0
 40
0.6
 41
30.0
 62
     5
 63
     7
 74
     1
 91
        4
 64
     7
 65
   257
 75
     1
175
     1
 42
1.0
 92
        8
 66
     7
 43
1.0
 76
     1
 77
     6
 78
     2
 67
     7
 79
     5
170
     0
171
     0
290
     0
174
     0
 93
        1
 44
-50.0
173
     0
291
     1
 45
0.0
1001
ACAD
1000
AcDbSavedByObjectVersion
1070
     0
  0
VISUALSTYLE
  5
44F
102
{ACAD_REACTORS
330
2F
102
}
102
{ACAD_XDICTIONARY
360
51E
102
}
330
2F
100
AcDbVisualStyle
  2
EdgeColorOff
 70
    22
 71
     2
 72
     2
 73
     0
 90
        0
 40
0.6
 41
30.0
 62
     5
 63
     7
 74
     1
 91
        4
 64
     7
 65
   257
 75
     1
175
     1
 42
1.0
 92
        8
 66
     7
 43
1.0
 76
     1
 77
     6
 78
     2
 67
     7
 79
     5
170
     0
171
     0
290
     0
174
     0
 93
        1
 44
0.0
173
     0
291
     1
 45
0.0
1001
ACAD
1000
AcDbSavedByObjectVersion
1070
     0
  0
VISUALSTYLE
  5
446
102
{ACAD_REACTORS
330
2F
102
}
102
{ACAD_XDICTIONARY
360
520
102
}
330
2F
100
AcDbVisualStyle
  2
Facepattern
 70
    15
 71
     2
 72
     2
 73
     0
 90
        0
 40
0.6
 41
30.0
 62
     5
 63
     7
 74
     1
 91
        4
 64
     7
 65
   257
 75
     1
175
     1
 42
1.0
 92
        8
 66
     7
 43
1.0
 76
     1
 77
     6
 78
     2
 67
     7
 79
     5
170
     0
171
     0
290
     0
174
     0
 93
        1
 44
0.0
173
     0
291
     1
 45
0.0
1001
ACAD
1000
AcDbSavedByObjectVersion
1070
     0
  0
VISUALSTYLE
  5
43B
102
{ACAD_REACTORS
330
2F
102
}
102
{ACAD_XDICTIONARY
360
522
102
}
330
2F
100
AcDbVisualStyle
  2
Flat
 70
     0
 71
     2
 72
     1
 73
     1
 90
        2
 40
0.6
 41
30.0
 62
     5
 63
     7
 74
     0
 91
        0
 64
     7
 65
   257
 75
     1
175
     1
 42
1.0
 92
        8
 66
     7
 43
1.0
 76
     1
 77
     6
 78
     2
 67
     7
 79
     5
170
     0
171
     0
290
     0
174
     0
 93
       13
 44
0.0
173
     0
291
     1
 45
0.0
1001
ACAD
1000
AcDbSavedByObjectVersion
1070
     0
  0
VISUALSTYLE
  5
43C
102
{ACAD_REACTORS
330
2F
102
}
102
{ACAD_XDICTIONARY
360
524
102
}
330
2F
100
AcDbVisualStyle
  2
FlatWithEdges
 70
     1
 71
     2
 72
     1
 73
     1
 90
        2
 40
0.6
 41
30.0
 62
     5
 63
     7
 74
     1
 91
        0
 64
     7
 65
   257
 75
     1
175
     1
 42
1.0
 92
        0
 66
   257
 43
1.0
 76
     1
 77
     6
 78
     2
 67
     7
 79
     5
170
     0
171
     0
290
     0
174
     0
 93
       13
 44
0.0
173
     0
291
     1
 45
0.0
1001
ACAD
1000
AcDbSavedByObjectVersion
1070
     0
  0
VISUALSTYLE
  5
43D
102
{ACAD_REACTORS
330
2F
102
}
102
{ACAD_XDICTIONARY
360
526
102
}
330
2F
100
AcDbVisualStyle
  2
Gouraud
 70
     2
 71
     2
 72
     2
 73
     1
 90
        2
 40
0.6
 41
30.0
 62
     5
 63
     7
 74
     0
 91
        0
 64
     7
 65
   257
 75
     1
175
     1
 42
1.0
 92
        0
 66
     7
 43
1.0
 76
     1
 77
     6
 78
     2
 67
     7
 79
     5
170
     0
171
     0
290
     0
174
     0
 93
       13
 44
0.0
173
     0
291
     1
 45
0.0
1001
ACAD
1000
AcDbSavedByObjectVersion
1070
     0
  0
VISUALSTYLE
  5
43E
102
{ACAD_REACTORS
330
2F
102
}
102
{ACAD_XDICTIONARY
360
528
102
}
330
2F
100
AcDbVisualStyle
  2
GouraudWithEdges
 70
     3
 71
     2
 72
     2
 73
     1
 90
        2
 40
0.6
 41
30.0
 62
     5
 63
     7
 74
     1
 91
        0
 64
     7
 65
   257
 75
     1
175
     1
 42
1.0
 92
        0
 66
   257
 43
1.0
 76
     1
 77
     6
 78
     2
 67
     7
 79
     5
170
     0
171
     0
290
     0
174
     0
 93
       13
 44
0.0
173
     0
291
     1
 45
0.0
1001
ACAD
1000
AcDbSavedByObjectVersion
1070
     0
  0
VISUALSTYLE
  5
440
102
{ACAD_REACTORS
330
2F
102
}
102
{ACAD_XDICTIONARY
360
52A
102
}
330
2F
100
AcDbVisualStyle
  2
Hidden
 70
     6
 71
     1
 72
     2
 73
     2
 90
        0
 40
0.6
 41
30.0
 62
     5
 63
     7
 74
     2
 91
        2
 64
     7
 65
   257
 75
     2
175
     1
 42
40.0
 92
        0
 66
   257
 43
1.0
 76
     1
 77
     6
 78
     2
 67
     7
 79
     3
170
     0
171
     0
290
     0
174
     0
 93
        1
 44
0.0
173
     0
291
     0
 45
0.0
1001
ACAD
1000
AcDbSavedByObjectVersion
1070
     0
  0
VISUALSTYLE
  5
44D
102
{ACAD_REACTORS
330
2F
102
}
102
{ACAD_XDICTIONARY
360
52C
102
}
330
2F
100
AcDbVisualStyle
  2
JitterOff
 70
    20
 71
     2
 72
     2
 73
     0
 90
        0
 40
0.6
 41
30.0
 62
     5
 63
     7
 74
     1
 91
        4
 64
     7
 65
   257
 75
     1
175
     1
 42
1.0
 92
       10
 66
     7
 43
1.0
 76
     1
 77
     6
 78
     2
 67
     7
 79
     5
170
     0
171
     0
290
     0
174
     0
 93
        1
 44
0.0
173
     0
291
     1
 45
0.0
1001
ACAD
1000
AcDbSavedByObjectVersion
1070
     0
  0
VISUALSTYLE
  5
445
102
{ACAD_REACTORS
330
2F
102
}
102
{ACAD_XDICTIONARY
360
52E
102
}
330
2F
100
AcDbVisualStyle
  2
Linepattern
 70
    14
 71
     2
 72
     2
 73
     0
 90
        0
 40
0.6
 41
30.0
 62
     5
 63
     7
 74
     1
 91
        4
 64
     7
 65
   257
 75
     7
175
     7
 42
1.0
 92
        8
 66
     7
 43
1.0
 76
     1
 77
     6
 78
     2
 67
     7
 79
     5
170
     0
171
     0
290
     0
174
     0
 93
        1
 44
0.0
173
     0
291
     1
 45
0.0
1001
ACAD
1000
AcDbSavedByObjectVersion
1070
     0
  0
VISUALSTYLE
  5
44E
102
{ACAD_REACTORS
330
2F
102
}
102
{ACAD_XDICTIONARY
360
530
102
}
330
2F
100
AcDbVisualStyle
  2
OverhangOff
 70
    21
 71
     2
 72
     2
 73
     0
 90
        0
 40
0.6
 41
30.0
 62
     5
 63
     7
 74
     1
 91
        4
 64
     7
 65
   257
 75
     1
175
     1
 42
1.0
 92
        9
 66
     7
 43
1.0
 76
     1
 77
     6
 78
     2
 67
     7
 79
     5
170
     0
171
     0
290
     0
174
     0
 93
        1
 44
0.0
173
     0
291
     1
 45
0.0
1001
ACAD
1000
AcDbSavedByObjectVersion
1070
     0
  0
VISUALSTYLE
  5
52
102
{ACAD_REACTORS
330
2F
102
}
102
{ACAD_XDICTIONARY
360
532
102
}
330
2F
100
AcDbVisualStyle
  2
Realistic
 70
     8
 71
     2
 72
     3
 73
     0
 90
        2
 40
0.6
 41
30.0
 62
     5
 63
     7
 74
     0
 91
        0
 64
     7
 65
   257
 75
     1
175
     1
 42
1.0
 92
        8
 66
   257
 43
1.0
 76
     1
 77
     6
 78
     2
 67
     7
 79
     3
170
     0
171
     0
290
     0
174
     0
 93
       13
 44
0.0
173
     0
291
     0
 45
0.0
1001
ACAD
1000
AcDbSavedByObjectVersion
1070
     0
  0
VISUALSTYLE
  5
44C
102
{ACAD_REACTORS
330
2F
102
}
102
{ACAD_XDICTIONARY
360
534
102
}
330
2F
100
AcDbVisualStyle
  2
Shaded
 70
    27
 71
     2
 72
     2
 73
     1
 90
        2
 40
0.6
 41
30.0
 62
     5
 63
     7
 74
     0
 91
        4
 64
     7
 65
   257
 75
     1
175
     1
 42
1.0
 92
        8
 66
   257
 43
1.0
 76
     1
 77
     6
 78
     2
 67
     8
 79
     3
170
     0
171
     0
290
     0
174
     0
 93
        5
 44
0.0
173
     0
291
     0
 45
0.0
1001
ACAD
1000
AcDbSavedByObjectVersion
1070
     0
  0
VISUALSTYLE
  5
44B
102
{ACAD_REACTORS
330
2F
102
}
102
{ACAD_XDICTIONARY
360
536
102
}
330
2F
100
AcDbVisualStyle
  2
Shaded with edges
 70
    26
 71
     2
 72
     2
 73
     1
 90
        2
 40
0.6
 41
30.0
 62
     5
 63
     7
 74
     1
 91
       10
 64
     7
 65
   257
 75
     2
175
     1
 42
1.0
 92
        8
 66
   257
 43
1.0
 76
     1
 77
     6
 78
     2
 67
     7
 79
     3
170
     0
171
     0
290
     0
174
     0
 93
        5
 44
0.0
173
     0
291
     0
 45
0.0
1001
ACAD
1000
AcDbSavedByObjectVersion
1070
     0
  0
VISUALSTYLE
  5
448
102
{ACAD_REACTORS
330
2F
102
}
102
{ACAD_XDICTIONARY
360
538
102
}
330
2F
100
AcDbVisualStyle
  2
Shades of Gray
 70
    23
 71
     2
 72
     2
 73
     3
 90
        0
 40
0.6
 41
30.0
 62
     5
 63
     7
 74
     2
 91
        2
 64
     7
 65
     7
 75
     1
175
     1
 42
40.0
 92
        8
 66
     7
 43
1.0
 76
     1
 77
     6
 78
     2
 67
     7
 79
     3
170
     0
171
     0
290
     0
174
     0
 93
        1
 44
0.0
173
     0
291
     0
 45
0.0
1001
ACAD
1000
AcDbSavedByObjectVersion
1070
     0
  0
VISUALSTYLE
  5
449
102
{ACAD_REACTORS
330
2F
102
}
102
{ACAD_XDICTIONARY
360
53A
102
}
330
2F
100
AcDbVisualStyle
  2
Sketchy
 70
    24
 71
     1
 72
     2
 73
     2
 90
        0
 40
0.6
 41
30.0
 62
     5
 63
     7
 74
     2
 91
        2
 64
     7
 65
     7
 75
     1
175
     1
 42
40.0
 92
       11
 66
     7
 43
1.0
 76
     1
 77
     6
 78
     2
 67
     7
 79
     6
170
     0
171
     0
290
     0
174
     0
 93
        1
 44
0.0
173
     0
291
     0
 45
0.0
1001
ACAD
1000
AcDbSavedByObjectVersion
1070
     0
  0
VISUALSTYLE
  5
444
102
{ACAD_REACTORS
330
2F
102
}
102
{ACAD_XDICTIONARY
360
53C
102
}
330
2F
100
AcDbVisualStyle
  2
Thicken
 70
    13
 71
     2
 72
     2
 73
     0
 90
        0
 40
0.6
 41
30.0
 62
     5
 63
     7
 74
     1
 91
        4
 64
     7
 65
   257
 75
     1
175
     1
 42
1.0
 92
       12
 66
     7
 43
1.0
 76
     1
 77
     6
 78
     2
 67
     7
 79
     5
170
     0
171
     0
290
     0
174
     0
 93
        1
 44
0.0
173
     0
291
     1
 45
0.0
1001
ACAD
1000
AcDbSavedByObjectVersion
1070
     0
  0
VISUALSTYLE
  5
53
102
{ACAD_REACTORS
330
2F
102
}
102
{ACAD_XDICTIONARY
360
53E
102
}
330
2F
100
AcDbVisualStyle
  2
Wireframe
 70
     5
 71
     0
 72
     2
 73
     0
 90
        0
 40
0.6
 41
30.0
 62
     5
 63
     7
 74
     1
 91
        4
 64
     7
 65
   257
 75
     1
175
     1
 42
1.0
 92
        0
 66
   257
 43
1.0
 76
     1
 77
     6
 78
     2
 67
     7
 79
     3
170
     0
171
     0
290
     0
174
     0
 93
        1
 44
0.0
173
     0
291
     0
 45
0.0
1001
ACAD
1000
AcDbSavedByObjectVersion
1070
     0
  0
VISUALSTYLE
  5
44A
102
{ACAD_REACTORS
330
2F
102
}
102
{ACAD_XDICTIONARY
360
540
102
}
330
2F
100
AcDbVisualStyle
  2
X-Ray
 70
    25
 71
     2
 72
     2
 73
     1
 90
        1
 40
0.5
 41
30.0
 62
     5
 63
     7
 74
     1
 91
        0
 64
     7
 65
   257
 75
     1
175
     1
 42
1.0
 92
        8
 66
     7
 43
1.0
 76
     1
 77
     6
 78
     2
 67
     7
 79
     3
170
     0
171
     0
290
     0
174
     0
 93
       13
 44
0.0
173
     0
291
     0
 45
0.0
1001
ACAD
1000
AcDbSavedByObjectVersion
1070
     0
  0
XRECORD
  5
503
102
{ACAD_REACTORS
330
502
102
}
330
502
100
AcDbXrecord
280
     1
340
48
  0
XRECORD
  5
504
102
{ACAD_REACTORS
330
502
102
}
330
502
100
AcDbXrecord
280
     1
340
E
  0
DICTIONARYVAR
  5
436
102
{ACAD_REACTORS
330
430
102
}
330
430
100
DictionaryVariables
280
     0
  1
1:1
  0
DICTIONARYVAR
  5
432
102
{ACAD_REACTORS
330
430
102
}
330
430
100
DictionaryVariables
280
     0
  1
Standard
  0
DICTIONARYVAR
  5
431
102
{ACAD_REACTORS
330
430
102
}
330
430
100
DictionaryVariables
280
     0
  1
Standard
  0
DICTIONARYVAR
  5
433
102
{ACAD_REACTORS
330
430
102
}
330
430
100
DictionaryVariables
280
     0
  1
Imperial24
  0
DICTIONARYVAR
  5
434
102
{ACAD_REACTORS
330
430
102
}
330
430
100
DictionaryVariables
280
     0
  1
Imperial24
  0
DICTIONARYVAR
  5
500
102
{ACAD_REACTORS
330
430
102
}
330
430
100
DictionaryVariables
280
     0
  1
0
  0
DICTIONARYVAR
  5
501
102
{ACAD_REACTORS
330
430
102
}
330
430
100
DictionaryVariables
280
     0
  1
1
  0
DICTIONARYVAR
  5
438
102
{ACAD_REACTORS
330
430
102
}
330
430
100
DictionaryVariables
280
     0
  1
1
  0
DICTIONARYVAR
  5
439
102
{ACAD_REACTORS
330
430
102
}
330
430
100
DictionaryVariables
280
     0
  1
15
  0
DICTIONARYVAR
  5
437
102
{ACAD_REACTORS
330
430
102
}
330
430
100
DictionaryVariables
280
     0
  1
0
  0
DICTIONARYVAR
  5
435
102
{ACAD_REACTORS
330
430
102
}
330
430
100
DictionaryVariables
280
     0
  1
0
  0
DICTIONARYVAR
  5
4C0
102
{ACAD_REACTORS
330
430
102
}
330
430
100
DictionaryVariables
280
     0
  1
0
  0
DICTIONARY
  5
47B
330
454
100
AcDbDictionary
280
     1
281
     1
  3
ACAD_XREC_ROUNDTRIP
360
508
  0
DICTIONARY
  5
1A
330
18
100
AcDbDictionary
280
     1
281
     1
  0
DICTIONARY
  5
509
330
40
100
AcDbDictionary
280
     1
281
     1
  3
ACAD_XREC_ROUNDTRIP
360
50A
  0
DICTIONARY
  5
50B
330
38
100
AcDbDictionary
280
     1
281
     1
  3
ACAD_XREC_ROUNDTRIP
360
50C
  0
DICTIONARY
  5
50D
330
D
100
AcDbDictionary
280
     1
281
     1
  3
ACAD_XREC_ROUNDTRIP
360
50E
  0
DICTIONARY
  5
50F
330
450
100
AcDbDictionary
280
     1
281
     1
  3
ACAD_XREC_ROUNDTRIP
360
510
  0
DICTIONARY
  5
479
330
452
100
AcDbDictionary
280
     1
281
     1
  3
ACAD_XREC_ROUNDTRIP
360
511
  0
DICTIONARY
  5
512
330
2E
100
AcDbDictionary
280
     1
281
     1
  3
ACAD_XREC_ROUNDTRIP
360
513
  0
DICTIONARY
  5
514
330
43F
100
AcDbDictionary
280
     1
281
     1
  3
ACAD_XREC_ROUNDTRIP
360
515
  0
DICTIONARY
  5
516
330
443
100
AcDbDictionary
280
     1
281
     1
  3
ACAD_XREC_ROUNDTRIP
360
517
  0
DICTIONARY
  5
518
330
447
100
AcDbDictionary
280
     1
281
     1
  3
ACAD_XREC_ROUNDTRIP
360
519
  0
DICTIONARY
  5
51A
330
441
100
AcDbDictionary
280
     1
281
     1
  3
ACAD_XREC_ROUNDTRIP
360
51B
  0
DICTIONARY
  5
51C
330
442
100
AcDbDictionary
280
     1
281
     1
  3
ACAD_XREC_ROUNDTRIP
360
51D
  0
DICTIONARY
  5
51E
330
44F
100
AcDbDictionary
280
     1
281
     1
  3
ACAD_XREC_ROUNDTRIP
360
51F
  0
DICTIONARY
  5
520
330
446
100
AcDbDictionary
280
     1
281
     1
  3
ACAD_XREC_ROUNDTRIP
360
521
  0
DICTIONARY
  5
522
330
43B
100
AcDbDictionary
280
     1
281
     1
  3
ACAD_XREC_ROUNDTRIP
360
523
  0
DICTIONARY
  5
524
330
43C
100
AcDbDictionary
280
     1
281
     1
  3
ACAD_XREC_ROUNDTRIP
360
525
  0
DICTIONARY
  5
526
330
43D
100
AcDbDictionary
280
     1
281
     1
  3
ACAD_XREC_ROUNDTRIP
360
527
  0
DICTIONARY
  5
528
330
43E
100
AcDbDictionary
280
     1
281
     1
  3
ACAD_XREC_ROUNDTRIP
360
529
  0
DICTIONARY
  5
52A
330
440
100
AcDbDictionary
280
     1
281
     1
  3
ACAD_XREC_ROUNDTRIP
360
52B
  0
DICTIONARY
  5
52C
330
44D
100
AcDbDictionary
280
     1
281
     1
  3
ACAD_XREC_ROUNDTRIP
360
52D
  0
DICTIONARY
  5
52E
330
445
100
AcDbDictionary
280
     1
281
     1
  3
ACAD_XREC_ROUNDTRIP
360
52F
  0
DICTIONARY
  5
530
330
44E
100
AcDbDictionary
280
     1
281
     1
  3
ACAD_XREC_ROUNDTRIP
360
531
  0
DICTIONARY
  5
532
330
52
100
AcDbDictionary
280
     1
281
     1
  3
ACAD_XREC_ROUNDTRIP
360
533
  0
DICTIONARY
  5
534
330
44C
100
AcDbDictionary
280
     1
281
     1
  3
ACAD_XREC_ROUNDTRIP
360
535
  0
DICTIONARY
  5
536
330
44B
100
AcDbDictionary
280
     1
281
     1
  3
ACAD_XREC_ROUNDTRIP
360
537
  0
DICTIONARY
  5
538
330
448
100
AcDbDictionary
280
     1
281
     1
  3
ACAD_XREC_ROUNDTRIP
360
539
  0
DICTIONARY
  5
53A
330
449
100
AcDbDictionary
280
     1
281
     1
  3
ACAD_XREC_ROUNDTRIP
360
53B
  0
DICTIONARY
  5
53C
330
444
100
AcDbDictionary
280
     1
281
     1
  3
ACAD_XREC_ROUNDTRIP
360
53D
  0
DICTIONARY
  5
53E
330
53
100
AcDbDictionary
280
     1
281
     1
  3
ACAD_XREC_ROUNDTRIP
360
53F
  0
DICTIONARY
  5
540
330
44A
100
AcDbDictionary
280
     1
281
     1
  3
ACAD_XREC_ROUNDTRIP
360
541
  0
XRECORD
  5
508
102
{ACAD_REACTORS
330
47B
102
}
330
47B
100
AcDbXrecord
280
     1
102
DISPLAYNAME
  1
Imperial24
102
FLAGS
 90
        0
  0
XRECORD
  5
50A
102
{ACAD_REACTORS
330
509
102
}
330
509
100
AcDbXrecord
280
     1
102
MATERIAL
148
0.0
149
0.0
149
0.0
 93
        0
 94
      127
282
     0
 72
     0
 77
     0
171
     0
175
     0
179
     0
273
     0
  0
XRECORD
  5
50C
102
{ACAD_REACTORS
330
50B
102
}
330
50B
100
AcDbXrecord
280
     1
102
MATERIAL
148
0.0
149
0.0
149
0.0
 93
        0
 94
      127
282
     0
 72
     0
 77
     0
171
     0
175
     0
179
     0
273
     0
  0
XRECORD
  5
50E
102
{ACAD_REACTORS
330
50D
102
}
330
50D
100
AcDbXrecord
280
     1
102
MATERIAL
148
0.0
149
0.0
149
0.0
 93
        0
 94
      127
282
     0
 72
     0
 77
     0
171
     0
175
     0
179
     0
273
     0
  0
XRECORD
  5
510
102
{ACAD_REACTORS
330
50F
102
}
330
50F
100
AcDbXrecord
280
     1
102
ACAD_ROUNDTRIP_2012_MLEADER_STYLE
298
     1
  0
XRECORD
  5
511
102
{ACAD_REACTORS
330
479
102
}
330
479
100
AcDbXrecord
280
     1
102
DISPLAYNAME
  1
Imperial24
102
FLAGS
 90
        0
  0
XRECORD
  5
513
102
{ACAD_REACTORS
330
512
102
}
330
512
100
AcDbXrecord
280
     1
102
RTVSPropertyOp0
 70
     1
102
RTVSPropertyOp1
 70
     1
102
RTVSPropertyOp2
 70
     1
102
RTVSPropertyOp3
 70
     1
102
RTVSPropertyOp4
 70
     1
102
RTVSPropertyOp5
 70
     1
102
RTVSPropertyOp6
 70
     1
102
RTVSPropertyOp7
 70
     1
102
RTVSPropertyOp8
 70
     1
102
RTVSPropertyOp9
 70
     1
102
RTVSPropertyOp10
 70
     1
102
RTVSPropertyOp11
 70
     1
102
RTVSPropertyOp12
 70
     1
102
RTVSPropertyOp13
 70
     1
102
RTVSPropertyOp14
 70
     1
102
RTVSPropertyOp15
 70
     1
102
RTVSPropertyOp16
 70
     1
102
RTVSPropertyOp17
 70
     1
102
RTVSPropertyOp18
 70
     1
102
RTVSPropertyOp19
 70
     1
102
RTVSPropertyOp20
 70
     1
102
RTVSPropertyOp21
 70
     1
102
RTVSPropertyOp22
 70
     1
102
RTVSPropertyOp23
 70
     1
102
RTVSPropertyOp24
 70
     1
102
RTVSPropertyOp25
 70
     1
102
RTVSPropertyOp26
 70
     1
102
RTVSPropertyOp27
 70
     1
102
RTVSPropertyOp28
 70
     1
102
RTVSPropertyOp29
 70
     1
102
RTVSPropertyOp30
 70
     1
102
RTVSPropertyOp31
 70
     1
102
RTVSPropertyOp32
 70
     1
102
RTVSPropertyOp33
 70
     1
102
RTVSPropertyOp34
 70
     1
102
RTVSPropertyOp35
 70
     1
102
RTVSPropertyOp36
 70
     1
102
RTVSPropertyOp37
 70
     1
102
RTVSPropertyOp38
 70
     1
102
RTVSPropertyOp39
 70
     1
102
RTVSPropertyOp40
 70
     1
102
RTVSPropertyOp41
 70
     1
102
RTVSPropertyOp42
 70
     1
102
RTVSPropertyOp43
 70
     1
102
RTVSPropertyOp44
 70
     1
102
RTVSPropertyOp45
 70
     1
102
RTVSPropertyOp46
 70
     1
102
RTVSPropertyOp47
 70
     1
102
RTVSPropertyOp48
 70
     1
102
RTVSPropertyOp49
 70
     1
102
RTVSPropertyOp50
 70
     1
102
RTVSPropertyOp51
 70
     0
102
RTVSPropertyOp52
 70
     0
102
RTVSPropertyOp53
 70
     1
102
RTVSPropertyOp54
 70
     1
102
RTVSPropertyOp55
 70
     1
102
RTVSPropertyOp56
 70
     1
102
RTVSPropertyOp57
 70
     1
102
RTVSPost2010Prop28
280
     1
102
RTVSPost2010PropOp28
 70
     1
102
RTVSPost2010Prop29
280
     1
102
RTVSPost2010PropOp29
 70
     1
102
RTVSPost2010Prop30
280
     0
102
RTVSPost2010PropOp30
 70
     1
102
RTVSPost2010Prop31
280
     0
102
RTVSPost2010PropOp31
 70
     1
102
RTVSPost2010Prop32
280
     0
102
RTVSPost2010PropOp32
 70
     1
102
RTVSPost2010Prop33
280
     0
102
RTVSPost2010PropOp33
 70
     1
102
RTVSPost2010Prop34
280
     0
102
RTVSPost2010PropOp34
 70
     1
102
RTVSPost2010Prop35
280
     0
102
RTVSPost2010PropOp35
 70
     1
102
RTVSPost2010Prop36
280
     0
102
RTVSPost2010PropOp36
 70
     1
102
RTVSPost2010Prop37
 90
       50
102
RTVSPost2010PropOp37
 70
     1
102
RTVSPost2010Prop38
140
0.0
102
RTVSPost2010PropOp38
 70
     1
102
RTVSPost2010Prop39
140
1.0
102
RTVSPost2010PropOp39
 70
     1
102
RTVSPost2010Prop40
 90
        0
102
RTVSPost2010PropOp40
 70
     1
102
RTVSPost2010Prop41ColorIndex
 90
       18
102
RTVSPost2010Prop41ColorRGB
 90
        0
102
RTVSPost2010PropOp41
 70
     1
102
RTVSPost2010Prop42
 90
       50
102
RTVSPost2010PropOp42
 70
     1
102
RTVSPost2010Prop43
 90
        3
102
RTVSPost2010PropOp43
 70
     1
102
RTVSPost2010Prop44ColorIndex
 90
        5
102
RTVSPost2010Prop44ColorRGB
 90
      255
102
RTVSPost2010PropOp44
 70
     1
102
RTVSPost2010Prop45
280
     0
102
RTVSPost2010PropOp45
 70
     1
102
RTVSPost2010Prop46
 90
       50
102
RTVSPost2010PropOp46
 70
     1
102
RTVSPost2010Prop47
 90
       50
102
RTVSPost2010PropOp47
 70
     1
102
RTVSPost2010Prop48
 90
       50
102
RTVSPost2010PropOp48
 70
     1
102
RTVSPost2010Prop49
280
     0
102
RTVSPost2010PropOp49
 70
     1
102
RTVSPost2010Prop50
 90
       50
102
RTVSPost2010PropOp50
 70
     1
102
RTVSPost2010Prop51ColorIndex
 90
      256
102
RTVSPost2010Prop51ColorRGB
 90
-16777216
102
RTVSPost2010PropOp51
 70
     0
102
RTVSPost2010Prop52
140
1.0
102
RTVSPost2010PropOp52
 70
     0
102
RTVSPost2010Prop53
 90
        2
102
RTVSPost2010PropOp53
 70
     1
102
RTVSPost2010Prop54
  1
strokes_ogs.tif
102
RTVSPost2010PropOp54
 70
     1
102
RTVSPost2010Prop55
280
     0
102
RTVSPost2010PropOp55
 70
     1
102
RTVSPost2010Prop56
140
1.0
102
RTVSPost2010PropOp56
 70
     1
102
RTVSPost2010Prop57
140
1.0
102
RTVSPost2010PropOp57
 70
     1
  0
XRECORD
  5
515
102
{ACAD_REACTORS
330
514
102
}
330
514
100
AcDbXrecord
280
     1
102
RTVSPropertyOp0
 70
     1
102
RTVSPropertyOp1
 70
     1
102
RTVSPropertyOp2
 70
     1
102
RTVSPropertyOp3
 70
     1
102
RTVSPropertyOp4
 70
     1
102
RTVSPropertyOp5
 70
     1
102
RTVSPropertyOp6
 70
     1
102
RTVSPropertyOp7
 70
     1
102
RTVSPropertyOp8
 70
     1
102
RTVSPropertyOp9
 70
     1
102
RTVSPropertyOp10
 70
     1
102
RTVSPropertyOp11
 70
     1
102
RTVSPropertyOp12
 70
     1
102
RTVSPropertyOp13
 70
     1
102
RTVSPropertyOp14
 70
     1
102
RTVSPropertyOp15
 70
     1
102
RTVSPropertyOp16
 70
     1
102
RTVSPropertyOp17
 70
     1
102
RTVSPropertyOp18
 70
     1
102
RTVSPropertyOp19
 70
     1
102
RTVSPropertyOp20
 70
     1
102
RTVSPropertyOp21
 70
     1
102
RTVSPropertyOp22
 70
     1
102
RTVSPropertyOp23
 70
     1
102
RTVSPropertyOp24
 70
     1
102
RTVSPropertyOp25
 70
     1
102
RTVSPropertyOp26
 70
     1
102
RTVSPropertyOp27
 70
     1
102
RTVSPropertyOp28
 70
     1
102
RTVSPropertyOp29
 70
     1
102
RTVSPropertyOp30
 70
     1
102
RTVSPropertyOp31
 70
     1
102
RTVSPropertyOp32
 70
     1
102
RTVSPropertyOp33
 70
     1
102
RTVSPropertyOp34
 70
     1
102
RTVSPropertyOp35
 70
     1
102
RTVSPropertyOp36
 70
     1
102
RTVSPropertyOp37
 70
     1
102
RTVSPropertyOp38
 70
     1
102
RTVSPropertyOp39
 70
     1
102
RTVSPropertyOp40
 70
     1
102
RTVSPropertyOp41
 70
     1
102
RTVSPropertyOp42
 70
     1
102
RTVSPropertyOp43
 70
     1
102
RTVSPropertyOp44
 70
     1
102
RTVSPropertyOp45
 70
     1
102
RTVSPropertyOp46
 70
     1
102
RTVSPropertyOp47
 70
     1
102
RTVSPropertyOp48
 70
     1
102
RTVSPropertyOp49
 70
     1
102
RTVSPropertyOp50
 70
     1
102
RTVSPropertyOp51
 70
     0
102
RTVSPropertyOp52
 70
     0
102
RTVSPropertyOp53
 70
     1
102
RTVSPropertyOp54
 70
     1
102
RTVSPropertyOp55
 70
     1
102
RTVSPropertyOp56
 70
     1
102
RTVSPropertyOp57
 70
     1
102
RTVSPost2010Prop28
280
     0
102
RTVSPost2010PropOp28
 70
     1
102
RTVSPost2010Prop29
280
     1
102
RTVSPost2010PropOp29
 70
     1
102
RTVSPost2010Prop30
280
     1
102
RTVSPost2010PropOp30
 70
     1
102
RTVSPost2010Prop31
280
     0
102
RTVSPost2010PropOp31
 70
     1
102
RTVSPost2010Prop32
280
     0
102
RTVSPost2010PropOp32
 70
     1
102
RTVSPost2010Prop33
280
     0
102
RTVSPost2010PropOp33
 70
     1
102
RTVSPost2010Prop34
280
     0
102
RTVSPost2010PropOp34
 70
     1
102
RTVSPost2010Prop35
280
     0
102
RTVSPost2010PropOp35
 70
     1
102
RTVSPost2010Prop36
280
     0
102
RTVSPost2010PropOp36
 70
     1
102
RTVSPost2010Prop37
 90
       50
102
RTVSPost2010PropOp37
 70
     1
102
RTVSPost2010Prop38
140
0.0
102
RTVSPost2010PropOp38
 70
     1
102
RTVSPost2010Prop39
140
1.0
102
RTVSPost2010PropOp39
 70
     1
102
RTVSPost2010Prop40
 90
        0
102
RTVSPost2010PropOp40
 70
     1
102
RTVSPost2010Prop41ColorIndex
 90
       18
102
RTVSPost2010Prop41ColorRGB
 90
        0
102
RTVSPost2010PropOp41
 70
     1
102
RTVSPost2010Prop42
 90
       50
102
RTVSPost2010PropOp42
 70
     1
102
RTVSPost2010Prop43
 90
        3
102
RTVSPost2010PropOp43
 70
     1
102
RTVSPost2010Prop44ColorIndex
 90
        5
102
RTVSPost2010Prop44ColorRGB
 90
      255
102
RTVSPost2010PropOp44
 70
     1
102
RTVSPost2010Prop45
280
     0
102
RTVSPost2010PropOp45
 70
     1
102
RTVSPost2010Prop46
 90
       50
102
RTVSPost2010PropOp46
 70
     1
102
RTVSPost2010Prop47
 90
       50
102
RTVSPost2010PropOp47
 70
     1
102
RTVSPost2010Prop48
 90
       50
102
RTVSPost2010PropOp48
 70
     1
102
RTVSPost2010Prop49
280
     0
102
RTVSPost2010PropOp49
 70
     1
102
RTVSPost2010Prop50
 90
       50
102
RTVSPost2010PropOp50
 70
     1
102
RTVSPost2010Prop51ColorIndex
 90
      256
102
RTVSPost2010Prop51ColorRGB
 90
-16777216
102
RTVSPost2010PropOp51
 70
     0
102
RTVSPost2010Prop52
140
1.0
102
RTVSPost2010PropOp52
 70
     0
102
RTVSPost2010Prop53
 90
        2
102
RTVSPost2010PropOp53
 70
     1
102
RTVSPost2010Prop54
  1
strokes_ogs.tif
102
RTVSPost2010PropOp54
 70
     1
102
RTVSPost2010Prop55
280
     0
102
RTVSPost2010PropOp55
 70
     1
102
RTVSPost2010Prop56
140
1.0
102
RTVSPost2010PropOp56
 70
     1
102
RTVSPost2010Prop57
140
1.0
102
RTVSPost2010PropOp57
 70
     1
  0
XRECORD
  5
517
102
{ACAD_REACTORS
330
516
102
}
330
516
100
AcDbXrecord
280
     1
102
RTVSPropertyOp0
 70
     1
102
RTVSPropertyOp1
 70
     1
102
RTVSPropertyOp2
 70
     1
102
RTVSPropertyOp3
 70
     1
102
RTVSPropertyOp4
 70
     1
102
RTVSPropertyOp5
 70
     1
102
RTVSPropertyOp6
 70
     1
102
RTVSPropertyOp7
 70
     1
102
RTVSPropertyOp8
 70
     1
102
RTVSPropertyOp9
 70
     1
102
RTVSPropertyOp10
 70
     1
102
RTVSPropertyOp11
 70
     1
102
RTVSPropertyOp12
 70
     1
102
RTVSPropertyOp13
 70
     1
102
RTVSPropertyOp14
 70
     1
102
RTVSPropertyOp15
 70
     1
102
RTVSPropertyOp16
 70
     1
102
RTVSPropertyOp17
 70
     1
102
RTVSPropertyOp18
 70
     1
102
RTVSPropertyOp19
 70
     1
102
RTVSPropertyOp20
 70
     1
102
RTVSPropertyOp21
 70
     1
102
RTVSPropertyOp22
 70
     1
102
RTVSPropertyOp23
 70
     1
102
RTVSPropertyOp24
 70
     1
102
RTVSPropertyOp25
 70
     1
102
RTVSPropertyOp26
 70
     1
102
RTVSPropertyOp27
 70
     1
102
RTVSPropertyOp28
 70
     1
102
RTVSPropertyOp29
 70
     1
102
RTVSPropertyOp30
 70
     1
102
RTVSPropertyOp31
 70
     1
102
RTVSPropertyOp32
 70
     1
102
RTVSPropertyOp33
 70
     1
102
RTVSPropertyOp34
 70
     1
102
RTVSPropertyOp35
 70
     1
102
RTVSPropertyOp36
 70
     1
102
RTVSPropertyOp37
 70
     1
102
RTVSPropertyOp38
 70
     1
102
RTVSPropertyOp39
 70
     1
102
RTVSPropertyOp40
 70
     1
102
RTVSPropertyOp41
 70
     1
102
RTVSPropertyOp42
 70
     1
102
RTVSPropertyOp43
 70
     1
102
RTVSPropertyOp44
 70
     1
102
RTVSPropertyOp45
 70
     1
102
RTVSPropertyOp46
 70
     1
102
RTVSPropertyOp47
 70
     1
102
RTVSPropertyOp48
 70
     1
102
RTVSPropertyOp49
 70
     1
102
RTVSPropertyOp50
 70
     1
102
RTVSPropertyOp51
 70
     0
102
RTVSPropertyOp52
 70
     0
102
RTVSPropertyOp53
 70
     1
102
RTVSPropertyOp54
 70
     1
102
RTVSPropertyOp55
 70
     1
102
RTVSPropertyOp56
 70
     1
102
RTVSPropertyOp57
 70
     1
102
RTVSPost2010Prop28
280
     0
102
RTVSPost2010PropOp28
 70
     1
102
RTVSPost2010Prop29
280
     1
102
RTVSPost2010PropOp29
 70
     1
102
RTVSPost2010Prop30
280
     1
102
RTVSPost2010PropOp30
 70
     1
102
RTVSPost2010Prop31
280
     0
102
RTVSPost2010PropOp31
 70
     1
102
RTVSPost2010Prop32
280
     0
102
RTVSPost2010PropOp32
 70
     1
102
RTVSPost2010Prop33
280
     0
102
RTVSPost2010PropOp33
 70
     1
102
RTVSPost2010Prop34
280
     0
102
RTVSPost2010PropOp34
 70
     1
102
RTVSPost2010Prop35
280
     0
102
RTVSPost2010PropOp35
 70
     1
102
RTVSPost2010Prop36
280
     0
102
RTVSPost2010PropOp36
 70
     1
102
RTVSPost2010Prop37
 90
       50
102
RTVSPost2010PropOp37
 70
     1
102
RTVSPost2010Prop38
140
0.0
102
RTVSPost2010PropOp38
 70
     1
102
RTVSPost2010Prop39
140
1.0
102
RTVSPost2010PropOp39
 70
     1
102
RTVSPost2010Prop40
 90
        0
102
RTVSPost2010PropOp40
 70
     1
102
RTVSPost2010Prop41ColorIndex
 90
       18
102
RTVSPost2010Prop41ColorRGB
 90
        0
102
RTVSPost2010PropOp41
 70
     1
102
RTVSPost2010Prop42
 90
       50
102
RTVSPost2010PropOp42
 70
     1
102
RTVSPost2010Prop43
 90
        3
102
RTVSPost2010PropOp43
 70
     1
102
RTVSPost2010Prop44ColorIndex
 90
        5
102
RTVSPost2010Prop44ColorRGB
 90
      255
102
RTVSPost2010PropOp44
 70
     1
102
RTVSPost2010Prop45
280
     0
102
RTVSPost2010PropOp45
 70
     1
102
RTVSPost2010Prop46
 90
       50
102
RTVSPost2010PropOp46
 70
     1
102
RTVSPost2010Prop47
 90
       50
102
RTVSPost2010PropOp47
 70
     1
102
RTVSPost2010Prop48
 90
       50
102
RTVSPost2010PropOp48
 70
     1
102
RTVSPost2010Prop49
280
     0
102
RTVSPost2010PropOp49
 70
     1
102
RTVSPost2010Prop50
 90
       50
102
RTVSPost2010PropOp50
 70
     1
102
RTVSPost2010Prop51ColorIndex
 90
      256
102
RTVSPost2010Prop51ColorRGB
 90
-16777216
102
RTVSPost2010PropOp51
 70
     0
102
RTVSPost2010Prop52
140
1.0
102
RTVSPost2010PropOp52
 70
     0
102
RTVSPost2010Prop53
 90
        2
102
RTVSPost2010PropOp53
 70
     1
102
RTVSPost2010Prop54
  1
strokes_ogs.tif
102
RTVSPost2010PropOp54
 70
     1
102
RTVSPost2010Prop55
280
     0
102
RTVSPost2010PropOp55
 70
     1
102
RTVSPost2010Prop56
140
1.0
102
RTVSPost2010PropOp56
 70
     1
102
RTVSPost2010Prop57
140
1.0
102
RTVSPost2010PropOp57
 70
     1
  0
XRECORD
  5
519
102
{ACAD_REACTORS
330
518
102
}
330
518
100
AcDbXrecord
280
     1
102
RTVSPropertyOp0
 70
     1
102
RTVSPropertyOp1
 70
     1
102
RTVSPropertyOp2
 70
     1
102
RTVSPropertyOp3
 70
     1
102
RTVSPropertyOp4
 70
     1
102
RTVSPropertyOp5
 70
     1
102
RTVSPropertyOp6
 70
     1
102
RTVSPropertyOp7
 70
     1
102
RTVSPropertyOp8
 70
     1
102
RTVSPropertyOp9
 70
     1
102
RTVSPropertyOp10
 70
     1
102
RTVSPropertyOp11
 70
     1
102
RTVSPropertyOp12
 70
     1
102
RTVSPropertyOp13
 70
     1
102
RTVSPropertyOp14
 70
     1
102
RTVSPropertyOp15
 70
     1
102
RTVSPropertyOp16
 70
     1
102
RTVSPropertyOp17
 70
     1
102
RTVSPropertyOp18
 70
     1
102
RTVSPropertyOp19
 70
     1
102
RTVSPropertyOp20
 70
     1
102
RTVSPropertyOp21
 70
     1
102
RTVSPropertyOp22
 70
     1
102
RTVSPropertyOp23
 70
     1
102
RTVSPropertyOp24
 70
     1
102
RTVSPropertyOp25
 70
     1
102
RTVSPropertyOp26
 70
     1
102
RTVSPropertyOp27
 70
     1
102
RTVSPropertyOp28
 70
     1
102
RTVSPropertyOp29
 70
     1
102
RTVSPropertyOp30
 70
     1
102
RTVSPropertyOp31
 70
     1
102
RTVSPropertyOp32
 70
     1
102
RTVSPropertyOp33
 70
     1
102
RTVSPropertyOp34
 70
     1
102
RTVSPropertyOp35
 70
     1
102
RTVSPropertyOp36
 70
     1
102
RTVSPropertyOp37
 70
     1
102
RTVSPropertyOp38
 70
     1
102
RTVSPropertyOp39
 70
     1
102
RTVSPropertyOp40
 70
     1
102
RTVSPropertyOp41
 70
     1
102
RTVSPropertyOp42
 70
     1
102
RTVSPropertyOp43
 70
     1
102
RTVSPropertyOp44
 70
     1
102
RTVSPropertyOp45
 70
     1
102
RTVSPropertyOp46
 70
     1
102
RTVSPropertyOp47
 70
     1
102
RTVSPropertyOp48
 70
     1
102
RTVSPropertyOp49
 70
     1
102
RTVSPropertyOp50
 70
     1
102
RTVSPropertyOp51
 70
     0
102
RTVSPropertyOp52
 70
     0
102
RTVSPropertyOp53
 70
     1
102
RTVSPropertyOp54
 70
     1
102
RTVSPropertyOp55
 70
     1
102
RTVSPropertyOp56
 70
     1
102
RTVSPropertyOp57
 70
     1
102
RTVSPost2010Prop28
280
     0
102
RTVSPost2010PropOp28
 70
     1
102
RTVSPost2010Prop29
280
     1
102
RTVSPost2010PropOp29
 70
     1
102
RTVSPost2010Prop30
280
     1
102
RTVSPost2010PropOp30
 70
     1
102
RTVSPost2010Prop31
280
     0
102
RTVSPost2010PropOp31
 70
     1
102
RTVSPost2010Prop32
280
     0
102
RTVSPost2010PropOp32
 70
     1
102
RTVSPost2010Prop33
280
     0
102
RTVSPost2010PropOp33
 70
     1
102
RTVSPost2010Prop34
280
     0
102
RTVSPost2010PropOp34
 70
     1
102
RTVSPost2010Prop35
280
     0
102
RTVSPost2010PropOp35
 70
     1
102
RTVSPost2010Prop36
280
     0
102
RTVSPost2010PropOp36
 70
     1
102
RTVSPost2010Prop37
 90
       50
102
RTVSPost2010PropOp37
 70
     1
102
RTVSPost2010Prop38
140
0.0
102
RTVSPost2010PropOp38
 70
     1
102
RTVSPost2010Prop39
140
1.0
102
RTVSPost2010PropOp39
 70
     1
102
RTVSPost2010Prop40
 90
        0
102
RTVSPost2010PropOp40
 70
     1
102
RTVSPost2010Prop41ColorIndex
 90
       18
102
RTVSPost2010Prop41ColorRGB
 90
        0
102
RTVSPost2010PropOp41
 70
     1
102
RTVSPost2010Prop42
 90
       50
102
RTVSPost2010PropOp42
 70
     1
102
RTVSPost2010Prop43
 90
        3
102
RTVSPost2010PropOp43
 70
     1
102
RTVSPost2010Prop44ColorIndex
 90
        5
102
RTVSPost2010Prop44ColorRGB
 90
      255
102
RTVSPost2010PropOp44
 70
     1
102
RTVSPost2010Prop45
280
     0
102
RTVSPost2010PropOp45
 70
     1
102
RTVSPost2010Prop46
 90
       50
102
RTVSPost2010PropOp46
 70
     1
102
RTVSPost2010Prop47
 90
       50
102
RTVSPost2010PropOp47
 70
     1
102
RTVSPost2010Prop48
 90
       50
102
RTVSPost2010PropOp48
 70
     1
102
RTVSPost2010Prop49
280
     0
102
RTVSPost2010PropOp49
 70
     1
102
RTVSPost2010Prop50
 90
       50
102
RTVSPost2010PropOp50
 70
     1
102
RTVSPost2010Prop51ColorIndex
 90
      256
102
RTVSPost2010Prop51ColorRGB
 90
-16777216
102
RTVSPost2010PropOp51
 70
     0
102
RTVSPost2010Prop52
140
1.0
102
RTVSPost2010PropOp52
 70
     0
102
RTVSPost2010Prop53
 90
        2
102
RTVSPost2010PropOp53
 70
     1
102
RTVSPost2010Prop54
  1
strokes_ogs.tif
102
RTVSPost2010PropOp54
 70
     1
102
RTVSPost2010Prop55
280
     0
102
RTVSPost2010PropOp55
 70
     1
102
RTVSPost2010Prop56
140
1.0
102
RTVSPost2010PropOp56
 70
     1
102
RTVSPost2010Prop57
140
1.0
102
RTVSPost2010PropOp57
 70
     1
  0
XRECORD
  5
51B
102
{ACAD_REACTORS
330
51A
102
}
330
51A
100
AcDbXrecord
280
     1
102
RTVSPropertyOp0
 70
     1
102
RTVSPropertyOp1
 70
     1
102
RTVSPropertyOp2
 70
     1
102
RTVSPropertyOp3
 70
     1
102
RTVSPropertyOp4
 70
     1
102
RTVSPropertyOp5
 70
     1
102
RTVSPropertyOp6
 70
     1
102
RTVSPropertyOp7
 70
     1
102
RTVSPropertyOp8
 70
     1
102
RTVSPropertyOp9
 70
     1
102
RTVSPropertyOp10
 70
     1
102
RTVSPropertyOp11
 70
     1
102
RTVSPropertyOp12
 70
     1
102
RTVSPropertyOp13
 70
     1
102
RTVSPropertyOp14
 70
     1
102
RTVSPropertyOp15
 70
     1
102
RTVSPropertyOp16
 70
     1
102
RTVSPropertyOp17
 70
     1
102
RTVSPropertyOp18
 70
     1
102
RTVSPropertyOp19
 70
     1
102
RTVSPropertyOp20
 70
     1
102
RTVSPropertyOp21
 70
     1
102
RTVSPropertyOp22
 70
     1
102
RTVSPropertyOp23
 70
     1
102
RTVSPropertyOp24
 70
     1
102
RTVSPropertyOp25
 70
     1
102
RTVSPropertyOp26
 70
     1
102
RTVSPropertyOp27
 70
     1
102
RTVSPropertyOp28
 70
     1
102
RTVSPropertyOp29
 70
     1
102
RTVSPropertyOp30
 70
     1
102
RTVSPropertyOp31
 70
     1
102
RTVSPropertyOp32
 70
     1
102
RTVSPropertyOp33
 70
     1
102
RTVSPropertyOp34
 70
     1
102
RTVSPropertyOp35
 70
     1
102
RTVSPropertyOp36
 70
     1
102
RTVSPropertyOp37
 70
     1
102
RTVSPropertyOp38
 70
     1
102
RTVSPropertyOp39
 70
     1
102
RTVSPropertyOp40
 70
     1
102
RTVSPropertyOp41
 70
     1
102
RTVSPropertyOp42
 70
     1
102
RTVSPropertyOp43
 70
     1
102
RTVSPropertyOp44
 70
     1
102
RTVSPropertyOp45
 70
     1
102
RTVSPropertyOp46
 70
     1
102
RTVSPropertyOp47
 70
     1
102
RTVSPropertyOp48
 70
     1
102
RTVSPropertyOp49
 70
     1
102
RTVSPropertyOp50
 70
     1
102
RTVSPropertyOp51
 70
     0
102
RTVSPropertyOp52
 70
     0
102
RTVSPropertyOp53
 70
     1
102
RTVSPropertyOp54
 70
     1
102
RTVSPropertyOp55
 70
     1
102
RTVSPropertyOp56
 70
     1
102
RTVSPropertyOp57
 70
     1
102
RTVSPost2010Prop28
280
     0
102
RTVSPost2010PropOp28
 70
     1
102
RTVSPost2010Prop29
280
     1
102
RTVSPost2010PropOp29
 70
     1
102
RTVSPost2010Prop30
280
     1
102
RTVSPost2010PropOp30
 70
     1
102
RTVSPost2010Prop31
280
     0
102
RTVSPost2010PropOp31
 70
     1
102
RTVSPost2010Prop32
280
     0
102
RTVSPost2010PropOp32
 70
     1
102
RTVSPost2010Prop33
280
     0
102
RTVSPost2010PropOp33
 70
     1
102
RTVSPost2010Prop34
280
     0
102
RTVSPost2010PropOp34
 70
     1
102
RTVSPost2010Prop35
280
     0
102
RTVSPost2010PropOp35
 70
     1
102
RTVSPost2010Prop36
280
     0
102
RTVSPost2010PropOp36
 70
     1
102
RTVSPost2010Prop37
 90
       50
102
RTVSPost2010PropOp37
 70
     1
102
RTVSPost2010Prop38
140
0.0
102
RTVSPost2010PropOp38
 70
     1
102
RTVSPost2010Prop39
140
1.0
102
RTVSPost2010PropOp39
 70
     1
102
RTVSPost2010Prop40
 90
        0
102
RTVSPost2010PropOp40
 70
     1
102
RTVSPost2010Prop41ColorIndex
 90
       18
102
RTVSPost2010Prop41ColorRGB
 90
        0
102
RTVSPost2010PropOp41
 70
     1
102
RTVSPost2010Prop42
 90
       50
102
RTVSPost2010PropOp42
 70
     1
102
RTVSPost2010Prop43
 90
        3
102
RTVSPost2010PropOp43
 70
     1
102
RTVSPost2010Prop44ColorIndex
 90
        5
102
RTVSPost2010Prop44ColorRGB
 90
      255
102
RTVSPost2010PropOp44
 70
     1
102
RTVSPost2010Prop45
280
     0
102
RTVSPost2010PropOp45
 70
     1
102
RTVSPost2010Prop46
 90
       50
102
RTVSPost2010PropOp46
 70
     1
102
RTVSPost2010Prop47
 90
       50
102
RTVSPost2010PropOp47
 70
     1
102
RTVSPost2010Prop48
 90
       50
102
RTVSPost2010PropOp48
 70
     1
102
RTVSPost2010Prop49
280
     0
102
RTVSPost2010PropOp49
 70
     1
102
RTVSPost2010Prop50
 90
       50
102
RTVSPost2010PropOp50
 70
     1
102
RTVSPost2010Prop51ColorIndex
 90
      256
102
RTVSPost2010Prop51ColorRGB
 90
-16777216
102
RTVSPost2010PropOp51
 70
     0
102
RTVSPost2010Prop52
140
1.0
102
RTVSPost2010PropOp52
 70
     0
102
RTVSPost2010Prop53
 90
        2
102
RTVSPost2010PropOp53
 70
     1
102
RTVSPost2010Prop54
  1
strokes_ogs.tif
102
RTVSPost2010PropOp54
 70
     1
102
RTVSPost2010Prop55
280
     0
102
RTVSPost2010PropOp55
 70
     1
102
RTVSPost2010Prop56
140
1.0
102
RTVSPost2010PropOp56
 70
     1
102
RTVSPost2010Prop57
140
1.0
102
RTVSPost2010PropOp57
 70
     1
  0
XRECORD
  5
51D
102
{ACAD_REACTORS
330
51C
102
}
330
51C
100
AcDbXrecord
280
     1
102
RTVSPropertyOp0
 70
     1
102
RTVSPropertyOp1
 70
     1
102
RTVSPropertyOp2
 70
     1
102
RTVSPropertyOp3
 70
     1
102
RTVSPropertyOp4
 70
     1
102
RTVSPropertyOp5
 70
     1
102
RTVSPropertyOp6
 70
     1
102
RTVSPropertyOp7
 70
     1
102
RTVSPropertyOp8
 70
     1
102
RTVSPropertyOp9
 70
     1
102
RTVSPropertyOp10
 70
     1
102
RTVSPropertyOp11
 70
     1
102
RTVSPropertyOp12
 70
     1
102
RTVSPropertyOp13
 70
     1
102
RTVSPropertyOp14
 70
     1
102
RTVSPropertyOp15
 70
     1
102
RTVSPropertyOp16
 70
     1
102
RTVSPropertyOp17
 70
     1
102
RTVSPropertyOp18
 70
     1
102
RTVSPropertyOp19
 70
     1
102
RTVSPropertyOp20
 70
     1
102
RTVSPropertyOp21
 70
     1
102
RTVSPropertyOp22
 70
     1
102
RTVSPropertyOp23
 70
     1
102
RTVSPropertyOp24
 70
     1
102
RTVSPropertyOp25
 70
     1
102
RTVSPropertyOp26
 70
     1
102
RTVSPropertyOp27
 70
     1
102
RTVSPropertyOp28
 70
     1
102
RTVSPropertyOp29
 70
     1
102
RTVSPropertyOp30
 70
     1
102
RTVSPropertyOp31
 70
     1
102
RTVSPropertyOp32
 70
     1
102
RTVSPropertyOp33
 70
     1
102
RTVSPropertyOp34
 70
     1
102
RTVSPropertyOp35
 70
     1
102
RTVSPropertyOp36
 70
     1
102
RTVSPropertyOp37
 70
     1
102
RTVSPropertyOp38
 70
     1
102
RTVSPropertyOp39
 70
     1
102
RTVSPropertyOp40
 70
     1
102
RTVSPropertyOp41
 70
     1
102
RTVSPropertyOp42
 70
     1
102
RTVSPropertyOp43
 70
     1
102
RTVSPropertyOp44
 70
     1
102
RTVSPropertyOp45
 70
     1
102
RTVSPropertyOp46
 70
     1
102
RTVSPropertyOp47
 70
     1
102
RTVSPropertyOp48
 70
     1
102
RTVSPropertyOp49
 70
     1
102
RTVSPropertyOp50
 70
     1
102
RTVSPropertyOp51
 70
     0
102
RTVSPropertyOp52
 70
     0
102
RTVSPropertyOp53
 70
     1
102
RTVSPropertyOp54
 70
     1
102
RTVSPropertyOp55
 70
     1
102
RTVSPropertyOp56
 70
     1
102
RTVSPropertyOp57
 70
     1
102
RTVSPost2010Prop28
280
     0
102
RTVSPost2010PropOp28
 70
     1
102
RTVSPost2010Prop29
280
     1
102
RTVSPost2010PropOp29
 70
     1
102
RTVSPost2010Prop30
280
     1
102
RTVSPost2010PropOp30
 70
     1
102
RTVSPost2010Prop31
280
     0
102
RTVSPost2010PropOp31
 70
     1
102
RTVSPost2010Prop32
280
     0
102
RTVSPost2010PropOp32
 70
     1
102
RTVSPost2010Prop33
280
     0
102
RTVSPost2010PropOp33
 70
     1
102
RTVSPost2010Prop34
280
     0
102
RTVSPost2010PropOp34
 70
     1
102
RTVSPost2010Prop35
280
     0
102
RTVSPost2010PropOp35
 70
     1
102
RTVSPost2010Prop36
280
     0
102
RTVSPost2010PropOp36
 70
     1
102
RTVSPost2010Prop37
 90
       50
102
RTVSPost2010PropOp37
 70
     1
102
RTVSPost2010Prop38
140
0.0
102
RTVSPost2010PropOp38
 70
     1
102
RTVSPost2010Prop39
140
1.0
102
RTVSPost2010PropOp39
 70
     1
102
RTVSPost2010Prop40
 90
        0
102
RTVSPost2010PropOp40
 70
     1
102
RTVSPost2010Prop41ColorIndex
 90
       18
102
RTVSPost2010Prop41ColorRGB
 90
        0
102
RTVSPost2010PropOp41
 70
     1
102
RTVSPost2010Prop42
 90
       50
102
RTVSPost2010PropOp42
 70
     1
102
RTVSPost2010Prop43
 90
        3
102
RTVSPost2010PropOp43
 70
     1
102
RTVSPost2010Prop44ColorIndex
 90
        5
102
RTVSPost2010Prop44ColorRGB
 90
      255
102
RTVSPost2010PropOp44
 70
     1
102
RTVSPost2010Prop45
280
     0
102
RTVSPost2010PropOp45
 70
     1
102
RTVSPost2010Prop46
 90
       50
102
RTVSPost2010PropOp46
 70
     1
102
RTVSPost2010Prop47
 90
       50
102
RTVSPost2010PropOp47
 70
     1
102
RTVSPost2010Prop48
 90
       50
102
RTVSPost2010PropOp48
 70
     1
102
RTVSPost2010Prop49
280
     0
102
RTVSPost2010PropOp49
 70
     1
102
RTVSPost2010Prop50
 90
       50
102
RTVSPost2010PropOp50
 70
     1
102
RTVSPost2010Prop51ColorIndex
 90
      256
102
RTVSPost2010Prop51ColorRGB
 90
-16777216
102
RTVSPost2010PropOp51
 70
     0
102
RTVSPost2010Prop52
140
1.0
102
RTVSPost2010PropOp52
 70
     0
102
RTVSPost2010Prop53
 90
        2
102
RTVSPost2010PropOp53
 70
     1
102
RTVSPost2010Prop54
  1
strokes_ogs.tif
102
RTVSPost2010PropOp54
 70
     1
102
RTVSPost2010Prop55
280
     0
102
RTVSPost2010PropOp55
 70
     1
102
RTVSPost2010Prop56
140
1.0
102
RTVSPost2010PropOp56
 70
     1
102
RTVSPost2010Prop57
140
1.0
102
RTVSPost2010PropOp57
 70
     1
  0
XRECORD
  5
51F
102
{ACAD_REACTORS
330
51E
102
}
330
51E
100
AcDbXrecord
280
     1
102
RTVSPropertyOp0
 70
     0
102
RTVSPropertyOp1
 70
     0
102
RTVSPropertyOp2
 70
     0
102
RTVSPropertyOp3
 70
     0
102
RTVSPropertyOp4
 70
     0
102
RTVSPropertyOp5
 70
     0
102
RTVSPropertyOp6
 70
     0
102
RTVSPropertyOp7
 70
     0
102
RTVSPropertyOp8
 70
     0
102
RTVSPropertyOp9
 70
     0
102
RTVSPropertyOp10
 70
     0
102
RTVSPropertyOp11
 70
     0
102
RTVSPropertyOp12
 70
     0
102
RTVSPropertyOp13
 70
     0
102
RTVSPropertyOp14
 70
     2
102
RTVSPropertyOp15
 70
     0
102
RTVSPropertyOp16
 70
     0
102
RTVSPropertyOp17
 70
     0
102
RTVSPropertyOp18
 70
     0
102
RTVSPropertyOp19
 70
     0
102
RTVSPropertyOp20
 70
     0
102
RTVSPropertyOp21
 70
     0
102
RTVSPropertyOp22
 70
     0
102
RTVSPropertyOp23
 70
     0
102
RTVSPropertyOp24
 70
     0
102
RTVSPropertyOp25
 70
     0
102
RTVSPropertyOp26
 70
     0
102
RTVSPropertyOp27
 70
     0
102
RTVSPropertyOp28
 70
     0
102
RTVSPropertyOp29
 70
     0
102
RTVSPropertyOp30
 70
     0
102
RTVSPropertyOp31
 70
     0
102
RTVSPropertyOp32
 70
     0
102
RTVSPropertyOp33
 70
     0
102
RTVSPropertyOp34
 70
     0
102
RTVSPropertyOp35
 70
     0
102
RTVSPropertyOp36
 70
     0
102
RTVSPropertyOp37
 70
     0
102
RTVSPropertyOp38
 70
     0
102
RTVSPropertyOp39
 70
     0
102
RTVSPropertyOp40
 70
     0
102
RTVSPropertyOp41
 70
     0
102
RTVSPropertyOp42
 70
     0
102
RTVSPropertyOp43
 70
     0
102
RTVSPropertyOp44
 70
     0
102
RTVSPropertyOp45
 70
     0
102
RTVSPropertyOp46
 70
     0
102
RTVSPropertyOp47
 70
     0
102
RTVSPropertyOp48
 70
     0
102
RTVSPropertyOp49
 70
     0
102
RTVSPropertyOp50
 70
     0
102
RTVSPropertyOp51
 70
     0
102
RTVSPropertyOp52
 70
     0
102
RTVSPropertyOp53
 70
     0
102
RTVSPropertyOp54
 70
     0
102
RTVSPropertyOp55
 70
     0
102
RTVSPropertyOp56
 70
     0
102
RTVSPropertyOp57
 70
     0
102
RTVSPost2010Prop28
280
     0
102
RTVSPost2010PropOp28
 70
     0
102
RTVSPost2010Prop29
280
     1
102
RTVSPost2010PropOp29
 70
     0
102
RTVSPost2010Prop30
280
     1
102
RTVSPost2010PropOp30
 70
     0
102
RTVSPost2010Prop31
280
     0
102
RTVSPost2010PropOp31
 70
     0
102
RTVSPost2010Prop32
280
     0
102
RTVSPost2010PropOp32
 70
     0
102
RTVSPost2010Prop33
280
     0
102
RTVSPost2010PropOp33
 70
     0
102
RTVSPost2010Prop34
280
     0
102
RTVSPost2010PropOp34
 70
     0
102
RTVSPost2010Prop35
280
     0
102
RTVSPost2010PropOp35
 70
     0
102
RTVSPost2010Prop36
280
     0
102
RTVSPost2010PropOp36
 70
     0
102
RTVSPost2010Prop37
 90
       50
102
RTVSPost2010PropOp37
 70
     0
102
RTVSPost2010Prop38
140
0.0
102
RTVSPost2010PropOp38
 70
     0
102
RTVSPost2010Prop39
140
1.0
102
RTVSPost2010PropOp39
 70
     0
102
RTVSPost2010Prop40
 90
        0
102
RTVSPost2010PropOp40
 70
     0
102
RTVSPost2010Prop41ColorIndex
 90
       18
102
RTVSPost2010Prop41ColorRGB
 90
        0
102
RTVSPost2010PropOp41
 70
     0
102
RTVSPost2010Prop42
 90
       50
102
RTVSPost2010PropOp42
 70
     0
102
RTVSPost2010Prop43
 90
        3
102
RTVSPost2010PropOp43
 70
     0
102
RTVSPost2010Prop44ColorIndex
 90
        5
102
RTVSPost2010Prop44ColorRGB
 90
      255
102
RTVSPost2010PropOp44
 70
     0
102
RTVSPost2010Prop45
280
     0
102
RTVSPost2010PropOp45
 70
     0
102
RTVSPost2010Prop46
 90
       50
102
RTVSPost2010PropOp46
 70
     0
102
RTVSPost2010Prop47
 90
       50
102
RTVSPost2010PropOp47
 70
     0
102
RTVSPost2010Prop48
 90
       50
102
RTVSPost2010PropOp48
 70
     0
102
RTVSPost2010Prop49
280
     0
102
RTVSPost2010PropOp49
 70
     0
102
RTVSPost2010Prop50
 90
       50
102
RTVSPost2010PropOp50
 70
     0
102
RTVSPost2010Prop51ColorIndex
 90
      256
102
RTVSPost2010Prop51ColorRGB
 90
-16777216
102
RTVSPost2010PropOp51
 70
     0
102
RTVSPost2010Prop52
140
1.0
102
RTVSPost2010PropOp52
 70
     0
102
RTVSPost2010Prop53
 90
        2
102
RTVSPost2010PropOp53
 70
     0
102
RTVSPost2010Prop54
  1
strokes_ogs.tif
102
RTVSPost2010PropOp54
 70
     0
102
RTVSPost2010Prop55
280
     0
102
RTVSPost2010PropOp55
 70
     0
102
RTVSPost2010Prop56
140
1.0
102
RTVSPost2010PropOp56
 70
     0
102
RTVSPost2010Prop57
140
1.0
102
RTVSPost2010PropOp57
 70
     0
  0
XRECORD
  5
521
102
{ACAD_REACTORS
330
520
102
}
330
520
100
AcDbXrecord
280
     1
102
RTVSPropertyOp0
 70
     1
102
RTVSPropertyOp1
 70
     1
102
RTVSPropertyOp2
 70
     1
102
RTVSPropertyOp3
 70
     1
102
RTVSPropertyOp4
 70
     1
102
RTVSPropertyOp5
 70
     1
102
RTVSPropertyOp6
 70
     1
102
RTVSPropertyOp7
 70
     1
102
RTVSPropertyOp8
 70
     1
102
RTVSPropertyOp9
 70
     1
102
RTVSPropertyOp10
 70
     1
102
RTVSPropertyOp11
 70
     1
102
RTVSPropertyOp12
 70
     1
102
RTVSPropertyOp13
 70
     1
102
RTVSPropertyOp14
 70
     1
102
RTVSPropertyOp15
 70
     1
102
RTVSPropertyOp16
 70
     1
102
RTVSPropertyOp17
 70
     1
102
RTVSPropertyOp18
 70
     1
102
RTVSPropertyOp19
 70
     1
102
RTVSPropertyOp20
 70
     1
102
RTVSPropertyOp21
 70
     1
102
RTVSPropertyOp22
 70
     1
102
RTVSPropertyOp23
 70
     1
102
RTVSPropertyOp24
 70
     1
102
RTVSPropertyOp25
 70
     1
102
RTVSPropertyOp26
 70
     1
102
RTVSPropertyOp27
 70
     1
102
RTVSPropertyOp28
 70
     1
102
RTVSPropertyOp29
 70
     1
102
RTVSPropertyOp30
 70
     1
102
RTVSPropertyOp31
 70
     1
102
RTVSPropertyOp32
 70
     1
102
RTVSPropertyOp33
 70
     1
102
RTVSPropertyOp34
 70
     1
102
RTVSPropertyOp35
 70
     1
102
RTVSPropertyOp36
 70
     1
102
RTVSPropertyOp37
 70
     1
102
RTVSPropertyOp38
 70
     1
102
RTVSPropertyOp39
 70
     1
102
RTVSPropertyOp40
 70
     1
102
RTVSPropertyOp41
 70
     1
102
RTVSPropertyOp42
 70
     1
102
RTVSPropertyOp43
 70
     1
102
RTVSPropertyOp44
 70
     1
102
RTVSPropertyOp45
 70
     1
102
RTVSPropertyOp46
 70
     1
102
RTVSPropertyOp47
 70
     1
102
RTVSPropertyOp48
 70
     1
102
RTVSPropertyOp49
 70
     1
102
RTVSPropertyOp50
 70
     1
102
RTVSPropertyOp51
 70
     0
102
RTVSPropertyOp52
 70
     0
102
RTVSPropertyOp53
 70
     1
102
RTVSPropertyOp54
 70
     1
102
RTVSPropertyOp55
 70
     1
102
RTVSPropertyOp56
 70
     1
102
RTVSPropertyOp57
 70
     1
102
RTVSPost2010Prop28
280
     0
102
RTVSPost2010PropOp28
 70
     1
102
RTVSPost2010Prop29
280
     1
102
RTVSPost2010PropOp29
 70
     1
102
RTVSPost2010Prop30
280
     1
102
RTVSPost2010PropOp30
 70
     1
102
RTVSPost2010Prop31
280
     0
102
RTVSPost2010PropOp31
 70
     1
102
RTVSPost2010Prop32
280
     0
102
RTVSPost2010PropOp32
 70
     1
102
RTVSPost2010Prop33
280
     0
102
RTVSPost2010PropOp33
 70
     1
102
RTVSPost2010Prop34
280
     0
102
RTVSPost2010PropOp34
 70
     1
102
RTVSPost2010Prop35
280
     0
102
RTVSPost2010PropOp35
 70
     1
102
RTVSPost2010Prop36
280
     0
102
RTVSPost2010PropOp36
 70
     1
102
RTVSPost2010Prop37
 90
       50
102
RTVSPost2010PropOp37
 70
     1
102
RTVSPost2010Prop38
140
0.0
102
RTVSPost2010PropOp38
 70
     1
102
RTVSPost2010Prop39
140
1.0
102
RTVSPost2010PropOp39
 70
     1
102
RTVSPost2010Prop40
 90
        0
102
RTVSPost2010PropOp40
 70
     1
102
RTVSPost2010Prop41ColorIndex
 90
       18
102
RTVSPost2010Prop41ColorRGB
 90
        0
102
RTVSPost2010PropOp41
 70
     1
102
RTVSPost2010Prop42
 90
       50
102
RTVSPost2010PropOp42
 70
     1
102
RTVSPost2010Prop43
 90
        3
102
RTVSPost2010PropOp43
 70
     1
102
RTVSPost2010Prop44ColorIndex
 90
        5
102
RTVSPost2010Prop44ColorRGB
 90
      255
102
RTVSPost2010PropOp44
 70
     1
102
RTVSPost2010Prop45
280
     0
102
RTVSPost2010PropOp45
 70
     1
102
RTVSPost2010Prop46
 90
       50
102
RTVSPost2010PropOp46
 70
     1
102
RTVSPost2010Prop47
 90
       50
102
RTVSPost2010PropOp47
 70
     1
102
RTVSPost2010Prop48
 90
       50
102
RTVSPost2010PropOp48
 70
     1
102
RTVSPost2010Prop49
280
     0
102
RTVSPost2010PropOp49
 70
     1
102
RTVSPost2010Prop50
 90
       50
102
RTVSPost2010PropOp50
 70
     1
102
RTVSPost2010Prop51ColorIndex
 90
      256
102
RTVSPost2010Prop51ColorRGB
 90
-16777216
102
RTVSPost2010PropOp51
 70
     0
102
RTVSPost2010Prop52
140
1.0
102
RTVSPost2010PropOp52
 70
     0
102
RTVSPost2010Prop53
 90
        2
102
RTVSPost2010PropOp53
 70
     1
102
RTVSPost2010Prop54
  1
strokes_ogs.tif
102
RTVSPost2010PropOp54
 70
     1
102
RTVSPost2010Prop55
280
     0
102
RTVSPost2010PropOp55
 70
     1
102
RTVSPost2010Prop56
140
1.0
102
RTVSPost2010PropOp56
 70
     1
102
RTVSPost2010Prop57
140
1.0
102
RTVSPost2010PropOp57
 70
     1
  0
XRECORD
  5
523
102
{ACAD_REACTORS
330
522
102
}
330
522
100
AcDbXrecord
280
     1
102
RTVSPropertyOp0
 70
     1
102
RTVSPropertyOp1
 70
     1
102
RTVSPropertyOp2
 70
     1
102
RTVSPropertyOp3
 70
     1
102
RTVSPropertyOp4
 70
     1
102
RTVSPropertyOp5
 70
     1
102
RTVSPropertyOp6
 70
     1
102
RTVSPropertyOp7
 70
     1
102
RTVSPropertyOp8
 70
     1
102
RTVSPropertyOp9
 70
     1
102
RTVSPropertyOp10
 70
     1
102
RTVSPropertyOp11
 70
     1
102
RTVSPropertyOp12
 70
     1
102
RTVSPropertyOp13
 70
     1
102
RTVSPropertyOp14
 70
     1
102
RTVSPropertyOp15
 70
     1
102
RTVSPropertyOp16
 70
     1
102
RTVSPropertyOp17
 70
     1
102
RTVSPropertyOp18
 70
     1
102
RTVSPropertyOp19
 70
     1
102
RTVSPropertyOp20
 70
     1
102
RTVSPropertyOp21
 70
     1
102
RTVSPropertyOp22
 70
     1
102
RTVSPropertyOp23
 70
     1
102
RTVSPropertyOp24
 70
     1
102
RTVSPropertyOp25
 70
     1
102
RTVSPropertyOp26
 70
     1
102
RTVSPropertyOp27
 70
     1
102
RTVSPropertyOp28
 70
     1
102
RTVSPropertyOp29
 70
     1
102
RTVSPropertyOp30
 70
     1
102
RTVSPropertyOp31
 70
     1
102
RTVSPropertyOp32
 70
     1
102
RTVSPropertyOp33
 70
     1
102
RTVSPropertyOp34
 70
     1
102
RTVSPropertyOp35
 70
     1
102
RTVSPropertyOp36
 70
     1
102
RTVSPropertyOp37
 70
     1
102
RTVSPropertyOp38
 70
     1
102
RTVSPropertyOp39
 70
     1
102
RTVSPropertyOp40
 70
     1
102
RTVSPropertyOp41
 70
     1
102
RTVSPropertyOp42
 70
     1
102
RTVSPropertyOp43
 70
     1
102
RTVSPropertyOp44
 70
     1
102
RTVSPropertyOp45
 70
     1
102
RTVSPropertyOp46
 70
     1
102
RTVSPropertyOp47
 70
     1
102
RTVSPropertyOp48
 70
     1
102
RTVSPropertyOp49
 70
     1
102
RTVSPropertyOp50
 70
     1
102
RTVSPropertyOp51
 70
     0
102
RTVSPropertyOp52
 70
     0
102
RTVSPropertyOp53
 70
     1
102
RTVSPropertyOp54
 70
     1
102
RTVSPropertyOp55
 70
     1
102
RTVSPropertyOp56
 70
     1
102
RTVSPropertyOp57
 70
     1
102
RTVSPost2010Prop28
280
     0
102
RTVSPost2010PropOp28
 70
     1
102
RTVSPost2010Prop29
280
     1
102
RTVSPost2010PropOp29
 70
     1
102
RTVSPost2010Prop30
280
     1
102
RTVSPost2010PropOp30
 70
     1
102
RTVSPost2010Prop31
280
     0
102
RTVSPost2010PropOp31
 70
     1
102
RTVSPost2010Prop32
280
     0
102
RTVSPost2010PropOp32
 70
     1
102
RTVSPost2010Prop33
280
     0
102
RTVSPost2010PropOp33
 70
     1
102
RTVSPost2010Prop34
280
     0
102
RTVSPost2010PropOp34
 70
     1
102
RTVSPost2010Prop35
280
     0
102
RTVSPost2010PropOp35
 70
     1
102
RTVSPost2010Prop36
280
     0
102
RTVSPost2010PropOp36
 70
     1
102
RTVSPost2010Prop37
 90
       50
102
RTVSPost2010PropOp37
 70
     1
102
RTVSPost2010Prop38
140
0.0
102
RTVSPost2010PropOp38
 70
     1
102
RTVSPost2010Prop39
140
1.0
102
RTVSPost2010PropOp39
 70
     1
102
RTVSPost2010Prop40
 90
        0
102
RTVSPost2010PropOp40
 70
     1
102
RTVSPost2010Prop41ColorIndex
 90
       18
102
RTVSPost2010Prop41ColorRGB
 90
        0
102
RTVSPost2010PropOp41
 70
     1
102
RTVSPost2010Prop42
 90
       50
102
RTVSPost2010PropOp42
 70
     1
102
RTVSPost2010Prop43
 90
        3
102
RTVSPost2010PropOp43
 70
     1
102
RTVSPost2010Prop44ColorIndex
 90
        5
102
RTVSPost2010Prop44ColorRGB
 90
      255
102
RTVSPost2010PropOp44
 70
     1
102
RTVSPost2010Prop45
280
     0
102
RTVSPost2010PropOp45
 70
     1
102
RTVSPost2010Prop46
 90
       50
102
RTVSPost2010PropOp46
 70
     1
102
RTVSPost2010Prop47
 90
       50
102
RTVSPost2010PropOp47
 70
     1
102
RTVSPost2010Prop48
 90
       50
102
RTVSPost2010PropOp48
 70
     1
102
RTVSPost2010Prop49
280
     0
102
RTVSPost2010PropOp49
 70
     1
102
RTVSPost2010Prop50
 90
       50
102
RTVSPost2010PropOp50
 70
     1
102
RTVSPost2010Prop51ColorIndex
 90
      256
102
RTVSPost2010Prop51ColorRGB
 90
-16777216
102
RTVSPost2010PropOp51
 70
     0
102
RTVSPost2010Prop52
140
1.0
102
RTVSPost2010PropOp52
 70
     0
102
RTVSPost2010Prop53
 90
        2
102
RTVSPost2010PropOp53
 70
     1
102
RTVSPost2010Prop54
  1
strokes_ogs.tif
102
RTVSPost2010PropOp54
 70
     1
102
RTVSPost2010Prop55
280
     0
102
RTVSPost2010PropOp55
 70
     1
102
RTVSPost2010Prop56
140
1.0
102
RTVSPost2010PropOp56
 70
     1
102
RTVSPost2010Prop57
140
1.0
102
RTVSPost2010PropOp57
 70
     1
  0
XRECORD
  5
525
102
{ACAD_REACTORS
330
524
102
}
330
524
100
AcDbXrecord
280
     1
102
RTVSPropertyOp0
 70
     1
102
RTVSPropertyOp1
 70
     1
102
RTVSPropertyOp2
 70
     1
102
RTVSPropertyOp3
 70
     1
102
RTVSPropertyOp4
 70
     1
102
RTVSPropertyOp5
 70
     1
102
RTVSPropertyOp6
 70
     1
102
RTVSPropertyOp7
 70
     1
102
RTVSPropertyOp8
 70
     1
102
RTVSPropertyOp9
 70
     1
102
RTVSPropertyOp10
 70
     1
102
RTVSPropertyOp11
 70
     1
102
RTVSPropertyOp12
 70
     1
102
RTVSPropertyOp13
 70
     1
102
RTVSPropertyOp14
 70
     1
102
RTVSPropertyOp15
 70
     1
102
RTVSPropertyOp16
 70
     1
102
RTVSPropertyOp17
 70
     1
102
RTVSPropertyOp18
 70
     1
102
RTVSPropertyOp19
 70
     1
102
RTVSPropertyOp20
 70
     1
102
RTVSPropertyOp21
 70
     1
102
RTVSPropertyOp22
 70
     1
102
RTVSPropertyOp23
 70
     1
102
RTVSPropertyOp24
 70
     1
102
RTVSPropertyOp25
 70
     1
102
RTVSPropertyOp26
 70
     1
102
RTVSPropertyOp27
 70
     1
102
RTVSPropertyOp28
 70
     1
102
RTVSPropertyOp29
 70
     1
102
RTVSPropertyOp30
 70
     1
102
RTVSPropertyOp31
 70
     1
102
RTVSPropertyOp32
 70
     1
102
RTVSPropertyOp33
 70
     1
102
RTVSPropertyOp34
 70
     1
102
RTVSPropertyOp35
 70
     1
102
RTVSPropertyOp36
 70
     1
102
RTVSPropertyOp37
 70
     1
102
RTVSPropertyOp38
 70
     1
102
RTVSPropertyOp39
 70
     1
102
RTVSPropertyOp40
 70
     1
102
RTVSPropertyOp41
 70
     1
102
RTVSPropertyOp42
 70
     1
102
RTVSPropertyOp43
 70
     1
102
RTVSPropertyOp44
 70
     1
102
RTVSPropertyOp45
 70
     1
102
RTVSPropertyOp46
 70
     1
102
RTVSPropertyOp47
 70
     1
102
RTVSPropertyOp48
 70
     1
102
RTVSPropertyOp49
 70
     1
102
RTVSPropertyOp50
 70
     1
102
RTVSPropertyOp51
 70
     0
102
RTVSPropertyOp52
 70
     0
102
RTVSPropertyOp53
 70
     1
102
RTVSPropertyOp54
 70
     1
102
RTVSPropertyOp55
 70
     1
102
RTVSPropertyOp56
 70
     1
102
RTVSPropertyOp57
 70
     1
102
RTVSPost2010Prop28
280
     0
102
RTVSPost2010PropOp28
 70
     1
102
RTVSPost2010Prop29
280
     1
102
RTVSPost2010PropOp29
 70
     1
102
RTVSPost2010Prop30
280
     1
102
RTVSPost2010PropOp30
 70
     1
102
RTVSPost2010Prop31
280
     0
102
RTVSPost2010PropOp31
 70
     1
102
RTVSPost2010Prop32
280
     0
102
RTVSPost2010PropOp32
 70
     1
102
RTVSPost2010Prop33
280
     0
102
RTVSPost2010PropOp33
 70
     1
102
RTVSPost2010Prop34
280
     0
102
RTVSPost2010PropOp34
 70
     1
102
RTVSPost2010Prop35
280
     0
102
RTVSPost2010PropOp35
 70
     1
102
RTVSPost2010Prop36
280
     0
102
RTVSPost2010PropOp36
 70
     1
102
RTVSPost2010Prop37
 90
       50
102
RTVSPost2010PropOp37
 70
     1
102
RTVSPost2010Prop38
140
0.0
102
RTVSPost2010PropOp38
 70
     1
102
RTVSPost2010Prop39
140
1.0
102
RTVSPost2010PropOp39
 70
     1
102
RTVSPost2010Prop40
 90
        0
102
RTVSPost2010PropOp40
 70
     1
102
RTVSPost2010Prop41ColorIndex
 90
       18
102
RTVSPost2010Prop41ColorRGB
 90
        0
102
RTVSPost2010PropOp41
 70
     1
102
RTVSPost2010Prop42
 90
       50
102
RTVSPost2010PropOp42
 70
     1
102
RTVSPost2010Prop43
 90
        3
102
RTVSPost2010PropOp43
 70
     1
102
RTVSPost2010Prop44ColorIndex
 90
        5
102
RTVSPost2010Prop44ColorRGB
 90
      255
102
RTVSPost2010PropOp44
 70
     1
102
RTVSPost2010Prop45
280
     0
102
RTVSPost2010PropOp45
 70
     1
102
RTVSPost2010Prop46
 90
       50
102
RTVSPost2010PropOp46
 70
     1
102
RTVSPost2010Prop47
 90
       50
102
RTVSPost2010PropOp47
 70
     1
102
RTVSPost2010Prop48
 90
       50
102
RTVSPost2010PropOp48
 70
     1
102
RTVSPost2010Prop49
280
     0
102
RTVSPost2010PropOp49
 70
     1
102
RTVSPost2010Prop50
 90
       50
102
RTVSPost2010PropOp50
 70
     1
102
RTVSPost2010Prop51ColorIndex
 90
      256
102
RTVSPost2010Prop51ColorRGB
 90
-16777216
102
RTVSPost2010PropOp51
 70
     0
102
RTVSPost2010Prop52
140
1.0
102
RTVSPost2010PropOp52
 70
     0
102
RTVSPost2010Prop53
 90
        2
102
RTVSPost2010PropOp53
 70
     1
102
RTVSPost2010Prop54
  1
strokes_ogs.tif
102
RTVSPost2010PropOp54
 70
     1
102
RTVSPost2010Prop55
280
     0
102
RTVSPost2010PropOp55
 70
     1
102
RTVSPost2010Prop56
140
1.0
102
RTVSPost2010PropOp56
 70
     1
102
RTVSPost2010Prop57
140
1.0
102
RTVSPost2010PropOp57
 70
     1
  0
XRECORD
  5
527
102
{ACAD_REACTORS
330
526
102
}
330
526
100
AcDbXrecord
280
     1
102
RTVSPropertyOp0
 70
     1
102
RTVSPropertyOp1
 70
     1
102
RTVSPropertyOp2
 70
     1
102
RTVSPropertyOp3
 70
     1
102
RTVSPropertyOp4
 70
     1
102
RTVSPropertyOp5
 70
     1
102
RTVSPropertyOp6
 70
     1
102
RTVSPropertyOp7
 70
     1
102
RTVSPropertyOp8
 70
     1
102
RTVSPropertyOp9
 70
     1
102
RTVSPropertyOp10
 70
     1
102
RTVSPropertyOp11
 70
     1
102
RTVSPropertyOp12
 70
     1
102
RTVSPropertyOp13
 70
     1
102
RTVSPropertyOp14
 70
     1
102
RTVSPropertyOp15
 70
     1
102
RTVSPropertyOp16
 70
     1
102
RTVSPropertyOp17
 70
     1
102
RTVSPropertyOp18
 70
     1
102
RTVSPropertyOp19
 70
     1
102
RTVSPropertyOp20
 70
     1
102
RTVSPropertyOp21
 70
     1
102
RTVSPropertyOp22
 70
     1
102
RTVSPropertyOp23
 70
     1
102
RTVSPropertyOp24
 70
     1
102
RTVSPropertyOp25
 70
     1
102
RTVSPropertyOp26
 70
     1
102
RTVSPropertyOp27
 70
     1
102
RTVSPropertyOp28
 70
     1
102
RTVSPropertyOp29
 70
     1
102
RTVSPropertyOp30
 70
     1
102
RTVSPropertyOp31
 70
     1
102
RTVSPropertyOp32
 70
     1
102
RTVSPropertyOp33
 70
     1
102
RTVSPropertyOp34
 70
     1
102
RTVSPropertyOp35
 70
     1
102
RTVSPropertyOp36
 70
     1
102
RTVSPropertyOp37
 70
     1
102
RTVSPropertyOp38
 70
     1
102
RTVSPropertyOp39
 70
     1
102
RTVSPropertyOp40
 70
     1
102
RTVSPropertyOp41
 70
     1
102
RTVSPropertyOp42
 70
     1
102
RTVSPropertyOp43
 70
     1
102
RTVSPropertyOp44
 70
     1
102
RTVSPropertyOp45
 70
     1
102
RTVSPropertyOp46
 70
     1
102
RTVSPropertyOp47
 70
     1
102
RTVSPropertyOp48
 70
     1
102
RTVSPropertyOp49
 70
     1
102
RTVSPropertyOp50
 70
     1
102
RTVSPropertyOp51
 70
     0
102
RTVSPropertyOp52
 70
     0
102
RTVSPropertyOp53
 70
     1
102
RTVSPropertyOp54
 70
     1
102
RTVSPropertyOp55
 70
     1
102
RTVSPropertyOp56
 70
     1
102
RTVSPropertyOp57
 70
     1
102
RTVSPost2010Prop28
280
     0
102
RTVSPost2010PropOp28
 70
     1
102
RTVSPost2010Prop29
280
     1
102
RTVSPost2010PropOp29
 70
     1
102
RTVSPost2010Prop30
280
     1
102
RTVSPost2010PropOp30
 70
     1
102
RTVSPost2010Prop31
280
     0
102
RTVSPost2010PropOp31
 70
     1
102
RTVSPost2010Prop32
280
     0
102
RTVSPost2010PropOp32
 70
     1
102
RTVSPost2010Prop33
280
     0
102
RTVSPost2010PropOp33
 70
     1
102
RTVSPost2010Prop34
280
     0
102
RTVSPost2010PropOp34
 70
     1
102
RTVSPost2010Prop35
280
     0
102
RTVSPost2010PropOp35
 70
     1
102
RTVSPost2010Prop36
280
     0
102
RTVSPost2010PropOp36
 70
     1
102
RTVSPost2010Prop37
 90
       50
102
RTVSPost2010PropOp37
 70
     1
102
RTVSPost2010Prop38
140
0.0
102
RTVSPost2010PropOp38
 70
     1
102
RTVSPost2010Prop39
140
1.0
102
RTVSPost2010PropOp39
 70
     1
102
RTVSPost2010Prop40
 90
        0
102
RTVSPost2010PropOp40
 70
     1
102
RTVSPost2010Prop41ColorIndex
 90
       18
102
RTVSPost2010Prop41ColorRGB
 90
        0
102
RTVSPost2010PropOp41
 70
     1
102
RTVSPost2010Prop42
 90
       50
102
RTVSPost2010PropOp42
 70
     1
102
RTVSPost2010Prop43
 90
        3
102
RTVSPost2010PropOp43
 70
     1
102
RTVSPost2010Prop44ColorIndex
 90
        5
102
RTVSPost2010Prop44ColorRGB
 90
      255
102
RTVSPost2010PropOp44
 70
     1
102
RTVSPost2010Prop45
280
     0
102
RTVSPost2010PropOp45
 70
     1
102
RTVSPost2010Prop46
 90
       50
102
RTVSPost2010PropOp46
 70
     1
102
RTVSPost2010Prop47
 90
       50
102
RTVSPost2010PropOp47
 70
     1
102
RTVSPost2010Prop48
 90
       50
102
RTVSPost2010PropOp48
 70
     1
102
RTVSPost2010Prop49
280
     0
102
RTVSPost2010PropOp49
 70
     1
102
RTVSPost2010Prop50
 90
       50
102
RTVSPost2010PropOp50
 70
     1
102
RTVSPost2010Prop51ColorIndex
 90
      256
102
RTVSPost2010Prop51ColorRGB
 90
-16777216
102
RTVSPost2010PropOp51
 70
     0
102
RTVSPost2010Prop52
140
1.0
102
RTVSPost2010PropOp52
 70
     0
102
RTVSPost2010Prop53
 90
        2
102
RTVSPost2010PropOp53
 70
     1
102
RTVSPost2010Prop54
  1
strokes_ogs.tif
102
RTVSPost2010PropOp54
 70
     1
102
RTVSPost2010Prop55
280
     0
102
RTVSPost2010PropOp55
 70
     1
102
RTVSPost2010Prop56
140
1.0
102
RTVSPost2010PropOp56
 70
     1
102
RTVSPost2010Prop57
140
1.0
102
RTVSPost2010PropOp57
 70
     1
  0
XRECORD
  5
529
102
{ACAD_REACTORS
330
528
102
}
330
528
100
AcDbXrecord
280
     1
102
RTVSPropertyOp0
 70
     1
102
RTVSPropertyOp1
 70
     1
102
RTVSPropertyOp2
 70
     1
102
RTVSPropertyOp3
 70
     1
102
RTVSPropertyOp4
 70
     1
102
RTVSPropertyOp5
 70
     1
102
RTVSPropertyOp6
 70
     1
102
RTVSPropertyOp7
 70
     1
102
RTVSPropertyOp8
 70
     1
102
RTVSPropertyOp9
 70
     1
102
RTVSPropertyOp10
 70
     1
102
RTVSPropertyOp11
 70
     1
102
RTVSPropertyOp12
 70
     1
102
RTVSPropertyOp13
 70
     1
102
RTVSPropertyOp14
 70
     1
102
RTVSPropertyOp15
 70
     1
102
RTVSPropertyOp16
 70
     1
102
RTVSPropertyOp17
 70
     1
102
RTVSPropertyOp18
 70
     1
102
RTVSPropertyOp19
 70
     1
102
RTVSPropertyOp20
 70
     1
102
RTVSPropertyOp21
 70
     1
102
RTVSPropertyOp22
 70
     1
102
RTVSPropertyOp23
 70
     1
102
RTVSPropertyOp24
 70
     1
102
RTVSPropertyOp25
 70
     1
102
RTVSPropertyOp26
 70
     1
102
RTVSPropertyOp27
 70
     1
102
RTVSPropertyOp28
 70
     1
102
RTVSPropertyOp29
 70
     1
102
RTVSPropertyOp30
 70
     1
102
RTVSPropertyOp31
 70
     1
102
RTVSPropertyOp32
 70
     1
102
RTVSPropertyOp33
 70
     1
102
RTVSPropertyOp34
 70
     1
102
RTVSPropertyOp35
 70
     1
102
RTVSPropertyOp36
 70
     1
102
RTVSPropertyOp37
 70
     1
102
RTVSPropertyOp38
 70
     1
102
RTVSPropertyOp39
 70
     1
102
RTVSPropertyOp40
 70
     1
102
RTVSPropertyOp41
 70
     1
102
RTVSPropertyOp42
 70
     1
102
RTVSPropertyOp43
 70
     1
102
RTVSPropertyOp44
 70
     1
102
RTVSPropertyOp45
 70
     1
102
RTVSPropertyOp46
 70
     1
102
RTVSPropertyOp47
 70
     1
102
RTVSPropertyOp48
 70
     1
102
RTVSPropertyOp49
 70
     1
102
RTVSPropertyOp50
 70
     1
102
RTVSPropertyOp51
 70
     0
102
RTVSPropertyOp52
 70
     0
102
RTVSPropertyOp53
 70
     1
102
RTVSPropertyOp54
 70
     1
102
RTVSPropertyOp55
 70
     1
102
RTVSPropertyOp56
 70
     1
102
RTVSPropertyOp57
 70
     1
102
RTVSPost2010Prop28
280
     0
102
RTVSPost2010PropOp28
 70
     1
102
RTVSPost2010Prop29
280
     1
102
RTVSPost2010PropOp29
 70
     1
102
RTVSPost2010Prop30
280
     1
102
RTVSPost2010PropOp30
 70
     1
102
RTVSPost2010Prop31
280
     0
102
RTVSPost2010PropOp31
 70
     1
102
RTVSPost2010Prop32
280
     0
102
RTVSPost2010PropOp32
 70
     1
102
RTVSPost2010Prop33
280
     0
102
RTVSPost2010PropOp33
 70
     1
102
RTVSPost2010Prop34
280
     0
102
RTVSPost2010PropOp34
 70
     1
102
RTVSPost2010Prop35
280
     0
102
RTVSPost2010PropOp35
 70
     1
102
RTVSPost2010Prop36
280
     0
102
RTVSPost2010PropOp36
 70
     1
102
RTVSPost2010Prop37
 90
       50
102
RTVSPost2010PropOp37
 70
     1
102
RTVSPost2010Prop38
140
0.0
102
RTVSPost2010PropOp38
 70
     1
102
RTVSPost2010Prop39
140
1.0
102
RTVSPost2010PropOp39
 70
     1
102
RTVSPost2010Prop40
 90
        0
102
RTVSPost2010PropOp40
 70
     1
102
RTVSPost2010Prop41ColorIndex
 90
       18
102
RTVSPost2010Prop41ColorRGB
 90
        0
102
RTVSPost2010PropOp41
 70
     1
102
RTVSPost2010Prop42
 90
       50
102
RTVSPost2010PropOp42
 70
     1
102
RTVSPost2010Prop43
 90
        3
102
RTVSPost2010PropOp43
 70
     1
102
RTVSPost2010Prop44ColorIndex
 90
        5
102
RTVSPost2010Prop44ColorRGB
 90
      255
102
RTVSPost2010PropOp44
 70
     1
102
RTVSPost2010Prop45
280
     0
102
RTVSPost2010PropOp45
 70
     1
102
RTVSPost2010Prop46
 90
       50
102
RTVSPost2010PropOp46
 70
     1
102
RTVSPost2010Prop47
 90
       50
102
RTVSPost2010PropOp47
 70
     1
102
RTVSPost2010Prop48
 90
       50
102
RTVSPost2010PropOp48
 70
     1
102
RTVSPost2010Prop49
280
     0
102
RTVSPost2010PropOp49
 70
     1
102
RTVSPost2010Prop50
 90
       50
102
RTVSPost2010PropOp50
 70
     1
102
RTVSPost2010Prop51ColorIndex
 90
      256
102
RTVSPost2010Prop51ColorRGB
 90
-16777216
102
RTVSPost2010PropOp51
 70
     0
102
RTVSPost2010Prop52
140
1.0
102
RTVSPost2010PropOp52
 70
     0
102
RTVSPost2010Prop53
 90
        2
102
RTVSPost2010PropOp53
 70
     1
102
RTVSPost2010Prop54
  1
strokes_ogs.tif
102
RTVSPost2010PropOp54
 70
     1
102
RTVSPost2010Prop55
280
     0
102
RTVSPost2010PropOp55
 70
     1
102
RTVSPost2010Prop56
140
1.0
102
RTVSPost2010PropOp56
 70
     1
102
RTVSPost2010Prop57
140
1.0
102
RTVSPost2010PropOp57
 70
     1
  0
XRECORD
  5
52B
102
{ACAD_REACTORS
330
52A
102
}
330
52A
100
AcDbXrecord
280
     1
102
RTVSPropertyOp0
 70
     1
102
RTVSPropertyOp1
 70
     1
102
RTVSPropertyOp2
 70
     1
102
RTVSPropertyOp3
 70
     1
102
RTVSPropertyOp4
 70
     1
102
RTVSPropertyOp5
 70
     1
102
RTVSPropertyOp6
 70
     1
102
RTVSPropertyOp7
 70
     1
102
RTVSPropertyOp8
 70
     1
102
RTVSPropertyOp9
 70
     1
102
RTVSPropertyOp10
 70
     1
102
RTVSPropertyOp11
 70
     1
102
RTVSPropertyOp12
 70
     1
102
RTVSPropertyOp13
 70
     1
102
RTVSPropertyOp14
 70
     1
102
RTVSPropertyOp15
 70
     1
102
RTVSPropertyOp16
 70
     1
102
RTVSPropertyOp17
 70
     1
102
RTVSPropertyOp18
 70
     1
102
RTVSPropertyOp19
 70
     1
102
RTVSPropertyOp20
 70
     1
102
RTVSPropertyOp21
 70
     1
102
RTVSPropertyOp22
 70
     1
102
RTVSPropertyOp23
 70
     1
102
RTVSPropertyOp24
 70
     1
102
RTVSPropertyOp25
 70
     1
102
RTVSPropertyOp26
 70
     1
102
RTVSPropertyOp27
 70
     1
102
RTVSPropertyOp28
 70
     1
102
RTVSPropertyOp29
 70
     1
102
RTVSPropertyOp30
 70
     1
102
RTVSPropertyOp31
 70
     1
102
RTVSPropertyOp32
 70
     1
102
RTVSPropertyOp33
 70
     1
102
RTVSPropertyOp34
 70
     1
102
RTVSPropertyOp35
 70
     1
102
RTVSPropertyOp36
 70
     1
102
RTVSPropertyOp37
 70
     1
102
RTVSPropertyOp38
 70
     1
102
RTVSPropertyOp39
 70
     1
102
RTVSPropertyOp40
 70
     1
102
RTVSPropertyOp41
 70
     1
102
RTVSPropertyOp42
 70
     1
102
RTVSPropertyOp43
 70
     1
102
RTVSPropertyOp44
 70
     1
102
RTVSPropertyOp45
 70
     1
102
RTVSPropertyOp46
 70
     1
102
RTVSPropertyOp47
 70
     1
102
RTVSPropertyOp48
 70
     1
102
RTVSPropertyOp49
 70
     1
102
RTVSPropertyOp50
 70
     1
102
RTVSPropertyOp51
 70
     0
102
RTVSPropertyOp52
 70
     0
102
RTVSPropertyOp53
 70
     1
102
RTVSPropertyOp54
 70
     1
102
RTVSPropertyOp55
 70
     1
102
RTVSPropertyOp56
 70
     1
102
RTVSPropertyOp57
 70
     1
102
RTVSPost2010Prop28
280
     0
102
RTVSPost2010PropOp28
 70
     1
102
RTVSPost2010Prop29
280
     1
102
RTVSPost2010PropOp29
 70
     1
102
RTVSPost2010Prop30
280
     1
102
RTVSPost2010PropOp30
 70
     1
102
RTVSPost2010Prop31
280
     0
102
RTVSPost2010PropOp31
 70
     1
102
RTVSPost2010Prop32
280
     0
102
RTVSPost2010PropOp32
 70
     1
102
RTVSPost2010Prop33
280
     0
102
RTVSPost2010PropOp33
 70
     1
102
RTVSPost2010Prop34
280
     0
102
RTVSPost2010PropOp34
 70
     1
102
RTVSPost2010Prop35
280
     0
102
RTVSPost2010PropOp35
 70
     1
102
RTVSPost2010Prop36
280
     0
102
RTVSPost2010PropOp36
 70
     1
102
RTVSPost2010Prop37
 90
       50
102
RTVSPost2010PropOp37
 70
     1
102
RTVSPost2010Prop38
140
0.0
102
RTVSPost2010PropOp38
 70
     1
102
RTVSPost2010Prop39
140
1.0
102
RTVSPost2010PropOp39
 70
     1
102
RTVSPost2010Prop40
 90
        0
102
RTVSPost2010PropOp40
 70
     1
102
RTVSPost2010Prop41ColorIndex
 90
       18
102
RTVSPost2010Prop41ColorRGB
 90
        0
102
RTVSPost2010PropOp41
 70
     1
102
RTVSPost2010Prop42
 90
       50
102
RTVSPost2010PropOp42
 70
     1
102
RTVSPost2010Prop43
 90
        3
102
RTVSPost2010PropOp43
 70
     1
102
RTVSPost2010Prop44ColorIndex
 90
        5
102
RTVSPost2010Prop44ColorRGB
 90
      255
102
RTVSPost2010PropOp44
 70
     1
102
RTVSPost2010Prop45
280
     0
102
RTVSPost2010PropOp45
 70
     1
102
RTVSPost2010Prop46
 90
       50
102
RTVSPost2010PropOp46
 70
     1
102
RTVSPost2010Prop47
 90
       50
102
RTVSPost2010PropOp47
 70
     1
102
RTVSPost2010Prop48
 90
       50
102
RTVSPost2010PropOp48
 70
     1
102
RTVSPost2010Prop49
280
     0
102
RTVSPost2010PropOp49
 70
     1
102
RTVSPost2010Prop50
 90
       50
102
RTVSPost2010PropOp50
 70
     1
102
RTVSPost2010Prop51ColorIndex
 90
      256
102
RTVSPost2010Prop51ColorRGB
 90
-16777216
102
RTVSPost2010PropOp51
 70
     0
102
RTVSPost2010Prop52
140
1.0
102
RTVSPost2010PropOp52
 70
     0
102
RTVSPost2010Prop53
 90
        2
102
RTVSPost2010PropOp53
 70
     1
102
RTVSPost2010Prop54
  1
strokes_ogs.tif
102
RTVSPost2010PropOp54
 70
     1
102
RTVSPost2010Prop55
280
     0
102
RTVSPost2010PropOp55
 70
     1
102
RTVSPost2010Prop56
140
1.0
102
RTVSPost2010PropOp56
 70
     1
102
RTVSPost2010Prop57
140
1.0
102
RTVSPost2010PropOp57
 70
     1
  0
XRECORD
  5
52D
102
{ACAD_REACTORS
330
52C
102
}
330
52C
100
AcDbXrecord
280
     1
102
RTVSPropertyOp0
 70
     0
102
RTVSPropertyOp1
 70
     0
102
RTVSPropertyOp2
 70
     0
102
RTVSPropertyOp3
 70
     0
102
RTVSPropertyOp4
 70
     0
102
RTVSPropertyOp5
 70
     0
102
RTVSPropertyOp6
 70
     0
102
RTVSPropertyOp7
 70
     0
102
RTVSPropertyOp8
 70
     0
102
RTVSPropertyOp9
 70
     0
102
RTVSPropertyOp10
 70
     0
102
RTVSPropertyOp11
 70
     0
102
RTVSPropertyOp12
 70
     0
102
RTVSPropertyOp13
 70
     0
102
RTVSPropertyOp14
 70
     2
102
RTVSPropertyOp15
 70
     0
102
RTVSPropertyOp16
 70
     0
102
RTVSPropertyOp17
 70
     0
102
RTVSPropertyOp18
 70
     0
102
RTVSPropertyOp19
 70
     0
102
RTVSPropertyOp20
 70
     0
102
RTVSPropertyOp21
 70
     0
102
RTVSPropertyOp22
 70
     0
102
RTVSPropertyOp23
 70
     0
102
RTVSPropertyOp24
 70
     0
102
RTVSPropertyOp25
 70
     0
102
RTVSPropertyOp26
 70
     0
102
RTVSPropertyOp27
 70
     0
102
RTVSPropertyOp28
 70
     0
102
RTVSPropertyOp29
 70
     0
102
RTVSPropertyOp30
 70
     0
102
RTVSPropertyOp31
 70
     0
102
RTVSPropertyOp32
 70
     0
102
RTVSPropertyOp33
 70
     0
102
RTVSPropertyOp34
 70
     0
102
RTVSPropertyOp35
 70
     0
102
RTVSPropertyOp36
 70
     0
102
RTVSPropertyOp37
 70
     0
102
RTVSPropertyOp38
 70
     0
102
RTVSPropertyOp39
 70
     0
102
RTVSPropertyOp40
 70
     0
102
RTVSPropertyOp41
 70
     0
102
RTVSPropertyOp42
 70
     0
102
RTVSPropertyOp43
 70
     0
102
RTVSPropertyOp44
 70
     0
102
RTVSPropertyOp45
 70
     0
102
RTVSPropertyOp46
 70
     0
102
RTVSPropertyOp47
 70
     0
102
RTVSPropertyOp48
 70
     0
102
RTVSPropertyOp49
 70
     0
102
RTVSPropertyOp50
 70
     0
102
RTVSPropertyOp51
 70
     0
102
RTVSPropertyOp52
 70
     0
102
RTVSPropertyOp53
 70
     0
102
RTVSPropertyOp54
 70
     0
102
RTVSPropertyOp55
 70
     0
102
RTVSPropertyOp56
 70
     0
102
RTVSPropertyOp57
 70
     0
102
RTVSPost2010Prop28
280
     0
102
RTVSPost2010PropOp28
 70
     0
102
RTVSPost2010Prop29
280
     1
102
RTVSPost2010PropOp29
 70
     0
102
RTVSPost2010Prop30
280
     1
102
RTVSPost2010PropOp30
 70
     0
102
RTVSPost2010Prop31
280
     0
102
RTVSPost2010PropOp31
 70
     0
102
RTVSPost2010Prop32
280
     0
102
RTVSPost2010PropOp32
 70
     0
102
RTVSPost2010Prop33
280
     0
102
RTVSPost2010PropOp33
 70
     0
102
RTVSPost2010Prop34
280
     0
102
RTVSPost2010PropOp34
 70
     0
102
RTVSPost2010Prop35
280
     0
102
RTVSPost2010PropOp35
 70
     0
102
RTVSPost2010Prop36
280
     0
102
RTVSPost2010PropOp36
 70
     0
102
RTVSPost2010Prop37
 90
       50
102
RTVSPost2010PropOp37
 70
     0
102
RTVSPost2010Prop38
140
0.0
102
RTVSPost2010PropOp38
 70
     0
102
RTVSPost2010Prop39
140
1.0
102
RTVSPost2010PropOp39
 70
     0
102
RTVSPost2010Prop40
 90
        0
102
RTVSPost2010PropOp40
 70
     0
102
RTVSPost2010Prop41ColorIndex
 90
       18
102
RTVSPost2010Prop41ColorRGB
 90
        0
102
RTVSPost2010PropOp41
 70
     0
102
RTVSPost2010Prop42
 90
       50
102
RTVSPost2010PropOp42
 70
     0
102
RTVSPost2010Prop43
 90
        3
102
RTVSPost2010PropOp43
 70
     0
102
RTVSPost2010Prop44ColorIndex
 90
        5
102
RTVSPost2010Prop44ColorRGB
 90
      255
102
RTVSPost2010PropOp44
 70
     0
102
RTVSPost2010Prop45
280
     0
102
RTVSPost2010PropOp45
 70
     0
102
RTVSPost2010Prop46
 90
       50
102
RTVSPost2010PropOp46
 70
     0
102
RTVSPost2010Prop47
 90
       50
102
RTVSPost2010PropOp47
 70
     0
102
RTVSPost2010Prop48
 90
       50
102
RTVSPost2010PropOp48
 70
     0
102
RTVSPost2010Prop49
280
     0
102
RTVSPost2010PropOp49
 70
     0
102
RTVSPost2010Prop50
 90
       50
102
RTVSPost2010PropOp50
 70
     0
102
RTVSPost2010Prop51ColorIndex
 90
      256
102
RTVSPost2010Prop51ColorRGB
 90
-16777216
102
RTVSPost2010PropOp51
 70
     0
102
RTVSPost2010Prop52
140
1.0
102
RTVSPost2010PropOp52
 70
     0
102
RTVSPost2010Prop53
 90
        2
102
RTVSPost2010PropOp53
 70
     0
102
RTVSPost2010Prop54
  1
strokes_ogs.tif
102
RTVSPost2010PropOp54
 70
     0
102
RTVSPost2010Prop55
280
     0
102
RTVSPost2010PropOp55
 70
     0
102
RTVSPost2010Prop56
140
1.0
102
RTVSPost2010PropOp56
 70
     0
102
RTVSPost2010Prop57
140
1.0
102
RTVSPost2010PropOp57
 70
     0
  0
XRECORD
  5
52F
102
{ACAD_REACTORS
330
52E
102
}
330
52E
100
AcDbXrecord
280
     1
102
RTVSPropertyOp0
 70
     1
102
RTVSPropertyOp1
 70
     1
102
RTVSPropertyOp2
 70
     1
102
RTVSPropertyOp3
 70
     1
102
RTVSPropertyOp4
 70
     1
102
RTVSPropertyOp5
 70
     1
102
RTVSPropertyOp6
 70
     1
102
RTVSPropertyOp7
 70
     1
102
RTVSPropertyOp8
 70
     1
102
RTVSPropertyOp9
 70
     1
102
RTVSPropertyOp10
 70
     1
102
RTVSPropertyOp11
 70
     1
102
RTVSPropertyOp12
 70
     1
102
RTVSPropertyOp13
 70
     1
102
RTVSPropertyOp14
 70
     1
102
RTVSPropertyOp15
 70
     1
102
RTVSPropertyOp16
 70
     1
102
RTVSPropertyOp17
 70
     1
102
RTVSPropertyOp18
 70
     1
102
RTVSPropertyOp19
 70
     1
102
RTVSPropertyOp20
 70
     1
102
RTVSPropertyOp21
 70
     1
102
RTVSPropertyOp22
 70
     1
102
RTVSPropertyOp23
 70
     1
102
RTVSPropertyOp24
 70
     1
102
RTVSPropertyOp25
 70
     1
102
RTVSPropertyOp26
 70
     1
102
RTVSPropertyOp27
 70
     1
102
RTVSPropertyOp28
 70
     1
102
RTVSPropertyOp29
 70
     1
102
RTVSPropertyOp30
 70
     1
102
RTVSPropertyOp31
 70
     1
102
RTVSPropertyOp32
 70
     1
102
RTVSPropertyOp33
 70
     1
102
RTVSPropertyOp34
 70
     1
102
RTVSPropertyOp35
 70
     1
102
RTVSPropertyOp36
 70
     1
102
RTVSPropertyOp37
 70
     1
102
RTVSPropertyOp38
 70
     1
102
RTVSPropertyOp39
 70
     1
102
RTVSPropertyOp40
 70
     1
102
RTVSPropertyOp41
 70
     1
102
RTVSPropertyOp42
 70
     1
102
RTVSPropertyOp43
 70
     1
102
RTVSPropertyOp44
 70
     1
102
RTVSPropertyOp45
 70
     1
102
RTVSPropertyOp46
 70
     1
102
RTVSPropertyOp47
 70
     1
102
RTVSPropertyOp48
 70
     1
102
RTVSPropertyOp49
 70
     1
102
RTVSPropertyOp50
 70
     1
102
RTVSPropertyOp51
 70
     0
102
RTVSPropertyOp52
 70
     0
102
RTVSPropertyOp53
 70
     1
102
RTVSPropertyOp54
 70
     1
102
RTVSPropertyOp55
 70
     1
102
RTVSPropertyOp56
 70
     1
102
RTVSPropertyOp57
 70
     1
102
RTVSPost2010Prop28
280
     0
102
RTVSPost2010PropOp28
 70
     1
102
RTVSPost2010Prop29
280
     1
102
RTVSPost2010PropOp29
 70
     1
102
RTVSPost2010Prop30
280
     1
102
RTVSPost2010PropOp30
 70
     1
102
RTVSPost2010Prop31
280
     0
102
RTVSPost2010PropOp31
 70
     1
102
RTVSPost2010Prop32
280
     0
102
RTVSPost2010PropOp32
 70
     1
102
RTVSPost2010Prop33
280
     0
102
RTVSPost2010PropOp33
 70
     1
102
RTVSPost2010Prop34
280
     0
102
RTVSPost2010PropOp34
 70
     1
102
RTVSPost2010Prop35
280
     0
102
RTVSPost2010PropOp35
 70
     1
102
RTVSPost2010Prop36
280
     0
102
RTVSPost2010PropOp36
 70
     1
102
RTVSPost2010Prop37
 90
       50
102
RTVSPost2010PropOp37
 70
     1
102
RTVSPost2010Prop38
140
0.0
102
RTVSPost2010PropOp38
 70
     1
102
RTVSPost2010Prop39
140
1.0
102
RTVSPost2010PropOp39
 70
     1
102
RTVSPost2010Prop40
 90
        0
102
RTVSPost2010PropOp40
 70
     1
102
RTVSPost2010Prop41ColorIndex
 90
       18
102
RTVSPost2010Prop41ColorRGB
 90
        0
102
RTVSPost2010PropOp41
 70
     1
102
RTVSPost2010Prop42
 90
       50
102
RTVSPost2010PropOp42
 70
     1
102
RTVSPost2010Prop43
 90
        3
102
RTVSPost2010PropOp43
 70
     1
102
RTVSPost2010Prop44ColorIndex
 90
        5
102
RTVSPost2010Prop44ColorRGB
 90
      255
102
RTVSPost2010PropOp44
 70
     1
102
RTVSPost2010Prop45
280
     0
102
RTVSPost2010PropOp45
 70
     1
102
RTVSPost2010Prop46
 90
       50
102
RTVSPost2010PropOp46
 70
     1
102
RTVSPost2010Prop47
 90
       50
102
RTVSPost2010PropOp47
 70
     1
102
RTVSPost2010Prop48
 90
       50
102
RTVSPost2010PropOp48
 70
     1
102
RTVSPost2010Prop49
280
     0
102
RTVSPost2010PropOp49
 70
     1
102
RTVSPost2010Prop50
 90
       50
102
RTVSPost2010PropOp50
 70
     1
102
RTVSPost2010Prop51ColorIndex
 90
      256
102
RTVSPost2010Prop51ColorRGB
 90
-16777216
102
RTVSPost2010PropOp51
 70
     0
102
RTVSPost2010Prop52
140
1.0
102
RTVSPost2010PropOp52
 70
     0
102
RTVSPost2010Prop53
 90
        2
102
RTVSPost2010PropOp53
 70
     1
102
RTVSPost2010Prop54
  1
strokes_ogs.tif
102
RTVSPost2010PropOp54
 70
     1
102
RTVSPost2010Prop55
280
     0
102
RTVSPost2010PropOp55
 70
     1
102
RTVSPost2010Prop56
140
1.0
102
RTVSPost2010PropOp56
 70
     1
102
RTVSPost2010Prop57
140
1.0
102
RTVSPost2010PropOp57
 70
     1
  0
XRECORD
  5
531
102
{ACAD_REACTORS
330
530
102
}
330
530
100
AcDbXrecord
280
     1
102
RTVSPropertyOp0
 70
     0
102
RTVSPropertyOp1
 70
     0
102
RTVSPropertyOp2
 70
     0
102
RTVSPropertyOp3
 70
     0
102
RTVSPropertyOp4
 70
     0
102
RTVSPropertyOp5
 70
     0
102
RTVSPropertyOp6
 70
     0
102
RTVSPropertyOp7
 70
     0
102
RTVSPropertyOp8
 70
     0
102
RTVSPropertyOp9
 70
     0
102
RTVSPropertyOp10
 70
     0
102
RTVSPropertyOp11
 70
     0
102
RTVSPropertyOp12
 70
     0
102
RTVSPropertyOp13
 70
     0
102
RTVSPropertyOp14
 70
     2
102
RTVSPropertyOp15
 70
     0
102
RTVSPropertyOp16
 70
     0
102
RTVSPropertyOp17
 70
     0
102
RTVSPropertyOp18
 70
     0
102
RTVSPropertyOp19
 70
     0
102
RTVSPropertyOp20
 70
     0
102
RTVSPropertyOp21
 70
     0
102
RTVSPropertyOp22
 70
     0
102
RTVSPropertyOp23
 70
     0
102
RTVSPropertyOp24
 70
     0
102
RTVSPropertyOp25
 70
     0
102
RTVSPropertyOp26
 70
     0
102
RTVSPropertyOp27
 70
     0
102
RTVSPropertyOp28
 70
     0
102
RTVSPropertyOp29
 70
     0
102
RTVSPropertyOp30
 70
     0
102
RTVSPropertyOp31
 70
     0
102
RTVSPropertyOp32
 70
     0
102
RTVSPropertyOp33
 70
     0
102
RTVSPropertyOp34
 70
     0
102
RTVSPropertyOp35
 70
     0
102
RTVSPropertyOp36
 70
     0
102
RTVSPropertyOp37
 70
     0
102
RTVSPropertyOp38
 70
     0
102
RTVSPropertyOp39
 70
     0
102
RTVSPropertyOp40
 70
     0
102
RTVSPropertyOp41
 70
     0
102
RTVSPropertyOp42
 70
     0
102
RTVSPropertyOp43
 70
     0
102
RTVSPropertyOp44
 70
     0
102
RTVSPropertyOp45
 70
     0
102
RTVSPropertyOp46
 70
     0
102
RTVSPropertyOp47
 70
     0
102
RTVSPropertyOp48
 70
     0
102
RTVSPropertyOp49
 70
     0
102
RTVSPropertyOp50
 70
     0
102
RTVSPropertyOp51
 70
     0
102
RTVSPropertyOp52
 70
     0
102
RTVSPropertyOp53
 70
     0
102
RTVSPropertyOp54
 70
     0
102
RTVSPropertyOp55
 70
     0
102
RTVSPropertyOp56
 70
     0
102
RTVSPropertyOp57
 70
     0
102
RTVSPost2010Prop28
280
     0
102
RTVSPost2010PropOp28
 70
     0
102
RTVSPost2010Prop29
280
     1
102
RTVSPost2010PropOp29
 70
     0
102
RTVSPost2010Prop30
280
     1
102
RTVSPost2010PropOp30
 70
     0
102
RTVSPost2010Prop31
280
     0
102
RTVSPost2010PropOp31
 70
     0
102
RTVSPost2010Prop32
280
     0
102
RTVSPost2010PropOp32
 70
     0
102
RTVSPost2010Prop33
280
     0
102
RTVSPost2010PropOp33
 70
     0
102
RTVSPost2010Prop34
280
     0
102
RTVSPost2010PropOp34
 70
     0
102
RTVSPost2010Prop35
280
     0
102
RTVSPost2010PropOp35
 70
     0
102
RTVSPost2010Prop36
280
     0
102
RTVSPost2010PropOp36
 70
     0
102
RTVSPost2010Prop37
 90
       50
102
RTVSPost2010PropOp37
 70
     0
102
RTVSPost2010Prop38
140
0.0
102
RTVSPost2010PropOp38
 70
     0
102
RTVSPost2010Prop39
140
1.0
102
RTVSPost2010PropOp39
 70
     0
102
RTVSPost2010Prop40
 90
        0
102
RTVSPost2010PropOp40
 70
     0
102
RTVSPost2010Prop41ColorIndex
 90
       18
102
RTVSPost2010Prop41ColorRGB
 90
        0
102
RTVSPost2010PropOp41
 70
     0
102
RTVSPost2010Prop42
 90
       50
102
RTVSPost2010PropOp42
 70
     0
102
RTVSPost2010Prop43
 90
        3
102
RTVSPost2010PropOp43
 70
     0
102
RTVSPost2010Prop44ColorIndex
 90
        5
102
RTVSPost2010Prop44ColorRGB
 90
      255
102
RTVSPost2010PropOp44
 70
     0
102
RTVSPost2010Prop45
280
     0
102
RTVSPost2010PropOp45
 70
     0
102
RTVSPost2010Prop46
 90
       50
102
RTVSPost2010PropOp46
 70
     0
102
RTVSPost2010Prop47
 90
       50
102
RTVSPost2010PropOp47
 70
     0
102
RTVSPost2010Prop48
 90
       50
102
RTVSPost2010PropOp48
 70
     0
102
RTVSPost2010Prop49
280
     0
102
RTVSPost2010PropOp49
 70
     0
102
RTVSPost2010Prop50
 90
       50
102
RTVSPost2010PropOp50
 70
     0
102
RTVSPost2010Prop51ColorIndex
 90
      256
102
RTVSPost2010Prop51ColorRGB
 90
-16777216
102
RTVSPost2010PropOp51
 70
     0
102
RTVSPost2010Prop52
140
1.0
102
RTVSPost2010PropOp52
 70
     0
102
RTVSPost2010Prop53
 90
        2
102
RTVSPost2010PropOp53
 70
     0
102
RTVSPost2010Prop54
  1
strokes_ogs.tif
102
RTVSPost2010PropOp54
 70
     0
102
RTVSPost2010Prop55
280
     0
102
RTVSPost2010PropOp55
 70
     0
102
RTVSPost2010Prop56
140
1.0
102
RTVSPost2010PropOp56
 70
     0
102
RTVSPost2010Prop57
140
1.0
102
RTVSPost2010PropOp57
 70
     0
  0
XRECORD
  5
533
102
{ACAD_REACTORS
330
532
102
}
330
532
100
AcDbXrecord
280
     1
102
RTVSPropertyOp0
 70
     1
102
RTVSPropertyOp1
 70
     1
102
RTVSPropertyOp2
 70
     1
102
RTVSPropertyOp3
 70
     1
102
RTVSPropertyOp4
 70
     1
102
RTVSPropertyOp5
 70
     1
102
RTVSPropertyOp6
 70
     1
102
RTVSPropertyOp7
 70
     1
102
RTVSPropertyOp8
 70
     1
102
RTVSPropertyOp9
 70
     1
102
RTVSPropertyOp10
 70
     1
102
RTVSPropertyOp11
 70
     1
102
RTVSPropertyOp12
 70
     1
102
RTVSPropertyOp13
 70
     1
102
RTVSPropertyOp14
 70
     1
102
RTVSPropertyOp15
 70
     1
102
RTVSPropertyOp16
 70
     1
102
RTVSPropertyOp17
 70
     1
102
RTVSPropertyOp18
 70
     1
102
RTVSPropertyOp19
 70
     1
102
RTVSPropertyOp20
 70
     1
102
RTVSPropertyOp21
 70
     1
102
RTVSPropertyOp22
 70
     1
102
RTVSPropertyOp23
 70
     1
102
RTVSPropertyOp24
 70
     1
102
RTVSPropertyOp25
 70
     1
102
RTVSPropertyOp26
 70
     1
102
RTVSPropertyOp27
 70
     1
102
RTVSPropertyOp28
 70
     1
102
RTVSPropertyOp29
 70
     1
102
RTVSPropertyOp30
 70
     1
102
RTVSPropertyOp31
 70
     1
102
RTVSPropertyOp32
 70
     1
102
RTVSPropertyOp33
 70
     1
102
RTVSPropertyOp34
 70
     1
102
RTVSPropertyOp35
 70
     1
102
RTVSPropertyOp36
 70
     1
102
RTVSPropertyOp37
 70
     1
102
RTVSPropertyOp38
 70
     1
102
RTVSPropertyOp39
 70
     1
102
RTVSPropertyOp40
 70
     1
102
RTVSPropertyOp41
 70
     1
102
RTVSPropertyOp42
 70
     1
102
RTVSPropertyOp43
 70
     1
102
RTVSPropertyOp44
 70
     1
102
RTVSPropertyOp45
 70
     1
102
RTVSPropertyOp46
 70
     1
102
RTVSPropertyOp47
 70
     1
102
RTVSPropertyOp48
 70
     1
102
RTVSPropertyOp49
 70
     1
102
RTVSPropertyOp50
 70
     1
102
RTVSPropertyOp51
 70
     0
102
RTVSPropertyOp52
 70
     0
102
RTVSPropertyOp53
 70
     1
102
RTVSPropertyOp54
 70
     1
102
RTVSPropertyOp55
 70
     1
102
RTVSPropertyOp56
 70
     1
102
RTVSPropertyOp57
 70
     1
102
RTVSPost2010Prop28
280
     0
102
RTVSPost2010PropOp28
 70
     1
102
RTVSPost2010Prop29
280
     1
102
RTVSPost2010PropOp29
 70
     1
102
RTVSPost2010Prop30
280
     1
102
RTVSPost2010PropOp30
 70
     1
102
RTVSPost2010Prop31
280
     0
102
RTVSPost2010PropOp31
 70
     1
102
RTVSPost2010Prop32
280
     0
102
RTVSPost2010PropOp32
 70
     1
102
RTVSPost2010Prop33
280
     0
102
RTVSPost2010PropOp33
 70
     1
102
RTVSPost2010Prop34
280
     0
102
RTVSPost2010PropOp34
 70
     1
102
RTVSPost2010Prop35
280
     0
102
RTVSPost2010PropOp35
 70
     1
102
RTVSPost2010Prop36
280
     0
102
RTVSPost2010PropOp36
 70
     1
102
RTVSPost2010Prop37
 90
       50
102
RTVSPost2010PropOp37
 70
     1
102
RTVSPost2010Prop38
140
0.0
102
RTVSPost2010PropOp38
 70
     1
102
RTVSPost2010Prop39
140
1.0
102
RTVSPost2010PropOp39
 70
     1
102
RTVSPost2010Prop40
 90
        0
102
RTVSPost2010PropOp40
 70
     1
102
RTVSPost2010Prop41ColorIndex
 90
       18
102
RTVSPost2010Prop41ColorRGB
 90
        0
102
RTVSPost2010PropOp41
 70
     1
102
RTVSPost2010Prop42
 90
       50
102
RTVSPost2010PropOp42
 70
     1
102
RTVSPost2010Prop43
 90
        3
102
RTVSPost2010PropOp43
 70
     1
102
RTVSPost2010Prop44ColorIndex
 90
        5
102
RTVSPost2010Prop44ColorRGB
 90
      255
102
RTVSPost2010PropOp44
 70
     1
102
RTVSPost2010Prop45
280
     0
102
RTVSPost2010PropOp45
 70
     1
102
RTVSPost2010Prop46
 90
       50
102
RTVSPost2010PropOp46
 70
     1
102
RTVSPost2010Prop47
 90
       50
102
RTVSPost2010PropOp47
 70
     1
102
RTVSPost2010Prop48
 90
       50
102
RTVSPost2010PropOp48
 70
     1
102
RTVSPost2010Prop49
280
     0
102
RTVSPost2010PropOp49
 70
     1
102
RTVSPost2010Prop50
 90
       50
102
RTVSPost2010PropOp50
 70
     1
102
RTVSPost2010Prop51ColorIndex
 90
      256
102
RTVSPost2010Prop51ColorRGB
 90
-16777216
102
RTVSPost2010PropOp51
 70
     0
102
RTVSPost2010Prop52
140
1.0
102
RTVSPost2010PropOp52
 70
     0
102
RTVSPost2010Prop53
 90
        2
102
RTVSPost2010PropOp53
 70
     1
102
RTVSPost2010Prop54
  1
strokes_ogs.tif
102
RTVSPost2010PropOp54
 70
     1
102
RTVSPost2010Prop55
280
     0
102
RTVSPost2010PropOp55
 70
     1
102
RTVSPost2010Prop56
140
1.0
102
RTVSPost2010PropOp56
 70
     1
102
RTVSPost2010Prop57
140
1.0
102
RTVSPost2010PropOp57
 70
     1
  0
XRECORD
  5
535
102
{ACAD_REACTORS
330
534
102
}
330
534
100
AcDbXrecord
280
     1
102
RTVSPropertyOp0
 70
     1
102
RTVSPropertyOp1
 70
     1
102
RTVSPropertyOp2
 70
     1
102
RTVSPropertyOp3
 70
     1
102
RTVSPropertyOp4
 70
     1
102
RTVSPropertyOp5
 70
     1
102
RTVSPropertyOp6
 70
     1
102
RTVSPropertyOp7
 70
     1
102
RTVSPropertyOp8
 70
     1
102
RTVSPropertyOp9
 70
     1
102
RTVSPropertyOp10
 70
     1
102
RTVSPropertyOp11
 70
     1
102
RTVSPropertyOp12
 70
     1
102
RTVSPropertyOp13
 70
     1
102
RTVSPropertyOp14
 70
     1
102
RTVSPropertyOp15
 70
     1
102
RTVSPropertyOp16
 70
     1
102
RTVSPropertyOp17
 70
     1
102
RTVSPropertyOp18
 70
     1
102
RTVSPropertyOp19
 70
     1
102
RTVSPropertyOp20
 70
     1
102
RTVSPropertyOp21
 70
     1
102
RTVSPropertyOp22
 70
     1
102
RTVSPropertyOp23
 70
     1
102
RTVSPropertyOp24
 70
     1
102
RTVSPropertyOp25
 70
     1
102
RTVSPropertyOp26
 70
     1
102
RTVSPropertyOp27
 70
     1
102
RTVSPropertyOp28
 70
     1
102
RTVSPropertyOp29
 70
     1
102
RTVSPropertyOp30
 70
     1
102
RTVSPropertyOp31
 70
     1
102
RTVSPropertyOp32
 70
     1
102
RTVSPropertyOp33
 70
     1
102
RTVSPropertyOp34
 70
     1
102
RTVSPropertyOp35
 70
     1
102
RTVSPropertyOp36
 70
     1
102
RTVSPropertyOp37
 70
     1
102
RTVSPropertyOp38
 70
     1
102
RTVSPropertyOp39
 70
     1
102
RTVSPropertyOp40
 70
     1
102
RTVSPropertyOp41
 70
     1
102
RTVSPropertyOp42
 70
     1
102
RTVSPropertyOp43
 70
     1
102
RTVSPropertyOp44
 70
     1
102
RTVSPropertyOp45
 70
     1
102
RTVSPropertyOp46
 70
     1
102
RTVSPropertyOp47
 70
     1
102
RTVSPropertyOp48
 70
     1
102
RTVSPropertyOp49
 70
     1
102
RTVSPropertyOp50
 70
     1
102
RTVSPropertyOp51
 70
     0
102
RTVSPropertyOp52
 70
     0
102
RTVSPropertyOp53
 70
     1
102
RTVSPropertyOp54
 70
     1
102
RTVSPropertyOp55
 70
     1
102
RTVSPropertyOp56
 70
     1
102
RTVSPropertyOp57
 70
     1
102
RTVSPost2010Prop28
280
     0
102
RTVSPost2010PropOp28
 70
     1
102
RTVSPost2010Prop29
280
     1
102
RTVSPost2010PropOp29
 70
     1
102
RTVSPost2010Prop30
280
     1
102
RTVSPost2010PropOp30
 70
     1
102
RTVSPost2010Prop31
280
     0
102
RTVSPost2010PropOp31
 70
     1
102
RTVSPost2010Prop32
280
     0
102
RTVSPost2010PropOp32
 70
     1
102
RTVSPost2010Prop33
280
     0
102
RTVSPost2010PropOp33
 70
     1
102
RTVSPost2010Prop34
280
     0
102
RTVSPost2010PropOp34
 70
     1
102
RTVSPost2010Prop35
280
     0
102
RTVSPost2010PropOp35
 70
     1
102
RTVSPost2010Prop36
280
     0
102
RTVSPost2010PropOp36
 70
     1
102
RTVSPost2010Prop37
 90
       50
102
RTVSPost2010PropOp37
 70
     1
102
RTVSPost2010Prop38
140
0.0
102
RTVSPost2010PropOp38
 70
     1
102
RTVSPost2010Prop39
140
1.0
102
RTVSPost2010PropOp39
 70
     1
102
RTVSPost2010Prop40
 90
        0
102
RTVSPost2010PropOp40
 70
     1
102
RTVSPost2010Prop41ColorIndex
 90
       18
102
RTVSPost2010Prop41ColorRGB
 90
        0
102
RTVSPost2010PropOp41
 70
     1
102
RTVSPost2010Prop42
 90
       50
102
RTVSPost2010PropOp42
 70
     1
102
RTVSPost2010Prop43
 90
        3
102
RTVSPost2010PropOp43
 70
     1
102
RTVSPost2010Prop44ColorIndex
 90
        5
102
RTVSPost2010Prop44ColorRGB
 90
      255
102
RTVSPost2010PropOp44
 70
     1
102
RTVSPost2010Prop45
280
     0
102
RTVSPost2010PropOp45
 70
     1
102
RTVSPost2010Prop46
 90
       50
102
RTVSPost2010PropOp46
 70
     1
102
RTVSPost2010Prop47
 90
       50
102
RTVSPost2010PropOp47
 70
     1
102
RTVSPost2010Prop48
 90
       50
102
RTVSPost2010PropOp48
 70
     1
102
RTVSPost2010Prop49
280
     0
102
RTVSPost2010PropOp49
 70
     1
102
RTVSPost2010Prop50
 90
       50
102
RTVSPost2010PropOp50
 70
     1
102
RTVSPost2010Prop51ColorIndex
 90
      256
102
RTVSPost2010Prop51ColorRGB
 90
-16777216
102
RTVSPost2010PropOp51
 70
     0
102
RTVSPost2010Prop52
140
1.0
102
RTVSPost2010PropOp52
 70
     0
102
RTVSPost2010Prop53
 90
        2
102
RTVSPost2010PropOp53
 70
     1
102
RTVSPost2010Prop54
  1
strokes_ogs.tif
102
RTVSPost2010PropOp54
 70
     1
102
RTVSPost2010Prop55
280
     0
102
RTVSPost2010PropOp55
 70
     1
102
RTVSPost2010Prop56
140
1.0
102
RTVSPost2010PropOp56
 70
     1
102
RTVSPost2010Prop57
140
1.0
102
RTVSPost2010PropOp57
 70
     1
  0
XRECORD
  5
537
102
{ACAD_REACTORS
330
536
102
}
330
536
100
AcDbXrecord
280
     1
102
RTVSPropertyOp0
 70
     1
102
RTVSPropertyOp1
 70
     1
102
RTVSPropertyOp2
 70
     1
102
RTVSPropertyOp3
 70
     1
102
RTVSPropertyOp4
 70
     1
102
RTVSPropertyOp5
 70
     1
102
RTVSPropertyOp6
 70
     1
102
RTVSPropertyOp7
 70
     1
102
RTVSPropertyOp8
 70
     1
102
RTVSPropertyOp9
 70
     1
102
RTVSPropertyOp10
 70
     1
102
RTVSPropertyOp11
 70
     1
102
RTVSPropertyOp12
 70
     1
102
RTVSPropertyOp13
 70
     1
102
RTVSPropertyOp14
 70
     1
102
RTVSPropertyOp15
 70
     1
102
RTVSPropertyOp16
 70
     1
102
RTVSPropertyOp17
 70
     1
102
RTVSPropertyOp18
 70
     1
102
RTVSPropertyOp19
 70
     1
102
RTVSPropertyOp20
 70
     1
102
RTVSPropertyOp21
 70
     1
102
RTVSPropertyOp22
 70
     1
102
RTVSPropertyOp23
 70
     1
102
RTVSPropertyOp24
 70
     1
102
RTVSPropertyOp25
 70
     1
102
RTVSPropertyOp26
 70
     1
102
RTVSPropertyOp27
 70
     1
102
RTVSPropertyOp28
 70
     1
102
RTVSPropertyOp29
 70
     1
102
RTVSPropertyOp30
 70
     1
102
RTVSPropertyOp31
 70
     1
102
RTVSPropertyOp32
 70
     1
102
RTVSPropertyOp33
 70
     1
102
RTVSPropertyOp34
 70
     1
102
RTVSPropertyOp35
 70
     1
102
RTVSPropertyOp36
 70
     1
102
RTVSPropertyOp37
 70
     1
102
RTVSPropertyOp38
 70
     1
102
RTVSPropertyOp39
 70
     1
102
RTVSPropertyOp40
 70
     1
102
RTVSPropertyOp41
 70
     1
102
RTVSPropertyOp42
 70
     1
102
RTVSPropertyOp43
 70
     1
102
RTVSPropertyOp44
 70
     1
102
RTVSPropertyOp45
 70
     1
102
RTVSPropertyOp46
 70
     1
102
RTVSPropertyOp47
 70
     1
102
RTVSPropertyOp48
 70
     1
102
RTVSPropertyOp49
 70
     1
102
RTVSPropertyOp50
 70
     1
102
RTVSPropertyOp51
 70
     0
102
RTVSPropertyOp52
 70
     0
102
RTVSPropertyOp53
 70
     1
102
RTVSPropertyOp54
 70
     1
102
RTVSPropertyOp55
 70
     1
102
RTVSPropertyOp56
 70
     1
102
RTVSPropertyOp57
 70
     1
102
RTVSPost2010Prop28
280
     0
102
RTVSPost2010PropOp28
 70
     1
102
RTVSPost2010Prop29
280
     1
102
RTVSPost2010PropOp29
 70
     1
102
RTVSPost2010Prop30
280
     1
102
RTVSPost2010PropOp30
 70
     1
102
RTVSPost2010Prop31
280
     0
102
RTVSPost2010PropOp31
 70
     1
102
RTVSPost2010Prop32
280
     0
102
RTVSPost2010PropOp32
 70
     1
102
RTVSPost2010Prop33
280
     0
102
RTVSPost2010PropOp33
 70
     1
102
RTVSPost2010Prop34
280
     0
102
RTVSPost2010PropOp34
 70
     1
102
RTVSPost2010Prop35
280
     0
102
RTVSPost2010PropOp35
 70
     1
102
RTVSPost2010Prop36
280
     0
102
RTVSPost2010PropOp36
 70
     1
102
RTVSPost2010Prop37
 90
       50
102
RTVSPost2010PropOp37
 70
     1
102
RTVSPost2010Prop38
140
0.0
102
RTVSPost2010PropOp38
 70
     1
102
RTVSPost2010Prop39
140
1.0
102
RTVSPost2010PropOp39
 70
     1
102
RTVSPost2010Prop40
 90
        0
102
RTVSPost2010PropOp40
 70
     1
102
RTVSPost2010Prop41ColorIndex
 90
       18
102
RTVSPost2010Prop41ColorRGB
 90
        0
102
RTVSPost2010PropOp41
 70
     1
102
RTVSPost2010Prop42
 90
       50
102
RTVSPost2010PropOp42
 70
     1
102
RTVSPost2010Prop43
 90
        3
102
RTVSPost2010PropOp43
 70
     1
102
RTVSPost2010Prop44ColorIndex
 90
        5
102
RTVSPost2010Prop44ColorRGB
 90
      255
102
RTVSPost2010PropOp44
 70
     1
102
RTVSPost2010Prop45
280
     0
102
RTVSPost2010PropOp45
 70
     1
102
RTVSPost2010Prop46
 90
       50
102
RTVSPost2010PropOp46
 70
     1
102
RTVSPost2010Prop47
 90
       50
102
RTVSPost2010PropOp47
 70
     1
102
RTVSPost2010Prop48
 90
       50
102
RTVSPost2010PropOp48
 70
     1
102
RTVSPost2010Prop49
280
     0
102
RTVSPost2010PropOp49
 70
     1
102
RTVSPost2010Prop50
 90
       50
102
RTVSPost2010PropOp50
 70
     1
102
RTVSPost2010Prop51ColorIndex
 90
      256
102
RTVSPost2010Prop51ColorRGB
 90
-16777216
102
RTVSPost2010PropOp51
 70
     0
102
RTVSPost2010Prop52
140
1.0
102
RTVSPost2010PropOp52
 70
     0
102
RTVSPost2010Prop53
 90
        2
102
RTVSPost2010PropOp53
 70
     1
102
RTVSPost2010Prop54
  1
strokes_ogs.tif
102
RTVSPost2010PropOp54
 70
     1
102
RTVSPost2010Prop55
280
     0
102
RTVSPost2010PropOp55
 70
     1
102
RTVSPost2010Prop56
140
1.0
102
RTVSPost2010PropOp56
 70
     1
102
RTVSPost2010Prop57
140
1.0
102
RTVSPost2010PropOp57
 70
     1
  0
XRECORD
  5
539
102
{ACAD_REACTORS
330
538
102
}
330
538
100
AcDbXrecord
280
     1
102
RTVSPropertyOp0
 70
     1
102
RTVSPropertyOp1
 70
     1
102
RTVSPropertyOp2
 70
     1
102
RTVSPropertyOp3
 70
     1
102
RTVSPropertyOp4
 70
     1
102
RTVSPropertyOp5
 70
     1
102
RTVSPropertyOp6
 70
     1
102
RTVSPropertyOp7
 70
     1
102
RTVSPropertyOp8
 70
     1
102
RTVSPropertyOp9
 70
     1
102
RTVSPropertyOp10
 70
     1
102
RTVSPropertyOp11
 70
     1
102
RTVSPropertyOp12
 70
     1
102
RTVSPropertyOp13
 70
     1
102
RTVSPropertyOp14
 70
     1
102
RTVSPropertyOp15
 70
     1
102
RTVSPropertyOp16
 70
     1
102
RTVSPropertyOp17
 70
     1
102
RTVSPropertyOp18
 70
     1
102
RTVSPropertyOp19
 70
     1
102
RTVSPropertyOp20
 70
     1
102
RTVSPropertyOp21
 70
     1
102
RTVSPropertyOp22
 70
     1
102
RTVSPropertyOp23
 70
     1
102
RTVSPropertyOp24
 70
     1
102
RTVSPropertyOp25
 70
     1
102
RTVSPropertyOp26
 70
     1
102
RTVSPropertyOp27
 70
     1
102
RTVSPropertyOp28
 70
     1
102
RTVSPropertyOp29
 70
     1
102
RTVSPropertyOp30
 70
     1
102
RTVSPropertyOp31
 70
     1
102
RTVSPropertyOp32
 70
     1
102
RTVSPropertyOp33
 70
     1
102
RTVSPropertyOp34
 70
     1
102
RTVSPropertyOp35
 70
     1
102
RTVSPropertyOp36
 70
     1
102
RTVSPropertyOp37
 70
     1
102
RTVSPropertyOp38
 70
     1
102
RTVSPropertyOp39
 70
     1
102
RTVSPropertyOp40
 70
     1
102
RTVSPropertyOp41
 70
     1
102
RTVSPropertyOp42
 70
     1
102
RTVSPropertyOp43
 70
     1
102
RTVSPropertyOp44
 70
     1
102
RTVSPropertyOp45
 70
     1
102
RTVSPropertyOp46
 70
     1
102
RTVSPropertyOp47
 70
     1
102
RTVSPropertyOp48
 70
     1
102
RTVSPropertyOp49
 70
     1
102
RTVSPropertyOp50
 70
     1
102
RTVSPropertyOp51
 70
     0
102
RTVSPropertyOp52
 70
     0
102
RTVSPropertyOp53
 70
     1
102
RTVSPropertyOp54
 70
     1
102
RTVSPropertyOp55
 70
     1
102
RTVSPropertyOp56
 70
     1
102
RTVSPropertyOp57
 70
     1
102
RTVSPost2010Prop28
280
     0
102
RTVSPost2010PropOp28
 70
     1
102
RTVSPost2010Prop29
280
     1
102
RTVSPost2010PropOp29
 70
     1
102
RTVSPost2010Prop30
280
     1
102
RTVSPost2010PropOp30
 70
     1
102
RTVSPost2010Prop31
280
     0
102
RTVSPost2010PropOp31
 70
     1
102
RTVSPost2010Prop32
280
     0
102
RTVSPost2010PropOp32
 70
     1
102
RTVSPost2010Prop33
280
     0
102
RTVSPost2010PropOp33
 70
     1
102
RTVSPost2010Prop34
280
     0
102
RTVSPost2010PropOp34
 70
     1
102
RTVSPost2010Prop35
280
     0
102
RTVSPost2010PropOp35
 70
     1
102
RTVSPost2010Prop36
280
     0
102
RTVSPost2010PropOp36
 70
     1
102
RTVSPost2010Prop37
 90
       50
102
RTVSPost2010PropOp37
 70
     1
102
RTVSPost2010Prop38
140
0.0
102
RTVSPost2010PropOp38
 70
     1
102
RTVSPost2010Prop39
140
1.0
102
RTVSPost2010PropOp39
 70
     1
102
RTVSPost2010Prop40
 90
        0
102
RTVSPost2010PropOp40
 70
     1
102
RTVSPost2010Prop41ColorIndex
 90
       18
102
RTVSPost2010Prop41ColorRGB
 90
        0
102
RTVSPost2010PropOp41
 70
     1
102
RTVSPost2010Prop42
 90
       50
102
RTVSPost2010PropOp42
 70
     1
102
RTVSPost2010Prop43
 90
        3
102
RTVSPost2010PropOp43
 70
     1
102
RTVSPost2010Prop44ColorIndex
 90
        5
102
RTVSPost2010Prop44ColorRGB
 90
      255
102
RTVSPost2010PropOp44
 70
     1
102
RTVSPost2010Prop45
280
     0
102
RTVSPost2010PropOp45
 70
     1
102
RTVSPost2010Prop46
 90
       50
102
RTVSPost2010PropOp46
 70
     1
102
RTVSPost2010Prop47
 90
       50
102
RTVSPost2010PropOp47
 70
     1
102
RTVSPost2010Prop48
 90
       50
102
RTVSPost2010PropOp48
 70
     1
102
RTVSPost2010Prop49
280
     0
102
RTVSPost2010PropOp49
 70
     1
102
RTVSPost2010Prop50
 90
       50
102
RTVSPost2010PropOp50
 70
     1
102
RTVSPost2010Prop51ColorIndex
 90
      256
102
RTVSPost2010Prop51ColorRGB
 90
-16777216
102
RTVSPost2010PropOp51
 70
     0
102
RTVSPost2010Prop52
140
1.0
102
RTVSPost2010PropOp52
 70
     0
102
RTVSPost2010Prop53
 90
        2
102
RTVSPost2010PropOp53
 70
     1
102
RTVSPost2010Prop54
  1
strokes_ogs.tif
102
RTVSPost2010PropOp54
 70
     1
102
RTVSPost2010Prop55
280
     0
102
RTVSPost2010PropOp55
 70
     1
102
RTVSPost2010Prop56
140
1.0
102
RTVSPost2010PropOp56
 70
     1
102
RTVSPost2010Prop57
140
1.0
102
RTVSPost2010PropOp57
 70
     1
  0
XRECORD
  5
53B
102
{ACAD_REACTORS
330
53A
102
}
330
53A
100
AcDbXrecord
280
     1
102
RTVSPropertyOp0
 70
     1
102
RTVSPropertyOp1
 70
     1
102
RTVSPropertyOp2
 70
     1
102
RTVSPropertyOp3
 70
     1
102
RTVSPropertyOp4
 70
     1
102
RTVSPropertyOp5
 70
     1
102
RTVSPropertyOp6
 70
     1
102
RTVSPropertyOp7
 70
     1
102
RTVSPropertyOp8
 70
     1
102
RTVSPropertyOp9
 70
     1
102
RTVSPropertyOp10
 70
     1
102
RTVSPropertyOp11
 70
     1
102
RTVSPropertyOp12
 70
     1
102
RTVSPropertyOp13
 70
     1
102
RTVSPropertyOp14
 70
     1
102
RTVSPropertyOp15
 70
     1
102
RTVSPropertyOp16
 70
     1
102
RTVSPropertyOp17
 70
     1
102
RTVSPropertyOp18
 70
     1
102
RTVSPropertyOp19
 70
     1
102
RTVSPropertyOp20
 70
     1
102
RTVSPropertyOp21
 70
     1
102
RTVSPropertyOp22
 70
     1
102
RTVSPropertyOp23
 70
     1
102
RTVSPropertyOp24
 70
     1
102
RTVSPropertyOp25
 70
     1
102
RTVSPropertyOp26
 70
     1
102
RTVSPropertyOp27
 70
     1
102
RTVSPropertyOp28
 70
     1
102
RTVSPropertyOp29
 70
     1
102
RTVSPropertyOp30
 70
     1
102
RTVSPropertyOp31
 70
     1
102
RTVSPropertyOp32
 70
     1
102
RTVSPropertyOp33
 70
     1
102
RTVSPropertyOp34
 70
     1
102
RTVSPropertyOp35
 70
     1
102
RTVSPropertyOp36
 70
     1
102
RTVSPropertyOp37
 70
     1
102
RTVSPropertyOp38
 70
     1
102
RTVSPropertyOp39
 70
     1
102
RTVSPropertyOp40
 70
     1
102
RTVSPropertyOp41
 70
     1
102
RTVSPropertyOp42
 70
     1
102
RTVSPropertyOp43
 70
     1
102
RTVSPropertyOp44
 70
     1
102
RTVSPropertyOp45
 70
     1
102
RTVSPropertyOp46
 70
     1
102
RTVSPropertyOp47
 70
     1
102
RTVSPropertyOp48
 70
     1
102
RTVSPropertyOp49
 70
     1
102
RTVSPropertyOp50
 70
     1
102
RTVSPropertyOp51
 70
     0
102
RTVSPropertyOp52
 70
     0
102
RTVSPropertyOp53
 70
     1
102
RTVSPropertyOp54
 70
     1
102
RTVSPropertyOp55
 70
     1
102
RTVSPropertyOp56
 70
     1
102
RTVSPropertyOp57
 70
     1
102
RTVSPost2010Prop28
280
     0
102
RTVSPost2010PropOp28
 70
     1
102
RTVSPost2010Prop29
280
     1
102
RTVSPost2010PropOp29
 70
     1
102
RTVSPost2010Prop30
280
     1
102
RTVSPost2010PropOp30
 70
     1
102
RTVSPost2010Prop31
280
     0
102
RTVSPost2010PropOp31
 70
     1
102
RTVSPost2010Prop32
280
     0
102
RTVSPost2010PropOp32
 70
     1
102
RTVSPost2010Prop33
280
     0
102
RTVSPost2010PropOp33
 70
     1
102
RTVSPost2010Prop34
280
     0
102
RTVSPost2010PropOp34
 70
     1
102
RTVSPost2010Prop35
280
     0
102
RTVSPost2010PropOp35
 70
     1
102
RTVSPost2010Prop36
280
     0
102
RTVSPost2010PropOp36
 70
     1
102
RTVSPost2010Prop37
 90
       50
102
RTVSPost2010PropOp37
 70
     1
102
RTVSPost2010Prop38
140
0.0
102
RTVSPost2010PropOp38
 70
     1
102
RTVSPost2010Prop39
140
1.0
102
RTVSPost2010PropOp39
 70
     1
102
RTVSPost2010Prop40
 90
        0
102
RTVSPost2010PropOp40
 70
     1
102
RTVSPost2010Prop41ColorIndex
 90
       18
102
RTVSPost2010Prop41ColorRGB
 90
        0
102
RTVSPost2010PropOp41
 70
     1
102
RTVSPost2010Prop42
 90
       50
102
RTVSPost2010PropOp42
 70
     1
102
RTVSPost2010Prop43
 90
        3
102
RTVSPost2010PropOp43
 70
     1
102
RTVSPost2010Prop44ColorIndex
 90
        5
102
RTVSPost2010Prop44ColorRGB
 90
      255
102
RTVSPost2010PropOp44
 70
     1
102
RTVSPost2010Prop45
280
     0
102
RTVSPost2010PropOp45
 70
     1
102
RTVSPost2010Prop46
 90
       50
102
RTVSPost2010PropOp46
 70
     1
102
RTVSPost2010Prop47
 90
       50
102
RTVSPost2010PropOp47
 70
     1
102
RTVSPost2010Prop48
 90
       50
102
RTVSPost2010PropOp48
 70
     1
102
RTVSPost2010Prop49
280
     0
102
RTVSPost2010PropOp49
 70
     1
102
RTVSPost2010Prop50
 90
       50
102
RTVSPost2010PropOp50
 70
     1
102
RTVSPost2010Prop51ColorIndex
 90
      256
102
RTVSPost2010Prop51ColorRGB
 90
-16777216
102
RTVSPost2010PropOp51
 70
     0
102
RTVSPost2010Prop52
140
1.0
102
RTVSPost2010PropOp52
 70
     0
102
RTVSPost2010Prop53
 90
        2
102
RTVSPost2010PropOp53
 70
     1
102
RTVSPost2010Prop54
  1
strokes_ogs.tif
102
RTVSPost2010PropOp54
 70
     1
102
RTVSPost2010Prop55
280
     0
102
RTVSPost2010PropOp55
 70
     1
102
RTVSPost2010Prop56
140
1.0
102
RTVSPost2010PropOp56
 70
     1
102
RTVSPost2010Prop57
140
1.0
102
RTVSPost2010PropOp57
 70
     1
  0
XRECORD
  5
53D
102
{ACAD_REACTORS
330
53C
102
}
330
53C
100
AcDbXrecord
280
     1
102
RTVSPropertyOp0
 70
     1
102
RTVSPropertyOp1
 70
     1
102
RTVSPropertyOp2
 70
     1
102
RTVSPropertyOp3
 70
     1
102
RTVSPropertyOp4
 70
     1
102
RTVSPropertyOp5
 70
     1
102
RTVSPropertyOp6
 70
     1
102
RTVSPropertyOp7
 70
     1
102
RTVSPropertyOp8
 70
     1
102
RTVSPropertyOp9
 70
     1
102
RTVSPropertyOp10
 70
     1
102
RTVSPropertyOp11
 70
     1
102
RTVSPropertyOp12
 70
     1
102
RTVSPropertyOp13
 70
     1
102
RTVSPropertyOp14
 70
     1
102
RTVSPropertyOp15
 70
     1
102
RTVSPropertyOp16
 70
     1
102
RTVSPropertyOp17
 70
     1
102
RTVSPropertyOp18
 70
     1
102
RTVSPropertyOp19
 70
     1
102
RTVSPropertyOp20
 70
     1
102
RTVSPropertyOp21
 70
     1
102
RTVSPropertyOp22
 70
     1
102
RTVSPropertyOp23
 70
     1
102
RTVSPropertyOp24
 70
     1
102
RTVSPropertyOp25
 70
     1
102
RTVSPropertyOp26
 70
     1
102
RTVSPropertyOp27
 70
     1
102
RTVSPropertyOp28
 70
     1
102
RTVSPropertyOp29
 70
     1
102
RTVSPropertyOp30
 70
     1
102
RTVSPropertyOp31
 70
     1
102
RTVSPropertyOp32
 70
     1
102
RTVSPropertyOp33
 70
     1
102
RTVSPropertyOp34
 70
     1
102
RTVSPropertyOp35
 70
     1
102
RTVSPropertyOp36
 70
     1
102
RTVSPropertyOp37
 70
     1
102
RTVSPropertyOp38
 70
     1
102
RTVSPropertyOp39
 70
     1
102
RTVSPropertyOp40
 70
     1
102
RTVSPropertyOp41
 70
     1
102
RTVSPropertyOp42
 70
     1
102
RTVSPropertyOp43
 70
     1
102
RTVSPropertyOp44
 70
     1
102
RTVSPropertyOp45
 70
     1
102
RTVSPropertyOp46
 70
     1
102
RTVSPropertyOp47
 70
     1
102
RTVSPropertyOp48
 70
     1
102
RTVSPropertyOp49
 70
     1
102
RTVSPropertyOp50
 70
     1
102
RTVSPropertyOp51
 70
     0
102
RTVSPropertyOp52
 70
     0
102
RTVSPropertyOp53
 70
     1
102
RTVSPropertyOp54
 70
     1
102
RTVSPropertyOp55
 70
     1
102
RTVSPropertyOp56
 70
     1
102
RTVSPropertyOp57
 70
     1
102
RTVSPost2010Prop28
280
     0
102
RTVSPost2010PropOp28
 70
     1
102
RTVSPost2010Prop29
280
     1
102
RTVSPost2010PropOp29
 70
     1
102
RTVSPost2010Prop30
280
     1
102
RTVSPost2010PropOp30
 70
     1
102
RTVSPost2010Prop31
280
     0
102
RTVSPost2010PropOp31
 70
     1
102
RTVSPost2010Prop32
280
     0
102
RTVSPost2010PropOp32
 70
     1
102
RTVSPost2010Prop33
280
     0
102
RTVSPost2010PropOp33
 70
     1
102
RTVSPost2010Prop34
280
     0
102
RTVSPost2010PropOp34
 70
     1
102
RTVSPost2010Prop35
280
     0
102
RTVSPost2010PropOp35
 70
     1
102
RTVSPost2010Prop36
280
     0
102
RTVSPost2010PropOp36
 70
     1
102
RTVSPost2010Prop37
 90
       50
102
RTVSPost2010PropOp37
 70
     1
102
RTVSPost2010Prop38
140
0.0
102
RTVSPost2010PropOp38
 70
     1
102
RTVSPost2010Prop39
140
1.0
102
RTVSPost2010PropOp39
 70
     1
102
RTVSPost2010Prop40
 90
        0
102
RTVSPost2010PropOp40
 70
     1
102
RTVSPost2010Prop41ColorIndex
 90
       18
102
RTVSPost2010Prop41ColorRGB
 90
        0
102
RTVSPost2010PropOp41
 70
     1
102
RTVSPost2010Prop42
 90
       50
102
RTVSPost2010PropOp42
 70
     1
102
RTVSPost2010Prop43
 90
        3
102
RTVSPost2010PropOp43
 70
     1
102
RTVSPost2010Prop44ColorIndex
 90
        5
102
RTVSPost2010Prop44ColorRGB
 90
      255
102
RTVSPost2010PropOp44
 70
     1
102
RTVSPost2010Prop45
280
     0
102
RTVSPost2010PropOp45
 70
     1
102
RTVSPost2010Prop46
 90
       50
102
RTVSPost2010PropOp46
 70
     1
102
RTVSPost2010Prop47
 90
       50
102
RTVSPost2010PropOp47
 70
     1
102
RTVSPost2010Prop48
 90
       50
102
RTVSPost2010PropOp48
 70
     1
102
RTVSPost2010Prop49
280
     0
102
RTVSPost2010PropOp49
 70
     1
102
RTVSPost2010Prop50
 90
       50
102
RTVSPost2010PropOp50
 70
     1
102
RTVSPost2010Prop51ColorIndex
 90
      256
102
RTVSPost2010Prop51ColorRGB
 90
-16777216
102
RTVSPost2010PropOp51
 70
     0
102
RTVSPost2010Prop52
140
1.0
102
RTVSPost2010PropOp52
 70
     0
102
RTVSPost2010Prop53
 90
        2
102
RTVSPost2010PropOp53
 70
     1
102
RTVSPost2010Prop54
  1
strokes_ogs.tif
102
RTVSPost2010PropOp54
 70
     1
102
RTVSPost2010Prop55
280
     0
102
RTVSPost2010PropOp55
 70
     1
102
RTVSPost2010Prop56
140
1.0
102
RTVSPost2010PropOp56
 70
     1
102
RTVSPost2010Prop57
140
1.0
102
RTVSPost2010PropOp57
 70
     1
  0
XRECORD
  5
53F
102
{ACAD_REACTORS
330
53E
102
}
330
53E
100
AcDbXrecord
280
     1
102
RTVSPropertyOp0
 70
     1
102
RTVSPropertyOp1
 70
     1
102
RTVSPropertyOp2
 70
     1
102
RTVSPropertyOp3
 70
     1
102
RTVSPropertyOp4
 70
     1
102
RTVSPropertyOp5
 70
     1
102
RTVSPropertyOp6
 70
     1
102
RTVSPropertyOp7
 70
     1
102
RTVSPropertyOp8
 70
     1
102
RTVSPropertyOp9
 70
     1
102
RTVSPropertyOp10
 70
     1
102
RTVSPropertyOp11
 70
     1
102
RTVSPropertyOp12
 70
     1
102
RTVSPropertyOp13
 70
     1
102
RTVSPropertyOp14
 70
     1
102
RTVSPropertyOp15
 70
     1
102
RTVSPropertyOp16
 70
     1
102
RTVSPropertyOp17
 70
     1
102
RTVSPropertyOp18
 70
     1
102
RTVSPropertyOp19
 70
     1
102
RTVSPropertyOp20
 70
     1
102
RTVSPropertyOp21
 70
     1
102
RTVSPropertyOp22
 70
     1
102
RTVSPropertyOp23
 70
     1
102
RTVSPropertyOp24
 70
     1
102
RTVSPropertyOp25
 70
     1
102
RTVSPropertyOp26
 70
     1
102
RTVSPropertyOp27
 70
     1
102
RTVSPropertyOp28
 70
     1
102
RTVSPropertyOp29
 70
     1
102
RTVSPropertyOp30
 70
     1
102
RTVSPropertyOp31
 70
     1
102
RTVSPropertyOp32
 70
     1
102
RTVSPropertyOp33
 70
     1
102
RTVSPropertyOp34
 70
     1
102
RTVSPropertyOp35
 70
     1
102
RTVSPropertyOp36
 70
     1
102
RTVSPropertyOp37
 70
     1
102
RTVSPropertyOp38
 70
     1
102
RTVSPropertyOp39
 70
     1
102
RTVSPropertyOp40
 70
     1
102
RTVSPropertyOp41
 70
     1
102
RTVSPropertyOp42
 70
     1
102
RTVSPropertyOp43
 70
     1
102
RTVSPropertyOp44
 70
     1
102
RTVSPropertyOp45
 70
     1
102
RTVSPropertyOp46
 70
     1
102
RTVSPropertyOp47
 70
     1
102
RTVSPropertyOp48
 70
     1
102
RTVSPropertyOp49
 70
     1
102
RTVSPropertyOp50
 70
     1
102
RTVSPropertyOp51
 70
     0
102
RTVSPropertyOp52
 70
     0
102
RTVSPropertyOp53
 70
     1
102
RTVSPropertyOp54
 70
     1
102
RTVSPropertyOp55
 70
     1
102
RTVSPropertyOp56
 70
     1
102
RTVSPropertyOp57
 70
     1
102
RTVSPost2010Prop28
280
     0
102
RTVSPost2010PropOp28
 70
     1
102
RTVSPost2010Prop29
280
     1
102
RTVSPost2010PropOp29
 70
     1
102
RTVSPost2010Prop30
280
     1
102
RTVSPost2010PropOp30
 70
     1
102
RTVSPost2010Prop31
280
     0
102
RTVSPost2010PropOp31
 70
     1
102
RTVSPost2010Prop32
280
     0
102
RTVSPost2010PropOp32
 70
     1
102
RTVSPost2010Prop33
280
     0
102
RTVSPost2010PropOp33
 70
     1
102
RTVSPost2010Prop34
280
     0
102
RTVSPost2010PropOp34
 70
     1
102
RTVSPost2010Prop35
280
     0
102
RTVSPost2010PropOp35
 70
     1
102
RTVSPost2010Prop36
280
     0
102
RTVSPost2010PropOp36
 70
     1
102
RTVSPost2010Prop37
 90
       50
102
RTVSPost2010PropOp37
 70
     1
102
RTVSPost2010Prop38
140
0.0
102
RTVSPost2010PropOp38
 70
     1
102
RTVSPost2010Prop39
140
1.0
102
RTVSPost2010PropOp39
 70
     1
102
RTVSPost2010Prop40
 90
        0
102
RTVSPost2010PropOp40
 70
     1
102
RTVSPost2010Prop41ColorIndex
 90
       18
102
RTVSPost2010Prop41ColorRGB
 90
        0
102
RTVSPost2010PropOp41
 70
     1
102
RTVSPost2010Prop42
 90
       50
102
RTVSPost2010PropOp42
 70
     1
102
RTVSPost2010Prop43
 90
        3
102
RTVSPost2010PropOp43
 70
     1
102
RTVSPost2010Prop44ColorIndex
 90
        5
102
RTVSPost2010Prop44ColorRGB
 90
      255
102
RTVSPost2010PropOp44
 70
     1
102
RTVSPost2010Prop45
280
     0
102
RTVSPost2010PropOp45
 70
     1
102
RTVSPost2010Prop46
 90
       50
102
RTVSPost2010PropOp46
 70
     1
102
RTVSPost2010Prop47
 90
       50
102
RTVSPost2010PropOp47
 70
     1
102
RTVSPost2010Prop48
 90
       50
102
RTVSPost2010PropOp48
 70
     1
102
RTVSPost2010Prop49
280
     0
102
RTVSPost2010PropOp49
 70
     1
102
RTVSPost2010Prop50
 90
       50
102
RTVSPost2010PropOp50
 70
     1
102
RTVSPost2010Prop51ColorIndex
 90
      256
102
RTVSPost2010Prop51ColorRGB
 90
-16777216
102
RTVSPost2010PropOp51
 70
     0
102
RTVSPost2010Prop52
140
1.0
102
RTVSPost2010PropOp52
 70
     0
102
RTVSPost2010Prop53
 90
        2
102
RTVSPost2010PropOp53
 70
     1
102
RTVSPost2010Prop54
  1
strokes_ogs.tif
102
RTVSPost2010PropOp54
 70
     1
102
RTVSPost2010Prop55
280
     0
102
RTVSPost2010PropOp55
 70
     1
102
RTVSPost2010Prop56
140
1.0
102
RTVSPost2010PropOp56
 70
     1
102
RTVSPost2010Prop57
140
1.0
102
RTVSPost2010PropOp57
 70
     1
  0
XRECORD
  5
541
102
{ACAD_REACTORS
330
540
102
}
330
540
100
AcDbXrecord
280
     1
102
RTVSPropertyOp0
 70
     1
102
RTVSPropertyOp1
 70
     1
102
RTVSPropertyOp2
 70
     1
102
RTVSPropertyOp3
 70
     1
102
RTVSPropertyOp4
 70
     1
102
RTVSPropertyOp5
 70
     1
102
RTVSPropertyOp6
 70
     1
102
RTVSPropertyOp7
 70
     1
102
RTVSPropertyOp8
 70
     1
102
RTVSPropertyOp9
 70
     1
102
RTVSPropertyOp10
 70
     1
102
RTVSPropertyOp11
 70
     1
102
RTVSPropertyOp12
 70
     1
102
RTVSPropertyOp13
 70
     1
102
RTVSPropertyOp14
 70
     1
102
RTVSPropertyOp15
 70
     1
102
RTVSPropertyOp16
 70
     1
102
RTVSPropertyOp17
 70
     1
102
RTVSPropertyOp18
 70
     1
102
RTVSPropertyOp19
 70
     1
102
RTVSPropertyOp20
 70
     1
102
RTVSPropertyOp21
 70
     1
102
RTVSPropertyOp22
 70
     1
102
RTVSPropertyOp23
 70
     1
102
RTVSPropertyOp24
 70
     1
102
RTVSPropertyOp25
 70
     1
102
RTVSPropertyOp26
 70
     1
102
RTVSPropertyOp27
 70
     1
102
RTVSPropertyOp28
 70
     1
102
RTVSPropertyOp29
 70
     1
102
RTVSPropertyOp30
 70
     1
102
RTVSPropertyOp31
 70
     1
102
RTVSPropertyOp32
 70
     1
102
RTVSPropertyOp33
 70
     1
102
RTVSPropertyOp34
 70
     1
102
RTVSPropertyOp35
 70
     1
102
RTVSPropertyOp36
 70
     1
102
RTVSPropertyOp37
 70
     1
102
RTVSPropertyOp38
 70
     1
102
RTVSPropertyOp39
 70
     1
102
RTVSPropertyOp40
 70
     1
102
RTVSPropertyOp41
 70
     1
102
RTVSPropertyOp42
 70
     1
102
RTVSPropertyOp43
 70
     1
102
RTVSPropertyOp44
 70
     1
102
RTVSPropertyOp45
 70
     1
102
RTVSPropertyOp46
 70
     1
102
RTVSPropertyOp47
 70
     1
102
RTVSPropertyOp48
 70
     1
102
RTVSPropertyOp49
 70
     1
102
RTVSPropertyOp50
 70
     1
102
RTVSPropertyOp51
 70
     0
102
RTVSPropertyOp52
 70
     0
102
RTVSPropertyOp53
 70
     1
102
RTVSPropertyOp54
 70
     1
102
RTVSPropertyOp55
 70
     1
102
RTVSPropertyOp56
 70
     1
102
RTVSPropertyOp57
 70
     1
102
RTVSPost2010Prop28
280
     0
102
RTVSPost2010PropOp28
 70
     1
102
RTVSPost2010Prop29
280
     1
102
RTVSPost2010PropOp29
 70
     1
102
RTVSPost2010Prop30
280
     1
102
RTVSPost2010PropOp30
 70
     1
102
RTVSPost2010Prop31
280
     0
102
RTVSPost2010PropOp31
 70
     1
102
RTVSPost2010Prop32
280
     0
102
RTVSPost2010PropOp32
 70
     1
102
RTVSPost2010Prop33
280
     0
102
RTVSPost2010PropOp33
 70
     1
102
RTVSPost2010Prop34
280
     0
102
RTVSPost2010PropOp34
 70
     1
102
RTVSPost2010Prop35
280
     0
102
RTVSPost2010PropOp35
 70
     1
102
RTVSPost2010Prop36
280
     0
102
RTVSPost2010PropOp36
 70
     1
102
RTVSPost2010Prop37
 90
       50
102
RTVSPost2010PropOp37
 70
     1
102
RTVSPost2010Prop38
140
0.0
102
RTVSPost2010PropOp38
 70
     1
102
RTVSPost2010Prop39
140
1.0
102
RTVSPost2010PropOp39
 70
     1
102
RTVSPost2010Prop40
 90
        0
102
RTVSPost2010PropOp40
 70
     1
102
RTVSPost2010Prop41ColorIndex
 90
       18
102
RTVSPost2010Prop41ColorRGB
 90
        0
102
RTVSPost2010PropOp41
 70
     1
102
RTVSPost2010Prop42
 90
       50
102
RTVSPost2010PropOp42
 70
     1
102
RTVSPost2010Prop43
 90
        3
102
RTVSPost2010PropOp43
 70
     1
102
RTVSPost2010Prop44ColorIndex
 90
        5
102
RTVSPost2010Prop44ColorRGB
 90
      255
102
RTVSPost2010PropOp44
 70
     1
102
RTVSPost2010Prop45
280
     0
102
RTVSPost2010PropOp45
 70
     1
102
RTVSPost2010Prop46
 90
       50
102
RTVSPost2010PropOp46
 70
     1
102
RTVSPost2010Prop47
 90
       50
102
RTVSPost2010PropOp47
 70
     1
102
RTVSPost2010Prop48
 90
       50
102
RTVSPost2010PropOp48
 70
     1
102
RTVSPost2010Prop49
280
     0
102
RTVSPost2010PropOp49
 70
     1
102
RTVSPost2010Prop50
 90
       50
102
RTVSPost2010PropOp50
 70
     1
102
RTVSPost2010Prop51ColorIndex
 90
      256
102
RTVSPost2010Prop51ColorRGB
 90
-16777216
102
RTVSPost2010PropOp51
 70
     0
102
RTVSPost2010Prop52
140
1.0
102
RTVSPost2010PropOp52
 70
     0
102
RTVSPost2010Prop53
 90
        2
102
RTVSPost2010PropOp53
 70
     1
102
RTVSPost2010Prop54
  1
strokes_ogs.tif
102
RTVSPost2010PropOp54
 70
     1
102
RTVSPost2010Prop55
280
     0
102
RTVSPost2010PropOp55
 70
     1
102
RTVSPost2010Prop56
140
1.0
102
RTVSPost2010PropOp56
 70
     1
102
RTVSPost2010Prop57
140
1.0
102
RTVSPost2010PropOp57
 70
     1
  0
ENDSEC
  0
EOF
