  0
SECTION
  2
HEADER
  9
$ACADVER
  1
AC1015
  9
$ACADMAINTVER
 70
     6
  9
$DWGCODEPAGE
  3
ANSI_932
  9
$INSBASE
 10
422.8101138723018
 20
305.6294857352502
 30
0.0
  9
$EXTMIN
 10
33.8263364654149
 20
11.91902753324698
 30
0.0
  9
$EXTMAX
 10
396.195364027604
 20
328.4277212433526
 30
0.0
  9
$LIMMIN
 10
0.0
 20
0.0
  9
$LIMMAX
 10
816.5000000000001
 20
565.0
  9
$ORTHOMODE
 70
     1
  9
$REGENMODE
 70
     1
  9
$FILLMODE
 70
     1
  9
$QTEXTMODE
 70
     0
  9
$MIRRTEXT
 70
     1
  9
$LTSCALE
 40
20.0
  9
$ATTMODE
 70
     1
  9
$TEXTSIZE
 40
4.5
  9
$TRACEWID
 40
0.05
  9
$TEXTSTYLE
  7
KANJI
  9
$CLAYER
  8
2
  9
$CELTYPE
  6
BYLAYER
  9
$CECOLOR
 62
   256
  9
$CELTSCALE
 40
1.0
  9
$DISPSILH
 70
     0
  9
$DIMSCALE
 40
1.0
  9
$DIMASZ
 40
2.0
  9
$DIMEXO
 40
0.5
  9
$DIMDLI
 40
0.0
  9
$DIMRND
 40
0.0
  9
$DIMDLE
 40
0.0
  9
$DIMEXE
 40
1.0
  9
$DIMTP
 40
0.0
  9
$DIMTM
 40
0.0
  9
$DIMTXT
 40
3.0
  9
$DIMCEN
 40
0.09
  9
$DIMTSZ
 40
0.0
  9
$DIMTOL
 70
     0
  9
$DIMLIM
 70
     0
  9
$DIMTIH
 70
     0
  9
$DIMTOH
 70
     0
  9
$DIMSE1
 70
     0
  9
$DIMSE2
 70
     0
  9
$DIMTAD
 70
     0
  9
$DIMZIN
 70
     8
  9
$DIMBLK
  1

  9
$DIMASO
 70
     0
  9
$DIMSHO
 70
     0
  9
$DIMPOST
  1

  9
$DIMAPOST
  1

  9
$DIMALT
 70
     0
  9
$DIMALTD
 70
     2
  9
$DIMALTF
 40
25.4
  9
$DIMLFAC
 40
1.0
  9
$DIMTOFL
 70
     1
  9
$DIMTVP
 40
1.0
  9
$DIMTIX
 70
     1
  9
$DIMSOXD
 70
     1
  9
$DIMSAH
 70
     0
  9
$DIMBLK1
  1

  9
$DIMBLK2
  1

  9
$DIMSTYLE
  2
STANDARD
  9
$DIMCLRD
 70
   256
  9
$DIMCLRE
 70
   256
  9
$DIMCLRT
 70
   256
  9
$DIMTFAC
 40
1.0
  9
$DIMGAP
 40
0.09
  9
$DIMJUST
 70
     0
  9
$DIMSD1
 70
     0
  9
$DIMSD2
 70
     0
  9
$DIMTOLJ
 70
     1
  9
$DIMTZIN
 70
     0
  9
$DIMALTZ
 70
     0
  9
$DIMALTTZ
 70
     0
  9
$DIMUPT
 70
     0
  9
$DIMDEC
 70
     1
  9
$DIMTDEC
 70
     4
  9
$DIMALTU
 70
     2
  9
$DIMALTTD
 70
     2
  9
$DIMTXSTY
  7
STANDARD
  9
$DIMAUNIT
 70
     0
  9
$DIMADEC
 70
     0
  9
$DIMALTRND
 40
0.0
  9
$DIMAZIN
 70
     0
  9
$DIMDSEP
 70
    46
  9
$DIMATFIT
 70
     3
  9
$DIMFRAC
 70
     0
  9
$DIMLDRBLK
  1

  9
$DIMLUNIT
 70
     2
  9
$DIMLWD
 70
    -2
  9
$DIMLWE
 70
    -2
  9
$DIMTMOVE
 70
     0
  9
$LUNITS
 70
     2
  9
$LUPREC
 70
     3
  9
$SKETCHINC
 40
0.1
  9
$FILLETRAD
 40
1.0
  9
$AUNITS
 70
     0
  9
$AUPREC
 70
     3
  9
$MENU
  1
C:\R13\WIN\SUPPORT\ACADFULL
  9
$ELEVATION
 40
0.0
  9
$PELEVATION
 40
0.0
  9
$THICKNESS
 40
0.0
  9
$LIMCHECK
 70
     0
  9
$CHAMFERA
 40
0.0
  9
$CHAMFERB
 40
0.0
  9
$CHAMFERC
 40
0.5
  9
$CHAMFERD
 40
0.7853981633974483
  9
$SKPOLY
 70
     0
  9
$TDCREATE
 40
2457345.813463599
  9
$TDUCREATE
 40
2457345.438463599
  9
$TDUPDATE
 40
2457871.824439202
  9
$TDUUPDATE
 40
2457871.449439202
  9
$TDINDWG
 40
0.0112828125
  9
$TDUSRTIMER
 40
0.0112821181
  9
$USRTIMER
 70
     1
  9
$ANGBASE
 50
0.0
  9
$ANGDIR
 70
     0
  9
$PDMODE
 70
     0
  9
$PDSIZE
 40
0.0
  9
$PLINEWID
 40
0.0
  9
$SPLFRAME
 70
     0
  9
$SPLINETYPE
 70
     6
  9
$SPLINESEGS
 70
     8
  9
$HANDSEED
  5
511
  9
$SURFTAB1
 70
     6
  9
$SURFTAB2
 70
     6
  9
$SURFTYPE
 70
     6
  9
$SURFU
 70
     6
  9
$SURFV
 70
     6
  9
$UCSBASE
  2

  9
$UCSNAME
  2

  9
$UCSORG
 10
0.0
 20
0.0
 30
0.0
  9
$UCSXDIR
 10
1.0
 20
0.0
 30
0.0
  9
$UCSYDIR
 10
0.0
 20
1.0
 30
0.0
  9
$UCSORTHOREF
  2

  9
$UCSORTHOVIEW
 70
     0
  9
$UCSORGTOP
 10
0.0
 20
0.0
 30
0.0
  9
$UCSORGBOTTOM
 10
0.0
 20
0.0
 30
0.0
  9
$UCSORGLEFT
 10
0.0
 20
0.0
 30
0.0
  9
$UCSORGRIGHT
 10
0.0
 20
0.0
 30
0.0
  9
$UCSORGFRONT
 10
0.0
 20
0.0
 30
0.0
  9
$UCSORGBACK
 10
0.0
 20
0.0
 30
0.0
  9
$PUCSBASE
  2

  9
$PUCSNAME
  2

  9
$PUCSORG
 10
0.0
 20
0.0
 30
0.0
  9
$PUCSXDIR
 10
1.0
 20
0.0
 30
0.0
  9
$PUCSYDIR
 10
0.0
 20
1.0
 30
0.0
  9
$PUCSORTHOREF
  2

  9
$PUCSORTHOVIEW
 70
     0
  9
$PUCSORGTOP
 10
0.0
 20
0.0
 30
0.0
  9
$PUCSORGBOTTOM
 10
0.0
 20
0.0
 30
0.0
  9
$PUCSORGLEFT
 10
0.0
 20
0.0
 30
0.0
  9
$PUCSORGRIGHT
 10
0.0
 20
0.0
 30
0.0
  9
$PUCSORGFRONT
 10
0.0
 20
0.0
 30
0.0
  9
$PUCSORGBACK
 10
0.0
 20
0.0
 30
0.0
  9
$USERI1
 70
     0
  9
$USERI2
 70
     0
  9
$USERI3
 70
     0
  9
$USERI4
 70
     0
  9
$USERI5
 70
     0
  9
$USERR1
 40
0.0
  9
$USERR2
 40
0.0
  9
$USERR3
 40
0.0
  9
$USERR4
 40
2448925.372986111
  9
$USERR5
 40
0.04166667
  9
$WORLDVIEW
 70
     1
  9
$SHADEDGE
 70
     3
  9
$SHADEDIF
 70
    70
  9
$TILEMODE
 70
     1
  9
$MAXACTVP
 70
    16
  9
$PINSBASE
 10
0.0
 20
0.0
 30
0.0
  9
$PLIMCHECK
 70
     0
  9
$PEXTMIN
 10
1.000000000000000E+20
 20
1.000000000000000E+20
 30
1.000000000000000E+20
  9
$PEXTMAX
 10
-1.000000000000000E+20
 20
-1.000000000000000E+20
 30
-1.000000000000000E+20
  9
$PLIMMIN
 10
0.0
 20
0.0
  9
$PLIMMAX
 10
12.0
 20
9.0
  9
$UNITMODE
 70
     0
  9
$VISRETAIN
 70
     0
  9
$PLINEGEN
 70
     0
  9
$PSLTSCALE
 70
     0
  9
$TREEDEPTH
 70
  3020
  9
$CMLSTYLE
  2
STANDARD
  9
$CMLJUST
 70
     0
  9
$CMLSCALE
 40
1.0
  9
$PROXYGRAPHICS
 70
     1
  9
$MEASUREMENT
 70
     0
  9
$CELWEIGHT
370
    -1
  9
$ENDCAPS
280
     0
  9
$JOINSTYLE
280
     0
  9
$LWDISPLAY
290
     0
  9
$INSUNITS
 70
     0
  9
$HYPERLINKBASE
  1

  9
$STYLESHEET
  1
monochrome.ctb
  9
$XEDIT
290
     1
  9
$CEPSNTYPE
380
     0
  9
$PSTYLEMODE
290
     1
  9
$FINGERPRINTGUID
  2
{4801EAB1-516B-4B7A-BB61-8FD92F525E75}
  9
$VERSIONGUID
  2
{8D8E1ADD-3AB9-41A1-AD3A-CE779C2292B5}
  9
$EXTNAMES
290
     1
  9
$PSVPSCALE
 40
0.0
  9
$OLESTARTUP
290
     0
  0
ENDSEC
  0
SECTION
  2
CLASSES
  0
CLASS
  1
LWPOLYLINE
  2
AcDbPolyline
  3
AutoCAD 2000
 90
        0
280
     0
281
     1
  0
CLASS
  1
ACDBDICTIONARYWDFLT
  2
AcDbDictionaryWithDefault
  3
ObjectDBX Classes
 90
        0
280
     0
281
     0
  0
CLASS
  1
ACDBPLACEHOLDER
  2
AcDbPlaceHolder
  3
ObjectDBX Classes
 90
        0
280
     0
281
     0
  0
CLASS
  1
LAYOUT
  2
AcDbLayout
  3
ObjectDBX Classes
 90
        0
280
     0
281
     0
  0
CLASS
  1
DICTIONARYVAR
  2
AcDbDictionaryVar
  3
ObjectDBX Classes
 90
        0
280
     0
281
     0
  0
CLASS
  1
DUMMY
  2
AcDbLongTransaction
  3
DUMMY
 90
        0
280
     0
281
     0
  0
CLASS
  1
LWPOLYLINE
  2
AcDbPolyline
  3
AutoCAD 2000
 90
        0
280
     0
281
     1
  0
CLASS
  1
HATCH
  2
AcDbHatch
  3
AutoCAD 2000
 90
        0
280
     0
281
     1
  0
CLASS
  1
XRECORD
  2
AcDbXrecord
  3
AutoCAD 2000
 90
        0
280
     0
281
     0
  0
CLASS
  1
DUMMY
  2
AcDbLongTransaction
  3
DUMMY
 90
        0
280
     0
281
     0
  0
CLASS
  1
LWPOLYLINE
  2
AcDbPolyline
  3
AutoCAD 2000
 90
        0
280
     0
281
     1
  0
CLASS
  1
HATCH
  2
AcDbHatch
  3
AutoCAD 2000
 90
        0
280
     0
281
     1
  0
CLASS
  1
XRECORD
  2
AcDbXrecord
  3
AutoCAD 2000
 90
        0
280
     0
281
     0
  0
CLASS
  1
DUMMY
  2
AcDbLongTransaction
  3
DUMMY
 90
        0
280
     0
281
     0
  0
CLASS
  1
LWPOLYLINE
  2
AcDbPolyline
  3
AutoCAD 2000
 90
        0
280
     0
281
     1
  0
CLASS
  1
HATCH
  2
AcDbHatch
  3
AutoCAD 2000
 90
        0
280
     0
281
     1
  0
CLASS
  1
XRECORD
  2
AcDbXrecord
  3
AutoCAD 2000
 90
        0
280
     0
281
     0
  0
CLASS
  1
DUMMY
  2
AcDbLongTransaction
  3
DUMMY
 90
        0
280
     0
281
     0
  0
CLASS
  1
LWPOLYLINE
  2
AcDbPolyline
  3
AutoCAD 2000
 90
        0
280
     0
281
     1
  0
CLASS
  1
HATCH
  2
AcDbHatch
  3
AutoCAD 2000
 90
        0
280
     0
281
     1
  0
CLASS
  1
XRECORD
  2
AcDbXrecord
  3
AutoCAD 2000
 90
        0
280
     0
281
     0
  0
CLASS
  1
DUMMY
  2
AcDbLongTransaction
  3
DUMMY
 90
        0
280
     0
281
     0
  0
CLASS
  1
LWPOLYLINE
  2
AcDbPolyline
  3
AutoCAD 2000
 90
        0
280
     0
281
     1
  0
CLASS
  1
HATCH
  2
AcDbHatch
  3
AutoCAD 2000
 90
        0
280
     0
281
     1
  0
CLASS
  1
XRECORD
  2
AcDbXrecord
  3
AutoCAD 2000
 90
        0
280
     0
281
     0
  0
CLASS
  1
MATERIAL
  2
AcDbMaterial
  3
ObjectDBX Classes
 90
     1153
280
     0
281
     0
  0
CLASS
  1
VISUALSTYLE
  2
AcDbVisualStyle
  3
ObjectDBX Classes
 90
     4095
280
     0
281
     0
  0
CLASS
  1
TABLESTYLE
  2
AcDbTableStyle
  3
ObjectDBX Classes
 90
     4095
280
     0
281
     0
  0
CLASS
  1
SCALE
  2
AcDbScale
  3
ObjectDBX Classes
 90
     1153
280
     0
281
     0
  0
CLASS
  1
MLEADERSTYLE
  2
AcDbMLeaderStyle
  3
ACDB_MLEADERSTYLE_CLASS
 90
     4095
280
     0
281
     0
  0
CLASS
  1
ACDBSECTIONVIEWSTYLE
  2
AcDbSectionViewStyle
  3
ObjectDBX Classes
 90
     1025
280
     0
281
     0
  0
CLASS
  1
ACDBDETAILVIEWSTYLE
  2
AcDbDetailViewStyle
  3
ObjectDBX Classes
 90
     1025
280
     0
281
     0
  0
CLASS
  1
SORTENTSTABLE
  2
AcDbSortentsTable
  3
ObjectDBX Classes
 90
        0
280
     0
281
     0
  0
ENDSEC
  0
SECTION
  2
TABLES
  0
TABLE
  2
VPORT
  5
2D
102
{ACAD_XDICTIONARY
360
4D5
102
}
330
0
100
AcDbSymbolTable
 70
     1
  0
VPORT
  5
2E
330
2D
100
AcDbSymbolTableRecord
100
AcDbViewportTableRecord
  2
*ACTIVE
 70
     0
 10
0.0
 20
0.0
 11
1.0
 21
1.0
 12
372.0770468146671
 22
145.9489747455223
 13
0.0
 23
0.0
 14
1.0
 24
1.0
 15
50.0
 25
50.0
 16
0.0
 26
0.0
 36
1.0
 17
0.0
 27
0.0
 37
0.0
 40
431.9500130652954
 41
2.171641791044776
 42
50.0
 43
0.0
 44
0.0
 50
0.0
 51
0.0
 71
     0
 72
  5000
 73
     1
 74
     0
 75
     0
 76
     0
 77
     0
 78
     0
281
     0
 65
     1
110
0.0
120
0.0
130
0.0
111
1.0
121
0.0
131
0.0
112
0.0
122
1.0
132
0.0
 79
     0
146
0.0
1001
ACAD_NAV_VCDISPLAY
1070
     3
  0
ENDTAB
  0
TABLE
  2
LTYPE
  5
28
330
0
100
AcDbSymbolTable
 70
     2
  0
LTYPE
  5
29
330
28
100
AcDbSymbolTableRecord
100
AcDbLinetypeTableRecord
  2
BYBLOCK
 70
     0
  3

 72
    65
 73
     0
 40
0.0
  0
LTYPE
  5
2A
330
28
100
AcDbSymbolTableRecord
100
AcDbLinetypeTableRecord
  2
BYLAYER
 70
     0
  3

 72
    65
 73
     0
 40
0.0
  0
LTYPE
  5
16
330
28
100
AcDbSymbolTableRecord
100
AcDbLinetypeTableRecord
  2
CONTINUOUS
 70
     0
  3
Solid line
 72
    65
 73
     0
 40
0.0
  0
LTYPE
  5
74
330
28
100
AcDbSymbolTableRecord
100
AcDbLinetypeTableRecord
  2
CENTER
 70
     0
  3
Center ____ _ ____ _ ____ _ ____ _ ____ _ ____
 72
    65
 73
     4
 40
2.0
 49
1.25
 74
     0
 49
-0.25
 74
     0
 49
0.25
 74
     0
 49
-0.25
 74
     0
  0
ENDTAB
  0
TABLE
  2
LAYER
  5
22
102
{ACAD_XDICTIONARY
360
23
102
}
330
0
100
AcDbSymbolTable
 70
     7
  0
LAYER
  5
7
102
{ACAD_XDICTIONARY
360
8
102
}
330
22
100
AcDbSymbolTableRecord
100
AcDbLayerTableRecord
  2
0
 70
     0
 62
     7
  6
CONTINUOUS
370
    -3
390
A
  0
LAYER
  5
2AE
102
{ACAD_XDICTIONARY
360
2AF
102
}
330
22
100
AcDbSymbolTableRecord
100
AcDbLayerTableRecord
  2
1
 70
     0
 62
     9
  6
CONTINUOUS
370
    -3
390
A
  0
LAYER
  5
4E
102
{ACAD_XDICTIONARY
360
4F
102
}
330
22
100
AcDbSymbolTableRecord
100
AcDbLayerTableRecord
  2
2
 70
     0
 62
     4
  6
CONTINUOUS
370
    -3
390
A
  0
LAYER
  5
69
102
{ACAD_XDICTIONARY
360
6A
102
}
330
22
100
AcDbSymbolTableRecord
100
AcDbLayerTableRecord
  2
4
 70
     0
 62
     3
  6
CONTINUOUS
370
    -3
390
A
  0
LAYER
  5
71
102
{ACAD_XDICTIONARY
360
72
102
}
330
22
100
AcDbSymbolTableRecord
100
AcDbLayerTableRecord
  2
L-CENTER
 70
     0
 62
     1
  6
CENTER
370
    -3
390
A
  0
LAYER
  5
78
102
{ACAD_XDICTIONARY
360
79
102
}
330
22
100
AcDbSymbolTableRecord
100
AcDbLayerTableRecord
  2
3
 70
     0
 62
     2
  6
CONTINUOUS
370
    -3
390
A
  0
LAYER
  5
2A7
330
22
100
AcDbSymbolTableRecord
100
AcDbLayerTableRecord
  2
5
 70
     0
 62
     6
  6
CONTINUOUS
370
    -3
390
A
  0
ENDTAB
  0
TABLE
  2
STYLE
  5
25
330
0
100
AcDbSymbolTable
 70
     2
  0
STYLE
  5
26
330
25
100
AcDbSymbolTableRecord
100
AcDbTextStyleTableRecord
  2
STANDARD
 70
     0
 40
0.0
 41
1.0
 50
0.0
 71
     0
 42
1.8
  3
TXT
  4

  0
STYLE
  5
51
330
25
100
AcDbSymbolTableRecord
100
AcDbTextStyleTableRecord
  2
KANJI
 70
     0
 40
0.0
 41
1.0
 50
0.0
 71
     0
 42
4.5
  3
TXT
  4
BIGFONT
  0
ENDTAB
  0
TABLE
  2
VIEW
  5
2B
330
0
100
AcDbSymbolTable
 70
     0
  0
ENDTAB
  0
TABLE
  2
UCS
  5
2C
330
0
100
AcDbSymbolTable
 70
     0
  0
ENDTAB
  0
TABLE
  2
APPID
  5
32
330
0
100
AcDbSymbolTable
 70
     5
  0
APPID
  5
33
330
32
100
AcDbSymbolTableRecord
100
AcDbRegAppTableRecord
  2
ACAD
 70
     0
  0
APPID
  5
31
330
32
100
AcDbSymbolTableRecord
100
AcDbRegAppTableRecord
  2
ACAD_NAV_VCDISPLAY
 70
     0
  0
APPID
  5
1B
330
32
100
AcDbSymbolTableRecord
100
AcDbRegAppTableRecord
  2
ACAD_PSEXT
 70
     0
  0
APPID
  5
420
330
32
100
AcDbSymbolTableRecord
100
AcDbRegAppTableRecord
  2
ACAD_EXEMPT_FROM_CAD_STANDARDS
 70
     0
  0
APPID
  5
4C2
330
32
100
AcDbSymbolTableRecord
100
AcDbRegAppTableRecord
  2
ACAD_MLEADERVER
 70
     0
  0
ENDTAB
  0
TABLE
  2
DIMSTYLE
  5
34
330
0
100
AcDbSymbolTable
 70
     1
100
AcDbDimStyleTable
  0
DIMSTYLE
105
35
330
34
100
AcDbSymbolTableRecord
100
AcDbDimStyleTableRecord
  2
STANDARD
 70
     0
178
     0
340
26
  0
ENDTAB
  0
TABLE
  2
BLOCK_RECORD
  5
1
330
0
100
AcDbSymbolTable
 70
     0
  0
BLOCK_RECORD
  5
2
102
{ACAD_XDICTIONARY
360
3
102
}
330
1
100
AcDbSymbolTableRecord
100
AcDbBlockTableRecord
  2
*MODEL_SPACE
340
18
  0
BLOCK_RECORD
  5
1C
330
1
100
AcDbSymbolTableRecord
100
AcDbBlockTableRecord
  2
*PAPER_SPACE
340
21
  0
ENDTAB
  0
ENDSEC
  0
SECTION
  2
BLOCKS
  0
BLOCK
  5
6
330
2
100
AcDbEntity
  8
0
100
AcDbBlockBegin
  2
*MODEL_SPACE
 70
     0
 10
0.0
 20
0.0
 30
0.0
  3
*MODEL_SPACE
  1

  0
ENDBLK
  5
17
330
2
100
AcDbEntity
  8
0
100
AcDbBlockEnd
  0
BLOCK
  5
1F
330
1C
100
AcDbEntity
 67
     1
  8
0
100
AcDbBlockBegin
  2
*PAPER_SPACE
 70
     0
 10
0.0
 20
0.0
 30
0.0
  3
*PAPER_SPACE
  1

  0
ENDBLK
  5
20
330
1C
100
AcDbEntity
 67
     1
  8
0
100
AcDbBlockEnd
  0
ENDSEC
  0
SECTION
  2
ENTITIES
  0
LINE
  5
68
330
2
100
AcDbEntity
  8
4
100
AcDbLine
 10
95.30161782423806
 20
113.3567452138299
 30
0.0
 11
82.30161782423806
 21
113.3567452138299
 31
0.0
  0
LINE
  5
6C
330
2
100
AcDbEntity
  8
4
100
AcDbLine
 10
95.30161782423806
 20
101.3567452138299
 30
0.0
 11
82.30161782423806
 21
101.3567452138299
 31
0.0
  0
LINE
  5
6E
330
2
100
AcDbEntity
  8
4
100
AcDbLine
 10
195.3016178242381
 20
30.3567452138299
 30
0.0
 11
171.3016178242382
 21
30.3567452138299
 31
0.0
  0
LINE
  5
6F
330
2
100
AcDbEntity
  8
4
100
AcDbLine
 10
170.3016178242382
 20
20.3567452138299
 30
0.0
 11
196.3016178242381
 21
20.3567452138299
 31
0.0
  0
LINE
  5
70
330
2
100
AcDbEntity
  8
L-CENTER
 48
0.25
100
AcDbLine
 10
58.46292415436335
 20
107.3567452138299
 30
0.0
 11
190.7645323762471
 21
107.3567452138299
 31
0.0
  0
LINE
  5
86
330
2
100
AcDbEntity
  8
L-CENTER
 48
0.25
100
AcDbLine
 10
33.8263364654149
 20
107.3567452138299
 30
0.0
 11
48.71572446541495
 21
107.3567452138299
 31
0.0
  0
ARC
  5
87
330
2
100
AcDbEntity
  8
4
100
AcDbCircle
 10
41.27103046541498
 20
107.3567452138299
 30
0.0
 40
5.0
100
AcDbArc
 50
126.8698976458434
 51
53.13010235415663
  0
LINE
  5
89
330
2
100
AcDbEntity
  8
L-CENTER
 48
0.25
100
AcDbLine
 10
41.27103046541498
 20
99.91205121382987
 30
0.0
 11
41.27103046541498
 21
114.8014392138301
 31
0.0
  0
LINE
  5
8B
330
2
100
AcDbEntity
  8
4
100
AcDbLine
 10
38.27103046541498
 20
111.3567452138299
 30
0.0
 11
44.27103046541498
 21
111.3567452138299
 31
0.0
  0
LINE
  5
95
330
2
100
AcDbEntity
  8
4
100
AcDbLine
 10
382.2834640276039
 20
76.8567452138299
 30
0.0
 11
389.7668630276039
 21
76.8567452138299
 31
0.0
  0
ARC
  5
96
330
2
100
AcDbEntity
  8
4
100
AcDbCircle
 10
386.025164027604
 20
70.3567452138299
 30
0.0
 40
7.5
100
AcDbArc
 50
119.926434866614
 51
60.07356513338598
  0
LINE
  5
97
330
2
100
AcDbEntity
  8
L-CENTER
 48
0.25
100
AcDbLine
 10
396.195364027604
 20
70.3567452138299
 30
0.0
 11
375.854964027604
 21
70.3567452138299
 31
0.0
  0
LINE
  5
9E
330
2
100
AcDbEntity
  8
L-CENTER
 48
0.25
100
AcDbLine
 10
386.025164027604
 20
60.18654521382987
 30
0.0
 11
386.025164027604
 21
80.52694521382992
 31
0.0
  0
ARC
  5
A3
330
2
100
AcDbEntity
  8
4
100
AcDbCircle
 10
12.30161782423818
 20
70.3567452138299
 30
0.0
 40
170.0
100
AcDbArc
 50
0.0
 51
11.90463641835897
  0
ARC
  5
A4
330
2
100
AcDbEntity
  8
4
100
AcDbCircle
 10
154.3016178242381
 20
89.8567452138299
 30
0.0
 40
1.0
100
AcDbArc
 50
90.0
 51
180.0
  0
ARC
  5
A5
330
2
100
AcDbEntity
  8
4
100
AcDbCircle
 10
128.3016178242381
 20
89.8567452138299
 30
0.0
 40
1.0
100
AcDbArc
 50
0.0
 51
90.0
  0
ARC
  5
A6
330
2
100
AcDbEntity
  8
4
100
AcDbCircle
 10
141.3016178242381
 20
70.3567452138299
 30
0.0
 40
20.5
100
AcDbArc
 50
90.0
 51
270.0
  0
ARC
  5
A7
330
2
100
AcDbEntity
  8
4
100
AcDbCircle
 10
141.3016178242381
 20
70.3567452138299
 30
0.0
 40
20.5
100
AcDbArc
 50
270.0
 51
90.0
  0
ARC
  5
A8
330
2
100
AcDbEntity
  8
4
100
AcDbCircle
 10
141.3016178242381
 20
70.3567452138299
 30
0.0
 40
28.0
100
AcDbArc
 50
270.0
 51
56.25101140411079
  0
ARC
  5
A9
330
2
100
AcDbEntity
  8
4
100
AcDbCircle
 10
270.301617824238
 20
70.3567452138299
 30
0.0
 40
170.0
100
AcDbArc
 50
168.095363581641
 51
180.0
  0
ARC
  5
AA
330
2
100
AcDbEntity
  8
4
100
AcDbCircle
 10
141.3016178242381
 20
70.3567452138299
 30
0.0
 40
40.0
100
AcDbArc
 50
90.0
 51
270.0
  0
ARC
  5
AB
330
2
100
AcDbEntity
  8
4
100
AcDbCircle
 10
141.3016178242381
 20
70.3567452138299
 30
0.0
 40
28.0
100
AcDbArc
 50
123.7489885958892
 51
270.0
  0
LINE
  5
AC
330
2
100
AcDbEntity
  8
4
100
AcDbLine
 10
186.3016178242381
 20
129.8567452138299
 30
0.0
 11
186.3016178242381
 21
84.8567452138299
 31
0.0
  0
LINE
  5
AD
330
2
100
AcDbEntity
  8
4
100
AcDbLine
 10
96.30161782423806
 20
129.8567452138299
 30
0.0
 11
96.30161782423806
 21
84.8567452138299
 31
0.0
  0
LINE
  5
AE
330
2
100
AcDbEntity
  8
L-CENTER
 48
0.25
100
AcDbLine
 10
141.3016178242381
 20
22.35285770993359
 30
0.0
 11
141.3016178242381
 21
136.2322330084651
 31
0.0
  0
ARC
  5
AF
330
2
100
AcDbEntity
  8
4
100
AcDbCircle
 10
141.3016178242381
 20
70.3567452138299
 30
0.0
 40
40.0
100
AcDbArc
 50
270.0
 51
90.0
  0
ARC
  5
B0
330
2
100
AcDbEntity
  8
4
100
AcDbCircle
 10
141.3016178242381
 20
70.3567452138299
 30
0.0
 40
19.0
100
AcDbArc
 50
90.0
 51
270.0
  0
LINE
  5
B1
330
2
100
AcDbEntity
  8
4
100
AcDbLine
 10
114.3016178242381
 20
25.3567452138299
 30
0.0
 11
168.3016178242382
 21
25.3567452138299
 31
0.0
  0
ARC
  5
B2
330
2
100
AcDbEntity
  8
4
100
AcDbCircle
 10
141.3016178242381
 20
199.3567452138299
 30
0.0
 40
170.0
100
AcDbArc
 50
261.3522816298837
 51
278.6477183701163
  0
LINE
  5
B3
330
2
100
AcDbEntity
  8
L-CENTER
 48
0.25
100
AcDbLine
 10
185.4942810889407
 20
70.3567452138299
 30
0.0
 11
97.10895455953539
 21
70.3567452138299
 31
0.0
  0
LINE
  5
B5
330
2
100
AcDbEntity
  8
4
100
AcDbLine
 10
97.30161782423806
 20
35.8567452138299
 30
0.0
 11
97.30161782423806
 21
44.8567452138299
 31
0.0
  0
LINE
  5
B6
330
2
100
AcDbEntity
  8
4
100
AcDbLine
 10
98.30161782423806
 20
48.5283180890838
 30
0.0
 11
98.30161782423806
 21
33.3567452138299
 31
0.0
  0
LINE
  5
B7
330
2
100
AcDbEntity
  8
4
100
AcDbLine
 10
100.3016178242381
 20
70.3567452138299
 30
0.0
 11
100.3016178242381
 21
33.3567452138299
 31
0.0
  0
ARC
  5
B8
330
2
100
AcDbEntity
  8
4
100
AcDbCircle
 10
160.3016178242381
 20
70.3567452138299
 30
0.0
 40
60.0
100
AcDbArc
 50
180.0
 51
219.2983770286993
  0
ARC
  5
B9
330
2
100
AcDbEntity
  8
4
100
AcDbCircle
 10
95.30161782423806
 20
33.3567452138299
 30
0.0
 40
3.0
100
AcDbArc
 50
270.0
 51
0.0
  0
LINE
  5
BA
330
2
100
AcDbEntity
  8
4
100
AcDbLine
 10
87.30161782423806
 20
30.3567452138299
 30
0.0
 11
111.301617824238
 21
30.3567452138299
 31
0.0
  0
LINE
  5
BB
330
2
100
AcDbEntity
  8
L-CENTER
 48
0.25
100
AcDbLine
 10
104.7148481447742
 20
40.3567452138299
 30
0.0
 11
94.63813146413929
 21
40.3567452138299
 31
0.0
  0
LINE
  5
BC
330
2
100
AcDbEntity
  8
4
100
AcDbLine
 10
86.30161782423806
 20
20.3567452138299
 30
0.0
 11
112.3016178242381
 21
20.3567452138299
 31
0.0
  0
LINE
  5
BE
330
2
100
AcDbEntity
  8
L-CENTER
 48
0.25
100
AcDbLine
 10
96.30161782423806
 20
33.4109102429816
 30
0.0
 11
96.30161782423806
 21
17.2019762371655
 31
0.0
  0
LINE
  5
BF
330
2
100
AcDbEntity
  8
4
100
AcDbLine
 10
86.30161782423806
 20
29.3567452138299
 30
0.0
 11
86.30161782423806
 21
20.3567452138299
 31
0.0
  0
ARC
  5
C1
330
2
100
AcDbEntity
  8
4
100
AcDbCircle
 10
87.30161782423806
 20
29.3567452138299
 30
0.0
 40
1.0
100
AcDbArc
 50
90.0
 51
180.0
  0
LINE
  5
C2
330
2
100
AcDbEntity
  8
4
100
AcDbLine
 10
112.301617824238
 20
29.3567452138299
 30
0.0
 11
112.301617824238
 21
20.3567452138299
 31
0.0
  0
ARC
  5
C3
330
2
100
AcDbEntity
  8
4
100
AcDbCircle
 10
114.301617824238
 20
23.3567452138299
 30
0.0
 40
2.0
100
AcDbArc
 50
90.0
 51
180.0
  0
ARC
  5
C4
330
2
100
AcDbEntity
  8
4
100
AcDbCircle
 10
105.301617824238
 20
33.3567452138299
 30
0.0
 40
3.0
100
AcDbArc
 50
270.0
 51
0.0
  0
ARC
  5
C5
330
2
100
AcDbEntity
  8
4
100
AcDbCircle
 10
97.30161782423806
 20
33.3567452138299
 30
0.0
 40
3.0
100
AcDbArc
 50
270.0
 51
0.0
  0
ARC
  5
C6
330
2
100
AcDbEntity
  8
4
100
AcDbCircle
 10
111.301617824238
 20
29.3567452138299
 30
0.0
 40
1.0
100
AcDbArc
 50
0.0
 51
90.0
  0
LINE
  5
C7
330
2
100
AcDbEntity
  8
4
100
AcDbLine
 10
97.30161782423806
 20
35.8567452138299
 30
0.0
 11
98.30161782423806
 21
35.8567452138299
 31
0.0
  0
ARC
  5
C8
330
2
100
AcDbEntity
  8
4
100
AcDbCircle
 10
106.3016178242378
 20
39.89365279037443
 30
0.0
 40
2.0
100
AcDbArc
 50
0.0
 51
29.42870717686714
  0
LINE
  5
C9
330
2
100
AcDbEntity
  8
4
100
AcDbLine
 10
108.3016178242378
 20
39.89365279037455
 30
0.0
 11
108.301617824238
 21
33.3567452138299
 31
0.0
  0
ARC
  5
CA
330
2
100
AcDbEntity
  8
4
100
AcDbCircle
 10
116.1917032352052
 20
34.25528492552272
 30
0.0
 40
3.0
100
AcDbArc
 50
219.2983770286993
 51
261.3522816298844
  0
LINE
  5
CB
330
2
100
AcDbEntity
  8
4
100
AcDbLine
 10
99.83534550035574
 20
84.8567452138299
 30
0.0
 11
96.30161782423806
 21
84.8567452138299
 31
0.0
  0
ARC
  5
CC
330
2
100
AcDbEntity
  8
4
100
AcDbCircle
 10
97.30161782423806
 20
51.3567452138299
 30
0.0
 40
3.0
100
AcDbArc
 50
289.471220634491
 51
0.0
  0
LINE
  5
CD
330
2
100
AcDbEntity
  8
4
100
AcDbLine
 10
97.30161782423806
 20
44.8567452138299
 30
0.0
 11
98.30161782423806
 21
44.8567452138299
 31
0.0
  0
ARC
  5
CE
330
2
100
AcDbEntity
  8
4
100
AcDbCircle
 10
99.83534550035574
 20
83.8567452138299
 30
0.0
 40
1.0
100
AcDbArc
 50
355.4719369861921
 51
90.0
  0
LINE
  5
CF
330
2
100
AcDbEntity
  8
4
100
AcDbLine
 10
182.3016178242381
 20
70.3567452138299
 30
0.0
 11
182.3016178242381
 21
33.3567452138299
 31
0.0
  0
ARC
  5
D0
330
2
100
AcDbEntity
  8
4
100
AcDbCircle
 10
122.3016178242381
 20
70.3567452138299
 30
0.0
 40
60.0
100
AcDbArc
 50
320.7016229713007
 51
0.0
  0
LINE
  5
D2
330
2
100
AcDbEntity
  8
4
100
AcDbLine
 10
190.8306545380534
 20
30.31692346057278
 30
0.0
 11
190.8306545380534
 21
20.31692346057278
 31
0.0
  0
ARC
  5
D3
330
2
100
AcDbEntity
  8
4
100
AcDbCircle
 10
176.087521824238
 20
21.58431521382991
 30
0.0
 40
1.283133
100
AcDbArc
 50
286.9237430000014
 51
37.01255599999936
  0
ARC
  5
D4
330
2
100
AcDbEntity
  8
4
100
AcDbCircle
 10
176.087521824238
 20
21.58431521382991
 30
0.0
 40
1.283133
100
AcDbArc
 50
286.9237430000014
 51
37.01255599999936
  0
LINE
  5
D5
330
2
100
AcDbEntity
  8
L-CENTER
 48
0.25
100
AcDbLine
 10
186.3016178242381
 20
33.4109102429816
 30
0.0
 11
186.301617824238
 21
17.2019762371655
 31
0.0
  0
LINE
  5
D6
330
2
100
AcDbEntity
  8
4
100
AcDbLine
 10
181.8306545380534
 20
30.31692346057278
 30
0.0
 11
181.8306545380534
 21
20.31692346057278
 31
0.0
  0
LINE
  5
D7
330
2
100
AcDbEntity
  8
4
100
AcDbLine
 10
170.3016178242382
 20
29.3567452138299
 30
0.0
 11
170.3016178242382
 21
20.3567452138299
 31
0.0
  0
ARC
  5
DB
330
2
100
AcDbEntity
  8
4
100
AcDbCircle
 10
177.3016178242382
 20
33.3567452138299
 30
0.0
 40
3.0
100
AcDbArc
 50
180.0
 51
270.0
  0
ARC
  5
DC
330
2
100
AcDbEntity
  8
4
100
AcDbCircle
 10
166.4115324132709
 20
34.25528492552272
 30
0.0
 40
3.0
100
AcDbArc
 50
278.6477183701159
 51
320.7016229713008
  0
ARC
  5
DD
330
2
100
AcDbEntity
  8
4
100
AcDbCircle
 10
168.3016178242382
 20
23.3567452138299
 30
0.0
 40
2.0
100
AcDbArc
 50
0.0
 51
90.0
  0
ARC
  5
DE
330
2
100
AcDbEntity
  8
4
100
AcDbCircle
 10
171.3016178242382
 20
29.3567452138299
 30
0.0
 40
1.0
100
AcDbArc
 50
90.0
 51
180.0
  0
LINE
  5
DF
330
2
100
AcDbEntity
  8
4
100
AcDbLine
 10
174.3016178242383
 20
39.89365279037455
 30
0.0
 11
174.3016178242382
 21
33.3567452138299
 31
0.0
  0
ARC
  5
E0
330
2
100
AcDbEntity
  8
4
100
AcDbCircle
 10
176.3016178242383
 20
39.89365279037443
 30
0.0
 40
2.0
100
AcDbArc
 50
150.5712928231331
 51
180.0
  0
ARC
  5
E1
330
2
100
AcDbEntity
  8
4
100
AcDbCircle
 10
185.3016178242381
 20
33.3567452138299
 30
0.0
 40
3.0
100
AcDbArc
 50
180.0
 51
270.0
  0
ARC
  5
E2
330
2
100
AcDbEntity
  8
4
100
AcDbCircle
 10
178.136700824238
 20
23.12917621382988
 30
0.0
 40
1.283133
100
AcDbArc
 50
106.9237559999994
 51
217.0125920000013
  0
ARC
  5
E3
330
2
100
AcDbEntity
  8
4
100
AcDbCircle
 10
178.136700824238
 20
23.12917621382988
 30
0.0
 40
1.283133
100
AcDbArc
 50
106.9237559999994
 51
217.0125920000013
  0
ARC
  5
E4
330
2
100
AcDbEntity
  8
4
100
AcDbCircle
 10
177.3896918242381
 20
25.58431521382991
 30
0.0
 40
1.283133
100
AcDbArc
 50
286.9237430000014
 51
37.01255599999936
  0
ARC
  5
E5
330
2
100
AcDbEntity
  8
4
100
AcDbCircle
 10
177.3896918242381
 20
25.58431521382991
 30
0.0
 40
1.283133
100
AcDbArc
 50
286.9237430000014
 51
37.01255599999936
  0
ARC
  5
E6
330
2
100
AcDbEntity
  8
4
100
AcDbCircle
 10
178.691845824238
 20
29.58431521382991
 30
0.0
 40
1.283133
100
AcDbArc
 50
286.9237430000014
 51
37.01255599999936
  0
ARC
  5
E7
330
2
100
AcDbEntity
  8
4
100
AcDbCircle
 10
178.691845824238
 20
29.58431521382991
 30
0.0
 40
1.283133
100
AcDbArc
 50
286.9237430000014
 51
37.01255599999936
  0
ARC
  5
E8
330
2
100
AcDbEntity
  8
4
100
AcDbCircle
 10
179.4388708242381
 20
27.12917621382988
 30
0.0
 40
1.283133
100
AcDbArc
 50
106.9237559999994
 51
217.0125920000013
  0
ARC
  5
E9
330
2
100
AcDbEntity
  8
4
100
AcDbCircle
 10
179.4388708242381
 20
27.12917621382988
 30
0.0
 40
1.283133
100
AcDbArc
 50
106.9237559999994
 51
217.0125920000013
  0
ARC
  5
EA
330
2
100
AcDbEntity
  8
4
100
AcDbCircle
 10
141.3016178242381
 20
70.3567452138299
 30
0.0
 40
19.0
100
AcDbArc
 50
270.0
 51
90.0
  0
LINE
  5
EB
330
2
100
AcDbEntity
  8
4
100
AcDbLine
 10
129.3016178242381
 20
89.8567452138299
 30
0.0
 11
129.3016178242381
 21
87.0114323962861
 31
0.0
  0
LINE
  5
EC
330
2
100
AcDbEntity
  8
4
100
AcDbLine
 10
153.3016178242381
 20
89.8567452138299
 30
0.0
 11
153.3016178242381
 21
87.0114323962861
 31
0.0
  0
LINE
  5
ED
330
2
100
AcDbEntity
  8
4
100
AcDbLine
 10
182.7678901481204
 20
84.8567452138299
 30
0.0
 11
186.3016178242381
 21
84.8567452138299
 31
0.0
  0
ARC
  5
EE
330
2
100
AcDbEntity
  8
4
100
AcDbCircle
 10
182.7678901481204
 20
83.8567452138299
 30
0.0
 40
1.0
100
AcDbArc
 50
90.0
 51
184.5280630138078
  0
LINE
  5
F0
330
2
100
AcDbEntity
  8
4
100
AcDbLine
 10
111.8016178242381
 20
137.8563642138299
 30
0.0
 11
136.8016178242381
 21
137.8563642138299
 31
0.0
  0
LINE
  5
F1
330
2
100
AcDbEntity
  8
4
100
AcDbLine
 10
111.8016178242381
 20
141.8563642138299
 30
0.0
 11
136.8016178242381
 21
141.8563642138299
 31
0.0
  0
LINE
  5
F2
330
2
100
AcDbEntity
  8
4
100
AcDbLine
 10
112.8016178242381
 20
134.3565932138299
 30
0.0
 11
135.8016178242381
 21
134.3565932138299
 31
0.0
  0
LINE
  5
F3
330
2
100
AcDbEntity
  8
4
100
AcDbLine
 10
111.8016178242381
 20
135.8565932138299
 30
0.0
 11
136.8016178242381
 21
135.8565932138299
 31
0.0
  0
LINE
  5
F4
330
2
100
AcDbEntity
  8
4
100
AcDbLine
 10
110.3016178242381
 20
134.3567452138299
 30
0.0
 11
138.3016178242381
 21
134.3567452138299
 31
0.0
  0
LINE
  5
F5
330
2
100
AcDbEntity
  8
4
100
AcDbLine
 10
101.3016178242382
 20
133.3567452138299
 30
0.0
 11
181.3016178242381
 21
133.3567452138299
 31
0.0
  0
ARC
  5
F6
330
2
100
AcDbEntity
  8
4
100
AcDbCircle
 10
141.3016178242381
 20
-58.6432547861701
 30
0.0
 40
170.0
100
AcDbArc
 50
78.10726871754636
 51
101.8927312824536
  0
LINE
  5
F8
330
2
100
AcDbEntity
  8
L-CENTER
 48
0.25
100
AcDbLine
 10
124.3016178242381
 20
144.6534883608315
 30
0.0
 11
124.3016178242381
 21
128.3542834051046
 31
0.0
  0
LINE
  5
F9
330
2
100
AcDbEntity
  8
4
100
AcDbLine
 10
111.8016178242381
 20
135.8565932138299
 30
0.0
 11
111.8016178242381
 21
141.8563642138299
 31
0.0
  0
LINE
  5
FA
330
2
100
AcDbEntity
  8
4
100
AcDbLine
 10
96.30161782423806
 20
129.8567452138299
 30
0.0
 11
99.30161782423806
 21
129.8567452138299
 31
0.0
  0
LINE
  5
FB
330
2
100
AcDbEntity
  8
4
100
AcDbLine
 10
95.3017398242381
 20
123.3567452138299
 30
0.0
 11
95.3017398242381
 21
91.3567452138299
 31
0.0
  0
LINE
  5
FC
330
2
100
AcDbEntity
  8
4
100
AcDbLine
 10
96.3017398242381
 20
91.3567452138299
 30
0.0
 11
95.3017398242381
 21
91.3567452138299
 31
0.0
  0
LINE
  5
FD
330
2
100
AcDbEntity
  8
4
100
AcDbLine
 10
95.3017398242381
 20
123.3567452138299
 30
0.0
 11
96.3017398242381
 21
123.3567452138299
 31
0.0
  0
LINE
  5
FE
330
2
100
AcDbEntity
  8
4
100
AcDbLine
 10
100.3016178242381
 20
132.3567452138299
 30
0.0
 11
100.3016178242381
 21
112.3567452138299
 31
0.0
  0
ARC
  5
FF
330
2
100
AcDbEntity
  8
4
100
AcDbCircle
 10
106.8862499585722
 20
104.7721130794958
 30
0.0
 40
3.0
100
AcDbArc
 50
101.8927312824538
 51
168.1072687175457
  0
ARC
  5
100
330
2
100
AcDbEntity
  8
4
100
AcDbCircle
 10
99.30161782423806
 20
112.3567452138299
 30
0.0
 40
1.0
100
AcDbArc
 50
270.0
 51
0.0
  0
ARC
  5
101
330
2
100
AcDbEntity
  8
4
100
AcDbCircle
 10
126.3016178242381
 20
92.80668953447358
 30
0.0
 40
1.0
100
AcDbArc
 50
0.0
 51
123.7489885958898
  0
ARC
  5
102
330
2
100
AcDbEntity
  8
4
100
AcDbCircle
 10
128.3016178242381
 20
91.8567452138299
 30
0.0
 40
1.0
100
AcDbArc
 50
180.0
 51
270.0
  0
LINE
  5
103
330
2
100
AcDbEntity
  8
4
100
AcDbLine
 10
127.3016178242381
 20
92.80668953447358
 30
0.0
 11
127.3016178242381
 21
91.8567452138299
 31
0.0
  0
ARC
  5
104
330
2
100
AcDbEntity
  8
4
100
AcDbCircle
 10
99.30161782423806
 20
130.8567452138299
 30
0.0
 40
1.0
100
AcDbArc
 50
270.0
 51
0.0
  0
ARC
  5
105
330
2
100
AcDbEntity
  8
4
100
AcDbCircle
 10
101.3016178242381
 20
132.3567452138299
 30
0.0
 40
1.0
100
AcDbArc
 50
90.0
 51
180.0
  0
LINE
  5
106
330
2
100
AcDbEntity
  8
4
100
AcDbLine
 10
100.3016178242381
 20
132.3567452138299
 30
0.0
 11
100.3016178242381
 21
130.8567452138299
 31
0.0
  0
ARC
  5
107
330
2
100
AcDbEntity
  8
4
100
AcDbCircle
 10
109.3016178242381
 20
134.3567452138299
 30
0.0
 40
1.0
100
AcDbArc
 50
270.0
 51
0.0
  0
LINE
  5
108
330
2
100
AcDbEntity
  8
4
100
AcDbLine
 10
112.8016178242381
 20
134.3565932138299
 30
0.0
 11
112.8016178242381
 21
135.8565932138299
 31
0.0
  0
LINE
  5
10D
330
2
100
AcDbEntity
  8
4
100
AcDbLine
 10
118.0516178242381
 20
137.8563642138299
 30
0.0
 11
118.0516178242381
 21
141.8563642138299
 31
0.0
  0
LINE
  5
10E
330
2
100
AcDbEntity
  8
4
100
AcDbLine
 10
136.8016178242381
 20
135.8565932138299
 30
0.0
 11
136.8016178242381
 21
141.8563642138299
 31
0.0
  0
LINE
  5
10F
330
2
100
AcDbEntity
  8
4
100
AcDbLine
 10
144.3016178242381
 20
97.8567452138299
 30
0.0
 11
145.3016178242381
 21
97.8567452138299
 31
0.0
  0
LINE
  5
110
330
2
100
AcDbEntity
  8
4
100
AcDbLine
 10
144.3016178242381
 20
95.8567452138299
 30
0.0
 11
145.3016178242381
 21
95.8567452138299
 31
0.0
  0
ARC
  5
111
330
2
100
AcDbEntity
  8
4
100
AcDbCircle
 10
136.8016178242381
 20
100.3567452138299
 30
0.0
 40
0.5
100
AcDbArc
 50
90.0
 51
180.0
  0
ARC
  5
112
330
2
100
AcDbEntity
  8
4
100
AcDbCircle
 10
136.8016178242381
 20
93.3567452138299
 30
0.0
 40
0.5
100
AcDbArc
 50
180.0
 51
270.0
  0
LINE
  5
113
330
2
100
AcDbEntity
  8
4
100
AcDbLine
 10
131.3016178242381
 20
100.3567452138299
 30
0.0
 11
131.3016178242381
 21
95.3567452138299
 31
0.0
  0
ARC
  5
114
330
2
100
AcDbEntity
  8
4
100
AcDbCircle
 10
130.8016178242381
 20
100.3567452138299
 30
0.0
 40
0.5
100
AcDbArc
 50
0.0
 51
90.0
  0
LINE
  5
115
330
2
100
AcDbEntity
  8
4
100
AcDbLine
 10
130.8016178242381
 20
100.8567452138299
 30
0.0
 11
129.8016178242381
 21
100.8567452138299
 31
0.0
  0
ARC
  5
116
330
2
100
AcDbEntity
  8
4
100
AcDbCircle
 10
129.8016178242381
 20
100.3567452138299
 30
0.0
 40
0.5
100
AcDbArc
 50
90.0
 51
180.0
  0
ARC
  5
117
330
2
100
AcDbEntity
  8
4
100
AcDbCircle
 10
134.3016178242381
 20
93.3567452138299
 30
0.0
 40
0.5
100
AcDbArc
 50
270.0
 51
0.0
  0
LINE
  5
118
330
2
100
AcDbEntity
  8
4
100
AcDbLine
 10
134.3016178242381
 20
92.8567452138299
 30
0.0
 11
129.8016178242381
 21
92.8567452138299
 31
0.0
  0
LINE
  5
119
330
2
100
AcDbEntity
  8
4
100
AcDbLine
 10
134.3016178242381
 20
94.8567452138299
 30
0.0
 11
131.8016178242381
 21
94.8567452138299
 31
0.0
  0
LINE
  5
11A
330
2
100
AcDbEntity
  8
4
100
AcDbLine
 10
134.8016178242381
 20
94.3567452138299
 30
0.0
 11
134.8016178242381
 21
93.3567452138299
 31
0.0
  0
ARC
  5
11B
330
2
100
AcDbEntity
  8
4
100
AcDbCircle
 10
129.8016178242381
 20
93.3567452138299
 30
0.0
 40
0.5
100
AcDbArc
 50
180.0
 51
270.0
  0
LINE
  5
11C
330
2
100
AcDbEntity
  8
4
100
AcDbLine
 10
136.3016178242381
 20
100.3567452138299
 30
0.0
 11
136.3016178242381
 21
93.3567452138299
 31
0.0
  0
LINE
  5
11D
330
2
100
AcDbEntity
  8
4
100
AcDbLine
 10
129.3016178242381
 20
100.3567452138299
 30
0.0
 11
129.3016178242381
 21
93.3567452138299
 31
0.0
  0
ARC
  5
11E
330
2
100
AcDbEntity
  8
4
100
AcDbCircle
 10
131.8016178242381
 20
95.3567452138299
 30
0.0
 40
0.5
100
AcDbArc
 50
180.0
 51
270.0
  0
ARC
  5
11F
330
2
100
AcDbEntity
  8
4
100
AcDbCircle
 10
134.3016178242381
 20
94.3567452138299
 30
0.0
 40
0.5
100
AcDbArc
 50
0.0
 51
90.0
  0
ARC
  5
120
330
2
100
AcDbEntity
  8
4
100
AcDbCircle
 10
140.8016178242381
 20
98.3567452138299
 30
0.0
 40
1.5
100
AcDbArc
 50
323.1301023541586
 51
0.0
  0
ARC
  5
121
330
2
100
AcDbEntity
  8
4
100
AcDbCircle
 10
140.8016178242382
 20
95.3567452138299
 30
0.0
 40
1.5
100
AcDbArc
 50
0.0
 51
36.86989764584533
  0
ARC
  5
122
330
2
100
AcDbEntity
  8
4
100
AcDbCircle
 10
142.8016178242382
 20
96.85674521383001
 30
0.0
 40
1.0
100
AcDbArc
 50
143.1301023541579
 51
216.8698976458456
  0
ARC
  5
123
330
2
100
AcDbEntity
  8
4
100
AcDbCircle
 10
140.8016178242381
 20
99.3567452138299
 30
0.0
 40
1.5
100
AcDbArc
 50
0.0
 51
70.52877936550945
  0
LINE
  5
124
330
2
100
AcDbEntity
  8
4
100
AcDbLine
 10
142.3016178242381
 20
98.3567452138299
 30
0.0
 11
142.3016178242381
 21
99.3567452138299
 31
0.0
  0
ARC
  5
125
330
2
100
AcDbEntity
  8
4
100
AcDbCircle
 10
140.8016178242381
 20
99.3567452138299
 30
0.0
 40
1.5
100
AcDbArc
 50
70.52877936550945
 51
90.0
  0
ARC
  5
126
330
2
100
AcDbEntity
  8
4
100
AcDbCircle
 10
144.3016178242381
 20
97.3567452138299
 30
0.0
 40
0.5
100
AcDbArc
 50
90.0
 51
180.0
  0
ARC
  5
127
330
2
100
AcDbEntity
  8
4
100
AcDbCircle
 10
144.3016178242381
 20
96.3567452138299
 30
0.0
 40
0.5
100
AcDbArc
 50
180.0
 51
270.0
  0
LINE
  5
128
330
2
100
AcDbEntity
  8
4
100
AcDbLine
 10
143.8016178242381
 20
97.3567452138299
 30
0.0
 11
143.8016178242381
 21
96.3567452138299
 31
0.0
  0
LINE
  5
129
330
2
100
AcDbEntity
  8
4
100
AcDbLine
 10
140.8016178242381
 20
100.8567452138299
 30
0.0
 11
136.8016178242381
 21
100.8567452138299
 31
0.0
  0
ARC
  5
12A
330
2
100
AcDbEntity
  8
4
100
AcDbCircle
 10
140.8016178242381
 20
94.3567452138299
 30
0.0
 40
1.5
100
AcDbArc
 50
270.0
 51
289.4712206344905
  0
ARC
  5
12B
330
2
100
AcDbEntity
  8
4
100
AcDbCircle
 10
140.8016178242381
 20
94.3567452138299
 30
0.0
 40
1.5
100
AcDbArc
 50
289.4712206344905
 51
0.0
  0
LINE
  5
12C
330
2
100
AcDbEntity
  8
4
100
AcDbLine
 10
140.8016178242381
 20
92.8567452138299
 30
0.0
 11
136.8016178242381
 21
92.8567452138299
 31
0.0
  0
LINE
  5
12D
330
2
100
AcDbEntity
  8
4
100
AcDbLine
 10
142.3016178242382
 20
94.3567452138299
 30
0.0
 11
142.3016178242382
 21
95.35674521383001
 31
0.0
  0
ARC
  5
12E
330
2
100
AcDbEntity
  8
4
100
AcDbCircle
 10
150.3016178242381
 20
97.8567452138299
 30
0.0
 40
3.0
100
AcDbArc
 50
0.0
 51
180.0
  0
ARC
  5
12F
330
2
100
AcDbEntity
  8
4
100
AcDbCircle
 10
150.3016178242381
 20
95.8567452138299
 30
0.0
 40
3.0
100
AcDbArc
 50
180.0
 51
359.4444324220575
  0
LINE
  5
130
330
2
100
AcDbEntity
  8
4
100
AcDbLine
 10
147.3016178242381
 20
97.8567452138299
 30
0.0
 11
147.3016178242381
 21
95.8567452138299
 31
0.0
  0
LINE
  5
131
330
2
100
AcDbEntity
  8
4
100
AcDbLine
 10
145.8016178242381
 20
97.3567452138299
 30
0.0
 11
145.8016178242381
 21
96.3567452138299
 31
0.0
  0
ARC
  5
132
330
2
100
AcDbEntity
  8
4
100
AcDbCircle
 10
145.3016178242381
 20
97.3567452138299
 30
0.0
 40
0.5
100
AcDbArc
 50
0.0
 51
90.0
  0
ARC
  5
133
330
2
100
AcDbEntity
  8
4
100
AcDbCircle
 10
145.3016178242381
 20
96.3567452138299
 30
0.0
 40
0.5
100
AcDbArc
 50
270.0
 51
0.0
  0
LINE
  5
134
330
2
100
AcDbEntity
  8
4
100
AcDbLine
 10
155.3016178242381
 20
92.80668953447358
 30
0.0
 11
155.3016178242381
 21
91.8567452138299
 31
0.0
  0
LINE
  5
135
330
2
100
AcDbEntity
  8
4
100
AcDbLine
 10
153.3016178242381
 20
97.8567452138299
 30
0.0
 11
153.3016178242381
 21
95.8567452138299
 31
0.0
  0
ARC
  5
136
330
2
100
AcDbEntity
  8
4
100
AcDbCircle
 10
154.3016178242381
 20
91.8567452138299
 30
0.0
 40
1.0
100
AcDbArc
 50
270.0
 51
0.0
  0
ARC
  5
137
330
2
100
AcDbEntity
  8
4
100
AcDbCircle
 10
156.3016178242381
 20
92.80668953447358
 30
0.0
 40
1.0
100
AcDbArc
 50
56.25101140411023
 51
180.0
  0
LINE
  5
138
330
2
100
AcDbEntity
  8
4
100
AcDbLine
 10
135.8016178242381
 20
134.3565932138299
 30
0.0
 11
135.8016178242381
 21
135.8565932138299
 31
0.0
  0
ARC
  5
139
330
2
100
AcDbEntity
  8
4
100
AcDbCircle
 10
139.3016178242381
 20
134.3567452138298
 30
0.0
 40
1.0
100
AcDbArc
 50
180.0
 51
270.0
  0
LINE
  5
13A
330
2
100
AcDbEntity
  8
4
100
AcDbLine
 10
187.3016178242381
 20
123.3567452138299
 30
0.0
 11
187.3016178242381
 21
91.3567452138299
 31
0.0
  0
LINE
  5
13B
330
2
100
AcDbEntity
  8
4
100
AcDbLine
 10
182.3016178242381
 20
132.3567452138299
 30
0.0
 11
182.3016178242381
 21
112.3567452138299
 31
0.0
  0
ARC
  5
13C
330
2
100
AcDbEntity
  8
4
100
AcDbCircle
 10
175.7169856899039
 20
104.7721130794958
 30
0.0
 40
3.0
100
AcDbArc
 50
11.89273128245432
 51
78.10726871754623
  0
LINE
  5
13D
330
2
100
AcDbEntity
  8
4
100
AcDbLine
 10
186.3016178242381
 20
91.3567452138299
 30
0.0
 11
187.3016178242381
 21
91.3567452138299
 31
0.0
  0
ARC
  5
13E
330
2
100
AcDbEntity
  8
4
100
AcDbCircle
 10
183.3016178242381
 20
112.3567452138299
 30
0.0
 40
1.0
100
AcDbArc
 50
180.0
 51
270.0
  0
LINE
  5
13F
330
2
100
AcDbEntity
  8
4
100
AcDbLine
 10
187.3016178242381
 20
123.3567452138299
 30
0.0
 11
186.3016178242381
 21
123.3567452138299
 31
0.0
  0
LINE
  5
140
330
2
100
AcDbEntity
  8
4
100
AcDbLine
 10
183.3016178242381
 20
129.8567452138299
 30
0.0
 11
186.3016178242381
 21
129.8567452138299
 31
0.0
  0
LINE
  5
141
330
2
100
AcDbEntity
  8
4
100
AcDbLine
 10
182.3016178242381
 20
132.3567452138299
 30
0.0
 11
182.3016178242381
 21
130.8567452138299
 31
0.0
  0
ARC
  5
142
330
2
100
AcDbEntity
  8
4
100
AcDbCircle
 10
183.3016178242381
 20
130.8567452138299
 30
0.0
 40
1.0
100
AcDbArc
 50
180.0
 51
270.0
  0
ARC
  5
143
330
2
100
AcDbEntity
  8
4
100
AcDbCircle
 10
181.3016178242381
 20
132.3567452138299
 30
0.0
 40
1.0
100
AcDbArc
 50
0.0
 51
90.0
  0
LINE
  5
146
330
2
100
AcDbEntity
  8
4
100
AcDbLine
 10
130.5516178242381
 20
137.8563642138299
 30
0.0
 11
130.5516178242381
 21
141.8563642138299
 31
0.0
  0
ARC
  5
155
330
2
100
AcDbEntity
  8
4
100
AcDbCircle
 10
269.5698443785768
 20
111.3567452138299
 30
0.0
 40
1.0
100
AcDbArc
 50
270.0
 51
0.0
  0
LINE
  5
158
330
2
100
AcDbEntity
  8
L-CENTER
 48
0.25
100
AcDbLine
 10
367.990994119428
 20
70.3567452138299
 30
0.0
 11
256.2238840801131
 21
70.3567452138299
 31
0.0
  0
LINE
  5
159
330
2
100
AcDbEntity
  8
L-CENTER
 48
0.25
100
AcDbLine
 10
322.4304594008088
 20
107.3567452138299
 30
0.0
 11
268.7092293563446
 21
107.3567452138299
 31
0.0
  0
LINE
  5
15A
330
2
100
AcDbEntity
  8
4
100
AcDbLine
 10
261.5698443785767
 20
30.3567452138299
 30
0.0
 11
329.5698443785767
 21
30.3567452138299
 31
0.0
  0
LINE
  5
15B
330
2
100
AcDbEntity
  8
4
100
AcDbLine
 10
260.5698443785767
 20
20.3567452138299
 30
0.0
 11
330.5698443785767
 21
20.3567452138299
 31
0.0
  0
LINE
  5
15C
330
2
100
AcDbEntity
  8
4
100
AcDbLine
 10
259.3603152898459
 20
89.52613183767326
 30
0.0
 11
263.9889025560385
 21
90.51797196614305
 31
0.0
  0
LINE
  5
160
330
2
100
AcDbEntity
  8
4
100
AcDbLine
 10
265.5698443785767
 20
109.3567452138299
 30
0.0
 11
265.5698443785767
 21
31.3567452138299
 31
0.0
  0
LINE
  5
164
330
2
100
AcDbEntity
  8
4
100
AcDbLine
 10
196.3016178242381
 20
29.3567452138299
 30
0.0
 11
196.3016178242382
 21
20.3567452138299
 31
0.0
  0
ARC
  5
169
330
2
100
AcDbEntity
  8
4
100
AcDbCircle
 10
195.3016178242381
 20
29.3567452138299
 30
0.0
 40
1.0
100
AcDbArc
 50
0.0
 51
90.0
  0
LINE
  5
175
330
2
100
AcDbEntity
  8
4
100
AcDbLine
 10
260.5698443785767
 20
29.3567452138299
 30
0.0
 11
260.5698443785767
 21
20.3567452138299
 31
0.0
  0
ARC
  5
176
330
2
100
AcDbEntity
  8
4
100
AcDbCircle
 10
261.5698443785767
 20
29.3567452138299
 30
0.0
 40
1.0
100
AcDbArc
 50
90.0
 51
180.0
  0
ARC
  5
177
330
2
100
AcDbEntity
  8
4
100
AcDbCircle
 10
266.5698443785767
 20
31.3567452138299
 30
0.0
 40
1.0
100
AcDbArc
 50
180.0
 51
270.0
  0
LINE
  5
17E
330
2
100
AcDbEntity
  8
4
100
AcDbLine
 10
258.5698443785767
 20
88.5483294235959
 30
0.0
 11
258.5698443785767
 21
52.18667150108607
 31
0.0
  0
LINE
  5
17F
330
2
100
AcDbEntity
  8
4
100
AcDbLine
 10
259.3603152898459
 20
51.18735858998653
 30
0.0
 11
263.9889025560385
 21
50.19551846151674
 31
0.0
  0
ARC
  5
180
330
2
100
AcDbEntity
  8
4
100
AcDbCircle
 10
259.5698443785767
 20
52.18667150108607
 30
0.0
 40
1.0
100
AcDbArc
 50
180.0
 51
259.380344723844
  0
ARC
  5
181
330
2
100
AcDbEntity
  8
4
100
AcDbCircle
 10
263.5698443785767
 20
48.23991363336179
 30
0.0
 40
2.0
100
AcDbArc
 50
0.0
 51
77.90524292298791
  0
ARC
  5
182
330
2
100
AcDbEntity
  8
4
100
AcDbCircle
 10
259.5698443785767
 20
88.5483294235959
 30
0.0
 40
1.0
100
AcDbArc
 50
102.0947570770105
 51
180.0
  0
LINE
  5
184
330
2
100
AcDbEntity
  8
4
100
AcDbLine
 10
82.30161782423806
 20
101.3567452138299
 30
0.0
 11
82.30161782423806
 21
113.3567452138299
 31
0.0
  0
LINE
  5
186
330
2
100
AcDbEntity
  8
4
100
AcDbLine
 10
60.30161782423806
 20
111.3567452138299
 30
0.0
 11
79.30161782423806
 21
111.3567452138299
 31
0.0
  0
LINE
  5
187
330
2
100
AcDbEntity
  8
4
100
AcDbLine
 10
82.30161782423806
 20
102.3567452138299
 30
0.0
 11
60.80161782423806
 21
102.3567452138299
 31
0.0
  0
LINE
  5
188
330
2
100
AcDbEntity
  8
4
100
AcDbLine
 10
80.30161782423806
 20
112.3567452138299
 30
0.0
 11
82.30161782423806
 21
112.3567452138299
 31
0.0
  0
ARC
  5
189
330
2
100
AcDbEntity
  8
4
100
AcDbCircle
 10
79.30161782423806
 20
112.3567452138299
 30
0.0
 40
1.0
100
AcDbArc
 50
270.0
 51
0.0
  0
LINE
  5
18A
330
2
100
AcDbEntity
  8
4
100
AcDbLine
 10
60.30161782423806
 20
102.8567452138299
 30
0.0
 11
60.80161782423806
 21
102.3567452138299
 31
0.0
  0
LINE
  5
18B
330
2
100
AcDbEntity
  8
4
100
AcDbLine
 10
60.30161782423806
 20
111.3567452138299
 30
0.0
 11
60.30161782423806
 21
102.8567452138299
 31
0.0
  0
LINE
  5
18C
330
2
100
AcDbEntity
  8
4
100
AcDbLine
 10
60.80161782423806
 20
111.3567452138299
 30
0.0
 11
60.80161782423806
 21
102.3567452138299
 31
0.0
  0
ARC
  5
1A0
330
2
100
AcDbEntity
  8
4
100
AcDbCircle
 10
263.5698443785767
 20
92.473576794298
 30
0.0
 40
2.0
100
AcDbArc
 50
282.0947570770121
 51
0.0
  0
LINE
  5
1A1
330
2
100
AcDbEntity
  8
4
100
AcDbLine
 10
266.5698443785767
 20
110.3567452138299
 30
0.0
 11
269.5698443785768
 21
110.3567452138299
 31
0.0
  0
ARC
  5
1A2
330
2
100
AcDbEntity
  8
4
100
AcDbCircle
 10
266.5698443785767
 20
109.3567452138299
 30
0.0
 40
1.0
100
AcDbArc
 50
90.0
 51
180.0
  0
LINE
  5
1AB
330
2
100
AcDbEntity
  8
4
100
AcDbLine
 10
328.5698443785766
 20
31.3567452138299
 30
0.0
 11
328.5698443785767
 21
109.3567452138299
 31
0.0
  0
LINE
  5
1AC
330
2
100
AcDbEntity
  8
4
100
AcDbLine
 10
319.4875885898097
 20
112.3236326310485
 30
0.0
 11
319.4875885898097
 21
30.3567452138299
 31
0.0
  0
LINE
  5
1AD
330
2
100
AcDbEntity
  8
4
100
AcDbLine
 10
320.5698443785767
 20
111.3567452138299
 30
0.0
 11
320.5698443785768
 21
30.3567452138299
 31
0.0
  0
LINE
  5
1AE
330
2
100
AcDbEntity
  8
4
100
AcDbLine
 10
324.0698443785767
 20
110.3567452138298
 30
0.0
 11
324.0698443785767
 21
30.3567452138299
 31
0.0
  0
LINE
  5
1AF
330
2
100
AcDbEntity
  8
L-CENTER
 48
0.25
100
AcDbLine
 10
295.5698443785767
 20
16.75572157310776
 30
0.0
 11
295.5698443785767
 21
143.4273439498127
 31
0.0
  0
LINE
  5
1B0
330
2
100
AcDbEntity
  8
4
100
AcDbLine
 10
271.6231871967642
 20
111.3567452138299
 30
0.0
 11
271.6231871967641
 21
30.3567452138299
 31
0.0
  0
LINE
  5
1B1
330
2
100
AcDbEntity
  8
4
100
AcDbLine
 10
270.5698443785768
 20
111.3567452138299
 30
0.0
 11
270.5698443785768
 21
30.3567452138299
 31
0.0
  0
CIRCLE
  5
1B2
330
2
100
AcDbEntity
  8
4
100
AcDbCircle
 10
295.5698443785767
 20
107.3567452138299
 30
0.0
 40
22.5
  0
LINE
  5
1B3
330
2
100
AcDbEntity
  8
L-CENTER
 48
0.25
100
AcDbLine
 10
336.9730339931262
 20
45.60801121382988
 30
0.0
 11
317.5403253785767
 21
45.60801121382988
 31
0.0
  0
LINE
  5
1B4
330
2
100
AcDbEntity
  8
4
100
AcDbLine
 10
334.8698443785766
 20
41.35801121382988
 30
0.0
 11
328.5698443785766
 21
41.35801121382988
 31
0.0
  0
LINE
  5
1B5
330
2
100
AcDbEntity
  8
4
100
AcDbLine
 10
334.8698443785766
 20
49.85801121382988
 30
0.0
 11
328.5698443785766
 21
49.85801121382988
 31
0.0
  0
LINE
  5
1B6
330
2
100
AcDbEntity
  8
4
100
AcDbLine
 10
333.5698443785767
 20
77.85674521383001
 30
0.0
 11
340.5698443785767
 21
77.85674521383001
 31
0.0
  0
LINE
  5
1B7
330
2
100
AcDbEntity
  8
4
100
AcDbLine
 10
333.5698443785767
 20
62.85674521383001
 30
0.0
 11
365.0698443785767
 21
62.85674521383001
 31
0.0
  0
LINE
  5
1B8
330
2
100
AcDbEntity
  8
4
100
AcDbLine
 10
329.8698443785766
 20
41.35801121382988
 30
0.0
 11
329.8698443785766
 21
49.85801121382988
 31
0.0
  0
LINE
  5
1BA
330
2
100
AcDbEntity
  8
L-CENTER
 48
0.25
100
AcDbLine
 10
270.5698443785766
 20
17.20197623716551
 30
0.0
 11
270.5698443785767
 21
33.41091024298159
 31
0.0
  0
LINE
  5
1BE
330
2
100
AcDbEntity
  8
4
100
AcDbLine
 10
330.5698443785767
 20
29.3567452138299
 30
0.0
 11
330.5698443785767
 21
20.3567452138299
 31
0.0
  0
LINE
  5
1BF
330
2
100
AcDbEntity
  8
L-CENTER
 48
0.25
100
AcDbLine
 10
320.5698443785767
 20
17.20197623716551
 30
0.0
 11
320.5698443785766
 21
33.41091024298159
 31
0.0
  0
LINE
  5
1C2
330
2
100
AcDbEntity
  8
4
100
AcDbLine
 10
327.5698443785766
 20
30.3567452138299
 30
0.0
 11
324.3698443785767
 21
30.3567452138299
 31
0.0
  0
ARC
  5
1C3
330
2
100
AcDbEntity
  8
4
100
AcDbCircle
 10
329.5698443785767
 20
29.3567452138299
 30
0.0
 40
1.0
100
AcDbArc
 50
0.0
 51
90.0
  0
ARC
  5
1C4
330
2
100
AcDbEntity
  8
4
100
AcDbCircle
 10
327.5698443785766
 20
31.3567452138299
 30
0.0
 40
1.0
100
AcDbArc
 50
270.0
 51
0.0
  0
ARC
  5
1C5
330
2
100
AcDbEntity
  8
4
100
AcDbCircle
 10
327.5698443785766
 20
31.3567452138299
 30
0.0
 40
1.0
100
AcDbArc
 50
270.0
 51
0.0
  0
LINE
  5
1C6
330
2
100
AcDbEntity
  8
4
100
AcDbLine
 10
332.5698443785766
 20
55.12407221382992
 30
0.0
 11
332.5698443785766
 21
85.58941821382987
 31
0.0
  0
LINE
  5
1C7
330
2
100
AcDbEntity
  8
4
100
AcDbLine
 10
332.5698443785766
 20
55.12407221382992
 30
0.0
 11
332.5698443785766
 21
85.58941821382987
 31
0.0
  0
LINE
  5
1C8
330
2
100
AcDbEntity
  8
4
100
AcDbLine
 10
333.5698443785767
 20
82.35674521383001
 30
0.0
 11
333.5698443785767
 21
58.35674521383001
 31
0.0
  0
LINE
  5
1C9
330
2
100
AcDbEntity
  8
2
100
AcDbLine
 10
328.5698443785766
 20
45.60801121382988
 30
0.0
 11
329.8698443785766
 21
44.30801121382993
 31
0.0
  0
LINE
  5
1CA
330
2
100
AcDbEntity
  8
2
100
AcDbLine
 10
328.5698443785766
 20
47.44648884491485
 30
0.0
 11
329.8698443785767
 21
46.14648884491478
 31
0.0
  0
LINE
  5
1CB
330
2
100
AcDbEntity
  8
4
100
AcDbLine
 10
329.3110253785766
 20
53.48354721382989
 30
0.0
 11
331.8286643785766
 21
54.15814621382995
 31
0.0
  0
LINE
  5
1CC
330
2
100
AcDbEntity
  8
4
100
AcDbLine
 10
329.3110253785766
 20
53.48354721382989
 30
0.0
 11
331.8286643785766
 21
54.15814621382995
 31
0.0
  0
ARC
  5
1CD
330
2
100
AcDbEntity
  8
4
100
AcDbCircle
 10
329.5698443785766
 20
52.51762121382993
 30
0.0
 40
1.0
100
AcDbArc
 50
104.999999999998
 51
180.0
  0
ARC
  5
1CE
330
2
100
AcDbEntity
  8
4
100
AcDbCircle
 10
329.5698443785766
 20
52.51762121382993
 30
0.0
 40
1.0
100
AcDbArc
 50
104.999999999998
 51
180.0
  0
ARC
  5
1CF
330
2
100
AcDbEntity
  8
4
100
AcDbCircle
 10
331.5698443785766
 20
55.12407221382992
 30
0.0
 40
1.0
100
AcDbArc
 50
284.999999999998
 51
0.0
  0
LINE
  5
1D0
330
2
100
AcDbEntity
  8
4
100
AcDbLine
 10
333.5698443785767
 20
58.35674521383001
 30
0.0
 11
332.5698443785767
 21
58.35674521383001
 31
0.0
  0
LINE
  5
1D1
330
2
100
AcDbEntity
  8
4
100
AcDbLine
 10
329.3110253785766
 20
87.2299432138299
 30
0.0
 11
331.8286643785766
 21
86.55534421382984
 31
0.0
  0
LINE
  5
1D2
330
2
100
AcDbEntity
  8
4
100
AcDbLine
 10
329.3110253785766
 20
87.2299432138299
 30
0.0
 11
331.8286643785766
 21
86.55534421382984
 31
0.0
  0
ARC
  5
1D3
330
2
100
AcDbEntity
  8
4
100
AcDbCircle
 10
329.5698443785766
 20
88.19586921382987
 30
0.0
 40
1.0
100
AcDbArc
 50
180.0
 51
255.0000000000019
  0
ARC
  5
1D4
330
2
100
AcDbEntity
  8
4
100
AcDbCircle
 10
329.5698443785766
 20
88.19586921382987
 30
0.0
 40
1.0
100
AcDbArc
 50
180.0
 51
255.0000000000019
  0
LINE
  5
1D5
330
2
100
AcDbEntity
  8
4
100
AcDbLine
 10
333.5698443785767
 20
82.35674521383001
 30
0.0
 11
332.5698443785767
 21
82.35674521383001
 31
0.0
  0
ARC
  5
1D6
330
2
100
AcDbEntity
  8
4
100
AcDbCircle
 10
331.5698443785766
 20
85.58941821382987
 30
0.0
 40
1.0
100
AcDbArc
 50
0.0
 51
75.00000000000199
  0
ARC
  5
1D7
330
2
100
AcDbEntity
  8
4
100
AcDbCircle
 10
331.5698443785766
 20
85.58941821382987
 30
0.0
 40
1.0
100
AcDbArc
 50
0.0
 51
75.00000000000199
  0
LINE
  5
1D9
330
2
100
AcDbEntity
  8
4
100
AcDbLine
 10
334.8698443785766
 20
41.35801121382988
 30
0.0
 11
334.8698443785766
 21
49.85801121382988
 31
0.0
  0
LINE
  5
1DF
330
2
100
AcDbEntity
  8
4
100
AcDbLine
 10
365.0698443785767
 20
76.85674521383001
 30
0.0
 11
365.0698443785767
 21
62.85674521383001
 31
0.0
  0
LINE
  5
1E0
330
2
100
AcDbEntity
  8
4
100
AcDbLine
 10
365.5698443785767
 20
76.85674521383001
 30
0.0
 11
365.5698443785767
 21
63.35674521383001
 31
0.0
  0
LINE
  5
1E1
330
2
100
AcDbEntity
  8
4
100
AcDbLine
 10
365.5698443785767
 20
63.35674521383001
 30
0.0
 11
365.0698443785767
 21
62.85674521383001
 31
0.0
  0
LINE
  5
1E2
330
2
100
AcDbEntity
  8
4
100
AcDbLine
 10
365.5698443785767
 20
76.85674521383001
 30
0.0
 11
341.5698443785767
 21
76.85674521383001
 31
0.0
  0
ARC
  5
1E3
330
2
100
AcDbEntity
  8
4
100
AcDbCircle
 10
341.5698443785767
 20
77.85674521383001
 30
0.0
 40
1.0
100
AcDbArc
 50
180.0
 51
270.0
  0
LINE
  5
1E7
330
2
100
AcDbEntity
  8
4
100
AcDbLine
 10
334.8698443785766
 20
90.85547921382991
 30
0.0
 11
328.5698443785766
 21
90.85547921382991
 31
0.0
  0
LINE
  5
1E8
330
2
100
AcDbEntity
  8
4
100
AcDbLine
 10
334.8698443785766
 20
99.35547921382991
 30
0.0
 11
328.5698443785766
 21
99.35547921382991
 31
0.0
  0
LINE
  5
1E9
330
2
100
AcDbEntity
  8
L-CENTER
 48
0.25
100
AcDbLine
 10
336.9730339931262
 20
95.10547921382991
 30
0.0
 11
317.5403253785767
 21
95.10547921382991
 31
0.0
  0
LINE
  5
1EC
330
2
100
AcDbEntity
  8
4
100
AcDbLine
 10
308.0698443785767
 20
134.8567452138299
 30
0.0
 11
308.0698443785767
 21
136.8565162138299
 31
0.0
  0
LINE
  5
1ED
330
2
100
AcDbEntity
  8
4
100
AcDbLine
 10
283.0698443785767
 20
134.8567452138299
 30
0.0
 11
283.0698443785767
 21
136.8565162138299
 31
0.0
  0
LINE
  5
1EE
330
2
100
AcDbEntity
  8
4
100
AcDbLine
 10
308.0698443785767
 20
134.8567452138299
 30
0.0
 11
283.0698443785767
 21
134.8567452138299
 31
0.0
  0
LINE
  5
1EF
330
2
100
AcDbEntity
  8
4
100
AcDbLine
 10
309.5698443785768
 20
133.3567452138299
 30
0.0
 11
281.5698443785768
 21
133.3567452138299
 31
0.0
  0
CIRCLE
  5
1F0
330
2
100
AcDbEntity
  8
4
100
AcDbCircle
 10
295.5698443785767
 20
107.3567452138299
 30
0.0
 40
16.0
  0
LINE
  5
1F1
330
2
100
AcDbEntity
  8
4
100
AcDbLine
 10
307.0698443785767
 20
133.3567452138299
 30
0.0
 11
284.0698443785767
 21
133.3567452138299
 31
0.0
  0
ARC
  5
1F2
330
2
100
AcDbEntity
  8
4
100
AcDbCircle
 10
421.5698443785767
 20
107.3567452138298
 30
0.0
 40
150.0
100
AcDbArc
 50
171.9064509658834
 51
178.4719314053905
  0
LINE
  5
1F4
330
2
100
AcDbEntity
  8
4
100
AcDbLine
 10
270.5698443785768
 20
111.3567452138299
 30
0.0
 11
270.5698443785768
 21
111.3567452138299
 31
0.0
  0
LINE
  5
1F5
330
2
100
AcDbEntity
  8
4
100
AcDbLine
 10
270.5698443785767
 20
111.3567452138299
 30
0.0
 11
271.6231871967642
 21
111.3567452138299
 31
0.0
  0
ARC
  5
1F8
330
2
100
AcDbEntity
  8
4
100
AcDbCircle
 10
295.5698443785767
 20
-17.6432547861701
 30
0.0
 40
150.0
100
AcDbArc
 50
95.70103636904439
 51
97.63701137381024
  0
ARC
  5
1F9
330
2
100
AcDbEntity
  8
4
100
AcDbCircle
 10
276.0340355861239
 20
128.0528404766224
 30
0.0
 40
3.0
100
AcDbArc
 50
97.6370113738089
 51
171.9064509658833
  0
LINE
  5
1FA
330
2
100
AcDbEntity
  8
4
100
AcDbLine
 10
284.0698443785767
 20
133.3567452138299
 30
0.0
 11
284.0698443785767
 21
134.8567452138299
 31
0.0
  0
LINE
  5
1FB
330
2
100
AcDbEntity
  8
4
100
AcDbLine
 10
281.5698443785768
 20
132.6098649817735
 30
0.0
 11
281.5698443785768
 21
133.3567452138299
 31
0.0
  0
ARC
  5
1FC
330
2
100
AcDbEntity
  8
4
100
AcDbCircle
 10
280.5698443785767
 20
132.6098649817735
 30
0.0
 40
1.0
100
AcDbArc
 50
275.7010363690458
 51
0.0
  0
ARC
  5
1FD
330
2
100
AcDbEntity
  8
4
100
AcDbCircle
 10
169.5698443785767
 20
107.3567452138299
 30
0.0
 40
150.0
100
AcDbArc
 50
1.897558110703246
 51
8.386140400203697
  0
LINE
  5
1FE
330
2
100
AcDbEntity
  8
2
100
AcDbLine
 10
328.5698443785766
 20
93.26700158274494
 30
0.0
 11
329.8698443785767
 21
94.56700158274501
 31
0.0
  0
LINE
  5
1FF
330
2
100
AcDbEntity
  8
2
100
AcDbLine
 10
328.5698443785766
 20
95.10547921382991
 30
0.0
 11
329.8698443785766
 21
96.40547921382986
 31
0.0
  0
LINE
  5
200
330
2
100
AcDbEntity
  8
4
100
AcDbLine
 10
329.8698443785766
 20
99.35547921382991
 30
0.0
 11
329.8698443785766
 21
90.85547921382991
 31
0.0
  0
LINE
  5
201
330
2
100
AcDbEntity
  8
4
100
AcDbLine
 10
328.5698443785766
 20
90.38065753378547
 30
0.0
 11
328.5698443785766
 21
99.61826184081943
 31
0.0
  0
LINE
  5
202
330
2
100
AcDbEntity
  8
4
100
AcDbLine
 10
327.5698443785766
 20
110.3567452138299
 30
0.0
 11
324.0698443785767
 21
110.3567452138299
 31
0.0
  0
LINE
  5
203
330
2
100
AcDbEntity
  8
4
100
AcDbLine
 10
321.5698443785767
 20
110.3567452138299
 30
0.0
 11
324.0698443785767
 21
110.3567452138299
 31
0.0
  0
LINE
  5
204
330
2
100
AcDbEntity
  8
4
100
AcDbLine
 10
320.4870402178846
 20
111.3567452138299
 30
0.0
 11
320.5698443785767
 21
111.3567452138299
 31
0.0
  0
ARC
  5
205
330
2
100
AcDbEntity
  8
4
100
AcDbCircle
 10
320.4870402178846
 20
112.3567452138299
 30
0.0
 40
1.0
100
AcDbArc
 50
181.8975581107
 51
270.0
  0
ARC
  5
206
330
2
100
AcDbEntity
  8
4
100
AcDbCircle
 10
321.5698443785767
 20
111.3567452138299
 30
0.0
 40
1.0
100
AcDbArc
 50
180.0
 51
270.0
  0
ARC
  5
207
330
2
100
AcDbEntity
  8
4
100
AcDbCircle
 10
327.5698443785766
 20
109.3567452138299
 30
0.0
 40
1.0
100
AcDbArc
 50
0.0
 51
90.0
  0
ARC
  5
208
330
2
100
AcDbEntity
  8
4
100
AcDbCircle
 10
315.987375227161
 20
128.9416163092028
 30
0.0
 40
2.0
100
AcDbArc
 50
8.386140400203653
 51
82.07039726010183
  0
ARC
  5
209
330
2
100
AcDbEntity
  8
4
100
AcDbCircle
 10
310.5698443785768
 20
132.6098649817735
 30
0.0
 40
1.0
100
AcDbArc
 50
180.0
 51
264.2989636309542
  0
LINE
  5
20A
330
2
100
AcDbEntity
  8
4
100
AcDbLine
 10
309.5698443785768
 20
132.6098649817735
 30
0.0
 11
309.5698443785768
 21
133.3567452138299
 31
0.0
  0
LINE
  5
20B
330
2
100
AcDbEntity
  8
4
100
AcDbLine
 10
307.0698443785767
 20
133.3567452138299
 30
0.0
 11
307.0698443785767
 21
134.8567452138299
 31
0.0
  0
ARC
  5
20C
330
2
100
AcDbEntity
  8
4
100
AcDbCircle
 10
295.5698443785767
 20
-17.6432547861701
 30
0.0
 40
150.0
100
AcDbArc
 50
82.07039726010211
 51
84.29896363095556
  0
LINE
  5
20D
330
2
100
AcDbEntity
  8
4
100
AcDbLine
 10
308.0698443785767
 20
136.8565162138299
 30
0.0
 11
283.0698443785767
 21
136.8565162138299
 31
0.0
  0
LINE
  5
20E
330
2
100
AcDbEntity
  8
4
100
AcDbLine
 10
306.3952833785767
 20
140.8565162138299
 30
0.0
 11
284.7446493785767
 21
140.8565162138299
 31
0.0
  0
LINE
  5
210
330
2
100
AcDbEntity
  8
4
100
AcDbLine
 10
284.7446493785767
 20
136.8565162138299
 30
0.0
 11
284.7446493785767
 21
140.8565162138299
 31
0.0
  0
LINE
  5
217
330
2
100
AcDbEntity
  8
4
100
AcDbLine
 10
306.3952833785767
 20
136.8565162138299
 30
0.0
 11
306.3952833785767
 21
140.8565162138299
 31
0.0
  0
LINE
  5
21C
330
2
100
AcDbEntity
  8
4
100
AcDbLine
 10
334.8698443785766
 20
99.35547921382991
 30
0.0
 11
334.8698443785766
 21
90.85547921382991
 31
0.0
  0
LINE
  5
221
330
2
100
AcDbEntity
  8
L-CENTER
 48
0.25
100
AcDbLine
 10
58.11912965906902
 20
256.1433662332607
 30
0.0
 11
200.2673848971726
 21
256.1433662332607
 31
0.0
  0
LINE
  5
222
330
2
100
AcDbEntity
  8
4
100
AcDbLine
 10
172.3016178242381
 20
221.1433662332608
 30
0.0
 11
194.3016178242381
 21
221.1433662332608
 31
0.0
  0
LINE
  5
223
330
2
100
AcDbEntity
  8
L-CENTER
 48
0.25
100
AcDbLine
 10
176.7207572151956
 20
231.1433662332608
 30
0.0
 11
195.8824784332805
 21
231.1433662332608
 31
0.0
  0
LINE
  5
224
330
2
100
AcDbEntity
  8
4
100
AcDbLine
 10
172.3016178242381
 20
291.1433662332607
 30
0.0
 11
194.3016178242381
 21
291.1433662332607
 31
0.0
  0
LINE
  5
225
330
2
100
AcDbEntity
  8
L-CENTER
 48
0.25
100
AcDbLine
 10
176.7207572151956
 20
281.1433662332607
 30
0.0
 11
195.8824784332805
 21
281.1433662332607
 31
0.0
  0
LINE
  5
226
330
2
100
AcDbEntity
  8
4
100
AcDbLine
 10
82.30161782423806
 20
250.1433662332608
 30
0.0
 11
95.30161782423806
 21
250.1433662332608
 31
0.0
  0
LINE
  5
227
330
2
100
AcDbEntity
  8
4
100
AcDbLine
 10
82.30161782423806
 20
262.1433662332607
 30
0.0
 11
95.30161782423806
 21
262.1433662332607
 31
0.0
  0
LINE
  5
228
330
2
100
AcDbEntity
  8
4
100
AcDbLine
 10
196.3016178242381
 20
289.1433662332607
 30
0.0
 11
196.3016178242381
 21
256.1433662332607
 31
0.0
  0
LINE
  5
229
330
2
100
AcDbEntity
  8
L-CENTER
 48
0.25
100
AcDbLine
 10
96.30161782423806
 20
290.7242268423032
 30
0.0
 11
96.30161782423806
 21
271.5625056242183
 31
0.0
  0
LINE
  5
22A
330
2
100
AcDbEntity
  8
L-CENTER
 48
0.25
100
AcDbLine
 10
141.3016178242381
 20
215.6942759571515
 30
0.0
 11
141.3016178242381
 21
328.4277212433525
 31
0.0
  0
LINE
  5
22B
330
2
100
AcDbEntity
  8
L-CENTER
 48
0.25
100
AcDbLine
 10
186.3016178242381
 20
290.7242268423032
 30
0.0
 11
186.3016178242381
 21
271.5625056242183
 31
0.0
  0
LINE
  5
22C
330
2
100
AcDbEntity
  8
4
100
AcDbLine
 10
100.3016178242381
 20
231.1433662332608
 30
0.0
 11
100.3016178242381
 21
281.1433662332607
 31
0.0
  0
LINE
  5
22D
330
2
100
AcDbEntity
  8
4
100
AcDbLine
 10
182.301617824238
 20
231.1433662332608
 30
0.0
 11
182.3016178242381
 21
281.1433662332607
 31
0.0
  0
LINE
  5
22E
330
2
100
AcDbEntity
  8
4
100
AcDbLine
 10
186.301617824238
 20
233.6433662332608
 30
0.0
 11
186.3016178242381
 21
278.6433662332607
 31
0.0
  0
LINE
  5
22F
330
2
100
AcDbEntity
  8
4
100
AcDbLine
 10
96.30161782423806
 20
233.6433662332608
 30
0.0
 11
96.30161782423806
 21
278.6433662332607
 31
0.0
  0
LINE
  5
230
330
2
100
AcDbEntity
  8
4
100
AcDbLine
 10
123.1100336144721
 20
219.1433662332608
 30
0.0
 11
159.4716915369818
 21
219.1433662332608
 31
0.0
  0
LINE
  5
231
330
2
100
AcDbEntity
  8
4
100
AcDbLine
 10
182.301617824238
 20
231.1433662332608
 30
0.0
 11
100.3016178242381
 21
231.1433662332608
 31
0.0
  0
LINE
  5
232
330
2
100
AcDbEntity
  8
4
100
AcDbLine
 10
181.3016178242381
 20
226.1433662332608
 30
0.0
 11
101.3016178242381
 21
226.1433662332608
 31
0.0
  0
LINE
  5
233
330
2
100
AcDbEntity
  8
4
100
AcDbLine
 10
182.301617824238
 20
232.1433662332608
 30
0.0
 11
100.3016178242381
 21
232.1433662332608
 31
0.0
  0
CIRCLE
  5
234
330
2
100
AcDbEntity
  8
4
100
AcDbCircle
 10
124.3016178242381
 20
256.1433662332607
 30
0.0
 40
14.0
  0
CIRCLE
  5
235
330
2
100
AcDbEntity
  8
4
100
AcDbCircle
 10
124.3016178242381
 20
256.1433662332607
 30
0.0
 40
12.5
  0
LWPOLYLINE
  5
236
330
2
100
AcDbEntity
  8
4
100
AcDbPolyline
 90
        6
 70
     1
 43
0.0
 10
136.8016178242381
 20
256.1433662332607
 10
130.5516178242381
 20
266.9686837805663
 10
118.0516178242381
 20
266.9686837805663
 10
111.8016178242381
 20
256.1433662332607
 10
118.0516178242381
 20
245.3180486859552
 10
130.5516178242381
 20
245.3180486859552
  0
LINE
  5
237
330
2
100
AcDbEntity
  8
4
100
AcDbLine
 10
196.3016178242381
 20
223.1433662332608
 30
0.0
 11
196.3016178242381
 21
256.1433662332607
 31
0.0
  0
ARC
  5
238
330
2
100
AcDbEntity
  8
4
100
AcDbCircle
 10
96.30161782423806
 20
231.1433662332608
 30
0.0
 40
4.5
100
AcDbArc
 50
89.99999999999982
 51
0.0
  0
LINE
  5
239
330
2
100
AcDbEntity
  8
L-CENTER
 48
0.25
100
AcDbLine
 10
96.30161782423806
 20
221.5625056242183
 30
0.0
 11
96.30161782423806
 21
240.7242268423032
 31
0.0
  0
LINE
  5
23A
330
2
100
AcDbEntity
  8
4
100
AcDbLine
 10
101.3016178242381
 20
226.1433662332608
 30
0.0
 11
101.3016178242381
 21
231.1433662332608
 31
0.0
  0
LINE
  5
23B
330
2
100
AcDbEntity
  8
4
100
AcDbLine
 10
88.30161782423806
 20
221.1433662332608
 30
0.0
 11
110.3016178242381
 21
221.1433662332608
 31
0.0
  0
ARC
  5
23C
330
2
100
AcDbEntity
  8
4
100
AcDbCircle
 10
88.30161782423806
 20
223.1433662332608
 30
0.0
 40
2.0
100
AcDbArc
 50
180.0
 51
270.0
  0
ARC
  5
23D
330
2
100
AcDbEntity
  8
4
100
AcDbCircle
 10
110.3016178242381
 20
223.1433662332608
 30
0.0
 40
2.0
100
AcDbArc
 50
270.0
 51
0.0
  0
LINE
  5
23E
330
2
100
AcDbEntity
  8
4
100
AcDbLine
 10
112.3016178242381
 20
223.1433662332608
 30
0.0
 11
112.3016178242381
 21
226.1433662332608
 31
0.0
  0
LINE
  5
23F
330
2
100
AcDbEntity
  8
4
100
AcDbLine
 10
122.1322312003947
 20
219.9338371445298
 30
0.0
 11
120.8016178242381
 21
226.1433662332608
 31
0.0
  0
ARC
  5
240
330
2
100
AcDbEntity
  8
4
100
AcDbCircle
 10
123.1100336144721
 20
220.1433662332608
 30
0.0
 40
1.0
100
AcDbArc
 50
192.0947570770105
 51
270.0
  0
LINE
  5
241
330
2
100
AcDbEntity
  8
L-CENTER
 48
0.25
100
AcDbLine
 10
105.8824784332805
 20
231.1433662332608
 30
0.0
 11
86.72075721519559
 21
231.1433662332608
 31
0.0
  0
LINE
  5
242
330
2
100
AcDbEntity
  8
4
100
AcDbLine
 10
100.3016178242381
 20
233.6433662332608
 30
0.0
 11
96.30161782423806
 21
233.6433662332608
 31
0.0
  0
LINE
  5
243
330
2
100
AcDbEntity
  8
4
100
AcDbLine
 10
95.3017398242381
 20
272.1433662332607
 30
0.0
 11
95.3017398242381
 21
240.1433662332608
 31
0.0
  0
LINE
  5
244
330
2
100
AcDbEntity
  8
4
100
AcDbLine
 10
96.3017398242381
 20
240.1433662332608
 30
0.0
 11
95.3017398242381
 21
240.1433662332608
 31
0.0
  0
LINE
  5
245
330
2
100
AcDbEntity
  8
4
100
AcDbLine
 10
95.3017398242381
 20
272.1433662332607
 30
0.0
 11
96.3017398242381
 21
272.1433662332607
 31
0.0
  0
LINE
  5
246
330
2
100
AcDbEntity
  8
L-CENTER
 48
0.25
100
AcDbLine
 10
124.3016178242381
 20
238.2627939596029
 30
0.0
 11
124.3016178242381
 21
274.0239385069186
 31
0.0
  0
ARC
  5
247
330
2
100
AcDbEntity
  8
4
100
AcDbCircle
 10
96.30161782423806
 20
231.1433662332608
 30
0.0
 40
4.5
100
AcDbArc
 50
27.26604445073196
 51
33.74898859588772
  0
LINE
  5
248
330
2
100
AcDbEntity
  8
L-CENTER
 48
0.25
100
AcDbLine
 10
186.3016178242381
 20
221.5625056242183
 30
0.0
 11
186.3016178242381
 21
240.7242268423032
 31
0.0
  0
LINE
  5
249
330
2
100
AcDbEntity
  8
4
100
AcDbLine
 10
181.3016178242381
 20
226.1433662332608
 30
0.0
 11
181.301617824238
 21
231.1433662332608
 31
0.0
  0
ARC
  5
24A
330
2
100
AcDbEntity
  8
4
100
AcDbCircle
 10
186.3016178242381
 20
231.1433662332608
 30
0.0
 40
4.5
100
AcDbArc
 50
180.0
 51
90.00000000000072
  0
LINE
  5
24B
330
2
100
AcDbEntity
  8
4
100
AcDbLine
 10
160.4545637239162
 20
219.9590776982106
 30
0.0
 11
161.6141178242381
 21
226.1433662332608
 31
0.0
  0
ARC
  5
24C
330
2
100
AcDbEntity
  8
4
100
AcDbCircle
 10
159.4716915369818
 20
220.1433662332608
 30
0.0
 40
1.0
100
AcDbArc
 50
270.0
 51
349.380344723844
  0
LINE
  5
24D
330
2
100
AcDbEntity
  8
4
100
AcDbLine
 10
170.3016178242381
 20
223.1433662332608
 30
0.0
 11
170.3016178242381
 21
226.1433662332608
 31
0.0
  0
ARC
  5
24E
330
2
100
AcDbEntity
  8
4
100
AcDbCircle
 10
172.3016178242381
 20
223.1433662332608
 30
0.0
 40
2.0
100
AcDbArc
 50
180.0
 51
270.0
  0
LINE
  5
24F
330
2
100
AcDbEntity
  8
4
100
AcDbLine
 10
187.3016178242381
 20
272.1433662332607
 30
0.0
 11
187.3016178242381
 21
240.1433662332608
 31
0.0
  0
LINE
  5
250
330
2
100
AcDbEntity
  8
4
100
AcDbLine
 10
186.301617824238
 20
233.6433662332608
 30
0.0
 11
182.301617824238
 21
233.6433662332608
 31
0.0
  0
ARC
  5
251
330
2
100
AcDbEntity
  8
4
100
AcDbCircle
 10
186.3016178242381
 20
231.1433662332608
 30
0.0
 40
4.5
100
AcDbArc
 50
146.2510114041122
 51
152.733955549268
  0
LINE
  5
252
330
2
100
AcDbEntity
  8
4
100
AcDbLine
 10
186.3016178242381
 20
240.1433662332608
 30
0.0
 11
187.3016178242381
 21
240.1433662332608
 31
0.0
  0
LINE
  5
253
330
2
100
AcDbEntity
  8
4
100
AcDbLine
 10
187.3016178242381
 20
272.1433662332607
 30
0.0
 11
186.3016178242381
 21
272.1433662332607
 31
0.0
  0
LINE
  5
254
330
2
100
AcDbEntity
  8
4
100
AcDbLine
 10
181.3016178242381
 20
284.6433662332607
 30
0.0
 11
101.3016178242381
 21
284.6433662332607
 31
0.0
  0
LINE
  5
255
330
2
100
AcDbEntity
  8
4
100
AcDbLine
 10
182.3016178242381
 20
281.1433662332607
 30
0.0
 11
100.3016178242381
 21
281.1433662332607
 31
0.0
  0
LINE
  5
256
330
2
100
AcDbEntity
  8
4
100
AcDbLine
 10
182.3016178242381
 20
280.1433662332607
 30
0.0
 11
100.3016178242381
 21
280.1433662332607
 31
0.0
  0
LINE
  5
257
330
2
100
AcDbEntity
  8
4
100
AcDbLine
 10
180.3016178242381
 20
289.1433662332606
 30
0.0
 11
102.3016178242381
 21
289.1433662332606
 31
0.0
  0
LINE
  5
258
330
2
100
AcDbEntity
  8
4
100
AcDbLine
 10
181.3016178242381
 20
284.9433662332607
 30
0.0
 11
101.3016178242381
 21
284.9433662332607
 31
0.0
  0
LINE
  5
259
330
2
100
AcDbEntity
  8
4
100
AcDbLine
 10
156.5342908242382
 20
293.1433662332606
 30
0.0
 11
126.0689448242381
 21
293.1433662332606
 31
0.0
  0
LINE
  5
25A
330
2
100
AcDbEntity
  8
4
100
AcDbLine
 10
156.5342908242382
 20
293.1433662332606
 30
0.0
 11
126.0689448242381
 21
293.1433662332606
 31
0.0
  0
LINE
  5
25B
330
2
100
AcDbEntity
  8
4
100
AcDbLine
 10
88.30161782423806
 20
291.1433662332607
 30
0.0
 11
110.3016178242381
 21
291.1433662332607
 31
0.0
  0
LINE
  5
25C
330
2
100
AcDbEntity
  8
L-CENTER
 48
0.25
100
AcDbLine
 10
86.72075721519559
 20
281.1433662332607
 30
0.0
 11
105.8824784332805
 21
281.1433662332607
 31
0.0
  0
LINE
  5
25D
330
2
100
AcDbEntity
  8
4
100
AcDbLine
 10
100.3016178242381
 20
278.6433662332607
 30
0.0
 11
96.30161782423806
 21
278.6433662332607
 31
0.0
  0
ARC
  5
25E
330
2
100
AcDbEntity
  8
4
100
AcDbCircle
 10
96.30161782423806
 20
281.1433662332607
 30
0.0
 40
4.5
100
AcDbArc
 50
0.0
 51
270.0
  0
ARC
  5
25F
330
2
100
AcDbEntity
  8
4
100
AcDbCircle
 10
88.30161782423806
 20
289.1433662332607
 30
0.0
 40
2.0
100
AcDbArc
 50
90.0
 51
180.0
  0
LINE
  5
260
330
2
100
AcDbEntity
  8
4
100
AcDbLine
 10
112.3028838242383
 20
290.4433662332607
 30
0.0
 11
120.8028838242383
 21
290.4433662332607
 31
0.0
  0
LINE
  5
261
330
2
100
AcDbEntity
  8
4
100
AcDbLine
 10
112.3028838242383
 20
295.4433662332607
 30
0.0
 11
120.8028838242383
 21
295.4433662332607
 31
0.0
  0
ARC
  5
262
330
2
100
AcDbEntity
  8
4
100
AcDbCircle
 10
110.3016178242381
 20
289.1433662332607
 30
0.0
 40
2.0
100
AcDbArc
 50
0.0
 51
90.0
  0
LINE
  5
263
330
2
100
AcDbEntity
  8
4
100
AcDbLine
 10
101.3016178242381
 20
288.1433662332606
 30
0.0
 11
101.3016178242381
 21
284.9433662332607
 31
0.0
  0
ARC
  5
264
330
2
100
AcDbEntity
  8
4
100
AcDbCircle
 10
96.30161782423806
 20
281.1433662332607
 30
0.0
 40
4.5
100
AcDbArc
 50
326.2510114041129
 51
332.7339555492687
  0
LINE
  5
265
330
2
100
AcDbEntity
  8
4
100
AcDbLine
 10
101.3016178242381
 20
281.1433662332607
 30
0.0
 11
101.3016178242381
 21
284.6433662332607
 31
0.0
  0
ARC
  5
266
330
2
100
AcDbEntity
  8
4
100
AcDbCircle
 10
102.3016178242381
 20
288.1433662332606
 30
0.0
 40
1.0
100
AcDbArc
 50
90.0
 51
180.0
  0
LINE
  5
267
330
2
100
AcDbEntity
  8
4
100
AcDbLine
 10
112.3028838242383
 20
295.4433662332607
 30
0.0
 11
112.3028838242383
 21
289.1433662332607
 31
0.0
  0
LINE
  5
268
330
2
100
AcDbEntity
  8
L-CENTER
 48
0.25
100
AcDbLine
 10
116.5528838242383
 20
296.9169607933171
 30
0.0
 11
116.5528838242383
 21
278.1138472332608
 31
0.0
  0
LINE
  5
269
330
2
100
AcDbEntity
  8
4
100
AcDbLine
 10
120.8028838242383
 20
295.4433662332607
 30
0.0
 11
120.8028838242383
 21
289.1433662332607
 31
0.0
  0
LINE
  5
26A
330
2
100
AcDbEntity
  8
4
100
AcDbLine
 10
124.4284198242381
 20
289.8845472332606
 30
0.0
 11
125.1030188242381
 21
292.4021862332606
 31
0.0
  0
LINE
  5
26B
330
2
100
AcDbEntity
  8
4
100
AcDbLine
 10
124.4284198242381
 20
289.8845472332606
 30
0.0
 11
125.1030188242381
 21
292.4021862332606
 31
0.0
  0
ARC
  5
26C
330
2
100
AcDbEntity
  8
4
100
AcDbCircle
 10
126.0689448242381
 20
292.1433662332606
 30
0.0
 40
1.0
100
AcDbArc
 50
90.0
 51
164.9999999999989
  0
ARC
  5
26D
330
2
100
AcDbEntity
  8
4
100
AcDbCircle
 10
126.0689448242381
 20
292.1433662332606
 30
0.0
 40
1.0
100
AcDbArc
 50
90.0
 51
164.9999999999989
  0
ARC
  5
26E
330
2
100
AcDbEntity
  8
4
100
AcDbCircle
 10
123.4624938242381
 20
290.1433662332606
 30
0.0
 40
1.0
100
AcDbArc
 50
270.0
 51
344.9999999999989
  0
ARC
  5
26F
330
2
100
AcDbEntity
  8
4
100
AcDbCircle
 10
123.4624938242381
 20
290.1433662332606
 30
0.0
 40
1.0
100
AcDbArc
 50
270.0
 51
344.9999999999989
  0
LINE
  5
270
330
2
100
AcDbEntity
  8
4
100
AcDbLine
 10
148.801617824238
 20
294.1433662332606
 30
0.0
 11
148.801617824238
 21
325.6433662332611
 31
0.0
  0
LINE
  5
271
330
2
100
AcDbEntity
  8
4
100
AcDbLine
 10
133.8016178242381
 20
294.1433662332605
 30
0.0
 11
133.8016178242381
 21
325.6433662332612
 31
0.0
  0
LINE
  5
272
330
2
100
AcDbEntity
  8
4
100
AcDbLine
 10
137.5601178242381
 20
304.8848662332611
 30
0.0
 11
137.5601178242381
 21
326.1433662332612
 31
0.0
  0
LINE
  5
273
330
2
100
AcDbEntity
  8
4
100
AcDbLine
 10
145.0431178242381
 20
304.8848662332611
 30
0.0
 11
145.0431178242381
 21
326.1433662332611
 31
0.0
  0
LINE
  5
274
330
2
100
AcDbEntity
  8
4
100
AcDbLine
 10
153.3016178242381
 20
294.1433662332606
 30
0.0
 11
129.3016178242381
 21
294.1433662332606
 31
0.0
  0
LINE
  5
275
330
2
100
AcDbEntity
  8
4
100
AcDbLine
 10
129.301617824238
 20
294.1433662332605
 30
0.0
 11
129.3016178242381
 21
293.1433662332606
 31
0.0
  0
ARC
  5
276
330
2
100
AcDbEntity
  8
4
100
AcDbCircle
 10
156.534290824238
 20
292.1433662332606
 30
0.0
 40
1.0
100
AcDbArc
 50
15.00000000000113
 51
90.0
  0
ARC
  5
277
330
2
100
AcDbEntity
  8
4
100
AcDbCircle
 10
156.534290824238
 20
292.1433662332606
 30
0.0
 40
1.0
100
AcDbArc
 50
15.00000000000113
 51
90.0
  0
LINE
  5
278
330
2
100
AcDbEntity
  8
4
100
AcDbLine
 10
153.3016178242381
 20
294.1433662332605
 30
0.0
 11
153.3016178242381
 21
293.1433662332606
 31
0.0
  0
ARC
  5
279
330
2
100
AcDbEntity
  8
4
100
AcDbCircle
 10
159.140741824238
 20
290.1433662332606
 30
0.0
 40
1.0
100
AcDbArc
 50
195.0000000000011
 51
270.0
  0
ARC
  5
27A
330
2
100
AcDbEntity
  8
4
100
AcDbCircle
 10
159.140741824238
 20
290.1433662332606
 30
0.0
 40
1.0
100
AcDbArc
 50
195.0000000000011
 51
270.0
  0
LINE
  5
27B
330
2
100
AcDbEntity
  8
4
100
AcDbLine
 10
158.1748158242381
 20
289.8845472332606
 30
0.0
 11
157.500216824238
 21
292.4021862332606
 31
0.0
  0
LINE
  5
27C
330
2
100
AcDbEntity
  8
4
100
AcDbLine
 10
158.1748158242381
 20
289.8845472332606
 30
0.0
 11
157.500216824238
 21
292.4021862332606
 31
0.0
  0
ARC
  5
27D
330
2
100
AcDbEntity
  8
4
100
AcDbCircle
 10
141.3016178242381
 20
304.8848662332611
 30
0.0
 40
3.741500000000002
100
AcDbArc
 50
180.0
 51
0.0
  0
LINE
  5
27E
330
2
100
AcDbEntity
  8
L-CENTER
 48
0.25
100
AcDbLine
 10
166.0503518242379
 20
296.9169607933171
 30
0.0
 11
166.0503518242379
 21
278.1138472332608
 31
0.0
  0
LINE
  5
27F
330
2
100
AcDbEntity
  8
4
100
AcDbLine
 10
170.3003518242379
 20
295.4433662332607
 30
0.0
 11
161.8003518242379
 21
295.4433662332607
 31
0.0
  0
LINE
  5
280
330
2
100
AcDbEntity
  8
4
100
AcDbLine
 10
170.3003518242379
 20
290.4433662332607
 30
0.0
 11
161.8003518242379
 21
290.4433662332607
 31
0.0
  0
LINE
  5
281
330
2
100
AcDbEntity
  8
4
100
AcDbLine
 10
161.8003518242379
 20
295.4433662332607
 30
0.0
 11
161.8003518242379
 21
289.1433662332607
 31
0.0
  0
LINE
  5
282
330
2
100
AcDbEntity
  8
4
100
AcDbLine
 10
170.3003518242379
 20
295.4433662332607
 30
0.0
 11
170.3003518242379
 21
289.1433662332607
 31
0.0
  0
ARC
  5
283
330
2
100
AcDbEntity
  8
4
100
AcDbCircle
 10
172.3016178242381
 20
289.1433662332607
 30
0.0
 40
2.0
100
AcDbArc
 50
90.0
 51
180.0
  0
LINE
  5
284
330
2
100
AcDbEntity
  8
4
100
AcDbLine
 10
181.3016178242381
 20
288.1433662332606
 30
0.0
 11
181.3016178242381
 21
284.9433662332607
 31
0.0
  0
ARC
  5
285
330
2
100
AcDbEntity
  8
4
100
AcDbCircle
 10
186.3016178242381
 20
281.1433662332607
 30
0.0
 40
4.5
100
AcDbArc
 50
270.0000000000003
 51
180.0
  0
LINE
  5
286
330
2
100
AcDbEntity
  8
4
100
AcDbLine
 10
186.3016178242381
 20
278.6433662332607
 30
0.0
 11
182.3016178242381
 21
278.6433662332607
 31
0.0
  0
LINE
  5
287
330
2
100
AcDbEntity
  8
4
100
AcDbLine
 10
181.301617824238
 20
281.1433662332606
 30
0.0
 11
181.3016178242381
 21
284.6433662332607
 31
0.0
  0
ARC
  5
288
330
2
100
AcDbEntity
  8
4
100
AcDbCircle
 10
186.3016178242381
 20
281.1433662332607
 30
0.0
 40
4.5
100
AcDbArc
 50
207.2660444507314
 51
213.7489885958872
  0
ARC
  5
289
330
2
100
AcDbEntity
  8
4
100
AcDbCircle
 10
180.3016178242381
 20
288.1433662332606
 30
0.0
 40
1.0
100
AcDbArc
 50
0.0
 51
90.0
  0
LINE
  5
28A
330
2
100
AcDbEntity
  8
4
100
AcDbLine
 10
134.3016178242381
 20
326.1433662332612
 30
0.0
 11
148.301617824238
 21
326.1433662332611
 31
0.0
  0
LINE
  5
28B
330
2
100
AcDbEntity
  8
4
100
AcDbLine
 10
133.8016178242381
 20
325.643366233261
 30
0.0
 11
137.5601178242381
 21
325.643366233261
 31
0.0
  0
LINE
  5
28C
330
2
100
AcDbEntity
  8
4
100
AcDbLine
 10
133.8016178242381
 20
325.6433662332612
 30
0.0
 11
134.3016178242381
 21
326.1433662332612
 31
0.0
  0
LINE
  5
28D
330
2
100
AcDbEntity
  8
4
100
AcDbLine
 10
148.801617824238
 20
325.6433662332611
 30
0.0
 11
148.301617824238
 21
326.1433662332611
 31
0.0
  0
LINE
  5
28E
330
2
100
AcDbEntity
  8
4
100
AcDbLine
 10
145.0431178242381
 20
325.6433662332612
 30
0.0
 11
148.8016178242384
 21
325.6433662332611
 31
0.0
  0
LINE
  5
28F
330
2
100
AcDbEntity
  8
4
100
AcDbLine
 10
86.30161782423806
 20
289.1433662332607
 30
0.0
 11
86.30161782423806
 21
262.1433662332607
 31
0.0
  0
LINE
  5
290
330
2
100
AcDbEntity
  8
4
100
AcDbLine
 10
86.30161782423806
 20
223.1433662332608
 30
0.0
 11
86.30161782423806
 21
250.1433662332608
 31
0.0
  0
ARC
  5
291
330
2
100
AcDbEntity
  8
4
100
AcDbCircle
 10
194.3016178242381
 20
223.1433662332608
 30
0.0
 40
2.0
100
AcDbArc
 50
270.0
 51
0.0
  0
LINE
  5
292
330
2
100
AcDbEntity
  8
4
100
AcDbLine
 10
82.30161782423806
 20
262.1433662332607
 30
0.0
 11
82.30161782423806
 21
250.1433662332608
 31
0.0
  0
LINE
  5
293
330
2
100
AcDbEntity
  8
4
100
AcDbLine
 10
60.30161782423806
 20
260.6433662332607
 30
0.0
 11
60.30161782423806
 21
251.6433662332608
 31
0.0
  0
LINE
  5
294
330
2
100
AcDbEntity
  8
4
100
AcDbLine
 10
60.80161782423806
 20
253.1433662332608
 30
0.0
 11
60.80161782423806
 21
251.1433662332608
 31
0.0
  0
LINE
  5
295
330
2
100
AcDbEntity
  8
4
100
AcDbLine
 10
60.80161782423806
 20
251.1433662332608
 30
0.0
 11
81.80161782423806
 21
251.1433662332608
 31
0.0
  0
ARC
  5
296
330
2
100
AcDbEntity
  8
4
100
AcDbCircle
 10
81.80161782423806
 20
250.6433662332608
 30
0.0
 40
0.5
100
AcDbArc
 50
0.0
 51
90.0
  0
LINE
  5
297
330
2
100
AcDbEntity
  8
4
100
AcDbLine
 10
60.30161782423806
 20
251.6433662332608
 30
0.0
 11
60.80161782423806
 21
251.1433662332608
 31
0.0
  0
LINE
  5
298
330
2
100
AcDbEntity
  8
4
100
AcDbLine
 10
60.80161782423806
 20
261.1433662332607
 30
0.0
 11
81.80161782423806
 21
261.1433662332607
 31
0.0
  0
LINE
  5
299
330
2
100
AcDbEntity
  8
4
100
AcDbLine
 10
60.30161782423806
 20
259.1433662332607
 30
0.0
 11
77.3016178242381
 21
259.1433662332607
 31
0.0
  0
LINE
  5
29A
330
2
100
AcDbEntity
  8
4
100
AcDbLine
 10
60.30161782423806
 20
253.1433662332608
 30
0.0
 11
77.3016178242381
 21
253.1433662332608
 31
0.0
  0
ARC
  5
29B
330
2
100
AcDbEntity
  8
4
100
AcDbCircle
 10
81.80161782423806
 20
261.6433662332607
 30
0.0
 40
0.5
100
AcDbArc
 50
270.0
 51
0.0
  0
ARC
  5
29C
330
2
100
AcDbEntity
  8
4
100
AcDbCircle
 10
77.30161782423806
 20
256.1433662332607
 30
0.0
 40
3.0
100
AcDbArc
 50
270.0
 51
90.0
  0
LINE
  5
29D
330
2
100
AcDbEntity
  8
4
100
AcDbLine
 10
60.80161782423806
 20
261.1433662332607
 30
0.0
 11
60.80161782423806
 21
259.1433662332607
 31
0.0
  0
LINE
  5
29E
330
2
100
AcDbEntity
  8
4
100
AcDbLine
 10
60.30161782423806
 20
260.6433662332607
 30
0.0
 11
60.80161782423806
 21
261.1433662332607
 31
0.0
  0
ARC
  5
29F
330
2
100
AcDbEntity
  8
4
100
AcDbCircle
 10
194.3016178242381
 20
289.1433662332607
 30
0.0
 40
2.0
100
AcDbArc
 50
0.0
 51
90.0
  0
TEXT
  5
4CA
330
2
100
AcDbEntity
  8
3
100
AcDbText
 10
215.4202026509577
 20
11.91902753324698
 30
0.0
 40
3.0
  1
LB0-01
  7
KANJI
 72
     1
 11
222.9202026509577
 21
11.91902753324698
 31
0.0
100
AcDbText
  0
ENDSEC
  0
SECTION
  2
OBJECTS
  0
DICTIONARY
  5
C
330
0
100
AcDbDictionary
281
     1
  3
ACAD_CIP_PREVIOUS_PRODUCT_INFO
350
402
  3
ACAD_COLOR
350
4A
  3
ACAD_DETAILVIEWSTYLE
350
3FC
  3
ACAD_GROUP
350
37
  3
ACAD_LAYOUT
350
19
  3
ACAD_MATERIAL
350
E
  3
ACAD_MLEADERSTYLE
350
4D
  3
ACAD_MLINESTYLE
350
38
  3
ACAD_PLOTSETTINGS
350
39
  3
ACAD_PLOTSTYLENAME
350
B
  3
ACAD_SCALELIST
350
4B
  3
ACAD_SECTIONVIEWSTYLE
350
3FA
  3
ACAD_TABLESTYLE
350
4C
  3
ACAD_VISUALSTYLE
350
30
  3
ACDBHEADERROUNDTRIPXREC
350
4D1
  3
AcDbVariableDictionary
350
3D9
  3
DWGPROPS
350
4D4
  0
DICTIONARY
  5
4D5
330
2D
100
AcDbDictionary
280
     1
281
     1
  3
ACAD_XREC_ROUNDTRIP
360
4D6
  0
DICTIONARY
  5
23
330
22
100
AcDbDictionary
280
     1
281
     1
  3
ACAD_LAYERSTATES
360
24
  0
DICTIONARY
  5
8
330
7
100
AcDbDictionary
280
     1
281
     1
  3
ADSK_XREC_LAYER_RECONCILED
360
9
  0
DICTIONARY
  5
2AF
330
2AE
100
AcDbDictionary
280
     1
281
     1
  3
ADSK_XREC_LAYER_RECONCILED
360
2B0
  0
DICTIONARY
  5
4F
330
4E
100
AcDbDictionary
280
     1
281
     1
  3
ADSK_XREC_LAYER_RECONCILED
360
50
  0
DICTIONARY
  5
6A
330
69
100
AcDbDictionary
280
     1
281
     1
  3
ADSK_XREC_LAYER_RECONCILED
360
6B
  0
DICTIONARY
  5
72
330
71
100
AcDbDictionary
280
     1
281
     1
  3
ADSK_XREC_LAYER_RECONCILED
360
73
  0
DICTIONARY
  5
79
330
78
100
AcDbDictionary
280
     1
281
     1
  3
ADSK_XREC_LAYER_RECONCILED
360
7A
  0
DICTIONARY
  5
3
330
2
100
AcDbDictionary
280
     1
281
     1
  3
ACAD_SORTENTS
360
3D7
  0
XRECORD
  5
402
102
{ACAD_REACTORS
330
C
102
}
330
C
100
AcDbXrecord
280
     1
300
ACD
300
2014
300
ACD_F_S
  0
DICTIONARY
  5
4A
102
{ACAD_REACTORS
330
C
102
}
330
C
100
AcDbDictionary
281
     1
  0
DICTIONARY
  5
3FC
102
{ACAD_REACTORS
330
C
102
}
330
C
100
AcDbDictionary
281
     1
  3
Imperial24
350
3FD
  0
DICTIONARY
  5
37
102
{ACAD_REACTORS
330
C
102
}
330
C
100
AcDbDictionary
281
     1
  0
DICTIONARY
  5
19
102
{ACAD_REACTORS
330
C
102
}
330
C
100
AcDbDictionary
281
     1
  3
Model
350
18
  3
ﾚｲｱｳﾄ1
350
21
  0
DICTIONARY
  5
E
102
{ACAD_REACTORS
330
C
102
}
330
C
100
AcDbDictionary
281
     1
  3
ByBlock
350
42
  3
ByLayer
350
3A
  3
Global
350
D
  0
DICTIONARY
  5
4D
102
{ACAD_REACTORS
330
C
102
}
330
C
100
AcDbDictionary
281
     1
  3
Standard
350
3F9
  0
DICTIONARY
  5
38
102
{ACAD_REACTORS
330
C
102
}
330
C
100
AcDbDictionary
281
     1
  3
STANDARD
350
52
  0
DICTIONARY
  5
39
102
{ACAD_REACTORS
330
C
102
}
330
C
100
AcDbDictionary
281
     1
  0
ACDBDICTIONARYWDFLT
  5
B
102
{ACAD_REACTORS
330
C
102
}
330
C
100
AcDbDictionary
281
     1
  3
Normal
350
A
100
AcDbDictionaryWithDefault
340
A
  0
DICTIONARY
  5
4B
102
{ACAD_REACTORS
330
C
102
}
330
C
100
AcDbDictionary
281
     1
  3
A0
350
56
  3
A1
350
57
  3
A2
350
58
  3
A3
350
59
  3
A4
350
5A
  3
A5
350
5B
  3
A6
350
5C
  3
A7
350
5D
  3
A8
350
5E
  3
A9
350
5F
  3
B0
350
60
  3
B1
350
61
  3
B2
350
62
  3
B3
350
63
  3
B4
350
64
  3
B5
350
65
  3
B6
350
66
  0
DICTIONARY
  5
3FA
102
{ACAD_REACTORS
330
C
102
}
330
C
100
AcDbDictionary
281
     1
  3
Imperial24
350
3FB
  0
DICTIONARY
  5
4C
102
{ACAD_REACTORS
330
C
102
}
330
C
100
AcDbDictionary
281
     1
  3
Standard
350
53
  0
DICTIONARY
  5
30
102
{ACAD_REACTORS
330
C
102
}
330
C
100
AcDbDictionary
281
     1
  3
2dWireframe
350
2F
  3
Basic
350
3E8
  3
Brighten
350
3EC
  3
ColorChange
350
3F0
  3
Conceptual
350
3EA
  3
Dim
350
3EB
  3
EdgeColorOff
350
3F8
  3
Facepattern
350
3EF
  3
Flat
350
3E4
  3
FlatWithEdges
350
3E5
  3
Gouraud
350
3E6
  3
GouraudWithEdges
350
3E7
  3
Hidden
350
3E9
  3
JitterOff
350
3F6
  3
Linepattern
350
3EE
  3
OverhangOff
350
3F7
  3
Realistic
350
54
  3
Shaded
350
3F5
  3
Shaded with edges
350
3F4
  3
Shades of Gray
350
3F1
  3
Sketchy
350
3F2
  3
Thicken
350
3ED
  3
Wireframe
350
55
  3
X-Ray
350
3F3
  0
DICTIONARY
  5
4D1
102
{ACAD_REACTORS
330
C
102
}
330
C
100
AcDbDictionary
281
     1
  3
COLORDICT
350
4D2
  3
MATERIALDICT
350
4D3
  0
DICTIONARY
  5
3D9
102
{ACAD_REACTORS
330
C
102
}
330
C
100
AcDbDictionary
281
     1
  3
CANNOSCALE
350
3DF
  3
CMLEADERSTYLE
350
3DB
  3
CTABLESTYLE
350
3DA
  3
CVIEWDETAILSTYLE
350
3DC
  3
CVIEWSECTIONSTYLE
350
3DD
  3
DIMASSOC
350
4CF
  3
HIDETEXT
350
4D0
  3
LAYEREVAL
350
3E1
  3
LAYERNOTIFY
350
3E2
  3
LIGHTINGUNITS
350
3E0
  3
MSLTSCALE
350
3DE
  3
XCLIPFRAME
350
4C3
  0
XRECORD
  5
4D4
102
{ACAD_REACTORS
330
C
102
}
330
C
100
AcDbXrecord
280
     1
  1
DWGPROPS COOKIE
  2

  3

  4

  6

  7

  8
sg-d04
  9

300
=
301
=
302
=
303
=
304
=
305
=
306
=
307
=
308
=
309
=
 40
0.0
 41
2457345.438463599
 42
2457871.449439202
  1

 90
        0
  0
XRECORD
  5
4D6
102
{ACAD_REACTORS
330
4D5
102
}
330
4D5
100
AcDbXrecord
280
     1
102
VTR_0.000_0.000_1.000_1.000_VISUALSTYLE
340
2F
102
VTR_0.000_0.000_1.000_1.000_GRIDDISPLAY
 70
     3
102
VTR_0.000_0.000_1.000_1.000_GRIDMAJOR
 70
     5
102
VTR_0.000_0.000_1.000_1.000_DEFAULTLIGHTING
280
     1
102
VTR_0.000_0.000_1.000_1.000_DEFAULTLIGHTINGTYPE
 70
     1
102
VTR_0.000_0.000_1.000_1.000_BRIGHTNESS
141
0.0
102
VTR_0.000_0.000_1.000_1.000_CONTRAST
142
0.0
  0
DICTIONARY
  5
24
102
{ACAD_REACTORS
330
23
102
}
330
23
100
AcDbDictionary
281
     1
  0
XRECORD
  5
9
102
{ACAD_REACTORS
330
8
102
}
330
8
100
AcDbXrecord
280
     1
290
     1
  0
XRECORD
  5
2B0
102
{ACAD_REACTORS
330
2AF
102
}
330
2AF
100
AcDbXrecord
280
     1
290
     1
  0
XRECORD
  5
50
102
{ACAD_REACTORS
330
4F
102
}
330
4F
100
AcDbXrecord
280
     1
290
     1
  0
XRECORD
  5
6B
102
{ACAD_REACTORS
330
6A
102
}
330
6A
100
AcDbXrecord
280
     1
290
     1
  0
XRECORD
  5
73
102
{ACAD_REACTORS
330
72
102
}
330
72
100
AcDbXrecord
280
     1
290
     1
  0
XRECORD
  5
7A
102
{ACAD_REACTORS
330
79
102
}
330
79
100
AcDbXrecord
280
     1
290
     1
  0
SORTENTSTABLE
  5
3D7
102
{ACAD_REACTORS
330
3
102
}
330
3
100
AcDbSortentsTable
330
2
  0
ACDBDETAILVIEWSTYLE
  5
3FD
102
{ACAD_REACTORS
330
3FC
102
}
102
{ACAD_XDICTIONARY
360
414
102
}
330
3FC
100
AcDbModelDocViewStyle
 70
     0
  3
Imperial24
290
     0
100
AcDbDetailViewStyle
 70
     0
 71
     0
 90
        3
 71
     1
340
26
 40
0.24
340
0
 40
0.24
300

 40
0.36
280
     3
 71
     2
340
16
 90
       25
 71
     3
340
26
 40
0.24
 90
        1
 40
0.75
 90
        1
300
%<\AcVar ViewType \f "%tc1">% %<\AcVar ViewDetailId>%\PSCALE %<\AcVar ViewScale \f "%sn">%
 71
     4
340
16
 90
       25
340
16
 90
       25
280
     0
  0
LAYOUT
  5
18
102
{ACAD_REACTORS
330
19
102
}
102
{ACAD_XDICTIONARY
360
1A
102
}
330
19
100
AcDbPlotSettings
  1

  2
Bullzip PDF Printer.pc3
  4
A3
  6

 40
0.2
 41
0.0
 42
0.0
 43
0.0
 44
420.2
 45
297.1
 46
25.0
 47
12.0
 48
19.99999995333333
 49
0.0
140
401.9999990783334
141
272.4999993641666
142
1.0
143
1.0
 70
 11936
 72
     1
 73
     0
 74
     4
  7
monochrome.ctb
 75
    16
147
1.0
148
-19.99999995333333
149
0.0
100
AcDbLayout
  1
Model
 70
     0
 71
     0
 10
0.0
 20
0.0
 11
12.0
 21
9.0
 12
0.0
 22
0.0
 32
0.0
 14
33.8263364654149
 24
11.91902753324698
 34
0.0
 15
396.195364027604
 25
328.4277212433526
 35
0.0
146
0.0
 13
0.0
 23
0.0
 33
0.0
 16
1.0
 26
0.0
 36
0.0
 17
0.0
 27
1.0
 37
0.0
 76
     0
330
2
331
2E
1001
ACAD_PSEXT
1000
Bullzip PDF Printer.pc3
1000
Bullzip PDF Printer
1000
BULLZIP
1000
Bullzip PDF Printer 10.1.0.1871
1070
     0
  0
LAYOUT
  5
21
102
{ACAD_REACTORS
330
19
102
}
330
19
100
AcDbPlotSettings
  1

  2
SR-LP8300F
  4

  6

 40
0.0
 41
0.0
 42
0.0
 43
0.0
 44
0.0
 45
0.0
 46
0.0
 47
0.0
 48
0.0
 49
0.0
140
0.0
141
0.0
142
1.0
143
1.0
 70
   688
 72
     0
 73
     0
 74
     5
  7
monochrome.ctb
 75
    16
147
1.0
148
0.0
149
0.0
100
AcDbLayout
  1
ﾚｲｱｳﾄ1
 70
     0
 71
     1
 10
0.0
 20
0.0
 11
12.0
 21
9.0
 12
0.0
 22
0.0
 32
0.0
 14
1.000000000000000E+20
 24
1.000000000000000E+20
 34
1.000000000000000E+20
 15
-1.000000000000000E+20
 25
-1.000000000000000E+20
 35
-1.000000000000000E+20
146
0.0
 13
0.0
 23
0.0
 33
0.0
 16
1.0
 26
0.0
 36
0.0
 17
0.0
 27
1.0
 37
0.0
 76
     0
330
1C
  0
MATERIAL
  5
42
102
{ACAD_REACTORS
330
E
102
}
102
{ACAD_XDICTIONARY
360
4D8
102
}
330
E
100
AcDbMaterial
  1
ByBlock
 72
     0
 73
     2
 43
0.0208333333333333
 43
0.0
 43
0.0
 43
0.0
 43
0.0
 43
0.0208333333333333
 43
0.0
 43
0.0
 43
0.0
 43
0.0
 43
1.0
 43
0.0
 43
0.0
 43
0.0
 43
0.0
 43
1.0
 77
     0
 78
     2
 47
0.0208333333333333
 47
0.0
 47
0.0
 47
0.0
 47
0.0
 47
0.0208333333333333
 47
0.0
 47
0.0
 47
0.0
 47
0.0
 47
1.0
 47
0.0
 47
0.0
 47
0.0
 47
0.0
 47
1.0
171
     0
172
     2
 49
0.0208333333333333
 49
0.0
 49
0.0
 49
0.0
 49
0.0
 49
0.0208333333333333
 49
0.0
 49
0.0
 49
0.0
 49
0.0
 49
1.0
 49
0.0
 49
0.0
 49
0.0
 49
0.0
 49
1.0
175
     0
176
     2
142
0.0208333333333333
142
0.0
142
0.0
142
0.0
142
0.0
142
0.0208333333333333
142
0.0
142
0.0
142
0.0
142
0.0
142
1.0
142
0.0
142
0.0
142
0.0
142
0.0
142
1.0
179
     0
270
     2
144
0.0208333333333333
144
0.0
144
0.0
144
0.0
144
0.0
144
0.0208333333333333
144
0.0
144
0.0
144
0.0
144
0.0
144
1.0
144
0.0
144
0.0
144
0.0
144
0.0
144
1.0
274
     2
147
0.0208333333333333
147
0.0
147
0.0
147
0.0
147
0.0
147
0.0208333333333333
147
0.0
147
0.0
147
0.0
147
0.0
147
1.0
147
0.0
147
0.0
147
0.0
147
0.0
147
1.0
  0
MATERIAL
  5
3A
102
{ACAD_REACTORS
330
E
102
}
102
{ACAD_XDICTIONARY
360
4DA
102
}
330
E
100
AcDbMaterial
  1
ByLayer
 72
     0
 73
     2
 43
0.0208333333333333
 43
0.0
 43
0.0
 43
0.0
 43
0.0
 43
0.0208333333333333
 43
0.0
 43
0.0
 43
0.0
 43
0.0
 43
1.0
 43
0.0
 43
0.0
 43
0.0
 43
0.0
 43
1.0
 77
     0
 78
     2
 47
0.0208333333333333
 47
0.0
 47
0.0
 47
0.0
 47
0.0
 47
0.0208333333333333
 47
0.0
 47
0.0
 47
0.0
 47
0.0
 47
1.0
 47
0.0
 47
0.0
 47
0.0
 47
0.0
 47
1.0
171
     0
172
     2
 49
0.0208333333333333
 49
0.0
 49
0.0
 49
0.0
 49
0.0
 49
0.0208333333333333
 49
0.0
 49
0.0
 49
0.0
 49
0.0
 49
1.0
 49
0.0
 49
0.0
 49
0.0
 49
0.0
 49
1.0
175
     0
176
     2
142
0.0208333333333333
142
0.0
142
0.0
142
0.0
142
0.0
142
0.0208333333333333
142
0.0
142
0.0
142
0.0
142
0.0
142
1.0
142
0.0
142
0.0
142
0.0
142
0.0
142
1.0
179
     0
270
     2
144
0.0208333333333333
144
0.0
144
0.0
144
0.0
144
0.0
144
0.0208333333333333
144
0.0
144
0.0
144
0.0
144
0.0
144
1.0
144
0.0
144
0.0
144
0.0
144
0.0
144
1.0
274
     2
147
0.0208333333333333
147
0.0
147
0.0
147
0.0
147
0.0
147
0.0208333333333333
147
0.0
147
0.0
147
0.0
147
0.0
147
1.0
147
0.0
147
0.0
147
0.0
147
0.0
147
1.0
  0
MATERIAL
  5
D
102
{ACAD_REACTORS
330
E
102
}
102
{ACAD_XDICTIONARY
360
4DC
102
}
330
E
100
AcDbMaterial
  1
Global
 72
     0
 73
     2
 43
0.0208333333333333
 43
0.0
 43
0.0
 43
0.0
 43
0.0
 43
0.0208333333333333
 43
0.0
 43
0.0
 43
0.0
 43
0.0
 43
1.0
 43
0.0
 43
0.0
 43
0.0
 43
0.0
 43
1.0
 77
     0
 78
     2
 47
0.0208333333333333
 47
0.0
 47
0.0
 47
0.0
 47
0.0
 47
0.0208333333333333
 47
0.0
 47
0.0
 47
0.0
 47
0.0
 47
1.0
 47
0.0
 47
0.0
 47
0.0
 47
0.0
 47
1.0
171
     0
172
     2
 49
0.0208333333333333
 49
0.0
 49
0.0
 49
0.0
 49
0.0
 49
0.0208333333333333
 49
0.0
 49
0.0
 49
0.0
 49
0.0
 49
1.0
 49
0.0
 49
0.0
 49
0.0
 49
0.0
 49
1.0
175
     0
176
     2
142
0.0208333333333333
142
0.0
142
0.0
142
0.0
142
0.0
142
0.0208333333333333
142
0.0
142
0.0
142
0.0
142
0.0
142
1.0
142
0.0
142
0.0
142
0.0
142
0.0
142
1.0
179
     0
270
     2
144
0.0208333333333333
144
0.0
144
0.0
144
0.0
144
0.0
144
0.0208333333333333
144
0.0
144
0.0
144
0.0
144
0.0
144
1.0
144
0.0
144
0.0
144
0.0
144
0.0
144
1.0
274
     2
147
0.0208333333333333
147
0.0
147
0.0
147
0.0
147
0.0
147
0.0208333333333333
147
0.0
147
0.0
147
0.0
147
0.0
147
1.0
147
0.0
147
0.0
147
0.0
147
0.0
147
1.0
1001
ACAD
1070
    -1
1070
     3
1070
     0
1000

1071
        0
  0
MLEADERSTYLE
  5
3F9
102
{ACAD_REACTORS
330
4D
102
}
102
{ACAD_XDICTIONARY
360
4DE
102
}
330
4D
100
AcDbMLeaderStyle
170
     2
171
     1
172
     0
 90
        2
 40
0.0
 41
0.0
173
     1
 91
-1056964608
340
29
 92
       -2
290
     1
 42
0.09
291
     1
 43
0.36
  3
Standard
341
0
 44
0.18
300

342
26
174
     1
178
     6
175
     1
176
     0
 93
-1056964608
 45
0.18
292
     0
297
     0
 46
0.18
343
0
 94
-1056964608
 47
1.0
 49
1.0
140
1.0
293
     1
141
0.0
294
     1
177
     0
142
1.0
295
     1
296
     0
143
0.125
1001
ACAD_MLEADERVER
1070
     2
  0
MLINESTYLE
  5
52
102
{ACAD_REACTORS
330
38
102
}
330
38
100
AcDbMlineStyle
  2
STANDARD
 70
     0
  3

 62
     0
 51
90.0
 52
90.0
 71
     2
 49
0.5
 62
   256
  6
BYLAYER
 49
-0.5
 62
   256
  6
BYLAYER
  0
ACDBPLACEHOLDER
  5
A
102
{ACAD_REACTORS
330
B
102
}
330
B
  0
SCALE
  5
56
102
{ACAD_REACTORS
330
4B
102
}
330
4B
100
AcDbScale
 70
     0
300
1:1
140
1.0
141
1.0
290
     1
  0
SCALE
  5
57
102
{ACAD_REACTORS
330
4B
102
}
330
4B
100
AcDbScale
 70
     0
300
1/128" = 1'-0"
140
0.0078125
141
12.0
290
     0
  0
SCALE
  5
58
102
{ACAD_REACTORS
330
4B
102
}
330
4B
100
AcDbScale
 70
     0
300
1/64" = 1'-0"
140
0.015625
141
12.0
290
     0
  0
SCALE
  5
59
102
{ACAD_REACTORS
330
4B
102
}
330
4B
100
AcDbScale
 70
     0
300
1/32" = 1'-0"
140
0.03125
141
12.0
290
     0
  0
SCALE
  5
5A
102
{ACAD_REACTORS
330
4B
102
}
330
4B
100
AcDbScale
 70
     0
300
1/16" = 1'-0"
140
0.0625
141
12.0
290
     0
  0
SCALE
  5
5B
102
{ACAD_REACTORS
330
4B
102
}
330
4B
100
AcDbScale
 70
     0
300
3/32" = 1'-0"
140
0.09375
141
12.0
290
     0
  0
SCALE
  5
5C
102
{ACAD_REACTORS
330
4B
102
}
330
4B
100
AcDbScale
 70
     0
300
1/8" = 1'-0"
140
0.125
141
12.0
290
     0
  0
SCALE
  5
5D
102
{ACAD_REACTORS
330
4B
102
}
330
4B
100
AcDbScale
 70
     0
300
3/16" = 1'-0"
140
0.1875
141
12.0
290
     0
  0
SCALE
  5
5E
102
{ACAD_REACTORS
330
4B
102
}
330
4B
100
AcDbScale
 70
     0
300
1/4" = 1'-0"
140
0.25
141
12.0
290
     0
  0
SCALE
  5
5F
102
{ACAD_REACTORS
330
4B
102
}
330
4B
100
AcDbScale
 70
     0
300
3/8" = 1'-0"
140
0.375
141
12.0
290
     0
  0
SCALE
  5
60
102
{ACAD_REACTORS
330
4B
102
}
330
4B
100
AcDbScale
 70
     0
300
1/2" = 1'-0"
140
0.5
141
12.0
290
     0
  0
SCALE
  5
61
102
{ACAD_REACTORS
330
4B
102
}
330
4B
100
AcDbScale
 70
     0
300
3/4" = 1'-0"
140
0.75
141
12.0
290
     0
  0
SCALE
  5
62
102
{ACAD_REACTORS
330
4B
102
}
330
4B
100
AcDbScale
 70
     0
300
1" = 1'-0"
140
1.0
141
12.0
290
     0
  0
SCALE
  5
63
102
{ACAD_REACTORS
330
4B
102
}
330
4B
100
AcDbScale
 70
     0
300
1-1/2" = 1'-0"
140
1.5
141
12.0
290
     0
  0
SCALE
  5
64
102
{ACAD_REACTORS
330
4B
102
}
330
4B
100
AcDbScale
 70
     0
300
3" = 1'-0"
140
3.0
141
12.0
290
     0
  0
SCALE
  5
65
102
{ACAD_REACTORS
330
4B
102
}
330
4B
100
AcDbScale
 70
     0
300
6" = 1'-0"
140
6.0
141
12.0
290
     0
  0
SCALE
  5
66
102
{ACAD_REACTORS
330
4B
102
}
330
4B
100
AcDbScale
 70
     0
300
1'-0" = 1'-0"
140
12.0
141
12.0
290
     0
  0
ACDBSECTIONVIEWSTYLE
  5
3FB
102
{ACAD_REACTORS
330
3FA
102
}
102
{ACAD_XDICTIONARY
360
412
102
}
330
3FA
100
AcDbModelDocViewStyle
 70
     0
  3
Imperial24
290
     0
100
AcDbSectionViewStyle
 70
     0
 71
     0
 90
       78
 71
     1
340
26
 40
0.24
340
0
340
0
 40
0.24
300
I, O, Q, S, X, Z
 40
0.48
 90
        3
 40
0.18
 90
        1
 71
     2
340
16
 90
       25
340
16
 90
       50
 40
0.24
 40
0.0
 40
0.24
 71
     3
340
26
 40
0.24
 90
        1
 40
0.75
 90
        1
300
%<\AcVar ViewType \f "%tc1">% %<\AcVar ViewSectionStartId>%-%<\AcVar ViewSectionEndId>%\PSCALE %<\AcVar ViewScale \f "%sn">%
 71
     4
300
ANSI31
 40
1.0
 90
        0
290
     0
290
     0
 90
        6
 40
0.0
 40
1.570796326794897
 40
0.2617993877991494
 40
1.308996938995747
 40
-0.2617993877991494
 40
1.832595714594046
  0
TABLESTYLE
  5
53
102
{ACAD_REACTORS
330
4C
102
}
330
4C
100
AcDbTableStyle
  3
Standard
 70
     0
 71
     0
 40
0.06
 41
0.06
280
     0
281
     0
  7
STANDARD
140
0.18
170
     2
 62
     0
 63
   257
283
     0
274
    -2
284
     1
 64
     0
275
    -2
285
     1
 65
     0
276
    -2
286
     1
 66
     0
277
    -2
287
     1
 67
     0
278
    -2
288
     1
 68
     0
279
    -2
289
     1
 69
     0
  7
STANDARD
140
0.25
170
     5
 62
     0
 63
   257
283
     0
274
    -2
284
     1
 64
     0
275
    -2
285
     1
 65
     0
276
    -2
286
     1
 66
     0
277
    -2
287
     1
 67
     0
278
    -2
288
     1
 68
     0
279
    -2
289
     1
 69
     0
  7
STANDARD
140
0.18
170
     5
 62
     0
 63
   257
283
     0
274
    -2
284
     1
 64
     0
275
    -2
285
     1
 65
     0
276
    -2
286
     1
 66
     0
277
    -2
287
     1
 67
     0
278
    -2
288
     1
 68
     0
279
    -2
289
     1
 69
     0
  0
VISUALSTYLE
  5
2F
102
{ACAD_REACTORS
330
30
102
}
102
{ACAD_XDICTIONARY
360
4E1
102
}
330
30
100
AcDbVisualStyle
  2
2dWireframe
 70
     4
 71
     0
 72
     2
 73
     0
 90
        0
 40
0.6
 41
30.0
 62
     5
 63
     7
 74
     1
 91
        4
 64
     7
 65
   257
 75
     1
175
     1
 42
1.0
 92
        0
 66
   257
 43
1.0
 76
     1
 77
     6
 78
     2
 67
     7
 79
     5
170
     0
171
     0
290
     0
174
     0
 93
        1
 44
0.0
173
     0
291
     0
 45
0.0
1001
ACAD
1000
AcDbSavedByObjectVersion
1070
     0
  0
VISUALSTYLE
  5
3E8
102
{ACAD_REACTORS
330
30
102
}
102
{ACAD_XDICTIONARY
360
4E3
102
}
330
30
100
AcDbVisualStyle
  2
Basic
 70
     7
 71
     1
 72
     0
 73
     1
 90
        0
 40
0.6
 41
30.0
 62
     5
 63
     7
 74
     0
 91
        4
 64
     7
 65
   257
 75
     1
175
     1
 42
1.0
 92
        8
 66
     7
 43
1.0
 76
     1
 77
     6
 78
     2
 67
     7
 79
     5
170
     0
171
     0
290
     0
174
     0
 93
        1
 44
0.0
173
     0
291
     1
 45
0.0
1001
ACAD
1000
AcDbSavedByObjectVersion
1070
     0
  0
VISUALSTYLE
  5
3EC
102
{ACAD_REACTORS
330
30
102
}
102
{ACAD_XDICTIONARY
360
4E5
102
}
330
30
100
AcDbVisualStyle
  2
Brighten
 70
    12
 71
     2
 72
     2
 73
     0
 90
        0
 40
0.6
 41
30.0
 62
     5
 63
     7
 74
     1
 91
        4
 64
     7
 65
   257
 75
     1
175
     1
 42
1.0
 92
        8
 66
     7
 43
1.0
 76
     1
 77
     6
 78
     2
 67
     7
 79
     5
170
     0
171
     0
290
     0
174
     0
 93
        1
 44
50.0
173
     0
291
     1
 45
0.0
1001
ACAD
1000
AcDbSavedByObjectVersion
1070
     0
  0
VISUALSTYLE
  5
3F0
102
{ACAD_REACTORS
330
30
102
}
102
{ACAD_XDICTIONARY
360
4E7
102
}
330
30
100
AcDbVisualStyle
  2
ColorChange
 70
    16
 71
     2
 72
     2
 73
     3
 90
        0
 40
0.6
 41
30.0
 62
     5
 63
     8
 74
     1
 91
        4
 64
     7
 65
   257
 75
     1
175
     1
 42
1.0
 92
        8
 66
     8
 43
1.0
 76
     1
 77
     6
 78
     2
 67
     7
 79
     5
170
     0
171
     0
290
     0
174
     0
 93
        1
 44
0.0
173
     0
291
     1
 45
0.0
1001
ACAD
1000
AcDbSavedByObjectVersion
1070
     0
  0
VISUALSTYLE
  5
3EA
102
{ACAD_REACTORS
330
30
102
}
102
{ACAD_XDICTIONARY
360
4E9
102
}
330
30
100
AcDbVisualStyle
  2
Conceptual
 70
     9
 71
     3
 72
     2
 73
     0
 90
        0
 40
0.6
 41
30.0
 62
     5
 63
     7
 74
     2
 91
        2
 64
     7
 65
   257
 75
     1
175
     1
 42
179.0
 92
        8
 66
     7
 43
1.0
 76
     1
 77
     6
 78
     2
 67
     7
 79
     3
170
     0
171
     0
290
     0
174
     0
 93
        1
 44
0.0
173
     0
291
     0
 45
0.0
1001
ACAD
1000
AcDbSavedByObjectVersion
1070
     0
  0
VISUALSTYLE
  5
3EB
102
{ACAD_REACTORS
330
30
102
}
102
{ACAD_XDICTIONARY
360
4EB
102
}
330
30
100
AcDbVisualStyle
  2
Dim
 70
    11
 71
     2
 72
     2
 73
     0
 90
        0
 40
0.6
 41
30.0
 62
     5
 63
     7
 74
     1
 91
        4
 64
     7
 65
   257
 75
     1
175
     1
 42
1.0
 92
        8
 66
     7
 43
1.0
 76
     1
 77
     6
 78
     2
 67
     7
 79
     5
170
     0
171
     0
290
     0
174
     0
 93
        1
 44
-50.0
173
     0
291
     1
 45
0.0
1001
ACAD
1000
AcDbSavedByObjectVersion
1070
     0
  0
VISUALSTYLE
  5
3F8
102
{ACAD_REACTORS
330
30
102
}
102
{ACAD_XDICTIONARY
360
4ED
102
}
330
30
100
AcDbVisualStyle
  2
EdgeColorOff
 70
    22
 71
     2
 72
     2
 73
     0
 90
        0
 40
0.6
 41
30.0
 62
     5
 63
     7
 74
     1
 91
        4
 64
     7
 65
   257
 75
     1
175
     1
 42
1.0
 92
        8
 66
     7
 43
1.0
 76
     1
 77
     6
 78
     2
 67
     7
 79
     5
170
     0
171
     0
290
     0
174
     0
 93
        1
 44
0.0
173
     0
291
     1
 45
0.0
1001
ACAD
1000
AcDbSavedByObjectVersion
1070
     0
  0
VISUALSTYLE
  5
3EF
102
{ACAD_REACTORS
330
30
102
}
102
{ACAD_XDICTIONARY
360
4EF
102
}
330
30
100
AcDbVisualStyle
  2
Facepattern
 70
    15
 71
     2
 72
     2
 73
     0
 90
        0
 40
0.6
 41
30.0
 62
     5
 63
     7
 74
     1
 91
        4
 64
     7
 65
   257
 75
     1
175
     1
 42
1.0
 92
        8
 66
     7
 43
1.0
 76
     1
 77
     6
 78
     2
 67
     7
 79
     5
170
     0
171
     0
290
     0
174
     0
 93
        1
 44
0.0
173
     0
291
     1
 45
0.0
1001
ACAD
1000
AcDbSavedByObjectVersion
1070
     0
  0
VISUALSTYLE
  5
3E4
102
{ACAD_REACTORS
330
30
102
}
102
{ACAD_XDICTIONARY
360
4F1
102
}
330
30
100
AcDbVisualStyle
  2
Flat
 70
     0
 71
     2
 72
     1
 73
     1
 90
        2
 40
0.6
 41
30.0
 62
     5
 63
     7
 74
     0
 91
        0
 64
     7
 65
   257
 75
     1
175
     1
 42
1.0
 92
        8
 66
     7
 43
1.0
 76
     1
 77
     6
 78
     2
 67
     7
 79
     5
170
     0
171
     0
290
     0
174
     0
 93
       13
 44
0.0
173
     0
291
     1
 45
0.0
1001
ACAD
1000
AcDbSavedByObjectVersion
1070
     0
  0
VISUALSTYLE
  5
3E5
102
{ACAD_REACTORS
330
30
102
}
102
{ACAD_XDICTIONARY
360
4F3
102
}
330
30
100
AcDbVisualStyle
  2
FlatWithEdges
 70
     1
 71
     2
 72
     1
 73
     1
 90
        2
 40
0.6
 41
30.0
 62
     5
 63
     7
 74
     1
 91
        0
 64
     7
 65
   257
 75
     1
175
     1
 42
1.0
 92
        0
 66
   257
 43
1.0
 76
     1
 77
     6
 78
     2
 67
     7
 79
     5
170
     0
171
     0
290
     0
174
     0
 93
       13
 44
0.0
173
     0
291
     1
 45
0.0
1001
ACAD
1000
AcDbSavedByObjectVersion
1070
     0
  0
VISUALSTYLE
  5
3E6
102
{ACAD_REACTORS
330
30
102
}
102
{ACAD_XDICTIONARY
360
4F5
102
}
330
30
100
AcDbVisualStyle
  2
Gouraud
 70
     2
 71
     2
 72
     2
 73
     1
 90
        2
 40
0.6
 41
30.0
 62
     5
 63
     7
 74
     0
 91
        0
 64
     7
 65
   257
 75
     1
175
     1
 42
1.0
 92
        0
 66
     7
 43
1.0
 76
     1
 77
     6
 78
     2
 67
     7
 79
     5
170
     0
171
     0
290
     0
174
     0
 93
       13
 44
0.0
173
     0
291
     1
 45
0.0
1001
ACAD
1000
AcDbSavedByObjectVersion
1070
     0
  0
VISUALSTYLE
  5
3E7
102
{ACAD_REACTORS
330
30
102
}
102
{ACAD_XDICTIONARY
360
4F7
102
}
330
30
100
AcDbVisualStyle
  2
GouraudWithEdges
 70
     3
 71
     2
 72
     2
 73
     1
 90
        2
 40
0.6
 41
30.0
 62
     5
 63
     7
 74
     1
 91
        0
 64
     7
 65
   257
 75
     1
175
     1
 42
1.0
 92
        0
 66
   257
 43
1.0
 76
     1
 77
     6
 78
     2
 67
     7
 79
     5
170
     0
171
     0
290
     0
174
     0
 93
       13
 44
0.0
173
     0
291
     1
 45
0.0
1001
ACAD
1000
AcDbSavedByObjectVersion
1070
     0
  0
VISUALSTYLE
  5
3E9
102
{ACAD_REACTORS
330
30
102
}
102
{ACAD_XDICTIONARY
360
4F9
102
}
330
30
100
AcDbVisualStyle
  2
Hidden
 70
     6
 71
     1
 72
     2
 73
     2
 90
        0
 40
0.6
 41
30.0
 62
     5
 63
     7
 74
     2
 91
        2
 64
     7
 65
   257
 75
     2
175
     1
 42
40.0
 92
        0
 66
   257
 43
1.0
 76
     1
 77
     6
 78
     2
 67
     7
 79
     3
170
     0
171
     0
290
     0
174
     0
 93
        1
 44
0.0
173
     0
291
     0
 45
0.0
1001
ACAD
1000
AcDbSavedByObjectVersion
1070
     0
  0
VISUALSTYLE
  5
3F6
102
{ACAD_REACTORS
330
30
102
}
102
{ACAD_XDICTIONARY
360
4FB
102
}
330
30
100
AcDbVisualStyle
  2
JitterOff
 70
    20
 71
     2
 72
     2
 73
     0
 90
        0
 40
0.6
 41
30.0
 62
     5
 63
     7
 74
     1
 91
        4
 64
     7
 65
   257
 75
     1
175
     1
 42
1.0
 92
       10
 66
     7
 43
1.0
 76
     1
 77
     6
 78
     2
 67
     7
 79
     5
170
     0
171
     0
290
     0
174
     0
 93
        1
 44
0.0
173
     0
291
     1
 45
0.0
1001
ACAD
1000
AcDbSavedByObjectVersion
1070
     0
  0
VISUALSTYLE
  5
3EE
102
{ACAD_REACTORS
330
30
102
}
102
{ACAD_XDICTIONARY
360
4FD
102
}
330
30
100
AcDbVisualStyle
  2
Linepattern
 70
    14
 71
     2
 72
     2
 73
     0
 90
        0
 40
0.6
 41
30.0
 62
     5
 63
     7
 74
     1
 91
        4
 64
     7
 65
   257
 75
     7
175
     7
 42
1.0
 92
        8
 66
     7
 43
1.0
 76
     1
 77
     6
 78
     2
 67
     7
 79
     5
170
     0
171
     0
290
     0
174
     0
 93
        1
 44
0.0
173
     0
291
     1
 45
0.0
1001
ACAD
1000
AcDbSavedByObjectVersion
1070
     0
  0
VISUALSTYLE
  5
3F7
102
{ACAD_REACTORS
330
30
102
}
102
{ACAD_XDICTIONARY
360
4FF
102
}
330
30
100
AcDbVisualStyle
  2
OverhangOff
 70
    21
 71
     2
 72
     2
 73
     0
 90
        0
 40
0.6
 41
30.0
 62
     5
 63
     7
 74
     1
 91
        4
 64
     7
 65
   257
 75
     1
175
     1
 42
1.0
 92
        9
 66
     7
 43
1.0
 76
     1
 77
     6
 78
     2
 67
     7
 79
     5
170
     0
171
     0
290
     0
174
     0
 93
        1
 44
0.0
173
     0
291
     1
 45
0.0
1001
ACAD
1000
AcDbSavedByObjectVersion
1070
     0
  0
VISUALSTYLE
  5
54
102
{ACAD_REACTORS
330
30
102
}
102
{ACAD_XDICTIONARY
360
501
102
}
330
30
100
AcDbVisualStyle
  2
Realistic
 70
     8
 71
     2
 72
     3
 73
     0
 90
        2
 40
0.6
 41
30.0
 62
     5
 63
     7
 74
     0
 91
        0
 64
     7
 65
   257
 75
     1
175
     1
 42
1.0
 92
        8
 66
   257
 43
1.0
 76
     1
 77
     6
 78
     2
 67
     7
 79
     3
170
     0
171
     0
290
     0
174
     0
 93
       13
 44
0.0
173
     0
291
     0
 45
0.0
1001
ACAD
1000
AcDbSavedByObjectVersion
1070
     0
  0
VISUALSTYLE
  5
3F5
102
{ACAD_REACTORS
330
30
102
}
102
{ACAD_XDICTIONARY
360
503
102
}
330
30
100
AcDbVisualStyle
  2
Shaded
 70
    27
 71
     2
 72
     2
 73
     1
 90
        2
 40
0.6
 41
30.0
 62
     5
 63
     7
 74
     0
 91
        4
 64
     7
 65
   257
 75
     1
175
     1
 42
1.0
 92
        8
 66
   257
 43
1.0
 76
     1
 77
     6
 78
     2
 67
     8
 79
     3
170
     0
171
     0
290
     0
174
     0
 93
        5
 44
0.0
173
     0
291
     0
 45
0.0
1001
ACAD
1000
AcDbSavedByObjectVersion
1070
     0
  0
VISUALSTYLE
  5
3F4
102
{ACAD_REACTORS
330
30
102
}
102
{ACAD_XDICTIONARY
360
505
102
}
330
30
100
AcDbVisualStyle
  2
Shaded with edges
 70
    26
 71
     2
 72
     2
 73
     1
 90
        2
 40
0.6
 41
30.0
 62
     5
 63
     7
 74
     1
 91
       10
 64
     7
 65
   257
 75
     2
175
     1
 42
1.0
 92
        8
 66
   257
 43
1.0
 76
     1
 77
     6
 78
     2
 67
     7
 79
     3
170
     0
171
     0
290
     0
174
     0
 93
        5
 44
0.0
173
     0
291
     0
 45
0.0
1001
ACAD
1000
AcDbSavedByObjectVersion
1070
     0
  0
VISUALSTYLE
  5
3F1
102
{ACAD_REACTORS
330
30
102
}
102
{ACAD_XDICTIONARY
360
507
102
}
330
30
100
AcDbVisualStyle
  2
Shades of Gray
 70
    23
 71
     2
 72
     2
 73
     3
 90
        0
 40
0.6
 41
30.0
 62
     5
 63
     7
 74
     2
 91
        2
 64
     7
 65
     7
 75
     1
175
     1
 42
40.0
 92
        8
 66
     7
 43
1.0
 76
     1
 77
     6
 78
     2
 67
     7
 79
     3
170
     0
171
     0
290
     0
174
     0
 93
        1
 44
0.0
173
     0
291
     0
 45
0.0
1001
ACAD
1000
AcDbSavedByObjectVersion
1070
     0
  0
VISUALSTYLE
  5
3F2
102
{ACAD_REACTORS
330
30
102
}
102
{ACAD_XDICTIONARY
360
509
102
}
330
30
100
AcDbVisualStyle
  2
Sketchy
 70
    24
 71
     1
 72
     2
 73
     2
 90
        0
 40
0.6
 41
30.0
 62
     5
 63
     7
 74
     2
 91
        2
 64
     7
 65
     7
 75
     1
175
     1
 42
40.0
 92
       11
 66
     7
 43
1.0
 76
     1
 77
     6
 78
     2
 67
     7
 79
     6
170
     0
171
     0
290
     0
174
     0
 93
        1
 44
0.0
173
     0
291
     0
 45
0.0
1001
ACAD
1000
AcDbSavedByObjectVersion
1070
     0
  0
VISUALSTYLE
  5
3ED
102
{ACAD_REACTORS
330
30
102
}
102
{ACAD_XDICTIONARY
360
50B
102
}
330
30
100
AcDbVisualStyle
  2
Thicken
 70
    13
 71
     2
 72
     2
 73
     0
 90
        0
 40
0.6
 41
30.0
 62
     5
 63
     7
 74
     1
 91
        4
 64
     7
 65
   257
 75
     1
175
     1
 42
1.0
 92
       12
 66
     7
 43
1.0
 76
     1
 77
     6
 78
     2
 67
     7
 79
     5
170
     0
171
     0
290
     0
174
     0
 93
        1
 44
0.0
173
     0
291
     1
 45
0.0
1001
ACAD
1000
AcDbSavedByObjectVersion
1070
     0
  0
VISUALSTYLE
  5
55
102
{ACAD_REACTORS
330
30
102
}
102
{ACAD_XDICTIONARY
360
50D
102
}
330
30
100
AcDbVisualStyle
  2
Wireframe
 70
     5
 71
     0
 72
     2
 73
     0
 90
        0
 40
0.6
 41
30.0
 62
     5
 63
     7
 74
     1
 91
        4
 64
     7
 65
   257
 75
     1
175
     1
 42
1.0
 92
        0
 66
   257
 43
1.0
 76
     1
 77
     6
 78
     2
 67
     7
 79
     3
170
     0
171
     0
290
     0
174
     0
 93
        1
 44
0.0
173
     0
291
     0
 45
0.0
1001
ACAD
1000
AcDbSavedByObjectVersion
1070
     0
  0
VISUALSTYLE
  5
3F3
102
{ACAD_REACTORS
330
30
102
}
102
{ACAD_XDICTIONARY
360
50F
102
}
330
30
100
AcDbVisualStyle
  2
X-Ray
 70
    25
 71
     2
 72
     2
 73
     1
 90
        1
 40
0.5
 41
30.0
 62
     5
 63
     7
 74
     1
 91
        0
 64
     7
 65
   257
 75
     1
175
     1
 42
1.0
 92
        8
 66
     7
 43
1.0
 76
     1
 77
     6
 78
     2
 67
     7
 79
     3
170
     0
171
     0
290
     0
174
     0
 93
       13
 44
0.0
173
     0
291
     0
 45
0.0
1001
ACAD
1000
AcDbSavedByObjectVersion
1070
     0
  0
XRECORD
  5
4D2
102
{ACAD_REACTORS
330
4D1
102
}
330
4D1
100
AcDbXrecord
280
     1
340
4A
  0
XRECORD
  5
4D3
102
{ACAD_REACTORS
330
4D1
102
}
330
4D1
100
AcDbXrecord
280
     1
340
E
  0
DICTIONARYVAR
  5
3DF
102
{ACAD_REACTORS
330
3D9
102
}
330
3D9
100
DictionaryVariables
280
     0
  1
1:1
  0
DICTIONARYVAR
  5
3DB
102
{ACAD_REACTORS
330
3D9
102
}
330
3D9
100
DictionaryVariables
280
     0
  1
Standard
  0
DICTIONARYVAR
  5
3DA
102
{ACAD_REACTORS
330
3D9
102
}
330
3D9
100
DictionaryVariables
280
     0
  1
Standard
  0
DICTIONARYVAR
  5
3DC
102
{ACAD_REACTORS
330
3D9
102
}
330
3D9
100
DictionaryVariables
280
     0
  1
Imperial24
  0
DICTIONARYVAR
  5
3DD
102
{ACAD_REACTORS
330
3D9
102
}
330
3D9
100
DictionaryVariables
280
     0
  1
Imperial24
  0
DICTIONARYVAR
  5
4CF
102
{ACAD_REACTORS
330
3D9
102
}
330
3D9
100
DictionaryVariables
280
     0
  1
0
  0
DICTIONARYVAR
  5
4D0
102
{ACAD_REACTORS
330
3D9
102
}
330
3D9
100
DictionaryVariables
280
     0
  1
1
  0
DICTIONARYVAR
  5
3E1
102
{ACAD_REACTORS
330
3D9
102
}
330
3D9
100
DictionaryVariables
280
     0
  1
1
  0
DICTIONARYVAR
  5
3E2
102
{ACAD_REACTORS
330
3D9
102
}
330
3D9
100
DictionaryVariables
280
     0
  1
15
  0
DICTIONARYVAR
  5
3E0
102
{ACAD_REACTORS
330
3D9
102
}
330
3D9
100
DictionaryVariables
280
     0
  1
0
  0
DICTIONARYVAR
  5
3DE
102
{ACAD_REACTORS
330
3D9
102
}
330
3D9
100
DictionaryVariables
280
     0
  1
0
  0
DICTIONARYVAR
  5
4C3
102
{ACAD_REACTORS
330
3D9
102
}
330
3D9
100
DictionaryVariables
280
     0
  1
0
  0
DICTIONARY
  5
414
330
3FD
100
AcDbDictionary
280
     1
281
     1
  3
ACAD_XREC_ROUNDTRIP
360
4D7
  0
DICTIONARY
  5
1A
330
18
100
AcDbDictionary
280
     1
281
     1
  0
DICTIONARY
  5
4D8
330
42
100
AcDbDictionary
280
     1
281
     1
  3
ACAD_XREC_ROUNDTRIP
360
4D9
  0
DICTIONARY
  5
4DA
330
3A
100
AcDbDictionary
280
     1
281
     1
  3
ACAD_XREC_ROUNDTRIP
360
4DB
  0
DICTIONARY
  5
4DC
330
D
100
AcDbDictionary
280
     1
281
     1
  3
ACAD_XREC_ROUNDTRIP
360
4DD
  0
DICTIONARY
  5
4DE
330
3F9
100
AcDbDictionary
280
     1
281
     1
  3
ACAD_XREC_ROUNDTRIP
360
4DF
  0
DICTIONARY
  5
412
330
3FB
100
AcDbDictionary
280
     1
281
     1
  3
ACAD_XREC_ROUNDTRIP
360
4E0
  0
DICTIONARY
  5
4E1
330
2F
100
AcDbDictionary
280
     1
281
     1
  3
ACAD_XREC_ROUNDTRIP
360
4E2
  0
DICTIONARY
  5
4E3
330
3E8
100
AcDbDictionary
280
     1
281
     1
  3
ACAD_XREC_ROUNDTRIP
360
4E4
  0
DICTIONARY
  5
4E5
330
3EC
100
AcDbDictionary
280
     1
281
     1
  3
ACAD_XREC_ROUNDTRIP
360
4E6
  0
DICTIONARY
  5
4E7
330
3F0
100
AcDbDictionary
280
     1
281
     1
  3
ACAD_XREC_ROUNDTRIP
360
4E8
  0
DICTIONARY
  5
4E9
330
3EA
100
AcDbDictionary
280
     1
281
     1
  3
ACAD_XREC_ROUNDTRIP
360
4EA
  0
DICTIONARY
  5
4EB
330
3EB
100
AcDbDictionary
280
     1
281
     1
  3
ACAD_XREC_ROUNDTRIP
360
4EC
  0
DICTIONARY
  5
4ED
330
3F8
100
AcDbDictionary
280
     1
281
     1
  3
ACAD_XREC_ROUNDTRIP
360
4EE
  0
DICTIONARY
  5
4EF
330
3EF
100
AcDbDictionary
280
     1
281
     1
  3
ACAD_XREC_ROUNDTRIP
360
4F0
  0
DICTIONARY
  5
4F1
330
3E4
100
AcDbDictionary
280
     1
281
     1
  3
ACAD_XREC_ROUNDTRIP
360
4F2
  0
DICTIONARY
  5
4F3
330
3E5
100
AcDbDictionary
280
     1
281
     1
  3
ACAD_XREC_ROUNDTRIP
360
4F4
  0
DICTIONARY
  5
4F5
330
3E6
100
AcDbDictionary
280
     1
281
     1
  3
ACAD_XREC_ROUNDTRIP
360
4F6
  0
DICTIONARY
  5
4F7
330
3E7
100
AcDbDictionary
280
     1
281
     1
  3
ACAD_XREC_ROUNDTRIP
360
4F8
  0
DICTIONARY
  5
4F9
330
3E9
100
AcDbDictionary
280
     1
281
     1
  3
ACAD_XREC_ROUNDTRIP
360
4FA
  0
DICTIONARY
  5
4FB
330
3F6
100
AcDbDictionary
280
     1
281
     1
  3
ACAD_XREC_ROUNDTRIP
360
4FC
  0
DICTIONARY
  5
4FD
330
3EE
100
AcDbDictionary
280
     1
281
     1
  3
ACAD_XREC_ROUNDTRIP
360
4FE
  0
DICTIONARY
  5
4FF
330
3F7
100
AcDbDictionary
280
     1
281
     1
  3
ACAD_XREC_ROUNDTRIP
360
500
  0
DICTIONARY
  5
501
330
54
100
AcDbDictionary
280
     1
281
     1
  3
ACAD_XREC_ROUNDTRIP
360
502
  0
DICTIONARY
  5
503
330
3F5
100
AcDbDictionary
280
     1
281
     1
  3
ACAD_XREC_ROUNDTRIP
360
504
  0
DICTIONARY
  5
505
330
3F4
100
AcDbDictionary
280
     1
281
     1
  3
ACAD_XREC_ROUNDTRIP
360
506
  0
DICTIONARY
  5
507
330
3F1
100
AcDbDictionary
280
     1
281
     1
  3
ACAD_XREC_ROUNDTRIP
360
508
  0
DICTIONARY
  5
509
330
3F2
100
AcDbDictionary
280
     1
281
     1
  3
ACAD_XREC_ROUNDTRIP
360
50A
  0
DICTIONARY
  5
50B
330
3ED
100
AcDbDictionary
280
     1
281
     1
  3
ACAD_XREC_ROUNDTRIP
360
50C
  0
DICTIONARY
  5
50D
330
55
100
AcDbDictionary
280
     1
281
     1
  3
ACAD_XREC_ROUNDTRIP
360
50E
  0
DICTIONARY
  5
50F
330
3F3
100
AcDbDictionary
280
     1
281
     1
  3
ACAD_XREC_ROUNDTRIP
360
510
  0
XRECORD
  5
4D7
102
{ACAD_REACTORS
330
414
102
}
330
414
100
AcDbXrecord
280
     1
102
DISPLAYNAME
  1
Imperial24
102
FLAGS
 90
        0
  0
XRECORD
  5
4D9
102
{ACAD_REACTORS
330
4D8
102
}
330
4D8
100
AcDbXrecord
280
     1
102
MATERIAL
148
0.0
149
0.0
149
0.0
 93
        0
 94
      127
282
     0
 72
     0
 77
     0
171
     0
175
     0
179
     0
273
     0
  0
XRECORD
  5
4DB
102
{ACAD_REACTORS
330
4DA
102
}
330
4DA
100
AcDbXrecord
280
     1
102
MATERIAL
148
0.0
149
0.0
149
0.0
 93
        0
 94
      127
282
     0
 72
     0
 77
     0
171
     0
175
     0
179
     0
273
     0
  0
XRECORD
  5
4DD
102
{ACAD_REACTORS
330
4DC
102
}
330
4DC
100
AcDbXrecord
280
     1
102
MATERIAL
148
0.0
149
0.0
149
0.0
 93
        0
 94
      127
282
     0
 72
     0
 77
     0
171
     0
175
     0
179
     0
273
     0
  0
XRECORD
  5
4DF
102
{ACAD_REACTORS
330
4DE
102
}
330
4DE
100
AcDbXrecord
280
     1
102
ACAD_ROUNDTRIP_2012_MLEADER_STYLE
298
     1
  0
XRECORD
  5
4E0
102
{ACAD_REACTORS
330
412
102
}
330
412
100
AcDbXrecord
280
     1
102
DISPLAYNAME
  1
Imperial24
102
FLAGS
 90
        0
  0
XRECORD
  5
4E2
102
{ACAD_REACTORS
330
4E1
102
}
330
4E1
100
AcDbXrecord
280
     1
102
RTVSPropertyOp0
 70
     1
102
RTVSPropertyOp1
 70
     1
102
RTVSPropertyOp2
 70
     1
102
RTVSPropertyOp3
 70
     1
102
RTVSPropertyOp4
 70
     1
102
RTVSPropertyOp5
 70
     1
102
RTVSPropertyOp6
 70
     1
102
RTVSPropertyOp7
 70
     1
102
RTVSPropertyOp8
 70
     1
102
RTVSPropertyOp9
 70
     1
102
RTVSPropertyOp10
 70
     1
102
RTVSPropertyOp11
 70
     1
102
RTVSPropertyOp12
 70
     1
102
RTVSPropertyOp13
 70
     1
102
RTVSPropertyOp14
 70
     1
102
RTVSPropertyOp15
 70
     1
102
RTVSPropertyOp16
 70
     1
102
RTVSPropertyOp17
 70
     1
102
RTVSPropertyOp18
 70
     1
102
RTVSPropertyOp19
 70
     1
102
RTVSPropertyOp20
 70
     1
102
RTVSPropertyOp21
 70
     1
102
RTVSPropertyOp22
 70
     1
102
RTVSPropertyOp23
 70
     1
102
RTVSPropertyOp24
 70
     1
102
RTVSPropertyOp25
 70
     1
102
RTVSPropertyOp26
 70
     1
102
RTVSPropertyOp27
 70
     1
102
RTVSPropertyOp28
 70
     1
102
RTVSPropertyOp29
 70
     1
102
RTVSPropertyOp30
 70
     1
102
RTVSPropertyOp31
 70
     1
102
RTVSPropertyOp32
 70
     1
102
RTVSPropertyOp33
 70
     1
102
RTVSPropertyOp34
 70
     1
102
RTVSPropertyOp35
 70
     1
102
RTVSPropertyOp36
 70
     1
102
RTVSPropertyOp37
 70
     1
102
RTVSPropertyOp38
 70
     1
102
RTVSPropertyOp39
 70
     1
102
RTVSPropertyOp40
 70
     1
102
RTVSPropertyOp41
 70
     1
102
RTVSPropertyOp42
 70
     1
102
RTVSPropertyOp43
 70
     1
102
RTVSPropertyOp44
 70
     1
102
RTVSPropertyOp45
 70
     1
102
RTVSPropertyOp46
 70
     1
102
RTVSPropertyOp47
 70
     1
102
RTVSPropertyOp48
 70
     1
102
RTVSPropertyOp49
 70
     1
102
RTVSPropertyOp50
 70
     1
102
RTVSPropertyOp51
 70
     0
102
RTVSPropertyOp52
 70
     0
102
RTVSPropertyOp53
 70
     1
102
RTVSPropertyOp54
 70
     1
102
RTVSPropertyOp55
 70
     1
102
RTVSPropertyOp56
 70
     1
102
RTVSPropertyOp57
 70
     1
102
RTVSPost2010Prop28
280
     1
102
RTVSPost2010PropOp28
 70
     1
102
RTVSPost2010Prop29
280
     1
102
RTVSPost2010PropOp29
 70
     1
102
RTVSPost2010Prop30
280
     0
102
RTVSPost2010PropOp30
 70
     1
102
RTVSPost2010Prop31
280
     0
102
RTVSPost2010PropOp31
 70
     1
102
RTVSPost2010Prop32
280
     0
102
RTVSPost2010PropOp32
 70
     1
102
RTVSPost2010Prop33
280
     0
102
RTVSPost2010PropOp33
 70
     1
102
RTVSPost2010Prop34
280
     0
102
RTVSPost2010PropOp34
 70
     1
102
RTVSPost2010Prop35
280
     0
102
RTVSPost2010PropOp35
 70
     1
102
RTVSPost2010Prop36
280
     0
102
RTVSPost2010PropOp36
 70
     1
102
RTVSPost2010Prop37
 90
       50
102
RTVSPost2010PropOp37
 70
     1
102
RTVSPost2010Prop38
140
0.0
102
RTVSPost2010PropOp38
 70
     1
102
RTVSPost2010Prop39
140
1.0
102
RTVSPost2010PropOp39
 70
     1
102
RTVSPost2010Prop40
 90
        0
102
RTVSPost2010PropOp40
 70
     1
102
RTVSPost2010Prop41ColorIndex
 90
       18
102
RTVSPost2010Prop41ColorRGB
 90
        0
102
RTVSPost2010PropOp41
 70
     1
102
RTVSPost2010Prop42
 90
       50
102
RTVSPost2010PropOp42
 70
     1
102
RTVSPost2010Prop43
 90
        3
102
RTVSPost2010PropOp43
 70
     1
102
RTVSPost2010Prop44ColorIndex
 90
        5
102
RTVSPost2010Prop44ColorRGB
 90
      255
102
RTVSPost2010PropOp44
 70
     1
102
RTVSPost2010Prop45
280
     0
102
RTVSPost2010PropOp45
 70
     1
102
RTVSPost2010Prop46
 90
       50
102
RTVSPost2010PropOp46
 70
     1
102
RTVSPost2010Prop47
 90
       50
102
RTVSPost2010PropOp47
 70
     1
102
RTVSPost2010Prop48
 90
       50
102
RTVSPost2010PropOp48
 70
     1
102
RTVSPost2010Prop49
280
     0
102
RTVSPost2010PropOp49
 70
     1
102
RTVSPost2010Prop50
 90
       50
102
RTVSPost2010PropOp50
 70
     1
102
RTVSPost2010Prop51ColorIndex
 90
      256
102
RTVSPost2010Prop51ColorRGB
 90
-16777216
102
RTVSPost2010PropOp51
 70
     0
102
RTVSPost2010Prop52
140
1.0
102
RTVSPost2010PropOp52
 70
     0
102
RTVSPost2010Prop53
 90
        2
102
RTVSPost2010PropOp53
 70
     1
102
RTVSPost2010Prop54
  1
strokes_ogs.tif
102
RTVSPost2010PropOp54
 70
     1
102
RTVSPost2010Prop55
280
     0
102
RTVSPost2010PropOp55
 70
     1
102
RTVSPost2010Prop56
140
1.0
102
RTVSPost2010PropOp56
 70
     1
102
RTVSPost2010Prop57
140
1.0
102
RTVSPost2010PropOp57
 70
     1
  0
XRECORD
  5
4E4
102
{ACAD_REACTORS
330
4E3
102
}
330
4E3
100
AcDbXrecord
280
     1
102
RTVSPropertyOp0
 70
     1
102
RTVSPropertyOp1
 70
     1
102
RTVSPropertyOp2
 70
     1
102
RTVSPropertyOp3
 70
     1
102
RTVSPropertyOp4
 70
     1
102
RTVSPropertyOp5
 70
     1
102
RTVSPropertyOp6
 70
     1
102
RTVSPropertyOp7
 70
     1
102
RTVSPropertyOp8
 70
     1
102
RTVSPropertyOp9
 70
     1
102
RTVSPropertyOp10
 70
     1
102
RTVSPropertyOp11
 70
     1
102
RTVSPropertyOp12
 70
     1
102
RTVSPropertyOp13
 70
     1
102
RTVSPropertyOp14
 70
     1
102
RTVSPropertyOp15
 70
     1
102
RTVSPropertyOp16
 70
     1
102
RTVSPropertyOp17
 70
     1
102
RTVSPropertyOp18
 70
     1
102
RTVSPropertyOp19
 70
     1
102
RTVSPropertyOp20
 70
     1
102
RTVSPropertyOp21
 70
     1
102
RTVSPropertyOp22
 70
     1
102
RTVSPropertyOp23
 70
     1
102
RTVSPropertyOp24
 70
     1
102
RTVSPropertyOp25
 70
     1
102
RTVSPropertyOp26
 70
     1
102
RTVSPropertyOp27
 70
     1
102
RTVSPropertyOp28
 70
     1
102
RTVSPropertyOp29
 70
     1
102
RTVSPropertyOp30
 70
     1
102
RTVSPropertyOp31
 70
     1
102
RTVSPropertyOp32
 70
     1
102
RTVSPropertyOp33
 70
     1
102
RTVSPropertyOp34
 70
     1
102
RTVSPropertyOp35
 70
     1
102
RTVSPropertyOp36
 70
     1
102
RTVSPropertyOp37
 70
     1
102
RTVSPropertyOp38
 70
     1
102
RTVSPropertyOp39
 70
     1
102
RTVSPropertyOp40
 70
     1
102
RTVSPropertyOp41
 70
     1
102
RTVSPropertyOp42
 70
     1
102
RTVSPropertyOp43
 70
     1
102
RTVSPropertyOp44
 70
     1
102
RTVSPropertyOp45
 70
     1
102
RTVSPropertyOp46
 70
     1
102
RTVSPropertyOp47
 70
     1
102
RTVSPropertyOp48
 70
     1
102
RTVSPropertyOp49
 70
     1
102
RTVSPropertyOp50
 70
     1
102
RTVSPropertyOp51
 70
     0
102
RTVSPropertyOp52
 70
     0
102
RTVSPropertyOp53
 70
     1
102
RTVSPropertyOp54
 70
     1
102
RTVSPropertyOp55
 70
     1
102
RTVSPropertyOp56
 70
     1
102
RTVSPropertyOp57
 70
     1
102
RTVSPost2010Prop28
280
     0
102
RTVSPost2010PropOp28
 70
     1
102
RTVSPost2010Prop29
280
     1
102
RTVSPost2010PropOp29
 70
     1
102
RTVSPost2010Prop30
280
     1
102
RTVSPost2010PropOp30
 70
     1
102
RTVSPost2010Prop31
280
     0
102
RTVSPost2010PropOp31
 70
     1
102
RTVSPost2010Prop32
280
     0
102
RTVSPost2010PropOp32
 70
     1
102
RTVSPost2010Prop33
280
     0
102
RTVSPost2010PropOp33
 70
     1
102
RTVSPost2010Prop34
280
     0
102
RTVSPost2010PropOp34
 70
     1
102
RTVSPost2010Prop35
280
     0
102
RTVSPost2010PropOp35
 70
     1
102
RTVSPost2010Prop36
280
     0
102
RTVSPost2010PropOp36
 70
     1
102
RTVSPost2010Prop37
 90
       50
102
RTVSPost2010PropOp37
 70
     1
102
RTVSPost2010Prop38
140
0.0
102
RTVSPost2010PropOp38
 70
     1
102
RTVSPost2010Prop39
140
1.0
102
RTVSPost2010PropOp39
 70
     1
102
RTVSPost2010Prop40
 90
        0
102
RTVSPost2010PropOp40
 70
     1
102
RTVSPost2010Prop41ColorIndex
 90
       18
102
RTVSPost2010Prop41ColorRGB
 90
        0
102
RTVSPost2010PropOp41
 70
     1
102
RTVSPost2010Prop42
 90
       50
102
RTVSPost2010PropOp42
 70
     1
102
RTVSPost2010Prop43
 90
        3
102
RTVSPost2010PropOp43
 70
     1
102
RTVSPost2010Prop44ColorIndex
 90
        5
102
RTVSPost2010Prop44ColorRGB
 90
      255
102
RTVSPost2010PropOp44
 70
     1
102
RTVSPost2010Prop45
280
     0
102
RTVSPost2010PropOp45
 70
     1
102
RTVSPost2010Prop46
 90
       50
102
RTVSPost2010PropOp46
 70
     1
102
RTVSPost2010Prop47
 90
       50
102
RTVSPost2010PropOp47
 70
     1
102
RTVSPost2010Prop48
 90
       50
102
RTVSPost2010PropOp48
 70
     1
102
RTVSPost2010Prop49
280
     0
102
RTVSPost2010PropOp49
 70
     1
102
RTVSPost2010Prop50
 90
       50
102
RTVSPost2010PropOp50
 70
     1
102
RTVSPost2010Prop51ColorIndex
 90
      256
102
RTVSPost2010Prop51ColorRGB
 90
-16777216
102
RTVSPost2010PropOp51
 70
     0
102
RTVSPost2010Prop52
140
1.0
102
RTVSPost2010PropOp52
 70
     0
102
RTVSPost2010Prop53
 90
        2
102
RTVSPost2010PropOp53
 70
     1
102
RTVSPost2010Prop54
  1
strokes_ogs.tif
102
RTVSPost2010PropOp54
 70
     1
102
RTVSPost2010Prop55
280
     0
102
RTVSPost2010PropOp55
 70
     1
102
RTVSPost2010Prop56
140
1.0
102
RTVSPost2010PropOp56
 70
     1
102
RTVSPost2010Prop57
140
1.0
102
RTVSPost2010PropOp57
 70
     1
  0
XRECORD
  5
4E6
102
{ACAD_REACTORS
330
4E5
102
}
330
4E5
100
AcDbXrecord
280
     1
102
RTVSPropertyOp0
 70
     1
102
RTVSPropertyOp1
 70
     1
102
RTVSPropertyOp2
 70
     1
102
RTVSPropertyOp3
 70
     1
102
RTVSPropertyOp4
 70
     1
102
RTVSPropertyOp5
 70
     1
102
RTVSPropertyOp6
 70
     1
102
RTVSPropertyOp7
 70
     1
102
RTVSPropertyOp8
 70
     1
102
RTVSPropertyOp9
 70
     1
102
RTVSPropertyOp10
 70
     1
102
RTVSPropertyOp11
 70
     1
102
RTVSPropertyOp12
 70
     1
102
RTVSPropertyOp13
 70
     1
102
RTVSPropertyOp14
 70
     1
102
RTVSPropertyOp15
 70
     1
102
RTVSPropertyOp16
 70
     1
102
RTVSPropertyOp17
 70
     1
102
RTVSPropertyOp18
 70
     1
102
RTVSPropertyOp19
 70
     1
102
RTVSPropertyOp20
 70
     1
102
RTVSPropertyOp21
 70
     1
102
RTVSPropertyOp22
 70
     1
102
RTVSPropertyOp23
 70
     1
102
RTVSPropertyOp24
 70
     1
102
RTVSPropertyOp25
 70
     1
102
RTVSPropertyOp26
 70
     1
102
RTVSPropertyOp27
 70
     1
102
RTVSPropertyOp28
 70
     1
102
RTVSPropertyOp29
 70
     1
102
RTVSPropertyOp30
 70
     1
102
RTVSPropertyOp31
 70
     1
102
RTVSPropertyOp32
 70
     1
102
RTVSPropertyOp33
 70
     1
102
RTVSPropertyOp34
 70
     1
102
RTVSPropertyOp35
 70
     1
102
RTVSPropertyOp36
 70
     1
102
RTVSPropertyOp37
 70
     1
102
RTVSPropertyOp38
 70
     1
102
RTVSPropertyOp39
 70
     1
102
RTVSPropertyOp40
 70
     1
102
RTVSPropertyOp41
 70
     1
102
RTVSPropertyOp42
 70
     1
102
RTVSPropertyOp43
 70
     1
102
RTVSPropertyOp44
 70
     1
102
RTVSPropertyOp45
 70
     1
102
RTVSPropertyOp46
 70
     1
102
RTVSPropertyOp47
 70
     1
102
RTVSPropertyOp48
 70
     1
102
RTVSPropertyOp49
 70
     1
102
RTVSPropertyOp50
 70
     1
102
RTVSPropertyOp51
 70
     0
102
RTVSPropertyOp52
 70
     0
102
RTVSPropertyOp53
 70
     1
102
RTVSPropertyOp54
 70
     1
102
RTVSPropertyOp55
 70
     1
102
RTVSPropertyOp56
 70
     1
102
RTVSPropertyOp57
 70
     1
102
RTVSPost2010Prop28
280
     0
102
RTVSPost2010PropOp28
 70
     1
102
RTVSPost2010Prop29
280
     1
102
RTVSPost2010PropOp29
 70
     1
102
RTVSPost2010Prop30
280
     1
102
RTVSPost2010PropOp30
 70
     1
102
RTVSPost2010Prop31
280
     0
102
RTVSPost2010PropOp31
 70
     1
102
RTVSPost2010Prop32
280
     0
102
RTVSPost2010PropOp32
 70
     1
102
RTVSPost2010Prop33
280
     0
102
RTVSPost2010PropOp33
 70
     1
102
RTVSPost2010Prop34
280
     0
102
RTVSPost2010PropOp34
 70
     1
102
RTVSPost2010Prop35
280
     0
102
RTVSPost2010PropOp35
 70
     1
102
RTVSPost2010Prop36
280
     0
102
RTVSPost2010PropOp36
 70
     1
102
RTVSPost2010Prop37
 90
       50
102
RTVSPost2010PropOp37
 70
     1
102
RTVSPost2010Prop38
140
0.0
102
RTVSPost2010PropOp38
 70
     1
102
RTVSPost2010Prop39
140
1.0
102
RTVSPost2010PropOp39
 70
     1
102
RTVSPost2010Prop40
 90
        0
102
RTVSPost2010PropOp40
 70
     1
102
RTVSPost2010Prop41ColorIndex
 90
       18
102
RTVSPost2010Prop41ColorRGB
 90
        0
102
RTVSPost2010PropOp41
 70
     1
102
RTVSPost2010Prop42
 90
       50
102
RTVSPost2010PropOp42
 70
     1
102
RTVSPost2010Prop43
 90
        3
102
RTVSPost2010PropOp43
 70
     1
102
RTVSPost2010Prop44ColorIndex
 90
        5
102
RTVSPost2010Prop44ColorRGB
 90
      255
102
RTVSPost2010PropOp44
 70
     1
102
RTVSPost2010Prop45
280
     0
102
RTVSPost2010PropOp45
 70
     1
102
RTVSPost2010Prop46
 90
       50
102
RTVSPost2010PropOp46
 70
     1
102
RTVSPost2010Prop47
 90
       50
102
RTVSPost2010PropOp47
 70
     1
102
RTVSPost2010Prop48
 90
       50
102
RTVSPost2010PropOp48
 70
     1
102
RTVSPost2010Prop49
280
     0
102
RTVSPost2010PropOp49
 70
     1
102
RTVSPost2010Prop50
 90
       50
102
RTVSPost2010PropOp50
 70
     1
102
RTVSPost2010Prop51ColorIndex
 90
      256
102
RTVSPost2010Prop51ColorRGB
 90
-16777216
102
RTVSPost2010PropOp51
 70
     0
102
RTVSPost2010Prop52
140
1.0
102
RTVSPost2010PropOp52
 70
     0
102
RTVSPost2010Prop53
 90
        2
102
RTVSPost2010PropOp53
 70
     1
102
RTVSPost2010Prop54
  1
strokes_ogs.tif
102
RTVSPost2010PropOp54
 70
     1
102
RTVSPost2010Prop55
280
     0
102
RTVSPost2010PropOp55
 70
     1
102
RTVSPost2010Prop56
140
1.0
102
RTVSPost2010PropOp56
 70
     1
102
RTVSPost2010Prop57
140
1.0
102
RTVSPost2010PropOp57
 70
     1
  0
XRECORD
  5
4E8
102
{ACAD_REACTORS
330
4E7
102
}
330
4E7
100
AcDbXrecord
280
     1
102
RTVSPropertyOp0
 70
     1
102
RTVSPropertyOp1
 70
     1
102
RTVSPropertyOp2
 70
     1
102
RTVSPropertyOp3
 70
     1
102
RTVSPropertyOp4
 70
     1
102
RTVSPropertyOp5
 70
     1
102
RTVSPropertyOp6
 70
     1
102
RTVSPropertyOp7
 70
     1
102
RTVSPropertyOp8
 70
     1
102
RTVSPropertyOp9
 70
     1
102
RTVSPropertyOp10
 70
     1
102
RTVSPropertyOp11
 70
     1
102
RTVSPropertyOp12
 70
     1
102
RTVSPropertyOp13
 70
     1
102
RTVSPropertyOp14
 70
     1
102
RTVSPropertyOp15
 70
     1
102
RTVSPropertyOp16
 70
     1
102
RTVSPropertyOp17
 70
     1
102
RTVSPropertyOp18
 70
     1
102
RTVSPropertyOp19
 70
     1
102
RTVSPropertyOp20
 70
     1
102
RTVSPropertyOp21
 70
     1
102
RTVSPropertyOp22
 70
     1
102
RTVSPropertyOp23
 70
     1
102
RTVSPropertyOp24
 70
     1
102
RTVSPropertyOp25
 70
     1
102
RTVSPropertyOp26
 70
     1
102
RTVSPropertyOp27
 70
     1
102
RTVSPropertyOp28
 70
     1
102
RTVSPropertyOp29
 70
     1
102
RTVSPropertyOp30
 70
     1
102
RTVSPropertyOp31
 70
     1
102
RTVSPropertyOp32
 70
     1
102
RTVSPropertyOp33
 70
     1
102
RTVSPropertyOp34
 70
     1
102
RTVSPropertyOp35
 70
     1
102
RTVSPropertyOp36
 70
     1
102
RTVSPropertyOp37
 70
     1
102
RTVSPropertyOp38
 70
     1
102
RTVSPropertyOp39
 70
     1
102
RTVSPropertyOp40
 70
     1
102
RTVSPropertyOp41
 70
     1
102
RTVSPropertyOp42
 70
     1
102
RTVSPropertyOp43
 70
     1
102
RTVSPropertyOp44
 70
     1
102
RTVSPropertyOp45
 70
     1
102
RTVSPropertyOp46
 70
     1
102
RTVSPropertyOp47
 70
     1
102
RTVSPropertyOp48
 70
     1
102
RTVSPropertyOp49
 70
     1
102
RTVSPropertyOp50
 70
     1
102
RTVSPropertyOp51
 70
     0
102
RTVSPropertyOp52
 70
     0
102
RTVSPropertyOp53
 70
     1
102
RTVSPropertyOp54
 70
     1
102
RTVSPropertyOp55
 70
     1
102
RTVSPropertyOp56
 70
     1
102
RTVSPropertyOp57
 70
     1
102
RTVSPost2010Prop28
280
     0
102
RTVSPost2010PropOp28
 70
     1
102
RTVSPost2010Prop29
280
     1
102
RTVSPost2010PropOp29
 70
     1
102
RTVSPost2010Prop30
280
     1
102
RTVSPost2010PropOp30
 70
     1
102
RTVSPost2010Prop31
280
     0
102
RTVSPost2010PropOp31
 70
     1
102
RTVSPost2010Prop32
280
     0
102
RTVSPost2010PropOp32
 70
     1
102
RTVSPost2010Prop33
280
     0
102
RTVSPost2010PropOp33
 70
     1
102
RTVSPost2010Prop34
280
     0
102
RTVSPost2010PropOp34
 70
     1
102
RTVSPost2010Prop35
280
     0
102
RTVSPost2010PropOp35
 70
     1
102
RTVSPost2010Prop36
280
     0
102
RTVSPost2010PropOp36
 70
     1
102
RTVSPost2010Prop37
 90
       50
102
RTVSPost2010PropOp37
 70
     1
102
RTVSPost2010Prop38
140
0.0
102
RTVSPost2010PropOp38
 70
     1
102
RTVSPost2010Prop39
140
1.0
102
RTVSPost2010PropOp39
 70
     1
102
RTVSPost2010Prop40
 90
        0
102
RTVSPost2010PropOp40
 70
     1
102
RTVSPost2010Prop41ColorIndex
 90
       18
102
RTVSPost2010Prop41ColorRGB
 90
        0
102
RTVSPost2010PropOp41
 70
     1
102
RTVSPost2010Prop42
 90
       50
102
RTVSPost2010PropOp42
 70
     1
102
RTVSPost2010Prop43
 90
        3
102
RTVSPost2010PropOp43
 70
     1
102
RTVSPost2010Prop44ColorIndex
 90
        5
102
RTVSPost2010Prop44ColorRGB
 90
      255
102
RTVSPost2010PropOp44
 70
     1
102
RTVSPost2010Prop45
280
     0
102
RTVSPost2010PropOp45
 70
     1
102
RTVSPost2010Prop46
 90
       50
102
RTVSPost2010PropOp46
 70
     1
102
RTVSPost2010Prop47
 90
       50
102
RTVSPost2010PropOp47
 70
     1
102
RTVSPost2010Prop48
 90
       50
102
RTVSPost2010PropOp48
 70
     1
102
RTVSPost2010Prop49
280
     0
102
RTVSPost2010PropOp49
 70
     1
102
RTVSPost2010Prop50
 90
       50
102
RTVSPost2010PropOp50
 70
     1
102
RTVSPost2010Prop51ColorIndex
 90
      256
102
RTVSPost2010Prop51ColorRGB
 90
-16777216
102
RTVSPost2010PropOp51
 70
     0
102
RTVSPost2010Prop52
140
1.0
102
RTVSPost2010PropOp52
 70
     0
102
RTVSPost2010Prop53
 90
        2
102
RTVSPost2010PropOp53
 70
     1
102
RTVSPost2010Prop54
  1
strokes_ogs.tif
102
RTVSPost2010PropOp54
 70
     1
102
RTVSPost2010Prop55
280
     0
102
RTVSPost2010PropOp55
 70
     1
102
RTVSPost2010Prop56
140
1.0
102
RTVSPost2010PropOp56
 70
     1
102
RTVSPost2010Prop57
140
1.0
102
RTVSPost2010PropOp57
 70
     1
  0
XRECORD
  5
4EA
102
{ACAD_REACTORS
330
4E9
102
}
330
4E9
100
AcDbXrecord
280
     1
102
RTVSPropertyOp0
 70
     1
102
RTVSPropertyOp1
 70
     1
102
RTVSPropertyOp2
 70
     1
102
RTVSPropertyOp3
 70
     1
102
RTVSPropertyOp4
 70
     1
102
RTVSPropertyOp5
 70
     1
102
RTVSPropertyOp6
 70
     1
102
RTVSPropertyOp7
 70
     1
102
RTVSPropertyOp8
 70
     1
102
RTVSPropertyOp9
 70
     1
102
RTVSPropertyOp10
 70
     1
102
RTVSPropertyOp11
 70
     1
102
RTVSPropertyOp12
 70
     1
102
RTVSPropertyOp13
 70
     1
102
RTVSPropertyOp14
 70
     1
102
RTVSPropertyOp15
 70
     1
102
RTVSPropertyOp16
 70
     1
102
RTVSPropertyOp17
 70
     1
102
RTVSPropertyOp18
 70
     1
102
RTVSPropertyOp19
 70
     1
102
RTVSPropertyOp20
 70
     1
102
RTVSPropertyOp21
 70
     1
102
RTVSPropertyOp22
 70
     1
102
RTVSPropertyOp23
 70
     1
102
RTVSPropertyOp24
 70
     1
102
RTVSPropertyOp25
 70
     1
102
RTVSPropertyOp26
 70
     1
102
RTVSPropertyOp27
 70
     1
102
RTVSPropertyOp28
 70
     1
102
RTVSPropertyOp29
 70
     1
102
RTVSPropertyOp30
 70
     1
102
RTVSPropertyOp31
 70
     1
102
RTVSPropertyOp32
 70
     1
102
RTVSPropertyOp33
 70
     1
102
RTVSPropertyOp34
 70
     1
102
RTVSPropertyOp35
 70
     1
102
RTVSPropertyOp36
 70
     1
102
RTVSPropertyOp37
 70
     1
102
RTVSPropertyOp38
 70
     1
102
RTVSPropertyOp39
 70
     1
102
RTVSPropertyOp40
 70
     1
102
RTVSPropertyOp41
 70
     1
102
RTVSPropertyOp42
 70
     1
102
RTVSPropertyOp43
 70
     1
102
RTVSPropertyOp44
 70
     1
102
RTVSPropertyOp45
 70
     1
102
RTVSPropertyOp46
 70
     1
102
RTVSPropertyOp47
 70
     1
102
RTVSPropertyOp48
 70
     1
102
RTVSPropertyOp49
 70
     1
102
RTVSPropertyOp50
 70
     1
102
RTVSPropertyOp51
 70
     0
102
RTVSPropertyOp52
 70
     0
102
RTVSPropertyOp53
 70
     1
102
RTVSPropertyOp54
 70
     1
102
RTVSPropertyOp55
 70
     1
102
RTVSPropertyOp56
 70
     1
102
RTVSPropertyOp57
 70
     1
102
RTVSPost2010Prop28
280
     0
102
RTVSPost2010PropOp28
 70
     1
102
RTVSPost2010Prop29
280
     1
102
RTVSPost2010PropOp29
 70
     1
102
RTVSPost2010Prop30
280
     1
102
RTVSPost2010PropOp30
 70
     1
102
RTVSPost2010Prop31
280
     0
102
RTVSPost2010PropOp31
 70
     1
102
RTVSPost2010Prop32
280
     0
102
RTVSPost2010PropOp32
 70
     1
102
RTVSPost2010Prop33
280
     0
102
RTVSPost2010PropOp33
 70
     1
102
RTVSPost2010Prop34
280
     0
102
RTVSPost2010PropOp34
 70
     1
102
RTVSPost2010Prop35
280
     0
102
RTVSPost2010PropOp35
 70
     1
102
RTVSPost2010Prop36
280
     0
102
RTVSPost2010PropOp36
 70
     1
102
RTVSPost2010Prop37
 90
       50
102
RTVSPost2010PropOp37
 70
     1
102
RTVSPost2010Prop38
140
0.0
102
RTVSPost2010PropOp38
 70
     1
102
RTVSPost2010Prop39
140
1.0
102
RTVSPost2010PropOp39
 70
     1
102
RTVSPost2010Prop40
 90
        0
102
RTVSPost2010PropOp40
 70
     1
102
RTVSPost2010Prop41ColorIndex
 90
       18
102
RTVSPost2010Prop41ColorRGB
 90
        0
102
RTVSPost2010PropOp41
 70
     1
102
RTVSPost2010Prop42
 90
       50
102
RTVSPost2010PropOp42
 70
     1
102
RTVSPost2010Prop43
 90
        3
102
RTVSPost2010PropOp43
 70
     1
102
RTVSPost2010Prop44ColorIndex
 90
        5
102
RTVSPost2010Prop44ColorRGB
 90
      255
102
RTVSPost2010PropOp44
 70
     1
102
RTVSPost2010Prop45
280
     0
102
RTVSPost2010PropOp45
 70
     1
102
RTVSPost2010Prop46
 90
       50
102
RTVSPost2010PropOp46
 70
     1
102
RTVSPost2010Prop47
 90
       50
102
RTVSPost2010PropOp47
 70
     1
102
RTVSPost2010Prop48
 90
       50
102
RTVSPost2010PropOp48
 70
     1
102
RTVSPost2010Prop49
280
     0
102
RTVSPost2010PropOp49
 70
     1
102
RTVSPost2010Prop50
 90
       50
102
RTVSPost2010PropOp50
 70
     1
102
RTVSPost2010Prop51ColorIndex
 90
      256
102
RTVSPost2010Prop51ColorRGB
 90
-16777216
102
RTVSPost2010PropOp51
 70
     0
102
RTVSPost2010Prop52
140
1.0
102
RTVSPost2010PropOp52
 70
     0
102
RTVSPost2010Prop53
 90
        2
102
RTVSPost2010PropOp53
 70
     1
102
RTVSPost2010Prop54
  1
strokes_ogs.tif
102
RTVSPost2010PropOp54
 70
     1
102
RTVSPost2010Prop55
280
     0
102
RTVSPost2010PropOp55
 70
     1
102
RTVSPost2010Prop56
140
1.0
102
RTVSPost2010PropOp56
 70
     1
102
RTVSPost2010Prop57
140
1.0
102
RTVSPost2010PropOp57
 70
     1
  0
XRECORD
  5
4EC
102
{ACAD_REACTORS
330
4EB
102
}
330
4EB
100
AcDbXrecord
280
     1
102
RTVSPropertyOp0
 70
     1
102
RTVSPropertyOp1
 70
     1
102
RTVSPropertyOp2
 70
     1
102
RTVSPropertyOp3
 70
     1
102
RTVSPropertyOp4
 70
     1
102
RTVSPropertyOp5
 70
     1
102
RTVSPropertyOp6
 70
     1
102
RTVSPropertyOp7
 70
     1
102
RTVSPropertyOp8
 70
     1
102
RTVSPropertyOp9
 70
     1
102
RTVSPropertyOp10
 70
     1
102
RTVSPropertyOp11
 70
     1
102
RTVSPropertyOp12
 70
     1
102
RTVSPropertyOp13
 70
     1
102
RTVSPropertyOp14
 70
     1
102
RTVSPropertyOp15
 70
     1
102
RTVSPropertyOp16
 70
     1
102
RTVSPropertyOp17
 70
     1
102
RTVSPropertyOp18
 70
     1
102
RTVSPropertyOp19
 70
     1
102
RTVSPropertyOp20
 70
     1
102
RTVSPropertyOp21
 70
     1
102
RTVSPropertyOp22
 70
     1
102
RTVSPropertyOp23
 70
     1
102
RTVSPropertyOp24
 70
     1
102
RTVSPropertyOp25
 70
     1
102
RTVSPropertyOp26
 70
     1
102
RTVSPropertyOp27
 70
     1
102
RTVSPropertyOp28
 70
     1
102
RTVSPropertyOp29
 70
     1
102
RTVSPropertyOp30
 70
     1
102
RTVSPropertyOp31
 70
     1
102
RTVSPropertyOp32
 70
     1
102
RTVSPropertyOp33
 70
     1
102
RTVSPropertyOp34
 70
     1
102
RTVSPropertyOp35
 70
     1
102
RTVSPropertyOp36
 70
     1
102
RTVSPropertyOp37
 70
     1
102
RTVSPropertyOp38
 70
     1
102
RTVSPropertyOp39
 70
     1
102
RTVSPropertyOp40
 70
     1
102
RTVSPropertyOp41
 70
     1
102
RTVSPropertyOp42
 70
     1
102
RTVSPropertyOp43
 70
     1
102
RTVSPropertyOp44
 70
     1
102
RTVSPropertyOp45
 70
     1
102
RTVSPropertyOp46
 70
     1
102
RTVSPropertyOp47
 70
     1
102
RTVSPropertyOp48
 70
     1
102
RTVSPropertyOp49
 70
     1
102
RTVSPropertyOp50
 70
     1
102
RTVSPropertyOp51
 70
     0
102
RTVSPropertyOp52
 70
     0
102
RTVSPropertyOp53
 70
     1
102
RTVSPropertyOp54
 70
     1
102
RTVSPropertyOp55
 70
     1
102
RTVSPropertyOp56
 70
     1
102
RTVSPropertyOp57
 70
     1
102
RTVSPost2010Prop28
280
     0
102
RTVSPost2010PropOp28
 70
     1
102
RTVSPost2010Prop29
280
     1
102
RTVSPost2010PropOp29
 70
     1
102
RTVSPost2010Prop30
280
     1
102
RTVSPost2010PropOp30
 70
     1
102
RTVSPost2010Prop31
280
     0
102
RTVSPost2010PropOp31
 70
     1
102
RTVSPost2010Prop32
280
     0
102
RTVSPost2010PropOp32
 70
     1
102
RTVSPost2010Prop33
280
     0
102
RTVSPost2010PropOp33
 70
     1
102
RTVSPost2010Prop34
280
     0
102
RTVSPost2010PropOp34
 70
     1
102
RTVSPost2010Prop35
280
     0
102
RTVSPost2010PropOp35
 70
     1
102
RTVSPost2010Prop36
280
     0
102
RTVSPost2010PropOp36
 70
     1
102
RTVSPost2010Prop37
 90
       50
102
RTVSPost2010PropOp37
 70
     1
102
RTVSPost2010Prop38
140
0.0
102
RTVSPost2010PropOp38
 70
     1
102
RTVSPost2010Prop39
140
1.0
102
RTVSPost2010PropOp39
 70
     1
102
RTVSPost2010Prop40
 90
        0
102
RTVSPost2010PropOp40
 70
     1
102
RTVSPost2010Prop41ColorIndex
 90
       18
102
RTVSPost2010Prop41ColorRGB
 90
        0
102
RTVSPost2010PropOp41
 70
     1
102
RTVSPost2010Prop42
 90
       50
102
RTVSPost2010PropOp42
 70
     1
102
RTVSPost2010Prop43
 90
        3
102
RTVSPost2010PropOp43
 70
     1
102
RTVSPost2010Prop44ColorIndex
 90
        5
102
RTVSPost2010Prop44ColorRGB
 90
      255
102
RTVSPost2010PropOp44
 70
     1
102
RTVSPost2010Prop45
280
     0
102
RTVSPost2010PropOp45
 70
     1
102
RTVSPost2010Prop46
 90
       50
102
RTVSPost2010PropOp46
 70
     1
102
RTVSPost2010Prop47
 90
       50
102
RTVSPost2010PropOp47
 70
     1
102
RTVSPost2010Prop48
 90
       50
102
RTVSPost2010PropOp48
 70
     1
102
RTVSPost2010Prop49
280
     0
102
RTVSPost2010PropOp49
 70
     1
102
RTVSPost2010Prop50
 90
       50
102
RTVSPost2010PropOp50
 70
     1
102
RTVSPost2010Prop51ColorIndex
 90
      256
102
RTVSPost2010Prop51ColorRGB
 90
-16777216
102
RTVSPost2010PropOp51
 70
     0
102
RTVSPost2010Prop52
140
1.0
102
RTVSPost2010PropOp52
 70
     0
102
RTVSPost2010Prop53
 90
        2
102
RTVSPost2010PropOp53
 70
     1
102
RTVSPost2010Prop54
  1
strokes_ogs.tif
102
RTVSPost2010PropOp54
 70
     1
102
RTVSPost2010Prop55
280
     0
102
RTVSPost2010PropOp55
 70
     1
102
RTVSPost2010Prop56
140
1.0
102
RTVSPost2010PropOp56
 70
     1
102
RTVSPost2010Prop57
140
1.0
102
RTVSPost2010PropOp57
 70
     1
  0
XRECORD
  5
4EE
102
{ACAD_REACTORS
330
4ED
102
}
330
4ED
100
AcDbXrecord
280
     1
102
RTVSPropertyOp0
 70
     0
102
RTVSPropertyOp1
 70
     0
102
RTVSPropertyOp2
 70
     0
102
RTVSPropertyOp3
 70
     0
102
RTVSPropertyOp4
 70
     0
102
RTVSPropertyOp5
 70
     0
102
RTVSPropertyOp6
 70
     0
102
RTVSPropertyOp7
 70
     0
102
RTVSPropertyOp8
 70
     0
102
RTVSPropertyOp9
 70
     0
102
RTVSPropertyOp10
 70
     0
102
RTVSPropertyOp11
 70
     0
102
RTVSPropertyOp12
 70
     0
102
RTVSPropertyOp13
 70
     0
102
RTVSPropertyOp14
 70
     2
102
RTVSPropertyOp15
 70
     0
102
RTVSPropertyOp16
 70
     0
102
RTVSPropertyOp17
 70
     0
102
RTVSPropertyOp18
 70
     0
102
RTVSPropertyOp19
 70
     0
102
RTVSPropertyOp20
 70
     0
102
RTVSPropertyOp21
 70
     0
102
RTVSPropertyOp22
 70
     0
102
RTVSPropertyOp23
 70
     0
102
RTVSPropertyOp24
 70
     0
102
RTVSPropertyOp25
 70
     0
102
RTVSPropertyOp26
 70
     0
102
RTVSPropertyOp27
 70
     0
102
RTVSPropertyOp28
 70
     0
102
RTVSPropertyOp29
 70
     0
102
RTVSPropertyOp30
 70
     0
102
RTVSPropertyOp31
 70
     0
102
RTVSPropertyOp32
 70
     0
102
RTVSPropertyOp33
 70
     0
102
RTVSPropertyOp34
 70
     0
102
RTVSPropertyOp35
 70
     0
102
RTVSPropertyOp36
 70
     0
102
RTVSPropertyOp37
 70
     0
102
RTVSPropertyOp38
 70
     0
102
RTVSPropertyOp39
 70
     0
102
RTVSPropertyOp40
 70
     0
102
RTVSPropertyOp41
 70
     0
102
RTVSPropertyOp42
 70
     0
102
RTVSPropertyOp43
 70
     0
102
RTVSPropertyOp44
 70
     0
102
RTVSPropertyOp45
 70
     0
102
RTVSPropertyOp46
 70
     0
102
RTVSPropertyOp47
 70
     0
102
RTVSPropertyOp48
 70
     0
102
RTVSPropertyOp49
 70
     0
102
RTVSPropertyOp50
 70
     0
102
RTVSPropertyOp51
 70
     0
102
RTVSPropertyOp52
 70
     0
102
RTVSPropertyOp53
 70
     0
102
RTVSPropertyOp54
 70
     0
102
RTVSPropertyOp55
 70
     0
102
RTVSPropertyOp56
 70
     0
102
RTVSPropertyOp57
 70
     0
102
RTVSPost2010Prop28
280
     0
102
RTVSPost2010PropOp28
 70
     0
102
RTVSPost2010Prop29
280
     1
102
RTVSPost2010PropOp29
 70
     0
102
RTVSPost2010Prop30
280
     1
102
RTVSPost2010PropOp30
 70
     0
102
RTVSPost2010Prop31
280
     0
102
RTVSPost2010PropOp31
 70
     0
102
RTVSPost2010Prop32
280
     0
102
RTVSPost2010PropOp32
 70
     0
102
RTVSPost2010Prop33
280
     0
102
RTVSPost2010PropOp33
 70
     0
102
RTVSPost2010Prop34
280
     0
102
RTVSPost2010PropOp34
 70
     0
102
RTVSPost2010Prop35
280
     0
102
RTVSPost2010PropOp35
 70
     0
102
RTVSPost2010Prop36
280
     0
102
RTVSPost2010PropOp36
 70
     0
102
RTVSPost2010Prop37
 90
       50
102
RTVSPost2010PropOp37
 70
     0
102
RTVSPost2010Prop38
140
0.0
102
RTVSPost2010PropOp38
 70
     0
102
RTVSPost2010Prop39
140
1.0
102
RTVSPost2010PropOp39
 70
     0
102
RTVSPost2010Prop40
 90
        0
102
RTVSPost2010PropOp40
 70
     0
102
RTVSPost2010Prop41ColorIndex
 90
       18
102
RTVSPost2010Prop41ColorRGB
 90
        0
102
RTVSPost2010PropOp41
 70
     0
102
RTVSPost2010Prop42
 90
       50
102
RTVSPost2010PropOp42
 70
     0
102
RTVSPost2010Prop43
 90
        3
102
RTVSPost2010PropOp43
 70
     0
102
RTVSPost2010Prop44ColorIndex
 90
        5
102
RTVSPost2010Prop44ColorRGB
 90
      255
102
RTVSPost2010PropOp44
 70
     0
102
RTVSPost2010Prop45
280
     0
102
RTVSPost2010PropOp45
 70
     0
102
RTVSPost2010Prop46
 90
       50
102
RTVSPost2010PropOp46
 70
     0
102
RTVSPost2010Prop47
 90
       50
102
RTVSPost2010PropOp47
 70
     0
102
RTVSPost2010Prop48
 90
       50
102
RTVSPost2010PropOp48
 70
     0
102
RTVSPost2010Prop49
280
     0
102
RTVSPost2010PropOp49
 70
     0
102
RTVSPost2010Prop50
 90
       50
102
RTVSPost2010PropOp50
 70
     0
102
RTVSPost2010Prop51ColorIndex
 90
      256
102
RTVSPost2010Prop51ColorRGB
 90
-16777216
102
RTVSPost2010PropOp51
 70
     0
102
RTVSPost2010Prop52
140
1.0
102
RTVSPost2010PropOp52
 70
     0
102
RTVSPost2010Prop53
 90
        2
102
RTVSPost2010PropOp53
 70
     0
102
RTVSPost2010Prop54
  1
strokes_ogs.tif
102
RTVSPost2010PropOp54
 70
     0
102
RTVSPost2010Prop55
280
     0
102
RTVSPost2010PropOp55
 70
     0
102
RTVSPost2010Prop56
140
1.0
102
RTVSPost2010PropOp56
 70
     0
102
RTVSPost2010Prop57
140
1.0
102
RTVSPost2010PropOp57
 70
     0
  0
XRECORD
  5
4F0
102
{ACAD_REACTORS
330
4EF
102
}
330
4EF
100
AcDbXrecord
280
     1
102
RTVSPropertyOp0
 70
     1
102
RTVSPropertyOp1
 70
     1
102
RTVSPropertyOp2
 70
     1
102
RTVSPropertyOp3
 70
     1
102
RTVSPropertyOp4
 70
     1
102
RTVSPropertyOp5
 70
     1
102
RTVSPropertyOp6
 70
     1
102
RTVSPropertyOp7
 70
     1
102
RTVSPropertyOp8
 70
     1
102
RTVSPropertyOp9
 70
     1
102
RTVSPropertyOp10
 70
     1
102
RTVSPropertyOp11
 70
     1
102
RTVSPropertyOp12
 70
     1
102
RTVSPropertyOp13
 70
     1
102
RTVSPropertyOp14
 70
     1
102
RTVSPropertyOp15
 70
     1
102
RTVSPropertyOp16
 70
     1
102
RTVSPropertyOp17
 70
     1
102
RTVSPropertyOp18
 70
     1
102
RTVSPropertyOp19
 70
     1
102
RTVSPropertyOp20
 70
     1
102
RTVSPropertyOp21
 70
     1
102
RTVSPropertyOp22
 70
     1
102
RTVSPropertyOp23
 70
     1
102
RTVSPropertyOp24
 70
     1
102
RTVSPropertyOp25
 70
     1
102
RTVSPropertyOp26
 70
     1
102
RTVSPropertyOp27
 70
     1
102
RTVSPropertyOp28
 70
     1
102
RTVSPropertyOp29
 70
     1
102
RTVSPropertyOp30
 70
     1
102
RTVSPropertyOp31
 70
     1
102
RTVSPropertyOp32
 70
     1
102
RTVSPropertyOp33
 70
     1
102
RTVSPropertyOp34
 70
     1
102
RTVSPropertyOp35
 70
     1
102
RTVSPropertyOp36
 70
     1
102
RTVSPropertyOp37
 70
     1
102
RTVSPropertyOp38
 70
     1
102
RTVSPropertyOp39
 70
     1
102
RTVSPropertyOp40
 70
     1
102
RTVSPropertyOp41
 70
     1
102
RTVSPropertyOp42
 70
     1
102
RTVSPropertyOp43
 70
     1
102
RTVSPropertyOp44
 70
     1
102
RTVSPropertyOp45
 70
     1
102
RTVSPropertyOp46
 70
     1
102
RTVSPropertyOp47
 70
     1
102
RTVSPropertyOp48
 70
     1
102
RTVSPropertyOp49
 70
     1
102
RTVSPropertyOp50
 70
     1
102
RTVSPropertyOp51
 70
     0
102
RTVSPropertyOp52
 70
     0
102
RTVSPropertyOp53
 70
     1
102
RTVSPropertyOp54
 70
     1
102
RTVSPropertyOp55
 70
     1
102
RTVSPropertyOp56
 70
     1
102
RTVSPropertyOp57
 70
     1
102
RTVSPost2010Prop28
280
     0
102
RTVSPost2010PropOp28
 70
     1
102
RTVSPost2010Prop29
280
     1
102
RTVSPost2010PropOp29
 70
     1
102
RTVSPost2010Prop30
280
     1
102
RTVSPost2010PropOp30
 70
     1
102
RTVSPost2010Prop31
280
     0
102
RTVSPost2010PropOp31
 70
     1
102
RTVSPost2010Prop32
280
     0
102
RTVSPost2010PropOp32
 70
     1
102
RTVSPost2010Prop33
280
     0
102
RTVSPost2010PropOp33
 70
     1
102
RTVSPost2010Prop34
280
     0
102
RTVSPost2010PropOp34
 70
     1
102
RTVSPost2010Prop35
280
     0
102
RTVSPost2010PropOp35
 70
     1
102
RTVSPost2010Prop36
280
     0
102
RTVSPost2010PropOp36
 70
     1
102
RTVSPost2010Prop37
 90
       50
102
RTVSPost2010PropOp37
 70
     1
102
RTVSPost2010Prop38
140
0.0
102
RTVSPost2010PropOp38
 70
     1
102
RTVSPost2010Prop39
140
1.0
102
RTVSPost2010PropOp39
 70
     1
102
RTVSPost2010Prop40
 90
        0
102
RTVSPost2010PropOp40
 70
     1
102
RTVSPost2010Prop41ColorIndex
 90
       18
102
RTVSPost2010Prop41ColorRGB
 90
        0
102
RTVSPost2010PropOp41
 70
     1
102
RTVSPost2010Prop42
 90
       50
102
RTVSPost2010PropOp42
 70
     1
102
RTVSPost2010Prop43
 90
        3
102
RTVSPost2010PropOp43
 70
     1
102
RTVSPost2010Prop44ColorIndex
 90
        5
102
RTVSPost2010Prop44ColorRGB
 90
      255
102
RTVSPost2010PropOp44
 70
     1
102
RTVSPost2010Prop45
280
     0
102
RTVSPost2010PropOp45
 70
     1
102
RTVSPost2010Prop46
 90
       50
102
RTVSPost2010PropOp46
 70
     1
102
RTVSPost2010Prop47
 90
       50
102
RTVSPost2010PropOp47
 70
     1
102
RTVSPost2010Prop48
 90
       50
102
RTVSPost2010PropOp48
 70
     1
102
RTVSPost2010Prop49
280
     0
102
RTVSPost2010PropOp49
 70
     1
102
RTVSPost2010Prop50
 90
       50
102
RTVSPost2010PropOp50
 70
     1
102
RTVSPost2010Prop51ColorIndex
 90
      256
102
RTVSPost2010Prop51ColorRGB
 90
-16777216
102
RTVSPost2010PropOp51
 70
     0
102
RTVSPost2010Prop52
140
1.0
102
RTVSPost2010PropOp52
 70
     0
102
RTVSPost2010Prop53
 90
        2
102
RTVSPost2010PropOp53
 70
     1
102
RTVSPost2010Prop54
  1
strokes_ogs.tif
102
RTVSPost2010PropOp54
 70
     1
102
RTVSPost2010Prop55
280
     0
102
RTVSPost2010PropOp55
 70
     1
102
RTVSPost2010Prop56
140
1.0
102
RTVSPost2010PropOp56
 70
     1
102
RTVSPost2010Prop57
140
1.0
102
RTVSPost2010PropOp57
 70
     1
  0
XRECORD
  5
4F2
102
{ACAD_REACTORS
330
4F1
102
}
330
4F1
100
AcDbXrecord
280
     1
102
RTVSPropertyOp0
 70
     1
102
RTVSPropertyOp1
 70
     1
102
RTVSPropertyOp2
 70
     1
102
RTVSPropertyOp3
 70
     1
102
RTVSPropertyOp4
 70
     1
102
RTVSPropertyOp5
 70
     1
102
RTVSPropertyOp6
 70
     1
102
RTVSPropertyOp7
 70
     1
102
RTVSPropertyOp8
 70
     1
102
RTVSPropertyOp9
 70
     1
102
RTVSPropertyOp10
 70
     1
102
RTVSPropertyOp11
 70
     1
102
RTVSPropertyOp12
 70
     1
102
RTVSPropertyOp13
 70
     1
102
RTVSPropertyOp14
 70
     1
102
RTVSPropertyOp15
 70
     1
102
RTVSPropertyOp16
 70
     1
102
RTVSPropertyOp17
 70
     1
102
RTVSPropertyOp18
 70
     1
102
RTVSPropertyOp19
 70
     1
102
RTVSPropertyOp20
 70
     1
102
RTVSPropertyOp21
 70
     1
102
RTVSPropertyOp22
 70
     1
102
RTVSPropertyOp23
 70
     1
102
RTVSPropertyOp24
 70
     1
102
RTVSPropertyOp25
 70
     1
102
RTVSPropertyOp26
 70
     1
102
RTVSPropertyOp27
 70
     1
102
RTVSPropertyOp28
 70
     1
102
RTVSPropertyOp29
 70
     1
102
RTVSPropertyOp30
 70
     1
102
RTVSPropertyOp31
 70
     1
102
RTVSPropertyOp32
 70
     1
102
RTVSPropertyOp33
 70
     1
102
RTVSPropertyOp34
 70
     1
102
RTVSPropertyOp35
 70
     1
102
RTVSPropertyOp36
 70
     1
102
RTVSPropertyOp37
 70
     1
102
RTVSPropertyOp38
 70
     1
102
RTVSPropertyOp39
 70
     1
102
RTVSPropertyOp40
 70
     1
102
RTVSPropertyOp41
 70
     1
102
RTVSPropertyOp42
 70
     1
102
RTVSPropertyOp43
 70
     1
102
RTVSPropertyOp44
 70
     1
102
RTVSPropertyOp45
 70
     1
102
RTVSPropertyOp46
 70
     1
102
RTVSPropertyOp47
 70
     1
102
RTVSPropertyOp48
 70
     1
102
RTVSPropertyOp49
 70
     1
102
RTVSPropertyOp50
 70
     1
102
RTVSPropertyOp51
 70
     0
102
RTVSPropertyOp52
 70
     0
102
RTVSPropertyOp53
 70
     1
102
RTVSPropertyOp54
 70
     1
102
RTVSPropertyOp55
 70
     1
102
RTVSPropertyOp56
 70
     1
102
RTVSPropertyOp57
 70
     1
102
RTVSPost2010Prop28
280
     0
102
RTVSPost2010PropOp28
 70
     1
102
RTVSPost2010Prop29
280
     1
102
RTVSPost2010PropOp29
 70
     1
102
RTVSPost2010Prop30
280
     1
102
RTVSPost2010PropOp30
 70
     1
102
RTVSPost2010Prop31
280
     0
102
RTVSPost2010PropOp31
 70
     1
102
RTVSPost2010Prop32
280
     0
102
RTVSPost2010PropOp32
 70
     1
102
RTVSPost2010Prop33
280
     0
102
RTVSPost2010PropOp33
 70
     1
102
RTVSPost2010Prop34
280
     0
102
RTVSPost2010PropOp34
 70
     1
102
RTVSPost2010Prop35
280
     0
102
RTVSPost2010PropOp35
 70
     1
102
RTVSPost2010Prop36
280
     0
102
RTVSPost2010PropOp36
 70
     1
102
RTVSPost2010Prop37
 90
       50
102
RTVSPost2010PropOp37
 70
     1
102
RTVSPost2010Prop38
140
0.0
102
RTVSPost2010PropOp38
 70
     1
102
RTVSPost2010Prop39
140
1.0
102
RTVSPost2010PropOp39
 70
     1
102
RTVSPost2010Prop40
 90
        0
102
RTVSPost2010PropOp40
 70
     1
102
RTVSPost2010Prop41ColorIndex
 90
       18
102
RTVSPost2010Prop41ColorRGB
 90
        0
102
RTVSPost2010PropOp41
 70
     1
102
RTVSPost2010Prop42
 90
       50
102
RTVSPost2010PropOp42
 70
     1
102
RTVSPost2010Prop43
 90
        3
102
RTVSPost2010PropOp43
 70
     1
102
RTVSPost2010Prop44ColorIndex
 90
        5
102
RTVSPost2010Prop44ColorRGB
 90
      255
102
RTVSPost2010PropOp44
 70
     1
102
RTVSPost2010Prop45
280
     0
102
RTVSPost2010PropOp45
 70
     1
102
RTVSPost2010Prop46
 90
       50
102
RTVSPost2010PropOp46
 70
     1
102
RTVSPost2010Prop47
 90
       50
102
RTVSPost2010PropOp47
 70
     1
102
RTVSPost2010Prop48
 90
       50
102
RTVSPost2010PropOp48
 70
     1
102
RTVSPost2010Prop49
280
     0
102
RTVSPost2010PropOp49
 70
     1
102
RTVSPost2010Prop50
 90
       50
102
RTVSPost2010PropOp50
 70
     1
102
RTVSPost2010Prop51ColorIndex
 90
      256
102
RTVSPost2010Prop51ColorRGB
 90
-16777216
102
RTVSPost2010PropOp51
 70
     0
102
RTVSPost2010Prop52
140
1.0
102
RTVSPost2010PropOp52
 70
     0
102
RTVSPost2010Prop53
 90
        2
102
RTVSPost2010PropOp53
 70
     1
102
RTVSPost2010Prop54
  1
strokes_ogs.tif
102
RTVSPost2010PropOp54
 70
     1
102
RTVSPost2010Prop55
280
     0
102
RTVSPost2010PropOp55
 70
     1
102
RTVSPost2010Prop56
140
1.0
102
RTVSPost2010PropOp56
 70
     1
102
RTVSPost2010Prop57
140
1.0
102
RTVSPost2010PropOp57
 70
     1
  0
XRECORD
  5
4F4
102
{ACAD_REACTORS
330
4F3
102
}
330
4F3
100
AcDbXrecord
280
     1
102
RTVSPropertyOp0
 70
     1
102
RTVSPropertyOp1
 70
     1
102
RTVSPropertyOp2
 70
     1
102
RTVSPropertyOp3
 70
     1
102
RTVSPropertyOp4
 70
     1
102
RTVSPropertyOp5
 70
     1
102
RTVSPropertyOp6
 70
     1
102
RTVSPropertyOp7
 70
     1
102
RTVSPropertyOp8
 70
     1
102
RTVSPropertyOp9
 70
     1
102
RTVSPropertyOp10
 70
     1
102
RTVSPropertyOp11
 70
     1
102
RTVSPropertyOp12
 70
     1
102
RTVSPropertyOp13
 70
     1
102
RTVSPropertyOp14
 70
     1
102
RTVSPropertyOp15
 70
     1
102
RTVSPropertyOp16
 70
     1
102
RTVSPropertyOp17
 70
     1
102
RTVSPropertyOp18
 70
     1
102
RTVSPropertyOp19
 70
     1
102
RTVSPropertyOp20
 70
     1
102
RTVSPropertyOp21
 70
     1
102
RTVSPropertyOp22
 70
     1
102
RTVSPropertyOp23
 70
     1
102
RTVSPropertyOp24
 70
     1
102
RTVSPropertyOp25
 70
     1
102
RTVSPropertyOp26
 70
     1
102
RTVSPropertyOp27
 70
     1
102
RTVSPropertyOp28
 70
     1
102
RTVSPropertyOp29
 70
     1
102
RTVSPropertyOp30
 70
     1
102
RTVSPropertyOp31
 70
     1
102
RTVSPropertyOp32
 70
     1
102
RTVSPropertyOp33
 70
     1
102
RTVSPropertyOp34
 70
     1
102
RTVSPropertyOp35
 70
     1
102
RTVSPropertyOp36
 70
     1
102
RTVSPropertyOp37
 70
     1
102
RTVSPropertyOp38
 70
     1
102
RTVSPropertyOp39
 70
     1
102
RTVSPropertyOp40
 70
     1
102
RTVSPropertyOp41
 70
     1
102
RTVSPropertyOp42
 70
     1
102
RTVSPropertyOp43
 70
     1
102
RTVSPropertyOp44
 70
     1
102
RTVSPropertyOp45
 70
     1
102
RTVSPropertyOp46
 70
     1
102
RTVSPropertyOp47
 70
     1
102
RTVSPropertyOp48
 70
     1
102
RTVSPropertyOp49
 70
     1
102
RTVSPropertyOp50
 70
     1
102
RTVSPropertyOp51
 70
     0
102
RTVSPropertyOp52
 70
     0
102
RTVSPropertyOp53
 70
     1
102
RTVSPropertyOp54
 70
     1
102
RTVSPropertyOp55
 70
     1
102
RTVSPropertyOp56
 70
     1
102
RTVSPropertyOp57
 70
     1
102
RTVSPost2010Prop28
280
     0
102
RTVSPost2010PropOp28
 70
     1
102
RTVSPost2010Prop29
280
     1
102
RTVSPost2010PropOp29
 70
     1
102
RTVSPost2010Prop30
280
     1
102
RTVSPost2010PropOp30
 70
     1
102
RTVSPost2010Prop31
280
     0
102
RTVSPost2010PropOp31
 70
     1
102
RTVSPost2010Prop32
280
     0
102
RTVSPost2010PropOp32
 70
     1
102
RTVSPost2010Prop33
280
     0
102
RTVSPost2010PropOp33
 70
     1
102
RTVSPost2010Prop34
280
     0
102
RTVSPost2010PropOp34
 70
     1
102
RTVSPost2010Prop35
280
     0
102
RTVSPost2010PropOp35
 70
     1
102
RTVSPost2010Prop36
280
     0
102
RTVSPost2010PropOp36
 70
     1
102
RTVSPost2010Prop37
 90
       50
102
RTVSPost2010PropOp37
 70
     1
102
RTVSPost2010Prop38
140
0.0
102
RTVSPost2010PropOp38
 70
     1
102
RTVSPost2010Prop39
140
1.0
102
RTVSPost2010PropOp39
 70
     1
102
RTVSPost2010Prop40
 90
        0
102
RTVSPost2010PropOp40
 70
     1
102
RTVSPost2010Prop41ColorIndex
 90
       18
102
RTVSPost2010Prop41ColorRGB
 90
        0
102
RTVSPost2010PropOp41
 70
     1
102
RTVSPost2010Prop42
 90
       50
102
RTVSPost2010PropOp42
 70
     1
102
RTVSPost2010Prop43
 90
        3
102
RTVSPost2010PropOp43
 70
     1
102
RTVSPost2010Prop44ColorIndex
 90
        5
102
RTVSPost2010Prop44ColorRGB
 90
      255
102
RTVSPost2010PropOp44
 70
     1
102
RTVSPost2010Prop45
280
     0
102
RTVSPost2010PropOp45
 70
     1
102
RTVSPost2010Prop46
 90
       50
102
RTVSPost2010PropOp46
 70
     1
102
RTVSPost2010Prop47
 90
       50
102
RTVSPost2010PropOp47
 70
     1
102
RTVSPost2010Prop48
 90
       50
102
RTVSPost2010PropOp48
 70
     1
102
RTVSPost2010Prop49
280
     0
102
RTVSPost2010PropOp49
 70
     1
102
RTVSPost2010Prop50
 90
       50
102
RTVSPost2010PropOp50
 70
     1
102
RTVSPost2010Prop51ColorIndex
 90
      256
102
RTVSPost2010Prop51ColorRGB
 90
-16777216
102
RTVSPost2010PropOp51
 70
     0
102
RTVSPost2010Prop52
140
1.0
102
RTVSPost2010PropOp52
 70
     0
102
RTVSPost2010Prop53
 90
        2
102
RTVSPost2010PropOp53
 70
     1
102
RTVSPost2010Prop54
  1
strokes_ogs.tif
102
RTVSPost2010PropOp54
 70
     1
102
RTVSPost2010Prop55
280
     0
102
RTVSPost2010PropOp55
 70
     1
102
RTVSPost2010Prop56
140
1.0
102
RTVSPost2010PropOp56
 70
     1
102
RTVSPost2010Prop57
140
1.0
102
RTVSPost2010PropOp57
 70
     1
  0
XRECORD
  5
4F6
102
{ACAD_REACTORS
330
4F5
102
}
330
4F5
100
AcDbXrecord
280
     1
102
RTVSPropertyOp0
 70
     1
102
RTVSPropertyOp1
 70
     1
102
RTVSPropertyOp2
 70
     1
102
RTVSPropertyOp3
 70
     1
102
RTVSPropertyOp4
 70
     1
102
RTVSPropertyOp5
 70
     1
102
RTVSPropertyOp6
 70
     1
102
RTVSPropertyOp7
 70
     1
102
RTVSPropertyOp8
 70
     1
102
RTVSPropertyOp9
 70
     1
102
RTVSPropertyOp10
 70
     1
102
RTVSPropertyOp11
 70
     1
102
RTVSPropertyOp12
 70
     1
102
RTVSPropertyOp13
 70
     1
102
RTVSPropertyOp14
 70
     1
102
RTVSPropertyOp15
 70
     1
102
RTVSPropertyOp16
 70
     1
102
RTVSPropertyOp17
 70
     1
102
RTVSPropertyOp18
 70
     1
102
RTVSPropertyOp19
 70
     1
102
RTVSPropertyOp20
 70
     1
102
RTVSPropertyOp21
 70
     1
102
RTVSPropertyOp22
 70
     1
102
RTVSPropertyOp23
 70
     1
102
RTVSPropertyOp24
 70
     1
102
RTVSPropertyOp25
 70
     1
102
RTVSPropertyOp26
 70
     1
102
RTVSPropertyOp27
 70
     1
102
RTVSPropertyOp28
 70
     1
102
RTVSPropertyOp29
 70
     1
102
RTVSPropertyOp30
 70
     1
102
RTVSPropertyOp31
 70
     1
102
RTVSPropertyOp32
 70
     1
102
RTVSPropertyOp33
 70
     1
102
RTVSPropertyOp34
 70
     1
102
RTVSPropertyOp35
 70
     1
102
RTVSPropertyOp36
 70
     1
102
RTVSPropertyOp37
 70
     1
102
RTVSPropertyOp38
 70
     1
102
RTVSPropertyOp39
 70
     1
102
RTVSPropertyOp40
 70
     1
102
RTVSPropertyOp41
 70
     1
102
RTVSPropertyOp42
 70
     1
102
RTVSPropertyOp43
 70
     1
102
RTVSPropertyOp44
 70
     1
102
RTVSPropertyOp45
 70
     1
102
RTVSPropertyOp46
 70
     1
102
RTVSPropertyOp47
 70
     1
102
RTVSPropertyOp48
 70
     1
102
RTVSPropertyOp49
 70
     1
102
RTVSPropertyOp50
 70
     1
102
RTVSPropertyOp51
 70
     0
102
RTVSPropertyOp52
 70
     0
102
RTVSPropertyOp53
 70
     1
102
RTVSPropertyOp54
 70
     1
102
RTVSPropertyOp55
 70
     1
102
RTVSPropertyOp56
 70
     1
102
RTVSPropertyOp57
 70
     1
102
RTVSPost2010Prop28
280
     0
102
RTVSPost2010PropOp28
 70
     1
102
RTVSPost2010Prop29
280
     1
102
RTVSPost2010PropOp29
 70
     1
102
RTVSPost2010Prop30
280
     1
102
RTVSPost2010PropOp30
 70
     1
102
RTVSPost2010Prop31
280
     0
102
RTVSPost2010PropOp31
 70
     1
102
RTVSPost2010Prop32
280
     0
102
RTVSPost2010PropOp32
 70
     1
102
RTVSPost2010Prop33
280
     0
102
RTVSPost2010PropOp33
 70
     1
102
RTVSPost2010Prop34
280
     0
102
RTVSPost2010PropOp34
 70
     1
102
RTVSPost2010Prop35
280
     0
102
RTVSPost2010PropOp35
 70
     1
102
RTVSPost2010Prop36
280
     0
102
RTVSPost2010PropOp36
 70
     1
102
RTVSPost2010Prop37
 90
       50
102
RTVSPost2010PropOp37
 70
     1
102
RTVSPost2010Prop38
140
0.0
102
RTVSPost2010PropOp38
 70
     1
102
RTVSPost2010Prop39
140
1.0
102
RTVSPost2010PropOp39
 70
     1
102
RTVSPost2010Prop40
 90
        0
102
RTVSPost2010PropOp40
 70
     1
102
RTVSPost2010Prop41ColorIndex
 90
       18
102
RTVSPost2010Prop41ColorRGB
 90
        0
102
RTVSPost2010PropOp41
 70
     1
102
RTVSPost2010Prop42
 90
       50
102
RTVSPost2010PropOp42
 70
     1
102
RTVSPost2010Prop43
 90
        3
102
RTVSPost2010PropOp43
 70
     1
102
RTVSPost2010Prop44ColorIndex
 90
        5
102
RTVSPost2010Prop44ColorRGB
 90
      255
102
RTVSPost2010PropOp44
 70
     1
102
RTVSPost2010Prop45
280
     0
102
RTVSPost2010PropOp45
 70
     1
102
RTVSPost2010Prop46
 90
       50
102
RTVSPost2010PropOp46
 70
     1
102
RTVSPost2010Prop47
 90
       50
102
RTVSPost2010PropOp47
 70
     1
102
RTVSPost2010Prop48
 90
       50
102
RTVSPost2010PropOp48
 70
     1
102
RTVSPost2010Prop49
280
     0
102
RTVSPost2010PropOp49
 70
     1
102
RTVSPost2010Prop50
 90
       50
102
RTVSPost2010PropOp50
 70
     1
102
RTVSPost2010Prop51ColorIndex
 90
      256
102
RTVSPost2010Prop51ColorRGB
 90
-16777216
102
RTVSPost2010PropOp51
 70
     0
102
RTVSPost2010Prop52
140
1.0
102
RTVSPost2010PropOp52
 70
     0
102
RTVSPost2010Prop53
 90
        2
102
RTVSPost2010PropOp53
 70
     1
102
RTVSPost2010Prop54
  1
strokes_ogs.tif
102
RTVSPost2010PropOp54
 70
     1
102
RTVSPost2010Prop55
280
     0
102
RTVSPost2010PropOp55
 70
     1
102
RTVSPost2010Prop56
140
1.0
102
RTVSPost2010PropOp56
 70
     1
102
RTVSPost2010Prop57
140
1.0
102
RTVSPost2010PropOp57
 70
     1
  0
XRECORD
  5
4F8
102
{ACAD_REACTORS
330
4F7
102
}
330
4F7
100
AcDbXrecord
280
     1
102
RTVSPropertyOp0
 70
     1
102
RTVSPropertyOp1
 70
     1
102
RTVSPropertyOp2
 70
     1
102
RTVSPropertyOp3
 70
     1
102
RTVSPropertyOp4
 70
     1
102
RTVSPropertyOp5
 70
     1
102
RTVSPropertyOp6
 70
     1
102
RTVSPropertyOp7
 70
     1
102
RTVSPropertyOp8
 70
     1
102
RTVSPropertyOp9
 70
     1
102
RTVSPropertyOp10
 70
     1
102
RTVSPropertyOp11
 70
     1
102
RTVSPropertyOp12
 70
     1
102
RTVSPropertyOp13
 70
     1
102
RTVSPropertyOp14
 70
     1
102
RTVSPropertyOp15
 70
     1
102
RTVSPropertyOp16
 70
     1
102
RTVSPropertyOp17
 70
     1
102
RTVSPropertyOp18
 70
     1
102
RTVSPropertyOp19
 70
     1
102
RTVSPropertyOp20
 70
     1
102
RTVSPropertyOp21
 70
     1
102
RTVSPropertyOp22
 70
     1
102
RTVSPropertyOp23
 70
     1
102
RTVSPropertyOp24
 70
     1
102
RTVSPropertyOp25
 70
     1
102
RTVSPropertyOp26
 70
     1
102
RTVSPropertyOp27
 70
     1
102
RTVSPropertyOp28
 70
     1
102
RTVSPropertyOp29
 70
     1
102
RTVSPropertyOp30
 70
     1
102
RTVSPropertyOp31
 70
     1
102
RTVSPropertyOp32
 70
     1
102
RTVSPropertyOp33
 70
     1
102
RTVSPropertyOp34
 70
     1
102
RTVSPropertyOp35
 70
     1
102
RTVSPropertyOp36
 70
     1
102
RTVSPropertyOp37
 70
     1
102
RTVSPropertyOp38
 70
     1
102
RTVSPropertyOp39
 70
     1
102
RTVSPropertyOp40
 70
     1
102
RTVSPropertyOp41
 70
     1
102
RTVSPropertyOp42
 70
     1
102
RTVSPropertyOp43
 70
     1
102
RTVSPropertyOp44
 70
     1
102
RTVSPropertyOp45
 70
     1
102
RTVSPropertyOp46
 70
     1
102
RTVSPropertyOp47
 70
     1
102
RTVSPropertyOp48
 70
     1
102
RTVSPropertyOp49
 70
     1
102
RTVSPropertyOp50
 70
     1
102
RTVSPropertyOp51
 70
     0
102
RTVSPropertyOp52
 70
     0
102
RTVSPropertyOp53
 70
     1
102
RTVSPropertyOp54
 70
     1
102
RTVSPropertyOp55
 70
     1
102
RTVSPropertyOp56
 70
     1
102
RTVSPropertyOp57
 70
     1
102
RTVSPost2010Prop28
280
     0
102
RTVSPost2010PropOp28
 70
     1
102
RTVSPost2010Prop29
280
     1
102
RTVSPost2010PropOp29
 70
     1
102
RTVSPost2010Prop30
280
     1
102
RTVSPost2010PropOp30
 70
     1
102
RTVSPost2010Prop31
280
     0
102
RTVSPost2010PropOp31
 70
     1
102
RTVSPost2010Prop32
280
     0
102
RTVSPost2010PropOp32
 70
     1
102
RTVSPost2010Prop33
280
     0
102
RTVSPost2010PropOp33
 70
     1
102
RTVSPost2010Prop34
280
     0
102
RTVSPost2010PropOp34
 70
     1
102
RTVSPost2010Prop35
280
     0
102
RTVSPost2010PropOp35
 70
     1
102
RTVSPost2010Prop36
280
     0
102
RTVSPost2010PropOp36
 70
     1
102
RTVSPost2010Prop37
 90
       50
102
RTVSPost2010PropOp37
 70
     1
102
RTVSPost2010Prop38
140
0.0
102
RTVSPost2010PropOp38
 70
     1
102
RTVSPost2010Prop39
140
1.0
102
RTVSPost2010PropOp39
 70
     1
102
RTVSPost2010Prop40
 90
        0
102
RTVSPost2010PropOp40
 70
     1
102
RTVSPost2010Prop41ColorIndex
 90
       18
102
RTVSPost2010Prop41ColorRGB
 90
        0
102
RTVSPost2010PropOp41
 70
     1
102
RTVSPost2010Prop42
 90
       50
102
RTVSPost2010PropOp42
 70
     1
102
RTVSPost2010Prop43
 90
        3
102
RTVSPost2010PropOp43
 70
     1
102
RTVSPost2010Prop44ColorIndex
 90
        5
102
RTVSPost2010Prop44ColorRGB
 90
      255
102
RTVSPost2010PropOp44
 70
     1
102
RTVSPost2010Prop45
280
     0
102
RTVSPost2010PropOp45
 70
     1
102
RTVSPost2010Prop46
 90
       50
102
RTVSPost2010PropOp46
 70
     1
102
RTVSPost2010Prop47
 90
       50
102
RTVSPost2010PropOp47
 70
     1
102
RTVSPost2010Prop48
 90
       50
102
RTVSPost2010PropOp48
 70
     1
102
RTVSPost2010Prop49
280
     0
102
RTVSPost2010PropOp49
 70
     1
102
RTVSPost2010Prop50
 90
       50
102
RTVSPost2010PropOp50
 70
     1
102
RTVSPost2010Prop51ColorIndex
 90
      256
102
RTVSPost2010Prop51ColorRGB
 90
-16777216
102
RTVSPost2010PropOp51
 70
     0
102
RTVSPost2010Prop52
140
1.0
102
RTVSPost2010PropOp52
 70
     0
102
RTVSPost2010Prop53
 90
        2
102
RTVSPost2010PropOp53
 70
     1
102
RTVSPost2010Prop54
  1
strokes_ogs.tif
102
RTVSPost2010PropOp54
 70
     1
102
RTVSPost2010Prop55
280
     0
102
RTVSPost2010PropOp55
 70
     1
102
RTVSPost2010Prop56
140
1.0
102
RTVSPost2010PropOp56
 70
     1
102
RTVSPost2010Prop57
140
1.0
102
RTVSPost2010PropOp57
 70
     1
  0
XRECORD
  5
4FA
102
{ACAD_REACTORS
330
4F9
102
}
330
4F9
100
AcDbXrecord
280
     1
102
RTVSPropertyOp0
 70
     1
102
RTVSPropertyOp1
 70
     1
102
RTVSPropertyOp2
 70
     1
102
RTVSPropertyOp3
 70
     1
102
RTVSPropertyOp4
 70
     1
102
RTVSPropertyOp5
 70
     1
102
RTVSPropertyOp6
 70
     1
102
RTVSPropertyOp7
 70
     1
102
RTVSPropertyOp8
 70
     1
102
RTVSPropertyOp9
 70
     1
102
RTVSPropertyOp10
 70
     1
102
RTVSPropertyOp11
 70
     1
102
RTVSPropertyOp12
 70
     1
102
RTVSPropertyOp13
 70
     1
102
RTVSPropertyOp14
 70
     1
102
RTVSPropertyOp15
 70
     1
102
RTVSPropertyOp16
 70
     1
102
RTVSPropertyOp17
 70
     1
102
RTVSPropertyOp18
 70
     1
102
RTVSPropertyOp19
 70
     1
102
RTVSPropertyOp20
 70
     1
102
RTVSPropertyOp21
 70
     1
102
RTVSPropertyOp22
 70
     1
102
RTVSPropertyOp23
 70
     1
102
RTVSPropertyOp24
 70
     1
102
RTVSPropertyOp25
 70
     1
102
RTVSPropertyOp26
 70
     1
102
RTVSPropertyOp27
 70
     1
102
RTVSPropertyOp28
 70
     1
102
RTVSPropertyOp29
 70
     1
102
RTVSPropertyOp30
 70
     1
102
RTVSPropertyOp31
 70
     1
102
RTVSPropertyOp32
 70
     1
102
RTVSPropertyOp33
 70
     1
102
RTVSPropertyOp34
 70
     1
102
RTVSPropertyOp35
 70
     1
102
RTVSPropertyOp36
 70
     1
102
RTVSPropertyOp37
 70
     1
102
RTVSPropertyOp38
 70
     1
102
RTVSPropertyOp39
 70
     1
102
RTVSPropertyOp40
 70
     1
102
RTVSPropertyOp41
 70
     1
102
RTVSPropertyOp42
 70
     1
102
RTVSPropertyOp43
 70
     1
102
RTVSPropertyOp44
 70
     1
102
RTVSPropertyOp45
 70
     1
102
RTVSPropertyOp46
 70
     1
102
RTVSPropertyOp47
 70
     1
102
RTVSPropertyOp48
 70
     1
102
RTVSPropertyOp49
 70
     1
102
RTVSPropertyOp50
 70
     1
102
RTVSPropertyOp51
 70
     0
102
RTVSPropertyOp52
 70
     0
102
RTVSPropertyOp53
 70
     1
102
RTVSPropertyOp54
 70
     1
102
RTVSPropertyOp55
 70
     1
102
RTVSPropertyOp56
 70
     1
102
RTVSPropertyOp57
 70
     1
102
RTVSPost2010Prop28
280
     0
102
RTVSPost2010PropOp28
 70
     1
102
RTVSPost2010Prop29
280
     1
102
RTVSPost2010PropOp29
 70
     1
102
RTVSPost2010Prop30
280
     1
102
RTVSPost2010PropOp30
 70
     1
102
RTVSPost2010Prop31
280
     0
102
RTVSPost2010PropOp31
 70
     1
102
RTVSPost2010Prop32
280
     0
102
RTVSPost2010PropOp32
 70
     1
102
RTVSPost2010Prop33
280
     0
102
RTVSPost2010PropOp33
 70
     1
102
RTVSPost2010Prop34
280
     0
102
RTVSPost2010PropOp34
 70
     1
102
RTVSPost2010Prop35
280
     0
102
RTVSPost2010PropOp35
 70
     1
102
RTVSPost2010Prop36
280
     0
102
RTVSPost2010PropOp36
 70
     1
102
RTVSPost2010Prop37
 90
       50
102
RTVSPost2010PropOp37
 70
     1
102
RTVSPost2010Prop38
140
0.0
102
RTVSPost2010PropOp38
 70
     1
102
RTVSPost2010Prop39
140
1.0
102
RTVSPost2010PropOp39
 70
     1
102
RTVSPost2010Prop40
 90
        0
102
RTVSPost2010PropOp40
 70
     1
102
RTVSPost2010Prop41ColorIndex
 90
       18
102
RTVSPost2010Prop41ColorRGB
 90
        0
102
RTVSPost2010PropOp41
 70
     1
102
RTVSPost2010Prop42
 90
       50
102
RTVSPost2010PropOp42
 70
     1
102
RTVSPost2010Prop43
 90
        3
102
RTVSPost2010PropOp43
 70
     1
102
RTVSPost2010Prop44ColorIndex
 90
        5
102
RTVSPost2010Prop44ColorRGB
 90
      255
102
RTVSPost2010PropOp44
 70
     1
102
RTVSPost2010Prop45
280
     0
102
RTVSPost2010PropOp45
 70
     1
102
RTVSPost2010Prop46
 90
       50
102
RTVSPost2010PropOp46
 70
     1
102
RTVSPost2010Prop47
 90
       50
102
RTVSPost2010PropOp47
 70
     1
102
RTVSPost2010Prop48
 90
       50
102
RTVSPost2010PropOp48
 70
     1
102
RTVSPost2010Prop49
280
     0
102
RTVSPost2010PropOp49
 70
     1
102
RTVSPost2010Prop50
 90
       50
102
RTVSPost2010PropOp50
 70
     1
102
RTVSPost2010Prop51ColorIndex
 90
      256
102
RTVSPost2010Prop51ColorRGB
 90
-16777216
102
RTVSPost2010PropOp51
 70
     0
102
RTVSPost2010Prop52
140
1.0
102
RTVSPost2010PropOp52
 70
     0
102
RTVSPost2010Prop53
 90
        2
102
RTVSPost2010PropOp53
 70
     1
102
RTVSPost2010Prop54
  1
strokes_ogs.tif
102
RTVSPost2010PropOp54
 70
     1
102
RTVSPost2010Prop55
280
     0
102
RTVSPost2010PropOp55
 70
     1
102
RTVSPost2010Prop56
140
1.0
102
RTVSPost2010PropOp56
 70
     1
102
RTVSPost2010Prop57
140
1.0
102
RTVSPost2010PropOp57
 70
     1
  0
XRECORD
  5
4FC
102
{ACAD_REACTORS
330
4FB
102
}
330
4FB
100
AcDbXrecord
280
     1
102
RTVSPropertyOp0
 70
     0
102
RTVSPropertyOp1
 70
     0
102
RTVSPropertyOp2
 70
     0
102
RTVSPropertyOp3
 70
     0
102
RTVSPropertyOp4
 70
     0
102
RTVSPropertyOp5
 70
     0
102
RTVSPropertyOp6
 70
     0
102
RTVSPropertyOp7
 70
     0
102
RTVSPropertyOp8
 70
     0
102
RTVSPropertyOp9
 70
     0
102
RTVSPropertyOp10
 70
     0
102
RTVSPropertyOp11
 70
     0
102
RTVSPropertyOp12
 70
     0
102
RTVSPropertyOp13
 70
     0
102
RTVSPropertyOp14
 70
     2
102
RTVSPropertyOp15
 70
     0
102
RTVSPropertyOp16
 70
     0
102
RTVSPropertyOp17
 70
     0
102
RTVSPropertyOp18
 70
     0
102
RTVSPropertyOp19
 70
     0
102
RTVSPropertyOp20
 70
     0
102
RTVSPropertyOp21
 70
     0
102
RTVSPropertyOp22
 70
     0
102
RTVSPropertyOp23
 70
     0
102
RTVSPropertyOp24
 70
     0
102
RTVSPropertyOp25
 70
     0
102
RTVSPropertyOp26
 70
     0
102
RTVSPropertyOp27
 70
     0
102
RTVSPropertyOp28
 70
     0
102
RTVSPropertyOp29
 70
     0
102
RTVSPropertyOp30
 70
     0
102
RTVSPropertyOp31
 70
     0
102
RTVSPropertyOp32
 70
     0
102
RTVSPropertyOp33
 70
     0
102
RTVSPropertyOp34
 70
     0
102
RTVSPropertyOp35
 70
     0
102
RTVSPropertyOp36
 70
     0
102
RTVSPropertyOp37
 70
     0
102
RTVSPropertyOp38
 70
     0
102
RTVSPropertyOp39
 70
     0
102
RTVSPropertyOp40
 70
     0
102
RTVSPropertyOp41
 70
     0
102
RTVSPropertyOp42
 70
     0
102
RTVSPropertyOp43
 70
     0
102
RTVSPropertyOp44
 70
     0
102
RTVSPropertyOp45
 70
     0
102
RTVSPropertyOp46
 70
     0
102
RTVSPropertyOp47
 70
     0
102
RTVSPropertyOp48
 70
     0
102
RTVSPropertyOp49
 70
     0
102
RTVSPropertyOp50
 70
     0
102
RTVSPropertyOp51
 70
     0
102
RTVSPropertyOp52
 70
     0
102
RTVSPropertyOp53
 70
     0
102
RTVSPropertyOp54
 70
     0
102
RTVSPropertyOp55
 70
     0
102
RTVSPropertyOp56
 70
     0
102
RTVSPropertyOp57
 70
     0
102
RTVSPost2010Prop28
280
     0
102
RTVSPost2010PropOp28
 70
     0
102
RTVSPost2010Prop29
280
     1
102
RTVSPost2010PropOp29
 70
     0
102
RTVSPost2010Prop30
280
     1
102
RTVSPost2010PropOp30
 70
     0
102
RTVSPost2010Prop31
280
     0
102
RTVSPost2010PropOp31
 70
     0
102
RTVSPost2010Prop32
280
     0
102
RTVSPost2010PropOp32
 70
     0
102
RTVSPost2010Prop33
280
     0
102
RTVSPost2010PropOp33
 70
     0
102
RTVSPost2010Prop34
280
     0
102
RTVSPost2010PropOp34
 70
     0
102
RTVSPost2010Prop35
280
     0
102
RTVSPost2010PropOp35
 70
     0
102
RTVSPost2010Prop36
280
     0
102
RTVSPost2010PropOp36
 70
     0
102
RTVSPost2010Prop37
 90
       50
102
RTVSPost2010PropOp37
 70
     0
102
RTVSPost2010Prop38
140
0.0
102
RTVSPost2010PropOp38
 70
     0
102
RTVSPost2010Prop39
140
1.0
102
RTVSPost2010PropOp39
 70
     0
102
RTVSPost2010Prop40
 90
        0
102
RTVSPost2010PropOp40
 70
     0
102
RTVSPost2010Prop41ColorIndex
 90
       18
102
RTVSPost2010Prop41ColorRGB
 90
        0
102
RTVSPost2010PropOp41
 70
     0
102
RTVSPost2010Prop42
 90
       50
102
RTVSPost2010PropOp42
 70
     0
102
RTVSPost2010Prop43
 90
        3
102
RTVSPost2010PropOp43
 70
     0
102
RTVSPost2010Prop44ColorIndex
 90
        5
102
RTVSPost2010Prop44ColorRGB
 90
      255
102
RTVSPost2010PropOp44
 70
     0
102
RTVSPost2010Prop45
280
     0
102
RTVSPost2010PropOp45
 70
     0
102
RTVSPost2010Prop46
 90
       50
102
RTVSPost2010PropOp46
 70
     0
102
RTVSPost2010Prop47
 90
       50
102
RTVSPost2010PropOp47
 70
     0
102
RTVSPost2010Prop48
 90
       50
102
RTVSPost2010PropOp48
 70
     0
102
RTVSPost2010Prop49
280
     0
102
RTVSPost2010PropOp49
 70
     0
102
RTVSPost2010Prop50
 90
       50
102
RTVSPost2010PropOp50
 70
     0
102
RTVSPost2010Prop51ColorIndex
 90
      256
102
RTVSPost2010Prop51ColorRGB
 90
-16777216
102
RTVSPost2010PropOp51
 70
     0
102
RTVSPost2010Prop52
140
1.0
102
RTVSPost2010PropOp52
 70
     0
102
RTVSPost2010Prop53
 90
        2
102
RTVSPost2010PropOp53
 70
     0
102
RTVSPost2010Prop54
  1
strokes_ogs.tif
102
RTVSPost2010PropOp54
 70
     0
102
RTVSPost2010Prop55
280
     0
102
RTVSPost2010PropOp55
 70
     0
102
RTVSPost2010Prop56
140
1.0
102
RTVSPost2010PropOp56
 70
     0
102
RTVSPost2010Prop57
140
1.0
102
RTVSPost2010PropOp57
 70
     0
  0
XRECORD
  5
4FE
102
{ACAD_REACTORS
330
4FD
102
}
330
4FD
100
AcDbXrecord
280
     1
102
RTVSPropertyOp0
 70
     1
102
RTVSPropertyOp1
 70
     1
102
RTVSPropertyOp2
 70
     1
102
RTVSPropertyOp3
 70
     1
102
RTVSPropertyOp4
 70
     1
102
RTVSPropertyOp5
 70
     1
102
RTVSPropertyOp6
 70
     1
102
RTVSPropertyOp7
 70
     1
102
RTVSPropertyOp8
 70
     1
102
RTVSPropertyOp9
 70
     1
102
RTVSPropertyOp10
 70
     1
102
RTVSPropertyOp11
 70
     1
102
RTVSPropertyOp12
 70
     1
102
RTVSPropertyOp13
 70
     1
102
RTVSPropertyOp14
 70
     1
102
RTVSPropertyOp15
 70
     1
102
RTVSPropertyOp16
 70
     1
102
RTVSPropertyOp17
 70
     1
102
RTVSPropertyOp18
 70
     1
102
RTVSPropertyOp19
 70
     1
102
RTVSPropertyOp20
 70
     1
102
RTVSPropertyOp21
 70
     1
102
RTVSPropertyOp22
 70
     1
102
RTVSPropertyOp23
 70
     1
102
RTVSPropertyOp24
 70
     1
102
RTVSPropertyOp25
 70
     1
102
RTVSPropertyOp26
 70
     1
102
RTVSPropertyOp27
 70
     1
102
RTVSPropertyOp28
 70
     1
102
RTVSPropertyOp29
 70
     1
102
RTVSPropertyOp30
 70
     1
102
RTVSPropertyOp31
 70
     1
102
RTVSPropertyOp32
 70
     1
102
RTVSPropertyOp33
 70
     1
102
RTVSPropertyOp34
 70
     1
102
RTVSPropertyOp35
 70
     1
102
RTVSPropertyOp36
 70
     1
102
RTVSPropertyOp37
 70
     1
102
RTVSPropertyOp38
 70
     1
102
RTVSPropertyOp39
 70
     1
102
RTVSPropertyOp40
 70
     1
102
RTVSPropertyOp41
 70
     1
102
RTVSPropertyOp42
 70
     1
102
RTVSPropertyOp43
 70
     1
102
RTVSPropertyOp44
 70
     1
102
RTVSPropertyOp45
 70
     1
102
RTVSPropertyOp46
 70
     1
102
RTVSPropertyOp47
 70
     1
102
RTVSPropertyOp48
 70
     1
102
RTVSPropertyOp49
 70
     1
102
RTVSPropertyOp50
 70
     1
102
RTVSPropertyOp51
 70
     0
102
RTVSPropertyOp52
 70
     0
102
RTVSPropertyOp53
 70
     1
102
RTVSPropertyOp54
 70
     1
102
RTVSPropertyOp55
 70
     1
102
RTVSPropertyOp56
 70
     1
102
RTVSPropertyOp57
 70
     1
102
RTVSPost2010Prop28
280
     0
102
RTVSPost2010PropOp28
 70
     1
102
RTVSPost2010Prop29
280
     1
102
RTVSPost2010PropOp29
 70
     1
102
RTVSPost2010Prop30
280
     1
102
RTVSPost2010PropOp30
 70
     1
102
RTVSPost2010Prop31
280
     0
102
RTVSPost2010PropOp31
 70
     1
102
RTVSPost2010Prop32
280
     0
102
RTVSPost2010PropOp32
 70
     1
102
RTVSPost2010Prop33
280
     0
102
RTVSPost2010PropOp33
 70
     1
102
RTVSPost2010Prop34
280
     0
102
RTVSPost2010PropOp34
 70
     1
102
RTVSPost2010Prop35
280
     0
102
RTVSPost2010PropOp35
 70
     1
102
RTVSPost2010Prop36
280
     0
102
RTVSPost2010PropOp36
 70
     1
102
RTVSPost2010Prop37
 90
       50
102
RTVSPost2010PropOp37
 70
     1
102
RTVSPost2010Prop38
140
0.0
102
RTVSPost2010PropOp38
 70
     1
102
RTVSPost2010Prop39
140
1.0
102
RTVSPost2010PropOp39
 70
     1
102
RTVSPost2010Prop40
 90
        0
102
RTVSPost2010PropOp40
 70
     1
102
RTVSPost2010Prop41ColorIndex
 90
       18
102
RTVSPost2010Prop41ColorRGB
 90
        0
102
RTVSPost2010PropOp41
 70
     1
102
RTVSPost2010Prop42
 90
       50
102
RTVSPost2010PropOp42
 70
     1
102
RTVSPost2010Prop43
 90
        3
102
RTVSPost2010PropOp43
 70
     1
102
RTVSPost2010Prop44ColorIndex
 90
        5
102
RTVSPost2010Prop44ColorRGB
 90
      255
102
RTVSPost2010PropOp44
 70
     1
102
RTVSPost2010Prop45
280
     0
102
RTVSPost2010PropOp45
 70
     1
102
RTVSPost2010Prop46
 90
       50
102
RTVSPost2010PropOp46
 70
     1
102
RTVSPost2010Prop47
 90
       50
102
RTVSPost2010PropOp47
 70
     1
102
RTVSPost2010Prop48
 90
       50
102
RTVSPost2010PropOp48
 70
     1
102
RTVSPost2010Prop49
280
     0
102
RTVSPost2010PropOp49
 70
     1
102
RTVSPost2010Prop50
 90
       50
102
RTVSPost2010PropOp50
 70
     1
102
RTVSPost2010Prop51ColorIndex
 90
      256
102
RTVSPost2010Prop51ColorRGB
 90
-16777216
102
RTVSPost2010PropOp51
 70
     0
102
RTVSPost2010Prop52
140
1.0
102
RTVSPost2010PropOp52
 70
     0
102
RTVSPost2010Prop53
 90
        2
102
RTVSPost2010PropOp53
 70
     1
102
RTVSPost2010Prop54
  1
strokes_ogs.tif
102
RTVSPost2010PropOp54
 70
     1
102
RTVSPost2010Prop55
280
     0
102
RTVSPost2010PropOp55
 70
     1
102
RTVSPost2010Prop56
140
1.0
102
RTVSPost2010PropOp56
 70
     1
102
RTVSPost2010Prop57
140
1.0
102
RTVSPost2010PropOp57
 70
     1
  0
XRECORD
  5
500
102
{ACAD_REACTORS
330
4FF
102
}
330
4FF
100
AcDbXrecord
280
     1
102
RTVSPropertyOp0
 70
     0
102
RTVSPropertyOp1
 70
     0
102
RTVSPropertyOp2
 70
     0
102
RTVSPropertyOp3
 70
     0
102
RTVSPropertyOp4
 70
     0
102
RTVSPropertyOp5
 70
     0
102
RTVSPropertyOp6
 70
     0
102
RTVSPropertyOp7
 70
     0
102
RTVSPropertyOp8
 70
     0
102
RTVSPropertyOp9
 70
     0
102
RTVSPropertyOp10
 70
     0
102
RTVSPropertyOp11
 70
     0
102
RTVSPropertyOp12
 70
     0
102
RTVSPropertyOp13
 70
     0
102
RTVSPropertyOp14
 70
     2
102
RTVSPropertyOp15
 70
     0
102
RTVSPropertyOp16
 70
     0
102
RTVSPropertyOp17
 70
     0
102
RTVSPropertyOp18
 70
     0
102
RTVSPropertyOp19
 70
     0
102
RTVSPropertyOp20
 70
     0
102
RTVSPropertyOp21
 70
     0
102
RTVSPropertyOp22
 70
     0
102
RTVSPropertyOp23
 70
     0
102
RTVSPropertyOp24
 70
     0
102
RTVSPropertyOp25
 70
     0
102
RTVSPropertyOp26
 70
     0
102
RTVSPropertyOp27
 70
     0
102
RTVSPropertyOp28
 70
     0
102
RTVSPropertyOp29
 70
     0
102
RTVSPropertyOp30
 70
     0
102
RTVSPropertyOp31
 70
     0
102
RTVSPropertyOp32
 70
     0
102
RTVSPropertyOp33
 70
     0
102
RTVSPropertyOp34
 70
     0
102
RTVSPropertyOp35
 70
     0
102
RTVSPropertyOp36
 70
     0
102
RTVSPropertyOp37
 70
     0
102
RTVSPropertyOp38
 70
     0
102
RTVSPropertyOp39
 70
     0
102
RTVSPropertyOp40
 70
     0
102
RTVSPropertyOp41
 70
     0
102
RTVSPropertyOp42
 70
     0
102
RTVSPropertyOp43
 70
     0
102
RTVSPropertyOp44
 70
     0
102
RTVSPropertyOp45
 70
     0
102
RTVSPropertyOp46
 70
     0
102
RTVSPropertyOp47
 70
     0
102
RTVSPropertyOp48
 70
     0
102
RTVSPropertyOp49
 70
     0
102
RTVSPropertyOp50
 70
     0
102
RTVSPropertyOp51
 70
     0
102
RTVSPropertyOp52
 70
     0
102
RTVSPropertyOp53
 70
     0
102
RTVSPropertyOp54
 70
     0
102
RTVSPropertyOp55
 70
     0
102
RTVSPropertyOp56
 70
     0
102
RTVSPropertyOp57
 70
     0
102
RTVSPost2010Prop28
280
     0
102
RTVSPost2010PropOp28
 70
     0
102
RTVSPost2010Prop29
280
     1
102
RTVSPost2010PropOp29
 70
     0
102
RTVSPost2010Prop30
280
     1
102
RTVSPost2010PropOp30
 70
     0
102
RTVSPost2010Prop31
280
     0
102
RTVSPost2010PropOp31
 70
     0
102
RTVSPost2010Prop32
280
     0
102
RTVSPost2010PropOp32
 70
     0
102
RTVSPost2010Prop33
280
     0
102
RTVSPost2010PropOp33
 70
     0
102
RTVSPost2010Prop34
280
     0
102
RTVSPost2010PropOp34
 70
     0
102
RTVSPost2010Prop35
280
     0
102
RTVSPost2010PropOp35
 70
     0
102
RTVSPost2010Prop36
280
     0
102
RTVSPost2010PropOp36
 70
     0
102
RTVSPost2010Prop37
 90
       50
102
RTVSPost2010PropOp37
 70
     0
102
RTVSPost2010Prop38
140
0.0
102
RTVSPost2010PropOp38
 70
     0
102
RTVSPost2010Prop39
140
1.0
102
RTVSPost2010PropOp39
 70
     0
102
RTVSPost2010Prop40
 90
        0
102
RTVSPost2010PropOp40
 70
     0
102
RTVSPost2010Prop41ColorIndex
 90
       18
102
RTVSPost2010Prop41ColorRGB
 90
        0
102
RTVSPost2010PropOp41
 70
     0
102
RTVSPost2010Prop42
 90
       50
102
RTVSPost2010PropOp42
 70
     0
102
RTVSPost2010Prop43
 90
        3
102
RTVSPost2010PropOp43
 70
     0
102
RTVSPost2010Prop44ColorIndex
 90
        5
102
RTVSPost2010Prop44ColorRGB
 90
      255
102
RTVSPost2010PropOp44
 70
     0
102
RTVSPost2010Prop45
280
     0
102
RTVSPost2010PropOp45
 70
     0
102
RTVSPost2010Prop46
 90
       50
102
RTVSPost2010PropOp46
 70
     0
102
RTVSPost2010Prop47
 90
       50
102
RTVSPost2010PropOp47
 70
     0
102
RTVSPost2010Prop48
 90
       50
102
RTVSPost2010PropOp48
 70
     0
102
RTVSPost2010Prop49
280
     0
102
RTVSPost2010PropOp49
 70
     0
102
RTVSPost2010Prop50
 90
       50
102
RTVSPost2010PropOp50
 70
     0
102
RTVSPost2010Prop51ColorIndex
 90
      256
102
RTVSPost2010Prop51ColorRGB
 90
-16777216
102
RTVSPost2010PropOp51
 70
     0
102
RTVSPost2010Prop52
140
1.0
102
RTVSPost2010PropOp52
 70
     0
102
RTVSPost2010Prop53
 90
        2
102
RTVSPost2010PropOp53
 70
     0
102
RTVSPost2010Prop54
  1
strokes_ogs.tif
102
RTVSPost2010PropOp54
 70
     0
102
RTVSPost2010Prop55
280
     0
102
RTVSPost2010PropOp55
 70
     0
102
RTVSPost2010Prop56
140
1.0
102
RTVSPost2010PropOp56
 70
     0
102
RTVSPost2010Prop57
140
1.0
102
RTVSPost2010PropOp57
 70
     0
  0
XRECORD
  5
502
102
{ACAD_REACTORS
330
501
102
}
330
501
100
AcDbXrecord
280
     1
102
RTVSPropertyOp0
 70
     1
102
RTVSPropertyOp1
 70
     1
102
RTVSPropertyOp2
 70
     1
102
RTVSPropertyOp3
 70
     1
102
RTVSPropertyOp4
 70
     1
102
RTVSPropertyOp5
 70
     1
102
RTVSPropertyOp6
 70
     1
102
RTVSPropertyOp7
 70
     1
102
RTVSPropertyOp8
 70
     1
102
RTVSPropertyOp9
 70
     1
102
RTVSPropertyOp10
 70
     1
102
RTVSPropertyOp11
 70
     1
102
RTVSPropertyOp12
 70
     1
102
RTVSPropertyOp13
 70
     1
102
RTVSPropertyOp14
 70
     1
102
RTVSPropertyOp15
 70
     1
102
RTVSPropertyOp16
 70
     1
102
RTVSPropertyOp17
 70
     1
102
RTVSPropertyOp18
 70
     1
102
RTVSPropertyOp19
 70
     1
102
RTVSPropertyOp20
 70
     1
102
RTVSPropertyOp21
 70
     1
102
RTVSPropertyOp22
 70
     1
102
RTVSPropertyOp23
 70
     1
102
RTVSPropertyOp24
 70
     1
102
RTVSPropertyOp25
 70
     1
102
RTVSPropertyOp26
 70
     1
102
RTVSPropertyOp27
 70
     1
102
RTVSPropertyOp28
 70
     1
102
RTVSPropertyOp29
 70
     1
102
RTVSPropertyOp30
 70
     1
102
RTVSPropertyOp31
 70
     1
102
RTVSPropertyOp32
 70
     1
102
RTVSPropertyOp33
 70
     1
102
RTVSPropertyOp34
 70
     1
102
RTVSPropertyOp35
 70
     1
102
RTVSPropertyOp36
 70
     1
102
RTVSPropertyOp37
 70
     1
102
RTVSPropertyOp38
 70
     1
102
RTVSPropertyOp39
 70
     1
102
RTVSPropertyOp40
 70
     1
102
RTVSPropertyOp41
 70
     1
102
RTVSPropertyOp42
 70
     1
102
RTVSPropertyOp43
 70
     1
102
RTVSPropertyOp44
 70
     1
102
RTVSPropertyOp45
 70
     1
102
RTVSPropertyOp46
 70
     1
102
RTVSPropertyOp47
 70
     1
102
RTVSPropertyOp48
 70
     1
102
RTVSPropertyOp49
 70
     1
102
RTVSPropertyOp50
 70
     1
102
RTVSPropertyOp51
 70
     0
102
RTVSPropertyOp52
 70
     0
102
RTVSPropertyOp53
 70
     1
102
RTVSPropertyOp54
 70
     1
102
RTVSPropertyOp55
 70
     1
102
RTVSPropertyOp56
 70
     1
102
RTVSPropertyOp57
 70
     1
102
RTVSPost2010Prop28
280
     0
102
RTVSPost2010PropOp28
 70
     1
102
RTVSPost2010Prop29
280
     1
102
RTVSPost2010PropOp29
 70
     1
102
RTVSPost2010Prop30
280
     1
102
RTVSPost2010PropOp30
 70
     1
102
RTVSPost2010Prop31
280
     0
102
RTVSPost2010PropOp31
 70
     1
102
RTVSPost2010Prop32
280
     0
102
RTVSPost2010PropOp32
 70
     1
102
RTVSPost2010Prop33
280
     0
102
RTVSPost2010PropOp33
 70
     1
102
RTVSPost2010Prop34
280
     0
102
RTVSPost2010PropOp34
 70
     1
102
RTVSPost2010Prop35
280
     0
102
RTVSPost2010PropOp35
 70
     1
102
RTVSPost2010Prop36
280
     0
102
RTVSPost2010PropOp36
 70
     1
102
RTVSPost2010Prop37
 90
       50
102
RTVSPost2010PropOp37
 70
     1
102
RTVSPost2010Prop38
140
0.0
102
RTVSPost2010PropOp38
 70
     1
102
RTVSPost2010Prop39
140
1.0
102
RTVSPost2010PropOp39
 70
     1
102
RTVSPost2010Prop40
 90
        0
102
RTVSPost2010PropOp40
 70
     1
102
RTVSPost2010Prop41ColorIndex
 90
       18
102
RTVSPost2010Prop41ColorRGB
 90
        0
102
RTVSPost2010PropOp41
 70
     1
102
RTVSPost2010Prop42
 90
       50
102
RTVSPost2010PropOp42
 70
     1
102
RTVSPost2010Prop43
 90
        3
102
RTVSPost2010PropOp43
 70
     1
102
RTVSPost2010Prop44ColorIndex
 90
        5
102
RTVSPost2010Prop44ColorRGB
 90
      255
102
RTVSPost2010PropOp44
 70
     1
102
RTVSPost2010Prop45
280
     0
102
RTVSPost2010PropOp45
 70
     1
102
RTVSPost2010Prop46
 90
       50
102
RTVSPost2010PropOp46
 70
     1
102
RTVSPost2010Prop47
 90
       50
102
RTVSPost2010PropOp47
 70
     1
102
RTVSPost2010Prop48
 90
       50
102
RTVSPost2010PropOp48
 70
     1
102
RTVSPost2010Prop49
280
     0
102
RTVSPost2010PropOp49
 70
     1
102
RTVSPost2010Prop50
 90
       50
102
RTVSPost2010PropOp50
 70
     1
102
RTVSPost2010Prop51ColorIndex
 90
      256
102
RTVSPost2010Prop51ColorRGB
 90
-16777216
102
RTVSPost2010PropOp51
 70
     0
102
RTVSPost2010Prop52
140
1.0
102
RTVSPost2010PropOp52
 70
     0
102
RTVSPost2010Prop53
 90
        2
102
RTVSPost2010PropOp53
 70
     1
102
RTVSPost2010Prop54
  1
strokes_ogs.tif
102
RTVSPost2010PropOp54
 70
     1
102
RTVSPost2010Prop55
280
     0
102
RTVSPost2010PropOp55
 70
     1
102
RTVSPost2010Prop56
140
1.0
102
RTVSPost2010PropOp56
 70
     1
102
RTVSPost2010Prop57
140
1.0
102
RTVSPost2010PropOp57
 70
     1
  0
XRECORD
  5
504
102
{ACAD_REACTORS
330
503
102
}
330
503
100
AcDbXrecord
280
     1
102
RTVSPropertyOp0
 70
     1
102
RTVSPropertyOp1
 70
     1
102
RTVSPropertyOp2
 70
     1
102
RTVSPropertyOp3
 70
     1
102
RTVSPropertyOp4
 70
     1
102
RTVSPropertyOp5
 70
     1
102
RTVSPropertyOp6
 70
     1
102
RTVSPropertyOp7
 70
     1
102
RTVSPropertyOp8
 70
     1
102
RTVSPropertyOp9
 70
     1
102
RTVSPropertyOp10
 70
     1
102
RTVSPropertyOp11
 70
     1
102
RTVSPropertyOp12
 70
     1
102
RTVSPropertyOp13
 70
     1
102
RTVSPropertyOp14
 70
     1
102
RTVSPropertyOp15
 70
     1
102
RTVSPropertyOp16
 70
     1
102
RTVSPropertyOp17
 70
     1
102
RTVSPropertyOp18
 70
     1
102
RTVSPropertyOp19
 70
     1
102
RTVSPropertyOp20
 70
     1
102
RTVSPropertyOp21
 70
     1
102
RTVSPropertyOp22
 70
     1
102
RTVSPropertyOp23
 70
     1
102
RTVSPropertyOp24
 70
     1
102
RTVSPropertyOp25
 70
     1
102
RTVSPropertyOp26
 70
     1
102
RTVSPropertyOp27
 70
     1
102
RTVSPropertyOp28
 70
     1
102
RTVSPropertyOp29
 70
     1
102
RTVSPropertyOp30
 70
     1
102
RTVSPropertyOp31
 70
     1
102
RTVSPropertyOp32
 70
     1
102
RTVSPropertyOp33
 70
     1
102
RTVSPropertyOp34
 70
     1
102
RTVSPropertyOp35
 70
     1
102
RTVSPropertyOp36
 70
     1
102
RTVSPropertyOp37
 70
     1
102
RTVSPropertyOp38
 70
     1
102
RTVSPropertyOp39
 70
     1
102
RTVSPropertyOp40
 70
     1
102
RTVSPropertyOp41
 70
     1
102
RTVSPropertyOp42
 70
     1
102
RTVSPropertyOp43
 70
     1
102
RTVSPropertyOp44
 70
     1
102
RTVSPropertyOp45
 70
     1
102
RTVSPropertyOp46
 70
     1
102
RTVSPropertyOp47
 70
     1
102
RTVSPropertyOp48
 70
     1
102
RTVSPropertyOp49
 70
     1
102
RTVSPropertyOp50
 70
     1
102
RTVSPropertyOp51
 70
     0
102
RTVSPropertyOp52
 70
     0
102
RTVSPropertyOp53
 70
     1
102
RTVSPropertyOp54
 70
     1
102
RTVSPropertyOp55
 70
     1
102
RTVSPropertyOp56
 70
     1
102
RTVSPropertyOp57
 70
     1
102
RTVSPost2010Prop28
280
     0
102
RTVSPost2010PropOp28
 70
     1
102
RTVSPost2010Prop29
280
     1
102
RTVSPost2010PropOp29
 70
     1
102
RTVSPost2010Prop30
280
     1
102
RTVSPost2010PropOp30
 70
     1
102
RTVSPost2010Prop31
280
     0
102
RTVSPost2010PropOp31
 70
     1
102
RTVSPost2010Prop32
280
     0
102
RTVSPost2010PropOp32
 70
     1
102
RTVSPost2010Prop33
280
     0
102
RTVSPost2010PropOp33
 70
     1
102
RTVSPost2010Prop34
280
     0
102
RTVSPost2010PropOp34
 70
     1
102
RTVSPost2010Prop35
280
     0
102
RTVSPost2010PropOp35
 70
     1
102
RTVSPost2010Prop36
280
     0
102
RTVSPost2010PropOp36
 70
     1
102
RTVSPost2010Prop37
 90
       50
102
RTVSPost2010PropOp37
 70
     1
102
RTVSPost2010Prop38
140
0.0
102
RTVSPost2010PropOp38
 70
     1
102
RTVSPost2010Prop39
140
1.0
102
RTVSPost2010PropOp39
 70
     1
102
RTVSPost2010Prop40
 90
        0
102
RTVSPost2010PropOp40
 70
     1
102
RTVSPost2010Prop41ColorIndex
 90
       18
102
RTVSPost2010Prop41ColorRGB
 90
        0
102
RTVSPost2010PropOp41
 70
     1
102
RTVSPost2010Prop42
 90
       50
102
RTVSPost2010PropOp42
 70
     1
102
RTVSPost2010Prop43
 90
        3
102
RTVSPost2010PropOp43
 70
     1
102
RTVSPost2010Prop44ColorIndex
 90
        5
102
RTVSPost2010Prop44ColorRGB
 90
      255
102
RTVSPost2010PropOp44
 70
     1
102
RTVSPost2010Prop45
280
     0
102
RTVSPost2010PropOp45
 70
     1
102
RTVSPost2010Prop46
 90
       50
102
RTVSPost2010PropOp46
 70
     1
102
RTVSPost2010Prop47
 90
       50
102
RTVSPost2010PropOp47
 70
     1
102
RTVSPost2010Prop48
 90
       50
102
RTVSPost2010PropOp48
 70
     1
102
RTVSPost2010Prop49
280
     0
102
RTVSPost2010PropOp49
 70
     1
102
RTVSPost2010Prop50
 90
       50
102
RTVSPost2010PropOp50
 70
     1
102
RTVSPost2010Prop51ColorIndex
 90
      256
102
RTVSPost2010Prop51ColorRGB
 90
-16777216
102
RTVSPost2010PropOp51
 70
     0
102
RTVSPost2010Prop52
140
1.0
102
RTVSPost2010PropOp52
 70
     0
102
RTVSPost2010Prop53
 90
        2
102
RTVSPost2010PropOp53
 70
     1
102
RTVSPost2010Prop54
  1
strokes_ogs.tif
102
RTVSPost2010PropOp54
 70
     1
102
RTVSPost2010Prop55
280
     0
102
RTVSPost2010PropOp55
 70
     1
102
RTVSPost2010Prop56
140
1.0
102
RTVSPost2010PropOp56
 70
     1
102
RTVSPost2010Prop57
140
1.0
102
RTVSPost2010PropOp57
 70
     1
  0
XRECORD
  5
506
102
{ACAD_REACTORS
330
505
102
}
330
505
100
AcDbXrecord
280
     1
102
RTVSPropertyOp0
 70
     1
102
RTVSPropertyOp1
 70
     1
102
RTVSPropertyOp2
 70
     1
102
RTVSPropertyOp3
 70
     1
102
RTVSPropertyOp4
 70
     1
102
RTVSPropertyOp5
 70
     1
102
RTVSPropertyOp6
 70
     1
102
RTVSPropertyOp7
 70
     1
102
RTVSPropertyOp8
 70
     1
102
RTVSPropertyOp9
 70
     1
102
RTVSPropertyOp10
 70
     1
102
RTVSPropertyOp11
 70
     1
102
RTVSPropertyOp12
 70
     1
102
RTVSPropertyOp13
 70
     1
102
RTVSPropertyOp14
 70
     1
102
RTVSPropertyOp15
 70
     1
102
RTVSPropertyOp16
 70
     1
102
RTVSPropertyOp17
 70
     1
102
RTVSPropertyOp18
 70
     1
102
RTVSPropertyOp19
 70
     1
102
RTVSPropertyOp20
 70
     1
102
RTVSPropertyOp21
 70
     1
102
RTVSPropertyOp22
 70
     1
102
RTVSPropertyOp23
 70
     1
102
RTVSPropertyOp24
 70
     1
102
RTVSPropertyOp25
 70
     1
102
RTVSPropertyOp26
 70
     1
102
RTVSPropertyOp27
 70
     1
102
RTVSPropertyOp28
 70
     1
102
RTVSPropertyOp29
 70
     1
102
RTVSPropertyOp30
 70
     1
102
RTVSPropertyOp31
 70
     1
102
RTVSPropertyOp32
 70
     1
102
RTVSPropertyOp33
 70
     1
102
RTVSPropertyOp34
 70
     1
102
RTVSPropertyOp35
 70
     1
102
RTVSPropertyOp36
 70
     1
102
RTVSPropertyOp37
 70
     1
102
RTVSPropertyOp38
 70
     1
102
RTVSPropertyOp39
 70
     1
102
RTVSPropertyOp40
 70
     1
102
RTVSPropertyOp41
 70
     1
102
RTVSPropertyOp42
 70
     1
102
RTVSPropertyOp43
 70
     1
102
RTVSPropertyOp44
 70
     1
102
RTVSPropertyOp45
 70
     1
102
RTVSPropertyOp46
 70
     1
102
RTVSPropertyOp47
 70
     1
102
RTVSPropertyOp48
 70
     1
102
RTVSPropertyOp49
 70
     1
102
RTVSPropertyOp50
 70
     1
102
RTVSPropertyOp51
 70
     0
102
RTVSPropertyOp52
 70
     0
102
RTVSPropertyOp53
 70
     1
102
RTVSPropertyOp54
 70
     1
102
RTVSPropertyOp55
 70
     1
102
RTVSPropertyOp56
 70
     1
102
RTVSPropertyOp57
 70
     1
102
RTVSPost2010Prop28
280
     0
102
RTVSPost2010PropOp28
 70
     1
102
RTVSPost2010Prop29
280
     1
102
RTVSPost2010PropOp29
 70
     1
102
RTVSPost2010Prop30
280
     1
102
RTVSPost2010PropOp30
 70
     1
102
RTVSPost2010Prop31
280
     0
102
RTVSPost2010PropOp31
 70
     1
102
RTVSPost2010Prop32
280
     0
102
RTVSPost2010PropOp32
 70
     1
102
RTVSPost2010Prop33
280
     0
102
RTVSPost2010PropOp33
 70
     1
102
RTVSPost2010Prop34
280
     0
102
RTVSPost2010PropOp34
 70
     1
102
RTVSPost2010Prop35
280
     0
102
RTVSPost2010PropOp35
 70
     1
102
RTVSPost2010Prop36
280
     0
102
RTVSPost2010PropOp36
 70
     1
102
RTVSPost2010Prop37
 90
       50
102
RTVSPost2010PropOp37
 70
     1
102
RTVSPost2010Prop38
140
0.0
102
RTVSPost2010PropOp38
 70
     1
102
RTVSPost2010Prop39
140
1.0
102
RTVSPost2010PropOp39
 70
     1
102
RTVSPost2010Prop40
 90
        0
102
RTVSPost2010PropOp40
 70
     1
102
RTVSPost2010Prop41ColorIndex
 90
       18
102
RTVSPost2010Prop41ColorRGB
 90
        0
102
RTVSPost2010PropOp41
 70
     1
102
RTVSPost2010Prop42
 90
       50
102
RTVSPost2010PropOp42
 70
     1
102
RTVSPost2010Prop43
 90
        3
102
RTVSPost2010PropOp43
 70
     1
102
RTVSPost2010Prop44ColorIndex
 90
        5
102
RTVSPost2010Prop44ColorRGB
 90
      255
102
RTVSPost2010PropOp44
 70
     1
102
RTVSPost2010Prop45
280
     0
102
RTVSPost2010PropOp45
 70
     1
102
RTVSPost2010Prop46
 90
       50
102
RTVSPost2010PropOp46
 70
     1
102
RTVSPost2010Prop47
 90
       50
102
RTVSPost2010PropOp47
 70
     1
102
RTVSPost2010Prop48
 90
       50
102
RTVSPost2010PropOp48
 70
     1
102
RTVSPost2010Prop49
280
     0
102
RTVSPost2010PropOp49
 70
     1
102
RTVSPost2010Prop50
 90
       50
102
RTVSPost2010PropOp50
 70
     1
102
RTVSPost2010Prop51ColorIndex
 90
      256
102
RTVSPost2010Prop51ColorRGB
 90
-16777216
102
RTVSPost2010PropOp51
 70
     0
102
RTVSPost2010Prop52
140
1.0
102
RTVSPost2010PropOp52
 70
     0
102
RTVSPost2010Prop53
 90
        2
102
RTVSPost2010PropOp53
 70
     1
102
RTVSPost2010Prop54
  1
strokes_ogs.tif
102
RTVSPost2010PropOp54
 70
     1
102
RTVSPost2010Prop55
280
     0
102
RTVSPost2010PropOp55
 70
     1
102
RTVSPost2010Prop56
140
1.0
102
RTVSPost2010PropOp56
 70
     1
102
RTVSPost2010Prop57
140
1.0
102
RTVSPost2010PropOp57
 70
     1
  0
XRECORD
  5
508
102
{ACAD_REACTORS
330
507
102
}
330
507
100
AcDbXrecord
280
     1
102
RTVSPropertyOp0
 70
     1
102
RTVSPropertyOp1
 70
     1
102
RTVSPropertyOp2
 70
     1
102
RTVSPropertyOp3
 70
     1
102
RTVSPropertyOp4
 70
     1
102
RTVSPropertyOp5
 70
     1
102
RTVSPropertyOp6
 70
     1
102
RTVSPropertyOp7
 70
     1
102
RTVSPropertyOp8
 70
     1
102
RTVSPropertyOp9
 70
     1
102
RTVSPropertyOp10
 70
     1
102
RTVSPropertyOp11
 70
     1
102
RTVSPropertyOp12
 70
     1
102
RTVSPropertyOp13
 70
     1
102
RTVSPropertyOp14
 70
     1
102
RTVSPropertyOp15
 70
     1
102
RTVSPropertyOp16
 70
     1
102
RTVSPropertyOp17
 70
     1
102
RTVSPropertyOp18
 70
     1
102
RTVSPropertyOp19
 70
     1
102
RTVSPropertyOp20
 70
     1
102
RTVSPropertyOp21
 70
     1
102
RTVSPropertyOp22
 70
     1
102
RTVSPropertyOp23
 70
     1
102
RTVSPropertyOp24
 70
     1
102
RTVSPropertyOp25
 70
     1
102
RTVSPropertyOp26
 70
     1
102
RTVSPropertyOp27
 70
     1
102
RTVSPropertyOp28
 70
     1
102
RTVSPropertyOp29
 70
     1
102
RTVSPropertyOp30
 70
     1
102
RTVSPropertyOp31
 70
     1
102
RTVSPropertyOp32
 70
     1
102
RTVSPropertyOp33
 70
     1
102
RTVSPropertyOp34
 70
     1
102
RTVSPropertyOp35
 70
     1
102
RTVSPropertyOp36
 70
     1
102
RTVSPropertyOp37
 70
     1
102
RTVSPropertyOp38
 70
     1
102
RTVSPropertyOp39
 70
     1
102
RTVSPropertyOp40
 70
     1
102
RTVSPropertyOp41
 70
     1
102
RTVSPropertyOp42
 70
     1
102
RTVSPropertyOp43
 70
     1
102
RTVSPropertyOp44
 70
     1
102
RTVSPropertyOp45
 70
     1
102
RTVSPropertyOp46
 70
     1
102
RTVSPropertyOp47
 70
     1
102
RTVSPropertyOp48
 70
     1
102
RTVSPropertyOp49
 70
     1
102
RTVSPropertyOp50
 70
     1
102
RTVSPropertyOp51
 70
     0
102
RTVSPropertyOp52
 70
     0
102
RTVSPropertyOp53
 70
     1
102
RTVSPropertyOp54
 70
     1
102
RTVSPropertyOp55
 70
     1
102
RTVSPropertyOp56
 70
     1
102
RTVSPropertyOp57
 70
     1
102
RTVSPost2010Prop28
280
     0
102
RTVSPost2010PropOp28
 70
     1
102
RTVSPost2010Prop29
280
     1
102
RTVSPost2010PropOp29
 70
     1
102
RTVSPost2010Prop30
280
     1
102
RTVSPost2010PropOp30
 70
     1
102
RTVSPost2010Prop31
280
     0
102
RTVSPost2010PropOp31
 70
     1
102
RTVSPost2010Prop32
280
     0
102
RTVSPost2010PropOp32
 70
     1
102
RTVSPost2010Prop33
280
     0
102
RTVSPost2010PropOp33
 70
     1
102
RTVSPost2010Prop34
280
     0
102
RTVSPost2010PropOp34
 70
     1
102
RTVSPost2010Prop35
280
     0
102
RTVSPost2010PropOp35
 70
     1
102
RTVSPost2010Prop36
280
     0
102
RTVSPost2010PropOp36
 70
     1
102
RTVSPost2010Prop37
 90
       50
102
RTVSPost2010PropOp37
 70
     1
102
RTVSPost2010Prop38
140
0.0
102
RTVSPost2010PropOp38
 70
     1
102
RTVSPost2010Prop39
140
1.0
102
RTVSPost2010PropOp39
 70
     1
102
RTVSPost2010Prop40
 90
        0
102
RTVSPost2010PropOp40
 70
     1
102
RTVSPost2010Prop41ColorIndex
 90
       18
102
RTVSPost2010Prop41ColorRGB
 90
        0
102
RTVSPost2010PropOp41
 70
     1
102
RTVSPost2010Prop42
 90
       50
102
RTVSPost2010PropOp42
 70
     1
102
RTVSPost2010Prop43
 90
        3
102
RTVSPost2010PropOp43
 70
     1
102
RTVSPost2010Prop44ColorIndex
 90
        5
102
RTVSPost2010Prop44ColorRGB
 90
      255
102
RTVSPost2010PropOp44
 70
     1
102
RTVSPost2010Prop45
280
     0
102
RTVSPost2010PropOp45
 70
     1
102
RTVSPost2010Prop46
 90
       50
102
RTVSPost2010PropOp46
 70
     1
102
RTVSPost2010Prop47
 90
       50
102
RTVSPost2010PropOp47
 70
     1
102
RTVSPost2010Prop48
 90
       50
102
RTVSPost2010PropOp48
 70
     1
102
RTVSPost2010Prop49
280
     0
102
RTVSPost2010PropOp49
 70
     1
102
RTVSPost2010Prop50
 90
       50
102
RTVSPost2010PropOp50
 70
     1
102
RTVSPost2010Prop51ColorIndex
 90
      256
102
RTVSPost2010Prop51ColorRGB
 90
-16777216
102
RTVSPost2010PropOp51
 70
     0
102
RTVSPost2010Prop52
140
1.0
102
RTVSPost2010PropOp52
 70
     0
102
RTVSPost2010Prop53
 90
        2
102
RTVSPost2010PropOp53
 70
     1
102
RTVSPost2010Prop54
  1
strokes_ogs.tif
102
RTVSPost2010PropOp54
 70
     1
102
RTVSPost2010Prop55
280
     0
102
RTVSPost2010PropOp55
 70
     1
102
RTVSPost2010Prop56
140
1.0
102
RTVSPost2010PropOp56
 70
     1
102
RTVSPost2010Prop57
140
1.0
102
RTVSPost2010PropOp57
 70
     1
  0
XRECORD
  5
50A
102
{ACAD_REACTORS
330
509
102
}
330
509
100
AcDbXrecord
280
     1
102
RTVSPropertyOp0
 70
     1
102
RTVSPropertyOp1
 70
     1
102
RTVSPropertyOp2
 70
     1
102
RTVSPropertyOp3
 70
     1
102
RTVSPropertyOp4
 70
     1
102
RTVSPropertyOp5
 70
     1
102
RTVSPropertyOp6
 70
     1
102
RTVSPropertyOp7
 70
     1
102
RTVSPropertyOp8
 70
     1
102
RTVSPropertyOp9
 70
     1
102
RTVSPropertyOp10
 70
     1
102
RTVSPropertyOp11
 70
     1
102
RTVSPropertyOp12
 70
     1
102
RTVSPropertyOp13
 70
     1
102
RTVSPropertyOp14
 70
     1
102
RTVSPropertyOp15
 70
     1
102
RTVSPropertyOp16
 70
     1
102
RTVSPropertyOp17
 70
     1
102
RTVSPropertyOp18
 70
     1
102
RTVSPropertyOp19
 70
     1
102
RTVSPropertyOp20
 70
     1
102
RTVSPropertyOp21
 70
     1
102
RTVSPropertyOp22
 70
     1
102
RTVSPropertyOp23
 70
     1
102
RTVSPropertyOp24
 70
     1
102
RTVSPropertyOp25
 70
     1
102
RTVSPropertyOp26
 70
     1
102
RTVSPropertyOp27
 70
     1
102
RTVSPropertyOp28
 70
     1
102
RTVSPropertyOp29
 70
     1
102
RTVSPropertyOp30
 70
     1
102
RTVSPropertyOp31
 70
     1
102
RTVSPropertyOp32
 70
     1
102
RTVSPropertyOp33
 70
     1
102
RTVSPropertyOp34
 70
     1
102
RTVSPropertyOp35
 70
     1
102
RTVSPropertyOp36
 70
     1
102
RTVSPropertyOp37
 70
     1
102
RTVSPropertyOp38
 70
     1
102
RTVSPropertyOp39
 70
     1
102
RTVSPropertyOp40
 70
     1
102
RTVSPropertyOp41
 70
     1
102
RTVSPropertyOp42
 70
     1
102
RTVSPropertyOp43
 70
     1
102
RTVSPropertyOp44
 70
     1
102
RTVSPropertyOp45
 70
     1
102
RTVSPropertyOp46
 70
     1
102
RTVSPropertyOp47
 70
     1
102
RTVSPropertyOp48
 70
     1
102
RTVSPropertyOp49
 70
     1
102
RTVSPropertyOp50
 70
     1
102
RTVSPropertyOp51
 70
     0
102
RTVSPropertyOp52
 70
     0
102
RTVSPropertyOp53
 70
     1
102
RTVSPropertyOp54
 70
     1
102
RTVSPropertyOp55
 70
     1
102
RTVSPropertyOp56
 70
     1
102
RTVSPropertyOp57
 70
     1
102
RTVSPost2010Prop28
280
     0
102
RTVSPost2010PropOp28
 70
     1
102
RTVSPost2010Prop29
280
     1
102
RTVSPost2010PropOp29
 70
     1
102
RTVSPost2010Prop30
280
     1
102
RTVSPost2010PropOp30
 70
     1
102
RTVSPost2010Prop31
280
     0
102
RTVSPost2010PropOp31
 70
     1
102
RTVSPost2010Prop32
280
     0
102
RTVSPost2010PropOp32
 70
     1
102
RTVSPost2010Prop33
280
     0
102
RTVSPost2010PropOp33
 70
     1
102
RTVSPost2010Prop34
280
     0
102
RTVSPost2010PropOp34
 70
     1
102
RTVSPost2010Prop35
280
     0
102
RTVSPost2010PropOp35
 70
     1
102
RTVSPost2010Prop36
280
     0
102
RTVSPost2010PropOp36
 70
     1
102
RTVSPost2010Prop37
 90
       50
102
RTVSPost2010PropOp37
 70
     1
102
RTVSPost2010Prop38
140
0.0
102
RTVSPost2010PropOp38
 70
     1
102
RTVSPost2010Prop39
140
1.0
102
RTVSPost2010PropOp39
 70
     1
102
RTVSPost2010Prop40
 90
        0
102
RTVSPost2010PropOp40
 70
     1
102
RTVSPost2010Prop41ColorIndex
 90
       18
102
RTVSPost2010Prop41ColorRGB
 90
        0
102
RTVSPost2010PropOp41
 70
     1
102
RTVSPost2010Prop42
 90
       50
102
RTVSPost2010PropOp42
 70
     1
102
RTVSPost2010Prop43
 90
        3
102
RTVSPost2010PropOp43
 70
     1
102
RTVSPost2010Prop44ColorIndex
 90
        5
102
RTVSPost2010Prop44ColorRGB
 90
      255
102
RTVSPost2010PropOp44
 70
     1
102
RTVSPost2010Prop45
280
     0
102
RTVSPost2010PropOp45
 70
     1
102
RTVSPost2010Prop46
 90
       50
102
RTVSPost2010PropOp46
 70
     1
102
RTVSPost2010Prop47
 90
       50
102
RTVSPost2010PropOp47
 70
     1
102
RTVSPost2010Prop48
 90
       50
102
RTVSPost2010PropOp48
 70
     1
102
RTVSPost2010Prop49
280
     0
102
RTVSPost2010PropOp49
 70
     1
102
RTVSPost2010Prop50
 90
       50
102
RTVSPost2010PropOp50
 70
     1
102
RTVSPost2010Prop51ColorIndex
 90
      256
102
RTVSPost2010Prop51ColorRGB
 90
-16777216
102
RTVSPost2010PropOp51
 70
     0
102
RTVSPost2010Prop52
140
1.0
102
RTVSPost2010PropOp52
 70
     0
102
RTVSPost2010Prop53
 90
        2
102
RTVSPost2010PropOp53
 70
     1
102
RTVSPost2010Prop54
  1
strokes_ogs.tif
102
RTVSPost2010PropOp54
 70
     1
102
RTVSPost2010Prop55
280
     0
102
RTVSPost2010PropOp55
 70
     1
102
RTVSPost2010Prop56
140
1.0
102
RTVSPost2010PropOp56
 70
     1
102
RTVSPost2010Prop57
140
1.0
102
RTVSPost2010PropOp57
 70
     1
  0
XRECORD
  5
50C
102
{ACAD_REACTORS
330
50B
102
}
330
50B
100
AcDbXrecord
280
     1
102
RTVSPropertyOp0
 70
     1
102
RTVSPropertyOp1
 70
     1
102
RTVSPropertyOp2
 70
     1
102
RTVSPropertyOp3
 70
     1
102
RTVSPropertyOp4
 70
     1
102
RTVSPropertyOp5
 70
     1
102
RTVSPropertyOp6
 70
     1
102
RTVSPropertyOp7
 70
     1
102
RTVSPropertyOp8
 70
     1
102
RTVSPropertyOp9
 70
     1
102
RTVSPropertyOp10
 70
     1
102
RTVSPropertyOp11
 70
     1
102
RTVSPropertyOp12
 70
     1
102
RTVSPropertyOp13
 70
     1
102
RTVSPropertyOp14
 70
     1
102
RTVSPropertyOp15
 70
     1
102
RTVSPropertyOp16
 70
     1
102
RTVSPropertyOp17
 70
     1
102
RTVSPropertyOp18
 70
     1
102
RTVSPropertyOp19
 70
     1
102
RTVSPropertyOp20
 70
     1
102
RTVSPropertyOp21
 70
     1
102
RTVSPropertyOp22
 70
     1
102
RTVSPropertyOp23
 70
     1
102
RTVSPropertyOp24
 70
     1
102
RTVSPropertyOp25
 70
     1
102
RTVSPropertyOp26
 70
     1
102
RTVSPropertyOp27
 70
     1
102
RTVSPropertyOp28
 70
     1
102
RTVSPropertyOp29
 70
     1
102
RTVSPropertyOp30
 70
     1
102
RTVSPropertyOp31
 70
     1
102
RTVSPropertyOp32
 70
     1
102
RTVSPropertyOp33
 70
     1
102
RTVSPropertyOp34
 70
     1
102
RTVSPropertyOp35
 70
     1
102
RTVSPropertyOp36
 70
     1
102
RTVSPropertyOp37
 70
     1
102
RTVSPropertyOp38
 70
     1
102
RTVSPropertyOp39
 70
     1
102
RTVSPropertyOp40
 70
     1
102
RTVSPropertyOp41
 70
     1
102
RTVSPropertyOp42
 70
     1
102
RTVSPropertyOp43
 70
     1
102
RTVSPropertyOp44
 70
     1
102
RTVSPropertyOp45
 70
     1
102
RTVSPropertyOp46
 70
     1
102
RTVSPropertyOp47
 70
     1
102
RTVSPropertyOp48
 70
     1
102
RTVSPropertyOp49
 70
     1
102
RTVSPropertyOp50
 70
     1
102
RTVSPropertyOp51
 70
     0
102
RTVSPropertyOp52
 70
     0
102
RTVSPropertyOp53
 70
     1
102
RTVSPropertyOp54
 70
     1
102
RTVSPropertyOp55
 70
     1
102
RTVSPropertyOp56
 70
     1
102
RTVSPropertyOp57
 70
     1
102
RTVSPost2010Prop28
280
     0
102
RTVSPost2010PropOp28
 70
     1
102
RTVSPost2010Prop29
280
     1
102
RTVSPost2010PropOp29
 70
     1
102
RTVSPost2010Prop30
280
     1
102
RTVSPost2010PropOp30
 70
     1
102
RTVSPost2010Prop31
280
     0
102
RTVSPost2010PropOp31
 70
     1
102
RTVSPost2010Prop32
280
     0
102
RTVSPost2010PropOp32
 70
     1
102
RTVSPost2010Prop33
280
     0
102
RTVSPost2010PropOp33
 70
     1
102
RTVSPost2010Prop34
280
     0
102
RTVSPost2010PropOp34
 70
     1
102
RTVSPost2010Prop35
280
     0
102
RTVSPost2010PropOp35
 70
     1
102
RTVSPost2010Prop36
280
     0
102
RTVSPost2010PropOp36
 70
     1
102
RTVSPost2010Prop37
 90
       50
102
RTVSPost2010PropOp37
 70
     1
102
RTVSPost2010Prop38
140
0.0
102
RTVSPost2010PropOp38
 70
     1
102
RTVSPost2010Prop39
140
1.0
102
RTVSPost2010PropOp39
 70
     1
102
RTVSPost2010Prop40
 90
        0
102
RTVSPost2010PropOp40
 70
     1
102
RTVSPost2010Prop41ColorIndex
 90
       18
102
RTVSPost2010Prop41ColorRGB
 90
        0
102
RTVSPost2010PropOp41
 70
     1
102
RTVSPost2010Prop42
 90
       50
102
RTVSPost2010PropOp42
 70
     1
102
RTVSPost2010Prop43
 90
        3
102
RTVSPost2010PropOp43
 70
     1
102
RTVSPost2010Prop44ColorIndex
 90
        5
102
RTVSPost2010Prop44ColorRGB
 90
      255
102
RTVSPost2010PropOp44
 70
     1
102
RTVSPost2010Prop45
280
     0
102
RTVSPost2010PropOp45
 70
     1
102
RTVSPost2010Prop46
 90
       50
102
RTVSPost2010PropOp46
 70
     1
102
RTVSPost2010Prop47
 90
       50
102
RTVSPost2010PropOp47
 70
     1
102
RTVSPost2010Prop48
 90
       50
102
RTVSPost2010PropOp48
 70
     1
102
RTVSPost2010Prop49
280
     0
102
RTVSPost2010PropOp49
 70
     1
102
RTVSPost2010Prop50
 90
       50
102
RTVSPost2010PropOp50
 70
     1
102
RTVSPost2010Prop51ColorIndex
 90
      256
102
RTVSPost2010Prop51ColorRGB
 90
-16777216
102
RTVSPost2010PropOp51
 70
     0
102
RTVSPost2010Prop52
140
1.0
102
RTVSPost2010PropOp52
 70
     0
102
RTVSPost2010Prop53
 90
        2
102
RTVSPost2010PropOp53
 70
     1
102
RTVSPost2010Prop54
  1
strokes_ogs.tif
102
RTVSPost2010PropOp54
 70
     1
102
RTVSPost2010Prop55
280
     0
102
RTVSPost2010PropOp55
 70
     1
102
RTVSPost2010Prop56
140
1.0
102
RTVSPost2010PropOp56
 70
     1
102
RTVSPost2010Prop57
140
1.0
102
RTVSPost2010PropOp57
 70
     1
  0
XRECORD
  5
50E
102
{ACAD_REACTORS
330
50D
102
}
330
50D
100
AcDbXrecord
280
     1
102
RTVSPropertyOp0
 70
     1
102
RTVSPropertyOp1
 70
     1
102
RTVSPropertyOp2
 70
     1
102
RTVSPropertyOp3
 70
     1
102
RTVSPropertyOp4
 70
     1
102
RTVSPropertyOp5
 70
     1
102
RTVSPropertyOp6
 70
     1
102
RTVSPropertyOp7
 70
     1
102
RTVSPropertyOp8
 70
     1
102
RTVSPropertyOp9
 70
     1
102
RTVSPropertyOp10
 70
     1
102
RTVSPropertyOp11
 70
     1
102
RTVSPropertyOp12
 70
     1
102
RTVSPropertyOp13
 70
     1
102
RTVSPropertyOp14
 70
     1
102
RTVSPropertyOp15
 70
     1
102
RTVSPropertyOp16
 70
     1
102
RTVSPropertyOp17
 70
     1
102
RTVSPropertyOp18
 70
     1
102
RTVSPropertyOp19
 70
     1
102
RTVSPropertyOp20
 70
     1
102
RTVSPropertyOp21
 70
     1
102
RTVSPropertyOp22
 70
     1
102
RTVSPropertyOp23
 70
     1
102
RTVSPropertyOp24
 70
     1
102
RTVSPropertyOp25
 70
     1
102
RTVSPropertyOp26
 70
     1
102
RTVSPropertyOp27
 70
     1
102
RTVSPropertyOp28
 70
     1
102
RTVSPropertyOp29
 70
     1
102
RTVSPropertyOp30
 70
     1
102
RTVSPropertyOp31
 70
     1
102
RTVSPropertyOp32
 70
     1
102
RTVSPropertyOp33
 70
     1
102
RTVSPropertyOp34
 70
     1
102
RTVSPropertyOp35
 70
     1
102
RTVSPropertyOp36
 70
     1
102
RTVSPropertyOp37
 70
     1
102
RTVSPropertyOp38
 70
     1
102
RTVSPropertyOp39
 70
     1
102
RTVSPropertyOp40
 70
     1
102
RTVSPropertyOp41
 70
     1
102
RTVSPropertyOp42
 70
     1
102
RTVSPropertyOp43
 70
     1
102
RTVSPropertyOp44
 70
     1
102
RTVSPropertyOp45
 70
     1
102
RTVSPropertyOp46
 70
     1
102
RTVSPropertyOp47
 70
     1
102
RTVSPropertyOp48
 70
     1
102
RTVSPropertyOp49
 70
     1
102
RTVSPropertyOp50
 70
     1
102
RTVSPropertyOp51
 70
     0
102
RTVSPropertyOp52
 70
     0
102
RTVSPropertyOp53
 70
     1
102
RTVSPropertyOp54
 70
     1
102
RTVSPropertyOp55
 70
     1
102
RTVSPropertyOp56
 70
     1
102
RTVSPropertyOp57
 70
     1
102
RTVSPost2010Prop28
280
     0
102
RTVSPost2010PropOp28
 70
     1
102
RTVSPost2010Prop29
280
     1
102
RTVSPost2010PropOp29
 70
     1
102
RTVSPost2010Prop30
280
     1
102
RTVSPost2010PropOp30
 70
     1
102
RTVSPost2010Prop31
280
     0
102
RTVSPost2010PropOp31
 70
     1
102
RTVSPost2010Prop32
280
     0
102
RTVSPost2010PropOp32
 70
     1
102
RTVSPost2010Prop33
280
     0
102
RTVSPost2010PropOp33
 70
     1
102
RTVSPost2010Prop34
280
     0
102
RTVSPost2010PropOp34
 70
     1
102
RTVSPost2010Prop35
280
     0
102
RTVSPost2010PropOp35
 70
     1
102
RTVSPost2010Prop36
280
     0
102
RTVSPost2010PropOp36
 70
     1
102
RTVSPost2010Prop37
 90
       50
102
RTVSPost2010PropOp37
 70
     1
102
RTVSPost2010Prop38
140
0.0
102
RTVSPost2010PropOp38
 70
     1
102
RTVSPost2010Prop39
140
1.0
102
RTVSPost2010PropOp39
 70
     1
102
RTVSPost2010Prop40
 90
        0
102
RTVSPost2010PropOp40
 70
     1
102
RTVSPost2010Prop41ColorIndex
 90
       18
102
RTVSPost2010Prop41ColorRGB
 90
        0
102
RTVSPost2010PropOp41
 70
     1
102
RTVSPost2010Prop42
 90
       50
102
RTVSPost2010PropOp42
 70
     1
102
RTVSPost2010Prop43
 90
        3
102
RTVSPost2010PropOp43
 70
     1
102
RTVSPost2010Prop44ColorIndex
 90
        5
102
RTVSPost2010Prop44ColorRGB
 90
      255
102
RTVSPost2010PropOp44
 70
     1
102
RTVSPost2010Prop45
280
     0
102
RTVSPost2010PropOp45
 70
     1
102
RTVSPost2010Prop46
 90
       50
102
RTVSPost2010PropOp46
 70
     1
102
RTVSPost2010Prop47
 90
       50
102
RTVSPost2010PropOp47
 70
     1
102
RTVSPost2010Prop48
 90
       50
102
RTVSPost2010PropOp48
 70
     1
102
RTVSPost2010Prop49
280
     0
102
RTVSPost2010PropOp49
 70
     1
102
RTVSPost2010Prop50
 90
       50
102
RTVSPost2010PropOp50
 70
     1
102
RTVSPost2010Prop51ColorIndex
 90
      256
102
RTVSPost2010Prop51ColorRGB
 90
-16777216
102
RTVSPost2010PropOp51
 70
     0
102
RTVSPost2010Prop52
140
1.0
102
RTVSPost2010PropOp52
 70
     0
102
RTVSPost2010Prop53
 90
        2
102
RTVSPost2010PropOp53
 70
     1
102
RTVSPost2010Prop54
  1
strokes_ogs.tif
102
RTVSPost2010PropOp54
 70
     1
102
RTVSPost2010Prop55
280
     0
102
RTVSPost2010PropOp55
 70
     1
102
RTVSPost2010Prop56
140
1.0
102
RTVSPost2010PropOp56
 70
     1
102
RTVSPost2010Prop57
140
1.0
102
RTVSPost2010PropOp57
 70
     1
  0
XRECORD
  5
510
102
{ACAD_REACTORS
330
50F
102
}
330
50F
100
AcDbXrecord
280
     1
102
RTVSPropertyOp0
 70
     1
102
RTVSPropertyOp1
 70
     1
102
RTVSPropertyOp2
 70
     1
102
RTVSPropertyOp3
 70
     1
102
RTVSPropertyOp4
 70
     1
102
RTVSPropertyOp5
 70
     1
102
RTVSPropertyOp6
 70
     1
102
RTVSPropertyOp7
 70
     1
102
RTVSPropertyOp8
 70
     1
102
RTVSPropertyOp9
 70
     1
102
RTVSPropertyOp10
 70
     1
102
RTVSPropertyOp11
 70
     1
102
RTVSPropertyOp12
 70
     1
102
RTVSPropertyOp13
 70
     1
102
RTVSPropertyOp14
 70
     1
102
RTVSPropertyOp15
 70
     1
102
RTVSPropertyOp16
 70
     1
102
RTVSPropertyOp17
 70
     1
102
RTVSPropertyOp18
 70
     1
102
RTVSPropertyOp19
 70
     1
102
RTVSPropertyOp20
 70
     1
102
RTVSPropertyOp21
 70
     1
102
RTVSPropertyOp22
 70
     1
102
RTVSPropertyOp23
 70
     1
102
RTVSPropertyOp24
 70
     1
102
RTVSPropertyOp25
 70
     1
102
RTVSPropertyOp26
 70
     1
102
RTVSPropertyOp27
 70
     1
102
RTVSPropertyOp28
 70
     1
102
RTVSPropertyOp29
 70
     1
102
RTVSPropertyOp30
 70
     1
102
RTVSPropertyOp31
 70
     1
102
RTVSPropertyOp32
 70
     1
102
RTVSPropertyOp33
 70
     1
102
RTVSPropertyOp34
 70
     1
102
RTVSPropertyOp35
 70
     1
102
RTVSPropertyOp36
 70
     1
102
RTVSPropertyOp37
 70
     1
102
RTVSPropertyOp38
 70
     1
102
RTVSPropertyOp39
 70
     1
102
RTVSPropertyOp40
 70
     1
102
RTVSPropertyOp41
 70
     1
102
RTVSPropertyOp42
 70
     1
102
RTVSPropertyOp43
 70
     1
102
RTVSPropertyOp44
 70
     1
102
RTVSPropertyOp45
 70
     1
102
RTVSPropertyOp46
 70
     1
102
RTVSPropertyOp47
 70
     1
102
RTVSPropertyOp48
 70
     1
102
RTVSPropertyOp49
 70
     1
102
RTVSPropertyOp50
 70
     1
102
RTVSPropertyOp51
 70
     0
102
RTVSPropertyOp52
 70
     0
102
RTVSPropertyOp53
 70
     1
102
RTVSPropertyOp54
 70
     1
102
RTVSPropertyOp55
 70
     1
102
RTVSPropertyOp56
 70
     1
102
RTVSPropertyOp57
 70
     1
102
RTVSPost2010Prop28
280
     0
102
RTVSPost2010PropOp28
 70
     1
102
RTVSPost2010Prop29
280
     1
102
RTVSPost2010PropOp29
 70
     1
102
RTVSPost2010Prop30
280
     1
102
RTVSPost2010PropOp30
 70
     1
102
RTVSPost2010Prop31
280
     0
102
RTVSPost2010PropOp31
 70
     1
102
RTVSPost2010Prop32
280
     0
102
RTVSPost2010PropOp32
 70
     1
102
RTVSPost2010Prop33
280
     0
102
RTVSPost2010PropOp33
 70
     1
102
RTVSPost2010Prop34
280
     0
102
RTVSPost2010PropOp34
 70
     1
102
RTVSPost2010Prop35
280
     0
102
RTVSPost2010PropOp35
 70
     1
102
RTVSPost2010Prop36
280
     0
102
RTVSPost2010PropOp36
 70
     1
102
RTVSPost2010Prop37
 90
       50
102
RTVSPost2010PropOp37
 70
     1
102
RTVSPost2010Prop38
140
0.0
102
RTVSPost2010PropOp38
 70
     1
102
RTVSPost2010Prop39
140
1.0
102
RTVSPost2010PropOp39
 70
     1
102
RTVSPost2010Prop40
 90
        0
102
RTVSPost2010PropOp40
 70
     1
102
RTVSPost2010Prop41ColorIndex
 90
       18
102
RTVSPost2010Prop41ColorRGB
 90
        0
102
RTVSPost2010PropOp41
 70
     1
102
RTVSPost2010Prop42
 90
       50
102
RTVSPost2010PropOp42
 70
     1
102
RTVSPost2010Prop43
 90
        3
102
RTVSPost2010PropOp43
 70
     1
102
RTVSPost2010Prop44ColorIndex
 90
        5
102
RTVSPost2010Prop44ColorRGB
 90
      255
102
RTVSPost2010PropOp44
 70
     1
102
RTVSPost2010Prop45
280
     0
102
RTVSPost2010PropOp45
 70
     1
102
RTVSPost2010Prop46
 90
       50
102
RTVSPost2010PropOp46
 70
     1
102
RTVSPost2010Prop47
 90
       50
102
RTVSPost2010PropOp47
 70
     1
102
RTVSPost2010Prop48
 90
       50
102
RTVSPost2010PropOp48
 70
     1
102
RTVSPost2010Prop49
280
     0
102
RTVSPost2010PropOp49
 70
     1
102
RTVSPost2010Prop50
 90
       50
102
RTVSPost2010PropOp50
 70
     1
102
RTVSPost2010Prop51ColorIndex
 90
      256
102
RTVSPost2010Prop51ColorRGB
 90
-16777216
102
RTVSPost2010PropOp51
 70
     0
102
RTVSPost2010Prop52
140
1.0
102
RTVSPost2010PropOp52
 70
     0
102
RTVSPost2010Prop53
 90
        2
102
RTVSPost2010PropOp53
 70
     1
102
RTVSPost2010Prop54
  1
strokes_ogs.tif
102
RTVSPost2010PropOp54
 70
     1
102
RTVSPost2010Prop55
280
     0
102
RTVSPost2010PropOp55
 70
     1
102
RTVSPost2010Prop56
140
1.0
102
RTVSPost2010PropOp56
 70
     1
102
RTVSPost2010Prop57
140
1.0
102
RTVSPost2010PropOp57
 70
     1
  0
ENDSEC
  0
EOF
