  0
SECTION
  2
HEADER
  9
$ACADVER
  1
AC1015
  9
$ACADMAINTVER
 70
     6
  9
$DWGCODEPAGE
  3
ANSI_932
  9
$INSBASE
 10
2423.99999456
 20
1644.999996185
 30
0.0
  9
$EXTMIN
 10
219.2163106688631
 20
16.59182234311265
 30
0.0
  9
$EXTMAX
 10
1975.338485162993
 20
1640.302401230801
 30
0.0
  9
$LIMMIN
 10
0.0
 20
0.0
  9
$LIMMAX
 10
816.5000000000001
 20
565.0
  9
$ORTHOMODE
 70
     0
  9
$REGENMODE
 70
     1
  9
$FILLMODE
 70
     1
  9
$QTEXTMODE
 70
     0
  9
$MIRRTEXT
 70
     1
  9
$LTSCALE
 40
20.0
  9
$ATTMODE
 70
     1
  9
$TEXTSIZE
 40
18.0
  9
$TRACEWID
 40
0.05
  9
$TEXTSTYLE
  7
KANJI
  9
$CLAYER
  8
2
  9
$CELTYPE
  6
BYLAYER
  9
$CECOLOR
 62
   256
  9
$CELTSCALE
 40
1.0
  9
$DISPSILH
 70
     0
  9
$DIMSCALE
 40
6.0
  9
$DIMASZ
 40
2.0
  9
$DIMEXO
 40
0.5
  9
$DIMDLI
 40
0.0
  9
$DIMRND
 40
0.0
  9
$DIMDLE
 40
0.0
  9
$DIMEXE
 40
1.0
  9
$DIMTP
 40
0.0
  9
$DIMTM
 40
0.0
  9
$DIMTXT
 40
3.0
  9
$DIMCEN
 40
0.09
  9
$DIMTSZ
 40
0.0
  9
$DIMTOL
 70
     0
  9
$DIMLIM
 70
     0
  9
$DIMTIH
 70
     0
  9
$DIMTOH
 70
     0
  9
$DIMSE1
 70
     0
  9
$DIMSE2
 70
     0
  9
$DIMTAD
 70
     0
  9
$DIMZIN
 70
     8
  9
$DIMBLK
  1

  9
$DIMASO
 70
     0
  9
$DIMSHO
 70
     0
  9
$DIMPOST
  1

  9
$DIMAPOST
  1

  9
$DIMALT
 70
     0
  9
$DIMALTD
 70
     2
  9
$DIMALTF
 40
25.4
  9
$DIMLFAC
 40
1.0
  9
$DIMTOFL
 70
     1
  9
$DIMTVP
 40
1.0
  9
$DIMTIX
 70
     1
  9
$DIMSOXD
 70
     1
  9
$DIMSAH
 70
     0
  9
$DIMBLK1
  1

  9
$DIMBLK2
  1

  9
$DIMSTYLE
  2
STANDARD
  9
$DIMCLRD
 70
   256
  9
$DIMCLRE
 70
   256
  9
$DIMCLRT
 70
   256
  9
$DIMTFAC
 40
1.0
  9
$DIMGAP
 40
0.09
  9
$DIMJUST
 70
     0
  9
$DIMSD1
 70
     0
  9
$DIMSD2
 70
     0
  9
$DIMTOLJ
 70
     1
  9
$DIMTZIN
 70
     0
  9
$DIMALTZ
 70
     0
  9
$DIMALTTZ
 70
     0
  9
$DIMUPT
 70
     0
  9
$DIMDEC
 70
     1
  9
$DIMTDEC
 70
     4
  9
$DIMALTU
 70
     2
  9
$DIMALTTD
 70
     2
  9
$DIMTXSTY
  7
STANDARD
  9
$DIMAUNIT
 70
     0
  9
$DIMADEC
 70
     0
  9
$DIMALTRND
 40
0.0
  9
$DIMAZIN
 70
     0
  9
$DIMDSEP
 70
    46
  9
$DIMATFIT
 70
     3
  9
$DIMFRAC
 70
     0
  9
$DIMLDRBLK
  1

  9
$DIMLUNIT
 70
     2
  9
$DIMLWD
 70
    -2
  9
$DIMLWE
 70
    -2
  9
$DIMTMOVE
 70
     0
  9
$LUNITS
 70
     2
  9
$LUPREC
 70
     3
  9
$SKETCHINC
 40
0.1
  9
$FILLETRAD
 40
1.0
  9
$AUNITS
 70
     0
  9
$AUPREC
 70
     3
  9
$MENU
  1
C:\R13\WIN\SUPPORT\ACADFULL
  9
$ELEVATION
 40
0.0
  9
$PELEVATION
 40
0.0
  9
$THICKNESS
 40
0.0
  9
$LIMCHECK
 70
     0
  9
$CHAMFERA
 40
0.0
  9
$CHAMFERB
 40
0.0
  9
$CHAMFERC
 40
0.0
  9
$CHAMFERD
 40
0.0
  9
$SKPOLY
 70
     0
  9
$TDCREATE
 40
2457464.785841493
  9
$TDUCREATE
 40
2457464.410841493
  9
$TDUPDATE
 40
2457871.821450613
  9
$TDUUPDATE
 40
2457871.446450613
  9
$TDINDWG
 40
0.0178676736
  9
$TDUSRTIMER
 40
0.0178671412
  9
$USRTIMER
 70
     1
  9
$ANGBASE
 50
0.0
  9
$ANGDIR
 70
     0
  9
$PDMODE
 70
     0
  9
$PDSIZE
 40
0.0
  9
$PLINEWID
 40
0.0
  9
$SPLFRAME
 70
     0
  9
$SPLINETYPE
 70
     6
  9
$SPLINESEGS
 70
     8
  9
$HANDSEED
  5
645
  9
$SURFTAB1
 70
     6
  9
$SURFTAB2
 70
     6
  9
$SURFTYPE
 70
     6
  9
$SURFU
 70
     6
  9
$SURFV
 70
     6
  9
$UCSBASE
  2

  9
$UCSNAME
  2

  9
$UCSORG
 10
0.0
 20
0.0
 30
0.0
  9
$UCSXDIR
 10
1.0
 20
0.0
 30
0.0
  9
$UCSYDIR
 10
0.0
 20
1.0
 30
0.0
  9
$UCSORTHOREF
  2

  9
$UCSORTHOVIEW
 70
     0
  9
$UCSORGTOP
 10
0.0
 20
0.0
 30
0.0
  9
$UCSORGBOTTOM
 10
0.0
 20
0.0
 30
0.0
  9
$UCSORGLEFT
 10
0.0
 20
0.0
 30
0.0
  9
$UCSORGRIGHT
 10
0.0
 20
0.0
 30
0.0
  9
$UCSORGFRONT
 10
0.0
 20
0.0
 30
0.0
  9
$UCSORGBACK
 10
0.0
 20
0.0
 30
0.0
  9
$PUCSBASE
  2

  9
$PUCSNAME
  2

  9
$PUCSORG
 10
0.0
 20
0.0
 30
0.0
  9
$PUCSXDIR
 10
1.0
 20
0.0
 30
0.0
  9
$PUCSYDIR
 10
0.0
 20
1.0
 30
0.0
  9
$PUCSORTHOREF
  2

  9
$PUCSORTHOVIEW
 70
     0
  9
$PUCSORGTOP
 10
0.0
 20
0.0
 30
0.0
  9
$PUCSORGBOTTOM
 10
0.0
 20
0.0
 30
0.0
  9
$PUCSORGLEFT
 10
0.0
 20
0.0
 30
0.0
  9
$PUCSORGRIGHT
 10
0.0
 20
0.0
 30
0.0
  9
$PUCSORGFRONT
 10
0.0
 20
0.0
 30
0.0
  9
$PUCSORGBACK
 10
0.0
 20
0.0
 30
0.0
  9
$USERI1
 70
     0
  9
$USERI2
 70
     0
  9
$USERI3
 70
     0
  9
$USERI4
 70
     0
  9
$USERI5
 70
     0
  9
$USERR1
 40
0.0
  9
$USERR2
 40
0.0
  9
$USERR3
 40
0.0
  9
$USERR4
 40
2448925.372986111
  9
$USERR5
 40
0.04166667
  9
$WORLDVIEW
 70
     1
  9
$SHADEDGE
 70
     3
  9
$SHADEDIF
 70
    70
  9
$TILEMODE
 70
     1
  9
$MAXACTVP
 70
    16
  9
$PINSBASE
 10
0.0
 20
0.0
 30
0.0
  9
$PLIMCHECK
 70
     0
  9
$PEXTMIN
 10
1.000000000000000E+20
 20
1.000000000000000E+20
 30
1.000000000000000E+20
  9
$PEXTMAX
 10
-1.000000000000000E+20
 20
-1.000000000000000E+20
 30
-1.000000000000000E+20
  9
$PLIMMIN
 10
0.0
 20
0.0
  9
$PLIMMAX
 10
12.0
 20
9.0
  9
$UNITMODE
 70
     0
  9
$VISRETAIN
 70
     0
  9
$PLINEGEN
 70
     0
  9
$PSLTSCALE
 70
     0
  9
$TREEDEPTH
 70
  3020
  9
$CMLSTYLE
  2
STANDARD
  9
$CMLJUST
 70
     0
  9
$CMLSCALE
 40
1.0
  9
$PROXYGRAPHICS
 70
     1
  9
$MEASUREMENT
 70
     0
  9
$CELWEIGHT
370
    -1
  9
$ENDCAPS
280
     0
  9
$JOINSTYLE
280
     0
  9
$LWDISPLAY
290
     0
  9
$INSUNITS
 70
     0
  9
$HYPERLINKBASE
  1

  9
$STYLESHEET
  1

  9
$XEDIT
290
     1
  9
$CEPSNTYPE
380
     0
  9
$PSTYLEMODE
290
     1
  9
$FINGERPRINTGUID
  2
{FA43DC21-E04D-4785-A7B2-F655F38663DB}
  9
$VERSIONGUID
  2
{0E53A8EC-2CBC-4366-A057-CC055FE772B8}
  9
$EXTNAMES
290
     1
  9
$PSVPSCALE
 40
0.0
  9
$OLESTARTUP
290
     0
  0
ENDSEC
  0
SECTION
  2
CLASSES
  0
CLASS
  1
ACDBDICTIONARYWDFLT
  2
AcDbDictionaryWithDefault
  3
ObjectDBX Classes
 90
        0
280
     0
281
     0
  0
CLASS
  1
MATERIAL
  2
AcDbMaterial
  3
ObjectDBX Classes
 90
     1153
280
     0
281
     0
  0
CLASS
  1
SORTENTSTABLE
  2
AcDbSortentsTable
  3
ObjectDBX Classes
 90
        0
280
     0
281
     0
  0
CLASS
  1
SCALE
  2
AcDbScale
  3
ObjectDBX Classes
 90
     1153
280
     0
281
     0
  0
CLASS
  1
DICTIONARYVAR
  2
AcDbDictionaryVar
  3
ObjectDBX Classes
 90
        0
280
     0
281
     0
  0
CLASS
  1
VISUALSTYLE
  2
AcDbVisualStyle
  3
ObjectDBX Classes
 90
     4095
280
     0
281
     0
  0
CLASS
  1
MLEADERSTYLE
  2
AcDbMLeaderStyle
  3
ACDB_MLEADERSTYLE_CLASS
 90
     4095
280
     0
281
     0
  0
CLASS
  1
TABLESTYLE
  2
AcDbTableStyle
  3
ObjectDBX Classes
 90
     4095
280
     0
281
     0
  0
CLASS
  1
ACDBPLACEHOLDER
  2
AcDbPlaceHolder
  3
ObjectDBX Classes
 90
        0
280
     0
281
     0
  0
CLASS
  1
LAYOUT
  2
AcDbLayout
  3
ObjectDBX Classes
 90
        0
280
     0
281
     0
  0
ENDSEC
  0
SECTION
  2
TABLES
  0
TABLE
  2
VPORT
  5
25
102
{ACAD_XDICTIONARY
360
60A
102
}
330
0
100
AcDbSymbolTable
 70
     3
  0
VPORT
  5
2A
330
25
100
AcDbSymbolTableRecord
100
AcDbViewportTableRecord
  2
*ACTIVE
 70
     0
 10
0.0
 20
0.0
 11
1.0
 21
1.0
 12
2172.205938615847
 22
900.4427742110661
 13
0.0
 23
0.0
 14
1.0
 24
1.0
 15
50.0
 25
50.0
 16
0.0
 26
0.0
 36
1.0
 17
0.0
 27
0.0
 37
0.0
 40
2149.507609771103
 41
2.174107142857143
 42
50.0
 43
0.0
 44
0.0
 50
0.0
 51
0.0
 71
     0
 72
  5000
 73
     1
 74
     0
 75
     0
 76
     0
 77
     0
 78
     0
281
     0
 65
     1
110
0.0
120
0.0
130
0.0
111
1.0
121
0.0
131
0.0
112
0.0
122
1.0
132
0.0
 79
     0
146
0.0
  0
ENDTAB
  0
TABLE
  2
LTYPE
  5
B
330
0
100
AcDbSymbolTable
 70
     2
  0
LTYPE
  5
C
330
B
100
AcDbSymbolTableRecord
100
AcDbLinetypeTableRecord
  2
BYBLOCK
 70
     0
  3

 72
    65
 73
     0
 40
0.0
  0
LTYPE
  5
D
330
B
100
AcDbSymbolTableRecord
100
AcDbLinetypeTableRecord
  2
BYLAYER
 70
     0
  3

 72
    65
 73
     0
 40
0.0
  0
LTYPE
  5
A
330
B
100
AcDbSymbolTableRecord
100
AcDbLinetypeTableRecord
  2
CONTINUOUS
 70
     0
  3
Solid line
 72
    65
 73
     0
 40
0.0
  0
LTYPE
  5
7D
330
B
100
AcDbSymbolTableRecord
100
AcDbLinetypeTableRecord
  2
CENTER
 70
     0
  3
____ _ ____ _ ____ _ ____ _ ____ _ ____ _ ____
 72
    65
 73
     4
 40
2.0
 49
1.25
 74
     0
 49
-0.25
 74
     0
 49
0.25
 74
     0
 49
-0.25
 74
     0
  0
ENDTAB
  0
TABLE
  2
LAYER
  5
2
330
0
100
AcDbSymbolTable
 70
     8
  0
LAYER
  5
1B
330
2
100
AcDbSymbolTableRecord
100
AcDbLayerTableRecord
  2
0
 70
     0
 62
     7
  6
CONTINUOUS
370
    -3
390
3
  0
LAYER
  5
EF
330
2
100
AcDbSymbolTableRecord
100
AcDbLayerTableRecord
  2
1
 70
     0
 62
     9
  6
CONTINUOUS
370
    -3
390
3
  0
LAYER
  5
1
330
2
100
AcDbSymbolTableRecord
100
AcDbLayerTableRecord
  2
2
 70
     0
 62
     4
  6
CONTINUOUS
370
    -3
390
3
  0
LAYER
  5
7F
330
2
100
AcDbSymbolTableRecord
100
AcDbLayerTableRecord
  2
4
 70
     0
 62
     3
  6
CONTINUOUS
370
    -3
390
3
  0
LAYER
  5
7C
330
2
100
AcDbSymbolTableRecord
100
AcDbLayerTableRecord
  2
L-CENTER
 70
     0
 62
     1
  6
CENTER
370
    -3
390
3
  0
LAYER
  5
51
330
2
100
AcDbSymbolTableRecord
100
AcDbLayerTableRecord
  2
3
 70
     0
 62
     2
  6
CONTINUOUS
370
    -3
390
3
  0
LAYER
  5
E8
330
2
100
AcDbSymbolTableRecord
100
AcDbLayerTableRecord
  2
5
 70
     0
 62
     6
  6
CONTINUOUS
370
    -3
390
3
  0
LAYER
  5
566
330
2
100
AcDbSymbolTableRecord
100
AcDbLayerTableRecord
  2
Defpoints
 70
     0
 62
     7
  6
CONTINUOUS
290
     0
370
    -3
390
3
  0
ENDTAB
  0
TABLE
  2
STYLE
  5
F
330
0
100
AcDbSymbolTable
 70
     2
  0
STYLE
  5
13
330
F
100
AcDbSymbolTableRecord
100
AcDbTextStyleTableRecord
  2
STANDARD
 70
     0
 40
0.0
 41
1.0
 50
0.0
 71
     0
 42
10.79999999999999
  3
TXT
  4

  0
STYLE
  5
E
330
F
100
AcDbSymbolTableRecord
100
AcDbTextStyleTableRecord
  2
KANJI
 70
     0
 40
0.0
 41
1.0
 50
0.0
 71
     0
 42
18.0
  3
TXT
  4
BIGFONT
  0
ENDTAB
  0
TABLE
  2
VIEW
  5
23
330
0
100
AcDbSymbolTable
 70
     0
  0
ENDTAB
  0
TABLE
  2
UCS
  5
24
330
0
100
AcDbSymbolTable
 70
     0
  0
ENDTAB
  0
TABLE
  2
APPID
  5
9
330
0
100
AcDbSymbolTable
 70
     3
  0
APPID
  5
8
330
9
100
AcDbSymbolTableRecord
100
AcDbRegAppTableRecord
  2
ACAD
 70
     0
  0
APPID
  5
550
330
9
100
AcDbSymbolTableRecord
100
AcDbRegAppTableRecord
  2
ACAD_PSEXT
 70
     0
  0
APPID
  5
5D6
330
9
100
AcDbSymbolTableRecord
100
AcDbRegAppTableRecord
  2
ACAD_MLEADERVER
 70
     0
  0
ENDTAB
  0
TABLE
  2
DIMSTYLE
  5
12
330
0
100
AcDbSymbolTable
 70
     1
100
AcDbDimStyleTable
  0
DIMSTYLE
105
11
330
12
100
AcDbSymbolTableRecord
100
AcDbDimStyleTableRecord
  2
STANDARD
 70
     0
178
     0
340
13
  0
ENDTAB
  0
TABLE
  2
BLOCK_RECORD
  5
16
330
0
100
AcDbSymbolTable
 70
     0
  0
BLOCK_RECORD
  5
17
102
{ACAD_XDICTIONARY
360
18
102
}
330
16
100
AcDbSymbolTableRecord
100
AcDbBlockTableRecord
  2
*MODEL_SPACE
340
1D
  0
BLOCK_RECORD
  5
1F
330
16
100
AcDbSymbolTableRecord
100
AcDbBlockTableRecord
  2
*PAPER_SPACE
340
22
  0
ENDTAB
  0
ENDSEC
  0
SECTION
  2
BLOCKS
  0
BLOCK
  5
1A
330
17
100
AcDbEntity
  8
0
100
AcDbBlockBegin
  2
*MODEL_SPACE
 70
     0
 10
0.0
 20
0.0
 30
0.0
  3
*MODEL_SPACE
  1

  0
ENDBLK
  5
1C
330
17
100
AcDbEntity
  8
0
100
AcDbBlockEnd
  0
BLOCK
  5
20
330
1F
100
AcDbEntity
 67
     1
  8
0
100
AcDbBlockBegin
  2
*PAPER_SPACE
 70
     0
 10
0.0
 20
0.0
 30
0.0
  3
*PAPER_SPACE
  1

  0
ENDBLK
  5
21
330
1F
100
AcDbEntity
 67
     1
  8
0
100
AcDbBlockEnd
  0
ENDSEC
  0
SECTION
  2
ENTITIES
  0
LINE
  5
7B
330
17
100
AcDbEntity
  8
L-CENTER
 48
2.0
100
AcDbLine
 10
1897.718424463004
 20
196.5918223431127
 30
0.0
 11
1666.480350736977
 21
196.5918223431127
 31
0.0
  0
ARC
  5
7E
330
17
100
AcDbEntity
  8
4
100
AcDbCircle
 10
1912.399287599991
 20
195.5918223431127
 30
0.0
 40
1.0
100
AcDbArc
 50
270.0
 51
0.0
  0
ARC
  5
80
330
17
100
AcDbEntity
  8
4
100
AcDbCircle
 10
1912.399287599991
 20
697.5918223431127
 30
0.0
 40
1.0
100
AcDbArc
 50
0.0
 51
90.0
  0
ARC
  5
81
330
17
100
AcDbEntity
  8
4
100
AcDbCircle
 10
908.5171106688636
 20
300.5918223431127
 30
0.0
 40
1.0
100
AcDbArc
 50
0.0
 51
90.0
  0
ARC
  5
82
330
17
100
AcDbEntity
  8
4
100
AcDbCircle
 10
908.5171106688636
 20
92.59182234311265
 30
0.0
 40
1.0
100
AcDbArc
 50
270.0
 51
0.0
  0
ARC
  5
83
330
17
100
AcDbEntity
  8
4
100
AcDbCircle
 10
370.9173056688637
 20
92.59182234311265
 30
0.0
 40
1.0
100
AcDbArc
 50
180.0
 51
270.0
  0
ARC
  5
84
330
17
100
AcDbEntity
  8
4
100
AcDbCircle
 10
370.9173056688637
 20
300.5918223431127
 30
0.0
 40
1.0
100
AcDbArc
 50
90.0
 51
180.0
  0
ARC
  5
1BE
330
17
100
AcDbEntity
  8
4
100
AcDbCircle
 10
1920.523903724712
 20
658.3351786790649
 30
0.0
 40
3.875378875279264
100
AcDbArc
 50
314.9559267627452
 51
45.04407323725481
  0
ARC
  5
1BF
330
17
100
AcDbEntity
  8
4
100
AcDbCircle
 10
1910.603538464814
 20
650.1079373431128
 30
0.0
 40
13.7957441351769
100
AcDbArc
 50
336.5734024913729
 51
23.42659750862626
  0
LINE
  5
1C0
330
17
100
AcDbEntity
  8
4
100
AcDbLine
 10
1932.399287599991
 20
641.5918223431127
 30
0.0
 11
1924.388501172465
 21
641.5918223431124
 31
0.0
  0
LINE
  5
1C1
330
17
100
AcDbEntity
  8
4
100
AcDbLine
 10
1932.399287599991
 20
601.5918223431127
 30
0.0
 11
1927.557127599991
 21
601.5918223431127
 31
0.0
  0
LINE
  5
1C2
330
17
100
AcDbEntity
  8
4
100
AcDbLine
 10
1932.399287599991
 20
641.5918223431127
 30
0.0
 11
1932.399287599991
 21
601.5918223431127
 31
0.0
  0
LINE
  5
1C3
330
17
100
AcDbEntity
  8
4
100
AcDbLine
 10
1924.39928259999
 20
658.3351786790649
 30
0.0
 11
1924.39928259999
 21
641.8806960071606
 31
0.0
  0
ARC
  5
1C4
330
17
100
AcDbEntity
  8
4
100
AcDbCircle
 10
1920.523903724712
 20
641.8806960071606
 30
0.0
 40
3.875378875279244
100
AcDbArc
 50
314.9559267627452
 51
45.04407323725481
  0
LINE
  5
1C5
330
17
100
AcDbEntity
  8
4
100
AcDbLine
 10
1965.399287599991
 20
496.5918223431127
 30
0.0
 11
1966.399287599991
 21
496.5918223431127
 31
0.0
  0
LINE
  5
1C6
330
17
100
AcDbEntity
  8
4
100
AcDbLine
 10
1945.399287599991
 20
529.0918223431127
 30
0.0
 11
1965.399287599991
 21
524.0918223431127
 31
0.0
  0
LINE
  5
1C9
330
17
100
AcDbEntity
  8
4
100
AcDbLine
 10
1888.099387599991
 20
696.5918223431127
 30
0.0
 11
1891.099387599991
 21
696.5918223431127
 31
0.0
  0
LINE
  5
1CA
330
17
100
AcDbEntity
  8
4
100
AcDbLine
 10
1887.056417599992
 20
699.5918223431127
 30
0.0
 11
1888.099387599991
 21
699.5918223431127
 31
0.0
  0
LINE
  5
1CB
330
17
100
AcDbEntity
  8
4
100
AcDbLine
 10
1912.399287599991
 20
698.5918223431127
 30
0.0
 11
1891.099387599991
 21
698.5918223431127
 31
0.0
  0
ARC
  5
1CC
330
17
100
AcDbEntity
  8
4
100
AcDbCircle
 10
1782.099387599991
 20
767.5918223431124
 30
0.0
 40
8.0
100
AcDbArc
 50
0.0
 51
180.0
  0
LINE
  5
1CD
330
17
100
AcDbEntity
  8
4
100
AcDbLine
 10
1802.099387599991
 20
702.5918223431124
 30
0.0
 11
1807.099387599991
 21
702.5918223431124
 31
0.0
  0
LINE
  5
1CE
330
17
100
AcDbEntity
  8
4
100
AcDbLine
 10
1798.701927599991
 20
708.5918223431127
 30
0.0
 11
1805.099387599991
 21
708.5918223431127
 31
0.0
  0
LINE
  5
1CF
330
17
100
AcDbEntity
  8
4
100
AcDbLine
 10
1802.017842599991
 20
708.5918223431127
 30
0.0
 11
1802.017842599991
 21
713.5918223431127
 31
0.0
  0
LINE
  5
1D0
330
17
100
AcDbEntity
  8
4
100
AcDbLine
 10
1796.910422599991
 20
716.5764423431126
 30
0.0
 11
1799.599387599991
 21
704.5918223431127
 31
0.0
  0
LINE
  5
1D1
330
17
100
AcDbEntity
  8
4
100
AcDbLine
 10
1802.099387599991
 20
699.5918223431127
 30
0.0
 11
1802.099387599991
 21
704.5918223431127
 31
0.0
  0
LINE
  5
1D2
330
17
100
AcDbEntity
  8
4
100
AcDbLine
 10
1802.099387599991
 20
701.1916773431126
 30
0.0
 11
1802.099387599991
 21
704.5918223431127
 31
0.0
  0
LINE
  5
1D3
330
17
100
AcDbEntity
  8
4
100
AcDbLine
 10
1790.099387599991
 20
717.5918223431124
 30
0.0
 11
1795.641867599991
 21
717.5918223431124
 31
0.0
  0
LINE
  5
1D4
330
17
100
AcDbEntity
  8
4
100
AcDbLine
 10
1797.580097599991
 20
713.5918223431127
 30
0.0
 11
1802.017842599991
 21
713.5918223431127
 31
0.0
  0
ARC
  5
1D5
330
17
100
AcDbEntity
  8
4
100
AcDbCircle
 10
1795.641867599991
 20
716.2917723431126
 30
0.0
 40
1.300075
100
AcDbArc
 50
12.64784100000097
 51
90.0
  0
LINE
  5
1D6
330
17
100
AcDbEntity
  8
4
100
AcDbLine
 10
1790.099387599991
 20
718.4187273431128
 30
0.0
 11
1795.830587599991
 21
717.5779073431127
 31
0.0
  0
LINE
  5
1D7
330
17
100
AcDbEntity
  8
4
100
AcDbLine
 10
1805.099387599991
 20
704.5918223431127
 30
0.0
 11
1805.099387599991
 21
708.5918223431127
 31
0.0
  0
LINE
  5
1D8
330
17
100
AcDbEntity
  8
4
100
AcDbLine
 10
1807.099387599991
 20
702.5918223431124
 30
0.0
 11
1807.099387599991
 21
699.5918223431127
 31
0.0
  0
LINE
  5
1D9
330
17
100
AcDbEntity
  8
4
100
AcDbLine
 10
1765.496847599991
 20
708.5918223431127
 30
0.0
 11
1759.099387599991
 21
708.5918223431127
 31
0.0
  0
LINE
  5
1DA
330
17
100
AcDbEntity
  8
4
100
AcDbLine
 10
1766.618427599991
 20
713.5918223431127
 30
0.0
 11
1762.180687599991
 21
713.5918223431127
 31
0.0
  0
LINE
  5
1DB
330
17
100
AcDbEntity
  8
4
100
AcDbLine
 10
1762.180687599991
 20
708.5918223431127
 30
0.0
 11
1762.180687599991
 21
713.5918223431127
 31
0.0
  0
LINE
  5
1DC
330
17
100
AcDbEntity
  8
4
100
AcDbLine
 10
1762.099387599991
 20
699.5918223431127
 30
0.0
 11
1762.099387599991
 21
704.5918223431127
 31
0.0
  0
LINE
  5
1DD
330
17
100
AcDbEntity
  8
4
100
AcDbLine
 10
1759.099387599991
 20
704.5918223431127
 30
0.0
 11
1762.099387599991
 21
704.5918223431127
 31
0.0
  0
LINE
  5
1DE
330
17
100
AcDbEntity
  8
4
100
AcDbLine
 10
1759.099387599991
 20
704.5918223431127
 30
0.0
 11
1759.099387599991
 21
708.5918223431127
 31
0.0
  0
LINE
  5
1DF
330
17
100
AcDbEntity
  8
4
100
AcDbLine
 10
1762.099387599991
 20
701.1916773431126
 30
0.0
 11
1762.099387599991
 21
704.5918223431127
 31
0.0
  0
LINE
  5
1E0
330
17
100
AcDbEntity
  8
4
100
AcDbLine
 10
1767.288107599991
 20
716.5764423431126
 30
0.0
 11
1764.599387599991
 21
704.5918223431127
 31
0.0
  0
ARC
  5
1E1
330
17
100
AcDbEntity
  8
4
100
AcDbCircle
 10
1768.556662599991
 20
716.2917723431126
 30
0.0
 40
1.300075
100
AcDbArc
 50
90.0
 51
167.352158999999
  0
LINE
  5
1E2
330
17
100
AcDbEntity
  8
4
100
AcDbLine
 10
1774.099387599991
 20
717.5918223431124
 30
0.0
 11
1768.556662599991
 21
717.5918223431124
 31
0.0
  0
LINE
  5
1E3
330
17
100
AcDbEntity
  8
4
100
AcDbLine
 10
1774.099387599991
 20
718.4187273431128
 30
0.0
 11
1768.367942599991
 21
717.5779073431127
 31
0.0
  0
LINE
  5
1E4
330
17
100
AcDbEntity
  8
4
100
AcDbLine
 10
1759.099387599991
 20
704.5918223431127
 30
0.0
 11
1805.099387599991
 21
704.5918223431127
 31
0.0
  0
LINE
  5
1E5
330
17
100
AcDbEntity
  8
L-CENTER
 48
2.0
100
AcDbLine
 10
1806.603385192174
 20
739.5918223431127
 30
0.0
 11
1757.595390007808
 21
739.5918223431127
 31
0.0
  0
LINE
  5
1E6
330
17
100
AcDbEntity
  8
4
100
AcDbLine
 10
1774.099387599991
 20
708.5918223431127
 30
0.0
 11
1774.099387599991
 21
767.5918223431124
 31
0.0
  0
LINE
  5
1E7
330
17
100
AcDbEntity
  8
4
100
AcDbLine
 10
1790.099387599991
 20
708.5918223431127
 30
0.0
 11
1790.099387599991
 21
767.5918223431124
 31
0.0
  0
LINE
  5
1E8
330
17
100
AcDbEntity
  8
4
100
AcDbLine
 10
1757.099387599991
 20
702.5918223431124
 30
0.0
 11
1757.099387599991
 21
699.5918223431127
 31
0.0
  0
LINE
  5
1E9
330
17
100
AcDbEntity
  8
4
100
AcDbLine
 10
1762.099387599991
 20
702.5918223431124
 30
0.0
 11
1757.099387599991
 21
702.5918223431124
 31
0.0
  0
LINE
  5
1EA
330
17
100
AcDbEntity
  8
4
100
AcDbLine
 10
1913.39928259999
 20
639.13828222851
 30
0.0
 11
1913.39928259999
 21
661.0775924577156
 31
0.0
  0
LINE
  5
1EB
330
17
100
AcDbEntity
  8
4
100
AcDbLine
 10
1916.39928259999
 20
639.13828222851
 30
0.0
 11
1916.39928259999
 21
661.0775924577156
 31
0.0
  0
LINE
  5
1EC
330
17
100
AcDbEntity
  8
L-CENTER
 48
2.0
100
AcDbLine
 10
1930.502902883573
 20
650.1079373431128
 30
0.0
 11
1877.793232599991
 21
650.1079373431128
 31
0.0
  0
LINE
  5
1ED
330
17
100
AcDbEntity
  8
4
100
AcDbLine
 10
1918.316990414189
 20
639.13828222851
 30
0.0
 11
1945.399287599991
 21
529.0918223431127
 31
0.0
  0
LINE
  5
1EE
330
17
100
AcDbEntity
  8
4
100
AcDbLine
 10
1916.257235715835
 20
639.13828222851
 30
0.0
 11
1945.399287599991
 21
520.7221923431127
 31
0.0
  0
LINE
  5
1EF
330
17
100
AcDbEntity
  8
4
100
AcDbLine
 10
1923.262101689364
 20
655.5927649004143
 30
0.0
 11
1916.39928259999
 21
655.5927649004143
 31
0.0
  0
LINE
  5
1F0
330
17
100
AcDbEntity
  8
4
100
AcDbLine
 10
1923.262101689364
 20
644.6231097858113
 30
0.0
 11
1916.39928259999
 21
644.6231097858113
 31
0.0
  0
LINE
  5
1F1
330
17
100
AcDbEntity
  8
4
100
AcDbLine
 10
1923.262101689364
 20
639.13828222851
 30
0.0
 11
1913.39928259999
 21
639.13828222851
 31
0.0
  0
LINE
  5
1F2
330
17
100
AcDbEntity
  8
4
100
AcDbLine
 10
1913.39928259999
 20
661.0775924577156
 30
0.0
 11
1923.262101689364
 21
661.0775924577156
 31
0.0
  0
LINE
  5
1F3
330
17
100
AcDbEntity
  8
4
100
AcDbLine
 10
1655.099387599991
 20
696.5918223431127
 30
0.0
 11
1676.099387599991
 21
696.5918223431127
 31
0.0
  0
ARC
  5
1F4
330
17
100
AcDbEntity
  8
4
100
AcDbCircle
 10
1655.099387599991
 20
694.5918223431127
 30
0.0
 40
2.0
100
AcDbArc
 50
90.0
 51
180.0
  0
LINE
  5
1F5
330
17
100
AcDbEntity
  8
4
100
AcDbLine
 10
1677.142352599991
 20
699.5918223431127
 30
0.0
 11
1676.099387599991
 21
699.5918223431127
 31
0.0
  0
LINE
  5
1F6
330
17
100
AcDbEntity
  8
4
100
AcDbLine
 10
1622.099387599991
 20
529.0918223431127
 30
0.0
 11
1599.099387599991
 21
524.0918223431127
 31
0.0
  0
LINE
  5
1F7
330
17
100
AcDbEntity
  8
4
100
AcDbLine
 10
1653.099387599991
 20
658.8948023431126
 30
0.0
 11
1622.099387599991
 21
529.0918223431127
 31
0.0
  0
LINE
  5
1F8
330
17
100
AcDbEntity
  8
4
100
AcDbLine
 10
1653.099387599991
 20
650.2854273431126
 30
0.0
 11
1622.099387599991
 21
520.4824473431124
 31
0.0
  0
LINE
  5
1FE
330
17
100
AcDbEntity
  8
4
100
AcDbLine
 10
1888.099387599991
 20
699.5918223431127
 30
0.0
 11
1676.099387599991
 21
699.5918223431127
 31
0.0
  0
ARC
  5
208
330
17
100
AcDbEntity
  8
4
100
AcDbCircle
 10
1920.523903724712
 20
454.8190636790648
 30
0.0
 40
3.875378875279264
100
AcDbArc
 50
314.9559267627452
 51
45.04407323725481
  0
LINE
  5
20A
330
17
100
AcDbEntity
  8
4
100
AcDbLine
 10
1965.399287599991
 20
396.5918223431127
 30
0.0
 11
1966.399287599991
 21
396.5918223431127
 31
0.0
  0
ARC
  5
20B
330
17
100
AcDbEntity
  8
4
100
AcDbCircle
 10
1920.523903724712
 20
438.3645810071605
 30
0.0
 40
3.875378875279244
100
AcDbArc
 50
314.9559267627452
 51
45.04407323725481
  0
ARC
  5
20D
330
17
100
AcDbEntity
  8
4
100
AcDbCircle
 10
1910.603538464814
 20
446.5918223431127
 30
0.0
 40
13.7957441351769
100
AcDbArc
 50
336.5734024913729
 51
23.42659750862713
  0
LINE
  5
20E
330
17
100
AcDbEntity
  8
4
100
AcDbLine
 10
1924.39928259999
 20
454.8190636790648
 30
0.0
 11
1924.39928259999
 21
438.3645810071605
 31
0.0
  0
LINE
  5
20F
330
17
100
AcDbEntity
  8
4
100
AcDbLine
 10
1945.399287599991
 20
364.0918223431127
 30
0.0
 11
1965.399287599991
 21
369.0918223431127
 31
0.0
  0
LINE
  5
213
330
17
100
AcDbEntity
  8
4
100
AcDbLine
 10
1932.399287599991
 20
291.5918223431127
 30
0.0
 11
1927.557127599991
 21
291.5918223431127
 31
0.0
  0
LINE
  5
214
330
17
100
AcDbEntity
  8
4
100
AcDbLine
 10
1932.399287599991
 20
251.5918223431127
 30
0.0
 11
1924.388506172465
 21
251.5918223431127
 31
0.0
  0
LINE
  5
215
330
17
100
AcDbEntity
  8
4
100
AcDbLine
 10
1932.399287599991
 20
251.5918223431127
 30
0.0
 11
1932.399287599991
 21
291.5918223431127
 31
0.0
  0
ARC
  5
216
330
17
100
AcDbEntity
  8
4
100
AcDbCircle
 10
1920.523908724712
 20
251.3029486790648
 30
0.0
 40
3.875378875279264
100
AcDbArc
 50
314.955926762744
 51
45.04407323725601
  0
ARC
  5
217
330
17
100
AcDbEntity
  8
4
100
AcDbCircle
 10
1920.523908724712
 20
234.8484660071605
 30
0.0
 40
3.875378875279244
100
AcDbArc
 50
314.955926762744
 51
45.04407323725601
  0
ARC
  5
218
330
17
100
AcDbEntity
  8
4
100
AcDbCircle
 10
1910.603543464815
 20
243.0757073431126
 30
0.0
 40
13.7957441351769
100
AcDbArc
 50
336.5734024913704
 51
23.42659750862835
  0
LINE
  5
219
330
17
100
AcDbEntity
  8
4
100
AcDbLine
 10
1924.399287599991
 20
251.3029486790648
 30
0.0
 11
1924.399287599991
 21
234.8484660071605
 31
0.0
  0
LINE
  5
21A
330
17
100
AcDbEntity
  8
4
100
AcDbLine
 10
1916.39928259999
 20
435.6221672285099
 30
0.0
 11
1916.39928259999
 21
457.5614774577155
 31
0.0
  0
LINE
  5
21B
330
17
100
AcDbEntity
  8
4
100
AcDbLine
 10
1913.39928259999
 20
435.6221672285099
 30
0.0
 11
1913.39928259999
 21
457.5614774577155
 31
0.0
  0
LINE
  5
21C
330
17
100
AcDbEntity
  8
4
100
AcDbLine
 10
1888.099387599991
 20
196.5918223431127
 30
0.0
 11
1891.099387599991
 21
196.5918223431127
 31
0.0
  0
LINE
  5
21D
330
17
100
AcDbEntity
  8
4
100
AcDbLine
 10
1912.399287599991
 20
194.5918223431127
 30
0.0
 11
1891.099387599991
 21
194.5918223431127
 31
0.0
  0
LINE
  5
21E
330
17
100
AcDbEntity
  8
4
100
AcDbLine
 10
1916.399287599991
 20
232.1060522285098
 30
0.0
 11
1916.399287599991
 21
254.0453624577154
 31
0.0
  0
LINE
  5
21F
330
17
100
AcDbEntity
  8
4
100
AcDbLine
 10
1913.399287599991
 20
232.1060522285098
 30
0.0
 11
1913.399287599991
 21
254.0453624577154
 31
0.0
  0
LINE
  5
220
330
17
100
AcDbEntity
  8
4
100
AcDbLine
 10
1851.728072175356
 20
250.7068244751441
 30
0.0
 11
1841.132198994677
 21
247.8676688132784
 31
0.0
  0
LINE
  5
221
330
17
100
AcDbEntity
  8
4
100
AcDbLine
 10
1854.567227837221
 20
261.3026976558233
 30
0.0
 11
1851.728072175356
 21
250.7068244751441
 31
0.0
  0
LINE
  5
222
330
17
100
AcDbEntity
  8
4
100
AcDbLine
 10
1846.810510318408
 20
269.0594151746363
 30
0.0
 11
1854.567227837221
 21
261.3026976558233
 31
0.0
  0
LINE
  5
223
330
17
100
AcDbEntity
  8
4
100
AcDbLine
 10
1833.375481475863
 20
255.6243863320915
 30
0.0
 11
1836.214637137728
 21
266.2202595127707
 31
0.0
  0
LINE
  5
224
330
17
100
AcDbEntity
  8
4
100
AcDbLine
 10
1841.132198994677
 20
247.8676688132784
 30
0.0
 11
1833.375481475863
 21
255.6243863320915
 31
0.0
  0
CIRCLE
  5
225
330
17
100
AcDbEntity
  8
4
100
AcDbCircle
 10
1843.971354656543
 20
258.4635419939574
 30
0.0
 40
9.5
  0
LINE
  5
226
330
17
100
AcDbEntity
  8
4
100
AcDbLine
 10
1836.214637137728
 20
266.2202595127707
 30
0.0
 11
1846.810510318408
 21
269.0594151746363
 31
0.0
  0
LINE
  5
227
330
17
100
AcDbEntity
  8
L-CENTER
 48
2.0
100
AcDbLine
 10
1863.854517599986
 20
278.3467023431151
 30
0.0
 11
1825.533472599987
 21
240.0256623431139
 31
0.0
  0
LINE
  5
228
330
17
100
AcDbEntity
  8
4
100
AcDbLine
 10
1887.056417599992
 20
193.5918223431127
 30
0.0
 11
1888.099387599991
 21
193.5918223431127
 31
0.0
  0
LINE
  5
229
330
17
100
AcDbEntity
  8
4
100
AcDbLine
 10
1851.727885026662
 20
142.4766330622028
 30
0.0
 11
1841.132011845983
 21
145.3157887240682
 31
0.0
  0
LINE
  5
22A
330
17
100
AcDbEntity
  8
4
100
AcDbLine
 10
1854.567040688527
 20
131.8807598815238
 30
0.0
 11
1851.727885026662
 21
142.4766330622028
 31
0.0
  0
LINE
  5
22B
330
17
100
AcDbEntity
  8
4
100
AcDbLine
 10
1846.810323169714
 20
124.1240423627105
 30
0.0
 11
1854.567040688527
 21
131.8807598815238
 31
0.0
  0
LINE
  5
22C
330
17
100
AcDbEntity
  8
4
100
AcDbLine
 10
1833.375294327169
 20
137.5590712052549
 30
0.0
 11
1836.214449989036
 21
126.9631980245758
 31
0.0
  0
LINE
  5
22D
330
17
100
AcDbEntity
  8
4
100
AcDbLine
 10
1841.132011845983
 20
145.3157887240682
 30
0.0
 11
1833.375294327169
 21
137.5590712052549
 31
0.0
  0
CIRCLE
  5
22E
330
17
100
AcDbEntity
  8
4
100
AcDbCircle
 10
1843.971167507848
 20
134.7199155433893
 30
0.0
 40
9.5
  0
LINE
  5
22F
330
17
100
AcDbEntity
  8
4
100
AcDbLine
 10
1836.214449989036
 20
126.9631980245758
 30
0.0
 11
1846.810323169714
 21
124.1240423627105
 31
0.0
  0
LINE
  5
230
330
17
100
AcDbEntity
  8
L-CENTER
 48
2.0
100
AcDbLine
 10
1861.693622599991
 20
116.9975823431126
 30
0.0
 11
1826.798847599991
 21
151.8921173431127
 31
0.0
  0
LINE
  5
231
330
17
100
AcDbEntity
  8
4
100
AcDbLine
 10
1887.099387599991
 20
196.5918223431127
 30
0.0
 11
1887.099387599991
 21
101.5918223431127
 31
0.0
  0
LINE
  5
232
330
17
100
AcDbEntity
  8
4
100
AcDbLine
 10
1789.599387599991
 20
220.5918223431127
 30
0.0
 11
1789.599387599991
 21
230.5918223431127
 31
0.0
  0
LINE
  5
233
330
17
100
AcDbEntity
  8
4
100
AcDbLine
 10
1774.599387599991
 20
220.5918223431127
 30
0.0
 11
1774.599387599991
 21
230.5918223431127
 31
0.0
  0
LINE
  5
234
330
17
100
AcDbEntity
  8
4
100
AcDbLine
 10
1789.599387599991
 20
230.5918223431127
 30
0.0
 11
1774.599387599991
 21
230.5918223431127
 31
0.0
  0
LINE
  5
235
330
17
100
AcDbEntity
  8
4
100
AcDbLine
 10
1774.599387599991
 20
220.5918223431127
 30
0.0
 11
1789.599387599991
 21
220.5918223431127
 31
0.0
  0
LINE
  5
236
330
17
100
AcDbEntity
  8
4
100
AcDbLine
 10
1727.984138062249
 20
266.220259512769
 30
0.0
 11
1717.38826488157
 21
269.0594151746343
 31
0.0
  0
LINE
  5
237
330
17
100
AcDbEntity
  8
4
100
AcDbLine
 10
1717.38826488157
 20
269.0594151746343
 30
0.0
 11
1709.631547362756
 21
261.302697655821
 31
0.0
  0
CIRCLE
  5
238
330
17
100
AcDbEntity
  8
4
100
AcDbCircle
 10
1720.227420543435
 20
258.4635419939555
 30
0.0
 40
9.5
  0
LINE
  5
239
330
17
100
AcDbEntity
  8
4
100
AcDbLine
 10
1709.631547362756
 20
261.302697655821
 30
0.0
 11
1712.470703024623
 21
250.706824475142
 31
0.0
  0
LINE
  5
23A
330
17
100
AcDbEntity
  8
4
100
AcDbLine
 10
1712.470703024623
 20
250.706824475142
 30
0.0
 11
1723.066576205301
 21
247.8676688132766
 31
0.0
  0
LINE
  5
23B
330
17
100
AcDbEntity
  8
4
100
AcDbLine
 10
1730.823293724114
 20
255.6243863320899
 30
0.0
 11
1727.984138062249
 21
266.220259512769
 31
0.0
  0
LINE
  5
23C
330
17
100
AcDbEntity
  8
4
100
AcDbLine
 10
1723.066576205301
 20
247.8676688132766
 30
0.0
 11
1730.823293724114
 21
255.6243863320899
 31
0.0
  0
LINE
  5
23D
330
17
100
AcDbEntity
  8
4
100
AcDbLine
 10
1717.388452030268
 20
124.1240423627085
 30
0.0
 11
1709.631734511455
 21
131.8807598815214
 31
0.0
  0
CIRCLE
  5
23E
330
17
100
AcDbEntity
  8
4
100
AcDbCircle
 10
1720.227607692133
 20
134.7199155433873
 30
0.0
 40
9.5
  0
LINE
  5
23F
330
17
100
AcDbEntity
  8
4
100
AcDbLine
 10
1727.984325210947
 20
126.963198024574
 30
0.0
 11
1717.388452030268
 21
124.1240423627085
 31
0.0
  0
LINE
  5
240
330
17
100
AcDbEntity
  8
4
100
AcDbLine
 10
1709.631734511455
 20
131.8807598815214
 30
0.0
 11
1712.470890173319
 21
142.4766330622006
 31
0.0
  0
LINE
  5
241
330
17
100
AcDbEntity
  8
4
100
AcDbLine
 10
1712.470890173319
 20
142.4766330622006
 30
0.0
 11
1723.066763353998
 21
145.3157887240662
 31
0.0
  0
LINE
  5
242
330
17
100
AcDbEntity
  8
4
100
AcDbLine
 10
1730.823480872812
 20
137.5590712052532
 30
0.0
 11
1727.984325210947
 21
126.963198024574
 31
0.0
  0
LINE
  5
243
330
17
100
AcDbEntity
  8
4
100
AcDbLine
 10
1723.066763353998
 20
145.3157887240662
 30
0.0
 11
1730.823480872812
 21
137.5590712052532
 31
0.0
  0
ARC
  5
244
330
17
100
AcDbEntity
  8
4
100
AcDbCircle
 10
1782.099387599991
 20
196.5918223431127
 30
0.0
 40
29.000035
100
AcDbArc
 50
104.9882149999997
 51
75.01178500000036
  0
CIRCLE
  5
245
330
17
100
AcDbEntity
  8
4
100
AcDbCircle
 10
1782.099387599991
 20
196.5918223431127
 30
0.0
 40
45.0
  0
LINE
  5
246
330
17
100
AcDbEntity
  8
4
100
AcDbLine
 10
1916.257235715835
 20
254.0453624577154
 30
0.0
 11
1945.399287599991
 21
372.4614523431126
 31
0.0
  0
LINE
  5
247
330
17
100
AcDbEntity
  8
4
100
AcDbLine
 10
1918.316990414189
 20
254.0453624577153
 30
0.0
 11
1945.399287599991
 21
364.0918223431127
 31
0.0
  0
LINE
  5
248
330
17
100
AcDbEntity
  8
L-CENTER
 48
2.0
100
AcDbLine
 10
1929.79351809315
 20
243.0757073431126
 30
0.0
 11
1877.793232599991
 21
243.0757073431126
 31
0.0
  0
LINE
  5
249
330
17
100
AcDbEntity
  8
4
100
AcDbLine
 10
1913.399287599991
 20
404.0918223431127
 30
0.0
 11
1945.399287599991
 21
389.0918223431127
 31
0.0
  0
LINE
  5
24A
330
17
100
AcDbEntity
  8
4
100
AcDbLine
 10
1913.39928259999
 20
457.5614774577155
 30
0.0
 11
1923.262101689364
 21
457.5614774577155
 31
0.0
  0
LINE
  5
24B
330
17
100
AcDbEntity
  8
4
100
AcDbLine
 10
1923.262101689364
 20
435.6221672285099
 30
0.0
 11
1913.39928259999
 21
435.6221672285099
 31
0.0
  0
LINE
  5
24C
330
17
100
AcDbEntity
  8
4
100
AcDbLine
 10
1923.262101689364
 20
441.1069947858111
 30
0.0
 11
1916.39928259999
 21
441.1069947858111
 31
0.0
  0
LINE
  5
24D
330
17
100
AcDbEntity
  8
4
100
AcDbLine
 10
1923.262101689364
 20
452.0766499004142
 30
0.0
 11
1916.39928259999
 21
452.0766499004142
 31
0.0
  0
LINE
  5
24E
330
17
100
AcDbEntity
  8
4
100
AcDbLine
 10
1913.399287599991
 20
254.0453624577154
 30
0.0
 11
1923.262106689364
 21
254.0453624577154
 31
0.0
  0
LINE
  5
24F
330
17
100
AcDbEntity
  8
4
100
AcDbLine
 10
1923.262106689364
 20
232.1060522285098
 30
0.0
 11
1913.399287599991
 21
232.1060522285098
 31
0.0
  0
LINE
  5
250
330
17
100
AcDbEntity
  8
4
100
AcDbLine
 10
1923.262106689364
 20
237.5908797858111
 30
0.0
 11
1916.399287599991
 21
237.5908797858111
 31
0.0
  0
LINE
  5
251
330
17
100
AcDbEntity
  8
4
100
AcDbLine
 10
1923.262106689364
 20
248.5605349004142
 30
0.0
 11
1916.399287599991
 21
248.5605349004142
 31
0.0
  0
ARC
  5
252
330
17
100
AcDbEntity
  8
4
100
AcDbCircle
 10
1957.099387599991
 20
81.59182234311265
 30
0.0
 40
5.0
100
AcDbArc
 50
0.0
 51
90.0
  0
ARC
  5
253
330
17
100
AcDbEntity
  8
4
100
AcDbCircle
 10
1957.099387599991
 20
81.59182234311265
 30
0.0
 40
5.0
100
AcDbArc
 50
0.0
 51
90.0
  0
LINE
  5
254
330
17
100
AcDbEntity
  8
4
100
AcDbLine
 10
1962.099387599991
 20
36.59182234311265
 30
0.0
 11
1962.099387599991
 21
81.59182234311265
 31
0.0
  0
LINE
  5
25B
330
17
100
AcDbEntity
  8
4
100
AcDbLine
 10
1942.099387599991
 20
86.59182234311265
 30
0.0
 11
1887.099387599991
 21
196.5918223431127
 31
0.0
  0
LINE
  5
25C
330
17
100
AcDbEntity
  8
L-CENTER
 48
2.0
100
AcDbLine
 10
1922.099387599991
 20
106.5918223431127
 30
0.0
 11
1922.09938759999
 21
16.59182234311265
 31
0.0
  0
ARC
  5
25D
330
17
100
AcDbEntity
  8
4
100
AcDbCircle
 10
1902.099387599991
 20
101.5918223431127
 30
0.0
 40
15.0
100
AcDbArc
 50
180.0
 51
270.0
  0
LINE
  5
25E
330
17
100
AcDbEntity
  8
4
100
AcDbLine
 10
1622.099387599991
 20
364.0918223431127
 30
0.0
 11
1599.099387599991
 21
369.0918223431127
 31
0.0
  0
LINE
  5
25F
330
17
100
AcDbEntity
  8
4
100
AcDbLine
 10
1653.099387599991
 20
404.0918223431127
 30
0.0
 11
1622.099387599991
 21
389.0918223431127
 31
0.0
  0
LINE
  5
260
330
17
100
AcDbEntity
  8
4
100
AcDbLine
 10
1655.099387599991
 20
196.5918223431127
 30
0.0
 11
1676.099387599991
 21
196.5918223431127
 31
0.0
  0
ARC
  5
261
330
17
100
AcDbEntity
  8
4
100
AcDbCircle
 10
1655.099387599991
 20
198.5918223431127
 30
0.0
 40
2.0
100
AcDbArc
 50
180.0
 51
270.0
  0
LINE
  5
262
330
17
100
AcDbEntity
  8
4
100
AcDbLine
 10
1677.142352599991
 20
193.5918223431127
 30
0.0
 11
1676.099387599991
 21
193.5918223431127
 31
0.0
  0
LINE
  5
263
330
17
100
AcDbEntity
  8
4
100
AcDbLine
 10
1677.099387599991
 20
196.5918223431127
 30
0.0
 11
1677.099387599991
 21
101.5918223431127
 31
0.0
  0
LINE
  5
264
330
17
100
AcDbEntity
  8
4
100
AcDbLine
 10
1653.099387599991
 20
242.8982173431126
 30
0.0
 11
1622.099387599991
 21
372.7011973431127
 31
0.0
  0
LINE
  5
265
330
17
100
AcDbEntity
  8
4
100
AcDbLine
 10
1653.099387599991
 20
234.2888423431126
 30
0.0
 11
1622.099387599991
 21
364.0918223431127
 31
0.0
  0
ARC
  5
275
330
17
100
AcDbEntity
  8
4
100
AcDbCircle
 10
1607.099387599991
 20
81.59182234311265
 30
0.0
 40
5.0
100
AcDbArc
 50
90.0
 51
180.0
  0
ARC
  5
276
330
17
100
AcDbEntity
  8
4
100
AcDbCircle
 10
1607.099387599991
 20
81.59182234311265
 30
0.0
 40
5.0
100
AcDbArc
 50
90.0
 51
180.0
  0
LINE
  5
277
330
17
100
AcDbEntity
  8
4
100
AcDbLine
 10
1602.099387599991
 20
36.59182234311265
 30
0.0
 11
1602.099387599991
 21
81.59182234311265
 31
0.0
  0
LINE
  5
284
330
17
100
AcDbEntity
  8
4
100
AcDbLine
 10
1622.099387599991
 20
86.59182234311265
 30
0.0
 11
1677.099387599991
 21
196.5918223431127
 31
0.0
  0
LINE
  5
285
330
17
100
AcDbEntity
  8
L-CENTER
 48
2.0
100
AcDbLine
 10
1642.099387599991
 20
106.5918223431127
 30
0.0
 11
1642.099387599991
 21
16.59182234311265
 31
0.0
  0
ARC
  5
286
330
17
100
AcDbEntity
  8
4
100
AcDbCircle
 10
1662.099387599991
 20
101.5918223431127
 30
0.0
 40
15.0
100
AcDbArc
 50
270.0
 51
0.0
  0
LINE
  5
288
330
17
100
AcDbEntity
  8
L-CENTER
 48
2.0
100
AcDbLine
 10
1700.344257599991
 20
278.3467023431126
 30
0.0
 11
1738.665302599991
 21
240.0256623431126
 31
0.0
  0
LINE
  5
28A
330
17
100
AcDbEntity
  8
4
100
AcDbLine
 10
1957.099387599991
 20
86.59182234311265
 30
0.0
 11
1607.099387599991
 21
86.59182234311265
 31
0.0
  0
LINE
  5
28B
330
17
100
AcDbEntity
  8
4
100
AcDbLine
 10
1962.099387599991
 20
36.59182234311265
 30
0.0
 11
1602.099387599991
 21
36.59182234311265
 31
0.0
  0
CIRCLE
  5
28C
330
17
100
AcDbEntity
  8
4
100
AcDbCircle
 10
1782.099387599991
 20
196.5918223431127
 30
0.0
 40
105.0
  0
CIRCLE
  5
28D
330
17
100
AcDbEntity
  8
L-CENTER
 48
2.0
100
AcDbCircle
 10
1782.099387599991
 20
196.5918223431127
 30
0.0
 40
87.5
  0
LINE
  5
28E
330
17
100
AcDbEntity
  8
L-CENTER
 48
2.0
100
AcDbLine
 10
1702.505152599991
 20
116.99758234311
 30
0.0
 11
1737.39992759999
 21
151.8921173431112
 31
0.0
  0
LINE
  5
28F
330
17
100
AcDbEntity
  8
L-CENTER
 48
2.0
100
AcDbLine
 10
1975.338485162993
 20
446.5918223431127
 30
0.0
 11
1421.990293497202
 21
446.5918223431131
 31
0.0
  0
LINE
  5
291
330
17
100
AcDbEntity
  8
4
100
AcDbLine
 10
1599.099387599991
 20
524.0918223431127
 30
0.0
 11
1599.099387599991
 21
369.0918223431127
 31
0.0
  0
LINE
  5
292
330
17
100
AcDbEntity
  8
4
100
AcDbLine
 10
1622.099387599991
 20
529.0918223431127
 30
0.0
 11
1622.099387599991
 21
364.0918223431127
 31
0.0
  0
LINE
  5
293
330
17
100
AcDbEntity
  8
4
100
AcDbLine
 10
1676.099387599991
 20
699.5918223431127
 30
0.0
 11
1676.099387599991
 21
193.5918223431127
 31
0.0
  0
LINE
  5
294
330
17
100
AcDbEntity
  8
4
100
AcDbLine
 10
1653.099387599991
 20
694.5918223431127
 30
0.0
 11
1653.099387599991
 21
198.5918223431127
 31
0.0
  0
LINE
  5
295
330
17
100
AcDbEntity
  8
4
100
AcDbLine
 10
1677.099387599991
 20
699.5918223431127
 30
0.0
 11
1677.099387599991
 21
196.5918223431127
 31
0.0
  0
LINE
  5
297
330
17
100
AcDbEntity
  8
4
100
AcDbLine
 10
1653.099387599991
 20
489.0918223431127
 30
0.0
 11
1622.099387599991
 21
504.0918223431127
 31
0.0
  0
LINE
  5
298
330
17
100
AcDbEntity
  8
4
100
AcDbLine
 10
1945.399287599991
 20
529.0918223431127
 30
0.0
 11
1945.399287599991
 21
364.0918223431127
 31
0.0
  0
LINE
  5
299
330
17
100
AcDbEntity
  8
4
100
AcDbLine
 10
1965.399287599991
 20
524.0918223431127
 30
0.0
 11
1965.399287599991
 21
369.0918223431127
 31
0.0
  0
LINE
  5
29A
330
17
100
AcDbEntity
  8
4
100
AcDbLine
 10
1966.399287599991
 20
496.5918223431127
 30
0.0
 11
1966.399287599991
 21
396.5918223431127
 31
0.0
  0
LINE
  5
29B
330
17
100
AcDbEntity
  8
4
100
AcDbLine
 10
1888.099387599991
 20
699.5918223431127
 30
0.0
 11
1888.099387599991
 21
193.5918223431127
 31
0.0
  0
LINE
  5
29C
330
17
100
AcDbEntity
  8
2
100
AcDbLine
 10
1891.399387599991
 20
698.5918223431127
 30
0.0
 11
1891.399387599991
 21
194.5918223431127
 31
0.0
  0
LINE
  5
29D
330
17
100
AcDbEntity
  8
4
100
AcDbLine
 10
1891.099387599991
 20
698.5918223431127
 30
0.0
 11
1891.099387599991
 21
194.5918223431127
 31
0.0
  0
LINE
  5
29E
330
17
100
AcDbEntity
  8
4
100
AcDbLine
 10
1913.399287599991
 20
697.5918223431127
 30
0.0
 11
1913.399287599991
 21
195.5918223431127
 31
0.0
  0
LINE
  5
29F
330
17
100
AcDbEntity
  8
L-CENTER
 48
2.0
100
AcDbLine
 10
1782.099387599991
 20
19.85915734311266
 30
0.0
 11
1782.099387599991
 21
795.4359223431127
 31
0.0
  0
LINE
  5
2A0
330
17
100
AcDbEntity
  8
4
100
AcDbLine
 10
1913.399287599991
 20
489.0918223431127
 30
0.0
 11
1945.399287599991
 21
504.0918223431127
 31
0.0
  0
LINE
  5
2A2
330
17
100
AcDbEntity
  8
4
100
AcDbLine
 10
889.7172056688632
 20
1552.457641722434
 30
0.0
 11
889.7172056688632
 21
1549.457641722434
 31
0.0
  0
LINE
  5
2A3
330
17
100
AcDbEntity
  8
4
100
AcDbLine
 10
893.0172056688634
 20
1548.457641722434
 30
0.0
 11
908.5172056688634
 21
1548.457641722434
 31
0.0
  0
ARC
  5
2A4
330
17
100
AcDbEntity
  8
4
100
AcDbCircle
 10
908.5172056688634
 20
1547.457641722434
 30
0.0
 40
1.0
100
AcDbArc
 50
0.0
 51
90.0
  0
LINE
  5
2A5
330
17
100
AcDbEntity
  8
4
100
AcDbLine
 10
891.7172056688632
 20
1573.757641722434
 30
0.0
 11
891.7172056688632
 21
1552.757641722434
 31
0.0
  0
ARC
  5
2A6
330
17
100
AcDbEntity
  8
4
100
AcDbCircle
 10
890.7172056688632
 20
1573.757641722434
 30
0.0
 40
1.0
100
AcDbArc
 50
0.0
 51
90.0
  0
LINE
  5
2A7
330
17
100
AcDbEntity
  8
4
100
AcDbLine
 10
879.7172056688651
 20
1613.457641722434
 30
0.0
 11
879.7172056688651
 21
1585.757641722434
 31
0.0
  0
LINE
  5
2A8
330
17
100
AcDbEntity
  8
4
100
AcDbLine
 10
866.4899643329113
 20
1585.757641722434
 30
0.0
 11
882.9444470048152
 21
1585.757641722434
 31
0.0
  0
LINE
  5
2A9
330
17
100
AcDbEntity
  8
4
100
AcDbLine
 10
885.6868607834663
 20
1574.757641722434
 30
0.0
 11
863.7475505542602
 21
1574.757641722434
 31
0.0
  0
LINE
  5
2AA
330
17
100
AcDbEntity
  8
4
100
AcDbLine
 10
885.6868607834663
 20
1577.757641722434
 30
0.0
 11
863.7475505542602
 21
1577.757641722434
 31
0.0
  0
ARC
  5
2AB
330
17
100
AcDbEntity
  8
4
100
AcDbCircle
 10
874.7172056688632
 20
1571.961897587258
 30
0.0
 40
13.7957441351769
100
AcDbArc
 50
66.57340249137035
 51
113.4265975086284
  0
LINE
  5
2AC
330
17
100
AcDbEntity
  8
4
100
AcDbLine
 10
863.7475505542602
 20
1574.757641722434
 30
0.0
 11
863.7475505542602
 21
1584.620460811807
 31
0.0
  0
ARC
  5
2AD
330
17
100
AcDbEntity
  8
4
100
AcDbCircle
 10
866.4899643329118
 20
1581.882262847155
 30
0.0
 40
3.875378875279264
100
AcDbArc
 50
44.955926762744
 51
135.0440732372572
  0
LINE
  5
2AE
330
17
100
AcDbEntity
  8
4
100
AcDbLine
 10
869.2323781115615
 20
1584.620460811807
 30
0.0
 11
869.2323781115615
 21
1577.757641722434
 31
0.0
  0
LINE
  5
2AF
330
17
100
AcDbEntity
  8
4
100
AcDbLine
 10
885.6868607834663
 20
1584.620460811807
 30
0.0
 11
885.6868607834663
 21
1574.757641722434
 31
0.0
  0
LINE
  5
2B0
330
17
100
AcDbEntity
  8
4
100
AcDbLine
 10
880.202033226165
 20
1584.620460811807
 30
0.0
 11
880.202033226165
 21
1577.757641722434
 31
0.0
  0
ARC
  5
2B1
330
17
100
AcDbEntity
  8
4
100
AcDbCircle
 10
882.9444470048156
 20
1581.882262847155
 30
0.0
 40
3.875378875279244
100
AcDbArc
 50
44.955926762744
 51
135.044073237256
  0
LINE
  5
2B2
330
17
100
AcDbEntity
  8
L-CENTER
 48
2.0
100
AcDbLine
 10
874.7172056688632
 20
1590.30876987268
 30
0.0
 11
874.7172056688632
 21
1539.151591722435
 31
0.0
  0
ARC
  5
2B3
330
17
100
AcDbEntity
  8
4
100
AcDbCircle
 10
869.7172056688651
 20
1613.457641722434
 30
0.0
 40
10.0
100
AcDbArc
 50
0.0
 51
90.0
  0
LINE
  5
2B4
330
17
100
AcDbEntity
  8
4
100
AcDbLine
 10
1042.717205668863
 20
1472.457641722434
 30
0.0
 11
1042.717205668863
 21
1450.957641722434
 31
0.0
  0
LINE
  5
2B5
330
17
100
AcDbEntity
  8
4
100
AcDbLine
 10
1042.717205668863
 20
1472.457641722434
 30
0.0
 11
1044.717205668863
 21
1470.457641722434
 31
0.0
  0
LINE
  5
2B6
330
17
100
AcDbEntity
  8
4
100
AcDbLine
 10
1042.717205668863
 20
1414.457641722434
 30
0.0
 11
1044.717205668863
 21
1416.457641722434
 31
0.0
  0
LINE
  5
2B7
330
17
100
AcDbEntity
  8
4
100
AcDbLine
 10
1044.717205668863
 20
1470.457641722434
 30
0.0
 11
1044.717205668863
 21
1416.457641722434
 31
0.0
  0
LINE
  5
2B8
330
17
100
AcDbEntity
  8
4
100
AcDbLine
 10
1042.717205668863
 20
1435.957641722434
 30
0.0
 11
1042.717205668863
 21
1414.457641722434
 31
0.0
  0
ARC
  5
2B9
330
17
100
AcDbEntity
  8
4
100
AcDbCircle
 10
903.5171106688631
 20
1505.329956722434
 30
0.0
 40
18.00005
100
AcDbArc
 50
340.5247459999984
 51
19.46542400000055
  0
LINE
  5
2BA
330
17
100
AcDbEntity
  8
4
100
AcDbLine
 10
921.5178406688633
 20
1514.328491722434
 30
0.0
 11
921.5163756688635
 21
1496.328491722434
 31
0.0
  0
ARC
  5
2BB
330
17
100
AcDbEntity
  8
4
100
AcDbCircle
 10
916.9326356688634
 20
1496.328736722434
 30
0.0
 40
4.58369
100
AcDbArc
 50
319.1143680000011
 51
40.87702700000538
  0
ARC
  5
2BC
330
17
100
AcDbEntity
  8
4
100
AcDbCircle
 10
916.9341006688633
 20
1514.328736722434
 30
0.0
 40
4.58369
100
AcDbArc
 50
319.1143760000035
 51
40.87701899999909
  0
LINE
  5
2BD
330
17
100
AcDbEntity
  8
4
100
AcDbLine
 10
912.518085668863
 20
1517.329221722434
 30
0.0
 11
912.5158906688634
 21
1493.329221722434
 31
0.0
  0
LINE
  5
2BE
330
17
100
AcDbEntity
  8
4
100
AcDbLine
 10
909.5158906688634
 20
1493.329466722434
 30
0.0
 11
909.5180856688635
 21
1517.329466722434
 31
0.0
  0
LINE
  5
2BF
330
17
100
AcDbEntity
  8
4
100
AcDbLine
 10
909.5158906688634
 20
1493.329466722434
 30
0.0
 11
912.5158906688634
 21
1493.329221722434
 31
0.0
  0
LINE
  5
2C0
330
17
100
AcDbEntity
  8
4
100
AcDbLine
 10
909.5180856688635
 20
1517.329466722434
 30
0.0
 11
912.518085668863
 21
1517.329221722434
 31
0.0
  0
LINE
  5
2C1
330
17
100
AcDbEntity
  8
4
100
AcDbLine
 10
910.5171106688631
 20
1488.457641722434
 30
0.0
 11
909.5171106688631
 21
1488.457641722434
 31
0.0
  0
LINE
  5
2C2
330
17
100
AcDbEntity
  8
4
100
AcDbLine
 10
912.5166206688632
 20
1499.329221722434
 30
0.0
 11
920.4870806688632
 21
1499.328491722434
 31
0.0
  0
LINE
  5
2C3
330
17
100
AcDbEntity
  8
4
100
AcDbLine
 10
920.4863506688635
 20
1493.328491722434
 30
0.0
 11
912.5158906688634
 21
1493.329221722434
 31
0.0
  0
LINE
  5
2C4
330
17
100
AcDbEntity
  8
4
100
AcDbLine
 10
920.4885456688635
 20
1517.328491722434
 30
0.0
 11
912.518085668863
 21
1517.329221722434
 31
0.0
  0
LINE
  5
2C5
330
17
100
AcDbEntity
  8
4
100
AcDbLine
 10
912.5176006688635
 20
1511.329221722434
 30
0.0
 11
920.4880556688631
 21
1511.328491722434
 31
0.0
  0
LINE
  5
2C6
330
17
100
AcDbEntity
  8
4
100
AcDbLine
 10
910.5171106688631
 20
1475.957641722435
 30
0.0
 11
924.7172056688632
 21
1475.957641722434
 31
0.0
  0
ARC
  5
2C7
330
17
100
AcDbEntity
  8
4
100
AcDbCircle
 10
942.2172056688632
 20
1443.457641722434
 30
0.0
 40
7.5
100
AcDbArc
 50
90.0
 51
270.0
  0
ARC
  5
2C8
330
17
100
AcDbEntity
  8
4
100
AcDbCircle
 10
926.7172056688632
 20
1474.457641722434
 30
0.0
 40
2.0
100
AcDbArc
 50
180.0
 51
270.0
  0
LINE
  5
2C9
330
17
100
AcDbEntity
  8
L-CENTER
 48
2.0
100
AcDbLine
 10
872.8353706688631
 20
1505.329466722434
 30
0.0
 11
925.4954249899774
 21
1505.329466722434
 31
0.0
  0
ARC
  5
2CA
330
17
100
AcDbEntity
  8
4
100
AcDbCircle
 10
903.5171106688631
 20
1381.585326722434
 30
0.0
 40
17.999935
100
AcDbArc
 50
340.5353079999998
 51
19.47624499999912
  0
ARC
  5
2CB
330
17
100
AcDbEntity
  8
4
100
AcDbCircle
 10
916.9326356688634
 20
1390.586546722434
 30
0.0
 40
4.583600000000001
100
AcDbArc
 50
319.1229729999971
 51
40.88762800000138
  0
ARC
  5
2CC
330
17
100
AcDbEntity
  8
4
100
AcDbCircle
 10
926.7172056688632
 20
1412.457641722434
 30
0.0
 40
2.0
100
AcDbArc
 50
90.0
 51
180.0
  0
LINE
  5
2CD
330
17
100
AcDbEntity
  8
4
100
AcDbLine
 10
909.5158906688634
 20
1393.585816722434
 30
0.0
 11
912.5158906688634
 21
1393.586061722434
 31
0.0
  0
LINE
  5
2CE
330
17
100
AcDbEntity
  8
4
100
AcDbLine
 10
910.5171106688631
 20
1398.457641722434
 30
0.0
 11
909.5171106688631
 21
1398.457641722434
 31
0.0
  0
LINE
  5
2CF
330
17
100
AcDbEntity
  8
4
100
AcDbLine
 10
909.5171106688631
 20
1398.457641722434
 30
0.0
 11
910.5171106688631
 21
1398.457641722434
 31
0.0
  0
LINE
  5
2D0
330
17
100
AcDbEntity
  8
4
100
AcDbLine
 10
912.5176006688635
 20
1375.586061722434
 30
0.0
 11
920.4880556688631
 21
1375.586791722434
 31
0.0
  0
LINE
  5
2D1
330
17
100
AcDbEntity
  8
4
100
AcDbLine
 10
920.4863506688635
 20
1393.586791722434
 30
0.0
 11
912.5158906688634
 21
1393.586061722434
 31
0.0
  0
LINE
  5
2D2
330
17
100
AcDbEntity
  8
4
100
AcDbLine
 10
912.5166206688632
 20
1387.586061722434
 30
0.0
 11
920.4870806688632
 21
1387.586791722434
 31
0.0
  0
LINE
  5
2D3
330
17
100
AcDbEntity
  8
4
100
AcDbLine
 10
910.5171106688631
 20
1410.957641722435
 30
0.0
 11
924.7172056688632
 21
1410.957641722434
 31
0.0
  0
LINE
  5
2D4
330
17
100
AcDbEntity
  8
4
100
AcDbLine
 10
893.0172056688634
 20
1338.457641722434
 30
0.0
 11
908.5172056688634
 21
1338.457641722434
 31
0.0
  0
ARC
  5
2D5
330
17
100
AcDbEntity
  8
4
100
AcDbCircle
 10
908.5172056688634
 20
1339.457641722434
 30
0.0
 40
1.0
100
AcDbArc
 50
270.0
 51
0.0
  0
LINE
  5
2D6
330
17
100
AcDbEntity
  8
4
100
AcDbLine
 10
909.5180856688635
 20
1369.585816722434
 30
0.0
 11
912.518085668863
 21
1369.586061722434
 31
0.0
  0
LINE
  5
2D7
330
17
100
AcDbEntity
  8
4
100
AcDbLine
 10
920.4885456688635
 20
1369.586791722434
 30
0.0
 11
912.518085668863
 21
1369.586061722434
 31
0.0
  0
LINE
  5
2D8
330
17
100
AcDbEntity
  8
4
100
AcDbLine
 10
921.5178406688633
 20
1372.586791722434
 30
0.0
 11
921.5163756688635
 21
1390.586791722434
 31
0.0
  0
LINE
  5
2D9
330
17
100
AcDbEntity
  8
4
100
AcDbLine
 10
909.5158906688634
 20
1393.585816722434
 30
0.0
 11
909.5180856688635
 21
1369.585816722434
 31
0.0
  0
LINE
  5
2DA
330
17
100
AcDbEntity
  8
4
100
AcDbLine
 10
912.518085668863
 20
1369.586061722434
 30
0.0
 11
912.5158906688634
 21
1393.586061722434
 31
0.0
  0
ARC
  5
2DB
330
17
100
AcDbEntity
  8
4
100
AcDbCircle
 10
916.9341006688633
 20
1372.586546722434
 30
0.0
 40
4.583600000000001
100
AcDbArc
 50
319.1229809999992
 51
40.88762800000138
  0
LINE
  5
2DC
330
17
100
AcDbEntity
  8
L-CENTER
 48
2.0
100
AcDbLine
 10
872.8353706688631
 20
1381.585816722434
 30
0.0
 11
925.4954249899774
 21
1381.585816722434
 31
0.0
  0
LINE
  5
2DD
330
17
100
AcDbEntity
  8
4
100
AcDbLine
 10
910.5171106688631
 20
1488.457641722434
 30
0.0
 11
910.5171106688631
 21
1398.457641722434
 31
0.0
  0
LINE
  5
2DE
330
17
100
AcDbEntity
  8
4
100
AcDbLine
 10
924.7172056688632
 20
1475.957641722434
 30
0.0
 11
924.7172056688632
 21
1410.957641722434
 31
0.0
  0
LINE
  5
2DF
330
17
100
AcDbEntity
  8
4
100
AcDbLine
 10
926.7172056688632
 20
1414.457641722434
 30
0.0
 11
1042.717205668863
 21
1414.457641722434
 31
0.0
  0
LINE
  5
2E0
330
17
100
AcDbEntity
  8
4
100
AcDbLine
 10
942.2172056688632
 20
1435.957641722434
 30
0.0
 11
1044.717205668863
 21
1435.957641722434
 31
0.0
  0
LINE
  5
2E1
330
17
100
AcDbEntity
  8
4
100
AcDbLine
 10
942.2172056688632
 20
1450.957641722434
 30
0.0
 11
1044.717205668863
 21
1450.957641722434
 31
0.0
  0
LINE
  5
2E2
330
17
100
AcDbEntity
  8
4
100
AcDbLine
 10
926.7172056688632
 20
1472.457641722434
 30
0.0
 11
1042.717205668863
 21
1472.457641722434
 31
0.0
  0
LINE
  5
2E3
330
17
100
AcDbEntity
  8
4
100
AcDbLine
 10
892.7172056688632
 20
1549.457641722434
 30
0.0
 11
892.7172056688632
 21
1337.457641722434
 31
0.0
  0
LINE
  5
2E4
330
17
100
AcDbEntity
  8
4
100
AcDbLine
 10
909.5172056688634
 20
1547.457641722434
 30
0.0
 11
909.5172056688634
 21
1339.457641722434
 31
0.0
  0
LINE
  5
2E5
330
17
100
AcDbEntity
  8
4
100
AcDbLine
 10
893.0172056688634
 20
1548.457641722435
 30
0.0
 11
893.0172056688634
 21
1338.457641722435
 31
0.0
  0
ARC
  5
2EB
330
17
100
AcDbEntity
  8
4
100
AcDbCircle
 10
789.7172056688651
 20
1583.457641722434
 30
0.0
 40
12.0
100
AcDbArc
 50
27.07671838385862
 51
124.361090144202
  0
LINE
  5
2EC
330
17
100
AcDbEntity
  8
L-CENTER
 48
2.0
100
AcDbLine
 10
789.7172056688651
 20
1606.412452713121
 30
0.0
 11
789.7172056688651
 21
1563.890596490626
 31
0.0
  0
ARC
  5
2ED
330
17
100
AcDbEntity
  8
4
100
AcDbCircle
 10
765.4444470048156
 20
1581.882262847155
 30
0.0
 40
3.875378875279244
100
AcDbArc
 50
44.95592676274281
 51
135.044073237256
  0
LINE
  5
2EE
330
17
100
AcDbEntity
  8
4
100
AcDbLine
 10
768.1868607834667
 20
1584.620460811807
 30
0.0
 11
768.1868607834667
 21
1574.757641722434
 31
0.0
  0
LINE
  5
2EF
330
17
100
AcDbEntity
  8
4
100
AcDbLine
 10
762.7020332261654
 20
1584.620460811807
 30
0.0
 11
762.7020332261654
 21
1577.757641722434
 31
0.0
  0
LINE
  5
2F0
330
17
100
AcDbEntity
  8
4
100
AcDbLine
 10
746.2475505542607
 20
1574.757641722434
 30
0.0
 11
746.2475505542607
 21
1584.620460811807
 31
0.0
  0
LINE
  5
2F1
330
17
100
AcDbEntity
  8
4
100
AcDbLine
 10
751.732378111562
 20
1584.620460811807
 30
0.0
 11
751.732378111562
 21
1577.757641722434
 31
0.0
  0
ARC
  5
2F2
330
17
100
AcDbEntity
  8
4
100
AcDbCircle
 10
748.9899643329118
 20
1581.882262847155
 30
0.0
 40
3.875378875279264
100
AcDbArc
 50
44.95592676274281
 51
135.044073237256
  0
ARC
  5
2F3
330
17
100
AcDbEntity
  8
4
100
AcDbCircle
 10
757.2172056688642
 20
1571.961897587258
 30
0.0
 40
13.7957441351769
100
AcDbArc
 50
66.57340249137164
 51
113.4265975086297
  0
LINE
  5
2F4
330
17
100
AcDbEntity
  8
4
100
AcDbLine
 10
768.1868607834667
 20
1577.757641722434
 30
0.0
 11
746.2475505542607
 21
1577.757641722434
 31
0.0
  0
LINE
  5
2F5
330
17
100
AcDbEntity
  8
4
100
AcDbLine
 10
768.1868607834667
 20
1574.757641722434
 30
0.0
 11
746.2475505542607
 21
1574.757641722434
 31
0.0
  0
LINE
  5
2F6
330
17
100
AcDbEntity
  8
4
100
AcDbLine
 10
748.9899643329118
 20
1585.757641722434
 30
0.0
 11
765.4444470048156
 21
1585.757641722434
 31
0.0
  0
LINE
  5
2F7
330
17
100
AcDbEntity
  8
L-CENTER
 48
2.0
100
AcDbLine
 10
757.2172056688637
 20
1590.30876987268
 30
0.0
 11
757.2172056688637
 21
1539.151591722435
 31
0.0
  0
LINE
  5
2F8
330
17
100
AcDbEntity
  8
L-CENTER
 48
2.0
100
AcDbLine
 10
761.7318505972962
 20
1583.457641722434
 30
0.0
 11
816.4966319480081
 21
1583.457641722434
 31
0.0
  0
LINE
  5
2F9
330
17
100
AcDbEntity
  8
4
100
AcDbLine
 10
689.7172056688632
 20
1626.757641722434
 30
0.0
 11
689.7172056688632
 21
1627.757641722434
 31
0.0
  0
ARC
  5
2FE
330
17
100
AcDbEntity
  8
4
100
AcDbCircle
 10
719.4432851718466
 20
1613.457641722434
 30
0.0
 40
10.0
100
AcDbArc
 50
90.0
 51
97.91625536338147
  0
ARC
  5
2FF
330
17
100
AcDbEntity
  8
4
100
AcDbCircle
 10
723.8678557165754
 20
1608.401252782822
 30
0.0
 40
2.0
100
AcDbArc
 50
194.0362434679336
 51
255.7189042640351
  0
ARC
  5
300
330
17
100
AcDbEntity
  8
4
100
AcDbCircle
 10
723.8678557165754
 20
1608.401252782822
 30
0.0
 40
2.0
100
AcDbArc
 50
194.0362434679336
 51
255.7189042640351
  0
ARC
  5
301
330
17
100
AcDbEntity
  8
4
100
AcDbCircle
 10
723.8678557165754
 20
1608.401252782822
 30
0.0
 40
2.0
100
AcDbArc
 50
194.0362434679336
 51
255.7189042640351
  0
LINE
  5
302
330
17
100
AcDbEntity
  8
4
100
AcDbLine
 10
682.2172056688632
 20
1574.757641722434
 30
0.0
 11
697.2172056688632
 21
1606.757641722434
 31
0.0
  0
LINE
  5
303
330
17
100
AcDbEntity
  8
4
100
AcDbLine
 10
659.7172056688632
 20
1593.757641722434
 30
0.0
 11
659.7172056688632
 21
1580.185054613149
 31
0.0
  0
LINE
  5
304
330
17
100
AcDbEntity
  8
4
100
AcDbLine
 10
619.7172056688632
 20
1593.757641722434
 30
0.0
 11
619.7172056688632
 21
1580.185054613149
 31
0.0
  0
LINE
  5
305
330
17
100
AcDbEntity
  8
4
100
AcDbLine
 10
659.7172056688632
 20
1580.185054613149
 30
0.0
 11
619.7172056688632
 21
1580.185054613149
 31
0.0
  0
LINE
  5
306
330
17
100
AcDbEntity
  8
4
100
AcDbLine
 10
659.7172056688632
 20
1593.757641722434
 30
0.0
 11
619.7172056688632
 21
1593.757641722434
 31
0.0
  0
LINE
  5
307
330
17
100
AcDbEntity
  8
4
100
AcDbLine
 10
717.2172056688632
 20
1626.757641722434
 30
0.0
 11
721.9275707162838
 21
1607.916181532749
 31
0.0
  0
ARC
  5
308
330
17
100
AcDbEntity
  8
4
100
AcDbCircle
 10
639.7172056688632
 20
1443.457641722434
 30
0.0
 40
20.0
100
AcDbArc
 50
23.5781784782004
 51
156.4218215217996
  0
ARC
  5
309
330
17
100
AcDbEntity
  8
4
100
AcDbCircle
 10
639.7172056688632
 20
1443.457641722434
 30
0.0
 40
17.5
100
AcDbArc
 50
207.2028944122143
 51
332.7971055877857
  0
ARC
  5
30A
330
17
100
AcDbEntity
  8
4
100
AcDbCircle
 10
639.7172056688632
 20
1443.457641722434
 30
0.0
 40
16.0
100
AcDbArc
 50
209.9999999999999
 51
330.0000000000001
  0
ARC
  5
30B
330
17
100
AcDbEntity
  8
4
100
AcDbCircle
 10
639.7172056688632
 20
1443.457641722434
 30
0.0
 40
16.0
100
AcDbArc
 50
30.00000000000195
 51
149.999999999998
  0
ARC
  5
30C
330
17
100
AcDbEntity
  8
4
100
AcDbCircle
 10
639.7172056688632
 20
1443.457641722434
 30
0.0
 40
17.5
100
AcDbArc
 50
27.2028944122161
 51
152.7971055877839
  0
ARC
  5
30D
330
17
100
AcDbEntity
  8
4
100
AcDbCircle
 10
667.7172056688632
 20
1443.457641722434
 30
0.0
 40
8.0
100
AcDbArc
 50
270.0
 51
90.0
  0
ARC
  5
30E
330
17
100
AcDbEntity
  8
4
100
AcDbCircle
 10
639.7172056688632
 20
1443.457641722434
 30
0.0
 40
20.0
100
AcDbArc
 50
203.5781784782018
 51
336.4218215217981
  0
LINE
  5
312
330
17
100
AcDbEntity
  8
4
100
AcDbLine
 10
589.7172056688632
 20
1626.757641722434
 30
0.0
 11
589.7172056688632
 21
1627.757641722434
 31
0.0
  0
LINE
  5
313
330
17
100
AcDbEntity
  8
4
100
AcDbLine
 10
597.2172056688632
 20
1574.757641722434
 30
0.0
 11
582.2172056688632
 21
1606.757641722434
 31
0.0
  0
ARC
  5
314
330
17
100
AcDbEntity
  8
4
100
AcDbCircle
 10
559.9911261658817
 20
1613.457641722434
 30
0.0
 40
10.0
100
AcDbArc
 50
82.08374463663182
 51
90.0
  0
ARC
  5
315
330
17
100
AcDbEntity
  8
4
100
AcDbCircle
 10
555.5665556211511
 20
1608.401252782822
 30
0.0
 40
2.0
100
AcDbArc
 50
284.2810957359649
 51
345.9637565320664
  0
ARC
  5
316
330
17
100
AcDbEntity
  8
4
100
AcDbCircle
 10
555.5665556211511
 20
1608.401252782822
 30
0.0
 40
2.0
100
AcDbArc
 50
284.2810957359649
 51
345.9637565320664
  0
ARC
  5
317
330
17
100
AcDbEntity
  8
4
100
AcDbCircle
 10
555.5665556211511
 20
1608.401252782822
 30
0.0
 40
2.0
100
AcDbArc
 50
284.2810957359649
 51
345.9637565320664
  0
LINE
  5
318
330
17
100
AcDbEntity
  8
4
100
AcDbLine
 10
530.4444470048147
 20
1585.757641722434
 30
0.0
 11
513.9899643329109
 21
1585.757641722434
 31
0.0
  0
LINE
  5
319
330
17
100
AcDbEntity
  8
4
100
AcDbLine
 10
511.2475505542598
 20
1574.757641722434
 30
0.0
 11
533.1868607834658
 21
1574.757641722434
 31
0.0
  0
LINE
  5
31A
330
17
100
AcDbEntity
  8
4
100
AcDbLine
 10
511.2475505542598
 20
1577.757641722434
 30
0.0
 11
533.1868607834658
 21
1577.757641722434
 31
0.0
  0
ARC
  5
31B
330
17
100
AcDbEntity
  8
4
100
AcDbCircle
 10
522.2172056688623
 20
1571.961897587258
 30
0.0
 40
13.7957441351769
100
AcDbArc
 50
66.57340249137035
 51
113.4265975086284
  0
LINE
  5
31C
330
17
100
AcDbEntity
  8
4
100
AcDbLine
 10
533.1868607834658
 20
1574.757641722434
 30
0.0
 11
533.1868607834658
 21
1584.620460811807
 31
0.0
  0
ARC
  5
31D
330
17
100
AcDbEntity
  8
4
100
AcDbCircle
 10
530.4444470048147
 20
1581.882262847155
 30
0.0
 40
3.875378875279264
100
AcDbArc
 50
44.955926762744
 51
135.0440732372572
  0
LINE
  5
31E
330
17
100
AcDbEntity
  8
4
100
AcDbLine
 10
527.7020332261645
 20
1584.620460811807
 30
0.0
 11
527.7020332261645
 21
1577.757641722434
 31
0.0
  0
LINE
  5
31F
330
17
100
AcDbEntity
  8
4
100
AcDbLine
 10
511.2475505542598
 20
1584.620460811807
 30
0.0
 11
511.2475505542598
 21
1574.757641722434
 31
0.0
  0
LINE
  5
320
330
17
100
AcDbEntity
  8
4
100
AcDbLine
 10
516.732378111561
 20
1584.620460811807
 30
0.0
 11
516.732378111561
 21
1577.757641722434
 31
0.0
  0
ARC
  5
321
330
17
100
AcDbEntity
  8
4
100
AcDbCircle
 10
513.9899643329109
 20
1581.882262847155
 30
0.0
 40
3.875378875279244
100
AcDbArc
 50
44.955926762744
 51
135.044073237256
  0
LINE
  5
322
330
17
100
AcDbEntity
  8
L-CENTER
 48
2.0
100
AcDbLine
 10
522.2172056688628
 20
1590.30876987268
 30
0.0
 11
522.2172056688628
 21
1539.151591722435
 31
0.0
  0
LINE
  5
323
330
17
100
AcDbEntity
  8
4
100
AcDbLine
 10
562.2172056688632
 20
1626.757641722434
 30
0.0
 11
557.5068406214418
 21
1607.916181532749
 31
0.0
  0
LINE
  5
324
330
17
100
AcDbEntity
  8
4
100
AcDbLine
 10
504.7172056688632
 20
1599.757641722434
 30
0.0
 11
504.7172056688632
 21
1595.457781885877
 31
0.0
  0
LINE
  5
325
330
17
100
AcDbEntity
  8
L-CENTER
 48
2.0
100
AcDbLine
 10
489.7172056688632
 20
1607.119318792505
 30
0.0
 11
489.7172056688632
 21
1561.153477750565
 31
0.0
  0
LINE
  5
326
330
17
100
AcDbEntity
  8
4
100
AcDbLine
 10
454.7172056688632
 20
1599.757641722434
 30
0.0
 11
454.7172056688632
 21
1582.903096267888
 31
0.0
  0
LINE
  5
327
330
17
100
AcDbEntity
  8
4
100
AcDbLine
 10
415.6868607834663
 20
1574.757641722434
 30
0.0
 11
415.6868607834663
 21
1584.620460811807
 31
0.0
  0
LINE
  5
328
330
17
100
AcDbEntity
  8
4
100
AcDbLine
 10
410.202033226165
 20
1584.620460811807
 30
0.0
 11
410.202033226165
 21
1577.757641722434
 31
0.0
  0
ARC
  5
329
330
17
100
AcDbEntity
  8
4
100
AcDbCircle
 10
412.9444470048147
 20
1581.882262847155
 30
0.0
 40
3.875378875279264
100
AcDbArc
 50
44.95592676274281
 51
135.044073237256
  0
LINE
  5
32A
330
17
100
AcDbEntity
  8
L-CENTER
 48
2.0
100
AcDbLine
 10
404.7172056688632
 20
1590.30876987268
 30
0.0
 11
404.7172056688632
 21
1539.151591722435
 31
0.0
  0
LINE
  5
32B
330
17
100
AcDbEntity
  8
4
100
AcDbLine
 10
504.7172056688632
 20
1599.757641722434
 30
0.0
 11
454.7172056688632
 21
1599.757641722434
 31
0.0
  0
LINE
  5
32C
330
17
100
AcDbEntity
  8
4
100
AcDbLine
 10
409.7172056688632
 20
1623.457641722434
 30
0.0
 11
559.9911261658817
 21
1623.457641722434
 31
0.0
  0
LINE
  5
32D
330
17
100
AcDbEntity
  8
L-CENTER
 48
2.0
100
AcDbLine
 10
461.731850597298
 20
1583.457641722434
 30
0.0
 11
516.49663194801
 21
1583.457641722434
 31
0.0
  0
LINE
  5
32E
330
17
100
AcDbEntity
  8
4
100
AcDbLine
 10
557.7682139649278
 20
1608.961674906692
 30
0.0
 11
423.3952264553404
 21
1574.757641722434
 31
0.0
  0
LINE
  5
32F
330
17
100
AcDbEntity
  8
4
100
AcDbLine
 10
556.0599141824209
 20
1606.463058434977
 30
0.0
 11
431.5029199545784
 21
1574.757641722434
 31
0.0
  0
ARC
  5
330
330
17
100
AcDbEntity
  8
4
100
AcDbCircle
 10
611.7172056688632
 20
1443.457641722434
 30
0.0
 40
8.0
100
AcDbArc
 50
90.0
 51
270.0
  0
LINE
  5
331
330
17
100
AcDbEntity
  8
L-CENTER
 48
2.0
100
AcDbLine
 10
519.7172056688632
 20
1481.29600302961
 30
0.0
 11
519.7172056688632
 21
1406.372480365925
 31
0.0
  0
CIRCLE
  5
332
330
17
100
AcDbEntity
  8
4
100
AcDbCircle
 10
519.7172056688632
 20
1443.457641722434
 30
0.0
 40
25.0
  0
CIRCLE
  5
333
330
17
100
AcDbEntity
  8
4
100
AcDbCircle
 10
519.7172056688632
 20
1443.457641722434
 30
0.0
 40
23.0
  0
LWPOLYLINE
  5
334
330
17
100
AcDbEntity
  8
4
100
AcDbPolyline
 90
        6
 70
     1
 43
0.0
 10
542.7172056688632
 20
1443.457641722434
 10
531.2172056688632
 20
1463.376226009476
 10
508.2172056688632
 20
1463.376226009476
 10
496.7172056688632
 20
1443.457641722434
 10
508.2172056688632
 20
1423.539057435392
 10
531.2172056688632
 20
1423.539057435392
  0
LINE
  5
335
330
17
100
AcDbEntity
  8
4
100
AcDbLine
 10
589.7172056688632
 20
1627.757641722434
 30
0.0
 11
689.7172056688632
 21
1627.757641722434
 31
0.0
  0
LINE
  5
336
330
17
100
AcDbEntity
  8
4
100
AcDbLine
 10
557.2172056688632
 20
1606.757641722434
 30
0.0
 11
722.2172056688632
 21
1606.757641722434
 31
0.0
  0
LINE
  5
337
330
17
100
AcDbEntity
  8
4
100
AcDbLine
 10
562.2172056688632
 20
1626.757641722434
 30
0.0
 11
717.2172056688628
 21
1626.757641722434
 31
0.0
  0
LINE
  5
338
330
17
100
AcDbEntity
  8
4
100
AcDbLine
 10
611.7172056688632
 20
1435.457641722434
 30
0.0
 11
667.7172056688632
 21
1435.457641722434
 31
0.0
  0
LINE
  5
339
330
17
100
AcDbEntity
  8
4
100
AcDbLine
 10
611.7172056688632
 20
1451.457641722434
 30
0.0
 11
667.7172056688632
 21
1451.457641722434
 31
0.0
  0
LINE
  5
33F
330
17
100
AcDbEntity
  8
4
100
AcDbLine
 10
719.4432851718466
 20
1623.457641722434
 30
0.0
 11
869.7172056688651
 21
1623.457641722434
 31
0.0
  0
LINE
  5
340
330
17
100
AcDbEntity
  8
4
100
AcDbLine
 10
723.3744971553051
 20
1606.463058434977
 30
0.0
 11
847.9314913831472
 21
1574.757641722434
 31
0.0
  0
LINE
  5
341
330
17
100
AcDbEntity
  8
4
100
AcDbLine
 10
721.6661973727987
 20
1608.961674906692
 30
0.0
 11
856.039184882387
 21
1574.757641722435
 31
0.0
  0
ARC
  5
342
330
17
100
AcDbEntity
  8
4
100
AcDbCircle
 10
869.7172056688632
 20
1273.457641722434
 30
0.0
 40
10.0
100
AcDbArc
 50
270.0
 51
0.0
  0
LINE
  5
343
330
17
100
AcDbEntity
  8
4
100
AcDbLine
 10
879.7172056688632
 20
1314.457641722435
 30
0.0
 11
879.7172056688632
 21
1273.457641722434
 31
0.0
  0
ARC
  5
344
330
17
100
AcDbEntity
  8
4
100
AcDbCircle
 10
860.1476256688638
 20
667.0222423431128
 30
0.0
 40
4.999965
100
AcDbArc
 50
14.25812199999913
 51
75.74187800000091
  0
LINE
  5
345
330
17
100
AcDbEntity
  8
L-CENTER
 48
2.0
100
AcDbLine
 10
789.7172056688632
 20
1322.95945992689
 30
0.0
 11
789.7172056688632
 21
1282.668132226131
 31
0.0
  0
ARC
  5
346
330
17
100
AcDbEntity
  8
4
100
AcDbCircle
 10
789.7172056688632
 20
1303.457641722434
 30
0.0
 40
12.0
100
AcDbArc
 50
211.7590830043056
 51
355.1048734607238
  0
LINE
  5
347
330
17
100
AcDbEntity
  8
L-CENTER
 48
2.0
100
AcDbLine
 10
763.5309234121678
 20
1303.457641722434
 30
0.0
 11
814.9646959187976
 21
1303.457641722434
 31
0.0
  0
LINE
  5
348
330
17
100
AcDbEntity
  8
4
100
AcDbLine
 10
719.7172056688632
 20
1288.691641722434
 30
0.0
 11
719.7172056688632
 21
1309.095641722434
 31
0.0
  0
LINE
  5
349
330
17
100
AcDbEntity
  8
4
100
AcDbLine
 10
711.7172056688632
 20
1290.627641722435
 30
0.0
 11
711.7172056688632
 21
1307.175641722434
 31
0.0
  0
LINE
  5
34A
330
17
100
AcDbEntity
  8
4
100
AcDbLine
 10
704.7172056688642
 20
1301.422678058435
 30
0.0
 11
704.7172056688642
 21
1296.392605346435
 31
0.0
  0
LINE
  5
34B
330
17
100
AcDbEntity
  8
4
100
AcDbLine
 10
682.2172056688632
 20
1314.457641722434
 30
0.0
 11
684.8117217978952
 21
1309.095641722435
 31
0.0
  0
LINE
  5
34C
330
17
100
AcDbEntity
  8
4
100
AcDbLine
 10
694.6846250237022
 20
1288.691641722434
 30
0.0
 11
697.2172056688632
 21
1283.457641722434
 31
0.0
  0
ELLIPSE
  5
34D
330
17
100
AcDbEntity
  8
4
100
AcDbEllipse
 10
687.7172056688642
 20
1301.422678058434
 30
0.0
 11
-10.5
 21
0.0
 31
0.0
210
0.0
220
0.0
230
1.0
 40
0.2395272720000105
 41
0.0
 42
6.283185307179586
  0
ELLIPSE
  5
34E
330
17
100
AcDbEntity
  8
4
100
AcDbEllipse
 10
686.9672056688642
 20
1296.392605346434
 30
0.0
 11
-9.75
 21
0.0
 31
0.0
210
0.0
220
0.0
230
1.0
 40
0.2691776821312499
 41
0.0
 42
3.141592653589793
  0
LINE
  5
34F
330
17
100
AcDbEntity
  8
4
100
AcDbLine
 10
696.7172056688642
 20
1297.968166614163
 30
0.0
 11
696.7172056688642
 21
1296.392605346435
 31
0.0
  0
LINE
  5
350
330
17
100
AcDbEntity
  8
4
100
AcDbLine
 10
684.8117217978952
 20
1309.095641722435
 30
0.0
 11
719.7172056688632
 21
1309.095641722434
 31
0.0
  0
LINE
  5
351
330
17
100
AcDbEntity
  8
4
100
AcDbLine
 10
694.6846250237022
 20
1288.691641722434
 30
0.0
 11
719.7172056688632
 21
1288.691641722434
 31
0.0
  0
ARC
  5
352
330
17
100
AcDbEntity
  8
4
100
AcDbCircle
 10
719.4432851718466
 20
1273.457641722434
 30
0.0
 40
10.0
100
AcDbArc
 50
261.0964805633643
 51
270.0
  0
LINE
  5
353
330
17
100
AcDbEntity
  8
4
100
AcDbLine
 10
722.2172056688632
 20
1283.457641722434
 30
0.0
 11
717.2172056688632
 21
1260.457641722434
 31
0.0
  0
LINE
  5
354
330
17
100
AcDbEntity
  8
4
100
AcDbLine
 10
663.7172056688646
 20
1297.949532614435
 30
0.0
 11
650.7172056688642
 21
1297.949532614434
 31
0.0
  0
LINE
  5
355
330
17
100
AcDbEntity
  8
4
100
AcDbLine
 10
663.7172056688646
 20
1299.865750790435
 30
0.0
 11
650.7172056688642
 21
1299.865750790435
 31
0.0
  0
LINE
  5
356
330
17
100
AcDbEntity
  8
4
100
AcDbLine
 10
650.7172056688642
 20
1299.865750790435
 30
0.0
 11
650.7172056688642
 21
1297.949532614434
 31
0.0
  0
LINE
  5
357
330
17
100
AcDbEntity
  8
4
100
AcDbLine
 10
663.7172056688642
 20
1299.865750790435
 30
0.0
 11
663.7172056688642
 21
1297.949532614434
 31
0.0
  0
LINE
  5
358
330
17
100
AcDbEntity
  8
4
100
AcDbLine
 10
636.0374069678719
 20
1296.033314438434
 30
0.0
 11
622.3970043698564
 21
1296.033314438434
 31
0.0
  0
LINE
  5
359
330
17
100
AcDbEntity
  8
4
100
AcDbLine
 10
629.2172056688651
 20
1301.830045512004
 30
0.0
 11
633.7828615133276
 21
1297.949532614434
 31
0.0
  0
LINE
  5
35A
330
17
100
AcDbEntity
  8
4
100
AcDbLine
 10
624.6515498244016
 20
1297.949532614434
 30
0.0
 11
629.2172056688651
 21
1301.830045512004
 31
0.0
  0
LINE
  5
35B
330
17
100
AcDbEntity
  8
4
100
AcDbLine
 10
633.7828615133276
 20
1297.949532614434
 30
0.0
 11
624.6515498244016
 21
1297.949532614434
 31
0.0
  0
LINE
  5
35C
330
17
100
AcDbEntity
  8
4
100
AcDbLine
 10
633.2172056688651
 20
1305.494641682434
 30
0.0
 11
625.2172056688655
 21
1305.494641682434
 31
0.0
  0
LINE
  5
35D
330
17
100
AcDbEntity
  8
4
100
AcDbLine
 10
636.0374069678724
 20
1296.033314438434
 30
0.0
 11
640.4055887860541
 21
1292.320641722434
 31
0.0
  0
LINE
  5
35E
330
17
100
AcDbEntity
  8
4
100
AcDbLine
 10
633.2172056688651
 20
1305.494641682434
 30
0.0
 11
648.7172056688642
 21
1292.320641722434
 31
0.0
  0
LINE
  5
35F
330
17
100
AcDbEntity
  8
4
100
AcDbLine
 10
640.4055887860541
 20
1292.320641722434
 30
0.0
 11
648.7172056688642
 21
1292.320641722434
 31
0.0
  0
ELLIPSE
  5
360
330
17
100
AcDbEntity
  8
4
100
AcDbEllipse
 10
687.7172056688642
 20
1301.422678058434
 30
0.0
 11
-17.0
 21
0.0
 31
0.0
210
0.0
220
0.0
230
1.0
 40
0.2395272720000054
 41
3.141592653589793
 42
8.411888673942382
  0
ELLIPSE
  5
361
330
17
100
AcDbEntity
  8
4
100
AcDbEllipse
 10
687.7172056688642
 20
1296.392605346434
 30
0.0
 11
-17.0
 21
0.0
 31
0.0
210
0.0
220
0.0
230
1.0
 40
0.2395272720000054
 41
0.0
 42
3.141592653589793
  0
LINE
  5
362
330
17
100
AcDbEntity
  8
4
100
AcDbLine
 10
677.2172056688642
 20
1296.392605346434
 30
0.0
 11
670.7172056688642
 21
1296.392605346434
 31
0.0
  0
LINE
  5
363
330
17
100
AcDbEntity
  8
4
100
AcDbLine
 10
597.2172056688632
 20
1314.457641722434
 30
0.0
 11
594.6226895398313
 21
1309.095641722435
 31
0.0
  0
LINE
  5
364
330
17
100
AcDbEntity
  8
4
100
AcDbLine
 10
603.7172056688646
 20
1294.236859898434
 30
0.0
 11
603.7172056688642
 21
1292.320641722434
 31
0.0
  0
LINE
  5
365
330
17
100
AcDbEntity
  8
4
100
AcDbLine
 10
609.7172056688632
 20
1292.320641722434
 30
0.0
 11
618.0288225516742
 21
1292.320641722434
 31
0.0
  0
LINE
  5
366
330
17
100
AcDbEntity
  8
4
100
AcDbLine
 10
567.7172056688637
 20
1290.627641722434
 30
0.0
 11
567.7172056688637
 21
1307.175641722435
 31
0.0
  0
LINE
  5
367
330
17
100
AcDbEntity
  8
4
100
AcDbLine
 10
584.7497863140243
 20
1288.691641722435
 30
0.0
 11
582.2172056688632
 21
1283.457641722434
 31
0.0
  0
LINE
  5
368
330
17
100
AcDbEntity
  8
4
100
AcDbLine
 10
582.7172056688637
 20
1305.494641682435
 30
0.0
 11
582.7172056688642
 21
1294.236859898434
 31
0.0
  0
LINE
  5
369
330
17
100
AcDbEntity
  8
4
100
AcDbLine
 10
574.7172056688637
 20
1305.494641682434
 30
0.0
 11
574.7172056688642
 21
1292.320641722434
 31
0.0
  0
LINE
  5
36A
330
17
100
AcDbEntity
  8
4
100
AcDbLine
 10
574.7172056688637
 20
1305.494641682434
 30
0.0
 11
582.7172056688637
 21
1305.494641682435
 31
0.0
  0
LINE
  5
36B
330
17
100
AcDbEntity
  8
4
100
AcDbLine
 10
574.7172056688642
 20
1292.320641722434
 30
0.0
 11
603.7172056688642
 21
1292.320641722434
 31
0.0
  0
LINE
  5
36C
330
17
100
AcDbEntity
  8
4
100
AcDbLine
 10
582.7172056688642
 20
1294.236859898434
 30
0.0
 11
603.7172056688646
 21
1294.236859898434
 31
0.0
  0
LINE
  5
36D
330
17
100
AcDbEntity
  8
4
100
AcDbLine
 10
559.7172056688637
 20
1288.691641722434
 30
0.0
 11
559.7172056688637
 21
1309.095641722434
 31
0.0
  0
ARC
  5
36E
330
17
100
AcDbEntity
  8
4
100
AcDbCircle
 10
559.9911261658817
 20
1273.457641722435
 30
0.0
 40
10.0
100
AcDbArc
 50
270.0
 51
278.9035194366225
  0
LINE
  5
36F
330
17
100
AcDbEntity
  8
4
100
AcDbLine
 10
557.2172056688632
 20
1283.457641722434
 30
0.0
 11
562.2172056688632
 21
1260.457641722434
 31
0.0
  0
LINE
  5
370
330
17
100
AcDbEntity
  8
4
100
AcDbLine
 10
559.7172056688637
 20
1288.691641722434
 30
0.0
 11
584.7497863140243
 21
1288.691641722435
 31
0.0
  0
LINE
  5
371
330
17
100
AcDbEntity
  8
4
100
AcDbLine
 10
559.7172056688637
 20
1309.095641722434
 30
0.0
 11
594.6226895398313
 21
1309.095641722435
 31
0.0
  0
LINE
  5
372
330
17
100
AcDbEntity
  8
L-CENTER
 48
2.0
100
AcDbLine
 10
489.7172056688651
 20
1323.666326006275
 30
0.0
 11
489.7172056688651
 21
1284.0818643849
 31
0.0
  0
ARC
  5
373
330
17
100
AcDbEntity
  8
4
100
AcDbCircle
 10
489.7172056688651
 20
1303.457641722435
 30
0.0
 40
12.0
100
AcDbArc
 50
184.8951265392784
 51
328.2409169956917
  0
LINE
  5
374
330
17
100
AcDbEntity
  8
4
100
AcDbLine
 10
409.7172056688651
 20
1263.457641722435
 30
0.0
 11
559.9911261658817
 21
1263.457641722435
 31
0.0
  0
LINE
  5
375
330
17
100
AcDbEntity
  8
L-CENTER
 48
2.0
100
AcDbLine
 10
461.731850597298
 20
1303.457641722435
 30
0.0
 11
516.6941983710612
 21
1303.457641722435
 31
0.0
  0
LINE
  5
376
330
17
100
AcDbEntity
  8
4
100
AcDbLine
 10
436.0236006688638
 20
1314.457641722434
 30
0.0
 11
565.8265806688637
 21
1283.457641722434
 31
0.0
  0
LINE
  5
377
330
17
100
AcDbEntity
  8
4
100
AcDbLine
 10
427.4142256688638
 20
1314.457641722434
 30
0.0
 11
557.2172056688632
 21
1283.457641722434
 31
0.0
  0
LINE
  5
378
330
17
100
AcDbEntity
  8
4
100
AcDbLine
 10
562.2172056688632
 20
1260.457641722434
 30
0.0
 11
717.2172056688642
 21
1260.457641722435
 31
0.0
  0
LINE
  5
379
330
17
100
AcDbEntity
  8
4
100
AcDbLine
 10
557.2172056688632
 20
1283.457641722434
 30
0.0
 11
722.2172056688632
 21
1283.457641722434
 31
0.0
  0
LINE
  5
37A
330
17
100
AcDbEntity
  8
4
100
AcDbLine
 10
567.7172056688637
 20
1290.627641722434
 30
0.0
 11
711.7172056688632
 21
1290.627641722435
 31
0.0
  0
LINE
  5
37B
330
17
100
AcDbEntity
  8
4
100
AcDbLine
 10
567.7172056688637
 20
1307.175641722435
 30
0.0
 11
711.7172056688632
 21
1307.175641722434
 31
0.0
  0
LINE
  5
37C
330
17
100
AcDbEntity
  8
4
100
AcDbLine
 10
609.7172056688642
 20
1292.320641722434
 30
0.0
 11
625.2172056688651
 21
1305.494641682434
 31
0.0
  0
LINE
  5
37D
330
17
100
AcDbEntity
  8
4
100
AcDbLine
 10
618.0288225516742
 20
1292.320641722434
 30
0.0
 11
622.3970043698564
 21
1296.033314438434
 31
0.0
  0
ARC
  5
37E
330
17
100
AcDbEntity
  8
4
100
AcDbCircle
 10
662.7172056688637
 20
702.2988523431127
 30
0.0
 40
3.0
100
AcDbArc
 50
180.0
 51
268.5404029999982
  0
LINE
  5
37F
330
17
100
AcDbEntity
  8
4
100
AcDbLine
 10
654.5282406688634
 20
716.5764423431126
 30
0.0
 11
657.2172056688632
 21
704.5918223431127
 31
0.0
  0
ARC
  5
380
330
17
100
AcDbEntity
  8
4
100
AcDbCircle
 10
653.2596856688633
 20
716.2917723431126
 30
0.0
 40
1.300075
100
AcDbArc
 50
12.6478410000021
 51
90.0
  0
LINE
  5
381
330
17
100
AcDbEntity
  8
4
100
AcDbLine
 10
659.7172056688632
 20
702.2988523431127
 30
0.0
 11
659.7172056688632
 21
704.5918223431127
 31
0.0
  0
ARC
  5
382
330
17
100
AcDbEntity
  8
4
100
AcDbCircle
 10
665.1671606688637
 20
703.6989973431128
 30
0.0
 40
7.999975
100
AcDbArc
 50
125.3401040000021
 51
173.5922200000001
  0
LINE
  5
383
330
17
100
AcDbEntity
  8
4
100
AcDbLine
 10
639.7172056688632
 20
719.5918223431127
 30
0.0
 11
625.9860056688635
 21
717.5779073431127
 31
0.0
  0
LINE
  5
384
330
17
100
AcDbEntity
  8
4
100
AcDbLine
 10
624.9061706688635
 20
716.5764423431126
 30
0.0
 11
622.2172056688632
 21
704.5918223431127
 31
0.0
  0
LINE
  5
385
330
17
100
AcDbEntity
  8
4
100
AcDbLine
 10
619.7172056688632
 20
702.2988523431127
 30
0.0
 11
619.7172056688632
 21
704.5918223431127
 31
0.0
  0
ARC
  5
386
330
17
100
AcDbEntity
  8
4
100
AcDbCircle
 10
614.2672556688635
 20
703.6989973431128
 30
0.0
 40
7.999904999999999
100
AcDbArc
 50
6.407780000000275
 51
54.66132099999852
  0
ARC
  5
387
330
17
100
AcDbEntity
  8
4
100
AcDbCircle
 10
626.1747256688636
 20
716.2917723431126
 30
0.0
 40
1.300075
100
AcDbArc
 50
90.0
 51
167.3521489999968
  0
LINE
  5
388
330
17
100
AcDbEntity
  8
4
100
AcDbLine
 10
626.1747256688636
 20
717.5918223431124
 30
0.0
 11
653.2596856688633
 21
717.5918223431124
 31
0.0
  0
LINE
  5
389
330
17
100
AcDbEntity
  8
4
100
AcDbLine
 10
659.7172056688632
 20
704.5918223431127
 30
0.0
 11
619.7172056688632
 21
704.5918223431127
 31
0.0
  0
LINE
  5
38A
330
17
100
AcDbEntity
  8
4
100
AcDbLine
 10
639.7172056688632
 20
719.5918223431127
 30
0.0
 11
653.4484106688637
 21
717.5779073431127
 31
0.0
  0
CIRCLE
  5
38B
330
17
100
AcDbEntity
  8
4
100
AcDbCircle
 10
639.7172056688632
 20
739.5918223431127
 30
0.0
 40
20.0
  0
LINE
  5
38C
330
17
100
AcDbEntity
  8
4
100
AcDbLine
 10
684.2532137097751
 20
643.5918223431129
 30
0.0
 11
682.6591788086507
 21
658.354480371876
 31
0.0
  0
ARC
  5
38D
330
17
100
AcDbEntity
  8
4
100
AcDbCircle
 10
685.6418415546914
 20
658.6765408372885
 30
0.0
 40
3.0
100
AcDbArc
 50
77.78185833747715
 51
186.1627781243685
  0
ARC
  5
38E
330
17
100
AcDbEntity
  8
4
100
AcDbCircle
 10
639.7172056688632
 20
446.5918223431127
 30
0.0
 40
220.0
100
AcDbArc
 50
76.51578901112191
 51
77.78185833748009
  0
LINE
  5
38F
330
17
100
AcDbEntity
  8
4
100
AcDbLine
 10
684.2532137097751
 20
643.5918223431129
 30
0.0
 11
717.7172056688632
 21
643.5918223431129
 31
0.0
  0
ARC
  5
390
330
17
100
AcDbEntity
  8
4
100
AcDbCircle
 10
709.7172056688632
 20
633.5918223431127
 30
0.0
 40
2.0
100
AcDbArc
 50
0.0
 51
90.0
  0
CIRCLE
  5
391
330
17
100
AcDbEntity
  8
4
100
AcDbCircle
 10
687.7172056688632
 20
611.5918223431127
 30
0.0
 40
10.5
  0
ARC
  5
392
330
17
100
AcDbEntity
  8
4
100
AcDbCircle
 10
717.7172056688632
 20
641.5918223431129
 30
0.0
 40
2.0
100
AcDbArc
 50
0.0
 51
90.0
  0
LINE
  5
393
330
17
100
AcDbEntity
  8
4
100
AcDbLine
 10
650.7172056688632
 20
605.0918223431127
 30
0.0
 11
663.7172056688632
 21
605.0918223431127
 31
0.0
  0
LINE
  5
394
330
17
100
AcDbEntity
  8
4
100
AcDbLine
 10
650.7172056688632
 20
597.0918223431127
 30
0.0
 11
663.7172056688632
 21
597.0918223431127
 31
0.0
  0
LINE
  5
395
330
17
100
AcDbEntity
  8
4
100
AcDbLine
 10
663.7172056688632
 20
605.0918223431127
 30
0.0
 11
663.7172056688632
 21
597.0918223431127
 31
0.0
  0
LINE
  5
396
330
17
100
AcDbEntity
  8
4
100
AcDbLine
 10
650.7172056688632
 20
605.0918223431127
 30
0.0
 11
650.7172056688632
 21
597.0918223431127
 31
0.0
  0
LINE
  5
397
330
17
100
AcDbEntity
  8
4
100
AcDbLine
 10
629.2172056688642
 20
613.2925366299164
 30
0.0
 11
633.7828615133267
 21
597.0918223431127
 31
0.0
  0
LINE
  5
398
330
17
100
AcDbEntity
  8
4
100
AcDbLine
 10
629.2172056688642
 20
613.292536629916
 30
0.0
 11
624.6515498244007
 21
597.0918223431127
 31
0.0
  0
LINE
  5
399
330
17
100
AcDbEntity
  8
4
100
AcDbLine
 10
624.6515498244007
 20
597.0918223431127
 30
0.0
 11
633.7828615133267
 21
597.0918223431127
 31
0.0
  0
LINE
  5
39A
330
17
100
AcDbEntity
  8
4
100
AcDbLine
 10
625.2172056688642
 20
628.5918223431127
 30
0.0
 11
633.2172056688642
 21
628.5918223431127
 31
0.0
  0
ARC
  5
39B
330
17
100
AcDbEntity
  8
4
100
AcDbCircle
 10
687.7172056688632
 20
611.5918223431127
 30
0.0
 40
17.0
100
AcDbArc
 50
0.0
 51
301.9657187507969
  0
ARC
  5
39C
330
17
100
AcDbEntity
  8
4
100
AcDbCircle
 10
717.7172056688632
 20
560.5918223431127
 30
0.0
 40
2.0
100
AcDbArc
 50
270.0
 51
0.0
  0
ARC
  5
39D
330
17
100
AcDbEntity
  8
4
100
AcDbCircle
 10
709.7172056688632
 20
568.5918223431127
 30
0.0
 40
2.0
100
AcDbArc
 50
270.0
 51
0.0
  0
ARC
  5
39E
330
17
100
AcDbEntity
  8
4
100
AcDbCircle
 10
687.7172056688632
 20
590.5918223431127
 30
0.0
 40
10.5
100
AcDbArc
 50
180.0
 51
328.9972808661254
  0
LINE
  5
39F
330
17
100
AcDbEntity
  8
4
100
AcDbLine
 10
693.431301174207
 20
558.5918223431127
 30
0.0
 11
717.7172056688632
 21
558.5918223431127
 31
0.0
  0
ARC
  5
3A0
330
17
100
AcDbEntity
  8
4
100
AcDbCircle
 10
720.8331756688635
 20
508.6697023431125
 30
0.0
 40
5.0
100
AcDbArc
 50
191.7428379999996
 51
263.8362169999971
  0
ARC
  5
3A1
330
17
100
AcDbEntity
  8
4
100
AcDbCircle
 10
708.9728206688633
 20
515.8471923431127
 30
0.0
 40
5.00009
100
AcDbArc
 50
13.57755899999986
 51
76.42243899999798
  0
ARC
  5
3A2
330
17
100
AcDbEntity
  8
4
100
AcDbCircle
 10
704.9213106688635
 20
511.7956773431126
 30
0.0
 40
5.00009
100
AcDbArc
 50
12.76732199999943
 51
77.2326920000009
  0
ARC
  5
3A3
330
17
100
AcDbEntity
  8
4
100
AcDbCircle
 10
705.4610883293826
 20
531.0168824039156
 30
0.0
 40
9.0
100
AcDbArc
 50
186.1627781243685
 51
257.7156576148907
  0
LINE
  5
3A4
330
17
100
AcDbEntity
  8
4
100
AcDbLine
 10
696.5131000912606
 20
530.0507010076781
 30
0.0
 11
693.431301174207
 21
558.5918223431127
 31
0.0
  0
LINE
  5
3A5
330
17
100
AcDbEntity
  8
4
100
AcDbLine
 10
622.3970043698546
 20
589.0918223431127
 30
0.0
 11
636.0374069678719
 21
589.0918223431127
 31
0.0
  0
LINE
  5
3A6
330
17
100
AcDbEntity
  8
4
100
AcDbLine
 10
636.0374069678719
 20
589.0918223431127
 30
0.0
 11
640.4055887860532
 21
573.5918223431127
 31
0.0
  0
LINE
  5
3A7
330
17
100
AcDbEntity
  8
4
100
AcDbLine
 10
640.4055887860532
 20
573.5918223431127
 30
0.0
 11
648.7172056688632
 21
573.5918223431127
 31
0.0
  0
ARC
  5
3A8
330
17
100
AcDbEntity
  8
4
100
AcDbCircle
 10
687.7172056688632
 20
590.5918223431127
 30
0.0
 40
17.0
100
AcDbArc
 50
180.0
 51
0.0
  0
LINE
  5
3A9
330
17
100
AcDbEntity
  8
4
100
AcDbLine
 10
670.7172056688632
 20
590.5918223431127
 30
0.0
 11
677.2172056688632
 21
590.5918223431127
 31
0.0
  0
LINE
  5
3AA
330
17
100
AcDbEntity
  8
4
100
AcDbLine
 10
711.7172056688632
 20
633.5918223431127
 30
0.0
 11
711.7172056688632
 21
568.5918223431127
 31
0.0
  0
LINE
  5
3AB
330
17
100
AcDbEntity
  8
4
100
AcDbLine
 10
719.7172056688632
 20
641.5918223431129
 30
0.0
 11
719.7172056688632
 21
560.5918223431127
 31
0.0
  0
LINE
  5
3AC
330
17
100
AcDbEntity
  8
4
100
AcDbLine
 10
696.7172056688632
 20
597.1696172412567
 30
0.0
 11
696.7172056688632
 21
585.1834954299168
 31
0.0
  0
LINE
  5
3AD
330
17
100
AcDbEntity
  8
4
100
AcDbLine
 10
704.7172056688632
 20
611.5918223431127
 30
0.0
 11
704.7172056688632
 21
590.5918223431127
 31
0.0
  0
LINE
  5
3AE
330
17
100
AcDbEntity
  8
4
100
AcDbLine
 10
633.2172056688642
 20
628.5918223431127
 30
0.0
 11
648.7172056688632
 21
573.5918223431127
 31
0.0
  0
LINE
  5
3AF
330
17
100
AcDbEntity
  8
4
100
AcDbLine
 10
541.7172056688637
 20
703.0918223431127
 30
0.0
 11
541.7172056688637
 21
701.5918223431127
 31
0.0
  0
ARC
  5
3B0
330
17
100
AcDbEntity
  8
4
100
AcDbCircle
 10
547.7172056688637
 20
697.8930923431126
 30
0.0
 40
2.999995
100
AcDbArc
 50
180.0
 51
275.8479249999928
  0
LINE
  5
3B1
330
17
100
AcDbEntity
  8
4
100
AcDbLine
 10
544.7172056688632
 20
697.8930923431126
 30
0.0
 11
544.7172056688632
 21
701.5918223431127
 31
0.0
  0
LINE
  5
3B2
330
17
100
AcDbEntity
  8
4
100
AcDbLine
 10
542.7172056688637
 20
703.0918223431127
 30
0.0
 11
542.7172056688637
 21
712.0918223431127
 31
0.0
  0
LINE
  5
3B3
330
17
100
AcDbEntity
  8
4
100
AcDbLine
 10
531.2172056688637
 20
707.0918223431127
 30
0.0
 11
531.2172056688637
 21
712.0918223431127
 31
0.0
  0
LINE
  5
3B4
330
17
100
AcDbEntity
  8
4
100
AcDbLine
 10
496.7172056688637
 20
703.0918223431127
 30
0.0
 11
496.7172056688637
 21
712.0918223431127
 31
0.0
  0
LINE
  5
3B5
330
17
100
AcDbEntity
  8
4
100
AcDbLine
 10
497.7172056688637
 20
703.0918223431127
 30
0.0
 11
497.7172056688637
 21
701.5918223431127
 31
0.0
  0
LINE
  5
3B6
330
17
100
AcDbEntity
  8
4
100
AcDbLine
 10
508.2172056688637
 20
707.0918223431127
 30
0.0
 11
508.2172056688637
 21
712.0918223431127
 31
0.0
  0
LINE
  5
3B7
330
17
100
AcDbEntity
  8
4
100
AcDbLine
 10
496.7172056688637
 20
712.0918223431127
 30
0.0
 11
542.7172056688637
 21
712.0918223431127
 31
0.0
  0
LINE
  5
3B8
330
17
100
AcDbEntity
  8
4
100
AcDbLine
 10
496.7172056688637
 20
707.0918223431127
 30
0.0
 11
542.7172056688637
 21
707.0918223431127
 31
0.0
  0
LINE
  5
3B9
330
17
100
AcDbEntity
  8
4
100
AcDbLine
 10
496.7172056688637
 20
703.0918223431127
 30
0.0
 11
542.7172056688637
 21
703.0918223431127
 31
0.0
  0
LINE
  5
3BA
330
17
100
AcDbEntity
  8
4
100
AcDbLine
 10
494.7172056688632
 20
701.5918223431127
 30
0.0
 11
544.7172056688632
 21
701.5918223431127
 31
0.0
  0
LINE
  5
3BB
330
17
100
AcDbEntity
  8
4
100
AcDbLine
 10
595.1811976279519
 20
643.5918223431129
 30
0.0
 11
596.7752325290762
 21
658.354480371876
 31
0.0
  0
ARC
  5
3BC
330
17
100
AcDbEntity
  8
4
100
AcDbCircle
 10
593.7925697830356
 20
658.6765408372885
 30
0.0
 40
3.0
100
AcDbArc
 50
353.8372218756315
 51
102.2181416625229
  0
ARC
  5
3BD
330
17
100
AcDbEntity
  8
4
100
AcDbCircle
 10
639.7172056688637
 20
446.5918223431127
 30
0.0
 40
220.0
100
AcDbArc
 50
102.2181416625199
 51
103.4842109888781
  0
ARC
  5
3BE
330
17
100
AcDbEntity
  8
4
100
AcDbCircle
 10
569.7172056688637
 20
633.5918223431127
 30
0.0
 40
2.0
100
AcDbArc
 50
90.0
 51
180.0
  0
LINE
  5
3BF
330
17
100
AcDbEntity
  8
4
100
AcDbLine
 10
574.7172056688642
 20
628.5918223431127
 30
0.0
 11
582.7172056688642
 21
628.5918223431127
 31
0.0
  0
ARC
  5
3C0
330
17
100
AcDbEntity
  8
4
100
AcDbCircle
 10
561.7172056688637
 20
641.5918223431129
 30
0.0
 40
2.0
100
AcDbArc
 50
90.0
 51
180.0
  0
LINE
  5
3C1
330
17
100
AcDbEntity
  8
4
100
AcDbLine
 10
595.1811976279519
 20
643.5918223431129
 30
0.0
 11
561.7172056688637
 21
643.5918223431129
 31
0.0
  0
LINE
  5
3C2
330
17
100
AcDbEntity
  8
4
100
AcDbLine
 10
603.7172056688642
 20
581.5918223431131
 30
0.0
 11
603.7172056688632
 21
573.5918223431127
 31
0.0
  0
LINE
  5
3C3
330
17
100
AcDbEntity
  8
4
100
AcDbLine
 10
609.7172056688623
 20
573.5918223431127
 30
0.0
 11
618.0288225516733
 21
573.5918223431127
 31
0.0
  0
ARC
  5
3C4
330
17
100
AcDbEntity
  8
4
100
AcDbCircle
 10
569.7172056688637
 20
568.5918223431127
 30
0.0
 40
2.0
100
AcDbArc
 50
180.0
 51
270.0
  0
LINE
  5
3C5
330
17
100
AcDbEntity
  8
4
100
AcDbLine
 10
574.7172056688632
 20
573.5918223431127
 30
0.0
 11
603.7172056688632
 21
573.5918223431127
 31
0.0
  0
LINE
  5
3C6
330
17
100
AcDbEntity
  8
4
100
AcDbLine
 10
582.7172056688632
 20
581.5918223431127
 30
0.0
 11
603.7172056688632
 21
581.5918223431127
 31
0.0
  0
ARC
  5
3C7
330
17
100
AcDbEntity
  8
4
100
AcDbCircle
 10
570.4615906688637
 20
515.8471923431127
 30
0.0
 40
5.00009
100
AcDbArc
 50
103.5775609999969
 51
166.4224410000001
  0
ARC
  5
3C8
330
17
100
AcDbEntity
  8
4
100
AcDbCircle
 10
574.5131056688633
 20
511.7956773431126
 30
0.0
 40
5.00009
100
AcDbArc
 50
102.7673079999991
 51
167.2326780000006
  0
ARC
  5
3C9
330
17
100
AcDbEntity
  8
4
100
AcDbCircle
 10
573.9733230083443
 20
531.0168824039156
 30
0.0
 40
9.0
100
AcDbArc
 50
282.2843423851093
 51
353.8372218756315
  0
LINE
  5
3CA
330
17
100
AcDbEntity
  8
4
100
AcDbLine
 10
582.9213112464663
 20
530.0507010076781
 30
0.0
 11
586.00311016352
 21
558.5918223431127
 31
0.0
  0
ARC
  5
3CB
330
17
100
AcDbEntity
  8
4
100
AcDbCircle
 10
561.7172056688637
 20
560.5918223431127
 30
0.0
 40
2.0
100
AcDbArc
 50
180.0
 51
270.0
  0
ARC
  5
3CC
330
17
100
AcDbEntity
  8
4
100
AcDbCircle
 10
558.6012406688633
 20
508.6697023431125
 30
0.0
 40
5.000095
100
AcDbArc
 50
276.1637830000008
 51
348.2604690000006
  0
LINE
  5
3CD
330
17
100
AcDbEntity
  8
4
100
AcDbLine
 10
586.00311016352
 20
558.5918223431127
 30
0.0
 11
561.7172056688637
 21
558.5918223431127
 31
0.0
  0
LINE
  5
3CE
330
17
100
AcDbEntity
  8
4
100
AcDbLine
 10
567.7172056688637
 20
633.5918223431127
 30
0.0
 11
567.7172056688637
 21
568.5918223431127
 31
0.0
  0
LINE
  5
3CF
330
17
100
AcDbEntity
  8
4
100
AcDbLine
 10
559.7172056688637
 20
641.5918223431129
 30
0.0
 11
559.7172056688637
 21
560.5918223431127
 31
0.0
  0
LINE
  5
3D0
330
17
100
AcDbEntity
  8
4
100
AcDbLine
 10
574.7172056688642
 20
628.5918223431127
 30
0.0
 11
574.7172056688632
 21
573.5918223431127
 31
0.0
  0
LINE
  5
3D1
330
17
100
AcDbEntity
  8
4
100
AcDbLine
 10
582.7172056688642
 20
628.5918223431127
 30
0.0
 11
582.7172056688632
 21
581.5918223431127
 31
0.0
  0
ARC
  5
3D2
330
17
100
AcDbEntity
  8
4
100
AcDbCircle
 10
491.7172056688637
 20
690.3806423431126
 30
0.0
 40
3.00002
100
AcDbArc
 50
279.4331890000028
 51
0.0
  0
ARC
  5
3D3
330
17
100
AcDbEntity
  8
4
100
AcDbCircle
 10
419.2867856688636
 20
667.0222423431128
 30
0.0
 40
4.999965
100
AcDbArc
 50
104.2581220000048
 51
165.7418780000007
  0
LINE
  5
3D4
330
17
100
AcDbEntity
  8
4
100
AcDbLine
 10
494.7172056688632
 20
701.5918223431127
 30
0.0
 11
494.7172056688632
 21
690.3806423431126
 31
0.0
  0
LINE
  5
3D5
330
17
100
AcDbEntity
  8
L-CENTER
 48
2.0
100
AcDbLine
 10
519.7172056688632
 20
718.9919073431126
 30
0.0
 11
519.7172056688632
 21
676.3395473431126
 31
0.0
  0
ARC
  5
3D6
330
17
100
AcDbEntity
  8
4
100
AcDbCircle
 10
639.7174506688634
 20
-200.4081776568873
 30
0.0
 40
900.00001
100
AcDbArc
 50
89.99998399999998
 51
104.258138
  0
LINE
  5
3D7
330
17
100
AcDbEntity
  8
L-CENTER
 48
2.0
100
AcDbLine
 10
583.8731056688634
 20
739.5918223431127
 30
0.0
 11
695.5613056688635
 21
739.5918223431127
 31
0.0
  0
ARC
  5
3D8
330
17
100
AcDbEntity
  8
4
100
AcDbCircle
 10
639.7172056688632
 20
739.5918223431127
 30
0.0
 40
35.99993499999999
100
AcDbArc
 50
305.3403310000004
 51
234.6621520000004
  0
ARC
  5
3D9
330
17
100
AcDbEntity
  8
4
100
AcDbCircle
 10
639.7172056688632
 20
224.0918223431127
 30
0.0
 40
299.99994
100
AcDbArc
 50
77.23053799999994
 51
102.7695529999999
  0
ARC
  5
3DA
330
17
100
AcDbEntity
  8
4
100
AcDbCircle
 10
639.7172056688632
 20
229.0918223431127
 30
0.0
 40
300.00009
100
AcDbArc
 50
76.42224299999995
 51
103.5778019999999
  0
ARC
  5
3DB
330
17
100
AcDbEntity
  8
4
100
AcDbCircle
 10
616.7172056688637
 20
702.2988523431127
 30
0.0
 40
3.0
100
AcDbArc
 50
271.4595969999931
 51
0.0
  0
LINE
  5
3DC
330
17
100
AcDbEntity
  8
4
100
AcDbLine
 10
569.7172056688637
 20
566.5918223431127
 30
0.0
 11
709.7172056688632
 21
566.5918223431127
 31
0.0
  0
LINE
  5
3DD
330
17
100
AcDbEntity
  8
4
100
AcDbLine
 10
569.7172056688637
 20
635.5918223431127
 30
0.0
 11
709.7172056688632
 21
635.5918223431127
 31
0.0
  0
LINE
  5
3DE
330
17
100
AcDbEntity
  8
4
100
AcDbLine
 10
625.2172056688642
 20
628.5918223431127
 30
0.0
 11
609.7172056688632
 21
573.5918223431127
 31
0.0
  0
LINE
  5
3DF
330
17
100
AcDbEntity
  8
4
100
AcDbLine
 10
622.3970043698546
 20
589.0918223431127
 30
0.0
 11
618.0288225516733
 21
573.5918223431127
 31
0.0
  0
ARC
  5
3E0
330
17
100
AcDbEntity
  8
4
100
AcDbCircle
 10
639.7169656688638
 20
-200.4081776568873
 30
0.0
 40
899.99998
100
AcDbArc
 50
75.74187700000002
 51
89.99998400000001
  0
LINE
  5
3E1
330
17
100
AcDbEntity
  8
4
100
AcDbLine
 10
719.4432851718466
 20
1263.457641722434
 30
0.0
 11
869.7172056688632
 21
1263.457641722434
 31
0.0
  0
LINE
  5
3E2
330
17
100
AcDbEntity
  8
4
100
AcDbLine
 10
852.0201856688636
 20
1314.457641722434
 30
0.0
 11
722.2172056688632
 21
1283.457641722434
 31
0.0
  0
LINE
  5
3E3
330
17
100
AcDbEntity
  8
4
100
AcDbLine
 10
843.4108106688636
 20
1314.457641722434
 30
0.0
 11
713.6078306688632
 21
1283.457641722434
 31
0.0
  0
LINE
  5
3E4
330
17
100
AcDbEntity
  8
L-CENTER
 48
2.0
100
AcDbLine
 10
639.7172056688632
 20
1640.302401230801
 30
0.0
 11
639.7172056688632
 21
1084.220485503894
 31
0.0
  0
LINE
  5
3E5
330
17
100
AcDbEntity
  8
4
100
AcDbLine
 10
889.7172056688632
 20
1337.457641722435
 30
0.0
 11
889.7172056688632
 21
1314.457641722434
 31
0.0
  0
LINE
  5
3E6
330
17
100
AcDbEntity
  8
4
100
AcDbLine
 10
399.7172056688632
 20
1613.457641722434
 30
0.0
 11
399.7172056688632
 21
1585.757641722434
 31
0.0
  0
LINE
  5
3E7
330
17
100
AcDbEntity
  8
4
100
AcDbLine
 10
393.7475505542602
 20
1584.620460811807
 30
0.0
 11
393.7475505542602
 21
1574.757641722434
 31
0.0
  0
ARC
  5
3E8
330
17
100
AcDbEntity
  8
4
100
AcDbCircle
 10
396.4899643329109
 20
1581.882262847155
 30
0.0
 40
3.875378875279244
100
AcDbArc
 50
44.95592676274281
 51
135.044073237256
  0
LINE
  5
3E9
330
17
100
AcDbEntity
  8
4
100
AcDbLine
 10
399.2323781115615
 20
1584.620460811807
 30
0.0
 11
399.2323781115615
 21
1577.757641722434
 31
0.0
  0
LINE
  5
3EA
330
17
100
AcDbEntity
  8
4
100
AcDbLine
 10
389.7172056688632
 20
1552.457641722435
 30
0.0
 11
389.7172056688632
 21
1549.457641722433
 31
0.0
  0
LINE
  5
3EB
330
17
100
AcDbEntity
  8
4
100
AcDbLine
 10
387.7172056688632
 20
1573.757641722434
 30
0.0
 11
387.7172056688632
 21
1552.757641722434
 31
0.0
  0
ARC
  5
3EC
330
17
100
AcDbEntity
  8
4
100
AcDbCircle
 10
370.9172056688631
 20
1547.457641722434
 30
0.0
 40
1.0
100
AcDbArc
 50
90.0
 51
180.0
  0
LINE
  5
3ED
330
17
100
AcDbEntity
  8
4
100
AcDbLine
 10
370.9172056688631
 20
1548.457641722434
 30
0.0
 11
386.4172056688631
 21
1548.457641722435
 31
0.0
  0
ARC
  5
3EE
330
17
100
AcDbEntity
  8
4
100
AcDbCircle
 10
388.7172056688632
 20
1573.757641722434
 30
0.0
 40
1.0
100
AcDbArc
 50
90.0
 51
180.0
  0
ARC
  5
3EF
330
17
100
AcDbEntity
  8
4
100
AcDbCircle
 10
375.9173056688633
 20
1505.329466722434
 30
0.0
 40
17.999975
100
AcDbArc
 50
160.5296609999993
 51
199.4713309999995
  0
LINE
  5
3F0
330
17
100
AcDbEntity
  8
4
100
AcDbLine
 10
366.9173056688633
 20
1493.329466722434
 30
0.0
 11
366.9173056688633
 21
1517.329466722434
 31
0.0
  0
LINE
  5
3F1
330
17
100
AcDbEntity
  8
4
100
AcDbLine
 10
357.9173056688633
 20
1496.329466722434
 30
0.0
 11
357.9173056688633
 21
1514.329466722434
 31
0.0
  0
LINE
  5
3F2
330
17
100
AcDbEntity
  8
4
100
AcDbLine
 10
369.9173056688633
 20
1517.329466722434
 30
0.0
 11
369.9173056688633
 21
1493.329466722434
 31
0.0
  0
LINE
  5
3F3
330
17
100
AcDbEntity
  8
4
100
AcDbLine
 10
366.9173056688633
 20
1499.329466722434
 30
0.0
 11
358.9468456688633
 21
1499.329466722434
 31
0.0
  0
LINE
  5
3F4
330
17
100
AcDbEntity
  8
4
100
AcDbLine
 10
369.9173056688633
 20
1493.329466722434
 30
0.0
 11
366.9173056688633
 21
1493.329466722434
 31
0.0
  0
LINE
  5
3F5
330
17
100
AcDbEntity
  8
4
100
AcDbLine
 10
358.9468456688633
 20
1493.329466722434
 30
0.0
 11
366.9173056688633
 21
1493.329466722434
 31
0.0
  0
ARC
  5
3F6
330
17
100
AcDbEntity
  8
4
100
AcDbCircle
 10
362.5010456688633
 20
1496.329466722434
 30
0.0
 40
4.583600000000001
100
AcDbArc
 50
139.1186699999983
 51
220.8833260000026
  0
LINE
  5
3F7
330
17
100
AcDbEntity
  8
4
100
AcDbLine
 10
369.9173056688633
 20
1517.329466722434
 30
0.0
 11
366.9173056688633
 21
1517.329466722434
 31
0.0
  0
ARC
  5
3F8
330
17
100
AcDbEntity
  8
4
100
AcDbCircle
 10
362.5010456688633
 20
1514.329466722434
 30
0.0
 40
4.583600000000001
100
AcDbArc
 50
139.1186699999983
 51
220.8833260000026
  0
LINE
  5
3F9
330
17
100
AcDbEntity
  8
4
100
AcDbLine
 10
358.9468456688633
 20
1517.329466722434
 30
0.0
 11
366.9173056688633
 21
1517.329466722434
 31
0.0
  0
LINE
  5
3FA
330
17
100
AcDbEntity
  8
4
100
AcDbLine
 10
366.9173056688633
 20
1511.329466722434
 30
0.0
 11
358.9468456688633
 21
1511.329466722434
 31
0.0
  0
ARC
  5
3FB
330
17
100
AcDbEntity
  8
4
100
AcDbCircle
 10
375.9173056688633
 20
1381.585816722434
 30
0.0
 40
18.00005
100
AcDbArc
 50
160.5296609999997
 51
199.4703359999998
  0
LINE
  5
3FC
330
17
100
AcDbEntity
  8
4
100
AcDbLine
 10
366.9173056688633
 20
1375.585816722434
 30
0.0
 11
358.9468456688633
 21
1375.585816722434
 31
0.0
  0
LINE
  5
3FD
330
17
100
AcDbEntity
  8
4
100
AcDbLine
 10
369.9173056688633
 20
1393.585816722434
 30
0.0
 11
366.9173056688633
 21
1393.585816722434
 31
0.0
  0
LINE
  5
3FE
330
17
100
AcDbEntity
  8
4
100
AcDbLine
 10
358.9468456688633
 20
1393.585816722434
 30
0.0
 11
366.9173056688633
 21
1393.585816722434
 31
0.0
  0
LINE
  5
3FF
330
17
100
AcDbEntity
  8
4
100
AcDbLine
 10
366.9173056688633
 20
1387.585816722434
 30
0.0
 11
358.9468456688633
 21
1387.585816722434
 31
0.0
  0
ARC
  5
400
330
17
100
AcDbEntity
  8
4
100
AcDbCircle
 10
362.5010456688633
 20
1390.585816722434
 30
0.0
 40
4.58369
100
AcDbArc
 50
139.1186700000007
 51
220.8813299999993
  0
ARC
  5
401
330
17
100
AcDbEntity
  8
4
100
AcDbCircle
 10
370.9172056688631
 20
1339.457641722434
 30
0.0
 40
1.0
100
AcDbArc
 50
180.0
 51
270.0
  0
LINE
  5
402
330
17
100
AcDbEntity
  8
4
100
AcDbLine
 10
369.9173056688633
 20
1369.585816722434
 30
0.0
 11
366.9173056688633
 21
1369.585816722434
 31
0.0
  0
LINE
  5
403
330
17
100
AcDbEntity
  8
4
100
AcDbLine
 10
358.9468456688633
 20
1369.585816722434
 30
0.0
 11
366.9173056688633
 21
1369.585816722434
 31
0.0
  0
LINE
  5
404
330
17
100
AcDbEntity
  8
4
100
AcDbLine
 10
370.9172056688631
 20
1338.457641722434
 30
0.0
 11
386.4172056688631
 21
1338.457641722434
 31
0.0
  0
LINE
  5
405
330
17
100
AcDbEntity
  8
4
100
AcDbLine
 10
357.9173056688633
 20
1390.585816722434
 30
0.0
 11
357.9173056688633
 21
1372.585816722434
 31
0.0
  0
LINE
  5
406
330
17
100
AcDbEntity
  8
4
100
AcDbLine
 10
369.9173056688633
 20
1369.585816722434
 30
0.0
 11
369.9173056688633
 21
1393.585816722434
 31
0.0
  0
LINE
  5
407
330
17
100
AcDbEntity
  8
4
100
AcDbLine
 10
366.9173056688633
 20
1393.585816722434
 30
0.0
 11
366.9173056688633
 21
1369.585816722434
 31
0.0
  0
ARC
  5
408
330
17
100
AcDbEntity
  8
4
100
AcDbCircle
 10
362.5010456688633
 20
1372.585816722434
 30
0.0
 40
4.58369
100
AcDbArc
 50
139.1186700000007
 51
220.8813299999993
  0
LINE
  5
409
330
17
100
AcDbEntity
  8
4
100
AcDbLine
 10
386.7172056688632
 20
1549.457641722434
 30
0.0
 11
386.7172056688632
 21
1337.457641722435
 31
0.0
  0
LINE
  5
40A
330
17
100
AcDbEntity
  8
4
100
AcDbLine
 10
369.9172056688631
 20
1547.457641722434
 30
0.0
 11
369.9172056688631
 21
1339.457641722434
 31
0.0
  0
LINE
  5
40B
330
17
100
AcDbEntity
  8
4
100
AcDbLine
 10
386.4172056688631
 20
1548.457641722434
 30
0.0
 11
386.4172056688631
 21
1338.457641722435
 31
0.0
  0
LINE
  5
40C
330
17
100
AcDbEntity
  8
4
100
AcDbLine
 10
399.7172056688646
 20
1314.457641722435
 30
0.0
 11
399.7172056688651
 21
1273.457641722435
 31
0.0
  0
LINE
  5
40D
330
17
100
AcDbEntity
  8
4
100
AcDbLine
 10
389.7172056688632
 20
1337.457641722435
 30
0.0
 11
389.7172056688632
 21
1314.457641722435
 31
0.0
  0
LINE
  5
40E
330
17
100
AcDbEntity
  8
L-CENTER
 48
2.0
100
AcDbLine
 10
226.1366244392093
 20
1443.457641722434
 30
0.0
 11
1053.297786898517
 21
1443.457641722434
 31
0.0
  0
ARC
  5
40F
330
17
100
AcDbEntity
  8
4
100
AcDbCircle
 10
409.7172056688651
 20
1273.457641722435
 30
0.0
 40
10.0
100
AcDbArc
 50
180.0
 51
270.0
  0
ARC
  5
410
330
17
100
AcDbEntity
  8
4
100
AcDbCircle
 10
409.7172056688632
 20
1613.457641722434
 30
0.0
 40
10.0
100
AcDbArc
 50
90.0
 51
180.0
  0
LINE
  5
411
330
17
100
AcDbEntity
  8
4
100
AcDbLine
 10
386.7172056688632
 20
1337.457641722435
 30
0.0
 11
892.7172056688632
 21
1337.457641722434
 31
0.0
  0
LINE
  5
412
330
17
100
AcDbEntity
  8
4
100
AcDbLine
 10
389.7172056688632
 20
1314.457641722435
 30
0.0
 11
889.7172056688632
 21
1314.457641722434
 31
0.0
  0
LINE
  5
413
330
17
100
AcDbEntity
  8
4
100
AcDbLine
 10
386.7172056688632
 20
1549.457641722434
 30
0.0
 11
892.7172056688632
 21
1549.457641722434
 31
0.0
  0
LINE
  5
414
330
17
100
AcDbEntity
  8
4
100
AcDbLine
 10
389.7172056688632
 20
1552.457641722435
 30
0.0
 11
889.7172056688632
 21
1552.457641722434
 31
0.0
  0
LINE
  5
415
330
17
100
AcDbEntity
  8
4
100
AcDbLine
 10
386.7172056688632
 20
1338.457641722435
 30
0.0
 11
892.7172056688632
 21
1338.457641722434
 31
0.0
  0
LINE
  5
416
330
17
100
AcDbEntity
  8
L-CENTER
 48
2.0
100
AcDbLine
 10
350.4860902393693
 20
1381.585816722434
 30
0.0
 11
406.5990456688633
 21
1381.585816722434
 31
0.0
  0
LINE
  5
417
330
17
100
AcDbEntity
  8
L-CENTER
 48
2.0
100
AcDbLine
 10
350.4860902393693
 20
1505.329466722434
 30
0.0
 11
406.5990456688633
 21
1505.329466722434
 31
0.0
  0
LINE
  5
418
330
17
100
AcDbEntity
  8
4
100
AcDbLine
 10
388.7172056688632
 20
1574.757641722434
 30
0.0
 11
890.7172056688632
 21
1574.757641722434
 31
0.0
  0
LINE
  5
419
330
17
100
AcDbEntity
  8
4
100
AcDbLine
 10
387.7172056688632
 20
1552.757641722434
 30
0.0
 11
891.7172056688632
 21
1552.757641722434
 31
0.0
  0
LINE
  5
41A
330
17
100
AcDbEntity
  8
4
100
AcDbLine
 10
393.7475505542602
 20
1574.757641722434
 30
0.0
 11
415.6868607834663
 21
1574.757641722434
 31
0.0
  0
ARC
  5
41B
330
17
100
AcDbEntity
  8
4
100
AcDbCircle
 10
404.7172056688632
 20
1571.961897587258
 30
0.0
 40
13.7957441351769
100
AcDbArc
 50
66.57340249137164
 51
113.4265975086297
  0
LINE
  5
41C
330
17
100
AcDbEntity
  8
4
100
AcDbLine
 10
393.7475505542602
 20
1577.757641722434
 30
0.0
 11
415.6868607834663
 21
1577.757641722434
 31
0.0
  0
LINE
  5
41D
330
17
100
AcDbEntity
  8
4
100
AcDbLine
 10
412.9444470048152
 20
1585.757641722434
 30
0.0
 11
396.4899643329113
 21
1585.757641722434
 31
0.0
  0
ARC
  5
423
330
17
100
AcDbEntity
  8
4
100
AcDbCircle
 10
851.8019256688635
 20
492.5163823431126
 30
0.0
 40
3.00005
100
AcDbArc
 50
263.8379590000021
 51
12.21980999999916
  0
ARC
  5
424
330
17
100
AcDbEntity
  8
4
100
AcDbCircle
 10
851.8019256688635
 20
400.6672623431125
 30
0.0
 40
3.00005
100
AcDbArc
 50
347.7801900000009
 51
96.16204099999794
  0
LINE
  5
426
330
17
100
AcDbEntity
  8
4
100
AcDbLine
 10
892.7172056688637
 20
301.5918223431127
 30
0.0
 11
908.5171106688636
 21
301.5918223431127
 31
0.0
  0
LINE
  5
427
330
17
100
AcDbEntity
  8
4
100
AcDbLine
 10
887.6905956688634
 20
301.5918223431127
 30
0.0
 11
892.7172056688637
 21
301.5918223431127
 31
0.0
  0
LINE
  5
429
330
17
100
AcDbEntity
  8
4
100
AcDbLine
 10
1044.717205668864
 20
223.5918223431127
 30
0.0
 11
1042.717205668864
 21
225.5918223431127
 31
0.0
  0
LINE
  5
42A
330
17
100
AcDbEntity
  8
4
100
AcDbLine
 10
1042.717205668864
 20
167.5918223431127
 30
0.0
 11
1044.717205668864
 21
169.5918223431127
 31
0.0
  0
LINE
  5
42B
330
17
100
AcDbEntity
  8
4
100
AcDbLine
 10
1042.717205668864
 20
225.5918223431127
 30
0.0
 11
1042.717205668864
 21
167.5918223431127
 31
0.0
  0
LINE
  5
42C
330
17
100
AcDbEntity
  8
4
100
AcDbLine
 10
1044.717205668864
 20
230.5918223431127
 30
0.0
 11
1044.717205668864
 21
169.5918223431127
 31
0.0
  0
ARC
  5
42D
330
17
100
AcDbEntity
  8
4
100
AcDbCircle
 10
916.641726793584
 20
250.2364060071604
 30
0.0
 40
3.875378875279244
100
AcDbArc
 50
314.955926762744
 51
45.04407323725601
  0
ARC
  5
42E
330
17
100
AcDbEntity
  8
4
100
AcDbCircle
 10
906.7213615336864
 20
258.4636473431126
 30
0.0
 40
13.7957441351769
100
AcDbArc
 50
336.5734024913716
 51
23.42659750862774
  0
LINE
  5
42F
330
17
100
AcDbEntity
  8
4
100
AcDbLine
 10
920.5171056688632
 20
266.6908886790648
 30
0.0
 11
920.5171056688632
 21
250.2364060071604
 31
0.0
  0
ARC
  5
430
330
17
100
AcDbEntity
  8
4
100
AcDbCircle
 10
916.641726793584
 20
266.6908886790648
 30
0.0
 40
3.875378875279264
100
AcDbArc
 50
314.955926762744
 51
45.04407323725601
  0
LINE
  5
431
330
17
100
AcDbEntity
  8
4
100
AcDbLine
 10
912.5171056688632
 20
247.4939922285098
 30
0.0
 11
912.5171056688632
 21
269.4333024577154
 31
0.0
  0
LINE
  5
432
330
17
100
AcDbEntity
  8
4
100
AcDbLine
 10
909.5171056688632
 20
247.4939922285098
 30
0.0
 11
909.5171056688632
 21
269.4333024577154
 31
0.0
  0
LINE
  5
433
330
17
100
AcDbEntity
  8
4
100
AcDbLine
 10
909.5171056688632
 20
269.4333024577154
 30
0.0
 11
919.3799247582365
 21
269.4333024577154
 31
0.0
  0
LINE
  5
434
330
17
100
AcDbEntity
  8
4
100
AcDbLine
 10
919.3799247582365
 20
247.4939922285098
 30
0.0
 11
909.5171056688632
 21
247.4939922285098
 31
0.0
  0
LINE
  5
435
330
17
100
AcDbEntity
  8
4
100
AcDbLine
 10
919.3799247582365
 20
252.9788197858111
 30
0.0
 11
912.5171056688632
 21
252.9788197858111
 31
0.0
  0
LINE
  5
436
330
17
100
AcDbEntity
  8
4
100
AcDbLine
 10
919.3799247582365
 20
263.9484749004141
 30
0.0
 11
912.5171056688632
 21
263.9484749004141
 31
0.0
  0
LINE
  5
437
330
17
100
AcDbEntity
  8
4
100
AcDbLine
 10
934.7172056688637
 20
230.5918223431127
 30
0.0
 11
934.7172056688637
 21
225.5918223431127
 31
0.0
  0
LINE
  5
438
330
17
100
AcDbEntity
  8
4
100
AcDbLine
 10
910.5171106688636
 20
241.5918223431127
 30
0.0
 11
909.5171106688636
 21
241.5918223431127
 31
0.0
  0
LINE
  5
439
330
17
100
AcDbEntity
  8
4
100
AcDbLine
 10
924.7172056688637
 20
229.0918223431127
 30
0.0
 11
910.6171106688635
 21
229.0918223431127
 31
0.0
  0
ARC
  5
43A
330
17
100
AcDbEntity
  8
4
100
AcDbCircle
 10
860.1476256688638
 20
226.1614023431126
 30
0.0
 40
4.999965
100
AcDbArc
 50
284.2581189999996
 51
345.7418670000005
  0
LINE
  5
43B
330
17
100
AcDbEntity
  8
L-CENTER
 48
2.0
100
AcDbLine
 10
872.8353706688636
 20
258.4636473431126
 30
0.0
 11
926.6235098471361
 21
258.4636473431126
 31
0.0
  0
LINE
  5
43C
330
17
100
AcDbEntity
  8
4
100
AcDbLine
 10
909.5171106688636
 20
151.5918223431127
 30
0.0
 11
910.5171106688636
 21
151.5918223431127
 31
0.0
  0
LINE
  5
43D
330
17
100
AcDbEntity
  8
4
100
AcDbLine
 10
910.5171106688636
 20
151.5918223431127
 30
0.0
 11
909.5171106688636
 21
151.5918223431127
 31
0.0
  0
LINE
  5
43E
330
17
100
AcDbEntity
  8
4
100
AcDbLine
 10
910.6171106688635
 20
164.0918223431127
 30
0.0
 11
924.7172056688637
 21
164.0918223431127
 31
0.0
  0
LINE
  5
43F
330
17
100
AcDbEntity
  8
4
100
AcDbLine
 10
920.5171056688632
 20
142.9472386790648
 30
0.0
 11
920.5171056688632
 21
126.4927560071604
 31
0.0
  0
ARC
  5
440
330
17
100
AcDbEntity
  8
4
100
AcDbCircle
 10
906.7213615336864
 20
134.7199973431126
 30
0.0
 40
13.7957441351769
100
AcDbArc
 50
336.5734024913716
 51
23.42659750862774
  0
ARC
  5
441
330
17
100
AcDbEntity
  8
4
100
AcDbCircle
 10
916.641726793584
 20
126.4927560071604
 30
0.0
 40
3.875378875279244
100
AcDbArc
 50
314.955926762744
 51
45.04407323725601
  0
ARC
  5
442
330
17
100
AcDbEntity
  8
4
100
AcDbCircle
 10
916.641726793584
 20
142.9472386790648
 30
0.0
 40
3.875378875279264
100
AcDbArc
 50
314.955926762744
 51
45.04407323725601
  0
LINE
  5
443
330
17
100
AcDbEntity
  8
4
100
AcDbLine
 10
909.5171056688632
 20
123.7503422285098
 30
0.0
 11
909.5171056688632
 21
145.6896524577154
 31
0.0
  0
LINE
  5
444
330
17
100
AcDbEntity
  8
4
100
AcDbLine
 10
912.5171056688632
 20
123.7503422285098
 30
0.0
 11
912.5171056688632
 21
145.6896524577154
 31
0.0
  0
LINE
  5
445
330
17
100
AcDbEntity
  8
4
100
AcDbLine
 10
919.3799247582365
 20
129.2351697858111
 30
0.0
 11
912.5171056688632
 21
129.2351697858111
 31
0.0
  0
LINE
  5
446
330
17
100
AcDbEntity
  8
4
100
AcDbLine
 10
919.3799247582365
 20
123.7503422285098
 30
0.0
 11
909.5171056688632
 21
123.7503422285098
 31
0.0
  0
LINE
  5
447
330
17
100
AcDbEntity
  8
4
100
AcDbLine
 10
919.3799247582365
 20
140.2048249004141
 30
0.0
 11
912.5171056688632
 21
140.2048249004141
 31
0.0
  0
LINE
  5
448
330
17
100
AcDbEntity
  8
4
100
AcDbLine
 10
909.5171056688632
 20
145.6896524577154
 30
0.0
 11
919.3799247582365
 21
145.6896524577154
 31
0.0
  0
LINE
  5
449
330
17
100
AcDbEntity
  8
L-CENTER
 48
2.0
100
AcDbLine
 10
872.8353706688636
 20
134.7199973431126
 30
0.0
 11
925.8695917695068
 21
134.7199973431126
 31
0.0
  0
LINE
  5
44A
330
17
100
AcDbEntity
  8
4
100
AcDbLine
 10
924.7172056688637
 20
229.0918223431127
 30
0.0
 11
924.7172056688637
 21
164.0918223431127
 31
0.0
  0
LINE
  5
44B
330
17
100
AcDbEntity
  8
4
100
AcDbLine
 10
910.5171106688636
 20
241.5918223431127
 30
0.0
 11
910.5171106688636
 21
151.5918223431127
 31
0.0
  0
LINE
  5
44C
330
17
100
AcDbEntity
  8
4
100
AcDbLine
 10
924.7172056688637
 20
167.5918223431127
 30
0.0
 11
1042.717205668864
 21
167.5918223431127
 31
0.0
  0
LINE
  5
44D
330
17
100
AcDbEntity
  8
4
100
AcDbLine
 10
1044.717205668864
 20
230.5918223431127
 30
0.0
 11
934.7172056688637
 21
230.5918223431127
 31
0.0
  0
LINE
  5
44E
330
17
100
AcDbEntity
  8
4
100
AcDbLine
 10
924.7172056688637
 20
225.5918223431127
 30
0.0
 11
1042.717205668864
 21
225.5918223431127
 31
0.0
  0
LINE
  5
455
330
17
100
AcDbEntity
  8
4
100
AcDbLine
 10
908.5171106688636
 20
91.59182234311265
 30
0.0
 11
892.7172056688637
 21
91.59182234311265
 31
0.0
  0
ARC
  5
456
330
17
100
AcDbEntity
  8
4
100
AcDbCircle
 10
874.7172056688637
 20
81.59182234311265
 30
0.0
 40
5.0
100
AcDbArc
 50
0.0
 51
90.0
  0
ARC
  5
457
330
17
100
AcDbEntity
  8
4
100
AcDbCircle
 10
888.1381056688633
 20
83.59182234311265
 30
0.0
 40
7.999960000000001
100
AcDbArc
 50
90.0
 51
178.0150070000003
  0
LINE
  5
458
330
17
100
AcDbEntity
  8
4
100
AcDbLine
 10
879.7172056688637
 20
36.59182234311265
 30
0.0
 11
879.7172056688637
 21
71.59182234311265
 31
0.0
  0
LINE
  5
459
330
17
100
AcDbEntity
  8
4
100
AcDbLine
 10
888.1381056688633
 20
91.59182234311265
 30
0.0
 11
892.7172056688637
 21
91.59182234311265
 31
0.0
  0
TEXT
  5
45A
330
17
100
AcDbEntity
  8
3
100
AcDbText
 10
1150.053631978539
 20
38.21384374755814
 30
0.0
 40
18.73821597033114
  1
LA9-08
  7
KANJI
100
AcDbText
  0
LINE
  5
460
330
17
100
AcDbEntity
  8
2
100
AcDbLine
 10
893.0172056688634
 20
301.5918223431127
 30
0.0
 11
893.0172056688634
 21
91.59182234311265
 31
0.0
  0
LINE
  5
461
330
17
100
AcDbEntity
  8
4
100
AcDbLine
 10
892.7172056688637
 20
301.5918223431127
 30
0.0
 11
892.7172056688637
 21
91.59182234311265
 31
0.0
  0
LINE
  5
462
330
17
100
AcDbEntity
  8
4
100
AcDbLine
 10
890.5565606688633
 20
384.2641873431126
 30
0.0
 11
879.7172056688637
 21
71.59182234311265
 31
0.0
  0
LINE
  5
463
330
17
100
AcDbEntity
  8
4
100
AcDbLine
 10
892.7172056688637
 20
91.59182234311265
 30
0.0
 11
892.7172056688637
 21
301.5918223431127
 31
0.0
  0
LINE
  5
464
330
17
100
AcDbEntity
  8
4
100
AcDbLine
 10
909.5171106688636
 20
300.5918223431127
 30
0.0
 11
909.5171106688636
 21
92.59182234311265
 31
0.0
  0
ARC
  5
465
330
17
100
AcDbEntity
  8
4
100
AcDbCircle
 10
720.8331756688635
 20
384.5139423431126
 30
0.0
 40
5.0
100
AcDbArc
 50
96.16378300000292
 51
168.2571620000004
  0
ARC
  5
466
330
17
100
AcDbEntity
  8
4
100
AcDbCircle
 10
704.9213106688635
 20
381.3882073431125
 30
0.0
 40
4.999904999999999
100
AcDbArc
 50
282.7706550000008
 51
347.2293450000017
  0
ARC
  5
467
330
17
100
AcDbEntity
  8
4
100
AcDbCircle
 10
708.9730656688635
 20
377.3364523431126
 30
0.0
 40
5.00009
100
AcDbArc
 50
283.5775589999998
 51
346.4224300000006
  0
ARC
  5
468
330
17
100
AcDbEntity
  8
4
100
AcDbCircle
 10
701.7953306688637
 20
365.4760973431127
 30
0.0
 40
5.000025
100
AcDbArc
 50
101.7455750000022
 51
173.836217
  0
ARC
  5
469
330
17
100
AcDbEntity
  8
4
100
AcDbCircle
 10
789.7172056688637
 20
196.5918223431127
 30
0.0
 40
45.0
100
AcDbArc
 50
180.0003120002452
 51
0.0
  0
ARC
  5
46A
330
17
100
AcDbEntity
  8
4
100
AcDbCircle
 10
685.6420106688638
 20
234.5071073431127
 30
0.0
 40
2.99993
100
AcDbArc
 50
173.8379779999993
 51
282.2207779999924
  0
LINE
  5
46B
330
17
100
AcDbEntity
  8
4
100
AcDbLine
 10
655.3055856688634
 20
157.5918223431127
 30
0.0
 11
655.3055856688634
 21
175.5918223431127
 31
0.0
  0
LINE
  5
46C
330
17
100
AcDbEntity
  8
4
100
AcDbLine
 10
624.1285856688637
 20
157.5918223431127
 30
0.0
 11
624.1285856688637
 21
175.5918223431127
 31
0.0
  0
LINE
  5
46D
330
17
100
AcDbEntity
  8
4
100
AcDbLine
 10
624.1285856688637
 20
157.5918223431127
 30
0.0
 11
639.7172056688632
 21
148.5918223431127
 31
0.0
  0
LINE
  5
46E
330
17
100
AcDbEntity
  8
4
100
AcDbLine
 10
639.7172056688632
 20
184.5918223431127
 30
0.0
 11
624.1285856688637
 21
175.5918223431127
 31
0.0
  0
CIRCLE
  5
46F
330
17
100
AcDbEntity
  8
4
100
AcDbCircle
 10
639.7172056688632
 20
166.5918223431127
 30
0.0
 40
20.0
  0
CIRCLE
  5
470
330
17
100
AcDbEntity
  8
4
100
AcDbCircle
 10
639.7172056688632
 20
166.5918223431127
 30
0.0
 40
18.0
  0
LINE
  5
471
330
17
100
AcDbEntity
  8
4
100
AcDbLine
 10
639.7172056688632
 20
148.5918223431127
 30
0.0
 11
655.3055856688634
 21
157.5918223431127
 31
0.0
  0
LINE
  5
472
330
17
100
AcDbEntity
  8
4
100
AcDbLine
 10
655.3055856688634
 20
175.5918223431127
 30
0.0
 11
639.7172056688632
 21
184.5918223431127
 31
0.0
  0
LINE
  5
473
330
17
100
AcDbEntity
  8
4
100
AcDbLine
 10
696.8241406688635
 20
366.0129623431126
 30
0.0
 11
682.6593456688634
 21
234.8291273431126
 31
0.0
  0
ARC
  5
474
330
17
100
AcDbEntity
  8
4
100
AcDbCircle
 10
574.5131056688633
 20
381.3882073431125
 30
0.0
 40
4.999904999999999
100
AcDbArc
 50
192.7706549999983
 51
257.2293450000045
  0
ARC
  5
475
330
17
100
AcDbEntity
  8
4
100
AcDbCircle
 10
577.6390806688637
 20
365.4760973431127
 30
0.0
 40
5.000025
100
AcDbArc
 50
6.163782999999968
 51
78.25442500000293
  0
ARC
  5
476
330
17
100
AcDbEntity
  8
4
100
AcDbCircle
 10
570.4613506688638
 20
377.3364523431126
 30
0.0
 40
5.00009
100
AcDbArc
 50
193.5775699999994
 51
256.4224299999953
  0
ARC
  5
477
330
17
100
AcDbEntity
  8
4
100
AcDbCircle
 10
558.6012406688633
 20
384.5139423431126
 30
0.0
 40
5.0
100
AcDbArc
 50
11.74283799999959
 51
83.83621699999708
  0
ARC
  5
478
330
17
100
AcDbEntity
  8
4
100
AcDbCircle
 10
427.6324906688637
 20
492.5163823431126
 30
0.0
 40
3.00005
100
AcDbArc
 50
167.7801900000007
 51
276.1620409999979
  0
ARC
  5
479
330
17
100
AcDbEntity
  8
4
100
AcDbCircle
 10
427.6324906688637
 20
400.6672623431125
 30
0.0
 40
3.00005
100
AcDbArc
 50
83.83795900000209
 51
192.2198099999993
  0
LINE
  5
47A
330
17
100
AcDbEntity
  8
4
100
AcDbLine
 10
559.1381056688633
 20
389.4848873431126
 30
0.0
 11
427.9545106688638
 21
403.6499273431125
 31
0.0
  0
ARC
  5
47B
330
17
100
AcDbEntity
  8
4
100
AcDbCircle
 10
593.7924006688636
 20
234.5071073431127
 30
0.0
 40
3.00005
100
AcDbArc
 50
257.7802079999952
 51
6.16202200000006
  0
ARC
  5
47C
330
17
100
AcDbEntity
  8
4
100
AcDbCircle
 10
419.2867856688636
 20
226.1614023431126
 30
0.0
 40
4.999965
100
AcDbArc
 50
194.2581329999994
 51
255.7418810000004
  0
ARC
  5
47D
330
17
100
AcDbEntity
  8
4
100
AcDbCircle
 10
489.7172056688632
 20
196.5918223431127
 30
0.0
 40
45.0
100
AcDbArc
 50
180.0003120002452
 51
0.0
  0
LINE
  5
47E
330
17
100
AcDbEntity
  8
4
100
AcDbLine
 10
582.6102756688633
 20
366.0129623431126
 30
0.0
 11
596.7750706688635
 21
234.8291273431126
 31
0.0
  0
ARC
  5
47F
330
17
100
AcDbEntity
  8
4
100
AcDbCircle
 10
639.7174506688634
 20
1093.591822343113
 30
0.0
 40
899.999995
100
AcDbArc
 50
255.742503
 51
270.00087
  0
ARC
  5
480
330
17
100
AcDbEntity
  8
4
100
AcDbCircle
 10
639.7172056688632
 20
669.0918223431127
 30
0.0
 40
300.00005
100
AcDbArc
 50
257.231215
 51
282.7704129999999
  0
ARC
  5
481
330
17
100
AcDbEntity
  8
4
100
AcDbCircle
 10
639.7172056688632
 20
664.0918223431127
 30
0.0
 40
299.99997
100
AcDbArc
 50
256.422956
 51
283.578526
  0
LINE
  5
482
330
17
100
AcDbEntity
  8
L-CENTER
 48
2.0
100
AcDbLine
 10
609.0150556688632
 20
166.5918223431127
 30
0.0
 11
670.4193556688633
 21
166.5918223431127
 31
0.0
  0
LINE
  5
484
330
17
100
AcDbEntity
  8
4
100
AcDbLine
 10
800.7172056688637
 20
86.59182234311265
 30
0.0
 11
800.7172056688637
 21
36.59182234311265
 31
0.0
  0
LWPOLYLINE
  5
485
330
17
100
AcDbEntity
  8
4
100
AcDbPolyline
 90
       50
 70
     0
 43
0.0
 10
756.6540506688634
 20
86.59182234311265
 10
757.4376956688639
 20
86.1247573431126
 10
758.1873106688636
 20
85.65675734311264
 10
758.8847806688636
 20
85.18733234311264
 10
760.4831806688635
 20
83.7655223431126
 10
760.7909256688636
 20
83.28542234311271
 10
760.9559556688637
 20
82.80141234311259
 10
760.9601506688637
 20
82.31300234311266
 10
760.7674556688635
 20
81.7701623431127
 10
760.3947406688635
 20
81.22175234311271
 10
759.8785756688635
 20
80.66813234311269
 10
757.8351156688636
 20
78.97966234311264
 10
755.8171856688637
 20
77.2573773431127
 10
755.3208756688637
 20
76.67745734311256
 10
754.9736906688636
 20
76.09522734311258
 10
754.8121956688638
 20
75.51105234311262
 10
754.8755906688634
 20
74.87233734311258
 10
755.1604856688637
 20
74.2310723431126
 10
755.6243256688635
 20
73.58659734311254
 10
757.6639306688635
 20
71.62723734311271
 10
759.7819556688637
 20
69.61501234311265
 10
760.3067906688639
 20
68.92941234311263
 10
760.6701056688635
 20
68.23528234311266
 10
760.8293456688634
 20
67.53194734311262
 10
760.7702306688634
 20
66.87614734311262
 10
760.5368356688637
 20
66.21353734311265
 10
760.1638506688637
 20
65.54565734311268
 10
758.5543706688636
 20
63.52586734311262
 10
756.9378106688637
 20
61.51432234311267
 10
756.5593156688637
 20
60.85286234311275
 10
756.3188306688635
 20
60.19849734311265
 10
756.2510606688638
 20
59.55278234311265
 10
756.5834856688634
 20
58.45384234311268
 10
757.3467856688635
 20
57.37397734311264
 10
758.3469956688637
 20
56.3015423431126
 10
759.3901356688634
 20
55.2249023431126
 10
760.2822406688638
 20
54.13240734311262
 10
760.8293456688634
 20
53.01242734311256
 10
760.9060006688633
 20
51.98594234311258
 10
760.6413106688633
 20
50.9341073431126
 10
760.1204056688634
 20
49.86253234311266
 10
757.8717406688634
 20
46.58549234311272
 10
757.1773056688635
 20
45.49107234311259
 10
756.6523156688636
 20
44.4049723431126
 10
756.3819056688635
 20
43.33280234311258
 10
756.4878206688636
 20
42.01182234311261
 10
757.0223356688634
 20
40.71549734311259
 10
757.8783006688636
 20
39.43765734311262
 10
758.9485706688638
 20
38.17214734311267
 10
760.1259906688638
 20
36.91280234311262
  0
LINE
  5
486
330
17
100
AcDbEntity
  8
4
100
AcDbLine
 10
778.7172056688637
 20
86.59182234311265
 30
0.0
 11
778.7172056688637
 21
36.59182234311265
 31
0.0
  0
ARC
  5
489
330
17
100
AcDbEntity
  8
4
100
AcDbCircle
 10
701.7172056688637
 20
50.59182234311265
 30
0.0
 40
3.0
100
AcDbArc
 50
0.0
 51
90.0
  0
ARC
  5
48A
330
17
100
AcDbEntity
  8
4
100
AcDbCircle
 10
706.7172056688637
 20
50.59182234311265
 30
0.0
 40
3.0
100
AcDbArc
 50
0.0
 51
90.0
  0
ARC
  5
48B
330
17
100
AcDbEntity
  8
4
100
AcDbCircle
 10
726.7172056688637
 20
91.59182234311265
 30
0.0
 40
5.0
100
AcDbArc
 50
180.0
 51
270.0
  0
LINE
  5
48C
330
17
100
AcDbEntity
  8
4
100
AcDbLine
 10
704.7172056688632
 20
36.59182234311265
 30
0.0
 11
704.7172056688632
 21
50.59182234311265
 31
0.0
  0
LINE
  5
48D
330
17
100
AcDbEntity
  8
4
100
AcDbLine
 10
709.7172056688632
 20
36.59182234311265
 30
0.0
 11
709.7172056688632
 21
50.59182234311265
 31
0.0
  0
LINE
  5
48E
330
17
100
AcDbEntity
  8
4
100
AcDbLine
 10
645.6454106688634
 20
78.16917234311268
 30
0.0
 11
645.6454106688634
 21
85.01447234311263
 31
0.0
  0
LINE
  5
48F
330
17
100
AcDbEntity
  8
4
100
AcDbLine
 10
633.7890056688639
 20
78.16917234311268
 30
0.0
 11
639.7172056688632
 21
74.7465223431127
 31
0.0
  0
LINE
  5
490
330
17
100
AcDbEntity
  8
4
100
AcDbLine
 10
639.7172056688632
 20
88.4371223431126
 30
0.0
 11
633.7890056688639
 21
85.01447234311263
 31
0.0
  0
LINE
  5
491
330
17
100
AcDbEntity
  8
4
100
AcDbLine
 10
633.7890056688639
 20
85.01447234311263
 30
0.0
 11
633.7890056688639
 21
78.16917234311268
 31
0.0
  0
LINE
  5
492
330
17
100
AcDbEntity
  8
L-CENTER
 48
2.0
100
AcDbLine
 10
664.79539874396
 20
81.59182234311265
 30
0.0
 11
614.6390125937669
 21
81.59182234311265
 31
0.0
  0
CIRCLE
  5
493
330
17
100
AcDbEntity
  8
4
100
AcDbCircle
 10
639.7172056688632
 20
81.59182234311265
 30
0.0
 40
9.0
  0
CIRCLE
  5
494
330
17
100
AcDbEntity
  8
2
100
AcDbCircle
 10
639.7172056688632
 20
81.59182234311265
 30
0.0
 40
8.0
  0
LINE
  5
495
330
17
100
AcDbEntity
  8
4
100
AcDbLine
 10
645.6454106688634
 20
85.01447234311263
 30
0.0
 11
639.7172056688632
 21
88.4371223431126
 31
0.0
  0
LINE
  5
496
330
17
100
AcDbEntity
  8
4
100
AcDbLine
 10
639.7172056688632
 20
74.7465223431127
 30
0.0
 11
645.6454106688634
 21
78.16917234311268
 31
0.0
  0
LINE
  5
497
330
17
100
AcDbEntity
  8
4
100
AcDbLine
 10
639.7172056688632
 20
53.59182234311265
 30
0.0
 11
706.7172056688637
 21
53.59182234311265
 31
0.0
  0
ARC
  5
49A
330
17
100
AcDbEntity
  8
4
100
AcDbCircle
 10
577.7172056688637
 20
50.59182234311265
 30
0.0
 40
3.0
100
AcDbArc
 50
90.0
 51
180.0
  0
ARC
  5
49B
330
17
100
AcDbEntity
  8
4
100
AcDbCircle
 10
572.7172056688637
 20
50.59182234311265
 30
0.0
 40
3.0
100
AcDbArc
 50
90.0
 51
180.0
  0
LINE
  5
49C
330
17
100
AcDbEntity
  8
4
100
AcDbLine
 10
569.7172056688632
 20
36.59182234311265
 30
0.0
 11
569.7172056688632
 21
50.59182234311265
 31
0.0
  0
LINE
  5
49D
330
17
100
AcDbEntity
  8
4
100
AcDbLine
 10
574.7172056688632
 20
36.59182234311265
 30
0.0
 11
574.7172056688632
 21
50.59182234311265
 31
0.0
  0
ARC
  5
49E
330
17
100
AcDbEntity
  8
4
100
AcDbCircle
 10
552.7172056688637
 20
91.59182234311265
 30
0.0
 40
5.0
100
AcDbArc
 50
270.0
 51
0.0
  0
LINE
  5
4A1
330
17
100
AcDbEntity
  8
4
100
AcDbLine
 10
569.7172056688632
 20
86.59182234311265
 30
0.0
 11
404.7172056688637
 21
86.59182234311265
 31
0.0
  0
LINE
  5
4AD
330
17
100
AcDbEntity
  8
4
100
AcDbLine
 10
639.7172056688632
 20
53.59182234311265
 30
0.0
 11
572.7172056688637
 21
53.59182234311265
 31
0.0
  0
LINE
  5
4AE
330
17
100
AcDbEntity
  8
4
100
AcDbLine
 10
444.7172056688637
 20
86.59182234311265
 30
0.0
 11
444.7172056688637
 21
196.5918223431127
 31
0.0
  0
LINE
  5
4AF
330
17
100
AcDbEntity
  8
4
100
AcDbLine
 10
557.7172056688637
 20
196.5918223431127
 30
0.0
 11
557.7172056688637
 21
91.59182234311265
 31
0.0
  0
LINE
  5
4B0
330
17
100
AcDbEntity
  8
4
100
AcDbLine
 10
569.7172056688632
 20
196.5918223431127
 30
0.0
 11
569.7172056688632
 21
50.59182234311265
 31
0.0
  0
LINE
  5
4B1
330
17
100
AcDbEntity
  8
4
100
AcDbLine
 10
534.7172056688632
 20
86.59182234311265
 30
0.0
 11
534.7172056688632
 21
196.5918223431127
 31
0.0
  0
LINE
  5
4B2
330
17
100
AcDbEntity
  8
L-CENTER
 48
2.0
100
AcDbLine
 10
489.7172056688632
 20
106.5918223431127
 30
0.0
 11
489.7172056688632
 21
16.59182234311265
 31
0.0
  0
LINE
  5
4B3
330
17
100
AcDbEntity
  8
4
100
AcDbLine
 10
624.7172056688632
 20
153.3630623431127
 30
0.0
 11
624.7172056688632
 21
81.59182234311265
 31
0.0
  0
LINE
  5
4B4
330
17
100
AcDbEntity
  8
4
100
AcDbLine
 10
654.7172056688632
 20
153.3630623431127
 30
0.0
 11
654.7172056688632
 21
81.59182234311265
 31
0.0
  0
CIRCLE
  5
4B5
330
17
100
AcDbEntity
  8
4
100
AcDbCircle
 10
639.7172056688632
 20
81.59182234311265
 30
0.0
 40
15.0
  0
LINE
  5
4B6
330
17
100
AcDbEntity
  8
4
100
AcDbLine
 10
834.7172056688637
 20
86.59182234311265
 30
0.0
 11
834.7172056688637
 21
196.5918223431127
 31
0.0
  0
LINE
  5
4B7
330
17
100
AcDbEntity
  8
4
100
AcDbLine
 10
721.7172056688637
 20
196.5918223431127
 30
0.0
 11
721.7172056688637
 21
91.59182234311265
 31
0.0
  0
LINE
  5
4B8
330
17
100
AcDbEntity
  8
4
100
AcDbLine
 10
709.7172056688632
 20
196.5918223431127
 30
0.0
 11
709.7172056688632
 21
50.59182234311265
 31
0.0
  0
LINE
  5
4B9
330
17
100
AcDbEntity
  8
4
100
AcDbLine
 10
744.7172056688632
 20
86.59182234311265
 30
0.0
 11
744.7172056688632
 21
196.5918223431127
 31
0.0
  0
LINE
  5
4BA
330
17
100
AcDbEntity
  8
L-CENTER
 48
2.0
100
AcDbLine
 10
789.7172056688637
 20
106.5918223431127
 30
0.0
 11
789.7172056688637
 21
16.59182234311265
 31
0.0
  0
LINE
  5
4BD
330
17
100
AcDbEntity
  8
4
100
AcDbLine
 10
879.7172056688637
 20
36.59182234311265
 30
0.0
 11
704.7172056688632
 21
36.59182234311265
 31
0.0
  0
ARC
  5
4BE
330
17
100
AcDbEntity
  8
4
100
AcDbCircle
 10
639.7169656688638
 20
1093.591822343113
 30
0.0
 40
899.999975
100
AcDbArc
 50
270.00087
 51
284.258813
  0
LINE
  5
4BF
330
17
100
AcDbEntity
  8
4
100
AcDbLine
 10
709.7172056688632
 20
86.59182234311265
 30
0.0
 11
874.7172056688637
 21
86.59182234311265
 31
0.0
  0
LINE
  5
4C0
330
17
100
AcDbEntity
  8
4
100
AcDbLine
 10
720.2963106688635
 20
389.4848873431126
 30
0.0
 11
851.4799006688636
 21
403.6499273431125
 31
0.0
  0
LINE
  5
4DA
330
17
100
AcDbEntity
  8
4
100
AcDbLine
 10
391.7438206688635
 20
301.5918223431127
 30
0.0
 11
386.7172056688632
 21
301.5918223431127
 31
0.0
  0
LINE
  5
4DB
330
17
100
AcDbEntity
  8
4
100
AcDbLine
 10
386.7172056688632
 20
301.5918223431127
 30
0.0
 11
370.9173056688637
 21
301.5918223431127
 31
0.0
  0
ARC
  5
4DC
330
17
100
AcDbEntity
  8
4
100
AcDbCircle
 10
362.792684544143
 20
266.6908886790648
 30
0.0
 40
3.875378875279264
100
AcDbArc
 50
134.955926762744
 51
225.044073237256
  0
LINE
  5
4DD
330
17
100
AcDbEntity
  8
4
100
AcDbLine
 10
358.9173056688637
 20
266.6908886790648
 30
0.0
 11
358.9173056688637
 21
250.2364060071604
 31
0.0
  0
LINE
  5
4DE
330
17
100
AcDbEntity
  8
4
100
AcDbLine
 10
369.9173056688637
 20
247.4939922285098
 30
0.0
 11
369.9173056688637
 21
269.4333024577154
 31
0.0
  0
LINE
  5
4DF
330
17
100
AcDbEntity
  8
4
100
AcDbLine
 10
366.9173056688637
 20
247.4939922285098
 30
0.0
 11
366.9173056688637
 21
269.4333024577154
 31
0.0
  0
LINE
  5
4E0
330
17
100
AcDbEntity
  8
4
100
AcDbLine
 10
360.0544865794905
 20
263.9484749004141
 30
0.0
 11
366.9173056688637
 21
263.9484749004141
 31
0.0
  0
LINE
  5
4E1
330
17
100
AcDbEntity
  8
4
100
AcDbLine
 10
360.0544865794905
 20
252.9788197858111
 30
0.0
 11
366.9173056688637
 21
252.9788197858111
 31
0.0
  0
ARC
  5
4E2
330
17
100
AcDbEntity
  8
4
100
AcDbCircle
 10
372.7130498040406
 20
258.4636473431126
 30
0.0
 40
13.7957441351769
100
AcDbArc
 50
156.5734024913722
 51
203.4265975086278
  0
LINE
  5
4E3
330
17
100
AcDbEntity
  8
4
100
AcDbLine
 10
360.0544865794905
 20
247.4939922285098
 30
0.0
 11
369.9173056688637
 21
247.4939922285098
 31
0.0
  0
ARC
  5
4E4
330
17
100
AcDbEntity
  8
4
100
AcDbCircle
 10
362.792684544143
 20
250.2364060071604
 30
0.0
 40
3.875378875279244
100
AcDbArc
 50
134.955926762744
 51
225.044073237256
  0
LINE
  5
4E5
330
17
100
AcDbEntity
  8
4
100
AcDbLine
 10
369.9173056688637
 20
269.4333024577154
 30
0.0
 11
360.0544865794905
 21
269.4333024577154
 31
0.0
  0
LINE
  5
4E6
330
17
100
AcDbEntity
  8
4
100
AcDbLine
 10
369.9173056688637
 20
145.6896524577154
 30
0.0
 11
360.0544865794905
 21
145.6896524577154
 31
0.0
  0
ARC
  5
4E7
330
17
100
AcDbEntity
  8
4
100
AcDbCircle
 10
362.792684544143
 20
126.4927560071604
 30
0.0
 40
3.875378875279244
100
AcDbArc
 50
134.955926762744
 51
225.044073237256
  0
LINE
  5
4E8
330
17
100
AcDbEntity
  8
4
100
AcDbLine
 10
360.0544865794905
 20
123.7503422285098
 30
0.0
 11
369.9173056688637
 21
123.7503422285098
 31
0.0
  0
ARC
  5
4E9
330
17
100
AcDbEntity
  8
4
100
AcDbCircle
 10
372.7130498040406
 20
134.7199973431126
 30
0.0
 40
13.7957441351769
100
AcDbArc
 50
156.5734024913727
 51
203.4265975086278
  0
LINE
  5
4EA
330
17
100
AcDbEntity
  8
4
100
AcDbLine
 10
360.0544865794905
 20
129.2351697858111
 30
0.0
 11
366.9173056688637
 21
129.2351697858111
 31
0.0
  0
LINE
  5
4EB
330
17
100
AcDbEntity
  8
4
100
AcDbLine
 10
360.0544865794905
 20
140.2048249004141
 30
0.0
 11
366.9173056688637
 21
140.2048249004141
 31
0.0
  0
LINE
  5
4EC
330
17
100
AcDbEntity
  8
4
100
AcDbLine
 10
366.9173056688637
 20
123.7503422285098
 30
0.0
 11
366.9173056688637
 21
145.6896524577154
 31
0.0
  0
LINE
  5
4ED
330
17
100
AcDbEntity
  8
4
100
AcDbLine
 10
369.9173056688637
 20
123.7503422285098
 30
0.0
 11
369.9173056688637
 21
145.6896524577154
 31
0.0
  0
LINE
  5
4EE
330
17
100
AcDbEntity
  8
4
100
AcDbLine
 10
358.9173056688637
 20
142.9472386790648
 30
0.0
 11
358.9173056688637
 21
126.4927560071604
 31
0.0
  0
ARC
  5
4EF
330
17
100
AcDbEntity
  8
4
100
AcDbCircle
 10
362.792684544143
 20
142.9472386790648
 30
0.0
 40
3.875378875279264
100
AcDbArc
 50
134.955926762744
 51
225.044073237256
  0
ARC
  5
4F0
330
17
100
AcDbEntity
  8
4
100
AcDbCircle
 10
391.2963106688635
 20
83.59182234311265
 30
0.0
 40
7.999960000000001
100
AcDbArc
 50
1.984992999999671
 51
90.0
  0
LINE
  5
4F1
330
17
100
AcDbEntity
  8
4
100
AcDbLine
 10
391.2963106688635
 20
91.59182234311265
 30
0.0
 11
386.7172056688632
 21
91.59182234311265
 31
0.0
  0
LINE
  5
4F2
330
17
100
AcDbEntity
  8
4
100
AcDbLine
 10
370.9173056688637
 20
91.59182234311265
 30
0.0
 11
386.7172056688632
 21
91.59182234311265
 31
0.0
  0
LINE
  5
4F3
330
17
100
AcDbEntity
  8
4
100
AcDbLine
 10
399.7172056688637
 20
36.59182234311265
 30
0.0
 11
399.7172056688637
 21
71.59182234311265
 31
0.0
  0
LINE
  5
4FA
330
17
100
AcDbEntity
  8
4
100
AcDbLine
 10
388.8778506688636
 20
384.2641873431126
 30
0.0
 11
399.7172056688637
 21
71.59182234311265
 31
0.0
  0
LINE
  5
4FB
330
17
100
AcDbEntity
  8
2
100
AcDbLine
 10
386.4172056688635
 20
301.5918223431127
 30
0.0
 11
386.4172056688635
 21
91.59182234311265
 31
0.0
  0
LINE
  5
4FC
330
17
100
AcDbEntity
  8
4
100
AcDbLine
 10
386.7172056688632
 20
301.5918223431127
 30
0.0
 11
386.7172056688632
 21
91.59182234311265
 31
0.0
  0
LINE
  5
4FD
330
17
100
AcDbEntity
  8
4
100
AcDbLine
 10
386.7172056688632
 20
91.59182234311265
 30
0.0
 11
386.7172056688632
 21
301.5918223431127
 31
0.0
  0
LINE
  5
4FE
330
17
100
AcDbEntity
  8
4
100
AcDbLine
 10
369.9173056688637
 20
300.5918223431127
 30
0.0
 11
369.9173056688637
 21
92.59182234311265
 31
0.0
  0
LINE
  5
51D
330
17
100
AcDbEntity
  8
4
100
AcDbLine
 10
399.7172056688637
 20
36.59182234311265
 30
0.0
 11
574.7172056688632
 21
36.59182234311265
 31
0.0
  0
LINE
  5
51E
330
17
100
AcDbEntity
  8
L-CENTER
 48
2.0
100
AcDbLine
 10
373.1090506688633
 20
446.5918223431127
 30
0.0
 11
906.3253606688636
 21
446.5918223431127
 31
0.0
  0
LINE
  5
51F
330
17
100
AcDbEntity
  8
L-CENTER
 48
2.0
100
AcDbLine
 10
1060.218100668863
 20
196.5918223431127
 30
0.0
 11
219.2163106688631
 21
196.5918223431128
 31
0.0
  0
LINE
  5
521
330
17
100
AcDbEntity
  8
L-CENTER
 48
2.0
100
AcDbLine
 10
354.0019117360016
 20
134.7199973431126
 30
0.0
 11
406.5990456688633
 21
134.7199973431126
 31
0.0
  0
ARC
  5
522
330
17
100
AcDbEntity
  8
4
100
AcDbCircle
 10
404.7172056688637
 20
81.59182234311265
 30
0.0
 40
5.0
100
AcDbArc
 50
90.0
 51
180.0
  0
LINE
  5
523
330
17
100
AcDbEntity
  8
L-CENTER
 48
2.0
100
AcDbLine
 10
354.0019117360016
 20
258.4636473431126
 30
0.0
 11
406.5990456688633
 21
258.4636473431126
 31
0.0
  0
LINE
  5
524
330
17
100
AcDbEntity
  8
4
100
AcDbLine
 10
559.1381056688633
 20
503.6987573431127
 30
0.0
 11
427.9545106688638
 21
489.5337173431126
 31
0.0
  0
CIRCLE
  5
525
330
17
100
AcDbEntity
  8
4
100
AcDbCircle
 10
639.7172056688632
 20
446.5918223431127
 30
0.0
 40
220.0
  0
CIRCLE
  5
526
330
17
100
AcDbEntity
  8
4
100
AcDbCircle
 10
639.7172056688632
 20
446.5918223431127
 30
0.0
 40
250.0
  0
ARC
  5
527
330
17
100
AcDbEntity
  8
4
100
AcDbCircle
 10
1286.717205668863
 20
446.5918223431127
 30
0.0
 40
900.000025
100
AcDbArc
 50
165.742793
 51
194.258123
  0
ARC
  5
528
330
17
100
AcDbEntity
  8
4
100
AcDbCircle
 10
-7.282699331136428
 20
446.5918223431127
 30
0.0
 40
900.000035
100
AcDbArc
 50
345.743515
 51
14.25813900000001
  0
ARC
  5
529
330
17
100
AcDbEntity
  8
4
100
AcDbCircle
 10
417.2174506688634
 20
446.5915773431127
 30
0.0
 40
300.000045
100
AcDbArc
 50
347.2318379999999
 51
12.769554
  0
ARC
  5
52A
330
17
100
AcDbEntity
  8
4
100
AcDbCircle
 10
422.2174506688634
 20
446.5915773431127
 30
0.0
 40
300.000065
100
AcDbArc
 50
346.423827
 51
13.577757
  0
ARC
  5
52B
330
17
100
AcDbEntity
  8
4
100
AcDbCircle
 10
862.2169656688638
 20
446.5915773431127
 30
0.0
 40
300.00001
100
AcDbArc
 50
167.231215
 51
192.769508
  0
ARC
  5
52C
330
17
100
AcDbEntity
  8
4
100
AcDbCircle
 10
857.2169656688638
 20
446.5915773431127
 30
0.0
 40
300.00005
100
AcDbArc
 50
166.4230119999999
 51
193.577711
  0
LINE
  5
52D
330
17
100
AcDbEntity
  8
L-CENTER
 48
2.0
100
AcDbLine
 10
639.7172056688632
 20
795.4359223431127
 30
0.0
 11
639.7172056688632
 21
44.15423850056345
 31
0.0
  0
LINE
  5
52E
330
17
100
AcDbEntity
  8
4
100
AcDbLine
 10
720.2963106688635
 20
503.6987573431127
 30
0.0
 11
851.4799006688636
 21
489.5337173431126
 31
0.0
  0
LINE
  5
551
330
17
100
AcDbEntity
  8
4
100
AcDbLine
 10
354.7172056688628
 20
225.5918223431127
 30
0.0
 11
236.7172056688628
 21
225.5918223431127
 31
0.0
  0
LINE
  5
552
330
17
100
AcDbEntity
  8
4
100
AcDbLine
 10
234.7172056688628
 20
230.5918223431127
 30
0.0
 11
344.7172056688628
 21
230.5918223431127
 31
0.0
  0
LINE
  5
553
330
17
100
AcDbEntity
  8
4
100
AcDbLine
 10
354.7172056688628
 20
167.5918223431127
 30
0.0
 11
236.7172056688628
 21
167.5918223431127
 31
0.0
  0
LINE
  5
554
330
17
100
AcDbEntity
  8
4
100
AcDbLine
 10
368.9173006688629
 20
241.5918223431127
 30
0.0
 11
368.9173006688629
 21
151.5918223431127
 31
0.0
  0
LINE
  5
555
330
17
100
AcDbEntity
  8
4
100
AcDbLine
 10
354.7172056688628
 20
229.0918223431127
 30
0.0
 11
354.7172056688628
 21
164.0918223431127
 31
0.0
  0
LINE
  5
556
330
17
100
AcDbEntity
  8
4
100
AcDbLine
 10
368.817300668863
 20
164.0918223431127
 30
0.0
 11
354.7172056688628
 21
164.0918223431127
 31
0.0
  0
LINE
  5
557
330
17
100
AcDbEntity
  8
4
100
AcDbLine
 10
368.9173006688629
 20
151.5918223431127
 30
0.0
 11
369.9173006688629
 21
151.5918223431127
 31
0.0
  0
LINE
  5
558
330
17
100
AcDbEntity
  8
4
100
AcDbLine
 10
369.9173006688629
 20
151.5918223431127
 30
0.0
 11
368.9173006688629
 21
151.5918223431127
 31
0.0
  0
LINE
  5
559
330
17
100
AcDbEntity
  8
4
100
AcDbLine
 10
354.7172056688628
 20
229.0918223431127
 30
0.0
 11
368.817300668863
 21
229.0918223431127
 31
0.0
  0
LINE
  5
55A
330
17
100
AcDbEntity
  8
4
100
AcDbLine
 10
368.9173006688629
 20
241.5918223431127
 30
0.0
 11
369.9173006688629
 21
241.5918223431127
 31
0.0
  0
LINE
  5
55B
330
17
100
AcDbEntity
  8
4
100
AcDbLine
 10
344.7172056688628
 20
230.5918223431127
 30
0.0
 11
344.7172056688628
 21
225.5918223431127
 31
0.0
  0
LINE
  5
55C
330
17
100
AcDbEntity
  8
4
100
AcDbLine
 10
234.7172056688628
 20
230.5918223431127
 30
0.0
 11
234.7172056688628
 21
169.5918223431127
 31
0.0
  0
LINE
  5
55D
330
17
100
AcDbEntity
  8
4
100
AcDbLine
 10
236.7172056688628
 20
225.5918223431127
 30
0.0
 11
236.7172056688628
 21
167.5918223431127
 31
0.0
  0
LINE
  5
55E
330
17
100
AcDbEntity
  8
4
100
AcDbLine
 10
236.7172056688628
 20
167.5918223431127
 30
0.0
 11
234.7172056688628
 21
169.5918223431127
 31
0.0
  0
LINE
  5
55F
330
17
100
AcDbEntity
  8
4
100
AcDbLine
 10
234.7172056688628
 20
223.5918223431127
 30
0.0
 11
236.7172056688628
 21
225.5918223431127
 31
0.0
  0
LINE
  5
579
330
17
100
AcDbEntity
  8
4
100
AcDbLine
 10
352.7172056688632
 20
1472.457641722434
 30
0.0
 11
236.7172056688632
 21
1472.457641722434
 31
0.0
  0
LINE
  5
57A
330
17
100
AcDbEntity
  8
4
100
AcDbLine
 10
337.2172056688632
 20
1450.957641722434
 30
0.0
 11
234.7172056688632
 21
1450.957641722434
 31
0.0
  0
LINE
  5
57B
330
17
100
AcDbEntity
  8
4
100
AcDbLine
 10
337.2172056688632
 20
1435.957641722434
 30
0.0
 11
234.7172056688632
 21
1435.957641722434
 31
0.0
  0
LINE
  5
57C
330
17
100
AcDbEntity
  8
4
100
AcDbLine
 10
352.7172056688632
 20
1414.457641722434
 30
0.0
 11
236.7172056688632
 21
1414.457641722434
 31
0.0
  0
LINE
  5
57D
330
17
100
AcDbEntity
  8
4
100
AcDbLine
 10
354.7172056688632
 20
1475.957641722434
 30
0.0
 11
354.7172056688632
 21
1410.957641722434
 31
0.0
  0
LINE
  5
57E
330
17
100
AcDbEntity
  8
4
100
AcDbLine
 10
368.9173006688634
 20
1488.457641722434
 30
0.0
 11
368.9173006688634
 21
1398.457641722434
 31
0.0
  0
LINE
  5
57F
330
17
100
AcDbEntity
  8
4
100
AcDbLine
 10
368.9173006688634
 20
1410.957641722435
 30
0.0
 11
354.7172056688632
 21
1410.957641722434
 31
0.0
  0
LINE
  5
580
330
17
100
AcDbEntity
  8
4
100
AcDbLine
 10
369.9173006688634
 20
1398.457641722434
 30
0.0
 11
368.9173006688634
 21
1398.457641722434
 31
0.0
  0
LINE
  5
581
330
17
100
AcDbEntity
  8
4
100
AcDbLine
 10
368.9173006688634
 20
1398.457641722434
 30
0.0
 11
369.9173006688634
 21
1398.457641722434
 31
0.0
  0
ARC
  5
582
330
17
100
AcDbEntity
  8
4
100
AcDbCircle
 10
352.7172056688632
 20
1412.457641722434
 30
0.0
 40
2.0
100
AcDbArc
 50
0.0
 51
90.0
  0
ARC
  5
583
330
17
100
AcDbEntity
  8
4
100
AcDbCircle
 10
352.7172056688632
 20
1474.457641722434
 30
0.0
 40
2.0
100
AcDbArc
 50
270.0
 51
0.0
  0
ARC
  5
584
330
17
100
AcDbEntity
  8
4
100
AcDbCircle
 10
337.2172056688632
 20
1443.457641722434
 30
0.0
 40
7.5
100
AcDbArc
 50
270.0
 51
90.0
  0
LINE
  5
585
330
17
100
AcDbEntity
  8
4
100
AcDbLine
 10
368.9173006688634
 20
1475.957641722435
 30
0.0
 11
354.7172056688632
 21
1475.957641722434
 31
0.0
  0
LINE
  5
586
330
17
100
AcDbEntity
  8
4
100
AcDbLine
 10
368.9173006688634
 20
1488.457641722434
 30
0.0
 11
369.9173006688634
 21
1488.457641722434
 31
0.0
  0
LINE
  5
587
330
17
100
AcDbEntity
  8
4
100
AcDbLine
 10
236.7172056688632
 20
1435.957641722434
 30
0.0
 11
236.7172056688632
 21
1414.457641722434
 31
0.0
  0
LINE
  5
588
330
17
100
AcDbEntity
  8
4
100
AcDbLine
 10
234.7172056688632
 20
1470.457641722434
 30
0.0
 11
234.7172056688632
 21
1416.457641722434
 31
0.0
  0
LINE
  5
589
330
17
100
AcDbEntity
  8
4
100
AcDbLine
 10
236.7172056688632
 20
1414.457641722434
 30
0.0
 11
234.7172056688632
 21
1416.457641722434
 31
0.0
  0
LINE
  5
58A
330
17
100
AcDbEntity
  8
4
100
AcDbLine
 10
236.7172056688632
 20
1472.457641722434
 30
0.0
 11
234.7172056688632
 21
1470.457641722434
 31
0.0
  0
LINE
  5
58B
330
17
100
AcDbEntity
  8
4
100
AcDbLine
 10
236.7172056688632
 20
1472.457641722434
 30
0.0
 11
236.7172056688632
 21
1450.957641722434
 31
0.0
  0
LINE
  5
58D
330
17
100
AcDbEntity
  8
4
100
AcDbLine
 10
1598.099387599991
 20
496.5918223431127
 30
0.0
 11
1598.099387599991
 21
396.5918223431127
 31
0.0
  0
LINE
  5
58E
330
17
100
AcDbEntity
  8
4
100
AcDbLine
 10
1432.099387599991
 20
491.5918223431127
 30
0.0
 11
1582.099387599991
 21
491.5918223431127
 31
0.0
  0
LINE
  5
58F
330
17
100
AcDbEntity
  8
4
100
AcDbLine
 10
1592.099387599991
 20
485.5918223431127
 30
0.0
 11
1434.099387599991
 21
485.5918223431127
 31
0.0
  0
LINE
  5
590
330
17
100
AcDbEntity
  8
4
100
AcDbLine
 10
1592.099387599991
 20
407.5918223431127
 30
0.0
 11
1434.099387599991
 21
407.5918223431127
 31
0.0
  0
LINE
  5
591
330
17
100
AcDbEntity
  8
4
100
AcDbLine
 10
1592.099387599991
 20
486.5918223431127
 30
0.0
 11
1592.099387599991
 21
406.5918223431127
 31
0.0
  0
LINE
  5
592
330
17
100
AcDbEntity
  8
4
100
AcDbLine
 10
1599.099387599991
 20
396.5918223431127
 30
0.0
 11
1598.099387599991
 21
396.5918223431127
 31
0.0
  0
LINE
  5
593
330
17
100
AcDbEntity
  8
4
100
AcDbLine
 10
1598.099387599991
 20
406.5918223431127
 30
0.0
 11
1592.099387599991
 21
406.5918223431127
 31
0.0
  0
LINE
  5
594
330
17
100
AcDbEntity
  8
4
100
AcDbLine
 10
1592.099387599991
 20
486.5918223431127
 30
0.0
 11
1598.099387599991
 21
486.5918223431127
 31
0.0
  0
LINE
  5
595
330
17
100
AcDbEntity
  8
4
100
AcDbLine
 10
1582.099387599991
 20
491.5918223431127
 30
0.0
 11
1582.099387599991
 21
485.5918223431127
 31
0.0
  0
LINE
  5
596
330
17
100
AcDbEntity
  8
4
100
AcDbLine
 10
1434.099387599991
 20
485.5918223431127
 30
0.0
 11
1434.099387599991
 21
407.5918223431127
 31
0.0
  0
LINE
  5
597
330
17
100
AcDbEntity
  8
4
100
AcDbLine
 10
1432.099387599991
 20
491.5918223431127
 30
0.0
 11
1432.099387599991
 21
409.5918223431127
 31
0.0
  0
LINE
  5
598
330
17
100
AcDbEntity
  8
4
100
AcDbLine
 10
1434.099387599991
 20
407.5918223431127
 30
0.0
 11
1432.099387599991
 21
409.5918223431127
 31
0.0
  0
LINE
  5
599
330
17
100
AcDbEntity
  8
4
100
AcDbLine
 10
1432.099387599991
 20
483.5918223431127
 30
0.0
 11
1434.099387599991
 21
485.5918223431127
 31
0.0
  0
LINE
  5
59C
330
17
100
AcDbEntity
  8
4
100
AcDbLine
 10
1599.099387599991
 20
496.5918223431127
 30
0.0
 11
1598.099387599991
 21
496.5918223431127
 31
0.0
  0
LINE
  5
5B5
330
17
100
AcDbEntity
  8
4
100
AcDbLine
 10
678.7172056688632
 20
1252.457641722433
 30
0.0
 11
678.7172056688632
 21
1095.457641722433
 31
0.0
  0
LINE
  5
5B6
330
17
100
AcDbEntity
  8
4
100
AcDbLine
 10
649.7172056688632
 20
1093.457641722434
 30
0.0
 11
649.7172056688632
 21
1233.457641722434
 31
0.0
  0
LINE
  5
5B7
330
17
100
AcDbEntity
  8
4
100
AcDbLine
 10
629.7172056688632
 20
1093.457641722434
 30
0.0
 11
629.7172056688632
 21
1233.457641722434
 31
0.0
  0
LINE
  5
5B8
330
17
100
AcDbEntity
  8
4
100
AcDbLine
 10
600.7172056688632
 20
1252.457641722433
 30
0.0
 11
600.7172056688632
 21
1095.457641722434
 31
0.0
  0
LINE
  5
5B9
330
17
100
AcDbEntity
  8
4
100
AcDbLine
 10
599.7172056688632
 20
1253.457641722433
 30
0.0
 11
679.7172056688632
 21
1253.457641722433
 31
0.0
  0
LINE
  5
5BA
330
17
100
AcDbEntity
  8
4
100
AcDbLine
 10
589.7172056688632
 20
1259.457641722434
 30
0.0
 11
689.7172056688632
 21
1259.457641722434
 31
0.0
  0
LINE
  5
5BB
330
17
100
AcDbEntity
  8
4
100
AcDbLine
 10
589.7172056688632
 20
1260.457641722434
 30
0.0
 11
589.7172056688632
 21
1259.457641722434
 31
0.0
  0
ARC
  5
5BC
330
17
100
AcDbEntity
  8
4
100
AcDbCircle
 10
599.7172056688632
 20
1252.457641722433
 30
0.0
 40
1.0
100
AcDbArc
 50
0.0
 51
90.0
  0
LINE
  5
5BD
330
17
100
AcDbEntity
  8
4
100
AcDbLine
 10
599.7172056688632
 20
1253.457641722433
 30
0.0
 11
599.7172056688632
 21
1253.457641722433
 31
0.0
  0
LINE
  5
5BE
330
17
100
AcDbEntity
  8
4
100
AcDbLine
 10
599.7172056688632
 20
1259.457641722434
 30
0.0
 11
599.7172056688632
 21
1253.457641722433
 31
0.0
  0
ARC
  5
5BF
330
17
100
AcDbEntity
  8
4
100
AcDbCircle
 10
639.7172056688632
 20
1233.457641722434
 30
0.0
 40
10.0
100
AcDbArc
 50
0.0
 51
180.0
  0
LINE
  5
5C0
330
17
100
AcDbEntity
  8
4
100
AcDbLine
 10
679.7172056688632
 20
1253.457641722433
 30
0.0
 11
679.7172056688632
 21
1253.457641722433
 31
0.0
  0
ARC
  5
5C1
330
17
100
AcDbEntity
  8
4
100
AcDbCircle
 10
679.7172056688632
 20
1252.457641722433
 30
0.0
 40
1.0
100
AcDbArc
 50
90.0
 51
180.0
  0
LINE
  5
5C2
330
17
100
AcDbEntity
  8
4
100
AcDbLine
 10
679.7172056688632
 20
1259.457641722434
 30
0.0
 11
679.7172056688632
 21
1253.457641722433
 31
0.0
  0
LINE
  5
5C3
330
17
100
AcDbEntity
  8
4
100
AcDbLine
 10
689.7172056688632
 20
1260.457641722434
 30
0.0
 11
689.7172056688632
 21
1259.457641722434
 31
0.0
  0
LINE
  5
5C4
330
17
100
AcDbEntity
  8
4
100
AcDbLine
 10
600.7172056688632
 20
1095.457641722434
 30
0.0
 11
629.7172056688632
 21
1095.457641722433
 31
0.0
  0
LINE
  5
5C5
330
17
100
AcDbEntity
  8
4
100
AcDbLine
 10
602.7172056688632
 20
1093.457641722434
 30
0.0
 11
676.7172056688632
 21
1093.457641722433
 31
0.0
  0
LINE
  5
5C6
330
17
100
AcDbEntity
  8
4
100
AcDbLine
 10
600.7172056688632
 20
1095.457641722434
 30
0.0
 11
602.7172056688632
 21
1093.457641722434
 31
0.0
  0
LINE
  5
5C7
330
17
100
AcDbEntity
  8
4
100
AcDbLine
 10
649.7172056688632
 20
1095.457641722433
 30
0.0
 11
678.7172056688632
 21
1095.457641722433
 31
0.0
  0
LINE
  5
5C8
330
17
100
AcDbEntity
  8
4
100
AcDbLine
 10
678.7172056688632
 20
1095.457641722433
 30
0.0
 11
676.7172056688632
 21
1093.457641722433
 31
0.0
  0
CIRCLE
  5
5CD
330
17
100
AcDbEntity
  8
4
100
AcDbCircle
 10
639.7172056688632
 20
446.5918223431127
 30
0.0
 40
50.0
  0
LINE
  5
5CE
330
17
100
AcDbEntity
  8
4
100
AcDbLine
 10
649.7172056688632
 20
478.5918223431127
 30
0.0
 11
649.7172056688632
 21
491.5918223431124
 31
0.0
  0
LINE
  5
5CF
330
17
100
AcDbEntity
  8
4
100
AcDbLine
 10
629.7172056688632
 20
478.5918223431127
 30
0.0
 11
629.7172056688632
 21
491.5918223431124
 31
0.0
  0
ARC
  5
5D0
330
17
100
AcDbEntity
  8
4
100
AcDbCircle
 10
639.7172056688632
 20
446.5918223431127
 30
0.0
 40
38.99999
100
AcDbArc
 50
104.8571694421992
 51
75.14283299999987
  0
LINE
  5
5D1
330
17
100
AcDbEntity
  8
4
100
AcDbLine
 10
629.7172056688632
 20
478.5918223431127
 30
0.0
 11
649.7172056688632
 21
478.5918223431127
 31
0.0
  0
LINE
  5
5D2
330
17
100
AcDbEntity
  8
4
100
AcDbLine
 10
649.7172056688632
 20
491.5918223431124
 30
0.0
 11
629.7172056688632
 21
491.5918223431124
 31
0.0
  0
ENDSEC
  0
SECTION
  2
OBJECTS
  0
DICTIONARY
  5
5
330
0
100
AcDbDictionary
281
     1
  3
ACAD_COLOR
350
28
  3
ACAD_GROUP
350
26
  3
ACAD_LAYOUT
350
1E
  3
ACAD_MATERIAL
350
7
  3
ACAD_MLEADERSTYLE
350
532
  3
ACAD_MLINESTYLE
350
15
  3
ACAD_PLOTSETTINGS
350
27
  3
ACAD_PLOTSTYLENAME
350
4
  3
ACAD_SCALELIST
350
2C
  3
ACAD_TABLESTYLE
350
531
  3
ACAD_VISUALSTYLE
350
29
  3
ACDBHEADERROUNDTRIPXREC
350
606
  3
AcDbVariableDictionary
350
52F
  3
DWGPROPS
350
609
  0
DICTIONARY
  5
60A
330
25
100
AcDbDictionary
280
     1
281
     1
  3
ACAD_XREC_ROUNDTRIP
360
60B
  0
DICTIONARY
  5
18
330
17
100
AcDbDictionary
280
     1
281
     1
  3
ACAD_SORTENTS
360
19
  0
DICTIONARY
  5
28
102
{ACAD_REACTORS
330
5
102
}
330
5
100
AcDbDictionary
281
     1
  0
DICTIONARY
  5
26
102
{ACAD_REACTORS
330
5
102
}
330
5
100
AcDbDictionary
281
     1
  0
DICTIONARY
  5
1E
102
{ACAD_REACTORS
330
5
102
}
330
5
100
AcDbDictionary
281
     1
  3
Model
350
1D
  3
ﾚｲｱｳﾄ1
350
22
  0
DICTIONARY
  5
7
102
{ACAD_REACTORS
330
5
102
}
330
5
100
AcDbDictionary
281
     1
  3
ByBlock
350
4F
  3
ByLayer
350
10
  3
Global
350
6
  0
DICTIONARY
  5
532
102
{ACAD_REACTORS
330
5
102
}
330
5
100
AcDbDictionary
281
     1
  3
Standard
350
5D5
  0
DICTIONARY
  5
15
102
{ACAD_REACTORS
330
5
102
}
330
5
100
AcDbDictionary
281
     1
  3
STANDARD
350
14
  0
DICTIONARY
  5
27
102
{ACAD_REACTORS
330
5
102
}
330
5
100
AcDbDictionary
281
     1
  0
ACDBDICTIONARYWDFLT
  5
4
102
{ACAD_REACTORS
330
5
102
}
330
5
100
AcDbDictionary
281
     1
  3
Normal
350
3
100
AcDbDictionaryWithDefault
340
3
  0
DICTIONARY
  5
2C
102
{ACAD_REACTORS
330
5
102
}
330
5
100
AcDbDictionary
281
     1
  3
*A1
350
4E
  0
DICTIONARY
  5
531
102
{ACAD_REACTORS
330
5
102
}
330
5
100
AcDbDictionary
281
     1
  3
Standard
350
602
  0
DICTIONARY
  5
29
102
{ACAD_REACTORS
330
5
102
}
330
5
100
AcDbDictionary
281
     1
  3
2dWireframe
350
53A
  3
Basic
350
53D
  3
Brighten
350
541
  3
ColorChange
350
545
  3
Conceptual
350
53F
  3
Dim
350
540
  3
EdgeColorOff
350
548
  3
Facepattern
350
544
  3
Flat
350
536
  3
FlatWithEdges
350
537
  3
Gouraud
350
538
  3
GouraudWithEdges
350
539
  3
Hidden
350
53C
  3
JitterOff
350
546
  3
Linepattern
350
543
  3
OverhangOff
350
547
  3
Realistic
350
53E
  3
Shaded
350
54D
  3
Shaded with edges
350
54C
  3
Shades of Gray
350
549
  3
Sketchy
350
54A
  3
Thicken
350
542
  3
Wireframe
350
53B
  3
X-Ray
350
54B
  0
DICTIONARY
  5
606
102
{ACAD_REACTORS
330
5
102
}
330
5
100
AcDbDictionary
281
     1
  3
COLORDICT
350
607
  3
MATERIALDICT
350
608
  0
DICTIONARY
  5
52F
102
{ACAD_REACTORS
330
5
102
}
330
5
100
AcDbDictionary
281
     1
  3
CANNOSCALE
350
530
  3
CMLEADERSTYLE
350
5D7
  3
CTABLESTYLE
350
603
  3
DIMASSOC
350
604
  3
HIDETEXT
350
605
  3
MSLTSCALE
350
60C
  3
XCLIPFRAME
350
533
  0
XRECORD
  5
609
102
{ACAD_REACTORS
330
5
102
}
330
5
100
AcDbXrecord
280
     1
  1
DWGPROPS COOKIE
  2

  3

  4

  6

  7

  8
sg-d04
  9

300
=
301
=
302
=
303
=
304
=
305
=
306
=
307
=
308
=
309
=
 40
0.0
 41
2457464.410841493
 42
2457871.446450613
  1

 90
        0
  0
XRECORD
  5
60B
102
{ACAD_REACTORS
330
60A
102
}
330
60A
100
AcDbXrecord
280
     1
102
VTR_0.000_0.000_1.000_1.000_VISUALSTYLE
340
53A
102
VTR_0.000_0.000_1.000_1.000_GRIDDISPLAY
 70
     3
102
VTR_0.000_0.000_1.000_1.000_GRIDMAJOR
 70
     5
102
VTR_0.000_0.000_1.000_1.000_DEFAULTLIGHTING
280
     1
102
VTR_0.000_0.000_1.000_1.000_DEFAULTLIGHTINGTYPE
 70
     1
102
VTR_0.000_0.000_1.000_1.000_BRIGHTNESS
141
0.0
102
VTR_0.000_0.000_1.000_1.000_CONTRAST
142
0.0
  0
SORTENTSTABLE
  5
19
102
{ACAD_REACTORS
330
18
102
}
330
18
100
AcDbSortentsTable
330
17
331
0
  5
4CA
331
7B
  5
4D1
331
7E
  5
4D0
331
80
  5
4CF
331
81
  5
4CE
331
82
  5
4CD
331
83
  5
4CC
331
84
  5
4CB
331
1BE
  5
393
331
1BF
  5
392
331
1C0
  5
391
331
1C1
  5
390
331
1C2
  5
38F
331
1C3
  5
38E
331
1C4
  5
38D
331
1C5
  5
38C
331
1C6
  5
38B
331
1C9
  5
388
331
1CA
  5
387
331
1CB
  5
386
331
1CC
  5
385
331
1CD
  5
384
331
1CE
  5
383
331
1CF
  5
382
331
1D0
  5
381
331
1D1
  5
380
331
1D2
  5
37F
331
1D3
  5
37E
331
1D4
  5
37D
331
1D5
  5
37C
331
1D6
  5
37B
331
1D7
  5
37A
331
1D8
  5
379
331
1D9
  5
378
331
1DA
  5
377
331
1DB
  5
376
331
1DC
  5
375
331
1DD
  5
374
331
1DE
  5
373
331
1DF
  5
372
331
1E0
  5
371
331
1E1
  5
370
331
1E2
  5
36F
331
1E3
  5
36E
331
1E4
  5
36D
331
1E5
  5
36C
331
1E6
  5
36B
331
1E7
  5
36A
331
1E8
  5
369
331
1E9
  5
368
331
1EA
  5
367
331
1EB
  5
366
331
1EC
  5
365
331
1ED
  5
364
331
1EE
  5
363
331
1EF
  5
362
331
1F0
  5
361
331
1F1
  5
360
331
1F2
  5
35F
331
1F3
  5
35E
331
1F4
  5
35D
331
1F5
  5
35C
331
1F6
  5
35B
331
1F7
  5
35A
331
1F8
  5
359
331
1FE
  5
353
331
208
  5
349
331
20A
  5
347
331
20B
  5
346
331
20D
  5
344
331
20E
  5
343
331
20F
  5
342
331
213
  5
33E
331
214
  5
33D
331
215
  5
33C
331
216
  5
33B
331
217
  5
33A
331
218
  5
339
331
219
  5
338
331
21A
  5
337
331
21B
  5
336
331
21C
  5
335
331
21D
  5
334
331
21E
  5
333
331
21F
  5
332
331
220
  5
331
331
221
  5
330
331
222
  5
32F
331
223
  5
32E
331
224
  5
32D
331
225
  5
32C
331
226
  5
32B
331
227
  5
32A
331
228
  5
329
331
229
  5
328
331
22A
  5
327
331
22B
  5
326
331
22C
  5
325
331
22D
  5
324
331
22E
  5
323
331
22F
  5
322
331
230
  5
321
331
231
  5
320
331
232
  5
31F
331
233
  5
31E
331
234
  5
31D
331
235
  5
31C
331
236
  5
31B
331
237
  5
31A
331
238
  5
319
331
239
  5
318
331
23A
  5
317
331
23B
  5
316
331
23C
  5
315
331
23D
  5
314
331
23E
  5
313
331
23F
  5
312
331
240
  5
311
331
241
  5
310
331
242
  5
30F
331
243
  5
30E
331
244
  5
30D
331
245
  5
30C
331
246
  5
30B
331
247
  5
30A
331
248
  5
309
331
249
  5
308
331
24A
  5
307
331
24B
  5
306
331
24C
  5
305
331
24D
  5
304
331
24E
  5
303
331
24F
  5
302
331
250
  5
301
331
251
  5
300
331
252
  5
2FF
331
253
  5
2FE
331
254
  5
2FD
331
25B
  5
2F6
331
25C
  5
2F5
331
25D
  5
2F4
331
25E
  5
2F3
331
25F
  5
2F2
331
260
  5
2F1
331
261
  5
2F0
331
262
  5
2EF
331
263
  5
2EE
331
264
  5
2ED
331
265
  5
2EC
331
275
  5
2DC
331
276
  5
2DB
331
277
  5
2DA
331
284
  5
2CD
331
285
  5
2CC
331
286
  5
2CB
331
288
  5
2C9
331
28A
  5
2C7
331
28B
  5
2C6
331
28C
  5
2C5
331
28D
  5
2C4
331
28E
  5
2C3
331
28F
  5
2C2
331
291
  5
2C0
331
292
  5
2BF
331
293
  5
2BE
331
294
  5
2BD
331
295
  5
2BC
331
297
  5
2BA
331
298
  5
2B9
331
299
  5
2B8
331
29A
  5
2B7
331
29B
  5
2B6
331
29C
  5
2B5
331
29D
  5
2B4
331
29E
  5
2B3
331
29F
  5
2B2
331
2A0
  5
2B1
331
2A2
  5
2AF
331
2A3
  5
2AE
331
2A4
  5
2AD
331
2A5
  5
2AC
331
2A6
  5
2AB
331
2A7
  5
2AA
331
2A8
  5
2A9
331
2A9
  5
2A8
331
2AA
  5
2A7
331
2AB
  5
2A6
331
2AC
  5
2A5
331
2AD
  5
2A4
331
2AE
  5
2A3
331
2AF
  5
2A2
331
2B0
  5
2A1
331
2B1
  5
2A0
331
2B2
  5
29F
331
2B3
  5
29E
331
2B4
  5
29D
331
2B5
  5
29C
331
2B6
  5
29B
331
2B7
  5
29A
331
2B8
  5
299
331
2B9
  5
298
331
2BA
  5
297
331
2BB
  5
296
331
2BC
  5
295
331
2BD
  5
294
331
2BE
  5
293
331
2BF
  5
292
331
2C0
  5
291
331
2C1
  5
290
331
2C2
  5
28F
331
2C3
  5
28E
331
2C4
  5
28D
331
2C5
  5
28C
331
2C6
  5
28B
331
2C7
  5
28A
331
2C8
  5
289
331
2C9
  5
288
331
2CA
  5
287
331
2CB
  5
286
331
2CC
  5
285
331
2CD
  5
284
331
2CE
  5
283
331
2CF
  5
282
331
2D0
  5
281
331
2D1
  5
280
331
2D2
  5
27F
331
2D3
  5
27E
331
2D4
  5
27D
331
2D5
  5
27C
331
2D6
  5
27B
331
2D7
  5
27A
331
2D8
  5
279
331
2D9
  5
278
331
2DA
  5
277
331
2DB
  5
276
331
2DC
  5
275
331
2DD
  5
274
331
2DE
  5
273
331
2DF
  5
272
331
2E0
  5
271
331
2E1
  5
270
331
2E2
  5
26F
331
2E3
  5
26E
331
2E4
  5
26D
331
2E5
  5
26C
331
2EB
  5
266
331
2EC
  5
265
331
2ED
  5
264
331
2EE
  5
263
331
2EF
  5
262
331
2F0
  5
261
331
2F1
  5
260
331
2F2
  5
25F
331
2F3
  5
25E
331
2F4
  5
25D
331
2F5
  5
25C
331
2F6
  5
25B
331
2F7
  5
25A
331
2F8
  5
259
331
2F9
  5
258
331
2FE
  5
253
331
2FF
  5
252
331
300
  5
251
331
301
  5
250
331
302
  5
24F
331
303
  5
24E
331
304
  5
24D
331
305
  5
24C
331
306
  5
24B
331
307
  5
24A
331
308
  5
249
331
309
  5
248
331
30A
  5
247
331
30B
  5
246
331
30C
  5
245
331
30D
  5
244
331
30E
  5
243
331
312
  5
23F
331
313
  5
23E
331
314
  5
23D
331
315
  5
23C
331
316
  5
23B
331
317
  5
23A
331
318
  5
239
331
319
  5
238
331
31A
  5
237
331
31B
  5
236
331
31C
  5
235
331
31D
  5
234
331
31E
  5
233
331
31F
  5
232
331
320
  5
231
331
321
  5
230
331
322
  5
22F
331
323
  5
22E
331
324
  5
22D
331
325
  5
22C
331
326
  5
22B
331
327
  5
22A
331
328
  5
229
331
329
  5
228
331
32A
  5
227
331
32B
  5
226
331
32C
  5
225
331
32D
  5
224
331
32E
  5
223
331
32F
  5
222
331
330
  5
221
331
331
  5
220
331
332
  5
21F
331
333
  5
21E
331
334
  5
21D
331
335
  5
21C
331
336
  5
21B
331
337
  5
21A
331
338
  5
219
331
339
  5
218
331
33F
  5
212
331
340
  5
211
331
341
  5
210
331
342
  5
20F
331
343
  5
20E
331
344
  5
20D
331
345
  5
20C
331
346
  5
20B
331
347
  5
20A
331
348
  5
209
331
349
  5
208
331
34A
  5
207
331
34B
  5
206
331
34C
  5
205
331
34D
  5
204
331
34E
  5
203
331
34F
  5
202
331
350
  5
201
331
351
  5
200
331
352
  5
1FF
331
353
  5
1FE
331
354
  5
1FD
331
355
  5
1FC
331
356
  5
1FB
331
357
  5
1FA
331
358
  5
1F9
331
359
  5
1F8
331
35A
  5
1F7
331
35B
  5
1F6
331
35C
  5
1F5
331
35D
  5
1F4
331
35E
  5
1F3
331
35F
  5
1F2
331
360
  5
1F1
331
361
  5
1F0
331
362
  5
1EF
331
363
  5
1EE
331
364
  5
1ED
331
365
  5
1EC
331
366
  5
1EB
331
367
  5
1EA
331
368
  5
1E9
331
369
  5
1E8
331
36A
  5
1E7
331
36B
  5
1E6
331
36C
  5
1E5
331
36D
  5
1E4
331
36E
  5
1E3
331
36F
  5
1E2
331
370
  5
1E1
331
371
  5
1E0
331
372
  5
1DF
331
373
  5
1DE
331
374
  5
1DD
331
375
  5
1DC
331
376
  5
1DB
331
377
  5
1DA
331
378
  5
1D9
331
379
  5
1D8
331
37A
  5
1D7
331
37B
  5
1D6
331
37C
  5
1D5
331
37D
  5
1D4
331
37E
  5
1D3
331
37F
  5
1D2
331
380
  5
1D1
331
381
  5
1D0
331
382
  5
1CF
331
383
  5
1CE
331
384
  5
1CD
331
385
  5
1CC
331
386
  5
1CB
331
387
  5
1CA
331
388
  5
1C9
331
389
  5
1C8
331
38A
  5
1C7
331
38B
  5
1C6
331
38C
  5
1C5
331
38D
  5
1C4
331
38E
  5
1C3
331
38F
  5
1C2
331
390
  5
1C1
331
391
  5
1C0
331
392
  5
1BF
331
393
  5
1BE
331
394
  5
1BD
331
395
  5
1BC
331
396
  5
1BB
331
397
  5
1BA
331
398
  5
1B9
331
399
  5
1B8
331
39A
  5
1B7
331
39B
  5
1B6
331
39C
  5
1B5
331
39D
  5
1B4
331
39E
  5
1B3
331
39F
  5
1B2
331
3A0
  5
1B1
331
3A1
  5
1B0
331
3A2
  5
1AF
331
3A3
  5
1AE
331
3A4
  5
1AD
331
3A5
  5
1AC
331
3A6
  5
1AB
331
3A7
  5
1AA
331
3A8
  5
1A9
331
3A9
  5
1A8
331
3AA
  5
1A7
331
3AB
  5
1A6
331
3AC
  5
1A5
331
3AD
  5
1A4
331
3AE
  5
1A3
331
3AF
  5
1A2
331
3B0
  5
1A1
331
3B1
  5
1A0
331
3B2
  5
19F
331
3B3
  5
19E
331
3B4
  5
19D
331
3B5
  5
19C
331
3B6
  5
19B
331
3B7
  5
19A
331
3B8
  5
199
331
3B9
  5
198
331
3BA
  5
197
331
3BB
  5
196
331
3BC
  5
195
331
3BD
  5
194
331
3BE
  5
193
331
3BF
  5
192
331
3C0
  5
191
331
3C1
  5
190
331
3C2
  5
18F
331
3C3
  5
18E
331
3C4
  5
18D
331
3C5
  5
18C
331
3C6
  5
18B
331
3C7
  5
18A
331
3C8
  5
189
331
3C9
  5
188
331
3CA
  5
187
331
3CB
  5
186
331
3CC
  5
185
331
3CD
  5
184
331
3CE
  5
183
331
3CF
  5
182
331
3D0
  5
181
331
3D1
  5
180
331
3D2
  5
17F
331
3D3
  5
17E
331
3D4
  5
17D
331
3D5
  5
17C
331
3D6
  5
17B
331
3D7
  5
17A
331
3D8
  5
179
331
3D9
  5
178
331
3DA
  5
177
331
3DB
  5
176
331
3DC
  5
175
331
3DD
  5
174
331
3DE
  5
173
331
3DF
  5
172
331
3E0
  5
171
331
3E1
  5
170
331
3E2
  5
16F
331
3E3
  5
16E
331
3E4
  5
16D
331
3E5
  5
16C
331
3E6
  5
16B
331
3E7
  5
16A
331
3E8
  5
169
331
3E9
  5
168
331
3EA
  5
167
331
3EB
  5
166
331
3EC
  5
165
331
3ED
  5
164
331
3EE
  5
163
331
3EF
  5
162
331
3F0
  5
161
331
3F1
  5
160
331
3F2
  5
15F
331
3F3
  5
15E
331
3F4
  5
15D
331
3F5
  5
15C
331
3F6
  5
15B
331
3F7
  5
15A
331
3F8
  5
159
331
3F9
  5
158
331
3FA
  5
157
331
3FB
  5
156
331
3FC
  5
155
331
3FD
  5
154
331
3FE
  5
153
331
3FF
  5
152
331
400
  5
151
331
401
  5
150
331
402
  5
14F
331
403
  5
14E
331
404
  5
14D
331
405
  5
14C
331
406
  5
14B
331
407
  5
14A
331
408
  5
149
331
409
  5
148
331
40A
  5
147
331
40B
  5
146
331
40C
  5
145
331
40D
  5
144
331
40E
  5
143
331
40F
  5
142
331
410
  5
141
331
411
  5
140
331
412
  5
13F
331
413
  5
13E
331
414
  5
13D
331
415
  5
13C
331
416
  5
13B
331
417
  5
13A
331
418
  5
139
331
419
  5
138
331
41A
  5
137
331
41B
  5
136
331
41C
  5
135
331
41D
  5
134
331
423
  5
12E
331
424
  5
12D
331
426
  5
12B
331
427
  5
12A
331
429
  5
128
331
42A
  5
127
331
42B
  5
126
331
42C
  5
125
331
42D
  5
124
331
42E
  5
123
331
42F
  5
122
331
430
  5
121
331
431
  5
120
331
432
  5
11F
331
433
  5
11E
331
434
  5
11D
331
435
  5
11C
331
436
  5
11B
331
437
  5
11A
331
438
  5
119
331
439
  5
118
331
43A
  5
117
331
43B
  5
116
331
43C
  5
115
331
43D
  5
114
331
43E
  5
113
331
43F
  5
112
331
440
  5
111
331
441
  5
110
331
442
  5
10F
331
443
  5
10E
331
444
  5
10D
331
445
  5
10C
331
446
  5
10B
331
447
  5
10A
331
448
  5
109
331
449
  5
108
331
44A
  5
107
331
44B
  5
106
331
44C
  5
105
331
44D
  5
104
331
44E
  5
103
331
455
  5
FC
331
456
  5
FB
331
457
  5
FA
331
458
  5
F9
331
459
  5
F8
331
45A
  5
F7
331
460
  5
F1
331
461
  5
F0
331
462
  5
EE
331
463
  5
ED
331
464
  5
EC
331
465
  5
EB
331
466
  5
EA
331
467
  5
E9
331
468
  5
E7
331
469
  5
E6
331
46A
  5
E5
331
46B
  5
E4
331
46C
  5
E3
331
46D
  5
E2
331
46E
  5
E1
331
46F
  5
E0
331
470
  5
DF
331
471
  5
DE
331
472
  5
DD
331
473
  5
DC
331
474
  5
DB
331
475
  5
DA
331
476
  5
D9
331
477
  5
D8
331
478
  5
D7
331
479
  5
D6
331
47A
  5
D5
331
47B
  5
D4
331
47C
  5
D3
331
47D
  5
D2
331
47E
  5
D1
331
47F
  5
D0
331
480
  5
CF
331
481
  5
CE
331
482
  5
CD
331
484
  5
CB
331
485
  5
CA
331
486
  5
C9
331
489
  5
C6
331
48A
  5
C5
331
48B
  5
C4
331
48C
  5
C3
331
48D
  5
C2
331
48E
  5
C1
331
48F
  5
C0
331
490
  5
BF
331
491
  5
BE
331
492
  5
BD
331
493
  5
BC
331
494
  5
BB
331
495
  5
BA
331
496
  5
B9
331
497
  5
B8
331
49A
  5
B5
331
49B
  5
B4
331
49C
  5
B3
331
49D
  5
B2
331
49E
  5
B1
331
4A1
  5
AE
331
4AD
  5
A2
331
4AE
  5
A1
331
4AF
  5
A0
331
4B0
  5
9F
331
4B1
  5
9E
331
4B2
  5
9D
331
4B3
  5
9C
331
4B4
  5
9B
331
4B5
  5
9A
331
4B6
  5
99
331
4B7
  5
98
331
4B8
  5
97
331
4B9
  5
96
331
4BA
  5
95
331
4BD
  5
92
331
4BE
  5
91
331
4BF
  5
90
331
4C0
  5
8F
331
4DA
  5
72
331
4DB
  5
71
331
4DC
  5
70
331
4DD
  5
6F
331
4DE
  5
6E
331
4DF
  5
6D
331
4E0
  5
6C
331
4E1
  5
6B
331
4E2
  5
6A
331
4E3
  5
69
331
4E4
  5
68
331
4E5
  5
67
331
4E6
  5
66
331
4E7
  5
65
331
4E8
  5
64
331
4E9
  5
63
331
4EA
  5
62
331
4EB
  5
61
331
4EC
  5
60
331
4ED
  5
5F
331
4EE
  5
5E
331
4EF
  5
5D
331
4F0
  5
5C
331
4F1
  5
5B
331
4F2
  5
5A
331
4F3
  5
59
331
4FA
  5
52
331
4FB
  5
50
  0
LAYOUT
  5
1D
102
{ACAD_REACTORS
330
1E
102
}
330
1E
100
AcDbPlotSettings
  1

  2
Bullzip PDF Printer.pc3
  4
A3
  6

 40
0.2
 41
0.0
 42
0.0
 43
0.0
 44
420.2
 45
297.1
 46
25.0
 47
12.0
 48
131.9999998099997
 49
10.0
140
2423.99999456
141
1644.999996185
142
1.0
143
6.0
 70
 11936
 72
     1
 73
     0
 74
     4
  7
monochrome.ctb
 75
     0
147
0.1666666666666667
148
-131.9999998099997
149
-10.0
100
AcDbLayout
  1
Model
 70
     0
 71
     0
 10
0.0
 20
0.0
 11
12.0
 21
9.0
 12
0.0
 22
0.0
 32
0.0
 14
219.2163106688631
 24
16.59182234311265
 34
0.0
 15
1975.338485162993
 25
1640.302401230801
 35
0.0
146
0.0
 13
0.0
 23
0.0
 33
0.0
 16
1.0
 26
0.0
 36
0.0
 17
0.0
 27
1.0
 37
0.0
 76
     0
330
17
331
2A
1001
ACAD_PSEXT
1000
Bullzip PDF Printer.pc3
1000
Bullzip PDF Printer
1000
BULLZIP
1000
Bullzip PDF Printer 10.1.0.1871
1070
     0
  0
LAYOUT
  5
22
102
{ACAD_REACTORS
330
1E
102
}
330
1E
100
AcDbPlotSettings
  1

  2
SR-LP8300F
  4

  6

 40
0.0
 41
0.0
 42
0.0
 43
0.0
 44
0.0
 45
0.0
 46
0.0
 47
0.0
 48
0.0
 49
0.0
140
0.0
141
0.0
142
1.0
143
1.0
 70
   688
 72
     0
 73
     0
 74
     5
  7
monochrome.ctb
 75
    16
147
1.0
148
0.0
149
0.0
100
AcDbLayout
  1
ﾚｲｱｳﾄ1
 70
     0
 71
     1
 10
0.0
 20
0.0
 11
12.0
 21
9.0
 12
0.0
 22
0.0
 32
0.0
 14
1.000000000000000E+20
 24
1.000000000000000E+20
 34
1.000000000000000E+20
 15
-1.000000000000000E+20
 25
-1.000000000000000E+20
 35
-1.000000000000000E+20
146
0.0
 13
0.0
 23
0.0
 33
0.0
 16
1.0
 26
0.0
 36
0.0
 17
0.0
 27
1.0
 37
0.0
 76
     0
330
1F
  0
MATERIAL
  5
4F
102
{ACAD_REACTORS
330
7
102
}
102
{ACAD_XDICTIONARY
360
611
102
}
330
7
100
AcDbMaterial
  1
ByBlock
  0
MATERIAL
  5
10
102
{ACAD_REACTORS
330
7
102
}
102
{ACAD_XDICTIONARY
360
60D
102
}
330
7
100
AcDbMaterial
  1
ByLayer
  0
MATERIAL
  5
6
102
{ACAD_REACTORS
330
7
102
}
102
{ACAD_XDICTIONARY
360
60F
102
}
330
7
100
AcDbMaterial
  1
Global
1001
ACAD
1070
    -1
1070
     3
1070
     0
1000

1071
        0
  0
MLEADERSTYLE
  5
5D5
102
{ACAD_REACTORS
330
532
102
}
102
{ACAD_XDICTIONARY
360
643
102
}
330
532
100
AcDbMLeaderStyle
170
     2
171
     1
172
     0
 90
        2
 40
0.0
 41
0.0
173
     1
 91
-1056964608
340
D
 92
       -2
290
     1
 42
0.09
291
     1
 43
0.36
  3
Standard
341
0
 44
0.18
300

342
E
174
     1
178
     6
175
     1
176
     0
 93
-1056964608
 45
0.18
292
     0
297
     0
 46
0.18
343
0
 94
-1056964608
 47
1.0
 49
1.0
140
1.0
293
     1
141
0.0
294
     1
177
     0
142
1.0
295
     0
296
     0
143
0.125
1001
ACAD_MLEADERVER
1070
     2
  0
MLINESTYLE
  5
14
102
{ACAD_REACTORS
330
15
102
}
330
15
100
AcDbMlineStyle
  2
STANDARD
 70
     0
  3

 62
     0
 51
90.0
 52
90.0
 71
     2
 49
0.5
 62
   256
  6
BYLAYER
 49
-0.5
 62
   256
  6
BYLAYER
  0
ACDBPLACEHOLDER
  5
3
102
{ACAD_REACTORS
330
4
102
}
330
4
  0
SCALE
  5
4E
102
{ACAD_REACTORS
330
2C
102
}
330
2C
100
AcDbScale
 70
     0
300
1:1
140
1.0
141
1.0
290
     1
  0
TABLESTYLE
  5
602
102
{ACAD_REACTORS
330
531
102
}
330
531
100
AcDbTableStyle
  3
Standard
 70
     0
 71
     0
 40
0.06
 41
0.06
280
     0
281
     0
  7
STANDARD
140
0.18
170
     2
 62
     0
 63
   257
283
     0
274
    -2
284
     1
 64
     0
275
    -2
285
     1
 65
     0
276
    -2
286
     1
 66
     0
277
    -2
287
     1
 67
     0
278
    -2
288
     1
 68
     0
279
    -2
289
     1
 69
     0
  7
STANDARD
140
0.25
170
     5
 62
     0
 63
   257
283
     0
274
    -2
284
     1
 64
     0
275
    -2
285
     1
 65
     0
276
    -2
286
     1
 66
     0
277
    -2
287
     1
 67
     0
278
    -2
288
     1
 68
     0
279
    -2
289
     1
 69
     0
  7
STANDARD
140
0.18
170
     5
 62
     0
 63
   257
283
     0
274
    -2
284
     1
 64
     0
275
    -2
285
     1
 65
     0
276
    -2
286
     1
 66
     0
277
    -2
287
     1
 67
     0
278
    -2
288
     1
 68
     0
279
    -2
289
     1
 69
     0
  0
VISUALSTYLE
  5
53A
102
{ACAD_REACTORS
330
29
102
}
102
{ACAD_XDICTIONARY
360
61B
102
}
330
29
100
AcDbVisualStyle
  2
2dWireframe
 70
     4
 71
     0
 72
     2
 73
     0
 90
        0
 40
0.6
 41
30.0
 62
     5
 63
     7
 74
     1
 91
        4
 64
     7
 65
   257
 75
     1
175
     1
 42
1.0
 92
        0
 66
   257
 43
1.0
 76
     1
 77
     6
 78
     2
 67
     7
 79
     5
170
     0
171
     0
290
     0
174
     0
 93
        1
 44
0.0
173
     0
291
     0
 45
0.0
1001
ACAD
1000
AcDbSavedByObjectVersion
1070
     0
  0
VISUALSTYLE
  5
53D
102
{ACAD_REACTORS
330
29
102
}
102
{ACAD_XDICTIONARY
360
621
102
}
330
29
100
AcDbVisualStyle
  2
Basic
 70
     7
 71
     1
 72
     0
 73
     1
 90
        0
 40
0.6
 41
30.0
 62
     5
 63
     7
 74
     0
 91
        4
 64
     7
 65
   257
 75
     1
175
     1
 42
1.0
 92
        8
 66
     7
 43
1.0
 76
     1
 77
     6
 78
     2
 67
     7
 79
     5
170
     0
171
     0
290
     0
174
     0
 93
        1
 44
0.0
173
     0
291
     1
 45
0.0
1001
ACAD
1000
AcDbSavedByObjectVersion
1070
     0
  0
VISUALSTYLE
  5
541
102
{ACAD_REACTORS
330
29
102
}
102
{ACAD_XDICTIONARY
360
629
102
}
330
29
100
AcDbVisualStyle
  2
Brighten
 70
    12
 71
     2
 72
     2
 73
     0
 90
        0
 40
0.6
 41
30.0
 62
     5
 63
     7
 74
     1
 91
        4
 64
     7
 65
   257
 75
     1
175
     1
 42
1.0
 92
        8
 66
     7
 43
1.0
 76
     1
 77
     6
 78
     2
 67
     7
 79
     5
170
     0
171
     0
290
     0
174
     0
 93
        1
 44
50.0
173
     0
291
     1
 45
0.0
1001
ACAD
1000
AcDbSavedByObjectVersion
1070
     0
  0
VISUALSTYLE
  5
545
102
{ACAD_REACTORS
330
29
102
}
102
{ACAD_XDICTIONARY
360
631
102
}
330
29
100
AcDbVisualStyle
  2
ColorChange
 70
    16
 71
     2
 72
     2
 73
     3
 90
        0
 40
0.6
 41
30.0
 62
     5
 63
     8
 74
     1
 91
        4
 64
     7
 65
   257
 75
     1
175
     1
 42
1.0
 92
        8
 66
     8
 43
1.0
 76
     1
 77
     6
 78
     2
 67
     7
 79
     5
170
     0
171
     0
290
     0
174
     0
 93
        1
 44
0.0
173
     0
291
     1
 45
0.0
1001
ACAD
1000
AcDbSavedByObjectVersion
1070
     0
  0
VISUALSTYLE
  5
53F
102
{ACAD_REACTORS
330
29
102
}
102
{ACAD_XDICTIONARY
360
625
102
}
330
29
100
AcDbVisualStyle
  2
Conceptual
 70
     9
 71
     3
 72
     2
 73
     0
 90
        0
 40
0.6
 41
30.0
 62
     5
 63
     7
 74
     2
 91
        2
 64
     7
 65
   257
 75
     1
175
     1
 42
40.0
 92
        8
 66
     7
 43
1.0
 76
     1
 77
     6
 78
     2
 67
     7
 79
     3
170
     0
171
     0
290
     0
174
     0
 93
        1
 44
0.0
173
     0
291
     0
 45
0.0
1001
ACAD
1000
AcDbSavedByObjectVersion
1070
     0
  0
VISUALSTYLE
  5
540
102
{ACAD_REACTORS
330
29
102
}
102
{ACAD_XDICTIONARY
360
627
102
}
330
29
100
AcDbVisualStyle
  2
Dim
 70
    11
 71
     2
 72
     2
 73
     0
 90
        0
 40
0.6
 41
30.0
 62
     5
 63
     7
 74
     1
 91
        4
 64
     7
 65
   257
 75
     1
175
     1
 42
1.0
 92
        8
 66
     7
 43
1.0
 76
     1
 77
     6
 78
     2
 67
     7
 79
     5
170
     0
171
     0
290
     0
174
     0
 93
        1
 44
-50.0
173
     0
291
     1
 45
0.0
1001
ACAD
1000
AcDbSavedByObjectVersion
1070
     0
  0
VISUALSTYLE
  5
548
102
{ACAD_REACTORS
330
29
102
}
102
{ACAD_XDICTIONARY
360
637
102
}
330
29
100
AcDbVisualStyle
  2
EdgeColorOff
 70
    22
 71
     2
 72
     2
 73
     0
 90
        0
 40
0.6
 41
30.0
 62
     5
 63
     7
 74
     1
 91
        4
 64
     7
 65
   257
 75
     1
175
     1
 42
1.0
 92
        8
 66
     7
 43
1.0
 76
     1
 77
     6
 78
     2
 67
     7
 79
     5
170
     0
171
     0
290
     0
174
     0
 93
        1
 44
0.0
173
     0
291
     1
 45
0.0
1001
ACAD
1000
AcDbSavedByObjectVersion
1070
     0
  0
VISUALSTYLE
  5
544
102
{ACAD_REACTORS
330
29
102
}
102
{ACAD_XDICTIONARY
360
62F
102
}
330
29
100
AcDbVisualStyle
  2
Facepattern
 70
    15
 71
     2
 72
     2
 73
     0
 90
        0
 40
0.6
 41
30.0
 62
     5
 63
     7
 74
     1
 91
        4
 64
     7
 65
   257
 75
     1
175
     1
 42
1.0
 92
        8
 66
     7
 43
1.0
 76
     1
 77
     6
 78
     2
 67
     7
 79
     5
170
     0
171
     0
290
     0
174
     0
 93
        1
 44
0.0
173
     0
291
     1
 45
0.0
1001
ACAD
1000
AcDbSavedByObjectVersion
1070
     0
  0
VISUALSTYLE
  5
536
102
{ACAD_REACTORS
330
29
102
}
102
{ACAD_XDICTIONARY
360
613
102
}
330
29
100
AcDbVisualStyle
  2
Flat
 70
     0
 71
     2
 72
     1
 73
     1
 90
        2
 40
0.6
 41
30.0
 62
     5
 63
     7
 74
     0
 91
        4
 64
     7
 65
   257
 75
     1
175
     1
 42
1.0
 92
        8
 66
     7
 43
1.0
 76
     1
 77
     6
 78
     2
 67
     7
 79
     5
170
     0
171
     0
290
     0
174
     0
 93
       13
 44
0.0
173
     0
291
     1
 45
0.0
1001
ACAD
1000
AcDbSavedByObjectVersion
1070
     0
  0
VISUALSTYLE
  5
537
102
{ACAD_REACTORS
330
29
102
}
102
{ACAD_XDICTIONARY
360
615
102
}
330
29
100
AcDbVisualStyle
  2
FlatWithEdges
 70
     1
 71
     2
 72
     1
 73
     1
 90
        2
 40
0.6
 41
30.0
 62
     5
 63
     7
 74
     1
 91
        4
 64
     7
 65
   257
 75
     1
175
     1
 42
1.0
 92
        0
 66
   257
 43
1.0
 76
     1
 77
     6
 78
     2
 67
     7
 79
     5
170
     0
171
     0
290
     0
174
     0
 93
       13
 44
0.0
173
     0
291
     1
 45
0.0
1001
ACAD
1000
AcDbSavedByObjectVersion
1070
     0
  0
VISUALSTYLE
  5
538
102
{ACAD_REACTORS
330
29
102
}
102
{ACAD_XDICTIONARY
360
617
102
}
330
29
100
AcDbVisualStyle
  2
Gouraud
 70
     2
 71
     2
 72
     2
 73
     1
 90
        2
 40
0.6
 41
30.0
 62
     5
 63
     7
 74
     0
 91
        4
 64
     7
 65
   257
 75
     1
175
     1
 42
1.0
 92
        0
 66
     7
 43
1.0
 76
     1
 77
     6
 78
     2
 67
     7
 79
     5
170
     0
171
     0
290
     0
174
     0
 93
       13
 44
0.0
173
     0
291
     1
 45
0.0
1001
ACAD
1000
AcDbSavedByObjectVersion
1070
     0
  0
VISUALSTYLE
  5
539
102
{ACAD_REACTORS
330
29
102
}
102
{ACAD_XDICTIONARY
360
619
102
}
330
29
100
AcDbVisualStyle
  2
GouraudWithEdges
 70
     3
 71
     2
 72
     2
 73
     1
 90
        2
 40
0.6
 41
30.0
 62
     5
 63
     7
 74
     1
 91
        4
 64
     7
 65
   257
 75
     1
175
     1
 42
1.0
 92
        0
 66
   257
 43
1.0
 76
     1
 77
     6
 78
     2
 67
     7
 79
     5
170
     0
171
     0
290
     0
174
     0
 93
       13
 44
0.0
173
     0
291
     1
 45
0.0
1001
ACAD
1000
AcDbSavedByObjectVersion
1070
     0
  0
VISUALSTYLE
  5
53C
102
{ACAD_REACTORS
330
29
102
}
102
{ACAD_XDICTIONARY
360
61F
102
}
330
29
100
AcDbVisualStyle
  2
Hidden
 70
     6
 71
     1
 72
     2
 73
     2
 90
        0
 40
0.6
 41
30.0
 62
     5
 63
     7
 74
     2
 91
        2
 64
     7
 65
   257
 75
     2
175
     1
 42
40.0
 92
        0
 66
   257
 43
1.0
 76
     1
 77
     6
 78
     2
 67
     7
 79
     3
170
     0
171
     0
290
     0
174
     0
 93
        1
 44
0.0
173
     0
291
     0
 45
0.0
1001
ACAD
1000
AcDbSavedByObjectVersion
1070
     0
  0
VISUALSTYLE
  5
546
102
{ACAD_REACTORS
330
29
102
}
102
{ACAD_XDICTIONARY
360
633
102
}
330
29
100
AcDbVisualStyle
  2
JitterOff
 70
    20
 71
     2
 72
     2
 73
     0
 90
        0
 40
0.6
 41
30.0
 62
     5
 63
     7
 74
     1
 91
        4
 64
     7
 65
   257
 75
     1
175
     1
 42
1.0
 92
       10
 66
     7
 43
1.0
 76
     1
 77
     6
 78
     2
 67
     7
 79
     5
170
     0
171
     0
290
     0
174
     0
 93
        1
 44
0.0
173
     0
291
     1
 45
0.0
1001
ACAD
1000
AcDbSavedByObjectVersion
1070
     0
  0
VISUALSTYLE
  5
543
102
{ACAD_REACTORS
330
29
102
}
102
{ACAD_XDICTIONARY
360
62D
102
}
330
29
100
AcDbVisualStyle
  2
Linepattern
 70
    14
 71
     2
 72
     2
 73
     0
 90
        0
 40
0.6
 41
30.0
 62
     5
 63
     7
 74
     1
 91
        4
 64
     7
 65
   257
 75
     7
175
     7
 42
1.0
 92
        8
 66
     7
 43
1.0
 76
     1
 77
     6
 78
     2
 67
     7
 79
     5
170
     0
171
     0
290
     0
174
     0
 93
        1
 44
0.0
173
     0
291
     1
 45
0.0
1001
ACAD
1000
AcDbSavedByObjectVersion
1070
     0
  0
VISUALSTYLE
  5
547
102
{ACAD_REACTORS
330
29
102
}
102
{ACAD_XDICTIONARY
360
635
102
}
330
29
100
AcDbVisualStyle
  2
OverhangOff
 70
    21
 71
     2
 72
     2
 73
     0
 90
        0
 40
0.6
 41
30.0
 62
     5
 63
     7
 74
     1
 91
        4
 64
     7
 65
   257
 75
     1
175
     1
 42
1.0
 92
        9
 66
     7
 43
1.0
 76
     1
 77
     6
 78
     2
 67
     7
 79
     5
170
     0
171
     0
290
     0
174
     0
 93
        1
 44
0.0
173
     0
291
     1
 45
0.0
1001
ACAD
1000
AcDbSavedByObjectVersion
1070
     0
  0
VISUALSTYLE
  5
53E
102
{ACAD_REACTORS
330
29
102
}
102
{ACAD_XDICTIONARY
360
623
102
}
330
29
100
AcDbVisualStyle
  2
Realistic
 70
     8
 71
     2
 72
     3
 73
     0
 90
        2
 40
0.6
 41
30.0
 62
     5
 63
     7
 74
     0
 91
        0
 64
     7
 65
   257
 75
     1
175
     1
 42
1.0
 92
        8
 66
   257
 43
1.0
 76
     1
 77
     6
 78
     2
 67
     7
 79
     3
170
     0
171
     0
290
     0
174
     0
 93
       13
 44
0.0
173
     0
291
     0
 45
0.0
1001
ACAD
1000
AcDbSavedByObjectVersion
1070
     0
  0
VISUALSTYLE
  5
54D
102
{ACAD_REACTORS
330
29
102
}
102
{ACAD_XDICTIONARY
360
641
102
}
330
29
100
AcDbVisualStyle
  2
Shaded
 70
    27
 71
     2
 72
     2
 73
     1
 90
        2
 40
0.6
 41
30.0
 62
     5
 63
     7
 74
     0
 91
        4
 64
     7
 65
   257
 75
     1
175
     1
 42
1.0
 92
        8
 66
   257
 43
1.0
 76
     1
 77
     6
 78
     2
 67
   251
 79
     3
170
     0
171
     0
290
     0
174
     0
 93
        5
 44
0.0
173
     0
291
     0
 45
0.0
1001
ACAD
1000
AcDbSavedByObjectVersion
1070
     0
  0
VISUALSTYLE
  5
54C
102
{ACAD_REACTORS
330
29
102
}
102
{ACAD_XDICTIONARY
360
63F
102
}
330
29
100
AcDbVisualStyle
  2
Shaded with edges
 70
    26
 71
     2
 72
     2
 73
     1
 90
        2
 40
0.6
 41
30.0
 62
     5
 63
     7
 74
     1
 91
       10
 64
     7
 65
   257
 75
     2
175
     1
 42
1.0
 92
        8
 66
   257
 43
1.0
 76
     1
 77
     6
 78
     2
 67
     7
 79
     3
170
     0
171
     0
290
     0
174
     0
 93
        5
 44
0.0
173
     0
291
     0
 45
0.0
1001
ACAD
1000
AcDbSavedByObjectVersion
1070
     0
  0
VISUALSTYLE
  5
549
102
{ACAD_REACTORS
330
29
102
}
102
{ACAD_XDICTIONARY
360
639
102
}
330
29
100
AcDbVisualStyle
  2
Shades of Gray
 70
    23
 71
     2
 72
     2
 73
     3
 90
        0
 40
0.6
 41
30.0
 62
     5
 63
     7
 74
     2
 91
        2
 64
     7
 65
     7
 75
     1
175
     1
 42
40.0
 92
        8
 66
     7
 43
1.0
 76
     1
 77
     6
 78
     2
 67
     7
 79
     3
170
     0
171
     0
290
     0
174
     0
 93
        1
 44
0.0
173
     0
291
     0
 45
0.0
1001
ACAD
1000
AcDbSavedByObjectVersion
1070
     0
  0
VISUALSTYLE
  5
54A
102
{ACAD_REACTORS
330
29
102
}
102
{ACAD_XDICTIONARY
360
63B
102
}
330
29
100
AcDbVisualStyle
  2
Sketchy
 70
    24
 71
     1
 72
     2
 73
     2
 90
        0
 40
0.6
 41
30.0
 62
     5
 63
     7
 74
     2
 91
        2
 64
     7
 65
     7
 75
     1
175
     1
 42
40.0
 92
       11
 66
     7
 43
1.0
 76
     1
 77
     6
 78
     2
 67
     7
 79
     6
170
     0
171
     0
290
     0
174
     0
 93
        1
 44
0.0
173
     0
291
     0
 45
0.0
1001
ACAD
1000
AcDbSavedByObjectVersion
1070
     0
  0
VISUALSTYLE
  5
542
102
{ACAD_REACTORS
330
29
102
}
102
{ACAD_XDICTIONARY
360
62B
102
}
330
29
100
AcDbVisualStyle
  2
Thicken
 70
    13
 71
     2
 72
     2
 73
     0
 90
        0
 40
0.6
 41
30.0
 62
     5
 63
     7
 74
     1
 91
        4
 64
     7
 65
   257
 75
     1
175
     1
 42
1.0
 92
       12
 66
     7
 43
1.0
 76
     1
 77
     6
 78
     2
 67
     7
 79
     5
170
     0
171
     0
290
     0
174
     0
 93
        1
 44
0.0
173
     0
291
     1
 45
0.0
1001
ACAD
1000
AcDbSavedByObjectVersion
1070
     0
  0
VISUALSTYLE
  5
53B
102
{ACAD_REACTORS
330
29
102
}
102
{ACAD_XDICTIONARY
360
61D
102
}
330
29
100
AcDbVisualStyle
  2
Wireframe
 70
     5
 71
     0
 72
     2
 73
     0
 90
        0
 40
0.6
 41
30.0
 62
     5
 63
     7
 74
     1
 91
        4
 64
     7
 65
   257
 75
     1
175
     1
 42
1.0
 92
        0
 66
   257
 43
1.0
 76
     1
 77
     6
 78
     2
 67
     7
 79
     5
170
     0
171
     0
290
     0
174
     0
 93
        1
 44
0.0
173
     0
291
     0
 45
0.0
1001
ACAD
1000
AcDbSavedByObjectVersion
1070
     0
  0
VISUALSTYLE
  5
54B
102
{ACAD_REACTORS
330
29
102
}
102
{ACAD_XDICTIONARY
360
63D
102
}
330
29
100
AcDbVisualStyle
  2
X-Ray
 70
    25
 71
     2
 72
     2
 73
     1
 90
        1
 40
0.5
 41
30.0
 62
     5
 63
     7
 74
     1
 91
        0
 64
     7
 65
   257
 75
     1
175
     1
 42
1.0
 92
        8
 66
     7
 43
1.0
 76
     1
 77
     6
 78
     2
 67
     7
 79
     3
170
     0
171
     0
290
     0
174
     0
 93
       13
 44
0.0
173
     0
291
     0
 45
0.0
1001
ACAD
1000
AcDbSavedByObjectVersion
1070
     0
  0
XRECORD
  5
607
102
{ACAD_REACTORS
330
606
102
}
330
606
100
AcDbXrecord
280
     1
340
28
  0
XRECORD
  5
608
102
{ACAD_REACTORS
330
606
102
}
330
606
100
AcDbXrecord
280
     1
340
7
  0
DICTIONARYVAR
  5
530
102
{ACAD_REACTORS
330
52F
102
}
330
52F
100
DictionaryVariables
280
     0
  1
1:1
  0
DICTIONARYVAR
  5
5D7
102
{ACAD_REACTORS
330
52F
102
}
330
52F
100
DictionaryVariables
280
     0
  1
Standard
  0
DICTIONARYVAR
  5
603
102
{ACAD_REACTORS
330
52F
102
}
330
52F
100
DictionaryVariables
280
     0
  1
Standard
  0
DICTIONARYVAR
  5
604
102
{ACAD_REACTORS
330
52F
102
}
330
52F
100
DictionaryVariables
280
     0
  1
0
  0
DICTIONARYVAR
  5
605
102
{ACAD_REACTORS
330
52F
102
}
330
52F
100
DictionaryVariables
280
     0
  1
1
  0
DICTIONARYVAR
  5
60C
102
{ACAD_REACTORS
330
52F
102
}
330
52F
100
DictionaryVariables
280
     0
  1
1
  0
DICTIONARYVAR
  5
533
102
{ACAD_REACTORS
330
52F
102
}
330
52F
100
DictionaryVariables
280
     0
  1
0
  0
DICTIONARY
  5
611
330
4F
100
AcDbDictionary
280
     1
281
     1
  3
ACAD_XREC_ROUNDTRIP
360
612
  0
DICTIONARY
  5
60D
330
10
100
AcDbDictionary
280
     1
281
     1
  3
ACAD_XREC_ROUNDTRIP
360
60E
  0
DICTIONARY
  5
60F
330
6
100
AcDbDictionary
280
     1
281
     1
  3
ACAD_XREC_ROUNDTRIP
360
610
  0
DICTIONARY
  5
643
330
5D5
100
AcDbDictionary
280
     1
281
     1
  3
ACAD_XREC_ROUNDTRIP
360
644
  0
DICTIONARY
  5
61B
330
53A
100
AcDbDictionary
280
     1
281
     1
  3
ACAD_XREC_ROUNDTRIP
360
61C
  0
DICTIONARY
  5
621
330
53D
100
AcDbDictionary
280
     1
281
     1
  3
ACAD_XREC_ROUNDTRIP
360
622
  0
DICTIONARY
  5
629
330
541
100
AcDbDictionary
280
     1
281
     1
  3
ACAD_XREC_ROUNDTRIP
360
62A
  0
DICTIONARY
  5
631
330
545
100
AcDbDictionary
280
     1
281
     1
  3
ACAD_XREC_ROUNDTRIP
360
632
  0
DICTIONARY
  5
625
330
53F
100
AcDbDictionary
280
     1
281
     1
  3
ACAD_XREC_ROUNDTRIP
360
626
  0
DICTIONARY
  5
627
330
540
100
AcDbDictionary
280
     1
281
     1
  3
ACAD_XREC_ROUNDTRIP
360
628
  0
DICTIONARY
  5
637
330
548
100
AcDbDictionary
280
     1
281
     1
  3
ACAD_XREC_ROUNDTRIP
360
638
  0
DICTIONARY
  5
62F
330
544
100
AcDbDictionary
280
     1
281
     1
  3
ACAD_XREC_ROUNDTRIP
360
630
  0
DICTIONARY
  5
613
330
536
100
AcDbDictionary
280
     1
281
     1
  3
ACAD_XREC_ROUNDTRIP
360
614
  0
DICTIONARY
  5
615
330
537
100
AcDbDictionary
280
     1
281
     1
  3
ACAD_XREC_ROUNDTRIP
360
616
  0
DICTIONARY
  5
617
330
538
100
AcDbDictionary
280
     1
281
     1
  3
ACAD_XREC_ROUNDTRIP
360
618
  0
DICTIONARY
  5
619
330
539
100
AcDbDictionary
280
     1
281
     1
  3
ACAD_XREC_ROUNDTRIP
360
61A
  0
DICTIONARY
  5
61F
330
53C
100
AcDbDictionary
280
     1
281
     1
  3
ACAD_XREC_ROUNDTRIP
360
620
  0
DICTIONARY
  5
633
330
546
100
AcDbDictionary
280
     1
281
     1
  3
ACAD_XREC_ROUNDTRIP
360
634
  0
DICTIONARY
  5
62D
330
543
100
AcDbDictionary
280
     1
281
     1
  3
ACAD_XREC_ROUNDTRIP
360
62E
  0
DICTIONARY
  5
635
330
547
100
AcDbDictionary
280
     1
281
     1
  3
ACAD_XREC_ROUNDTRIP
360
636
  0
DICTIONARY
  5
623
330
53E
100
AcDbDictionary
280
     1
281
     1
  3
ACAD_XREC_ROUNDTRIP
360
624
  0
DICTIONARY
  5
641
330
54D
100
AcDbDictionary
280
     1
281
     1
  3
ACAD_XREC_ROUNDTRIP
360
642
  0
DICTIONARY
  5
63F
330
54C
100
AcDbDictionary
280
     1
281
     1
  3
ACAD_XREC_ROUNDTRIP
360
640
  0
DICTIONARY
  5
639
330
549
100
AcDbDictionary
280
     1
281
     1
  3
ACAD_XREC_ROUNDTRIP
360
63A
  0
DICTIONARY
  5
63B
330
54A
100
AcDbDictionary
280
     1
281
     1
  3
ACAD_XREC_ROUNDTRIP
360
63C
  0
DICTIONARY
  5
62B
330
542
100
AcDbDictionary
280
     1
281
     1
  3
ACAD_XREC_ROUNDTRIP
360
62C
  0
DICTIONARY
  5
61D
330
53B
100
AcDbDictionary
280
     1
281
     1
  3
ACAD_XREC_ROUNDTRIP
360
61E
  0
DICTIONARY
  5
63D
330
54B
100
AcDbDictionary
280
     1
281
     1
  3
ACAD_XREC_ROUNDTRIP
360
63E
  0
XRECORD
  5
612
102
{ACAD_REACTORS
330
611
102
}
330
611
100
AcDbXrecord
280
     1
102
MATERIAL
148
0.0
149
0.0
149
0.0
 93
        0
 94
      127
282
     0
 72
     1
 77
     1
171
     1
175
     1
179
     1
273
     0
  0
XRECORD
  5
60E
102
{ACAD_REACTORS
330
60D
102
}
330
60D
100
AcDbXrecord
280
     1
102
MATERIAL
148
0.0
149
0.0
149
0.0
 93
        0
 94
      127
282
     0
 72
     1
 77
     1
171
     1
175
     1
179
     1
273
     0
  0
XRECORD
  5
610
102
{ACAD_REACTORS
330
60F
102
}
330
60F
100
AcDbXrecord
280
     1
102
MATERIAL
148
0.0
149
0.0
149
0.0
 93
        0
 94
      127
282
     0
 72
     1
 77
     1
171
     1
175
     1
179
     1
273
     0
  0
XRECORD
  5
644
102
{ACAD_REACTORS
330
643
102
}
330
643
100
AcDbXrecord
280
     1
102
ACAD_ROUNDTRIP_2010_MLEADER_STYLE
  0
XRECORD
  5
61C
102
{ACAD_REACTORS
330
61B
102
}
330
61B
100
AcDbXrecord
280
     1
102
RTVSPropertyOp0
 70
     1
102
RTVSPropertyOp1
 70
     1
102
RTVSPropertyOp2
 70
     1
102
RTVSPropertyOp3
 70
     1
102
RTVSPropertyOp4
 70
     1
102
RTVSPropertyOp5
 70
     1
102
RTVSPropertyOp6
 70
     1
102
RTVSPropertyOp7
 70
     1
102
RTVSPropertyOp8
 70
     1
102
RTVSPropertyOp9
 70
     1
102
RTVSPropertyOp10
 70
     1
102
RTVSPropertyOp11
 70
     1
102
RTVSPropertyOp12
 70
     1
102
RTVSPropertyOp13
 70
     1
102
RTVSPropertyOp14
 70
     1
102
RTVSPropertyOp15
 70
     1
102
RTVSPropertyOp16
 70
     1
102
RTVSPropertyOp17
 70
     1
102
RTVSPropertyOp18
 70
     1
102
RTVSPropertyOp19
 70
     1
102
RTVSPropertyOp20
 70
     1
102
RTVSPropertyOp21
 70
     1
102
RTVSPropertyOp22
 70
     1
102
RTVSPropertyOp23
 70
     1
102
RTVSPropertyOp24
 70
     1
102
RTVSPropertyOp25
 70
     1
102
RTVSPropertyOp26
 70
     1
102
RTVSPropertyOp27
 70
     1
102
RTVSPropertyOp28
 70
     1
102
RTVSPropertyOp29
 70
     1
102
RTVSPropertyOp30
 70
     1
102
RTVSPropertyOp31
 70
     1
102
RTVSPropertyOp32
 70
     1
102
RTVSPropertyOp33
 70
     1
102
RTVSPropertyOp34
 70
     1
102
RTVSPropertyOp35
 70
     1
102
RTVSPropertyOp36
 70
     1
102
RTVSPropertyOp37
 70
     1
102
RTVSPropertyOp38
 70
     1
102
RTVSPropertyOp39
 70
     1
102
RTVSPropertyOp40
 70
     1
102
RTVSPropertyOp41
 70
     1
102
RTVSPropertyOp42
 70
     1
102
RTVSPropertyOp43
 70
     1
102
RTVSPropertyOp44
 70
     1
102
RTVSPropertyOp45
 70
     1
102
RTVSPropertyOp46
 70
     1
102
RTVSPropertyOp47
 70
     1
102
RTVSPropertyOp48
 70
     1
102
RTVSPropertyOp49
 70
     1
102
RTVSPropertyOp50
 70
     1
102
RTVSPropertyOp51
 70
     0
102
RTVSPropertyOp52
 70
     0
102
RTVSPropertyOp53
 70
     1
102
RTVSPropertyOp54
 70
     1
102
RTVSPropertyOp55
 70
     1
102
RTVSPropertyOp56
 70
     1
102
RTVSPropertyOp57
 70
     1
102
RTVSPost2010Prop28
280
     1
102
RTVSPost2010PropOp28
 70
     1
102
RTVSPost2010Prop29
280
     1
102
RTVSPost2010PropOp29
 70
     1
102
RTVSPost2010Prop30
280
     0
102
RTVSPost2010PropOp30
 70
     1
102
RTVSPost2010Prop31
280
     0
102
RTVSPost2010PropOp31
 70
     1
102
RTVSPost2010Prop32
280
     0
102
RTVSPost2010PropOp32
 70
     1
102
RTVSPost2010Prop33
280
     0
102
RTVSPost2010PropOp33
 70
     1
102
RTVSPost2010Prop34
280
     0
102
RTVSPost2010PropOp34
 70
     1
102
RTVSPost2010Prop35
280
     0
102
RTVSPost2010PropOp35
 70
     1
102
RTVSPost2010Prop36
280
     0
102
RTVSPost2010PropOp36
 70
     1
102
RTVSPost2010Prop37
 90
       50
102
RTVSPost2010PropOp37
 70
     1
102
RTVSPost2010Prop38
140
0.0
102
RTVSPost2010PropOp38
 70
     1
102
RTVSPost2010Prop39
140
1.0
102
RTVSPost2010PropOp39
 70
     1
102
RTVSPost2010Prop40
 90
        0
102
RTVSPost2010PropOp40
 70
     1
102
RTVSPost2010Prop41ColorIndex
 90
       18
102
RTVSPost2010Prop41ColorRGB
 90
        0
102
RTVSPost2010PropOp41
 70
     1
102
RTVSPost2010Prop42
 90
       50
102
RTVSPost2010PropOp42
 70
     1
102
RTVSPost2010Prop43
 90
        3
102
RTVSPost2010PropOp43
 70
     1
102
RTVSPost2010Prop44ColorIndex
 90
        5
102
RTVSPost2010Prop44ColorRGB
 90
      255
102
RTVSPost2010PropOp44
 70
     1
102
RTVSPost2010Prop45
280
     0
102
RTVSPost2010PropOp45
 70
     1
102
RTVSPost2010Prop46
 90
       50
102
RTVSPost2010PropOp46
 70
     1
102
RTVSPost2010Prop47
 90
       50
102
RTVSPost2010PropOp47
 70
     1
102
RTVSPost2010Prop48
 90
       50
102
RTVSPost2010PropOp48
 70
     1
102
RTVSPost2010Prop49
280
     0
102
RTVSPost2010PropOp49
 70
     1
102
RTVSPost2010Prop50
 90
       50
102
RTVSPost2010PropOp50
 70
     1
102
RTVSPost2010Prop51ColorIndex
 90
      256
102
RTVSPost2010Prop51ColorRGB
 90
-16777216
102
RTVSPost2010PropOp51
 70
     0
102
RTVSPost2010Prop52
140
1.0
102
RTVSPost2010PropOp52
 70
     0
102
RTVSPost2010Prop53
 90
        2
102
RTVSPost2010PropOp53
 70
     1
102
RTVSPost2010Prop54
  1
strokes_ogs.tif
102
RTVSPost2010PropOp54
 70
     1
102
RTVSPost2010Prop55
280
     0
102
RTVSPost2010PropOp55
 70
     1
102
RTVSPost2010Prop56
140
1.0
102
RTVSPost2010PropOp56
 70
     1
102
RTVSPost2010Prop57
140
1.0
102
RTVSPost2010PropOp57
 70
     1
  0
XRECORD
  5
622
102
{ACAD_REACTORS
330
621
102
}
330
621
100
AcDbXrecord
280
     1
102
RTVSPropertyOp0
 70
     1
102
RTVSPropertyOp1
 70
     1
102
RTVSPropertyOp2
 70
     1
102
RTVSPropertyOp3
 70
     1
102
RTVSPropertyOp4
 70
     1
102
RTVSPropertyOp5
 70
     1
102
RTVSPropertyOp6
 70
     1
102
RTVSPropertyOp7
 70
     1
102
RTVSPropertyOp8
 70
     1
102
RTVSPropertyOp9
 70
     1
102
RTVSPropertyOp10
 70
     1
102
RTVSPropertyOp11
 70
     1
102
RTVSPropertyOp12
 70
     1
102
RTVSPropertyOp13
 70
     1
102
RTVSPropertyOp14
 70
     1
102
RTVSPropertyOp15
 70
     1
102
RTVSPropertyOp16
 70
     1
102
RTVSPropertyOp17
 70
     1
102
RTVSPropertyOp18
 70
     1
102
RTVSPropertyOp19
 70
     1
102
RTVSPropertyOp20
 70
     1
102
RTVSPropertyOp21
 70
     1
102
RTVSPropertyOp22
 70
     1
102
RTVSPropertyOp23
 70
     1
102
RTVSPropertyOp24
 70
     1
102
RTVSPropertyOp25
 70
     1
102
RTVSPropertyOp26
 70
     1
102
RTVSPropertyOp27
 70
     1
102
RTVSPropertyOp28
 70
     1
102
RTVSPropertyOp29
 70
     1
102
RTVSPropertyOp30
 70
     1
102
RTVSPropertyOp31
 70
     1
102
RTVSPropertyOp32
 70
     1
102
RTVSPropertyOp33
 70
     1
102
RTVSPropertyOp34
 70
     1
102
RTVSPropertyOp35
 70
     1
102
RTVSPropertyOp36
 70
     1
102
RTVSPropertyOp37
 70
     1
102
RTVSPropertyOp38
 70
     1
102
RTVSPropertyOp39
 70
     1
102
RTVSPropertyOp40
 70
     1
102
RTVSPropertyOp41
 70
     1
102
RTVSPropertyOp42
 70
     1
102
RTVSPropertyOp43
 70
     1
102
RTVSPropertyOp44
 70
     1
102
RTVSPropertyOp45
 70
     1
102
RTVSPropertyOp46
 70
     1
102
RTVSPropertyOp47
 70
     1
102
RTVSPropertyOp48
 70
     1
102
RTVSPropertyOp49
 70
     1
102
RTVSPropertyOp50
 70
     1
102
RTVSPropertyOp51
 70
     0
102
RTVSPropertyOp52
 70
     0
102
RTVSPropertyOp53
 70
     1
102
RTVSPropertyOp54
 70
     1
102
RTVSPropertyOp55
 70
     1
102
RTVSPropertyOp56
 70
     1
102
RTVSPropertyOp57
 70
     1
102
RTVSPost2010Prop28
280
     0
102
RTVSPost2010PropOp28
 70
     1
102
RTVSPost2010Prop29
280
     1
102
RTVSPost2010PropOp29
 70
     1
102
RTVSPost2010Prop30
280
     1
102
RTVSPost2010PropOp30
 70
     1
102
RTVSPost2010Prop31
280
     0
102
RTVSPost2010PropOp31
 70
     1
102
RTVSPost2010Prop32
280
     0
102
RTVSPost2010PropOp32
 70
     1
102
RTVSPost2010Prop33
280
     0
102
RTVSPost2010PropOp33
 70
     1
102
RTVSPost2010Prop34
280
     0
102
RTVSPost2010PropOp34
 70
     1
102
RTVSPost2010Prop35
280
     0
102
RTVSPost2010PropOp35
 70
     1
102
RTVSPost2010Prop36
280
     0
102
RTVSPost2010PropOp36
 70
     1
102
RTVSPost2010Prop37
 90
       50
102
RTVSPost2010PropOp37
 70
     1
102
RTVSPost2010Prop38
140
0.0
102
RTVSPost2010PropOp38
 70
     1
102
RTVSPost2010Prop39
140
1.0
102
RTVSPost2010PropOp39
 70
     1
102
RTVSPost2010Prop40
 90
        0
102
RTVSPost2010PropOp40
 70
     1
102
RTVSPost2010Prop41ColorIndex
 90
       18
102
RTVSPost2010Prop41ColorRGB
 90
        0
102
RTVSPost2010PropOp41
 70
     1
102
RTVSPost2010Prop42
 90
       50
102
RTVSPost2010PropOp42
 70
     1
102
RTVSPost2010Prop43
 90
        3
102
RTVSPost2010PropOp43
 70
     1
102
RTVSPost2010Prop44ColorIndex
 90
        5
102
RTVSPost2010Prop44ColorRGB
 90
      255
102
RTVSPost2010PropOp44
 70
     1
102
RTVSPost2010Prop45
280
     0
102
RTVSPost2010PropOp45
 70
     1
102
RTVSPost2010Prop46
 90
       50
102
RTVSPost2010PropOp46
 70
     1
102
RTVSPost2010Prop47
 90
       50
102
RTVSPost2010PropOp47
 70
     1
102
RTVSPost2010Prop48
 90
       50
102
RTVSPost2010PropOp48
 70
     1
102
RTVSPost2010Prop49
280
     0
102
RTVSPost2010PropOp49
 70
     1
102
RTVSPost2010Prop50
 90
       50
102
RTVSPost2010PropOp50
 70
     1
102
RTVSPost2010Prop51ColorIndex
 90
      256
102
RTVSPost2010Prop51ColorRGB
 90
-16777216
102
RTVSPost2010PropOp51
 70
     0
102
RTVSPost2010Prop52
140
1.0
102
RTVSPost2010PropOp52
 70
     0
102
RTVSPost2010Prop53
 90
        2
102
RTVSPost2010PropOp53
 70
     1
102
RTVSPost2010Prop54
  1
strokes_ogs.tif
102
RTVSPost2010PropOp54
 70
     1
102
RTVSPost2010Prop55
280
     0
102
RTVSPost2010PropOp55
 70
     1
102
RTVSPost2010Prop56
140
1.0
102
RTVSPost2010PropOp56
 70
     1
102
RTVSPost2010Prop57
140
1.0
102
RTVSPost2010PropOp57
 70
     1
  0
XRECORD
  5
62A
102
{ACAD_REACTORS
330
629
102
}
330
629
100
AcDbXrecord
280
     1
102
RTVSPropertyOp0
 70
     1
102
RTVSPropertyOp1
 70
     1
102
RTVSPropertyOp2
 70
     1
102
RTVSPropertyOp3
 70
     1
102
RTVSPropertyOp4
 70
     1
102
RTVSPropertyOp5
 70
     1
102
RTVSPropertyOp6
 70
     1
102
RTVSPropertyOp7
 70
     1
102
RTVSPropertyOp8
 70
     1
102
RTVSPropertyOp9
 70
     1
102
RTVSPropertyOp10
 70
     1
102
RTVSPropertyOp11
 70
     1
102
RTVSPropertyOp12
 70
     1
102
RTVSPropertyOp13
 70
     1
102
RTVSPropertyOp14
 70
     1
102
RTVSPropertyOp15
 70
     1
102
RTVSPropertyOp16
 70
     1
102
RTVSPropertyOp17
 70
     1
102
RTVSPropertyOp18
 70
     1
102
RTVSPropertyOp19
 70
     1
102
RTVSPropertyOp20
 70
     1
102
RTVSPropertyOp21
 70
     1
102
RTVSPropertyOp22
 70
     1
102
RTVSPropertyOp23
 70
     1
102
RTVSPropertyOp24
 70
     1
102
RTVSPropertyOp25
 70
     1
102
RTVSPropertyOp26
 70
     1
102
RTVSPropertyOp27
 70
     1
102
RTVSPropertyOp28
 70
     1
102
RTVSPropertyOp29
 70
     1
102
RTVSPropertyOp30
 70
     1
102
RTVSPropertyOp31
 70
     1
102
RTVSPropertyOp32
 70
     1
102
RTVSPropertyOp33
 70
     1
102
RTVSPropertyOp34
 70
     1
102
RTVSPropertyOp35
 70
     1
102
RTVSPropertyOp36
 70
     1
102
RTVSPropertyOp37
 70
     1
102
RTVSPropertyOp38
 70
     1
102
RTVSPropertyOp39
 70
     1
102
RTVSPropertyOp40
 70
     1
102
RTVSPropertyOp41
 70
     1
102
RTVSPropertyOp42
 70
     1
102
RTVSPropertyOp43
 70
     1
102
RTVSPropertyOp44
 70
     1
102
RTVSPropertyOp45
 70
     1
102
RTVSPropertyOp46
 70
     1
102
RTVSPropertyOp47
 70
     1
102
RTVSPropertyOp48
 70
     1
102
RTVSPropertyOp49
 70
     1
102
RTVSPropertyOp50
 70
     1
102
RTVSPropertyOp51
 70
     0
102
RTVSPropertyOp52
 70
     0
102
RTVSPropertyOp53
 70
     1
102
RTVSPropertyOp54
 70
     1
102
RTVSPropertyOp55
 70
     1
102
RTVSPropertyOp56
 70
     1
102
RTVSPropertyOp57
 70
     1
102
RTVSPost2010Prop28
280
     0
102
RTVSPost2010PropOp28
 70
     1
102
RTVSPost2010Prop29
280
     1
102
RTVSPost2010PropOp29
 70
     1
102
RTVSPost2010Prop30
280
     1
102
RTVSPost2010PropOp30
 70
     1
102
RTVSPost2010Prop31
280
     0
102
RTVSPost2010PropOp31
 70
     1
102
RTVSPost2010Prop32
280
     0
102
RTVSPost2010PropOp32
 70
     1
102
RTVSPost2010Prop33
280
     0
102
RTVSPost2010PropOp33
 70
     1
102
RTVSPost2010Prop34
280
     0
102
RTVSPost2010PropOp34
 70
     1
102
RTVSPost2010Prop35
280
     0
102
RTVSPost2010PropOp35
 70
     1
102
RTVSPost2010Prop36
280
     0
102
RTVSPost2010PropOp36
 70
     1
102
RTVSPost2010Prop37
 90
       50
102
RTVSPost2010PropOp37
 70
     1
102
RTVSPost2010Prop38
140
0.0
102
RTVSPost2010PropOp38
 70
     1
102
RTVSPost2010Prop39
140
1.0
102
RTVSPost2010PropOp39
 70
     1
102
RTVSPost2010Prop40
 90
        0
102
RTVSPost2010PropOp40
 70
     1
102
RTVSPost2010Prop41ColorIndex
 90
       18
102
RTVSPost2010Prop41ColorRGB
 90
        0
102
RTVSPost2010PropOp41
 70
     1
102
RTVSPost2010Prop42
 90
       50
102
RTVSPost2010PropOp42
 70
     1
102
RTVSPost2010Prop43
 90
        3
102
RTVSPost2010PropOp43
 70
     1
102
RTVSPost2010Prop44ColorIndex
 90
        5
102
RTVSPost2010Prop44ColorRGB
 90
      255
102
RTVSPost2010PropOp44
 70
     1
102
RTVSPost2010Prop45
280
     0
102
RTVSPost2010PropOp45
 70
     1
102
RTVSPost2010Prop46
 90
       50
102
RTVSPost2010PropOp46
 70
     1
102
RTVSPost2010Prop47
 90
       50
102
RTVSPost2010PropOp47
 70
     1
102
RTVSPost2010Prop48
 90
       50
102
RTVSPost2010PropOp48
 70
     1
102
RTVSPost2010Prop49
280
     0
102
RTVSPost2010PropOp49
 70
     1
102
RTVSPost2010Prop50
 90
       50
102
RTVSPost2010PropOp50
 70
     1
102
RTVSPost2010Prop51ColorIndex
 90
      256
102
RTVSPost2010Prop51ColorRGB
 90
-16777216
102
RTVSPost2010PropOp51
 70
     0
102
RTVSPost2010Prop52
140
1.0
102
RTVSPost2010PropOp52
 70
     0
102
RTVSPost2010Prop53
 90
        2
102
RTVSPost2010PropOp53
 70
     1
102
RTVSPost2010Prop54
  1
strokes_ogs.tif
102
RTVSPost2010PropOp54
 70
     1
102
RTVSPost2010Prop55
280
     0
102
RTVSPost2010PropOp55
 70
     1
102
RTVSPost2010Prop56
140
1.0
102
RTVSPost2010PropOp56
 70
     1
102
RTVSPost2010Prop57
140
1.0
102
RTVSPost2010PropOp57
 70
     1
  0
XRECORD
  5
632
102
{ACAD_REACTORS
330
631
102
}
330
631
100
AcDbXrecord
280
     1
102
RTVSPropertyOp0
 70
     1
102
RTVSPropertyOp1
 70
     1
102
RTVSPropertyOp2
 70
     1
102
RTVSPropertyOp3
 70
     1
102
RTVSPropertyOp4
 70
     1
102
RTVSPropertyOp5
 70
     1
102
RTVSPropertyOp6
 70
     1
102
RTVSPropertyOp7
 70
     1
102
RTVSPropertyOp8
 70
     1
102
RTVSPropertyOp9
 70
     1
102
RTVSPropertyOp10
 70
     1
102
RTVSPropertyOp11
 70
     1
102
RTVSPropertyOp12
 70
     1
102
RTVSPropertyOp13
 70
     1
102
RTVSPropertyOp14
 70
     1
102
RTVSPropertyOp15
 70
     1
102
RTVSPropertyOp16
 70
     1
102
RTVSPropertyOp17
 70
     1
102
RTVSPropertyOp18
 70
     1
102
RTVSPropertyOp19
 70
     1
102
RTVSPropertyOp20
 70
     1
102
RTVSPropertyOp21
 70
     1
102
RTVSPropertyOp22
 70
     1
102
RTVSPropertyOp23
 70
     1
102
RTVSPropertyOp24
 70
     1
102
RTVSPropertyOp25
 70
     1
102
RTVSPropertyOp26
 70
     1
102
RTVSPropertyOp27
 70
     1
102
RTVSPropertyOp28
 70
     1
102
RTVSPropertyOp29
 70
     1
102
RTVSPropertyOp30
 70
     1
102
RTVSPropertyOp31
 70
     1
102
RTVSPropertyOp32
 70
     1
102
RTVSPropertyOp33
 70
     1
102
RTVSPropertyOp34
 70
     1
102
RTVSPropertyOp35
 70
     1
102
RTVSPropertyOp36
 70
     1
102
RTVSPropertyOp37
 70
     1
102
RTVSPropertyOp38
 70
     1
102
RTVSPropertyOp39
 70
     1
102
RTVSPropertyOp40
 70
     1
102
RTVSPropertyOp41
 70
     1
102
RTVSPropertyOp42
 70
     1
102
RTVSPropertyOp43
 70
     1
102
RTVSPropertyOp44
 70
     1
102
RTVSPropertyOp45
 70
     1
102
RTVSPropertyOp46
 70
     1
102
RTVSPropertyOp47
 70
     1
102
RTVSPropertyOp48
 70
     1
102
RTVSPropertyOp49
 70
     1
102
RTVSPropertyOp50
 70
     1
102
RTVSPropertyOp51
 70
     0
102
RTVSPropertyOp52
 70
     0
102
RTVSPropertyOp53
 70
     1
102
RTVSPropertyOp54
 70
     1
102
RTVSPropertyOp55
 70
     1
102
RTVSPropertyOp56
 70
     1
102
RTVSPropertyOp57
 70
     1
102
RTVSPost2010Prop28
280
     0
102
RTVSPost2010PropOp28
 70
     1
102
RTVSPost2010Prop29
280
     1
102
RTVSPost2010PropOp29
 70
     1
102
RTVSPost2010Prop30
280
     1
102
RTVSPost2010PropOp30
 70
     1
102
RTVSPost2010Prop31
280
     0
102
RTVSPost2010PropOp31
 70
     1
102
RTVSPost2010Prop32
280
     0
102
RTVSPost2010PropOp32
 70
     1
102
RTVSPost2010Prop33
280
     0
102
RTVSPost2010PropOp33
 70
     1
102
RTVSPost2010Prop34
280
     0
102
RTVSPost2010PropOp34
 70
     1
102
RTVSPost2010Prop35
280
     0
102
RTVSPost2010PropOp35
 70
     1
102
RTVSPost2010Prop36
280
     0
102
RTVSPost2010PropOp36
 70
     1
102
RTVSPost2010Prop37
 90
       50
102
RTVSPost2010PropOp37
 70
     1
102
RTVSPost2010Prop38
140
0.0
102
RTVSPost2010PropOp38
 70
     1
102
RTVSPost2010Prop39
140
1.0
102
RTVSPost2010PropOp39
 70
     1
102
RTVSPost2010Prop40
 90
        0
102
RTVSPost2010PropOp40
 70
     1
102
RTVSPost2010Prop41ColorIndex
 90
       18
102
RTVSPost2010Prop41ColorRGB
 90
        0
102
RTVSPost2010PropOp41
 70
     1
102
RTVSPost2010Prop42
 90
       50
102
RTVSPost2010PropOp42
 70
     1
102
RTVSPost2010Prop43
 90
        3
102
RTVSPost2010PropOp43
 70
     1
102
RTVSPost2010Prop44ColorIndex
 90
        5
102
RTVSPost2010Prop44ColorRGB
 90
      255
102
RTVSPost2010PropOp44
 70
     1
102
RTVSPost2010Prop45
280
     0
102
RTVSPost2010PropOp45
 70
     1
102
RTVSPost2010Prop46
 90
       50
102
RTVSPost2010PropOp46
 70
     1
102
RTVSPost2010Prop47
 90
       50
102
RTVSPost2010PropOp47
 70
     1
102
RTVSPost2010Prop48
 90
       50
102
RTVSPost2010PropOp48
 70
     1
102
RTVSPost2010Prop49
280
     0
102
RTVSPost2010PropOp49
 70
     1
102
RTVSPost2010Prop50
 90
       50
102
RTVSPost2010PropOp50
 70
     1
102
RTVSPost2010Prop51ColorIndex
 90
      256
102
RTVSPost2010Prop51ColorRGB
 90
-16777216
102
RTVSPost2010PropOp51
 70
     0
102
RTVSPost2010Prop52
140
1.0
102
RTVSPost2010PropOp52
 70
     0
102
RTVSPost2010Prop53
 90
        2
102
RTVSPost2010PropOp53
 70
     1
102
RTVSPost2010Prop54
  1
strokes_ogs.tif
102
RTVSPost2010PropOp54
 70
     1
102
RTVSPost2010Prop55
280
     0
102
RTVSPost2010PropOp55
 70
     1
102
RTVSPost2010Prop56
140
1.0
102
RTVSPost2010PropOp56
 70
     1
102
RTVSPost2010Prop57
140
1.0
102
RTVSPost2010PropOp57
 70
     1
  0
XRECORD
  5
626
102
{ACAD_REACTORS
330
625
102
}
330
625
100
AcDbXrecord
280
     1
102
RTVSPropertyOp0
 70
     1
102
RTVSPropertyOp1
 70
     1
102
RTVSPropertyOp2
 70
     1
102
RTVSPropertyOp3
 70
     1
102
RTVSPropertyOp4
 70
     1
102
RTVSPropertyOp5
 70
     1
102
RTVSPropertyOp6
 70
     1
102
RTVSPropertyOp7
 70
     1
102
RTVSPropertyOp8
 70
     1
102
RTVSPropertyOp9
 70
     1
102
RTVSPropertyOp10
 70
     1
102
RTVSPropertyOp11
 70
     1
102
RTVSPropertyOp12
 70
     1
102
RTVSPropertyOp13
 70
     1
102
RTVSPropertyOp14
 70
     1
102
RTVSPropertyOp15
 70
     1
102
RTVSPropertyOp16
 70
     1
102
RTVSPropertyOp17
 70
     1
102
RTVSPropertyOp18
 70
     1
102
RTVSPropertyOp19
 70
     1
102
RTVSPropertyOp20
 70
     1
102
RTVSPropertyOp21
 70
     1
102
RTVSPropertyOp22
 70
     1
102
RTVSPropertyOp23
 70
     1
102
RTVSPropertyOp24
 70
     1
102
RTVSPropertyOp25
 70
     1
102
RTVSPropertyOp26
 70
     1
102
RTVSPropertyOp27
 70
     1
102
RTVSPropertyOp28
 70
     1
102
RTVSPropertyOp29
 70
     1
102
RTVSPropertyOp30
 70
     1
102
RTVSPropertyOp31
 70
     1
102
RTVSPropertyOp32
 70
     1
102
RTVSPropertyOp33
 70
     1
102
RTVSPropertyOp34
 70
     1
102
RTVSPropertyOp35
 70
     1
102
RTVSPropertyOp36
 70
     1
102
RTVSPropertyOp37
 70
     1
102
RTVSPropertyOp38
 70
     1
102
RTVSPropertyOp39
 70
     1
102
RTVSPropertyOp40
 70
     1
102
RTVSPropertyOp41
 70
     1
102
RTVSPropertyOp42
 70
     1
102
RTVSPropertyOp43
 70
     1
102
RTVSPropertyOp44
 70
     1
102
RTVSPropertyOp45
 70
     1
102
RTVSPropertyOp46
 70
     1
102
RTVSPropertyOp47
 70
     1
102
RTVSPropertyOp48
 70
     1
102
RTVSPropertyOp49
 70
     1
102
RTVSPropertyOp50
 70
     1
102
RTVSPropertyOp51
 70
     0
102
RTVSPropertyOp52
 70
     0
102
RTVSPropertyOp53
 70
     1
102
RTVSPropertyOp54
 70
     1
102
RTVSPropertyOp55
 70
     1
102
RTVSPropertyOp56
 70
     1
102
RTVSPropertyOp57
 70
     1
102
RTVSPost2010Prop28
280
     0
102
RTVSPost2010PropOp28
 70
     1
102
RTVSPost2010Prop29
280
     1
102
RTVSPost2010PropOp29
 70
     1
102
RTVSPost2010Prop30
280
     1
102
RTVSPost2010PropOp30
 70
     1
102
RTVSPost2010Prop31
280
     0
102
RTVSPost2010PropOp31
 70
     1
102
RTVSPost2010Prop32
280
     0
102
RTVSPost2010PropOp32
 70
     1
102
RTVSPost2010Prop33
280
     0
102
RTVSPost2010PropOp33
 70
     1
102
RTVSPost2010Prop34
280
     0
102
RTVSPost2010PropOp34
 70
     1
102
RTVSPost2010Prop35
280
     0
102
RTVSPost2010PropOp35
 70
     1
102
RTVSPost2010Prop36
280
     0
102
RTVSPost2010PropOp36
 70
     1
102
RTVSPost2010Prop37
 90
       50
102
RTVSPost2010PropOp37
 70
     1
102
RTVSPost2010Prop38
140
0.0
102
RTVSPost2010PropOp38
 70
     1
102
RTVSPost2010Prop39
140
1.0
102
RTVSPost2010PropOp39
 70
     1
102
RTVSPost2010Prop40
 90
        0
102
RTVSPost2010PropOp40
 70
     1
102
RTVSPost2010Prop41ColorIndex
 90
       18
102
RTVSPost2010Prop41ColorRGB
 90
        0
102
RTVSPost2010PropOp41
 70
     1
102
RTVSPost2010Prop42
 90
       50
102
RTVSPost2010PropOp42
 70
     1
102
RTVSPost2010Prop43
 90
        3
102
RTVSPost2010PropOp43
 70
     1
102
RTVSPost2010Prop44ColorIndex
 90
        5
102
RTVSPost2010Prop44ColorRGB
 90
      255
102
RTVSPost2010PropOp44
 70
     1
102
RTVSPost2010Prop45
280
     0
102
RTVSPost2010PropOp45
 70
     1
102
RTVSPost2010Prop46
 90
       50
102
RTVSPost2010PropOp46
 70
     1
102
RTVSPost2010Prop47
 90
       50
102
RTVSPost2010PropOp47
 70
     1
102
RTVSPost2010Prop48
 90
       50
102
RTVSPost2010PropOp48
 70
     1
102
RTVSPost2010Prop49
280
     0
102
RTVSPost2010PropOp49
 70
     1
102
RTVSPost2010Prop50
 90
       50
102
RTVSPost2010PropOp50
 70
     1
102
RTVSPost2010Prop51ColorIndex
 90
      256
102
RTVSPost2010Prop51ColorRGB
 90
-16777216
102
RTVSPost2010PropOp51
 70
     0
102
RTVSPost2010Prop52
140
1.0
102
RTVSPost2010PropOp52
 70
     0
102
RTVSPost2010Prop53
 90
        2
102
RTVSPost2010PropOp53
 70
     1
102
RTVSPost2010Prop54
  1
strokes_ogs.tif
102
RTVSPost2010PropOp54
 70
     1
102
RTVSPost2010Prop55
280
     0
102
RTVSPost2010PropOp55
 70
     1
102
RTVSPost2010Prop56
140
1.0
102
RTVSPost2010PropOp56
 70
     1
102
RTVSPost2010Prop57
140
1.0
102
RTVSPost2010PropOp57
 70
     1
  0
XRECORD
  5
628
102
{ACAD_REACTORS
330
627
102
}
330
627
100
AcDbXrecord
280
     1
102
RTVSPropertyOp0
 70
     1
102
RTVSPropertyOp1
 70
     1
102
RTVSPropertyOp2
 70
     1
102
RTVSPropertyOp3
 70
     1
102
RTVSPropertyOp4
 70
     1
102
RTVSPropertyOp5
 70
     1
102
RTVSPropertyOp6
 70
     1
102
RTVSPropertyOp7
 70
     1
102
RTVSPropertyOp8
 70
     1
102
RTVSPropertyOp9
 70
     1
102
RTVSPropertyOp10
 70
     1
102
RTVSPropertyOp11
 70
     1
102
RTVSPropertyOp12
 70
     1
102
RTVSPropertyOp13
 70
     1
102
RTVSPropertyOp14
 70
     1
102
RTVSPropertyOp15
 70
     1
102
RTVSPropertyOp16
 70
     1
102
RTVSPropertyOp17
 70
     1
102
RTVSPropertyOp18
 70
     1
102
RTVSPropertyOp19
 70
     1
102
RTVSPropertyOp20
 70
     1
102
RTVSPropertyOp21
 70
     1
102
RTVSPropertyOp22
 70
     1
102
RTVSPropertyOp23
 70
     1
102
RTVSPropertyOp24
 70
     1
102
RTVSPropertyOp25
 70
     1
102
RTVSPropertyOp26
 70
     1
102
RTVSPropertyOp27
 70
     1
102
RTVSPropertyOp28
 70
     1
102
RTVSPropertyOp29
 70
     1
102
RTVSPropertyOp30
 70
     1
102
RTVSPropertyOp31
 70
     1
102
RTVSPropertyOp32
 70
     1
102
RTVSPropertyOp33
 70
     1
102
RTVSPropertyOp34
 70
     1
102
RTVSPropertyOp35
 70
     1
102
RTVSPropertyOp36
 70
     1
102
RTVSPropertyOp37
 70
     1
102
RTVSPropertyOp38
 70
     1
102
RTVSPropertyOp39
 70
     1
102
RTVSPropertyOp40
 70
     1
102
RTVSPropertyOp41
 70
     1
102
RTVSPropertyOp42
 70
     1
102
RTVSPropertyOp43
 70
     1
102
RTVSPropertyOp44
 70
     1
102
RTVSPropertyOp45
 70
     1
102
RTVSPropertyOp46
 70
     1
102
RTVSPropertyOp47
 70
     1
102
RTVSPropertyOp48
 70
     1
102
RTVSPropertyOp49
 70
     1
102
RTVSPropertyOp50
 70
     1
102
RTVSPropertyOp51
 70
     0
102
RTVSPropertyOp52
 70
     0
102
RTVSPropertyOp53
 70
     1
102
RTVSPropertyOp54
 70
     1
102
RTVSPropertyOp55
 70
     1
102
RTVSPropertyOp56
 70
     1
102
RTVSPropertyOp57
 70
     1
102
RTVSPost2010Prop28
280
     0
102
RTVSPost2010PropOp28
 70
     1
102
RTVSPost2010Prop29
280
     1
102
RTVSPost2010PropOp29
 70
     1
102
RTVSPost2010Prop30
280
     1
102
RTVSPost2010PropOp30
 70
     1
102
RTVSPost2010Prop31
280
     0
102
RTVSPost2010PropOp31
 70
     1
102
RTVSPost2010Prop32
280
     0
102
RTVSPost2010PropOp32
 70
     1
102
RTVSPost2010Prop33
280
     0
102
RTVSPost2010PropOp33
 70
     1
102
RTVSPost2010Prop34
280
     0
102
RTVSPost2010PropOp34
 70
     1
102
RTVSPost2010Prop35
280
     0
102
RTVSPost2010PropOp35
 70
     1
102
RTVSPost2010Prop36
280
     0
102
RTVSPost2010PropOp36
 70
     1
102
RTVSPost2010Prop37
 90
       50
102
RTVSPost2010PropOp37
 70
     1
102
RTVSPost2010Prop38
140
0.0
102
RTVSPost2010PropOp38
 70
     1
102
RTVSPost2010Prop39
140
1.0
102
RTVSPost2010PropOp39
 70
     1
102
RTVSPost2010Prop40
 90
        0
102
RTVSPost2010PropOp40
 70
     1
102
RTVSPost2010Prop41ColorIndex
 90
       18
102
RTVSPost2010Prop41ColorRGB
 90
        0
102
RTVSPost2010PropOp41
 70
     1
102
RTVSPost2010Prop42
 90
       50
102
RTVSPost2010PropOp42
 70
     1
102
RTVSPost2010Prop43
 90
        3
102
RTVSPost2010PropOp43
 70
     1
102
RTVSPost2010Prop44ColorIndex
 90
        5
102
RTVSPost2010Prop44ColorRGB
 90
      255
102
RTVSPost2010PropOp44
 70
     1
102
RTVSPost2010Prop45
280
     0
102
RTVSPost2010PropOp45
 70
     1
102
RTVSPost2010Prop46
 90
       50
102
RTVSPost2010PropOp46
 70
     1
102
RTVSPost2010Prop47
 90
       50
102
RTVSPost2010PropOp47
 70
     1
102
RTVSPost2010Prop48
 90
       50
102
RTVSPost2010PropOp48
 70
     1
102
RTVSPost2010Prop49
280
     0
102
RTVSPost2010PropOp49
 70
     1
102
RTVSPost2010Prop50
 90
       50
102
RTVSPost2010PropOp50
 70
     1
102
RTVSPost2010Prop51ColorIndex
 90
      256
102
RTVSPost2010Prop51ColorRGB
 90
-16777216
102
RTVSPost2010PropOp51
 70
     0
102
RTVSPost2010Prop52
140
1.0
102
RTVSPost2010PropOp52
 70
     0
102
RTVSPost2010Prop53
 90
        2
102
RTVSPost2010PropOp53
 70
     1
102
RTVSPost2010Prop54
  1
strokes_ogs.tif
102
RTVSPost2010PropOp54
 70
     1
102
RTVSPost2010Prop55
280
     0
102
RTVSPost2010PropOp55
 70
     1
102
RTVSPost2010Prop56
140
1.0
102
RTVSPost2010PropOp56
 70
     1
102
RTVSPost2010Prop57
140
1.0
102
RTVSPost2010PropOp57
 70
     1
  0
XRECORD
  5
638
102
{ACAD_REACTORS
330
637
102
}
330
637
100
AcDbXrecord
280
     1
102
RTVSPropertyOp0
 70
     0
102
RTVSPropertyOp1
 70
     0
102
RTVSPropertyOp2
 70
     0
102
RTVSPropertyOp3
 70
     0
102
RTVSPropertyOp4
 70
     0
102
RTVSPropertyOp5
 70
     0
102
RTVSPropertyOp6
 70
     0
102
RTVSPropertyOp7
 70
     0
102
RTVSPropertyOp8
 70
     0
102
RTVSPropertyOp9
 70
     0
102
RTVSPropertyOp10
 70
     0
102
RTVSPropertyOp11
 70
     0
102
RTVSPropertyOp12
 70
     0
102
RTVSPropertyOp13
 70
     0
102
RTVSPropertyOp14
 70
     0
102
RTVSPropertyOp15
 70
     0
102
RTVSPropertyOp16
 70
     0
102
RTVSPropertyOp17
 70
     0
102
RTVSPropertyOp18
 70
     0
102
RTVSPropertyOp19
 70
     0
102
RTVSPropertyOp20
 70
     0
102
RTVSPropertyOp21
 70
     0
102
RTVSPropertyOp22
 70
     0
102
RTVSPropertyOp23
 70
     0
102
RTVSPropertyOp24
 70
     0
102
RTVSPropertyOp25
 70
     0
102
RTVSPropertyOp26
 70
     0
102
RTVSPropertyOp27
 70
     0
102
RTVSPropertyOp28
 70
     1
102
RTVSPropertyOp29
 70
     1
102
RTVSPropertyOp30
 70
     1
102
RTVSPropertyOp31
 70
     1
102
RTVSPropertyOp32
 70
     1
102
RTVSPropertyOp33
 70
     1
102
RTVSPropertyOp34
 70
     1
102
RTVSPropertyOp35
 70
     1
102
RTVSPropertyOp36
 70
     1
102
RTVSPropertyOp37
 70
     1
102
RTVSPropertyOp38
 70
     1
102
RTVSPropertyOp39
 70
     1
102
RTVSPropertyOp40
 70
     1
102
RTVSPropertyOp41
 70
     1
102
RTVSPropertyOp42
 70
     1
102
RTVSPropertyOp43
 70
     1
102
RTVSPropertyOp44
 70
     1
102
RTVSPropertyOp45
 70
     1
102
RTVSPropertyOp46
 70
     1
102
RTVSPropertyOp47
 70
     1
102
RTVSPropertyOp48
 70
     1
102
RTVSPropertyOp49
 70
     1
102
RTVSPropertyOp50
 70
     1
102
RTVSPropertyOp51
 70
     0
102
RTVSPropertyOp52
 70
     0
102
RTVSPropertyOp53
 70
     1
102
RTVSPropertyOp54
 70
     1
102
RTVSPropertyOp55
 70
     1
102
RTVSPropertyOp56
 70
     1
102
RTVSPropertyOp57
 70
     1
102
RTVSPost2010Prop28
280
     0
102
RTVSPost2010PropOp28
 70
     1
102
RTVSPost2010Prop29
280
     1
102
RTVSPost2010PropOp29
 70
     1
102
RTVSPost2010Prop30
280
     1
102
RTVSPost2010PropOp30
 70
     1
102
RTVSPost2010Prop31
280
     0
102
RTVSPost2010PropOp31
 70
     1
102
RTVSPost2010Prop32
280
     0
102
RTVSPost2010PropOp32
 70
     1
102
RTVSPost2010Prop33
280
     0
102
RTVSPost2010PropOp33
 70
     1
102
RTVSPost2010Prop34
280
     0
102
RTVSPost2010PropOp34
 70
     1
102
RTVSPost2010Prop35
280
     0
102
RTVSPost2010PropOp35
 70
     1
102
RTVSPost2010Prop36
280
     0
102
RTVSPost2010PropOp36
 70
     1
102
RTVSPost2010Prop37
 90
       50
102
RTVSPost2010PropOp37
 70
     1
102
RTVSPost2010Prop38
140
0.0
102
RTVSPost2010PropOp38
 70
     1
102
RTVSPost2010Prop39
140
1.0
102
RTVSPost2010PropOp39
 70
     1
102
RTVSPost2010Prop40
 90
        0
102
RTVSPost2010PropOp40
 70
     1
102
RTVSPost2010Prop41ColorIndex
 90
       18
102
RTVSPost2010Prop41ColorRGB
 90
        0
102
RTVSPost2010PropOp41
 70
     1
102
RTVSPost2010Prop42
 90
       50
102
RTVSPost2010PropOp42
 70
     1
102
RTVSPost2010Prop43
 90
        3
102
RTVSPost2010PropOp43
 70
     1
102
RTVSPost2010Prop44ColorIndex
 90
        5
102
RTVSPost2010Prop44ColorRGB
 90
      255
102
RTVSPost2010PropOp44
 70
     1
102
RTVSPost2010Prop45
280
     0
102
RTVSPost2010PropOp45
 70
     1
102
RTVSPost2010Prop46
 90
       50
102
RTVSPost2010PropOp46
 70
     1
102
RTVSPost2010Prop47
 90
       50
102
RTVSPost2010PropOp47
 70
     1
102
RTVSPost2010Prop48
 90
       50
102
RTVSPost2010PropOp48
 70
     1
102
RTVSPost2010Prop49
280
     0
102
RTVSPost2010PropOp49
 70
     1
102
RTVSPost2010Prop50
 90
       50
102
RTVSPost2010PropOp50
 70
     1
102
RTVSPost2010Prop51ColorIndex
 90
      256
102
RTVSPost2010Prop51ColorRGB
 90
-16777216
102
RTVSPost2010PropOp51
 70
     0
102
RTVSPost2010Prop52
140
1.0
102
RTVSPost2010PropOp52
 70
     0
102
RTVSPost2010Prop53
 90
        2
102
RTVSPost2010PropOp53
 70
     1
102
RTVSPost2010Prop54
  1
strokes_ogs.tif
102
RTVSPost2010PropOp54
 70
     1
102
RTVSPost2010Prop55
280
     0
102
RTVSPost2010PropOp55
 70
     1
102
RTVSPost2010Prop56
140
1.0
102
RTVSPost2010PropOp56
 70
     1
102
RTVSPost2010Prop57
140
1.0
102
RTVSPost2010PropOp57
 70
     1
  0
XRECORD
  5
630
102
{ACAD_REACTORS
330
62F
102
}
330
62F
100
AcDbXrecord
280
     1
102
RTVSPropertyOp0
 70
     1
102
RTVSPropertyOp1
 70
     1
102
RTVSPropertyOp2
 70
     1
102
RTVSPropertyOp3
 70
     1
102
RTVSPropertyOp4
 70
     1
102
RTVSPropertyOp5
 70
     1
102
RTVSPropertyOp6
 70
     1
102
RTVSPropertyOp7
 70
     1
102
RTVSPropertyOp8
 70
     1
102
RTVSPropertyOp9
 70
     1
102
RTVSPropertyOp10
 70
     1
102
RTVSPropertyOp11
 70
     1
102
RTVSPropertyOp12
 70
     1
102
RTVSPropertyOp13
 70
     1
102
RTVSPropertyOp14
 70
     1
102
RTVSPropertyOp15
 70
     1
102
RTVSPropertyOp16
 70
     1
102
RTVSPropertyOp17
 70
     1
102
RTVSPropertyOp18
 70
     1
102
RTVSPropertyOp19
 70
     1
102
RTVSPropertyOp20
 70
     1
102
RTVSPropertyOp21
 70
     1
102
RTVSPropertyOp22
 70
     1
102
RTVSPropertyOp23
 70
     1
102
RTVSPropertyOp24
 70
     1
102
RTVSPropertyOp25
 70
     1
102
RTVSPropertyOp26
 70
     1
102
RTVSPropertyOp27
 70
     1
102
RTVSPropertyOp28
 70
     1
102
RTVSPropertyOp29
 70
     1
102
RTVSPropertyOp30
 70
     1
102
RTVSPropertyOp31
 70
     1
102
RTVSPropertyOp32
 70
     1
102
RTVSPropertyOp33
 70
     1
102
RTVSPropertyOp34
 70
     1
102
RTVSPropertyOp35
 70
     1
102
RTVSPropertyOp36
 70
     1
102
RTVSPropertyOp37
 70
     1
102
RTVSPropertyOp38
 70
     1
102
RTVSPropertyOp39
 70
     1
102
RTVSPropertyOp40
 70
     1
102
RTVSPropertyOp41
 70
     1
102
RTVSPropertyOp42
 70
     1
102
RTVSPropertyOp43
 70
     1
102
RTVSPropertyOp44
 70
     1
102
RTVSPropertyOp45
 70
     1
102
RTVSPropertyOp46
 70
     1
102
RTVSPropertyOp47
 70
     1
102
RTVSPropertyOp48
 70
     1
102
RTVSPropertyOp49
 70
     1
102
RTVSPropertyOp50
 70
     1
102
RTVSPropertyOp51
 70
     0
102
RTVSPropertyOp52
 70
     0
102
RTVSPropertyOp53
 70
     1
102
RTVSPropertyOp54
 70
     1
102
RTVSPropertyOp55
 70
     1
102
RTVSPropertyOp56
 70
     1
102
RTVSPropertyOp57
 70
     1
102
RTVSPost2010Prop28
280
     0
102
RTVSPost2010PropOp28
 70
     1
102
RTVSPost2010Prop29
280
     1
102
RTVSPost2010PropOp29
 70
     1
102
RTVSPost2010Prop30
280
     1
102
RTVSPost2010PropOp30
 70
     1
102
RTVSPost2010Prop31
280
     0
102
RTVSPost2010PropOp31
 70
     1
102
RTVSPost2010Prop32
280
     0
102
RTVSPost2010PropOp32
 70
     1
102
RTVSPost2010Prop33
280
     0
102
RTVSPost2010PropOp33
 70
     1
102
RTVSPost2010Prop34
280
     0
102
RTVSPost2010PropOp34
 70
     1
102
RTVSPost2010Prop35
280
     0
102
RTVSPost2010PropOp35
 70
     1
102
RTVSPost2010Prop36
280
     0
102
RTVSPost2010PropOp36
 70
     1
102
RTVSPost2010Prop37
 90
       50
102
RTVSPost2010PropOp37
 70
     1
102
RTVSPost2010Prop38
140
0.0
102
RTVSPost2010PropOp38
 70
     1
102
RTVSPost2010Prop39
140
1.0
102
RTVSPost2010PropOp39
 70
     1
102
RTVSPost2010Prop40
 90
        0
102
RTVSPost2010PropOp40
 70
     1
102
RTVSPost2010Prop41ColorIndex
 90
       18
102
RTVSPost2010Prop41ColorRGB
 90
        0
102
RTVSPost2010PropOp41
 70
     1
102
RTVSPost2010Prop42
 90
       50
102
RTVSPost2010PropOp42
 70
     1
102
RTVSPost2010Prop43
 90
        3
102
RTVSPost2010PropOp43
 70
     1
102
RTVSPost2010Prop44ColorIndex
 90
        5
102
RTVSPost2010Prop44ColorRGB
 90
      255
102
RTVSPost2010PropOp44
 70
     1
102
RTVSPost2010Prop45
280
     0
102
RTVSPost2010PropOp45
 70
     1
102
RTVSPost2010Prop46
 90
       50
102
RTVSPost2010PropOp46
 70
     1
102
RTVSPost2010Prop47
 90
       50
102
RTVSPost2010PropOp47
 70
     1
102
RTVSPost2010Prop48
 90
       50
102
RTVSPost2010PropOp48
 70
     1
102
RTVSPost2010Prop49
280
     0
102
RTVSPost2010PropOp49
 70
     1
102
RTVSPost2010Prop50
 90
       50
102
RTVSPost2010PropOp50
 70
     1
102
RTVSPost2010Prop51ColorIndex
 90
      256
102
RTVSPost2010Prop51ColorRGB
 90
-16777216
102
RTVSPost2010PropOp51
 70
     0
102
RTVSPost2010Prop52
140
1.0
102
RTVSPost2010PropOp52
 70
     0
102
RTVSPost2010Prop53
 90
        2
102
RTVSPost2010PropOp53
 70
     1
102
RTVSPost2010Prop54
  1
strokes_ogs.tif
102
RTVSPost2010PropOp54
 70
     1
102
RTVSPost2010Prop55
280
     0
102
RTVSPost2010PropOp55
 70
     1
102
RTVSPost2010Prop56
140
1.0
102
RTVSPost2010PropOp56
 70
     1
102
RTVSPost2010Prop57
140
1.0
102
RTVSPost2010PropOp57
 70
     1
  0
XRECORD
  5
614
102
{ACAD_REACTORS
330
613
102
}
330
613
100
AcDbXrecord
280
     1
102
RTVSPropertyOp0
 70
     1
102
RTVSPropertyOp1
 70
     1
102
RTVSPropertyOp2
 70
     1
102
RTVSPropertyOp3
 70
     1
102
RTVSPropertyOp4
 70
     1
102
RTVSPropertyOp5
 70
     1
102
RTVSPropertyOp6
 70
     1
102
RTVSPropertyOp7
 70
     1
102
RTVSPropertyOp8
 70
     1
102
RTVSPropertyOp9
 70
     1
102
RTVSPropertyOp10
 70
     1
102
RTVSPropertyOp11
 70
     1
102
RTVSPropertyOp12
 70
     1
102
RTVSPropertyOp13
 70
     1
102
RTVSPropertyOp14
 70
     1
102
RTVSPropertyOp15
 70
     1
102
RTVSPropertyOp16
 70
     1
102
RTVSPropertyOp17
 70
     1
102
RTVSPropertyOp18
 70
     1
102
RTVSPropertyOp19
 70
     1
102
RTVSPropertyOp20
 70
     1
102
RTVSPropertyOp21
 70
     1
102
RTVSPropertyOp22
 70
     1
102
RTVSPropertyOp23
 70
     1
102
RTVSPropertyOp24
 70
     1
102
RTVSPropertyOp25
 70
     1
102
RTVSPropertyOp26
 70
     1
102
RTVSPropertyOp27
 70
     1
102
RTVSPropertyOp28
 70
     1
102
RTVSPropertyOp29
 70
     1
102
RTVSPropertyOp30
 70
     1
102
RTVSPropertyOp31
 70
     1
102
RTVSPropertyOp32
 70
     1
102
RTVSPropertyOp33
 70
     1
102
RTVSPropertyOp34
 70
     1
102
RTVSPropertyOp35
 70
     1
102
RTVSPropertyOp36
 70
     1
102
RTVSPropertyOp37
 70
     1
102
RTVSPropertyOp38
 70
     1
102
RTVSPropertyOp39
 70
     1
102
RTVSPropertyOp40
 70
     1
102
RTVSPropertyOp41
 70
     1
102
RTVSPropertyOp42
 70
     1
102
RTVSPropertyOp43
 70
     1
102
RTVSPropertyOp44
 70
     1
102
RTVSPropertyOp45
 70
     1
102
RTVSPropertyOp46
 70
     1
102
RTVSPropertyOp47
 70
     1
102
RTVSPropertyOp48
 70
     1
102
RTVSPropertyOp49
 70
     1
102
RTVSPropertyOp50
 70
     1
102
RTVSPropertyOp51
 70
     0
102
RTVSPropertyOp52
 70
     0
102
RTVSPropertyOp53
 70
     1
102
RTVSPropertyOp54
 70
     1
102
RTVSPropertyOp55
 70
     1
102
RTVSPropertyOp56
 70
     1
102
RTVSPropertyOp57
 70
     1
102
RTVSPost2010Prop28
280
     0
102
RTVSPost2010PropOp28
 70
     1
102
RTVSPost2010Prop29
280
     1
102
RTVSPost2010PropOp29
 70
     1
102
RTVSPost2010Prop30
280
     1
102
RTVSPost2010PropOp30
 70
     1
102
RTVSPost2010Prop31
280
     0
102
RTVSPost2010PropOp31
 70
     1
102
RTVSPost2010Prop32
280
     0
102
RTVSPost2010PropOp32
 70
     1
102
RTVSPost2010Prop33
280
     0
102
RTVSPost2010PropOp33
 70
     1
102
RTVSPost2010Prop34
280
     0
102
RTVSPost2010PropOp34
 70
     1
102
RTVSPost2010Prop35
280
     0
102
RTVSPost2010PropOp35
 70
     1
102
RTVSPost2010Prop36
280
     0
102
RTVSPost2010PropOp36
 70
     1
102
RTVSPost2010Prop37
 90
       50
102
RTVSPost2010PropOp37
 70
     1
102
RTVSPost2010Prop38
140
0.0
102
RTVSPost2010PropOp38
 70
     1
102
RTVSPost2010Prop39
140
1.0
102
RTVSPost2010PropOp39
 70
     1
102
RTVSPost2010Prop40
 90
        0
102
RTVSPost2010PropOp40
 70
     1
102
RTVSPost2010Prop41ColorIndex
 90
       18
102
RTVSPost2010Prop41ColorRGB
 90
        0
102
RTVSPost2010PropOp41
 70
     1
102
RTVSPost2010Prop42
 90
       50
102
RTVSPost2010PropOp42
 70
     1
102
RTVSPost2010Prop43
 90
        3
102
RTVSPost2010PropOp43
 70
     1
102
RTVSPost2010Prop44ColorIndex
 90
        5
102
RTVSPost2010Prop44ColorRGB
 90
      255
102
RTVSPost2010PropOp44
 70
     1
102
RTVSPost2010Prop45
280
     0
102
RTVSPost2010PropOp45
 70
     1
102
RTVSPost2010Prop46
 90
       50
102
RTVSPost2010PropOp46
 70
     1
102
RTVSPost2010Prop47
 90
       50
102
RTVSPost2010PropOp47
 70
     1
102
RTVSPost2010Prop48
 90
       50
102
RTVSPost2010PropOp48
 70
     1
102
RTVSPost2010Prop49
280
     0
102
RTVSPost2010PropOp49
 70
     1
102
RTVSPost2010Prop50
 90
       50
102
RTVSPost2010PropOp50
 70
     1
102
RTVSPost2010Prop51ColorIndex
 90
      256
102
RTVSPost2010Prop51ColorRGB
 90
-16777216
102
RTVSPost2010PropOp51
 70
     0
102
RTVSPost2010Prop52
140
1.0
102
RTVSPost2010PropOp52
 70
     0
102
RTVSPost2010Prop53
 90
        2
102
RTVSPost2010PropOp53
 70
     1
102
RTVSPost2010Prop54
  1
strokes_ogs.tif
102
RTVSPost2010PropOp54
 70
     1
102
RTVSPost2010Prop55
280
     0
102
RTVSPost2010PropOp55
 70
     1
102
RTVSPost2010Prop56
140
1.0
102
RTVSPost2010PropOp56
 70
     1
102
RTVSPost2010Prop57
140
1.0
102
RTVSPost2010PropOp57
 70
     1
  0
XRECORD
  5
616
102
{ACAD_REACTORS
330
615
102
}
330
615
100
AcDbXrecord
280
     1
102
RTVSPropertyOp0
 70
     1
102
RTVSPropertyOp1
 70
     1
102
RTVSPropertyOp2
 70
     1
102
RTVSPropertyOp3
 70
     1
102
RTVSPropertyOp4
 70
     1
102
RTVSPropertyOp5
 70
     1
102
RTVSPropertyOp6
 70
     1
102
RTVSPropertyOp7
 70
     1
102
RTVSPropertyOp8
 70
     1
102
RTVSPropertyOp9
 70
     1
102
RTVSPropertyOp10
 70
     1
102
RTVSPropertyOp11
 70
     1
102
RTVSPropertyOp12
 70
     1
102
RTVSPropertyOp13
 70
     1
102
RTVSPropertyOp14
 70
     1
102
RTVSPropertyOp15
 70
     1
102
RTVSPropertyOp16
 70
     1
102
RTVSPropertyOp17
 70
     1
102
RTVSPropertyOp18
 70
     1
102
RTVSPropertyOp19
 70
     1
102
RTVSPropertyOp20
 70
     1
102
RTVSPropertyOp21
 70
     1
102
RTVSPropertyOp22
 70
     1
102
RTVSPropertyOp23
 70
     1
102
RTVSPropertyOp24
 70
     1
102
RTVSPropertyOp25
 70
     1
102
RTVSPropertyOp26
 70
     1
102
RTVSPropertyOp27
 70
     1
102
RTVSPropertyOp28
 70
     1
102
RTVSPropertyOp29
 70
     1
102
RTVSPropertyOp30
 70
     1
102
RTVSPropertyOp31
 70
     1
102
RTVSPropertyOp32
 70
     1
102
RTVSPropertyOp33
 70
     1
102
RTVSPropertyOp34
 70
     1
102
RTVSPropertyOp35
 70
     1
102
RTVSPropertyOp36
 70
     1
102
RTVSPropertyOp37
 70
     1
102
RTVSPropertyOp38
 70
     1
102
RTVSPropertyOp39
 70
     1
102
RTVSPropertyOp40
 70
     1
102
RTVSPropertyOp41
 70
     1
102
RTVSPropertyOp42
 70
     1
102
RTVSPropertyOp43
 70
     1
102
RTVSPropertyOp44
 70
     1
102
RTVSPropertyOp45
 70
     1
102
RTVSPropertyOp46
 70
     1
102
RTVSPropertyOp47
 70
     1
102
RTVSPropertyOp48
 70
     1
102
RTVSPropertyOp49
 70
     1
102
RTVSPropertyOp50
 70
     1
102
RTVSPropertyOp51
 70
     0
102
RTVSPropertyOp52
 70
     0
102
RTVSPropertyOp53
 70
     1
102
RTVSPropertyOp54
 70
     1
102
RTVSPropertyOp55
 70
     1
102
RTVSPropertyOp56
 70
     1
102
RTVSPropertyOp57
 70
     1
102
RTVSPost2010Prop28
280
     0
102
RTVSPost2010PropOp28
 70
     1
102
RTVSPost2010Prop29
280
     1
102
RTVSPost2010PropOp29
 70
     1
102
RTVSPost2010Prop30
280
     1
102
RTVSPost2010PropOp30
 70
     1
102
RTVSPost2010Prop31
280
     0
102
RTVSPost2010PropOp31
 70
     1
102
RTVSPost2010Prop32
280
     0
102
RTVSPost2010PropOp32
 70
     1
102
RTVSPost2010Prop33
280
     0
102
RTVSPost2010PropOp33
 70
     1
102
RTVSPost2010Prop34
280
     0
102
RTVSPost2010PropOp34
 70
     1
102
RTVSPost2010Prop35
280
     0
102
RTVSPost2010PropOp35
 70
     1
102
RTVSPost2010Prop36
280
     0
102
RTVSPost2010PropOp36
 70
     1
102
RTVSPost2010Prop37
 90
       50
102
RTVSPost2010PropOp37
 70
     1
102
RTVSPost2010Prop38
140
0.0
102
RTVSPost2010PropOp38
 70
     1
102
RTVSPost2010Prop39
140
1.0
102
RTVSPost2010PropOp39
 70
     1
102
RTVSPost2010Prop40
 90
        0
102
RTVSPost2010PropOp40
 70
     1
102
RTVSPost2010Prop41ColorIndex
 90
       18
102
RTVSPost2010Prop41ColorRGB
 90
        0
102
RTVSPost2010PropOp41
 70
     1
102
RTVSPost2010Prop42
 90
       50
102
RTVSPost2010PropOp42
 70
     1
102
RTVSPost2010Prop43
 90
        3
102
RTVSPost2010PropOp43
 70
     1
102
RTVSPost2010Prop44ColorIndex
 90
        5
102
RTVSPost2010Prop44ColorRGB
 90
      255
102
RTVSPost2010PropOp44
 70
     1
102
RTVSPost2010Prop45
280
     0
102
RTVSPost2010PropOp45
 70
     1
102
RTVSPost2010Prop46
 90
       50
102
RTVSPost2010PropOp46
 70
     1
102
RTVSPost2010Prop47
 90
       50
102
RTVSPost2010PropOp47
 70
     1
102
RTVSPost2010Prop48
 90
       50
102
RTVSPost2010PropOp48
 70
     1
102
RTVSPost2010Prop49
280
     0
102
RTVSPost2010PropOp49
 70
     1
102
RTVSPost2010Prop50
 90
       50
102
RTVSPost2010PropOp50
 70
     1
102
RTVSPost2010Prop51ColorIndex
 90
      256
102
RTVSPost2010Prop51ColorRGB
 90
-16777216
102
RTVSPost2010PropOp51
 70
     0
102
RTVSPost2010Prop52
140
1.0
102
RTVSPost2010PropOp52
 70
     0
102
RTVSPost2010Prop53
 90
        2
102
RTVSPost2010PropOp53
 70
     1
102
RTVSPost2010Prop54
  1
strokes_ogs.tif
102
RTVSPost2010PropOp54
 70
     1
102
RTVSPost2010Prop55
280
     0
102
RTVSPost2010PropOp55
 70
     1
102
RTVSPost2010Prop56
140
1.0
102
RTVSPost2010PropOp56
 70
     1
102
RTVSPost2010Prop57
140
1.0
102
RTVSPost2010PropOp57
 70
     1
  0
XRECORD
  5
618
102
{ACAD_REACTORS
330
617
102
}
330
617
100
AcDbXrecord
280
     1
102
RTVSPropertyOp0
 70
     1
102
RTVSPropertyOp1
 70
     1
102
RTVSPropertyOp2
 70
     1
102
RTVSPropertyOp3
 70
     1
102
RTVSPropertyOp4
 70
     1
102
RTVSPropertyOp5
 70
     1
102
RTVSPropertyOp6
 70
     1
102
RTVSPropertyOp7
 70
     1
102
RTVSPropertyOp8
 70
     1
102
RTVSPropertyOp9
 70
     1
102
RTVSPropertyOp10
 70
     1
102
RTVSPropertyOp11
 70
     1
102
RTVSPropertyOp12
 70
     1
102
RTVSPropertyOp13
 70
     1
102
RTVSPropertyOp14
 70
     1
102
RTVSPropertyOp15
 70
     1
102
RTVSPropertyOp16
 70
     1
102
RTVSPropertyOp17
 70
     1
102
RTVSPropertyOp18
 70
     1
102
RTVSPropertyOp19
 70
     1
102
RTVSPropertyOp20
 70
     1
102
RTVSPropertyOp21
 70
     1
102
RTVSPropertyOp22
 70
     1
102
RTVSPropertyOp23
 70
     1
102
RTVSPropertyOp24
 70
     1
102
RTVSPropertyOp25
 70
     1
102
RTVSPropertyOp26
 70
     1
102
RTVSPropertyOp27
 70
     1
102
RTVSPropertyOp28
 70
     1
102
RTVSPropertyOp29
 70
     1
102
RTVSPropertyOp30
 70
     1
102
RTVSPropertyOp31
 70
     1
102
RTVSPropertyOp32
 70
     1
102
RTVSPropertyOp33
 70
     1
102
RTVSPropertyOp34
 70
     1
102
RTVSPropertyOp35
 70
     1
102
RTVSPropertyOp36
 70
     1
102
RTVSPropertyOp37
 70
     1
102
RTVSPropertyOp38
 70
     1
102
RTVSPropertyOp39
 70
     1
102
RTVSPropertyOp40
 70
     1
102
RTVSPropertyOp41
 70
     1
102
RTVSPropertyOp42
 70
     1
102
RTVSPropertyOp43
 70
     1
102
RTVSPropertyOp44
 70
     1
102
RTVSPropertyOp45
 70
     1
102
RTVSPropertyOp46
 70
     1
102
RTVSPropertyOp47
 70
     1
102
RTVSPropertyOp48
 70
     1
102
RTVSPropertyOp49
 70
     1
102
RTVSPropertyOp50
 70
     1
102
RTVSPropertyOp51
 70
     0
102
RTVSPropertyOp52
 70
     0
102
RTVSPropertyOp53
 70
     1
102
RTVSPropertyOp54
 70
     1
102
RTVSPropertyOp55
 70
     1
102
RTVSPropertyOp56
 70
     1
102
RTVSPropertyOp57
 70
     1
102
RTVSPost2010Prop28
280
     0
102
RTVSPost2010PropOp28
 70
     1
102
RTVSPost2010Prop29
280
     1
102
RTVSPost2010PropOp29
 70
     1
102
RTVSPost2010Prop30
280
     1
102
RTVSPost2010PropOp30
 70
     1
102
RTVSPost2010Prop31
280
     0
102
RTVSPost2010PropOp31
 70
     1
102
RTVSPost2010Prop32
280
     0
102
RTVSPost2010PropOp32
 70
     1
102
RTVSPost2010Prop33
280
     0
102
RTVSPost2010PropOp33
 70
     1
102
RTVSPost2010Prop34
280
     0
102
RTVSPost2010PropOp34
 70
     1
102
RTVSPost2010Prop35
280
     0
102
RTVSPost2010PropOp35
 70
     1
102
RTVSPost2010Prop36
280
     0
102
RTVSPost2010PropOp36
 70
     1
102
RTVSPost2010Prop37
 90
       50
102
RTVSPost2010PropOp37
 70
     1
102
RTVSPost2010Prop38
140
0.0
102
RTVSPost2010PropOp38
 70
     1
102
RTVSPost2010Prop39
140
1.0
102
RTVSPost2010PropOp39
 70
     1
102
RTVSPost2010Prop40
 90
        0
102
RTVSPost2010PropOp40
 70
     1
102
RTVSPost2010Prop41ColorIndex
 90
       18
102
RTVSPost2010Prop41ColorRGB
 90
        0
102
RTVSPost2010PropOp41
 70
     1
102
RTVSPost2010Prop42
 90
       50
102
RTVSPost2010PropOp42
 70
     1
102
RTVSPost2010Prop43
 90
        3
102
RTVSPost2010PropOp43
 70
     1
102
RTVSPost2010Prop44ColorIndex
 90
        5
102
RTVSPost2010Prop44ColorRGB
 90
      255
102
RTVSPost2010PropOp44
 70
     1
102
RTVSPost2010Prop45
280
     0
102
RTVSPost2010PropOp45
 70
     1
102
RTVSPost2010Prop46
 90
       50
102
RTVSPost2010PropOp46
 70
     1
102
RTVSPost2010Prop47
 90
       50
102
RTVSPost2010PropOp47
 70
     1
102
RTVSPost2010Prop48
 90
       50
102
RTVSPost2010PropOp48
 70
     1
102
RTVSPost2010Prop49
280
     0
102
RTVSPost2010PropOp49
 70
     1
102
RTVSPost2010Prop50
 90
       50
102
RTVSPost2010PropOp50
 70
     1
102
RTVSPost2010Prop51ColorIndex
 90
      256
102
RTVSPost2010Prop51ColorRGB
 90
-16777216
102
RTVSPost2010PropOp51
 70
     0
102
RTVSPost2010Prop52
140
1.0
102
RTVSPost2010PropOp52
 70
     0
102
RTVSPost2010Prop53
 90
        2
102
RTVSPost2010PropOp53
 70
     1
102
RTVSPost2010Prop54
  1
strokes_ogs.tif
102
RTVSPost2010PropOp54
 70
     1
102
RTVSPost2010Prop55
280
     0
102
RTVSPost2010PropOp55
 70
     1
102
RTVSPost2010Prop56
140
1.0
102
RTVSPost2010PropOp56
 70
     1
102
RTVSPost2010Prop57
140
1.0
102
RTVSPost2010PropOp57
 70
     1
  0
XRECORD
  5
61A
102
{ACAD_REACTORS
330
619
102
}
330
619
100
AcDbXrecord
280
     1
102
RTVSPropertyOp0
 70
     1
102
RTVSPropertyOp1
 70
     1
102
RTVSPropertyOp2
 70
     1
102
RTVSPropertyOp3
 70
     1
102
RTVSPropertyOp4
 70
     1
102
RTVSPropertyOp5
 70
     1
102
RTVSPropertyOp6
 70
     1
102
RTVSPropertyOp7
 70
     1
102
RTVSPropertyOp8
 70
     1
102
RTVSPropertyOp9
 70
     1
102
RTVSPropertyOp10
 70
     1
102
RTVSPropertyOp11
 70
     1
102
RTVSPropertyOp12
 70
     1
102
RTVSPropertyOp13
 70
     1
102
RTVSPropertyOp14
 70
     1
102
RTVSPropertyOp15
 70
     1
102
RTVSPropertyOp16
 70
     1
102
RTVSPropertyOp17
 70
     1
102
RTVSPropertyOp18
 70
     1
102
RTVSPropertyOp19
 70
     1
102
RTVSPropertyOp20
 70
     1
102
RTVSPropertyOp21
 70
     1
102
RTVSPropertyOp22
 70
     1
102
RTVSPropertyOp23
 70
     1
102
RTVSPropertyOp24
 70
     1
102
RTVSPropertyOp25
 70
     1
102
RTVSPropertyOp26
 70
     1
102
RTVSPropertyOp27
 70
     1
102
RTVSPropertyOp28
 70
     1
102
RTVSPropertyOp29
 70
     1
102
RTVSPropertyOp30
 70
     1
102
RTVSPropertyOp31
 70
     1
102
RTVSPropertyOp32
 70
     1
102
RTVSPropertyOp33
 70
     1
102
RTVSPropertyOp34
 70
     1
102
RTVSPropertyOp35
 70
     1
102
RTVSPropertyOp36
 70
     1
102
RTVSPropertyOp37
 70
     1
102
RTVSPropertyOp38
 70
     1
102
RTVSPropertyOp39
 70
     1
102
RTVSPropertyOp40
 70
     1
102
RTVSPropertyOp41
 70
     1
102
RTVSPropertyOp42
 70
     1
102
RTVSPropertyOp43
 70
     1
102
RTVSPropertyOp44
 70
     1
102
RTVSPropertyOp45
 70
     1
102
RTVSPropertyOp46
 70
     1
102
RTVSPropertyOp47
 70
     1
102
RTVSPropertyOp48
 70
     1
102
RTVSPropertyOp49
 70
     1
102
RTVSPropertyOp50
 70
     1
102
RTVSPropertyOp51
 70
     0
102
RTVSPropertyOp52
 70
     0
102
RTVSPropertyOp53
 70
     1
102
RTVSPropertyOp54
 70
     1
102
RTVSPropertyOp55
 70
     1
102
RTVSPropertyOp56
 70
     1
102
RTVSPropertyOp57
 70
     1
102
RTVSPost2010Prop28
280
     0
102
RTVSPost2010PropOp28
 70
     1
102
RTVSPost2010Prop29
280
     1
102
RTVSPost2010PropOp29
 70
     1
102
RTVSPost2010Prop30
280
     1
102
RTVSPost2010PropOp30
 70
     1
102
RTVSPost2010Prop31
280
     0
102
RTVSPost2010PropOp31
 70
     1
102
RTVSPost2010Prop32
280
     0
102
RTVSPost2010PropOp32
 70
     1
102
RTVSPost2010Prop33
280
     0
102
RTVSPost2010PropOp33
 70
     1
102
RTVSPost2010Prop34
280
     0
102
RTVSPost2010PropOp34
 70
     1
102
RTVSPost2010Prop35
280
     0
102
RTVSPost2010PropOp35
 70
     1
102
RTVSPost2010Prop36
280
     0
102
RTVSPost2010PropOp36
 70
     1
102
RTVSPost2010Prop37
 90
       50
102
RTVSPost2010PropOp37
 70
     1
102
RTVSPost2010Prop38
140
0.0
102
RTVSPost2010PropOp38
 70
     1
102
RTVSPost2010Prop39
140
1.0
102
RTVSPost2010PropOp39
 70
     1
102
RTVSPost2010Prop40
 90
        0
102
RTVSPost2010PropOp40
 70
     1
102
RTVSPost2010Prop41ColorIndex
 90
       18
102
RTVSPost2010Prop41ColorRGB
 90
        0
102
RTVSPost2010PropOp41
 70
     1
102
RTVSPost2010Prop42
 90
       50
102
RTVSPost2010PropOp42
 70
     1
102
RTVSPost2010Prop43
 90
        3
102
RTVSPost2010PropOp43
 70
     1
102
RTVSPost2010Prop44ColorIndex
 90
        5
102
RTVSPost2010Prop44ColorRGB
 90
      255
102
RTVSPost2010PropOp44
 70
     1
102
RTVSPost2010Prop45
280
     0
102
RTVSPost2010PropOp45
 70
     1
102
RTVSPost2010Prop46
 90
       50
102
RTVSPost2010PropOp46
 70
     1
102
RTVSPost2010Prop47
 90
       50
102
RTVSPost2010PropOp47
 70
     1
102
RTVSPost2010Prop48
 90
       50
102
RTVSPost2010PropOp48
 70
     1
102
RTVSPost2010Prop49
280
     0
102
RTVSPost2010PropOp49
 70
     1
102
RTVSPost2010Prop50
 90
       50
102
RTVSPost2010PropOp50
 70
     1
102
RTVSPost2010Prop51ColorIndex
 90
      256
102
RTVSPost2010Prop51ColorRGB
 90
-16777216
102
RTVSPost2010PropOp51
 70
     0
102
RTVSPost2010Prop52
140
1.0
102
RTVSPost2010PropOp52
 70
     0
102
RTVSPost2010Prop53
 90
        2
102
RTVSPost2010PropOp53
 70
     1
102
RTVSPost2010Prop54
  1
strokes_ogs.tif
102
RTVSPost2010PropOp54
 70
     1
102
RTVSPost2010Prop55
280
     0
102
RTVSPost2010PropOp55
 70
     1
102
RTVSPost2010Prop56
140
1.0
102
RTVSPost2010PropOp56
 70
     1
102
RTVSPost2010Prop57
140
1.0
102
RTVSPost2010PropOp57
 70
     1
  0
XRECORD
  5
620
102
{ACAD_REACTORS
330
61F
102
}
330
61F
100
AcDbXrecord
280
     1
102
RTVSPropertyOp0
 70
     1
102
RTVSPropertyOp1
 70
     1
102
RTVSPropertyOp2
 70
     1
102
RTVSPropertyOp3
 70
     1
102
RTVSPropertyOp4
 70
     1
102
RTVSPropertyOp5
 70
     1
102
RTVSPropertyOp6
 70
     1
102
RTVSPropertyOp7
 70
     1
102
RTVSPropertyOp8
 70
     1
102
RTVSPropertyOp9
 70
     1
102
RTVSPropertyOp10
 70
     1
102
RTVSPropertyOp11
 70
     1
102
RTVSPropertyOp12
 70
     1
102
RTVSPropertyOp13
 70
     1
102
RTVSPropertyOp14
 70
     1
102
RTVSPropertyOp15
 70
     1
102
RTVSPropertyOp16
 70
     1
102
RTVSPropertyOp17
 70
     1
102
RTVSPropertyOp18
 70
     1
102
RTVSPropertyOp19
 70
     1
102
RTVSPropertyOp20
 70
     1
102
RTVSPropertyOp21
 70
     1
102
RTVSPropertyOp22
 70
     1
102
RTVSPropertyOp23
 70
     1
102
RTVSPropertyOp24
 70
     1
102
RTVSPropertyOp25
 70
     1
102
RTVSPropertyOp26
 70
     1
102
RTVSPropertyOp27
 70
     1
102
RTVSPropertyOp28
 70
     1
102
RTVSPropertyOp29
 70
     1
102
RTVSPropertyOp30
 70
     1
102
RTVSPropertyOp31
 70
     1
102
RTVSPropertyOp32
 70
     1
102
RTVSPropertyOp33
 70
     1
102
RTVSPropertyOp34
 70
     1
102
RTVSPropertyOp35
 70
     1
102
RTVSPropertyOp36
 70
     1
102
RTVSPropertyOp37
 70
     1
102
RTVSPropertyOp38
 70
     1
102
RTVSPropertyOp39
 70
     1
102
RTVSPropertyOp40
 70
     1
102
RTVSPropertyOp41
 70
     1
102
RTVSPropertyOp42
 70
     1
102
RTVSPropertyOp43
 70
     1
102
RTVSPropertyOp44
 70
     1
102
RTVSPropertyOp45
 70
     1
102
RTVSPropertyOp46
 70
     1
102
RTVSPropertyOp47
 70
     1
102
RTVSPropertyOp48
 70
     1
102
RTVSPropertyOp49
 70
     1
102
RTVSPropertyOp50
 70
     1
102
RTVSPropertyOp51
 70
     0
102
RTVSPropertyOp52
 70
     0
102
RTVSPropertyOp53
 70
     1
102
RTVSPropertyOp54
 70
     1
102
RTVSPropertyOp55
 70
     1
102
RTVSPropertyOp56
 70
     1
102
RTVSPropertyOp57
 70
     1
102
RTVSPost2010Prop28
280
     0
102
RTVSPost2010PropOp28
 70
     1
102
RTVSPost2010Prop29
280
     1
102
RTVSPost2010PropOp29
 70
     1
102
RTVSPost2010Prop30
280
     1
102
RTVSPost2010PropOp30
 70
     1
102
RTVSPost2010Prop31
280
     0
102
RTVSPost2010PropOp31
 70
     1
102
RTVSPost2010Prop32
280
     0
102
RTVSPost2010PropOp32
 70
     1
102
RTVSPost2010Prop33
280
     0
102
RTVSPost2010PropOp33
 70
     1
102
RTVSPost2010Prop34
280
     0
102
RTVSPost2010PropOp34
 70
     1
102
RTVSPost2010Prop35
280
     0
102
RTVSPost2010PropOp35
 70
     1
102
RTVSPost2010Prop36
280
     0
102
RTVSPost2010PropOp36
 70
     1
102
RTVSPost2010Prop37
 90
       50
102
RTVSPost2010PropOp37
 70
     1
102
RTVSPost2010Prop38
140
0.0
102
RTVSPost2010PropOp38
 70
     1
102
RTVSPost2010Prop39
140
1.0
102
RTVSPost2010PropOp39
 70
     1
102
RTVSPost2010Prop40
 90
        0
102
RTVSPost2010PropOp40
 70
     1
102
RTVSPost2010Prop41ColorIndex
 90
       18
102
RTVSPost2010Prop41ColorRGB
 90
        0
102
RTVSPost2010PropOp41
 70
     1
102
RTVSPost2010Prop42
 90
       50
102
RTVSPost2010PropOp42
 70
     1
102
RTVSPost2010Prop43
 90
        3
102
RTVSPost2010PropOp43
 70
     1
102
RTVSPost2010Prop44ColorIndex
 90
        5
102
RTVSPost2010Prop44ColorRGB
 90
      255
102
RTVSPost2010PropOp44
 70
     1
102
RTVSPost2010Prop45
280
     0
102
RTVSPost2010PropOp45
 70
     1
102
RTVSPost2010Prop46
 90
       50
102
RTVSPost2010PropOp46
 70
     1
102
RTVSPost2010Prop47
 90
       50
102
RTVSPost2010PropOp47
 70
     1
102
RTVSPost2010Prop48
 90
       50
102
RTVSPost2010PropOp48
 70
     1
102
RTVSPost2010Prop49
280
     0
102
RTVSPost2010PropOp49
 70
     1
102
RTVSPost2010Prop50
 90
       50
102
RTVSPost2010PropOp50
 70
     1
102
RTVSPost2010Prop51ColorIndex
 90
      256
102
RTVSPost2010Prop51ColorRGB
 90
-16777216
102
RTVSPost2010PropOp51
 70
     0
102
RTVSPost2010Prop52
140
1.0
102
RTVSPost2010PropOp52
 70
     0
102
RTVSPost2010Prop53
 90
        2
102
RTVSPost2010PropOp53
 70
     1
102
RTVSPost2010Prop54
  1
strokes_ogs.tif
102
RTVSPost2010PropOp54
 70
     1
102
RTVSPost2010Prop55
280
     0
102
RTVSPost2010PropOp55
 70
     1
102
RTVSPost2010Prop56
140
1.0
102
RTVSPost2010PropOp56
 70
     1
102
RTVSPost2010Prop57
140
1.0
102
RTVSPost2010PropOp57
 70
     1
  0
XRECORD
  5
634
102
{ACAD_REACTORS
330
633
102
}
330
633
100
AcDbXrecord
280
     1
102
RTVSPropertyOp0
 70
     0
102
RTVSPropertyOp1
 70
     0
102
RTVSPropertyOp2
 70
     0
102
RTVSPropertyOp3
 70
     0
102
RTVSPropertyOp4
 70
     0
102
RTVSPropertyOp5
 70
     0
102
RTVSPropertyOp6
 70
     0
102
RTVSPropertyOp7
 70
     0
102
RTVSPropertyOp8
 70
     0
102
RTVSPropertyOp9
 70
     0
102
RTVSPropertyOp10
 70
     0
102
RTVSPropertyOp11
 70
     0
102
RTVSPropertyOp12
 70
     0
102
RTVSPropertyOp13
 70
     0
102
RTVSPropertyOp14
 70
     0
102
RTVSPropertyOp15
 70
     0
102
RTVSPropertyOp16
 70
     0
102
RTVSPropertyOp17
 70
     0
102
RTVSPropertyOp18
 70
     0
102
RTVSPropertyOp19
 70
     0
102
RTVSPropertyOp20
 70
     0
102
RTVSPropertyOp21
 70
     0
102
RTVSPropertyOp22
 70
     0
102
RTVSPropertyOp23
 70
     0
102
RTVSPropertyOp24
 70
     0
102
RTVSPropertyOp25
 70
     0
102
RTVSPropertyOp26
 70
     0
102
RTVSPropertyOp27
 70
     0
102
RTVSPropertyOp28
 70
     1
102
RTVSPropertyOp29
 70
     1
102
RTVSPropertyOp30
 70
     1
102
RTVSPropertyOp31
 70
     1
102
RTVSPropertyOp32
 70
     1
102
RTVSPropertyOp33
 70
     1
102
RTVSPropertyOp34
 70
     1
102
RTVSPropertyOp35
 70
     1
102
RTVSPropertyOp36
 70
     1
102
RTVSPropertyOp37
 70
     1
102
RTVSPropertyOp38
 70
     1
102
RTVSPropertyOp39
 70
     1
102
RTVSPropertyOp40
 70
     1
102
RTVSPropertyOp41
 70
     1
102
RTVSPropertyOp42
 70
     1
102
RTVSPropertyOp43
 70
     1
102
RTVSPropertyOp44
 70
     1
102
RTVSPropertyOp45
 70
     1
102
RTVSPropertyOp46
 70
     1
102
RTVSPropertyOp47
 70
     1
102
RTVSPropertyOp48
 70
     1
102
RTVSPropertyOp49
 70
     1
102
RTVSPropertyOp50
 70
     1
102
RTVSPropertyOp51
 70
     0
102
RTVSPropertyOp52
 70
     0
102
RTVSPropertyOp53
 70
     1
102
RTVSPropertyOp54
 70
     1
102
RTVSPropertyOp55
 70
     1
102
RTVSPropertyOp56
 70
     1
102
RTVSPropertyOp57
 70
     1
102
RTVSPost2010Prop28
280
     0
102
RTVSPost2010PropOp28
 70
     1
102
RTVSPost2010Prop29
280
     1
102
RTVSPost2010PropOp29
 70
     1
102
RTVSPost2010Prop30
280
     1
102
RTVSPost2010PropOp30
 70
     1
102
RTVSPost2010Prop31
280
     0
102
RTVSPost2010PropOp31
 70
     1
102
RTVSPost2010Prop32
280
     0
102
RTVSPost2010PropOp32
 70
     1
102
RTVSPost2010Prop33
280
     0
102
RTVSPost2010PropOp33
 70
     1
102
RTVSPost2010Prop34
280
     0
102
RTVSPost2010PropOp34
 70
     1
102
RTVSPost2010Prop35
280
     0
102
RTVSPost2010PropOp35
 70
     1
102
RTVSPost2010Prop36
280
     0
102
RTVSPost2010PropOp36
 70
     1
102
RTVSPost2010Prop37
 90
       50
102
RTVSPost2010PropOp37
 70
     1
102
RTVSPost2010Prop38
140
0.0
102
RTVSPost2010PropOp38
 70
     1
102
RTVSPost2010Prop39
140
1.0
102
RTVSPost2010PropOp39
 70
     1
102
RTVSPost2010Prop40
 90
        0
102
RTVSPost2010PropOp40
 70
     1
102
RTVSPost2010Prop41ColorIndex
 90
       18
102
RTVSPost2010Prop41ColorRGB
 90
        0
102
RTVSPost2010PropOp41
 70
     1
102
RTVSPost2010Prop42
 90
       50
102
RTVSPost2010PropOp42
 70
     1
102
RTVSPost2010Prop43
 90
        3
102
RTVSPost2010PropOp43
 70
     1
102
RTVSPost2010Prop44ColorIndex
 90
        5
102
RTVSPost2010Prop44ColorRGB
 90
      255
102
RTVSPost2010PropOp44
 70
     1
102
RTVSPost2010Prop45
280
     0
102
RTVSPost2010PropOp45
 70
     1
102
RTVSPost2010Prop46
 90
       50
102
RTVSPost2010PropOp46
 70
     1
102
RTVSPost2010Prop47
 90
       50
102
RTVSPost2010PropOp47
 70
     1
102
RTVSPost2010Prop48
 90
       50
102
RTVSPost2010PropOp48
 70
     1
102
RTVSPost2010Prop49
280
     0
102
RTVSPost2010PropOp49
 70
     1
102
RTVSPost2010Prop50
 90
       50
102
RTVSPost2010PropOp50
 70
     1
102
RTVSPost2010Prop51ColorIndex
 90
      256
102
RTVSPost2010Prop51ColorRGB
 90
-16777216
102
RTVSPost2010PropOp51
 70
     0
102
RTVSPost2010Prop52
140
1.0
102
RTVSPost2010PropOp52
 70
     0
102
RTVSPost2010Prop53
 90
        2
102
RTVSPost2010PropOp53
 70
     1
102
RTVSPost2010Prop54
  1
strokes_ogs.tif
102
RTVSPost2010PropOp54
 70
     1
102
RTVSPost2010Prop55
280
     0
102
RTVSPost2010PropOp55
 70
     1
102
RTVSPost2010Prop56
140
1.0
102
RTVSPost2010PropOp56
 70
     1
102
RTVSPost2010Prop57
140
1.0
102
RTVSPost2010PropOp57
 70
     1
  0
XRECORD
  5
62E
102
{ACAD_REACTORS
330
62D
102
}
330
62D
100
AcDbXrecord
280
     1
102
RTVSPropertyOp0
 70
     1
102
RTVSPropertyOp1
 70
     1
102
RTVSPropertyOp2
 70
     1
102
RTVSPropertyOp3
 70
     1
102
RTVSPropertyOp4
 70
     1
102
RTVSPropertyOp5
 70
     1
102
RTVSPropertyOp6
 70
     1
102
RTVSPropertyOp7
 70
     1
102
RTVSPropertyOp8
 70
     1
102
RTVSPropertyOp9
 70
     1
102
RTVSPropertyOp10
 70
     1
102
RTVSPropertyOp11
 70
     1
102
RTVSPropertyOp12
 70
     1
102
RTVSPropertyOp13
 70
     1
102
RTVSPropertyOp14
 70
     1
102
RTVSPropertyOp15
 70
     1
102
RTVSPropertyOp16
 70
     1
102
RTVSPropertyOp17
 70
     1
102
RTVSPropertyOp18
 70
     1
102
RTVSPropertyOp19
 70
     1
102
RTVSPropertyOp20
 70
     1
102
RTVSPropertyOp21
 70
     1
102
RTVSPropertyOp22
 70
     1
102
RTVSPropertyOp23
 70
     1
102
RTVSPropertyOp24
 70
     1
102
RTVSPropertyOp25
 70
     1
102
RTVSPropertyOp26
 70
     1
102
RTVSPropertyOp27
 70
     1
102
RTVSPropertyOp28
 70
     1
102
RTVSPropertyOp29
 70
     1
102
RTVSPropertyOp30
 70
     1
102
RTVSPropertyOp31
 70
     1
102
RTVSPropertyOp32
 70
     1
102
RTVSPropertyOp33
 70
     1
102
RTVSPropertyOp34
 70
     1
102
RTVSPropertyOp35
 70
     1
102
RTVSPropertyOp36
 70
     1
102
RTVSPropertyOp37
 70
     1
102
RTVSPropertyOp38
 70
     1
102
RTVSPropertyOp39
 70
     1
102
RTVSPropertyOp40
 70
     1
102
RTVSPropertyOp41
 70
     1
102
RTVSPropertyOp42
 70
     1
102
RTVSPropertyOp43
 70
     1
102
RTVSPropertyOp44
 70
     1
102
RTVSPropertyOp45
 70
     1
102
RTVSPropertyOp46
 70
     1
102
RTVSPropertyOp47
 70
     1
102
RTVSPropertyOp48
 70
     1
102
RTVSPropertyOp49
 70
     1
102
RTVSPropertyOp50
 70
     1
102
RTVSPropertyOp51
 70
     0
102
RTVSPropertyOp52
 70
     0
102
RTVSPropertyOp53
 70
     1
102
RTVSPropertyOp54
 70
     1
102
RTVSPropertyOp55
 70
     1
102
RTVSPropertyOp56
 70
     1
102
RTVSPropertyOp57
 70
     1
102
RTVSPost2010Prop28
280
     0
102
RTVSPost2010PropOp28
 70
     1
102
RTVSPost2010Prop29
280
     1
102
RTVSPost2010PropOp29
 70
     1
102
RTVSPost2010Prop30
280
     1
102
RTVSPost2010PropOp30
 70
     1
102
RTVSPost2010Prop31
280
     0
102
RTVSPost2010PropOp31
 70
     1
102
RTVSPost2010Prop32
280
     0
102
RTVSPost2010PropOp32
 70
     1
102
RTVSPost2010Prop33
280
     0
102
RTVSPost2010PropOp33
 70
     1
102
RTVSPost2010Prop34
280
     0
102
RTVSPost2010PropOp34
 70
     1
102
RTVSPost2010Prop35
280
     0
102
RTVSPost2010PropOp35
 70
     1
102
RTVSPost2010Prop36
280
     0
102
RTVSPost2010PropOp36
 70
     1
102
RTVSPost2010Prop37
 90
       50
102
RTVSPost2010PropOp37
 70
     1
102
RTVSPost2010Prop38
140
0.0
102
RTVSPost2010PropOp38
 70
     1
102
RTVSPost2010Prop39
140
1.0
102
RTVSPost2010PropOp39
 70
     1
102
RTVSPost2010Prop40
 90
        0
102
RTVSPost2010PropOp40
 70
     1
102
RTVSPost2010Prop41ColorIndex
 90
       18
102
RTVSPost2010Prop41ColorRGB
 90
        0
102
RTVSPost2010PropOp41
 70
     1
102
RTVSPost2010Prop42
 90
       50
102
RTVSPost2010PropOp42
 70
     1
102
RTVSPost2010Prop43
 90
        3
102
RTVSPost2010PropOp43
 70
     1
102
RTVSPost2010Prop44ColorIndex
 90
        5
102
RTVSPost2010Prop44ColorRGB
 90
      255
102
RTVSPost2010PropOp44
 70
     1
102
RTVSPost2010Prop45
280
     0
102
RTVSPost2010PropOp45
 70
     1
102
RTVSPost2010Prop46
 90
       50
102
RTVSPost2010PropOp46
 70
     1
102
RTVSPost2010Prop47
 90
       50
102
RTVSPost2010PropOp47
 70
     1
102
RTVSPost2010Prop48
 90
       50
102
RTVSPost2010PropOp48
 70
     1
102
RTVSPost2010Prop49
280
     0
102
RTVSPost2010PropOp49
 70
     1
102
RTVSPost2010Prop50
 90
       50
102
RTVSPost2010PropOp50
 70
     1
102
RTVSPost2010Prop51ColorIndex
 90
      256
102
RTVSPost2010Prop51ColorRGB
 90
-16777216
102
RTVSPost2010PropOp51
 70
     0
102
RTVSPost2010Prop52
140
1.0
102
RTVSPost2010PropOp52
 70
     0
102
RTVSPost2010Prop53
 90
        2
102
RTVSPost2010PropOp53
 70
     1
102
RTVSPost2010Prop54
  1
strokes_ogs.tif
102
RTVSPost2010PropOp54
 70
     1
102
RTVSPost2010Prop55
280
     0
102
RTVSPost2010PropOp55
 70
     1
102
RTVSPost2010Prop56
140
1.0
102
RTVSPost2010PropOp56
 70
     1
102
RTVSPost2010Prop57
140
1.0
102
RTVSPost2010PropOp57
 70
     1
  0
XRECORD
  5
636
102
{ACAD_REACTORS
330
635
102
}
330
635
100
AcDbXrecord
280
     1
102
RTVSPropertyOp0
 70
     0
102
RTVSPropertyOp1
 70
     0
102
RTVSPropertyOp2
 70
     0
102
RTVSPropertyOp3
 70
     0
102
RTVSPropertyOp4
 70
     0
102
RTVSPropertyOp5
 70
     0
102
RTVSPropertyOp6
 70
     0
102
RTVSPropertyOp7
 70
     0
102
RTVSPropertyOp8
 70
     0
102
RTVSPropertyOp9
 70
     0
102
RTVSPropertyOp10
 70
     0
102
RTVSPropertyOp11
 70
     0
102
RTVSPropertyOp12
 70
     0
102
RTVSPropertyOp13
 70
     0
102
RTVSPropertyOp14
 70
     0
102
RTVSPropertyOp15
 70
     0
102
RTVSPropertyOp16
 70
     0
102
RTVSPropertyOp17
 70
     0
102
RTVSPropertyOp18
 70
     0
102
RTVSPropertyOp19
 70
     0
102
RTVSPropertyOp20
 70
     0
102
RTVSPropertyOp21
 70
     0
102
RTVSPropertyOp22
 70
     0
102
RTVSPropertyOp23
 70
     0
102
RTVSPropertyOp24
 70
     0
102
RTVSPropertyOp25
 70
     0
102
RTVSPropertyOp26
 70
     0
102
RTVSPropertyOp27
 70
     0
102
RTVSPropertyOp28
 70
     1
102
RTVSPropertyOp29
 70
     1
102
RTVSPropertyOp30
 70
     1
102
RTVSPropertyOp31
 70
     1
102
RTVSPropertyOp32
 70
     1
102
RTVSPropertyOp33
 70
     1
102
RTVSPropertyOp34
 70
     1
102
RTVSPropertyOp35
 70
     1
102
RTVSPropertyOp36
 70
     1
102
RTVSPropertyOp37
 70
     1
102
RTVSPropertyOp38
 70
     1
102
RTVSPropertyOp39
 70
     1
102
RTVSPropertyOp40
 70
     1
102
RTVSPropertyOp41
 70
     1
102
RTVSPropertyOp42
 70
     1
102
RTVSPropertyOp43
 70
     1
102
RTVSPropertyOp44
 70
     1
102
RTVSPropertyOp45
 70
     1
102
RTVSPropertyOp46
 70
     1
102
RTVSPropertyOp47
 70
     1
102
RTVSPropertyOp48
 70
     1
102
RTVSPropertyOp49
 70
     1
102
RTVSPropertyOp50
 70
     1
102
RTVSPropertyOp51
 70
     0
102
RTVSPropertyOp52
 70
     0
102
RTVSPropertyOp53
 70
     1
102
RTVSPropertyOp54
 70
     1
102
RTVSPropertyOp55
 70
     1
102
RTVSPropertyOp56
 70
     1
102
RTVSPropertyOp57
 70
     1
102
RTVSPost2010Prop28
280
     0
102
RTVSPost2010PropOp28
 70
     1
102
RTVSPost2010Prop29
280
     1
102
RTVSPost2010PropOp29
 70
     1
102
RTVSPost2010Prop30
280
     1
102
RTVSPost2010PropOp30
 70
     1
102
RTVSPost2010Prop31
280
     0
102
RTVSPost2010PropOp31
 70
     1
102
RTVSPost2010Prop32
280
     0
102
RTVSPost2010PropOp32
 70
     1
102
RTVSPost2010Prop33
280
     0
102
RTVSPost2010PropOp33
 70
     1
102
RTVSPost2010Prop34
280
     0
102
RTVSPost2010PropOp34
 70
     1
102
RTVSPost2010Prop35
280
     0
102
RTVSPost2010PropOp35
 70
     1
102
RTVSPost2010Prop36
280
     0
102
RTVSPost2010PropOp36
 70
     1
102
RTVSPost2010Prop37
 90
       50
102
RTVSPost2010PropOp37
 70
     1
102
RTVSPost2010Prop38
140
0.0
102
RTVSPost2010PropOp38
 70
     1
102
RTVSPost2010Prop39
140
1.0
102
RTVSPost2010PropOp39
 70
     1
102
RTVSPost2010Prop40
 90
        0
102
RTVSPost2010PropOp40
 70
     1
102
RTVSPost2010Prop41ColorIndex
 90
       18
102
RTVSPost2010Prop41ColorRGB
 90
        0
102
RTVSPost2010PropOp41
 70
     1
102
RTVSPost2010Prop42
 90
       50
102
RTVSPost2010PropOp42
 70
     1
102
RTVSPost2010Prop43
 90
        3
102
RTVSPost2010PropOp43
 70
     1
102
RTVSPost2010Prop44ColorIndex
 90
        5
102
RTVSPost2010Prop44ColorRGB
 90
      255
102
RTVSPost2010PropOp44
 70
     1
102
RTVSPost2010Prop45
280
     0
102
RTVSPost2010PropOp45
 70
     1
102
RTVSPost2010Prop46
 90
       50
102
RTVSPost2010PropOp46
 70
     1
102
RTVSPost2010Prop47
 90
       50
102
RTVSPost2010PropOp47
 70
     1
102
RTVSPost2010Prop48
 90
       50
102
RTVSPost2010PropOp48
 70
     1
102
RTVSPost2010Prop49
280
     0
102
RTVSPost2010PropOp49
 70
     1
102
RTVSPost2010Prop50
 90
       50
102
RTVSPost2010PropOp50
 70
     1
102
RTVSPost2010Prop51ColorIndex
 90
      256
102
RTVSPost2010Prop51ColorRGB
 90
-16777216
102
RTVSPost2010PropOp51
 70
     0
102
RTVSPost2010Prop52
140
1.0
102
RTVSPost2010PropOp52
 70
     0
102
RTVSPost2010Prop53
 90
        2
102
RTVSPost2010PropOp53
 70
     1
102
RTVSPost2010Prop54
  1
strokes_ogs.tif
102
RTVSPost2010PropOp54
 70
     1
102
RTVSPost2010Prop55
280
     0
102
RTVSPost2010PropOp55
 70
     1
102
RTVSPost2010Prop56
140
1.0
102
RTVSPost2010PropOp56
 70
     1
102
RTVSPost2010Prop57
140
1.0
102
RTVSPost2010PropOp57
 70
     1
  0
XRECORD
  5
624
102
{ACAD_REACTORS
330
623
102
}
330
623
100
AcDbXrecord
280
     1
102
RTVSPropertyOp0
 70
     1
102
RTVSPropertyOp1
 70
     1
102
RTVSPropertyOp2
 70
     1
102
RTVSPropertyOp3
 70
     1
102
RTVSPropertyOp4
 70
     1
102
RTVSPropertyOp5
 70
     1
102
RTVSPropertyOp6
 70
     1
102
RTVSPropertyOp7
 70
     1
102
RTVSPropertyOp8
 70
     1
102
RTVSPropertyOp9
 70
     1
102
RTVSPropertyOp10
 70
     1
102
RTVSPropertyOp11
 70
     1
102
RTVSPropertyOp12
 70
     1
102
RTVSPropertyOp13
 70
     1
102
RTVSPropertyOp14
 70
     1
102
RTVSPropertyOp15
 70
     1
102
RTVSPropertyOp16
 70
     1
102
RTVSPropertyOp17
 70
     1
102
RTVSPropertyOp18
 70
     1
102
RTVSPropertyOp19
 70
     1
102
RTVSPropertyOp20
 70
     1
102
RTVSPropertyOp21
 70
     1
102
RTVSPropertyOp22
 70
     1
102
RTVSPropertyOp23
 70
     1
102
RTVSPropertyOp24
 70
     1
102
RTVSPropertyOp25
 70
     1
102
RTVSPropertyOp26
 70
     1
102
RTVSPropertyOp27
 70
     1
102
RTVSPropertyOp28
 70
     1
102
RTVSPropertyOp29
 70
     1
102
RTVSPropertyOp30
 70
     1
102
RTVSPropertyOp31
 70
     1
102
RTVSPropertyOp32
 70
     1
102
RTVSPropertyOp33
 70
     1
102
RTVSPropertyOp34
 70
     1
102
RTVSPropertyOp35
 70
     1
102
RTVSPropertyOp36
 70
     1
102
RTVSPropertyOp37
 70
     1
102
RTVSPropertyOp38
 70
     1
102
RTVSPropertyOp39
 70
     1
102
RTVSPropertyOp40
 70
     1
102
RTVSPropertyOp41
 70
     1
102
RTVSPropertyOp42
 70
     1
102
RTVSPropertyOp43
 70
     1
102
RTVSPropertyOp44
 70
     1
102
RTVSPropertyOp45
 70
     1
102
RTVSPropertyOp46
 70
     1
102
RTVSPropertyOp47
 70
     1
102
RTVSPropertyOp48
 70
     1
102
RTVSPropertyOp49
 70
     1
102
RTVSPropertyOp50
 70
     1
102
RTVSPropertyOp51
 70
     0
102
RTVSPropertyOp52
 70
     0
102
RTVSPropertyOp53
 70
     1
102
RTVSPropertyOp54
 70
     1
102
RTVSPropertyOp55
 70
     1
102
RTVSPropertyOp56
 70
     1
102
RTVSPropertyOp57
 70
     1
102
RTVSPost2010Prop28
280
     0
102
RTVSPost2010PropOp28
 70
     1
102
RTVSPost2010Prop29
280
     1
102
RTVSPost2010PropOp29
 70
     1
102
RTVSPost2010Prop30
280
     1
102
RTVSPost2010PropOp30
 70
     1
102
RTVSPost2010Prop31
280
     0
102
RTVSPost2010PropOp31
 70
     1
102
RTVSPost2010Prop32
280
     0
102
RTVSPost2010PropOp32
 70
     1
102
RTVSPost2010Prop33
280
     0
102
RTVSPost2010PropOp33
 70
     1
102
RTVSPost2010Prop34
280
     0
102
RTVSPost2010PropOp34
 70
     1
102
RTVSPost2010Prop35
280
     0
102
RTVSPost2010PropOp35
 70
     1
102
RTVSPost2010Prop36
280
     0
102
RTVSPost2010PropOp36
 70
     1
102
RTVSPost2010Prop37
 90
       50
102
RTVSPost2010PropOp37
 70
     1
102
RTVSPost2010Prop38
140
0.0
102
RTVSPost2010PropOp38
 70
     1
102
RTVSPost2010Prop39
140
1.0
102
RTVSPost2010PropOp39
 70
     1
102
RTVSPost2010Prop40
 90
        0
102
RTVSPost2010PropOp40
 70
     1
102
RTVSPost2010Prop41ColorIndex
 90
       18
102
RTVSPost2010Prop41ColorRGB
 90
        0
102
RTVSPost2010PropOp41
 70
     1
102
RTVSPost2010Prop42
 90
       50
102
RTVSPost2010PropOp42
 70
     1
102
RTVSPost2010Prop43
 90
        3
102
RTVSPost2010PropOp43
 70
     1
102
RTVSPost2010Prop44ColorIndex
 90
        5
102
RTVSPost2010Prop44ColorRGB
 90
      255
102
RTVSPost2010PropOp44
 70
     1
102
RTVSPost2010Prop45
280
     0
102
RTVSPost2010PropOp45
 70
     1
102
RTVSPost2010Prop46
 90
       50
102
RTVSPost2010PropOp46
 70
     1
102
RTVSPost2010Prop47
 90
       50
102
RTVSPost2010PropOp47
 70
     1
102
RTVSPost2010Prop48
 90
       50
102
RTVSPost2010PropOp48
 70
     1
102
RTVSPost2010Prop49
280
     0
102
RTVSPost2010PropOp49
 70
     1
102
RTVSPost2010Prop50
 90
       50
102
RTVSPost2010PropOp50
 70
     1
102
RTVSPost2010Prop51ColorIndex
 90
      256
102
RTVSPost2010Prop51ColorRGB
 90
-16777216
102
RTVSPost2010PropOp51
 70
     0
102
RTVSPost2010Prop52
140
1.0
102
RTVSPost2010PropOp52
 70
     0
102
RTVSPost2010Prop53
 90
        2
102
RTVSPost2010PropOp53
 70
     1
102
RTVSPost2010Prop54
  1
strokes_ogs.tif
102
RTVSPost2010PropOp54
 70
     1
102
RTVSPost2010Prop55
280
     0
102
RTVSPost2010PropOp55
 70
     1
102
RTVSPost2010Prop56
140
1.0
102
RTVSPost2010PropOp56
 70
     1
102
RTVSPost2010Prop57
140
1.0
102
RTVSPost2010PropOp57
 70
     1
  0
XRECORD
  5
642
102
{ACAD_REACTORS
330
641
102
}
330
641
100
AcDbXrecord
280
     1
102
RTVSPropertyOp0
 70
     1
102
RTVSPropertyOp1
 70
     1
102
RTVSPropertyOp2
 70
     1
102
RTVSPropertyOp3
 70
     1
102
RTVSPropertyOp4
 70
     1
102
RTVSPropertyOp5
 70
     1
102
RTVSPropertyOp6
 70
     1
102
RTVSPropertyOp7
 70
     1
102
RTVSPropertyOp8
 70
     1
102
RTVSPropertyOp9
 70
     1
102
RTVSPropertyOp10
 70
     1
102
RTVSPropertyOp11
 70
     1
102
RTVSPropertyOp12
 70
     1
102
RTVSPropertyOp13
 70
     1
102
RTVSPropertyOp14
 70
     1
102
RTVSPropertyOp15
 70
     1
102
RTVSPropertyOp16
 70
     1
102
RTVSPropertyOp17
 70
     1
102
RTVSPropertyOp18
 70
     1
102
RTVSPropertyOp19
 70
     1
102
RTVSPropertyOp20
 70
     1
102
RTVSPropertyOp21
 70
     1
102
RTVSPropertyOp22
 70
     1
102
RTVSPropertyOp23
 70
     1
102
RTVSPropertyOp24
 70
     1
102
RTVSPropertyOp25
 70
     1
102
RTVSPropertyOp26
 70
     1
102
RTVSPropertyOp27
 70
     1
102
RTVSPropertyOp28
 70
     1
102
RTVSPropertyOp29
 70
     1
102
RTVSPropertyOp30
 70
     1
102
RTVSPropertyOp31
 70
     1
102
RTVSPropertyOp32
 70
     1
102
RTVSPropertyOp33
 70
     1
102
RTVSPropertyOp34
 70
     1
102
RTVSPropertyOp35
 70
     1
102
RTVSPropertyOp36
 70
     1
102
RTVSPropertyOp37
 70
     1
102
RTVSPropertyOp38
 70
     1
102
RTVSPropertyOp39
 70
     1
102
RTVSPropertyOp40
 70
     1
102
RTVSPropertyOp41
 70
     1
102
RTVSPropertyOp42
 70
     1
102
RTVSPropertyOp43
 70
     1
102
RTVSPropertyOp44
 70
     1
102
RTVSPropertyOp45
 70
     1
102
RTVSPropertyOp46
 70
     1
102
RTVSPropertyOp47
 70
     1
102
RTVSPropertyOp48
 70
     1
102
RTVSPropertyOp49
 70
     1
102
RTVSPropertyOp50
 70
     1
102
RTVSPropertyOp51
 70
     0
102
RTVSPropertyOp52
 70
     0
102
RTVSPropertyOp53
 70
     1
102
RTVSPropertyOp54
 70
     1
102
RTVSPropertyOp55
 70
     1
102
RTVSPropertyOp56
 70
     1
102
RTVSPropertyOp57
 70
     1
102
RTVSPost2010Prop28
280
     0
102
RTVSPost2010PropOp28
 70
     1
102
RTVSPost2010Prop29
280
     1
102
RTVSPost2010PropOp29
 70
     1
102
RTVSPost2010Prop30
280
     1
102
RTVSPost2010PropOp30
 70
     1
102
RTVSPost2010Prop31
280
     0
102
RTVSPost2010PropOp31
 70
     1
102
RTVSPost2010Prop32
280
     0
102
RTVSPost2010PropOp32
 70
     1
102
RTVSPost2010Prop33
280
     0
102
RTVSPost2010PropOp33
 70
     1
102
RTVSPost2010Prop34
280
     0
102
RTVSPost2010PropOp34
 70
     1
102
RTVSPost2010Prop35
280
     0
102
RTVSPost2010PropOp35
 70
     1
102
RTVSPost2010Prop36
280
     0
102
RTVSPost2010PropOp36
 70
     1
102
RTVSPost2010Prop37
 90
       50
102
RTVSPost2010PropOp37
 70
     1
102
RTVSPost2010Prop38
140
0.0
102
RTVSPost2010PropOp38
 70
     1
102
RTVSPost2010Prop39
140
1.0
102
RTVSPost2010PropOp39
 70
     1
102
RTVSPost2010Prop40
 90
        0
102
RTVSPost2010PropOp40
 70
     1
102
RTVSPost2010Prop41ColorIndex
 90
       18
102
RTVSPost2010Prop41ColorRGB
 90
        0
102
RTVSPost2010PropOp41
 70
     1
102
RTVSPost2010Prop42
 90
       50
102
RTVSPost2010PropOp42
 70
     1
102
RTVSPost2010Prop43
 90
        3
102
RTVSPost2010PropOp43
 70
     1
102
RTVSPost2010Prop44ColorIndex
 90
        5
102
RTVSPost2010Prop44ColorRGB
 90
      255
102
RTVSPost2010PropOp44
 70
     1
102
RTVSPost2010Prop45
280
     0
102
RTVSPost2010PropOp45
 70
     1
102
RTVSPost2010Prop46
 90
       50
102
RTVSPost2010PropOp46
 70
     1
102
RTVSPost2010Prop47
 90
       50
102
RTVSPost2010PropOp47
 70
     1
102
RTVSPost2010Prop48
 90
       50
102
RTVSPost2010PropOp48
 70
     1
102
RTVSPost2010Prop49
280
     0
102
RTVSPost2010PropOp49
 70
     1
102
RTVSPost2010Prop50
 90
       50
102
RTVSPost2010PropOp50
 70
     1
102
RTVSPost2010Prop51ColorIndex
 90
      256
102
RTVSPost2010Prop51ColorRGB
 90
-16777216
102
RTVSPost2010PropOp51
 70
     0
102
RTVSPost2010Prop52
140
1.0
102
RTVSPost2010PropOp52
 70
     0
102
RTVSPost2010Prop53
 90
        2
102
RTVSPost2010PropOp53
 70
     1
102
RTVSPost2010Prop54
  1
strokes_ogs.tif
102
RTVSPost2010PropOp54
 70
     1
102
RTVSPost2010Prop55
280
     0
102
RTVSPost2010PropOp55
 70
     1
102
RTVSPost2010Prop56
140
1.0
102
RTVSPost2010PropOp56
 70
     1
102
RTVSPost2010Prop57
140
1.0
102
RTVSPost2010PropOp57
 70
     1
  0
XRECORD
  5
640
102
{ACAD_REACTORS
330
63F
102
}
330
63F
100
AcDbXrecord
280
     1
102
RTVSPropertyOp0
 70
     1
102
RTVSPropertyOp1
 70
     1
102
RTVSPropertyOp2
 70
     1
102
RTVSPropertyOp3
 70
     1
102
RTVSPropertyOp4
 70
     1
102
RTVSPropertyOp5
 70
     1
102
RTVSPropertyOp6
 70
     1
102
RTVSPropertyOp7
 70
     1
102
RTVSPropertyOp8
 70
     1
102
RTVSPropertyOp9
 70
     1
102
RTVSPropertyOp10
 70
     1
102
RTVSPropertyOp11
 70
     1
102
RTVSPropertyOp12
 70
     1
102
RTVSPropertyOp13
 70
     1
102
RTVSPropertyOp14
 70
     1
102
RTVSPropertyOp15
 70
     1
102
RTVSPropertyOp16
 70
     1
102
RTVSPropertyOp17
 70
     1
102
RTVSPropertyOp18
 70
     1
102
RTVSPropertyOp19
 70
     1
102
RTVSPropertyOp20
 70
     1
102
RTVSPropertyOp21
 70
     1
102
RTVSPropertyOp22
 70
     1
102
RTVSPropertyOp23
 70
     1
102
RTVSPropertyOp24
 70
     1
102
RTVSPropertyOp25
 70
     1
102
RTVSPropertyOp26
 70
     1
102
RTVSPropertyOp27
 70
     1
102
RTVSPropertyOp28
 70
     1
102
RTVSPropertyOp29
 70
     1
102
RTVSPropertyOp30
 70
     1
102
RTVSPropertyOp31
 70
     1
102
RTVSPropertyOp32
 70
     1
102
RTVSPropertyOp33
 70
     1
102
RTVSPropertyOp34
 70
     1
102
RTVSPropertyOp35
 70
     1
102
RTVSPropertyOp36
 70
     1
102
RTVSPropertyOp37
 70
     1
102
RTVSPropertyOp38
 70
     1
102
RTVSPropertyOp39
 70
     1
102
RTVSPropertyOp40
 70
     1
102
RTVSPropertyOp41
 70
     1
102
RTVSPropertyOp42
 70
     1
102
RTVSPropertyOp43
 70
     1
102
RTVSPropertyOp44
 70
     1
102
RTVSPropertyOp45
 70
     1
102
RTVSPropertyOp46
 70
     1
102
RTVSPropertyOp47
 70
     1
102
RTVSPropertyOp48
 70
     1
102
RTVSPropertyOp49
 70
     1
102
RTVSPropertyOp50
 70
     1
102
RTVSPropertyOp51
 70
     0
102
RTVSPropertyOp52
 70
     0
102
RTVSPropertyOp53
 70
     1
102
RTVSPropertyOp54
 70
     1
102
RTVSPropertyOp55
 70
     1
102
RTVSPropertyOp56
 70
     1
102
RTVSPropertyOp57
 70
     1
102
RTVSPost2010Prop28
280
     0
102
RTVSPost2010PropOp28
 70
     1
102
RTVSPost2010Prop29
280
     1
102
RTVSPost2010PropOp29
 70
     1
102
RTVSPost2010Prop30
280
     1
102
RTVSPost2010PropOp30
 70
     1
102
RTVSPost2010Prop31
280
     0
102
RTVSPost2010PropOp31
 70
     1
102
RTVSPost2010Prop32
280
     0
102
RTVSPost2010PropOp32
 70
     1
102
RTVSPost2010Prop33
280
     0
102
RTVSPost2010PropOp33
 70
     1
102
RTVSPost2010Prop34
280
     0
102
RTVSPost2010PropOp34
 70
     1
102
RTVSPost2010Prop35
280
     0
102
RTVSPost2010PropOp35
 70
     1
102
RTVSPost2010Prop36
280
     0
102
RTVSPost2010PropOp36
 70
     1
102
RTVSPost2010Prop37
 90
       50
102
RTVSPost2010PropOp37
 70
     1
102
RTVSPost2010Prop38
140
0.0
102
RTVSPost2010PropOp38
 70
     1
102
RTVSPost2010Prop39
140
1.0
102
RTVSPost2010PropOp39
 70
     1
102
RTVSPost2010Prop40
 90
        0
102
RTVSPost2010PropOp40
 70
     1
102
RTVSPost2010Prop41ColorIndex
 90
       18
102
RTVSPost2010Prop41ColorRGB
 90
        0
102
RTVSPost2010PropOp41
 70
     1
102
RTVSPost2010Prop42
 90
       50
102
RTVSPost2010PropOp42
 70
     1
102
RTVSPost2010Prop43
 90
        3
102
RTVSPost2010PropOp43
 70
     1
102
RTVSPost2010Prop44ColorIndex
 90
        5
102
RTVSPost2010Prop44ColorRGB
 90
      255
102
RTVSPost2010PropOp44
 70
     1
102
RTVSPost2010Prop45
280
     0
102
RTVSPost2010PropOp45
 70
     1
102
RTVSPost2010Prop46
 90
       50
102
RTVSPost2010PropOp46
 70
     1
102
RTVSPost2010Prop47
 90
       50
102
RTVSPost2010PropOp47
 70
     1
102
RTVSPost2010Prop48
 90
       50
102
RTVSPost2010PropOp48
 70
     1
102
RTVSPost2010Prop49
280
     0
102
RTVSPost2010PropOp49
 70
     1
102
RTVSPost2010Prop50
 90
       50
102
RTVSPost2010PropOp50
 70
     1
102
RTVSPost2010Prop51ColorIndex
 90
      256
102
RTVSPost2010Prop51ColorRGB
 90
-16777216
102
RTVSPost2010PropOp51
 70
     0
102
RTVSPost2010Prop52
140
1.0
102
RTVSPost2010PropOp52
 70
     0
102
RTVSPost2010Prop53
 90
        2
102
RTVSPost2010PropOp53
 70
     1
102
RTVSPost2010Prop54
  1
strokes_ogs.tif
102
RTVSPost2010PropOp54
 70
     1
102
RTVSPost2010Prop55
280
     0
102
RTVSPost2010PropOp55
 70
     1
102
RTVSPost2010Prop56
140
1.0
102
RTVSPost2010PropOp56
 70
     1
102
RTVSPost2010Prop57
140
1.0
102
RTVSPost2010PropOp57
 70
     1
  0
XRECORD
  5
63A
102
{ACAD_REACTORS
330
639
102
}
330
639
100
AcDbXrecord
280
     1
102
RTVSPropertyOp0
 70
     1
102
RTVSPropertyOp1
 70
     1
102
RTVSPropertyOp2
 70
     1
102
RTVSPropertyOp3
 70
     1
102
RTVSPropertyOp4
 70
     1
102
RTVSPropertyOp5
 70
     1
102
RTVSPropertyOp6
 70
     1
102
RTVSPropertyOp7
 70
     1
102
RTVSPropertyOp8
 70
     1
102
RTVSPropertyOp9
 70
     1
102
RTVSPropertyOp10
 70
     1
102
RTVSPropertyOp11
 70
     1
102
RTVSPropertyOp12
 70
     1
102
RTVSPropertyOp13
 70
     1
102
RTVSPropertyOp14
 70
     1
102
RTVSPropertyOp15
 70
     1
102
RTVSPropertyOp16
 70
     1
102
RTVSPropertyOp17
 70
     1
102
RTVSPropertyOp18
 70
     1
102
RTVSPropertyOp19
 70
     1
102
RTVSPropertyOp20
 70
     1
102
RTVSPropertyOp21
 70
     1
102
RTVSPropertyOp22
 70
     1
102
RTVSPropertyOp23
 70
     1
102
RTVSPropertyOp24
 70
     1
102
RTVSPropertyOp25
 70
     1
102
RTVSPropertyOp26
 70
     1
102
RTVSPropertyOp27
 70
     1
102
RTVSPropertyOp28
 70
     1
102
RTVSPropertyOp29
 70
     1
102
RTVSPropertyOp30
 70
     1
102
RTVSPropertyOp31
 70
     1
102
RTVSPropertyOp32
 70
     1
102
RTVSPropertyOp33
 70
     1
102
RTVSPropertyOp34
 70
     1
102
RTVSPropertyOp35
 70
     1
102
RTVSPropertyOp36
 70
     1
102
RTVSPropertyOp37
 70
     1
102
RTVSPropertyOp38
 70
     1
102
RTVSPropertyOp39
 70
     1
102
RTVSPropertyOp40
 70
     1
102
RTVSPropertyOp41
 70
     1
102
RTVSPropertyOp42
 70
     1
102
RTVSPropertyOp43
 70
     1
102
RTVSPropertyOp44
 70
     1
102
RTVSPropertyOp45
 70
     1
102
RTVSPropertyOp46
 70
     1
102
RTVSPropertyOp47
 70
     1
102
RTVSPropertyOp48
 70
     1
102
RTVSPropertyOp49
 70
     1
102
RTVSPropertyOp50
 70
     1
102
RTVSPropertyOp51
 70
     0
102
RTVSPropertyOp52
 70
     0
102
RTVSPropertyOp53
 70
     1
102
RTVSPropertyOp54
 70
     1
102
RTVSPropertyOp55
 70
     1
102
RTVSPropertyOp56
 70
     1
102
RTVSPropertyOp57
 70
     1
102
RTVSPost2010Prop28
280
     0
102
RTVSPost2010PropOp28
 70
     1
102
RTVSPost2010Prop29
280
     1
102
RTVSPost2010PropOp29
 70
     1
102
RTVSPost2010Prop30
280
     1
102
RTVSPost2010PropOp30
 70
     1
102
RTVSPost2010Prop31
280
     0
102
RTVSPost2010PropOp31
 70
     1
102
RTVSPost2010Prop32
280
     0
102
RTVSPost2010PropOp32
 70
     1
102
RTVSPost2010Prop33
280
     0
102
RTVSPost2010PropOp33
 70
     1
102
RTVSPost2010Prop34
280
     0
102
RTVSPost2010PropOp34
 70
     1
102
RTVSPost2010Prop35
280
     0
102
RTVSPost2010PropOp35
 70
     1
102
RTVSPost2010Prop36
280
     0
102
RTVSPost2010PropOp36
 70
     1
102
RTVSPost2010Prop37
 90
       50
102
RTVSPost2010PropOp37
 70
     1
102
RTVSPost2010Prop38
140
0.0
102
RTVSPost2010PropOp38
 70
     1
102
RTVSPost2010Prop39
140
1.0
102
RTVSPost2010PropOp39
 70
     1
102
RTVSPost2010Prop40
 90
        0
102
RTVSPost2010PropOp40
 70
     1
102
RTVSPost2010Prop41ColorIndex
 90
       18
102
RTVSPost2010Prop41ColorRGB
 90
        0
102
RTVSPost2010PropOp41
 70
     1
102
RTVSPost2010Prop42
 90
       50
102
RTVSPost2010PropOp42
 70
     1
102
RTVSPost2010Prop43
 90
        3
102
RTVSPost2010PropOp43
 70
     1
102
RTVSPost2010Prop44ColorIndex
 90
        5
102
RTVSPost2010Prop44ColorRGB
 90
      255
102
RTVSPost2010PropOp44
 70
     1
102
RTVSPost2010Prop45
280
     0
102
RTVSPost2010PropOp45
 70
     1
102
RTVSPost2010Prop46
 90
       50
102
RTVSPost2010PropOp46
 70
     1
102
RTVSPost2010Prop47
 90
       50
102
RTVSPost2010PropOp47
 70
     1
102
RTVSPost2010Prop48
 90
       50
102
RTVSPost2010PropOp48
 70
     1
102
RTVSPost2010Prop49
280
     0
102
RTVSPost2010PropOp49
 70
     1
102
RTVSPost2010Prop50
 90
       50
102
RTVSPost2010PropOp50
 70
     1
102
RTVSPost2010Prop51ColorIndex
 90
      256
102
RTVSPost2010Prop51ColorRGB
 90
-16777216
102
RTVSPost2010PropOp51
 70
     0
102
RTVSPost2010Prop52
140
1.0
102
RTVSPost2010PropOp52
 70
     0
102
RTVSPost2010Prop53
 90
        2
102
RTVSPost2010PropOp53
 70
     1
102
RTVSPost2010Prop54
  1
strokes_ogs.tif
102
RTVSPost2010PropOp54
 70
     1
102
RTVSPost2010Prop55
280
     0
102
RTVSPost2010PropOp55
 70
     1
102
RTVSPost2010Prop56
140
1.0
102
RTVSPost2010PropOp56
 70
     1
102
RTVSPost2010Prop57
140
1.0
102
RTVSPost2010PropOp57
 70
     1
  0
XRECORD
  5
63C
102
{ACAD_REACTORS
330
63B
102
}
330
63B
100
AcDbXrecord
280
     1
102
RTVSPropertyOp0
 70
     1
102
RTVSPropertyOp1
 70
     1
102
RTVSPropertyOp2
 70
     1
102
RTVSPropertyOp3
 70
     1
102
RTVSPropertyOp4
 70
     1
102
RTVSPropertyOp5
 70
     1
102
RTVSPropertyOp6
 70
     1
102
RTVSPropertyOp7
 70
     1
102
RTVSPropertyOp8
 70
     1
102
RTVSPropertyOp9
 70
     1
102
RTVSPropertyOp10
 70
     1
102
RTVSPropertyOp11
 70
     1
102
RTVSPropertyOp12
 70
     1
102
RTVSPropertyOp13
 70
     1
102
RTVSPropertyOp14
 70
     1
102
RTVSPropertyOp15
 70
     1
102
RTVSPropertyOp16
 70
     1
102
RTVSPropertyOp17
 70
     1
102
RTVSPropertyOp18
 70
     1
102
RTVSPropertyOp19
 70
     1
102
RTVSPropertyOp20
 70
     1
102
RTVSPropertyOp21
 70
     1
102
RTVSPropertyOp22
 70
     1
102
RTVSPropertyOp23
 70
     1
102
RTVSPropertyOp24
 70
     1
102
RTVSPropertyOp25
 70
     1
102
RTVSPropertyOp26
 70
     1
102
RTVSPropertyOp27
 70
     1
102
RTVSPropertyOp28
 70
     1
102
RTVSPropertyOp29
 70
     1
102
RTVSPropertyOp30
 70
     1
102
RTVSPropertyOp31
 70
     1
102
RTVSPropertyOp32
 70
     1
102
RTVSPropertyOp33
 70
     1
102
RTVSPropertyOp34
 70
     1
102
RTVSPropertyOp35
 70
     1
102
RTVSPropertyOp36
 70
     1
102
RTVSPropertyOp37
 70
     1
102
RTVSPropertyOp38
 70
     1
102
RTVSPropertyOp39
 70
     1
102
RTVSPropertyOp40
 70
     1
102
RTVSPropertyOp41
 70
     1
102
RTVSPropertyOp42
 70
     1
102
RTVSPropertyOp43
 70
     1
102
RTVSPropertyOp44
 70
     1
102
RTVSPropertyOp45
 70
     1
102
RTVSPropertyOp46
 70
     1
102
RTVSPropertyOp47
 70
     1
102
RTVSPropertyOp48
 70
     1
102
RTVSPropertyOp49
 70
     1
102
RTVSPropertyOp50
 70
     1
102
RTVSPropertyOp51
 70
     0
102
RTVSPropertyOp52
 70
     0
102
RTVSPropertyOp53
 70
     1
102
RTVSPropertyOp54
 70
     1
102
RTVSPropertyOp55
 70
     1
102
RTVSPropertyOp56
 70
     1
102
RTVSPropertyOp57
 70
     1
102
RTVSPost2010Prop28
280
     0
102
RTVSPost2010PropOp28
 70
     1
102
RTVSPost2010Prop29
280
     1
102
RTVSPost2010PropOp29
 70
     1
102
RTVSPost2010Prop30
280
     1
102
RTVSPost2010PropOp30
 70
     1
102
RTVSPost2010Prop31
280
     0
102
RTVSPost2010PropOp31
 70
     1
102
RTVSPost2010Prop32
280
     0
102
RTVSPost2010PropOp32
 70
     1
102
RTVSPost2010Prop33
280
     0
102
RTVSPost2010PropOp33
 70
     1
102
RTVSPost2010Prop34
280
     0
102
RTVSPost2010PropOp34
 70
     1
102
RTVSPost2010Prop35
280
     0
102
RTVSPost2010PropOp35
 70
     1
102
RTVSPost2010Prop36
280
     0
102
RTVSPost2010PropOp36
 70
     1
102
RTVSPost2010Prop37
 90
       50
102
RTVSPost2010PropOp37
 70
     1
102
RTVSPost2010Prop38
140
0.0
102
RTVSPost2010PropOp38
 70
     1
102
RTVSPost2010Prop39
140
1.0
102
RTVSPost2010PropOp39
 70
     1
102
RTVSPost2010Prop40
 90
        0
102
RTVSPost2010PropOp40
 70
     1
102
RTVSPost2010Prop41ColorIndex
 90
       18
102
RTVSPost2010Prop41ColorRGB
 90
        0
102
RTVSPost2010PropOp41
 70
     1
102
RTVSPost2010Prop42
 90
       50
102
RTVSPost2010PropOp42
 70
     1
102
RTVSPost2010Prop43
 90
        3
102
RTVSPost2010PropOp43
 70
     1
102
RTVSPost2010Prop44ColorIndex
 90
        5
102
RTVSPost2010Prop44ColorRGB
 90
      255
102
RTVSPost2010PropOp44
 70
     1
102
RTVSPost2010Prop45
280
     0
102
RTVSPost2010PropOp45
 70
     1
102
RTVSPost2010Prop46
 90
       50
102
RTVSPost2010PropOp46
 70
     1
102
RTVSPost2010Prop47
 90
       50
102
RTVSPost2010PropOp47
 70
     1
102
RTVSPost2010Prop48
 90
       50
102
RTVSPost2010PropOp48
 70
     1
102
RTVSPost2010Prop49
280
     0
102
RTVSPost2010PropOp49
 70
     1
102
RTVSPost2010Prop50
 90
       50
102
RTVSPost2010PropOp50
 70
     1
102
RTVSPost2010Prop51ColorIndex
 90
      256
102
RTVSPost2010Prop51ColorRGB
 90
-16777216
102
RTVSPost2010PropOp51
 70
     0
102
RTVSPost2010Prop52
140
1.0
102
RTVSPost2010PropOp52
 70
     0
102
RTVSPost2010Prop53
 90
        2
102
RTVSPost2010PropOp53
 70
     1
102
RTVSPost2010Prop54
  1
strokes_ogs.tif
102
RTVSPost2010PropOp54
 70
     1
102
RTVSPost2010Prop55
280
     0
102
RTVSPost2010PropOp55
 70
     1
102
RTVSPost2010Prop56
140
1.0
102
RTVSPost2010PropOp56
 70
     1
102
RTVSPost2010Prop57
140
1.0
102
RTVSPost2010PropOp57
 70
     1
  0
XRECORD
  5
62C
102
{ACAD_REACTORS
330
62B
102
}
330
62B
100
AcDbXrecord
280
     1
102
RTVSPropertyOp0
 70
     1
102
RTVSPropertyOp1
 70
     1
102
RTVSPropertyOp2
 70
     1
102
RTVSPropertyOp3
 70
     1
102
RTVSPropertyOp4
 70
     1
102
RTVSPropertyOp5
 70
     1
102
RTVSPropertyOp6
 70
     1
102
RTVSPropertyOp7
 70
     1
102
RTVSPropertyOp8
 70
     1
102
RTVSPropertyOp9
 70
     1
102
RTVSPropertyOp10
 70
     1
102
RTVSPropertyOp11
 70
     1
102
RTVSPropertyOp12
 70
     1
102
RTVSPropertyOp13
 70
     1
102
RTVSPropertyOp14
 70
     1
102
RTVSPropertyOp15
 70
     1
102
RTVSPropertyOp16
 70
     1
102
RTVSPropertyOp17
 70
     1
102
RTVSPropertyOp18
 70
     1
102
RTVSPropertyOp19
 70
     1
102
RTVSPropertyOp20
 70
     1
102
RTVSPropertyOp21
 70
     1
102
RTVSPropertyOp22
 70
     1
102
RTVSPropertyOp23
 70
     1
102
RTVSPropertyOp24
 70
     1
102
RTVSPropertyOp25
 70
     1
102
RTVSPropertyOp26
 70
     1
102
RTVSPropertyOp27
 70
     1
102
RTVSPropertyOp28
 70
     1
102
RTVSPropertyOp29
 70
     1
102
RTVSPropertyOp30
 70
     1
102
RTVSPropertyOp31
 70
     1
102
RTVSPropertyOp32
 70
     1
102
RTVSPropertyOp33
 70
     1
102
RTVSPropertyOp34
 70
     1
102
RTVSPropertyOp35
 70
     1
102
RTVSPropertyOp36
 70
     1
102
RTVSPropertyOp37
 70
     1
102
RTVSPropertyOp38
 70
     1
102
RTVSPropertyOp39
 70
     1
102
RTVSPropertyOp40
 70
     1
102
RTVSPropertyOp41
 70
     1
102
RTVSPropertyOp42
 70
     1
102
RTVSPropertyOp43
 70
     1
102
RTVSPropertyOp44
 70
     1
102
RTVSPropertyOp45
 70
     1
102
RTVSPropertyOp46
 70
     1
102
RTVSPropertyOp47
 70
     1
102
RTVSPropertyOp48
 70
     1
102
RTVSPropertyOp49
 70
     1
102
RTVSPropertyOp50
 70
     1
102
RTVSPropertyOp51
 70
     0
102
RTVSPropertyOp52
 70
     0
102
RTVSPropertyOp53
 70
     1
102
RTVSPropertyOp54
 70
     1
102
RTVSPropertyOp55
 70
     1
102
RTVSPropertyOp56
 70
     1
102
RTVSPropertyOp57
 70
     1
102
RTVSPost2010Prop28
280
     0
102
RTVSPost2010PropOp28
 70
     1
102
RTVSPost2010Prop29
280
     1
102
RTVSPost2010PropOp29
 70
     1
102
RTVSPost2010Prop30
280
     1
102
RTVSPost2010PropOp30
 70
     1
102
RTVSPost2010Prop31
280
     0
102
RTVSPost2010PropOp31
 70
     1
102
RTVSPost2010Prop32
280
     0
102
RTVSPost2010PropOp32
 70
     1
102
RTVSPost2010Prop33
280
     0
102
RTVSPost2010PropOp33
 70
     1
102
RTVSPost2010Prop34
280
     0
102
RTVSPost2010PropOp34
 70
     1
102
RTVSPost2010Prop35
280
     0
102
RTVSPost2010PropOp35
 70
     1
102
RTVSPost2010Prop36
280
     0
102
RTVSPost2010PropOp36
 70
     1
102
RTVSPost2010Prop37
 90
       50
102
RTVSPost2010PropOp37
 70
     1
102
RTVSPost2010Prop38
140
0.0
102
RTVSPost2010PropOp38
 70
     1
102
RTVSPost2010Prop39
140
1.0
102
RTVSPost2010PropOp39
 70
     1
102
RTVSPost2010Prop40
 90
        0
102
RTVSPost2010PropOp40
 70
     1
102
RTVSPost2010Prop41ColorIndex
 90
       18
102
RTVSPost2010Prop41ColorRGB
 90
        0
102
RTVSPost2010PropOp41
 70
     1
102
RTVSPost2010Prop42
 90
       50
102
RTVSPost2010PropOp42
 70
     1
102
RTVSPost2010Prop43
 90
        3
102
RTVSPost2010PropOp43
 70
     1
102
RTVSPost2010Prop44ColorIndex
 90
        5
102
RTVSPost2010Prop44ColorRGB
 90
      255
102
RTVSPost2010PropOp44
 70
     1
102
RTVSPost2010Prop45
280
     0
102
RTVSPost2010PropOp45
 70
     1
102
RTVSPost2010Prop46
 90
       50
102
RTVSPost2010PropOp46
 70
     1
102
RTVSPost2010Prop47
 90
       50
102
RTVSPost2010PropOp47
 70
     1
102
RTVSPost2010Prop48
 90
       50
102
RTVSPost2010PropOp48
 70
     1
102
RTVSPost2010Prop49
280
     0
102
RTVSPost2010PropOp49
 70
     1
102
RTVSPost2010Prop50
 90
       50
102
RTVSPost2010PropOp50
 70
     1
102
RTVSPost2010Prop51ColorIndex
 90
      256
102
RTVSPost2010Prop51ColorRGB
 90
-16777216
102
RTVSPost2010PropOp51
 70
     0
102
RTVSPost2010Prop52
140
1.0
102
RTVSPost2010PropOp52
 70
     0
102
RTVSPost2010Prop53
 90
        2
102
RTVSPost2010PropOp53
 70
     1
102
RTVSPost2010Prop54
  1
strokes_ogs.tif
102
RTVSPost2010PropOp54
 70
     1
102
RTVSPost2010Prop55
280
     0
102
RTVSPost2010PropOp55
 70
     1
102
RTVSPost2010Prop56
140
1.0
102
RTVSPost2010PropOp56
 70
     1
102
RTVSPost2010Prop57
140
1.0
102
RTVSPost2010PropOp57
 70
     1
  0
XRECORD
  5
61E
102
{ACAD_REACTORS
330
61D
102
}
330
61D
100
AcDbXrecord
280
     1
102
RTVSPropertyOp0
 70
     1
102
RTVSPropertyOp1
 70
     1
102
RTVSPropertyOp2
 70
     1
102
RTVSPropertyOp3
 70
     1
102
RTVSPropertyOp4
 70
     1
102
RTVSPropertyOp5
 70
     1
102
RTVSPropertyOp6
 70
     1
102
RTVSPropertyOp7
 70
     1
102
RTVSPropertyOp8
 70
     1
102
RTVSPropertyOp9
 70
     1
102
RTVSPropertyOp10
 70
     1
102
RTVSPropertyOp11
 70
     1
102
RTVSPropertyOp12
 70
     1
102
RTVSPropertyOp13
 70
     1
102
RTVSPropertyOp14
 70
     1
102
RTVSPropertyOp15
 70
     1
102
RTVSPropertyOp16
 70
     1
102
RTVSPropertyOp17
 70
     1
102
RTVSPropertyOp18
 70
     1
102
RTVSPropertyOp19
 70
     1
102
RTVSPropertyOp20
 70
     1
102
RTVSPropertyOp21
 70
     1
102
RTVSPropertyOp22
 70
     1
102
RTVSPropertyOp23
 70
     1
102
RTVSPropertyOp24
 70
     1
102
RTVSPropertyOp25
 70
     1
102
RTVSPropertyOp26
 70
     1
102
RTVSPropertyOp27
 70
     1
102
RTVSPropertyOp28
 70
     1
102
RTVSPropertyOp29
 70
     1
102
RTVSPropertyOp30
 70
     1
102
RTVSPropertyOp31
 70
     1
102
RTVSPropertyOp32
 70
     1
102
RTVSPropertyOp33
 70
     1
102
RTVSPropertyOp34
 70
     1
102
RTVSPropertyOp35
 70
     1
102
RTVSPropertyOp36
 70
     1
102
RTVSPropertyOp37
 70
     1
102
RTVSPropertyOp38
 70
     1
102
RTVSPropertyOp39
 70
     1
102
RTVSPropertyOp40
 70
     1
102
RTVSPropertyOp41
 70
     1
102
RTVSPropertyOp42
 70
     1
102
RTVSPropertyOp43
 70
     1
102
RTVSPropertyOp44
 70
     1
102
RTVSPropertyOp45
 70
     1
102
RTVSPropertyOp46
 70
     1
102
RTVSPropertyOp47
 70
     1
102
RTVSPropertyOp48
 70
     1
102
RTVSPropertyOp49
 70
     1
102
RTVSPropertyOp50
 70
     1
102
RTVSPropertyOp51
 70
     0
102
RTVSPropertyOp52
 70
     0
102
RTVSPropertyOp53
 70
     1
102
RTVSPropertyOp54
 70
     1
102
RTVSPropertyOp55
 70
     1
102
RTVSPropertyOp56
 70
     1
102
RTVSPropertyOp57
 70
     1
102
RTVSPost2010Prop28
280
     0
102
RTVSPost2010PropOp28
 70
     1
102
RTVSPost2010Prop29
280
     1
102
RTVSPost2010PropOp29
 70
     1
102
RTVSPost2010Prop30
280
     1
102
RTVSPost2010PropOp30
 70
     1
102
RTVSPost2010Prop31
280
     0
102
RTVSPost2010PropOp31
 70
     1
102
RTVSPost2010Prop32
280
     0
102
RTVSPost2010PropOp32
 70
     1
102
RTVSPost2010Prop33
280
     0
102
RTVSPost2010PropOp33
 70
     1
102
RTVSPost2010Prop34
280
     0
102
RTVSPost2010PropOp34
 70
     1
102
RTVSPost2010Prop35
280
     0
102
RTVSPost2010PropOp35
 70
     1
102
RTVSPost2010Prop36
280
     0
102
RTVSPost2010PropOp36
 70
     1
102
RTVSPost2010Prop37
 90
       50
102
RTVSPost2010PropOp37
 70
     1
102
RTVSPost2010Prop38
140
0.0
102
RTVSPost2010PropOp38
 70
     1
102
RTVSPost2010Prop39
140
1.0
102
RTVSPost2010PropOp39
 70
     1
102
RTVSPost2010Prop40
 90
        0
102
RTVSPost2010PropOp40
 70
     1
102
RTVSPost2010Prop41ColorIndex
 90
       18
102
RTVSPost2010Prop41ColorRGB
 90
        0
102
RTVSPost2010PropOp41
 70
     1
102
RTVSPost2010Prop42
 90
       50
102
RTVSPost2010PropOp42
 70
     1
102
RTVSPost2010Prop43
 90
        3
102
RTVSPost2010PropOp43
 70
     1
102
RTVSPost2010Prop44ColorIndex
 90
        5
102
RTVSPost2010Prop44ColorRGB
 90
      255
102
RTVSPost2010PropOp44
 70
     1
102
RTVSPost2010Prop45
280
     0
102
RTVSPost2010PropOp45
 70
     1
102
RTVSPost2010Prop46
 90
       50
102
RTVSPost2010PropOp46
 70
     1
102
RTVSPost2010Prop47
 90
       50
102
RTVSPost2010PropOp47
 70
     1
102
RTVSPost2010Prop48
 90
       50
102
RTVSPost2010PropOp48
 70
     1
102
RTVSPost2010Prop49
280
     0
102
RTVSPost2010PropOp49
 70
     1
102
RTVSPost2010Prop50
 90
       50
102
RTVSPost2010PropOp50
 70
     1
102
RTVSPost2010Prop51ColorIndex
 90
      256
102
RTVSPost2010Prop51ColorRGB
 90
-16777216
102
RTVSPost2010PropOp51
 70
     0
102
RTVSPost2010Prop52
140
1.0
102
RTVSPost2010PropOp52
 70
     0
102
RTVSPost2010Prop53
 90
        2
102
RTVSPost2010PropOp53
 70
     1
102
RTVSPost2010Prop54
  1
strokes_ogs.tif
102
RTVSPost2010PropOp54
 70
     1
102
RTVSPost2010Prop55
280
     0
102
RTVSPost2010PropOp55
 70
     1
102
RTVSPost2010Prop56
140
1.0
102
RTVSPost2010PropOp56
 70
     1
102
RTVSPost2010Prop57
140
1.0
102
RTVSPost2010PropOp57
 70
     1
  0
XRECORD
  5
63E
102
{ACAD_REACTORS
330
63D
102
}
330
63D
100
AcDbXrecord
280
     1
102
RTVSPropertyOp0
 70
     1
102
RTVSPropertyOp1
 70
     1
102
RTVSPropertyOp2
 70
     1
102
RTVSPropertyOp3
 70
     1
102
RTVSPropertyOp4
 70
     1
102
RTVSPropertyOp5
 70
     1
102
RTVSPropertyOp6
 70
     1
102
RTVSPropertyOp7
 70
     1
102
RTVSPropertyOp8
 70
     1
102
RTVSPropertyOp9
 70
     1
102
RTVSPropertyOp10
 70
     1
102
RTVSPropertyOp11
 70
     1
102
RTVSPropertyOp12
 70
     1
102
RTVSPropertyOp13
 70
     1
102
RTVSPropertyOp14
 70
     1
102
RTVSPropertyOp15
 70
     1
102
RTVSPropertyOp16
 70
     1
102
RTVSPropertyOp17
 70
     1
102
RTVSPropertyOp18
 70
     1
102
RTVSPropertyOp19
 70
     1
102
RTVSPropertyOp20
 70
     1
102
RTVSPropertyOp21
 70
     1
102
RTVSPropertyOp22
 70
     1
102
RTVSPropertyOp23
 70
     1
102
RTVSPropertyOp24
 70
     1
102
RTVSPropertyOp25
 70
     1
102
RTVSPropertyOp26
 70
     1
102
RTVSPropertyOp27
 70
     1
102
RTVSPropertyOp28
 70
     1
102
RTVSPropertyOp29
 70
     1
102
RTVSPropertyOp30
 70
     1
102
RTVSPropertyOp31
 70
     1
102
RTVSPropertyOp32
 70
     1
102
RTVSPropertyOp33
 70
     1
102
RTVSPropertyOp34
 70
     1
102
RTVSPropertyOp35
 70
     1
102
RTVSPropertyOp36
 70
     1
102
RTVSPropertyOp37
 70
     1
102
RTVSPropertyOp38
 70
     1
102
RTVSPropertyOp39
 70
     1
102
RTVSPropertyOp40
 70
     1
102
RTVSPropertyOp41
 70
     1
102
RTVSPropertyOp42
 70
     1
102
RTVSPropertyOp43
 70
     1
102
RTVSPropertyOp44
 70
     1
102
RTVSPropertyOp45
 70
     1
102
RTVSPropertyOp46
 70
     1
102
RTVSPropertyOp47
 70
     1
102
RTVSPropertyOp48
 70
     1
102
RTVSPropertyOp49
 70
     1
102
RTVSPropertyOp50
 70
     1
102
RTVSPropertyOp51
 70
     0
102
RTVSPropertyOp52
 70
     0
102
RTVSPropertyOp53
 70
     1
102
RTVSPropertyOp54
 70
     1
102
RTVSPropertyOp55
 70
     1
102
RTVSPropertyOp56
 70
     1
102
RTVSPropertyOp57
 70
     1
102
RTVSPost2010Prop28
280
     0
102
RTVSPost2010PropOp28
 70
     1
102
RTVSPost2010Prop29
280
     1
102
RTVSPost2010PropOp29
 70
     1
102
RTVSPost2010Prop30
280
     1
102
RTVSPost2010PropOp30
 70
     1
102
RTVSPost2010Prop31
280
     0
102
RTVSPost2010PropOp31
 70
     1
102
RTVSPost2010Prop32
280
     0
102
RTVSPost2010PropOp32
 70
     1
102
RTVSPost2010Prop33
280
     0
102
RTVSPost2010PropOp33
 70
     1
102
RTVSPost2010Prop34
280
     0
102
RTVSPost2010PropOp34
 70
     1
102
RTVSPost2010Prop35
280
     0
102
RTVSPost2010PropOp35
 70
     1
102
RTVSPost2010Prop36
280
     0
102
RTVSPost2010PropOp36
 70
     1
102
RTVSPost2010Prop37
 90
       50
102
RTVSPost2010PropOp37
 70
     1
102
RTVSPost2010Prop38
140
0.0
102
RTVSPost2010PropOp38
 70
     1
102
RTVSPost2010Prop39
140
1.0
102
RTVSPost2010PropOp39
 70
     1
102
RTVSPost2010Prop40
 90
        0
102
RTVSPost2010PropOp40
 70
     1
102
RTVSPost2010Prop41ColorIndex
 90
       18
102
RTVSPost2010Prop41ColorRGB
 90
        0
102
RTVSPost2010PropOp41
 70
     1
102
RTVSPost2010Prop42
 90
       50
102
RTVSPost2010PropOp42
 70
     1
102
RTVSPost2010Prop43
 90
        3
102
RTVSPost2010PropOp43
 70
     1
102
RTVSPost2010Prop44ColorIndex
 90
        5
102
RTVSPost2010Prop44ColorRGB
 90
      255
102
RTVSPost2010PropOp44
 70
     1
102
RTVSPost2010Prop45
280
     0
102
RTVSPost2010PropOp45
 70
     1
102
RTVSPost2010Prop46
 90
       50
102
RTVSPost2010PropOp46
 70
     1
102
RTVSPost2010Prop47
 90
       50
102
RTVSPost2010PropOp47
 70
     1
102
RTVSPost2010Prop48
 90
       50
102
RTVSPost2010PropOp48
 70
     1
102
RTVSPost2010Prop49
280
     0
102
RTVSPost2010PropOp49
 70
     1
102
RTVSPost2010Prop50
 90
       50
102
RTVSPost2010PropOp50
 70
     1
102
RTVSPost2010Prop51ColorIndex
 90
      256
102
RTVSPost2010Prop51ColorRGB
 90
-16777216
102
RTVSPost2010PropOp51
 70
     0
102
RTVSPost2010Prop52
140
1.0
102
RTVSPost2010PropOp52
 70
     0
102
RTVSPost2010Prop53
 90
        2
102
RTVSPost2010PropOp53
 70
     1
102
RTVSPost2010Prop54
  1
strokes_ogs.tif
102
RTVSPost2010PropOp54
 70
     1
102
RTVSPost2010Prop55
280
     0
102
RTVSPost2010PropOp55
 70
     1
102
RTVSPost2010Prop56
140
1.0
102
RTVSPost2010PropOp56
 70
     1
102
RTVSPost2010Prop57
140
1.0
102
RTVSPost2010PropOp57
 70
     1
  0
ENDSEC
  0
EOF
