  0
SECTION
  2
HEADER
  9
$ACADVER
  1
AC1015
  9
$ACADMAINTVER
 70
     6
  9
$DWGCODEPAGE
  3
ANSI_932
  9
$INSBASE
 10
2274.966880932569
 20
1806.134570618371
 30
0.0
  9
$EXTMIN
 10
398.9279425318878
 20
77.78236918279867
 30
0.0
  9
$EXTMAX
 10
1804.403547958666
 20
1548.229167063731
 30
0.0
  9
$LIMMIN
 10
0.0
 20
0.0
  9
$LIMMAX
 10
816.5000000000001
 20
565.0
  9
$ORTHOMODE
 70
     1
  9
$REGENMODE
 70
     1
  9
$FILLMODE
 70
     1
  9
$QTEXTMODE
 70
     0
  9
$MIRRTEXT
 70
     1
  9
$LTSCALE
 40
20.0
  9
$ATTMODE
 70
     1
  9
$TEXTSIZE
 40
15.0
  9
$TRACEWID
 40
0.05
  9
$TEXTSTYLE
  7
KANJI
  9
$CLAYER
  8
2
  9
$CELTYPE
  6
BYLAYER
  9
$CECOLOR
 62
   256
  9
$CELTSCALE
 40
1.0
  9
$DISPSILH
 70
     0
  9
$DIMSCALE
 40
5.0
  9
$DIMASZ
 40
2.0
  9
$DIMEXO
 40
0.5
  9
$DIMDLI
 40
0.0
  9
$DIMRND
 40
0.0
  9
$DIMDLE
 40
0.0
  9
$DIMEXE
 40
1.0
  9
$DIMTP
 40
0.0
  9
$DIMTM
 40
0.0
  9
$DIMTXT
 40
3.0
  9
$DIMCEN
 40
0.09
  9
$DIMTSZ
 40
0.0
  9
$DIMTOL
 70
     0
  9
$DIMLIM
 70
     0
  9
$DIMTIH
 70
     0
  9
$DIMTOH
 70
     0
  9
$DIMSE1
 70
     0
  9
$DIMSE2
 70
     0
  9
$DIMTAD
 70
     0
  9
$DIMZIN
 70
     8
  9
$DIMBLK
  1

  9
$DIMASO
 70
     0
  9
$DIMSHO
 70
     0
  9
$DIMPOST
  1

  9
$DIMAPOST
  1

  9
$DIMALT
 70
     0
  9
$DIMALTD
 70
     2
  9
$DIMALTF
 40
25.4
  9
$DIMLFAC
 40
1.0
  9
$DIMTOFL
 70
     1
  9
$DIMTVP
 40
1.0
  9
$DIMTIX
 70
     1
  9
$DIMSOXD
 70
     1
  9
$DIMSAH
 70
     0
  9
$DIMBLK1
  1

  9
$DIMBLK2
  1

  9
$DIMSTYLE
  2
STANDARD
  9
$DIMCLRD
 70
   256
  9
$DIMCLRE
 70
   256
  9
$DIMCLRT
 70
   256
  9
$DIMTFAC
 40
1.0
  9
$DIMGAP
 40
0.09
  9
$DIMJUST
 70
     0
  9
$DIMSD1
 70
     0
  9
$DIMSD2
 70
     0
  9
$DIMTOLJ
 70
     1
  9
$DIMTZIN
 70
     0
  9
$DIMALTZ
 70
     0
  9
$DIMALTTZ
 70
     0
  9
$DIMUPT
 70
     0
  9
$DIMDEC
 70
     1
  9
$DIMTDEC
 70
     4
  9
$DIMALTU
 70
     2
  9
$DIMALTTD
 70
     2
  9
$DIMTXSTY
  7
STANDARD
  9
$DIMAUNIT
 70
     0
  9
$DIMADEC
 70
     0
  9
$DIMALTRND
 40
0.0
  9
$DIMAZIN
 70
     0
  9
$DIMDSEP
 70
    46
  9
$DIMATFIT
 70
     3
  9
$DIMFRAC
 70
     0
  9
$DIMLDRBLK
  1

  9
$DIMLUNIT
 70
     2
  9
$DIMLWD
 70
    -2
  9
$DIMLWE
 70
    -2
  9
$DIMTMOVE
 70
     0
  9
$LUNITS
 70
     2
  9
$LUPREC
 70
     3
  9
$SKETCHINC
 40
0.1
  9
$FILLETRAD
 40
1.0
  9
$AUNITS
 70
     0
  9
$AUPREC
 70
     3
  9
$MENU
  1
C:\R13\WIN\SUPPORT\ACADFULL
  9
$ELEVATION
 40
0.0
  9
$PELEVATION
 40
0.0
  9
$THICKNESS
 40
0.0
  9
$LIMCHECK
 70
     0
  9
$CHAMFERA
 40
0.0
  9
$CHAMFERB
 40
0.0
  9
$CHAMFERC
 40
0.0
  9
$CHAMFERD
 40
0.0
  9
$SKPOLY
 70
     0
  9
$TDCREATE
 40
2457542.464100729
  9
$TDUCREATE
 40
2457542.089100729
  9
$TDUPDATE
 40
2457871.819959757
  9
$TDUUPDATE
 40
2457871.444959757
  9
$TDINDWG
 40
0.0102234606
  9
$TDUSRTIMER
 40
0.0102231134
  9
$USRTIMER
 70
     1
  9
$ANGBASE
 50
0.0
  9
$ANGDIR
 70
     0
  9
$PDMODE
 70
     0
  9
$PDSIZE
 40
0.0
  9
$PLINEWID
 40
0.0
  9
$SPLFRAME
 70
     0
  9
$SPLINETYPE
 70
     6
  9
$SPLINESEGS
 70
     8
  9
$HANDSEED
  5
60D
  9
$SURFTAB1
 70
     6
  9
$SURFTAB2
 70
     6
  9
$SURFTYPE
 70
     6
  9
$SURFU
 70
     6
  9
$SURFV
 70
     6
  9
$UCSBASE
  2

  9
$UCSNAME
  2

  9
$UCSORG
 10
0.0
 20
0.0
 30
0.0
  9
$UCSXDIR
 10
1.0
 20
0.0
 30
0.0
  9
$UCSYDIR
 10
0.0
 20
1.0
 30
0.0
  9
$UCSORTHOREF
  2

  9
$UCSORTHOVIEW
 70
     0
  9
$UCSORGTOP
 10
0.0
 20
0.0
 30
0.0
  9
$UCSORGBOTTOM
 10
0.0
 20
0.0
 30
0.0
  9
$UCSORGLEFT
 10
0.0
 20
0.0
 30
0.0
  9
$UCSORGRIGHT
 10
0.0
 20
0.0
 30
0.0
  9
$UCSORGFRONT
 10
0.0
 20
0.0
 30
0.0
  9
$UCSORGBACK
 10
0.0
 20
0.0
 30
0.0
  9
$PUCSBASE
  2

  9
$PUCSNAME
  2

  9
$PUCSORG
 10
0.0
 20
0.0
 30
0.0
  9
$PUCSXDIR
 10
1.0
 20
0.0
 30
0.0
  9
$PUCSYDIR
 10
0.0
 20
1.0
 30
0.0
  9
$PUCSORTHOREF
  2

  9
$PUCSORTHOVIEW
 70
     0
  9
$PUCSORGTOP
 10
0.0
 20
0.0
 30
0.0
  9
$PUCSORGBOTTOM
 10
0.0
 20
0.0
 30
0.0
  9
$PUCSORGLEFT
 10
0.0
 20
0.0
 30
0.0
  9
$PUCSORGRIGHT
 10
0.0
 20
0.0
 30
0.0
  9
$PUCSORGFRONT
 10
0.0
 20
0.0
 30
0.0
  9
$PUCSORGBACK
 10
0.0
 20
0.0
 30
0.0
  9
$USERI1
 70
     0
  9
$USERI2
 70
     0
  9
$USERI3
 70
     0
  9
$USERI4
 70
     0
  9
$USERI5
 70
     0
  9
$USERR1
 40
0.0
  9
$USERR2
 40
0.0
  9
$USERR3
 40
0.0
  9
$USERR4
 40
2448925.372986111
  9
$USERR5
 40
0.04166667
  9
$WORLDVIEW
 70
     1
  9
$SHADEDGE
 70
     3
  9
$SHADEDIF
 70
    70
  9
$TILEMODE
 70
     1
  9
$MAXACTVP
 70
    16
  9
$PINSBASE
 10
0.0
 20
0.0
 30
0.0
  9
$PLIMCHECK
 70
     0
  9
$PEXTMIN
 10
1.000000000000000E+20
 20
1.000000000000000E+20
 30
1.000000000000000E+20
  9
$PEXTMAX
 10
-1.000000000000000E+20
 20
-1.000000000000000E+20
 30
-1.000000000000000E+20
  9
$PLIMMIN
 10
0.0
 20
0.0
  9
$PLIMMAX
 10
12.0
 20
9.0
  9
$UNITMODE
 70
     0
  9
$VISRETAIN
 70
     0
  9
$PLINEGEN
 70
     0
  9
$PSLTSCALE
 70
     0
  9
$TREEDEPTH
 70
  3020
  9
$CMLSTYLE
  2
STANDARD
  9
$CMLJUST
 70
     0
  9
$CMLSCALE
 40
1.0
  9
$PROXYGRAPHICS
 70
     1
  9
$MEASUREMENT
 70
     0
  9
$CELWEIGHT
370
    -1
  9
$ENDCAPS
280
     0
  9
$JOINSTYLE
280
     0
  9
$LWDISPLAY
290
     0
  9
$INSUNITS
 70
     0
  9
$HYPERLINKBASE
  1

  9
$STYLESHEET
  1

  9
$XEDIT
290
     1
  9
$CEPSNTYPE
380
     0
  9
$PSTYLEMODE
290
     1
  9
$FINGERPRINTGUID
  2
{A11DFAB8-678D-4560-A0E8-252BE2809712}
  9
$VERSIONGUID
  2
{AD34A781-3D5E-4C48-A334-8EEB1AC4B030}
  9
$EXTNAMES
290
     1
  9
$PSVPSCALE
 40
0.0
  9
$OLESTARTUP
290
     0
  0
ENDSEC
  0
SECTION
  2
CLASSES
  0
CLASS
  1
ACDBDICTIONARYWDFLT
  2
AcDbDictionaryWithDefault
  3
ObjectDBX Classes
 90
        0
280
     0
281
     0
  0
CLASS
  1
MATERIAL
  2
AcDbMaterial
  3
ObjectDBX Classes
 90
     1153
280
     0
281
     0
  0
CLASS
  1
SORTENTSTABLE
  2
AcDbSortentsTable
  3
ObjectDBX Classes
 90
        0
280
     0
281
     0
  0
CLASS
  1
SCALE
  2
AcDbScale
  3
ObjectDBX Classes
 90
     1153
280
     0
281
     0
  0
CLASS
  1
DICTIONARYVAR
  2
AcDbDictionaryVar
  3
ObjectDBX Classes
 90
        0
280
     0
281
     0
  0
CLASS
  1
VISUALSTYLE
  2
AcDbVisualStyle
  3
ObjectDBX Classes
 90
     4095
280
     0
281
     0
  0
CLASS
  1
MLEADERSTYLE
  2
AcDbMLeaderStyle
  3
ACDB_MLEADERSTYLE_CLASS
 90
     4095
280
     0
281
     0
  0
CLASS
  1
TABLESTYLE
  2
AcDbTableStyle
  3
ObjectDBX Classes
 90
     4095
280
     0
281
     0
  0
CLASS
  1
ACDBPLACEHOLDER
  2
AcDbPlaceHolder
  3
ObjectDBX Classes
 90
        0
280
     0
281
     0
  0
CLASS
  1
LAYOUT
  2
AcDbLayout
  3
ObjectDBX Classes
 90
        0
280
     0
281
     0
  0
ENDSEC
  0
SECTION
  2
TABLES
  0
TABLE
  2
VPORT
  5
2B
102
{ACAD_XDICTIONARY
360
5D2
102
}
330
0
100
AcDbSymbolTable
 70
     1
  0
VPORT
  5
30
330
2B
100
AcDbSymbolTableRecord
100
AcDbViewportTableRecord
  2
*ACTIVE
 70
     0
 10
0.0
 20
0.0
 11
1.0
 21
1.0
 12
1955.529154016608
 22
845.5986940917587
 13
0.0
 23
0.0
 14
1.0
 24
1.0
 15
50.0
 25
50.0
 16
0.0
 26
0.0
 36
1.0
 17
0.0
 27
0.0
 37
0.0
 40
1890.272909290599
 41
2.174107142857143
 42
50.0
 43
0.0
 44
0.0
 50
0.0
 51
0.0
 71
     0
 72
  5000
 73
     1
 74
     0
 75
     0
 76
     0
 77
     0
 78
     0
281
     0
 65
     1
110
0.0
120
0.0
130
0.0
111
1.0
121
0.0
131
0.0
112
0.0
122
1.0
132
0.0
 79
     0
146
0.0
1001
ACAD_NAV_VCDISPLAY
1070
     3
  0
ENDTAB
  0
TABLE
  2
LTYPE
  5
F
330
0
100
AcDbSymbolTable
 70
     2
  0
LTYPE
  5
10
330
F
100
AcDbSymbolTableRecord
100
AcDbLinetypeTableRecord
  2
BYBLOCK
 70
     0
  3

 72
    65
 73
     0
 40
0.0
  0
LTYPE
  5
11
330
F
100
AcDbSymbolTableRecord
100
AcDbLinetypeTableRecord
  2
BYLAYER
 70
     0
  3

 72
    65
 73
     0
 40
0.0
  0
LTYPE
  5
E
330
F
100
AcDbSymbolTableRecord
100
AcDbLinetypeTableRecord
  2
CONTINUOUS
 70
     0
  3
Solid line
 72
    65
 73
     0
 40
0.0
  0
LTYPE
  5
69
330
F
100
AcDbSymbolTableRecord
100
AcDbLinetypeTableRecord
  2
CENTER
 70
     0
  3
Center ____ _ ____ _ ____ _ ____ _ ____ _ ____
 72
    65
 73
     4
 40
2.0
 49
1.25
 74
     0
 49
-0.25
 74
     0
 49
0.25
 74
     0
 49
-0.25
 74
     0
  0
ENDTAB
  0
TABLE
  2
LAYER
  5
2
102
{ACAD_XDICTIONARY
360
3
102
}
330
0
100
AcDbSymbolTable
 70
     8
  0
LAYER
  5
1F
102
{ACAD_XDICTIONARY
360
20
102
}
330
2
100
AcDbSymbolTableRecord
100
AcDbLayerTableRecord
  2
0
 70
     0
 62
     7
  6
CONTINUOUS
370
    -3
390
7
  0
LAYER
  5
D1
102
{ACAD_XDICTIONARY
360
D2
102
}
330
2
100
AcDbSymbolTableRecord
100
AcDbLayerTableRecord
  2
1
 70
     0
 62
     9
  6
CONTINUOUS
370
    -3
390
7
  0
LAYER
  5
1
102
{ACAD_XDICTIONARY
360
5
102
}
330
2
100
AcDbSymbolTableRecord
100
AcDbLayerTableRecord
  2
2
 70
     0
 62
     4
  6
CONTINUOUS
370
    -3
390
7
  0
LAYER
  5
61
102
{ACAD_XDICTIONARY
360
62
102
}
330
2
100
AcDbSymbolTableRecord
100
AcDbLayerTableRecord
  2
4
 70
     0
 62
     3
  6
CONTINUOUS
370
    -3
390
7
  0
LAYER
  5
66
102
{ACAD_XDICTIONARY
360
67
102
}
330
2
100
AcDbSymbolTableRecord
100
AcDbLayerTableRecord
  2
L-CENTER
 70
     0
 62
     1
  6
CENTER
370
    -3
390
7
  0
LAYER
  5
58
102
{ACAD_XDICTIONARY
360
59
102
}
330
2
100
AcDbSymbolTableRecord
100
AcDbLayerTableRecord
  2
3
 70
     0
 62
     2
  6
CONTINUOUS
370
    -3
390
7
  0
LAYER
  5
C9
330
2
100
AcDbSymbolTableRecord
100
AcDbLayerTableRecord
  2
5
 70
     0
 62
     6
  6
CONTINUOUS
370
    -3
390
7
  0
LAYER
  5
549
330
2
100
AcDbSymbolTableRecord
100
AcDbLayerTableRecord
  2
Defpoints
 70
     0
 62
     7
  6
CONTINUOUS
290
     0
370
    -3
390
7
  0
ENDTAB
  0
TABLE
  2
STYLE
  5
13
330
0
100
AcDbSymbolTable
 70
     2
  0
STYLE
  5
17
330
13
100
AcDbSymbolTableRecord
100
AcDbTextStyleTableRecord
  2
STANDARD
 70
     0
 40
0.0
 41
1.0
 50
0.0
 71
     0
 42
9.0
  3
TXT
  4

  0
STYLE
  5
12
330
13
100
AcDbSymbolTableRecord
100
AcDbTextStyleTableRecord
  2
KANJI
 70
     0
 40
0.0
 41
1.0
 50
0.0
 71
     0
 42
15.0
  3
TXT
  4
BIGFONT
  0
ENDTAB
  0
TABLE
  2
VIEW
  5
29
330
0
100
AcDbSymbolTable
 70
     0
  0
ENDTAB
  0
TABLE
  2
UCS
  5
2A
330
0
100
AcDbSymbolTable
 70
     0
  0
ENDTAB
  0
TABLE
  2
APPID
  5
D
330
0
100
AcDbSymbolTable
 70
     4
  0
APPID
  5
C
330
D
100
AcDbSymbolTableRecord
100
AcDbRegAppTableRecord
  2
ACAD
 70
     0
  0
APPID
  5
31
330
D
100
AcDbSymbolTableRecord
100
AcDbRegAppTableRecord
  2
ACAD_NAV_VCDISPLAY
 70
     0
  0
APPID
  5
534
330
D
100
AcDbSymbolTableRecord
100
AcDbRegAppTableRecord
  2
ACAD_PSEXT
 70
     0
  0
APPID
  5
5B8
330
D
100
AcDbSymbolTableRecord
100
AcDbRegAppTableRecord
  2
ACAD_MLEADERVER
 70
     0
  0
ENDTAB
  0
TABLE
  2
DIMSTYLE
  5
16
330
0
100
AcDbSymbolTable
 70
     1
100
AcDbDimStyleTable
  0
DIMSTYLE
105
15
330
16
100
AcDbSymbolTableRecord
100
AcDbDimStyleTableRecord
  2
STANDARD
 70
     0
178
     0
340
17
  0
ENDTAB
  0
TABLE
  2
BLOCK_RECORD
  5
1A
330
0
100
AcDbSymbolTable
 70
     0
  0
BLOCK_RECORD
  5
1B
102
{ACAD_XDICTIONARY
360
1C
102
}
330
1A
100
AcDbSymbolTableRecord
100
AcDbBlockTableRecord
  2
*MODEL_SPACE
340
23
  0
BLOCK_RECORD
  5
25
330
1A
100
AcDbSymbolTableRecord
100
AcDbBlockTableRecord
  2
*PAPER_SPACE
340
28
  0
ENDTAB
  0
ENDSEC
  0
SECTION
  2
BLOCKS
  0
BLOCK
  5
1E
330
1B
100
AcDbEntity
  8
0
100
AcDbBlockBegin
  2
*MODEL_SPACE
 70
     0
 10
0.0
 20
0.0
 30
0.0
  3
*MODEL_SPACE
  1

  0
ENDBLK
  5
22
330
1B
100
AcDbEntity
  8
0
100
AcDbBlockEnd
  0
BLOCK
  5
26
330
25
100
AcDbEntity
 67
     1
  8
0
100
AcDbBlockBegin
  2
*PAPER_SPACE
 70
     0
 10
0.0
 20
0.0
 30
0.0
  3
*PAPER_SPACE
  1

  0
ENDBLK
  5
27
330
25
100
AcDbEntity
 67
     1
  8
0
100
AcDbBlockEnd
  0
ENDSEC
  0
SECTION
  2
ENTITIES
  0
ARC
  5
60
330
1B
100
AcDbEntity
  8
4
100
AcDbCircle
 10
427.7127363997629
 20
1176.850621678873
 30
0.0
 40
1.0
100
AcDbArc
 50
180.0
 51
270.0
  0
ARC
  5
64
330
1B
100
AcDbEntity
  8
4
100
AcDbCircle
 10
813.7127363997629
 20
1176.850621678874
 30
0.0
 40
1.0
100
AcDbArc
 50
270.0
 51
0.0
  0
LINE
  5
65
330
1B
100
AcDbEntity
  8
L-CENTER
100
AcDbLine
 10
842.5030835197854
 20
296.6465014429308
 30
0.0
 11
797.9874587027175
 21
296.6505371159562
 31
0.0
  0
LINE
  5
6A
330
1B
100
AcDbEntity
  8
L-CENTER
100
AcDbLine
 10
842.4937883421353
 20
194.1157368642693
 30
0.0
 11
797.978163525067
 21
194.1197725372947
 31
0.0
  0
ARC
  5
1A6
330
1B
100
AcDbEntity
  8
4
100
AcDbCircle
 10
1523.025002573808
 20
700.1512231384438
 30
0.0
 40
6.25
100
AcDbArc
 50
0.0
 51
180.0
  0
LINE
  5
1A8
330
1B
100
AcDbEntity
  8
4
100
AcDbLine
 10
1624.921380627956
 20
614.564812714668
 30
0.0
 11
1616.324907573809
 21
614.564812714668
 31
0.0
  0
LINE
  5
1A9
330
1B
100
AcDbEntity
  8
4
100
AcDbLine
 10
1624.921380627956
 20
609.6573354265563
 30
0.0
 11
1618.824907573809
 21
609.6573354265563
 31
0.0
  0
ARC
  5
1AA
330
1B
100
AcDbEntity
  8
4
100
AcDbCircle
 10
1622.041293644749
 20
612.111074070612
 30
0.0
 40
3.783613929059507
100
AcDbArc
 50
319.5701031551686
 51
40.42989684482882
  0
LINE
  5
1AB
330
1B
100
AcDbEntity
  8
4
100
AcDbLine
 10
1600.025002573808
 20
639.4012231384438
 30
0.0
 11
1613.324907573809
 21
639.4012231384438
 31
0.0
  0
ARC
  5
1AC
330
1B
100
AcDbEntity
  8
4
100
AcDbCircle
 10
1613.324907573809
 20
636.4012231384438
 30
0.0
 40
3.0
100
AcDbArc
 50
0.0
 51
90.0
  0
LINE
  5
1AD
330
1B
100
AcDbEntity
  8
L-CENTER
100
AcDbLine
 10
1586.417382903957
 20
604.7498581384441
 30
0.0
 11
1629.296627903957
 21
604.7498581384441
 31
0.0
  0
LINE
  5
1AE
330
1B
100
AcDbEntity
  8
4
100
AcDbLine
 10
1625.257602573809
 20
595.4012231384438
 30
0.0
 11
1632.924757573809
 21
595.4012231384438
 31
0.0
  0
ARC
  5
1AF
330
1B
100
AcDbEntity
  8
4
100
AcDbCircle
 10
1622.041293644749
 20
597.3886422062767
 30
0.0
 40
3.783613929059507
100
AcDbArc
 50
319.5701031551686
 51
40.42989684482882
  0
LINE
  5
1B0
330
1B
100
AcDbEntity
  8
4
100
AcDbLine
 10
1616.324907573809
 20
594.9349035622206
 30
0.0
 11
1624.921380627956
 21
594.9349035622206
 31
0.0
  0
LINE
  5
1B1
330
1B
100
AcDbEntity
  8
4
100
AcDbLine
 10
1624.921380627956
 20
599.8423808503323
 30
0.0
 11
1618.824907573809
 21
599.8423808503323
 31
0.0
  0
LINE
  5
1B2
330
1B
100
AcDbEntity
  8
4
100
AcDbLine
 10
1631.562997573809
 20
555.401223138444
 30
0.0
 11
1632.924757573809
 21
555.401223138444
 31
0.0
  0
LINE
  5
1B3
330
1B
100
AcDbEntity
  8
4
100
AcDbLine
 10
1632.924757573809
 20
595.4012231384438
 30
0.0
 11
1632.924757573809
 21
555.401223138444
 31
0.0
  0
LINE
  5
1B4
330
1B
100
AcDbEntity
  8
4
100
AcDbLine
 10
1625.824907573809
 20
597.3886422062767
 30
0.0
 11
1625.824907573809
 21
612.111074070612
 31
0.0
  0
LINE
  5
1B5
330
1B
100
AcDbEntity
  8
4
100
AcDbLine
 10
1616.324907573809
 20
614.564812714668
 30
0.0
 11
1616.324907573809
 21
594.9349035622206
 31
0.0
  0
LINE
  5
1B6
330
1B
100
AcDbEntity
  8
4
100
AcDbLine
 10
1618.824907573809
 20
614.564812714668
 30
0.0
 11
1618.824907573809
 21
594.9349035622206
 31
0.0
  0
ARC
  5
1B7
330
1B
100
AcDbEntity
  8
4
100
AcDbCircle
 10
1612.045742276349
 20
604.7498581384441
 30
0.0
 40
13.77916529745958
100
AcDbArc
 50
339.1359356360795
 51
20.86406436391924
  0
LINE
  5
1B8
330
1B
100
AcDbEntity
  8
4
100
AcDbLine
 10
1529.275002573808
 20
658.0994681384439
 30
0.0
 11
1534.786722573809
 21
657.3921931384439
 31
0.0
  0
LINE
  5
1B9
330
1B
100
AcDbEntity
  8
4
100
AcDbLine
 10
1529.275002573808
 20
657.4012231384436
 30
0.0
 11
1534.646827573808
 21
657.4012231384436
 31
0.0
  0
ARC
  5
1BA
330
1B
100
AcDbEntity
  8
4
100
AcDbCircle
 10
1534.646827573808
 20
656.3011281384438
 30
0.0
 40
1.100115
100
AcDbArc
 50
12.80876099999445
 51
90.0
  0
LINE
  5
1BB
330
1B
100
AcDbEntity
  8
4
100
AcDbLine
 10
1546.025002573808
 20
641.4012231384438
 30
0.0
 11
1546.025002573808
 21
646.4012231384438
 31
0.0
  0
LINE
  5
1BC
330
1B
100
AcDbEntity
  8
4
100
AcDbLine
 10
1542.943457573808
 20
646.4012231384438
 30
0.0
 11
1542.943457573808
 21
651.4012231384438
 31
0.0
  0
LINE
  5
1BD
330
1B
100
AcDbEntity
  8
4
100
AcDbLine
 10
1536.888527573809
 20
651.4012231384438
 30
0.0
 11
1542.943457573808
 21
651.4012231384438
 31
0.0
  0
LINE
  5
1BE
330
1B
100
AcDbEntity
  8
4
100
AcDbLine
 10
1535.719582573809
 20
656.5450231384439
 30
0.0
 11
1538.025002573808
 21
646.4012231384438
 31
0.0
  0
LINE
  5
1BF
330
1B
100
AcDbEntity
  8
4
100
AcDbLine
 10
1516.775002573808
 20
658.0994681384439
 30
0.0
 11
1511.263282573809
 21
657.3921931384439
 31
0.0
  0
LINE
  5
1C0
330
1B
100
AcDbEntity
  8
4
100
AcDbLine
 10
1516.775002573808
 20
657.4012231384436
 30
0.0
 11
1511.403177573808
 21
657.4012231384436
 31
0.0
  0
ARC
  5
1C1
330
1B
100
AcDbEntity
  8
4
100
AcDbCircle
 10
1511.403177573808
 20
656.3011281384438
 30
0.0
 40
1.100115
100
AcDbArc
 50
90.0
 51
167.1912510000001
  0
LINE
  5
1C2
330
1B
100
AcDbEntity
  8
4
100
AcDbLine
 10
1510.330422573809
 20
656.5450231384439
 30
0.0
 11
1508.025002573808
 21
646.4012231384438
 31
0.0
  0
LINE
  5
1C3
330
1B
100
AcDbEntity
  8
L-CENTER
100
AcDbLine
 10
1535.525002573808
 20
676.4012231384438
 30
0.0
 11
1510.525002573808
 21
676.4012231384438
 31
0.0
  0
LINE
  5
1C4
330
1B
100
AcDbEntity
  8
4
100
AcDbLine
 10
1500.025002573808
 20
641.4012231384438
 30
0.0
 11
1500.025002573808
 21
646.4012231384438
 31
0.0
  0
LINE
  5
1C5
330
1B
100
AcDbEntity
  8
4
100
AcDbLine
 10
1503.106302573809
 20
646.4012231384438
 30
0.0
 11
1503.106302573809
 21
651.4012231384438
 31
0.0
  0
LINE
  5
1C6
330
1B
100
AcDbEntity
  8
4
100
AcDbLine
 10
1509.161477573808
 20
651.4012231384438
 30
0.0
 11
1503.106302573809
 21
651.4012231384438
 31
0.0
  0
LINE
  5
1C7
330
1B
100
AcDbEntity
  8
4
100
AcDbLine
 10
1500.025002573808
 20
646.4012231384438
 30
0.0
 11
1546.025002573808
 21
646.4012231384438
 31
0.0
  0
LINE
  5
1C8
330
1B
100
AcDbEntity
  8
4
100
AcDbLine
 10
1529.275002573808
 20
651.4012231384438
 30
0.0
 11
1529.275002573808
 21
700.1512231384438
 31
0.0
  0
LINE
  5
1C9
330
1B
100
AcDbEntity
  8
4
100
AcDbLine
 10
1516.775002573808
 20
651.4012231384438
 30
0.0
 11
1516.775002573808
 21
700.1512231384438
 31
0.0
  0
LINE
  5
1CE
330
1B
100
AcDbEntity
  8
4
100
AcDbLine
 10
1446.025002573808
 20
639.4012231384438
 30
0.0
 11
1438.236917573809
 21
639.4012231384438
 31
0.0
  0
ARC
  5
1CF
330
1B
100
AcDbEntity
  8
4
100
AcDbCircle
 10
1434.025002573808
 20
637.4012231384436
 30
0.0
 40
2.0
100
AcDbArc
 50
90.0
 51
180.0
  0
LINE
  5
1D0
330
1B
100
AcDbEntity
  8
4
100
AcDbLine
 10
1434.025002573808
 20
639.4012231384438
 30
0.0
 11
1438.236917573809
 21
639.4012231384438
 31
0.0
  0
LINE
  5
1D5
330
1B
100
AcDbEntity
  8
4
100
AcDbLine
 10
1446.025002573808
 20
641.4012231384438
 30
0.0
 11
1600.025002573808
 21
641.4012231384438
 31
0.0
  0
LINE
  5
1DD
330
1B
100
AcDbEntity
  8
4
100
AcDbLine
 10
1793.025002573809
 20
478.4012231384439
 30
0.0
 11
1792.025002573808
 21
479.401223138444
 31
0.0
  0
LINE
  5
1DE
330
1B
100
AcDbEntity
  8
4
100
AcDbLine
 10
1792.025002573808
 20
411.4012231384439
 30
0.0
 11
1793.025002573809
 21
412.401223138444
 31
0.0
  0
LINE
  5
1DF
330
1B
100
AcDbEntity
  8
4
100
AcDbLine
 10
1793.025002573809
 20
485.401223138444
 30
0.0
 11
1793.025002573809
 21
412.401223138444
 31
0.0
  0
LINE
  5
1E0
330
1B
100
AcDbEntity
  8
4
100
AcDbLine
 10
1792.025002573808
 20
479.401223138444
 30
0.0
 11
1792.025002573808
 21
411.4012231384439
 31
0.0
  0
LINE
  5
1E1
330
1B
100
AcDbEntity
  8
4
100
AcDbLine
 10
1683.025002573808
 20
485.401223138444
 30
0.0
 11
1683.025002573808
 21
479.401223138444
 31
0.0
  0
LINE
  5
1E2
330
1B
100
AcDbEntity
  8
4
100
AcDbLine
 10
1673.025002573808
 20
480.401223138444
 30
0.0
 11
1663.924757573809
 21
480.401223138444
 31
0.0
  0
LINE
  5
1E3
330
1B
100
AcDbEntity
  8
4
100
AcDbLine
 10
1662.924757573809
 20
491.4012231384439
 30
0.0
 11
1663.924757573809
 21
491.4012231384439
 31
0.0
  0
LINE
  5
1E4
330
1B
100
AcDbEntity
  8
4
100
AcDbLine
 10
1644.924757573809
 20
514.901223138444
 30
0.0
 11
1662.924757573809
 21
510.401223138444
 31
0.0
  0
LINE
  5
1E5
330
1B
100
AcDbEntity
  8
4
100
AcDbLine
 10
1662.924757573809
 20
399.4012231384439
 30
0.0
 11
1663.924757573809
 21
399.4012231384439
 31
0.0
  0
LINE
  5
1E6
330
1B
100
AcDbEntity
  8
4
100
AcDbLine
 10
1663.924757573809
 20
410.401223138444
 30
0.0
 11
1673.025002573808
 21
410.401223138444
 31
0.0
  0
LINE
  5
1E7
330
1B
100
AcDbEntity
  8
4
100
AcDbLine
 10
1644.924757573809
 20
375.9012231384439
 30
0.0
 11
1662.924757573809
 21
380.401223138444
 31
0.0
  0
LINE
  5
1E8
330
1B
100
AcDbEntity
  8
4
100
AcDbLine
 10
1673.025002573808
 20
480.401223138444
 30
0.0
 11
1673.025002573808
 21
410.401223138444
 31
0.0
  0
LINE
  5
1E9
330
1B
100
AcDbEntity
  8
4
100
AcDbLine
 10
1663.924757573809
 20
491.4012231384439
 30
0.0
 11
1663.924757573809
 21
399.4012231384439
 31
0.0
  0
LINE
  5
1EA
330
1B
100
AcDbEntity
  8
4
100
AcDbLine
 10
1644.924757573809
 20
514.901223138444
 30
0.0
 11
1644.924757573809
 21
375.9012231384439
 31
0.0
  0
LINE
  5
1EB
330
1B
100
AcDbEntity
  8
4
100
AcDbLine
 10
1662.924757573809
 20
510.401223138444
 30
0.0
 11
1662.924757573809
 21
380.401223138444
 31
0.0
  0
LINE
  5
1EC
330
1B
100
AcDbEntity
  8
4
100
AcDbLine
 10
1673.025002573808
 20
411.4012231384439
 30
0.0
 11
1792.025002573808
 21
411.4012231384439
 31
0.0
  0
LINE
  5
1ED
330
1B
100
AcDbEntity
  8
4
100
AcDbLine
 10
1793.025002573809
 20
485.401223138444
 30
0.0
 11
1683.025002573808
 21
485.401223138444
 31
0.0
  0
LINE
  5
1EE
330
1B
100
AcDbEntity
  8
4
100
AcDbLine
 10
1673.025002573808
 20
479.401223138444
 30
0.0
 11
1792.025002573808
 21
479.401223138444
 31
0.0
  0
LINE
  5
1EF
330
1B
100
AcDbEntity
  8
4
100
AcDbLine
 10
1625.824907573809
 20
438.0400072062766
 30
0.0
 11
1625.824907573809
 21
452.7624390706119
 31
0.0
  0
LINE
  5
1F0
330
1B
100
AcDbEntity
  8
4
100
AcDbLine
 10
1624.921380627956
 20
455.216177714668
 30
0.0
 11
1616.324907573809
 21
455.216177714668
 31
0.0
  0
LINE
  5
1F1
330
1B
100
AcDbEntity
  8
4
100
AcDbLine
 10
1624.921380627956
 20
440.4937458503323
 30
0.0
 11
1618.824907573809
 21
440.4937458503323
 31
0.0
  0
LINE
  5
1F2
330
1B
100
AcDbEntity
  8
4
100
AcDbLine
 10
1624.921380627956
 20
450.3087004265562
 30
0.0
 11
1618.824907573809
 21
450.3087004265562
 31
0.0
  0
ARC
  5
1F3
330
1B
100
AcDbEntity
  8
4
100
AcDbCircle
 10
1612.045742276349
 20
445.401223138444
 30
0.0
 40
13.77916529745958
100
AcDbArc
 50
339.1359356360799
 51
20.86406436392003
  0
ARC
  5
1F4
330
1B
100
AcDbEntity
  8
4
100
AcDbCircle
 10
1622.041293644749
 20
452.7624390706119
 30
0.0
 40
3.783613929059507
100
AcDbArc
 50
319.5701031551699
 51
40.42989684483014
  0
LINE
  5
1F5
330
1B
100
AcDbEntity
  8
4
100
AcDbLine
 10
1616.324907573809
 20
435.5862685622205
 30
0.0
 11
1624.921380627956
 21
435.5862685622205
 31
0.0
  0
ARC
  5
1F6
330
1B
100
AcDbEntity
  8
4
100
AcDbCircle
 10
1622.041293644749
 20
438.0400072062766
 30
0.0
 40
3.783613929059507
100
AcDbArc
 50
319.5701031551699
 51
40.42989684483014
  0
LINE
  5
1F7
330
1B
100
AcDbEntity
  8
4
100
AcDbLine
 10
1616.324907573809
 20
455.216177714668
 30
0.0
 11
1616.324907573809
 21
435.5862685622205
 31
0.0
  0
LINE
  5
1F8
330
1B
100
AcDbEntity
  8
4
100
AcDbLine
 10
1618.824907573809
 20
455.216177714668
 30
0.0
 11
1618.824907573809
 21
435.5862685622205
 31
0.0
  0
LINE
  5
1F9
330
1B
100
AcDbEntity
  8
4
100
AcDbLine
 10
1631.562997573809
 20
335.401223138444
 30
0.0
 11
1632.924757573809
 21
335.401223138444
 31
0.0
  0
LINE
  5
1FA
330
1B
100
AcDbEntity
  8
4
100
AcDbLine
 10
1625.257602573809
 20
295.401223138444
 30
0.0
 11
1632.924757573809
 21
295.401223138444
 31
0.0
  0
ARC
  5
1FB
330
1B
100
AcDbEntity
  8
4
100
AcDbCircle
 10
1622.041293644749
 20
278.6913772062766
 30
0.0
 40
3.783613929059507
100
AcDbArc
 50
319.5701031551699
 51
40.42989684483014
  0
LINE
  5
1FC
330
1B
100
AcDbEntity
  8
4
100
AcDbLine
 10
1625.824907573809
 20
278.6913772062766
 30
0.0
 11
1625.824907573809
 21
293.4138090706118
 31
0.0
  0
LINE
  5
1FD
330
1B
100
AcDbEntity
  8
4
100
AcDbLine
 10
1616.324907573809
 20
295.8675477146679
 30
0.0
 11
1616.324907573809
 21
276.2376385622205
 31
0.0
  0
LINE
  5
1FE
330
1B
100
AcDbEntity
  8
4
100
AcDbLine
 10
1618.824907573809
 20
295.8675477146679
 30
0.0
 11
1618.824907573809
 21
276.2376385622205
 31
0.0
  0
LINE
  5
1FF
330
1B
100
AcDbEntity
  8
4
100
AcDbLine
 10
1616.324907573809
 20
276.2376385622205
 30
0.0
 11
1624.921380627956
 21
276.2376385622205
 31
0.0
  0
LINE
  5
200
330
1B
100
AcDbEntity
  8
4
100
AcDbLine
 10
1624.921380627956
 20
295.8675477146679
 30
0.0
 11
1616.324907573809
 21
295.8675477146679
 31
0.0
  0
LINE
  5
201
330
1B
100
AcDbEntity
  8
4
100
AcDbLine
 10
1624.921380627956
 20
281.1451158503322
 30
0.0
 11
1618.824907573809
 21
281.1451158503322
 31
0.0
  0
LINE
  5
202
330
1B
100
AcDbEntity
  8
4
100
AcDbLine
 10
1624.921380627956
 20
290.9600704265562
 30
0.0
 11
1618.824907573809
 21
290.9600704265562
 31
0.0
  0
ARC
  5
203
330
1B
100
AcDbEntity
  8
4
100
AcDbCircle
 10
1612.045742276349
 20
286.052593138444
 30
0.0
 40
13.77916529745958
100
AcDbArc
 50
339.1359356360799
 51
20.86406436392003
  0
ARC
  5
204
330
1B
100
AcDbEntity
  8
4
100
AcDbCircle
 10
1622.041293644749
 20
293.4138090706118
 30
0.0
 40
3.783613929059507
100
AcDbArc
 50
319.5701031551699
 51
40.42989684483014
  0
LINE
  5
205
330
1B
100
AcDbEntity
  8
4
100
AcDbLine
 10
1632.924757573809
 20
295.401223138444
 30
0.0
 11
1632.924757573809
 21
335.401223138444
 31
0.0
  0
LINE
  5
206
330
1B
100
AcDbEntity
  8
4
100
AcDbLine
 10
1576.830418880829
 20
306.1471053833509
 30
0.0
 11
1583.770639818715
 21
299.2068844454652
 31
0.0
  0
LINE
  5
207
330
1B
100
AcDbEntity
  8
4
100
AcDbLine
 10
1581.230342647572
 20
289.7263663364365
 30
0.0
 11
1571.749824538544
 21
287.1860691652937
 31
0.0
  0
LINE
  5
208
330
1B
100
AcDbEntity
  8
4
100
AcDbLine
 10
1583.770639818715
 20
299.2068844454652
 30
0.0
 11
1581.230342647572
 21
289.7263663364365
 31
0.0
  0
LINE
  5
209
330
1B
100
AcDbEntity
  8
4
100
AcDbLine
 10
1564.809603600658
 20
294.1262901031794
 30
0.0
 11
1567.349900771801
 21
303.6068082122083
 31
0.0
  0
LINE
  5
20A
330
1B
100
AcDbEntity
  8
L-CENTER
100
AcDbLine
 10
1587.971500845566
 20
310.3479664102009
 30
0.0
 11
1560.608742573808
 21
282.985208138444
 31
0.0
  0
LINE
  5
20B
330
1B
100
AcDbEntity
  8
4
100
AcDbLine
 10
1567.349900771801
 20
303.6068082122083
 30
0.0
 11
1576.830418880829
 21
306.1471053833509
 31
0.0
  0
LINE
  5
20C
330
1B
100
AcDbEntity
  8
4
100
AcDbLine
 10
1571.749824538544
 20
287.1860691652937
 30
0.0
 11
1564.809603600658
 21
294.1262901031794
 31
0.0
  0
CIRCLE
  5
20D
330
1B
100
AcDbEntity
  8
4
100
AcDbCircle
 10
1574.290121709687
 20
296.6665872743225
 30
0.0
 40
8.5
  0
LINE
  5
20E
330
1B
100
AcDbEntity
  8
L-CENTER
100
AcDbLine
 10
1629.970212903957
 20
286.052593138444
 30
0.0
 11
1587.630027903956
 21
286.052593138444
 31
0.0
  0
LINE
  5
20F
330
1B
100
AcDbEntity
  8
4
100
AcDbLine
 10
1613.324907573809
 20
251.4012231384439
 30
0.0
 11
1607.813087573808
 21
251.4012231384439
 31
0.0
  0
ARC
  5
210
330
1B
100
AcDbEntity
  8
4
100
AcDbCircle
 10
1613.324907573809
 20
254.4012231384439
 30
0.0
 40
3.0
100
AcDbArc
 50
270.0
 51
0.0
  0
LINE
  5
211
330
1B
100
AcDbEntity
  8
4
100
AcDbLine
 10
1581.230590147566
 20
201.0763274404574
 30
0.0
 11
1571.750072038538
 21
203.6166246115999
 31
0.0
  0
LINE
  5
212
330
1B
100
AcDbEntity
  8
4
100
AcDbLine
 10
1571.750072038538
 20
203.6166246115999
 30
0.0
 11
1564.809851100652
 21
196.6764036737143
 31
0.0
  0
CIRCLE
  5
213
330
1B
100
AcDbEntity
  8
4
100
AcDbCircle
 10
1471.75988343793
 20
296.6665872743225
 30
0.0
 40
8.5
  0
LINE
  5
214
330
1B
100
AcDbEntity
  8
4
100
AcDbLine
 10
1462.279365328902
 20
299.2068844454652
 30
0.0
 11
1464.819662500045
 21
289.7263663364365
 31
0.0
  0
LINE
  5
215
330
1B
100
AcDbEntity
  8
4
100
AcDbLine
 10
1481.240401546959
 20
294.1262901031794
 30
0.0
 11
1478.700104375816
 21
303.6068082122083
 31
0.0
  0
LINE
  5
216
330
1B
100
AcDbEntity
  8
4
100
AcDbLine
 10
1474.300180609073
 20
287.1860691652937
 30
0.0
 11
1481.240401546959
 21
294.1262901031794
 31
0.0
  0
LINE
  5
217
330
1B
100
AcDbEntity
  8
4
100
AcDbLine
 10
1464.819662500045
 20
289.7263663364365
 30
0.0
 11
1474.300180609073
 21
287.1860691652937
 31
0.0
  0
LINE
  5
218
330
1B
100
AcDbEntity
  8
4
100
AcDbLine
 10
1478.700104375816
 20
303.6068082122083
 30
0.0
 11
1469.219586266787
 21
306.1471053833509
 31
0.0
  0
LINE
  5
219
330
1B
100
AcDbEntity
  8
4
100
AcDbLine
 10
1469.219586266787
 20
306.1471053833509
 30
0.0
 11
1462.279365328902
 21
299.2068844454652
 31
0.0
  0
LINE
  5
21A
330
1B
100
AcDbEntity
  8
4
100
AcDbLine
 10
1529.025002573808
 20
263.9012231384439
 30
0.0
 11
1529.025002573808
 21
271.9012231384439
 31
0.0
  0
LINE
  5
21B
330
1B
100
AcDbEntity
  8
4
100
AcDbLine
 10
1517.025002573808
 20
263.9012231384439
 30
0.0
 11
1517.025002573808
 21
271.9012231384439
 31
0.0
  0
LINE
  5
21C
330
1B
100
AcDbEntity
  8
4
100
AcDbLine
 10
1529.025002573808
 20
271.9012231384439
 30
0.0
 11
1517.025002573808
 21
271.9012231384439
 31
0.0
  0
LINE
  5
21D
330
1B
100
AcDbEntity
  8
4
100
AcDbLine
 10
1517.025002573808
 20
263.9012231384439
 30
0.0
 11
1529.025002573808
 21
263.9012231384439
 31
0.0
  0
LINE
  5
21E
330
1B
100
AcDbEntity
  8
4
100
AcDbLine
 10
1474.299933109079
 20
203.6166246115999
 30
0.0
 11
1481.240154046965
 21
196.6764036737143
 31
0.0
  0
LINE
  5
21F
330
1B
100
AcDbEntity
  8
4
100
AcDbLine
 10
1464.81941500005
 20
201.0763274404574
 30
0.0
 11
1474.299933109079
 21
203.6166246115999
 31
0.0
  0
ARC
  5
220
330
1B
100
AcDbEntity
  8
4
100
AcDbCircle
 10
1523.025002573808
 20
245.401223138444
 30
0.0
 40
23.00001
100
AcDbArc
 50
105.1216579999996
 51
74.8783419999992
  0
CIRCLE
  5
221
330
1B
100
AcDbEntity
  8
4
100
AcDbCircle
 10
1523.025002573808
 20
245.401223138444
 30
0.0
 40
36.0
  0
LINE
  5
222
330
1B
100
AcDbEntity
  8
4
100
AcDbLine
 10
1618.357087408312
 20
295.8675477146678
 30
0.0
 11
1644.924757573809
 21
375.401223138444
 31
0.0
  0
LINE
  5
223
330
1B
100
AcDbEntity
  8
4
100
AcDbLine
 10
1644.924757573809
 20
382.173443138444
 30
0.0
 11
1616.324907573809
 21
296.114603138444
 31
0.0
  0
LINE
  5
224
330
1B
100
AcDbEntity
  8
4
100
AcDbLine
 10
1644.924757573809
 20
394.574153138444
 30
0.0
 11
1616.324907573809
 21
406.4012231384439
 31
0.0
  0
LINE
  5
225
330
1B
100
AcDbEntity
  8
4
100
AcDbLine
 10
1644.924757573809
 20
496.228298138444
 30
0.0
 11
1616.324907573809
 21
484.401223138444
 31
0.0
  0
ARC
  5
226
330
1B
100
AcDbEntity
  8
4
100
AcDbCircle
 10
1650.025002573808
 20
154.4012231384439
 30
0.0
 40
3.0
100
AcDbArc
 50
0.0
 51
90.0
  0
LINE
  5
227
330
1B
100
AcDbEntity
  8
4
100
AcDbLine
 10
1653.025002573808
 20
115.4012231384439
 30
0.0
 11
1653.025002573808
 21
154.4012231384439
 31
0.0
  0
ARC
  5
22A
330
1B
100
AcDbEntity
  8
4
100
AcDbCircle
 10
1614.025002573808
 20
172.4012231384439
 30
0.0
 40
15.0
100
AcDbArc
 50
180.0
 51
270.0009360000004
  0
LINE
  5
22B
330
1B
100
AcDbEntity
  8
4
100
AcDbLine
 10
1576.830666380823
 20
184.6555883935428
 30
0.0
 11
1583.770887318709
 21
191.5958093314284
 31
0.0
  0
LINE
  5
22C
330
1B
100
AcDbEntity
  8
4
100
AcDbLine
 10
1567.350148271795
 20
187.1958855646856
 30
0.0
 11
1576.830666380823
 21
184.6555883935428
 31
0.0
  0
LINE
  5
22D
330
1B
100
AcDbEntity
  8
L-CENTER
100
AcDbLine
 10
1623.025002573808
 20
175.4012231384439
 30
0.0
 11
1623.025002573808
 21
97.40122313844392
 31
0.0
  0
LINE
  5
22E
330
1B
100
AcDbEntity
  8
4
100
AcDbLine
 10
1478.699856875822
 20
187.1958855646856
 30
0.0
 11
1469.219338766793
 21
184.6555883935428
 31
0.0
  0
LINE
  5
22F
330
1B
100
AcDbEntity
  8
4
100
AcDbLine
 10
1469.219338766793
 20
184.6555883935428
 30
0.0
 11
1462.279117828908
 21
191.5958093314284
 31
0.0
  0
LINE
  5
234
330
1B
100
AcDbEntity
  8
4
100
AcDbLine
 10
1633.025002573808
 20
157.4012231384439
 30
0.0
 11
1608.025002573808
 21
245.401223138444
 31
0.0
  0
LINE
  5
235
330
1B
100
AcDbEntity
  8
L-CENTER
100
AcDbLine
 10
1587.971748345559
 20
180.4547273666932
 30
0.0
 11
1560.608990073802
 21
207.81748563845
 31
0.0
  0
LINE
  5
236
330
1B
100
AcDbEntity
  8
4
100
AcDbLine
 10
1599.025002573808
 20
207.335553138444
 30
0.0
 11
1599.025002573808
 21
172.4012231384439
 31
0.0
  0
CIRCLE
  5
237
330
1B
100
AcDbEntity
  8
4
100
AcDbCircle
 10
1574.29036920968
 20
194.1361065025716
 30
0.0
 40
8.5
  0
LINE
  5
238
330
1B
100
AcDbEntity
  8
4
100
AcDbLine
 10
1564.809851100652
 20
196.6764036737143
 30
0.0
 11
1567.350148271795
 21
187.1958855646856
 31
0.0
  0
LINE
  5
239
330
1B
100
AcDbEntity
  8
4
100
AcDbLine
 10
1583.770887318709
 20
191.5958093314284
 30
0.0
 11
1581.230590147566
 21
201.0763274404574
 31
0.0
  0
LINE
  5
23A
330
1B
100
AcDbEntity
  8
4
100
AcDbLine
 10
1462.279117828908
 20
191.5958093314284
 30
0.0
 11
1464.81941500005
 21
201.0763274404574
 31
0.0
  0
LINE
  5
23B
330
1B
100
AcDbEntity
  8
4
100
AcDbLine
 10
1481.240154046965
 20
196.6764036737143
 30
0.0
 11
1478.699856875822
 21
187.1958855646856
 31
0.0
  0
CIRCLE
  5
23C
330
1B
100
AcDbEntity
  8
4
100
AcDbCircle
 10
1471.759635937936
 20
194.1361065025716
 30
0.0
 40
8.5
  0
LINE
  5
23D
330
1B
100
AcDbEntity
  8
4
100
AcDbLine
 10
1383.025002573808
 20
510.401223138444
 30
0.0
 11
1403.214669022468
 21
516.0094638186272
 31
0.0
  0
LINE
  5
23E
330
1B
100
AcDbEntity
  8
4
100
AcDbLine
 10
1403.025002573808
 20
495.401223138444
 30
0.0
 11
1432.025002573808
 21
484.401223138444
 31
0.0
  0
LINE
  5
23F
330
1B
100
AcDbEntity
  8
4
100
AcDbLine
 10
1383.025002573808
 20
380.401223138444
 30
0.0
 11
1403.214669022468
 21
374.7929824582608
 31
0.0
  0
LINE
  5
240
330
1B
100
AcDbEntity
  8
4
100
AcDbLine
 10
1403.025002573808
 20
395.401223138444
 30
0.0
 11
1432.025002573808
 21
406.4012231384439
 31
0.0
  0
LINE
  5
241
330
1B
100
AcDbEntity
  8
4
100
AcDbLine
 10
1403.025002573808
 20
515.401223138444
 30
0.0
 11
1403.025002573808
 21
375.401223138444
 31
0.0
  0
LINE
  5
242
330
1B
100
AcDbEntity
  8
4
100
AcDbLine
 10
1383.025002573808
 20
510.401223138444
 30
0.0
 11
1383.025002573808
 21
380.401223138444
 31
0.0
  0
ARC
  5
243
330
1B
100
AcDbEntity
  8
4
100
AcDbCircle
 10
1434.025002573808
 20
253.4012231384439
 30
0.0
 40
2.0
100
AcDbArc
 50
180.0
 51
270.0
  0
LINE
  5
244
330
1B
100
AcDbEntity
  8
4
100
AcDbLine
 10
1434.025002573808
 20
251.4012231384439
 30
0.0
 11
1438.236917573809
 21
251.4012231384439
 31
0.0
  0
LINE
  5
246
330
1B
100
AcDbEntity
  8
4
100
AcDbLine
 10
1432.025002573808
 20
282.4012231384439
 30
0.0
 11
1403.025002573808
 21
375.401223138444
 31
0.0
  0
LINE
  5
247
330
1B
100
AcDbEntity
  8
4
100
AcDbLine
 10
1432.025002573808
 20
288.7247131384439
 30
0.0
 11
1403.025002573808
 21
381.7247131384439
 31
0.0
  0
ARC
  5
255
330
1B
100
AcDbEntity
  8
4
100
AcDbCircle
 10
1432.025002573808
 20
172.4012231384439
 30
0.0
 40
15.0
100
AcDbArc
 50
270.0009360000004
 51
0.0
  0
ARC
  5
256
330
1B
100
AcDbEntity
  8
4
100
AcDbCircle
 10
1396.025002573808
 20
154.4012231384439
 30
0.0
 40
3.0
100
AcDbArc
 50
90.0
 51
180.0
  0
LINE
  5
257
330
1B
100
AcDbEntity
  8
4
100
AcDbLine
 10
1393.025002573808
 20
115.4012231384439
 30
0.0
 11
1393.025002573808
 21
154.4012231384439
 31
0.0
  0
LINE
  5
258
330
1B
100
AcDbEntity
  8
L-CENTER
100
AcDbLine
 10
1423.025002573808
 20
175.4012231384439
 30
0.0
 11
1423.025002573808
 21
97.40122313844392
 31
0.0
  0
LINE
  5
265
330
1B
100
AcDbEntity
  8
4
100
AcDbLine
 10
1413.025002573808
 20
157.4012231384439
 30
0.0
 11
1438.025002573808
 21
245.401223138444
 31
0.0
  0
LINE
  5
267
330
1B
100
AcDbEntity
  8
4
100
AcDbLine
 10
1447.025002573808
 20
207.335553138444
 30
0.0
 11
1447.025002573808
 21
172.4012231384439
 31
0.0
  0
CIRCLE
  5
268
330
1B
100
AcDbEntity
  8
L-CENTER
100
AcDbCircle
 10
1523.025002573808
 20
245.401223138444
 30
0.0
 40
72.5
  0
CIRCLE
  5
269
330
1B
100
AcDbEntity
  8
4
100
AcDbCircle
 10
1523.025002573808
 20
245.401223138444
 30
0.0
 40
85.0
  0
LINE
  5
26B
330
1B
100
AcDbEntity
  8
4
100
AcDbLine
 10
1650.025002573808
 20
157.4012231384439
 30
0.0
 11
1396.025002573808
 21
157.4012231384439
 31
0.0
  0
LINE
  5
26C
330
1B
100
AcDbEntity
  8
4
100
AcDbLine
 10
1653.025002573808
 20
115.4012231384439
 30
0.0
 11
1393.025002573808
 21
115.4012231384439
 31
0.0
  0
LINE
  5
26E
330
1B
100
AcDbEntity
  8
L-CENTER
100
AcDbLine
 10
1804.403547958666
 20
445.401223138444
 30
0.0
 11
1241.646457188951
 21
445.401223138444
 31
0.0
  0
LINE
  5
26F
330
1B
100
AcDbEntity
  8
L-CENTER
100
AcDbLine
 10
1458.078504302052
 20
310.3479664102009
 30
0.0
 11
1485.441262573808
 21
282.985208138444
 31
0.0
  0
LINE
  5
270
330
1B
100
AcDbEntity
  8
L-CENTER
100
AcDbLine
 10
1424.692325036801
 20
245.401223138444
 30
0.0
 11
1621.357680110816
 21
245.401223138444
 31
0.0
  0
LINE
  5
271
330
1B
100
AcDbEntity
  8
L-CENTER
100
AcDbLine
 10
1458.078256802058
 20
180.4547273666932
 30
0.0
 11
1485.441015073814
 21
207.8174856384501
 31
0.0
  0
LINE
  5
273
330
1B
100
AcDbEntity
  8
L-CENTER
100
AcDbLine
 10
1523.025002573808
 20
103.670023138444
 30
0.0
 11
1523.025002573808
 21
714.4947331384437
 31
0.0
  0
LINE
  5
276
330
1B
100
AcDbEntity
  8
4
100
AcDbLine
 10
1446.025002573808
 20
641.4012231384438
 30
0.0
 11
1446.025002573808
 21
281.4012231384439
 31
0.0
  0
LINE
  5
277
330
1B
100
AcDbEntity
  8
4
100
AcDbLine
 10
1447.025002573808
 20
641.4012231384438
 30
0.0
 11
1447.025002573808
 21
283.466898138444
 31
0.0
  0
LINE
  5
278
330
1B
100
AcDbEntity
  8
4
100
AcDbLine
 10
1432.025002573808
 20
637.4012231384436
 30
0.0
 11
1432.025002573808
 21
253.4012231384439
 31
0.0
  0
LINE
  5
279
330
1B
100
AcDbEntity
  8
4
100
AcDbLine
 10
1432.025002573808
 20
602.0777381384439
 30
0.0
 11
1403.025002573808
 21
509.0777381384439
 31
0.0
  0
LINE
  5
27A
330
1B
100
AcDbEntity
  8
4
100
AcDbLine
 10
1432.025002573808
 20
608.4012231384438
 30
0.0
 11
1403.025002573808
 21
515.401223138444
 31
0.0
  0
LINE
  5
27B
330
1B
100
AcDbEntity
  8
4
100
AcDbLine
 10
1600.025002573808
 20
641.4012231384438
 30
0.0
 11
1600.025002573808
 21
281.4012231384439
 31
0.0
  0
LINE
  5
27C
330
1B
100
AcDbEntity
  8
4
100
AcDbLine
 10
1602.325002573808
 20
639.4012231384438
 30
0.0
 11
1602.325002573808
 21
276.769878138444
 31
0.0
  0
LINE
  5
27D
330
1B
100
AcDbEntity
  8
4
100
AcDbLine
 10
1602.025002573808
 20
639.4012231384438
 30
0.0
 11
1602.025002573808
 21
276.769878138444
 31
0.0
  0
LINE
  5
27E
330
1B
100
AcDbEntity
  8
4
100
AcDbLine
 10
1616.324907573809
 20
636.4012231384438
 30
0.0
 11
1616.324907573809
 21
254.4012231384439
 31
0.0
  0
LINE
  5
27F
330
1B
100
AcDbEntity
  8
4
100
AcDbLine
 10
1618.35700618294
 20
594.9349035622204
 30
0.0
 11
1644.924757573809
 21
515.401223138444
 31
0.0
  0
LINE
  5
280
330
1B
100
AcDbEntity
  8
4
100
AcDbLine
 10
1644.924757573809
 20
508.6290081384439
 30
0.0
 11
1616.324907573809
 21
594.687848138444
 31
0.0
  0
LINE
  5
283
330
1B
100
AcDbEntity
  8
4
100
AcDbLine
 10
814.7127363997629
 20
1343.850621678874
 30
0.0
 11
814.7127363997629
 21
1345.850621678873
 31
0.0
  0
ARC
  5
284
330
1B
100
AcDbEntity
  8
4
100
AcDbCircle
 10
826.5127363997631
 20
1350.850621678874
 30
0.0
 40
1.0
100
AcDbArc
 50
0.0
 51
90.0
  0
LINE
  5
285
330
1B
100
AcDbEntity
  8
4
100
AcDbLine
 10
826.5127363997631
 20
1351.850621678874
 30
0.0
 11
814.7127363997629
 21
1351.850621678874
 31
0.0
  0
ARC
  5
286
330
1B
100
AcDbEntity
  8
4
100
AcDbCircle
 10
813.7127363997629
 20
1359.150621678874
 30
0.0
 40
1.0
100
AcDbArc
 50
0.0
 51
90.0
  0
LINE
  5
287
330
1B
100
AcDbEntity
  8
4
100
AcDbLine
 10
814.7127363997629
 20
1359.150621678874
 30
0.0
 11
814.7127363997629
 21
1346.150621678874
 31
0.0
  0
LINE
  5
288
330
1B
100
AcDbEntity
  8
4
100
AcDbLine
 10
814.7127363997629
 20
1359.150621678874
 30
0.0
 11
814.7127363997629
 21
1346.150621678874
 31
0.0
  0
LINE
  5
289
330
1B
100
AcDbEntity
  8
4
100
AcDbLine
 10
809.6202136878746
 20
1368.747094733021
 30
0.0
 11
809.6202136878746
 21
1362.650621678874
 31
0.0
  0
ARC
  5
28A
330
1B
100
AcDbEntity
  8
4
100
AcDbCircle
 10
812.0739523319303
 20
1365.867007749815
 30
0.0
 40
3.783613929059507
100
AcDbArc
 50
49.57010315516856
 51
130.4298968448253
  0
LINE
  5
28B
330
1B
100
AcDbEntity
  8
4
100
AcDbLine
 10
814.5276909759864
 20
1360.150621678874
 30
0.0
 11
814.5276909759864
 21
1368.747094733021
 31
0.0
  0
LINE
  5
28C
330
1B
100
AcDbEntity
  8
4
100
AcDbLine
 10
939.7127363997633
 20
1289.850621678874
 30
0.0
 11
939.7127363997633
 21
1272.850621678874
 31
0.0
  0
LINE
  5
28D
330
1B
100
AcDbEntity
  8
4
100
AcDbLine
 10
939.7127363997633
 20
1289.850621678874
 30
0.0
 11
940.7127363997633
 21
1288.850621678874
 31
0.0
  0
LINE
  5
28E
330
1B
100
AcDbEntity
  8
4
100
AcDbLine
 10
940.7127363997633
 20
1244.850621678874
 30
0.0
 11
939.7127363997633
 21
1243.850621678874
 31
0.0
  0
LINE
  5
28F
330
1B
100
AcDbEntity
  8
4
100
AcDbLine
 10
939.7127363997633
 20
1260.850621678874
 30
0.0
 11
939.7127363997633
 21
1243.850621678874
 31
0.0
  0
LINE
  5
290
330
1B
100
AcDbEntity
  8
4
100
AcDbLine
 10
940.7127363997633
 20
1288.850621678874
 30
0.0
 11
940.7127363997633
 21
1244.850621678874
 31
0.0
  0
LINE
  5
291
330
1B
100
AcDbEntity
  8
4
100
AcDbLine
 10
836.1091094539102
 20
1313.208529390761
 30
0.0
 11
830.0126363997629
 21
1313.208529390761
 31
0.0
  0
LINE
  5
292
330
1B
100
AcDbEntity
  8
4
100
AcDbLine
 10
836.1091094539102
 20
1323.023483966985
 30
0.0
 11
830.0126363997629
 21
1323.023483966985
 31
0.0
  0
LINE
  5
293
330
1B
100
AcDbEntity
  8
4
100
AcDbLine
 10
837.0126363997629
 20
1325.477222611041
 30
0.0
 11
837.0126363997629
 21
1310.754790746706
 31
0.0
  0
ARC
  5
294
330
1B
100
AcDbEntity
  8
4
100
AcDbCircle
 10
823.2334711023036
 20
1318.116006678873
 30
0.0
 40
13.77916529745958
100
AcDbArc
 50
339.1359356360805
 51
20.86406436391942
  0
ARC
  5
295
330
1B
100
AcDbEntity
  8
4
100
AcDbCircle
 10
833.2290224707035
 20
1310.754790746706
 30
0.0
 40
3.783613929059507
100
AcDbArc
 50
319.5701031551723
 51
40.42989684482771
  0
ARC
  5
296
330
1B
100
AcDbEntity
  8
4
100
AcDbCircle
 10
833.2290224707035
 20
1325.477222611041
 30
0.0
 40
3.783613929059507
100
AcDbArc
 50
319.5701031551723
 51
40.42989684482771
  0
LINE
  5
297
330
1B
100
AcDbEntity
  8
4
100
AcDbLine
 10
830.0126363997629
 20
1308.301052102649
 30
0.0
 11
830.0126363997629
 21
1327.930961255097
 31
0.0
  0
LINE
  5
298
330
1B
100
AcDbEntity
  8
4
100
AcDbLine
 10
827.5126363997629
 20
1308.301052102649
 30
0.0
 11
827.5126363997629
 21
1327.930961255097
 31
0.0
  0
LINE
  5
299
330
1B
100
AcDbEntity
  8
4
100
AcDbLine
 10
827.5127363997626
 20
1302.850621678874
 30
0.0
 11
828.5127363997626
 21
1302.850621678874
 31
0.0
  0
LINE
  5
29A
330
1B
100
AcDbEntity
  8
4
100
AcDbLine
 10
827.5126363997629
 20
1327.930961255097
 30
0.0
 11
836.1091094539102
 21
1327.930961255097
 31
0.0
  0
LINE
  5
29B
330
1B
100
AcDbEntity
  8
4
100
AcDbLine
 10
836.1091094539102
 20
1308.301052102649
 30
0.0
 11
827.5126363997629
 21
1308.301052102649
 31
0.0
  0
LINE
  5
29C
330
1B
100
AcDbEntity
  8
4
100
AcDbLine
 10
840.7127363997633
 20
1291.850621678874
 30
0.0
 11
828.5127363997631
 21
1291.850621678874
 31
0.0
  0
ARC
  5
29D
330
1B
100
AcDbEntity
  8
4
100
AcDbCircle
 10
842.7127363997633
 20
1291.850621678874
 30
0.0
 40
2.0
100
AcDbArc
 50
180.0
 51
270.0
  0
ARC
  5
29E
330
1B
100
AcDbEntity
  8
4
100
AcDbCircle
 10
856.7127363997633
 20
1266.850621678874
 30
0.0
 40
6.0
100
AcDbArc
 50
90.0
 51
270.0
  0
ARC
  5
29F
330
1B
100
AcDbEntity
  8
4
100
AcDbCircle
 10
823.2334711023036
 20
1215.585241678873
 30
0.0
 40
13.77916529745958
100
AcDbArc
 50
339.1359356360805
 51
20.86406436391942
  0
LINE
  5
2A0
330
1B
100
AcDbEntity
  8
4
100
AcDbLine
 10
836.1091094539102
 20
1210.677764390761
 30
0.0
 11
830.0126363997629
 21
1210.677764390761
 31
0.0
  0
LINE
  5
2A1
330
1B
100
AcDbEntity
  8
4
100
AcDbLine
 10
836.1091094539102
 20
1220.492718966985
 30
0.0
 11
830.0126363997629
 21
1220.492718966985
 31
0.0
  0
ARC
  5
2A2
330
1B
100
AcDbEntity
  8
4
100
AcDbCircle
 10
833.2290224707035
 20
1222.946457611041
 30
0.0
 40
3.783613929059507
100
AcDbArc
 50
319.5701031551723
 51
40.42989684482771
  0
ARC
  5
2A3
330
1B
100
AcDbEntity
  8
4
100
AcDbCircle
 10
842.7127363997633
 20
1241.850621678874
 30
0.0
 40
2.0
100
AcDbArc
 50
90.0
 51
180.0
  0
LINE
  5
2A4
330
1B
100
AcDbEntity
  8
4
100
AcDbLine
 10
827.5127363997626
 20
1230.850621678874
 30
0.0
 11
828.5127363997626
 21
1230.850621678874
 31
0.0
  0
LINE
  5
2A5
330
1B
100
AcDbEntity
  8
4
100
AcDbLine
 10
827.5126363997629
 20
1225.400196255097
 30
0.0
 11
836.1091094539102
 21
1225.400196255097
 31
0.0
  0
LINE
  5
2A6
330
1B
100
AcDbEntity
  8
4
100
AcDbLine
 10
840.7127363997633
 20
1241.850621678874
 30
0.0
 11
828.5127363997631
 21
1241.850621678874
 31
0.0
  0
LINE
  5
2A7
330
1B
100
AcDbEntity
  8
4
100
AcDbLine
 10
814.7127363997629
 20
1176.850621678874
 30
0.0
 11
814.7127363997629
 21
1189.850621678874
 31
0.0
  0
ARC
  5
2A8
330
1B
100
AcDbEntity
  8
4
100
AcDbCircle
 10
826.5127363997631
 20
1182.850621678874
 30
0.0
 40
1.0
100
AcDbArc
 50
270.0
 51
0.0
  0
LINE
  5
2A9
330
1B
100
AcDbEntity
  8
4
100
AcDbLine
 10
826.5127363997631
 20
1181.850621678874
 30
0.0
 11
814.7127363997629
 21
1181.850621678874
 31
0.0
  0
LINE
  5
2AA
330
1B
100
AcDbEntity
  8
4
100
AcDbLine
 10
836.1091094539102
 20
1205.770287102649
 30
0.0
 11
827.5126363997629
 21
1205.770287102649
 31
0.0
  0
LINE
  5
2AB
330
1B
100
AcDbEntity
  8
4
100
AcDbLine
 10
827.5126363997629
 20
1205.770287102649
 30
0.0
 11
827.5126363997629
 21
1225.400196255097
 31
0.0
  0
LINE
  5
2AC
330
1B
100
AcDbEntity
  8
4
100
AcDbLine
 10
830.0126363997629
 20
1205.770287102649
 30
0.0
 11
830.0126363997629
 21
1225.400196255097
 31
0.0
  0
LINE
  5
2AD
330
1B
100
AcDbEntity
  8
4
100
AcDbLine
 10
837.0126363997629
 20
1222.946457611041
 30
0.0
 11
837.0126363997629
 21
1208.224025746706
 31
0.0
  0
ARC
  5
2AE
330
1B
100
AcDbEntity
  8
4
100
AcDbCircle
 10
833.2290224707035
 20
1208.224025746706
 30
0.0
 40
3.783613929059507
100
AcDbArc
 50
319.5701031551723
 51
40.42989684482771
  0
LINE
  5
2AF
330
1B
100
AcDbEntity
  8
4
100
AcDbLine
 10
840.7127363997633
 20
1241.850621678874
 30
0.0
 11
840.7127363997633
 21
1291.850621678874
 31
0.0
  0
LINE
  5
2B0
330
1B
100
AcDbEntity
  8
4
100
AcDbLine
 10
828.5127363997631
 20
1230.850621678874
 30
0.0
 11
828.5127363997631
 21
1302.850621678874
 31
0.0
  0
LINE
  5
2B1
330
1B
100
AcDbEntity
  8
4
100
AcDbLine
 10
842.7127363997633
 20
1289.850621678874
 30
0.0
 11
939.7127363997633
 21
1289.850621678874
 31
0.0
  0
LINE
  5
2B2
330
1B
100
AcDbEntity
  8
4
100
AcDbLine
 10
940.7127363997633
 20
1260.850621678874
 30
0.0
 11
856.7127363997633
 21
1260.850621678874
 31
0.0
  0
LINE
  5
2B3
330
1B
100
AcDbEntity
  8
4
100
AcDbLine
 10
940.7127363997633
 20
1272.850621678874
 30
0.0
 11
856.7127363997633
 21
1272.850621678874
 31
0.0
  0
LINE
  5
2B4
330
1B
100
AcDbEntity
  8
4
100
AcDbLine
 10
842.7127363997633
 20
1243.850621678874
 30
0.0
 11
939.7127363997633
 21
1243.850621678874
 31
0.0
  0
LINE
  5
2B5
330
1B
100
AcDbEntity
  8
4
100
AcDbLine
 10
815.7127363997629
 20
1189.850621678874
 30
0.0
 11
815.7127363997629
 21
1343.850621678874
 31
0.0
  0
LINE
  5
2B6
330
1B
100
AcDbEntity
  8
4
100
AcDbLine
 10
827.5127363997631
 20
1182.850621678874
 30
0.0
 11
827.5127363997631
 21
1350.850621678874
 31
0.0
  0
LINE
  5
2B7
330
1B
100
AcDbEntity
  8
4
100
AcDbLine
 10
654.7127363997629
 20
1535.850621678874
 30
0.0
 11
653.7127363997629
 21
1536.850621678874
 31
0.0
  0
LINE
  5
2B8
330
1B
100
AcDbEntity
  8
4
100
AcDbLine
 10
586.7127363997629
 20
1535.850621678874
 30
0.0
 11
587.7127363997629
 21
1536.850621678874
 31
0.0
  0
LINE
  5
2B9
330
1B
100
AcDbEntity
  8
4
100
AcDbLine
 10
586.7127363997629
 20
1535.850621678874
 30
0.0
 11
611.7127363997629
 21
1535.850621678874
 31
0.0
  0
LINE
  5
2BA
330
1B
100
AcDbEntity
  8
4
100
AcDbLine
 10
653.7127363997629
 20
1536.850621678874
 30
0.0
 11
587.7127363997629
 21
1536.850621678874
 31
0.0
  0
LINE
  5
2BB
330
1B
100
AcDbEntity
  8
4
100
AcDbLine
 10
629.7127363997629
 20
1535.850621678874
 30
0.0
 11
654.7127363997629
 21
1535.850621678874
 31
0.0
  0
ARC
  5
2BC
330
1B
100
AcDbEntity
  8
4
100
AcDbCircle
 10
795.7127363997629
 20
1391.850621678874
 30
0.0
 40
5.0
100
AcDbArc
 50
0.0
 51
90.0
  0
ARC
  5
2BD
330
1B
100
AcDbEntity
  8
4
100
AcDbCircle
 10
797.351520467595
 20
1365.867007749815
 30
0.0
 40
3.783613929059507
100
AcDbArc
 50
49.57010315516856
 51
130.4298968448253
  0
LINE
  5
2BE
330
1B
100
AcDbEntity
  8
4
100
AcDbLine
 10
799.8052591116507
 20
1368.747094733021
 30
0.0
 11
799.8052591116507
 21
1362.650621678874
 31
0.0
  0
LINE
  5
2BF
330
1B
100
AcDbEntity
  8
4
100
AcDbLine
 10
794.8977818235389
 20
1368.747094733021
 30
0.0
 11
794.8977818235389
 21
1360.150621678874
 31
0.0
  0
LINE
  5
2C0
330
1B
100
AcDbEntity
  8
4
100
AcDbLine
 10
800.7127363997629
 20
1369.650621678874
 30
0.0
 11
800.7127363997629
 21
1391.850621678874
 31
0.0
  0
LINE
  5
2C1
330
1B
100
AcDbEntity
  8
L-CENTER
100
AcDbLine
 10
804.7127363997629
 20
1331.414016112811
 30
0.0
 11
804.7127363997629
 21
1374.293261112812
 31
0.0
  0
ARC
  5
2C2
330
1B
100
AcDbEntity
  8
4
100
AcDbCircle
 10
728.7432280822427
 20
1377.098525382819
 30
0.0
 40
2.0
100
AcDbArc
 50
342.5661388826788
 51
349.9823318517376
  0
LINE
  5
2C3
330
1B
100
AcDbEntity
  8
4
100
AcDbLine
 10
722.5276909759864
 20
1360.150621678874
 30
0.0
 11
722.5276909759864
 21
1368.747094733021
 31
0.0
  0
LINE
  5
2C4
330
1B
100
AcDbEntity
  8
L-CENTER
100
AcDbLine
 10
740.7127363997629
 20
1341.266099739262
 30
0.0
 11
740.7127363997629
 21
1392.435143618485
 31
0.0
  0
ARC
  5
2C5
330
1B
100
AcDbEntity
  8
4
100
AcDbCircle
 10
740.7127363997629
 20
1366.850621678874
 30
0.0
 40
11.0
100
AcDbArc
 50
17.42990442537399
 51
128.2182883431316
  0
ARC
  5
2C6
330
1B
100
AcDbEntity
  8
4
100
AcDbCircle
 10
655.7127363997629
 20
1417.850621678874
 30
0.0
 40
1.0
100
AcDbArc
 50
180.0
 51
270.0
  0
LINE
  5
2C7
330
1B
100
AcDbEntity
  8
4
100
AcDbLine
 10
690.1455703716006
 20
1389.019285791524
 30
0.0
 11
685.9021024935037
 21
1405.99315730391
 31
0.0
  0
LINE
  5
2C8
330
1B
100
AcDbEntity
  8
4
100
AcDbLine
 10
690.7127363997629
 20
1386.750621678873
 30
0.0
 11
690.1455703716006
 21
1389.019285791524
 31
0.0
  0
ARC
  5
2C9
330
1B
100
AcDbEntity
  8
4
100
AcDbCircle
 10
684.9319599933588
 20
1405.750621678873
 30
0.0
 40
1.0
100
AcDbArc
 50
14.03624346792014
 51
90.0
  0
ARC
  5
2CA
330
1B
100
AcDbEntity
  8
4
100
AcDbCircle
 10
712.7127363997629
 20
1355.871456381415
 30
0.0
 40
13.77916529745958
100
AcDbArc
 50
69.13593563608042
 51
110.8640643639196
  0
ARC
  5
2CB
330
1B
100
AcDbEntity
  8
4
100
AcDbCircle
 10
705.351520467595
 20
1365.867007749815
 30
0.0
 40
3.783613929059507
100
AcDbArc
 50
49.57010315517471
 51
130.4298968448253
  0
LINE
  5
2CC
330
1B
100
AcDbEntity
  8
4
100
AcDbLine
 10
707.8052591116507
 20
1368.747094733021
 30
0.0
 11
707.8052591116507
 21
1362.650621678874
 31
0.0
  0
LINE
  5
2CD
330
1B
100
AcDbEntity
  8
4
100
AcDbLine
 10
702.8977818235389
 20
1368.747094733021
 30
0.0
 11
702.8977818235389
 21
1360.150621678874
 31
0.0
  0
LINE
  5
2CE
330
1B
100
AcDbEntity
  8
4
100
AcDbLine
 10
717.6202136878746
 20
1368.747094733021
 30
0.0
 11
717.6202136878746
 21
1362.650621678874
 31
0.0
  0
LINE
  5
2CF
330
1B
100
AcDbEntity
  8
L-CENTER
100
AcDbLine
 10
712.7127363997629
 20
1331.414016112811
 30
0.0
 11
712.7127363997629
 21
1374.293261112812
 31
0.0
  0
LINE
  5
2D0
330
1B
100
AcDbEntity
  8
4
100
AcDbLine
 10
670.7127363997629
 20
1407.750621678873
 30
0.0
 11
670.7127363997629
 21
1406.750621678873
 31
0.0
  0
LINE
  5
2D1
330
1B
100
AcDbEntity
  8
4
100
AcDbLine
 10
640.7127363997629
 20
1376.750621678874
 30
0.0
 11
640.7127363997629
 21
1364.116707201
 31
0.0
  0
LINE
  5
2D2
330
1B
100
AcDbEntity
  8
4
100
AcDbLine
 10
671.5398063997632
 20
1388.750471678874
 30
0.0
 11
659.7127363997629
 21
1360.150621678873
 31
0.0
  0
LINE
  5
2D3
330
1B
100
AcDbEntity
  8
4
100
AcDbLine
 10
655.7127363997629
 20
1407.750621678874
 30
0.0
 11
655.7127363997629
 21
1416.850621678873
 31
0.0
  0
LINE
  5
2D4
330
1B
100
AcDbEntity
  8
L-CENTER
100
AcDbLine
 10
715.1282144601514
 20
1366.850621678874
 30
0.0
 11
766.2972583393744
 21
1366.850621678874
 31
0.0
  0
LINE
  5
2D5
330
1B
100
AcDbEntity
  8
4
100
AcDbLine
 10
795.7127363997629
 20
1396.850621678874
 30
0.0
 11
688.1877363997628
 21
1396.850621678874
 31
0.0
  0
LINE
  5
2D6
330
1B
100
AcDbEntity
  8
4
100
AcDbLine
 10
776.7715599291737
 20
1360.150621678874
 30
0.0
 11
690.7127363997629
 21
1386.750621678873
 31
0.0
  0
LINE
  5
2D7
330
1B
100
AcDbEntity
  8
4
100
AcDbLine
 10
690.1455703716006
 20
1389.019285791524
 30
0.0
 11
783.5441895595809
 21
1360.150621678874
 31
0.0
  0
LINE
  5
2D8
330
1B
100
AcDbEntity
  8
4
100
AcDbLine
 10
702.8977818235389
 20
1362.650621678874
 30
0.0
 11
722.5276909759864
 21
1362.650621678874
 31
0.0
  0
LINE
  5
2D9
330
1B
100
AcDbEntity
  8
4
100
AcDbLine
 10
720.0739523319303
 20
1369.650621678874
 30
0.0
 11
705.351520467595
 21
1369.650621678874
 31
0.0
  0
LINE
  5
2DA
330
1B
100
AcDbEntity
  8
4
100
AcDbLine
 10
702.8977818235389
 20
1360.150621678874
 30
0.0
 11
722.5276909759864
 21
1360.150621678874
 31
0.0
  0
ARC
  5
2DB
330
1B
100
AcDbEntity
  8
4
100
AcDbCircle
 10
720.0739523319303
 20
1365.867007749815
 30
0.0
 40
3.783613929059507
100
AcDbArc
 50
49.57010315516856
 51
130.4298968448315
  0
ARC
  5
2DC
330
1B
100
AcDbEntity
  8
4
100
AcDbCircle
 10
644.4627363997633
 20
1266.850621678874
 30
0.0
 40
6.25
100
AcDbArc
 50
270.0
 51
90.0
  0
LINE
  5
2DD
330
1B
100
AcDbEntity
  8
4
100
AcDbLine
 10
662.2514605376941
 20
1169.157621678874
 30
0.0
 11
659.7127363997629
 21
1175.850621678873
 31
0.0
  0
LINE
  5
2DE
330
1B
100
AcDbEntity
  8
4
100
AcDbLine
 10
662.2514605376941
 20
1169.157621678874
 30
0.0
 11
685.7127363997624
 21
1169.157621678874
 31
0.0
  0
ARC
  5
2DF
330
1B
100
AcDbEntity
  8
4
100
AcDbCircle
 10
620.7127363997629
 20
1435.850621678874
 30
0.0
 40
9.0
100
AcDbArc
 50
180.0
 51
0.0
  0
ARC
  5
2E0
330
1B
100
AcDbEntity
  8
4
100
AcDbCircle
 10
585.7127363997629
 20
1417.850621678874
 30
0.0
 40
1.0
100
AcDbArc
 50
270.0
 51
0.0
  0
LINE
  5
2E1
330
1B
100
AcDbEntity
  8
4
100
AcDbLine
 10
600.7127363997629
 20
1376.750621678873
 30
0.0
 11
600.7127363997629
 21
1364.116707201
 31
0.0
  0
LINE
  5
2E2
330
1B
100
AcDbEntity
  8
4
100
AcDbLine
 10
570.7127363997629
 20
1407.750621678873
 30
0.0
 11
570.7127363997629
 21
1406.750621678873
 31
0.0
  0
LINE
  5
2E3
330
1B
100
AcDbEntity
  8
4
100
AcDbLine
 10
551.2896840640892
 20
1389.05841233618
 30
0.0
 11
555.5233703060221
 21
1405.99315730391
 31
0.0
  0
LINE
  5
2E4
330
1B
100
AcDbEntity
  8
4
100
AcDbLine
 10
550.7127363997629
 20
1386.750621678873
 30
0.0
 11
551.2584464600209
 21
1388.933461919905
 31
0.0
  0
ARC
  5
2E5
330
1B
100
AcDbEntity
  8
4
100
AcDbCircle
 10
556.4935128061675
 20
1405.750621678873
 30
0.0
 40
1.0
100
AcDbArc
 50
90.0
 51
165.9637565320799
  0
LINE
  5
2E6
330
1B
100
AcDbEntity
  8
4
100
AcDbLine
 10
569.8856613997632
 20
1388.750471678874
 30
0.0
 11
581.7127363997629
 21
1360.150621678874
 31
0.0
  0
LINE
  5
2E7
330
1B
100
AcDbEntity
  8
4
100
AcDbLine
 10
585.7127363997629
 20
1407.750621678874
 30
0.0
 11
585.7127363997629
 21
1416.850621678874
 31
0.0
  0
ARC
  5
2E8
330
1B
100
AcDbEntity
  8
4
100
AcDbCircle
 10
517.7127363997629
 20
1378.643979928273
 30
0.0
 40
2.0
100
AcDbArc
 50
180.0
 51
197.1759036157507
  0
LINE
  5
2E9
330
1B
100
AcDbEntity
  8
4
100
AcDbLine
 10
515.7127363997629
 20
1378.750621678873
 30
0.0
 11
515.7127363997629
 21
1378.643979928273
 31
0.0
  0
LINE
  5
2EA
330
1B
100
AcDbEntity
  8
4
100
AcDbLine
 10
521.3515204675955
 20
1369.650621678874
 30
0.0
 11
536.0739523319307
 21
1369.650621678874
 31
0.0
  0
LINE
  5
2EB
330
1B
100
AcDbEntity
  8
4
100
AcDbLine
 10
523.8052591116511
 20
1368.747094733021
 30
0.0
 11
523.8052591116511
 21
1362.650621678874
 31
0.0
  0
LINE
  5
2EC
330
1B
100
AcDbEntity
  8
4
100
AcDbLine
 10
538.5276909759868
 20
1368.747094733021
 30
0.0
 11
538.5276909759868
 21
1360.150621678874
 31
0.0
  0
LINE
  5
2ED
330
1B
100
AcDbEntity
  8
4
100
AcDbLine
 10
533.6202136878751
 20
1368.747094733021
 30
0.0
 11
533.6202136878751
 21
1362.650621678874
 31
0.0
  0
ARC
  5
2EE
330
1B
100
AcDbEntity
  8
4
100
AcDbCircle
 10
536.0739523319307
 20
1365.867007749815
 30
0.0
 40
3.783613929059507
100
AcDbArc
 50
49.57010315516856
 51
130.4298968448315
  0
ARC
  5
2EF
330
1B
100
AcDbEntity
  8
4
100
AcDbCircle
 10
528.7127363997629
 20
1355.871456381415
 30
0.0
 40
13.77916529745958
100
AcDbArc
 50
69.13593563608042
 51
110.8640643639196
  0
LINE
  5
2F0
330
1B
100
AcDbEntity
  8
4
100
AcDbLine
 10
518.8977818235394
 20
1360.150621678874
 30
0.0
 11
518.8977818235394
 21
1368.747094733021
 31
0.0
  0
ARC
  5
2F1
330
1B
100
AcDbEntity
  8
4
100
AcDbCircle
 10
521.3515204675955
 20
1365.867007749815
 30
0.0
 40
3.783613929059507
100
AcDbArc
 50
49.57010315516856
 51
130.4298968448315
  0
LINE
  5
2F2
330
1B
100
AcDbEntity
  8
4
100
AcDbLine
 10
538.5276909759868
 20
1360.150621678874
 30
0.0
 11
518.8977818235394
 21
1360.150621678874
 31
0.0
  0
LINE
  5
2F3
330
1B
100
AcDbEntity
  8
4
100
AcDbLine
 10
538.5276909759868
 20
1362.650621678874
 30
0.0
 11
518.8977818235394
 21
1362.650621678874
 31
0.0
  0
LINE
  5
2F4
330
1B
100
AcDbEntity
  8
L-CENTER
100
AcDbLine
 10
500.7127363997629
 20
1392.435143618485
 30
0.0
 11
500.7127363997629
 21
1341.266099739262
 31
0.0
  0
LINE
  5
2F5
330
1B
100
AcDbEntity
  8
L-CENTER
100
AcDbLine
 10
528.7127363997629
 20
1331.414016112811
 30
0.0
 11
528.7127363997629
 21
1374.293261112812
 31
0.0
  0
LINE
  5
2F6
330
1B
100
AcDbEntity
  8
4
100
AcDbLine
 10
465.7127363997629
 20
1378.750621678873
 30
0.0
 11
465.7127363997629
 21
1362.571252655546
 31
0.0
  0
LINE
  5
2F7
330
1B
100
AcDbEntity
  8
L-CENTER
100
AcDbLine
 10
475.1282144601514
 20
1366.850621678874
 30
0.0
 11
526.2972583393744
 21
1366.850621678874
 31
0.0
  0
LINE
  5
2F8
330
1B
100
AcDbEntity
  8
L-CENTER
100
AcDbLine
 10
476.6616668720258
 20
1366.850621678874
 30
0.0
 11
526.2972583393744
 21
1366.850621678874
 31
0.0
  0
LINE
  5
2F9
330
1B
100
AcDbEntity
  8
4
100
AcDbLine
 10
465.7127363997629
 20
1378.750621678873
 30
0.0
 11
515.7127363997629
 21
1378.750621678873
 31
0.0
  0
LINE
  5
2FA
330
1B
100
AcDbEntity
  8
4
100
AcDbLine
 10
553.237736399763
 20
1396.850621678874
 30
0.0
 11
534.4255833659577
 21
1396.850621678874
 31
0.0
  0
LINE
  5
2FB
330
1B
100
AcDbEntity
  8
4
100
AcDbLine
 10
550.7127363997629
 20
1386.750621678873
 30
0.0
 11
464.653912870353
 21
1360.150621678874
 31
0.0
  0
LINE
  5
2FC
330
1B
100
AcDbEntity
  8
4
100
AcDbLine
 10
457.8812832399412
 20
1360.150621678874
 30
0.0
 11
551.2799024279252
 21
1389.019285791524
 31
0.0
  0
ARC
  5
2FD
330
1B
100
AcDbEntity
  8
4
100
AcDbCircle
 10
596.9627363997633
 20
1266.850621678874
 30
0.0
 40
6.25
100
AcDbArc
 50
90.0
 51
270.0
  0
LINE
  5
2FE
330
1B
100
AcDbEntity
  8
4
100
AcDbLine
 10
579.1740122618321
 20
1169.157621678874
 30
0.0
 11
581.7127363997629
 21
1175.850621678873
 31
0.0
  0
LINE
  5
2FF
330
1B
100
AcDbEntity
  8
4
100
AcDbLine
 10
555.7127363997633
 20
1169.157621678874
 30
0.0
 11
579.1740122618321
 21
1169.157621678874
 31
0.0
  0
LINE
  5
300
330
1B
100
AcDbEntity
  8
L-CENTER
100
AcDbLine
 10
510.7127363997629
 20
1230.327848130986
 30
0.0
 11
510.7127363997629
 21
1303.373395226761
 31
0.0
  0
CIRCLE
  5
301
330
1B
100
AcDbEntity
  8
4
100
AcDbCircle
 10
510.7127363997629
 20
1266.850621678874
 30
0.0
 40
25.0
  0
CIRCLE
  5
302
330
1B
100
AcDbEntity
  8
4
100
AcDbCircle
 10
510.7127363997629
 20
1266.850621678874
 30
0.0
 40
23.0
  0
LWPOLYLINE
  5
303
330
1B
100
AcDbEntity
  8
4
100
AcDbPolyline
 90
        6
 70
     1
 43
0.0
 10
533.7127363997629
 20
1266.850621678874
 10
522.2127363997629
 20
1286.769205965916
 10
499.2127363997629
 20
1286.769205965916
 10
487.7127363997629
 20
1266.850621678874
 10
499.2127363997629
 20
1246.932037391832
 10
522.2127363997629
 20
1246.932037391832
  0
LINE
  5
304
330
1B
100
AcDbEntity
  8
4
100
AcDbLine
 10
551.2127363997629
 20
1388.750471678874
 30
0.0
 11
690.2127363997629
 21
1388.750471678874
 31
0.0
  0
LINE
  5
305
330
1B
100
AcDbEntity
  8
4
100
AcDbLine
 10
640.7127363997629
 20
1364.116707201
 30
0.0
 11
600.7127363997629
 21
1364.116707201
 31
0.0
  0
LINE
  5
306
330
1B
100
AcDbEntity
  8
4
100
AcDbLine
 10
640.7127363997629
 20
1376.750621678874
 30
0.0
 11
600.7127363997629
 21
1376.750621678874
 31
0.0
  0
LINE
  5
307
330
1B
100
AcDbEntity
  8
4
100
AcDbLine
 10
670.7127363997629
 20
1407.750621678873
 30
0.0
 11
570.7127363997629
 21
1407.750621678873
 31
0.0
  0
LINE
  5
308
330
1B
100
AcDbEntity
  8
4
100
AcDbLine
 10
684.9319599933588
 20
1406.750621678873
 30
0.0
 11
556.4935128061675
 21
1406.750621678873
 31
0.0
  0
LINE
  5
309
330
1B
100
AcDbEntity
  8
4
100
AcDbLine
 10
585.7127363997629
 20
1416.850621678874
 30
0.0
 11
655.7127363997629
 21
1416.850621678873
 31
0.0
  0
ARC
  5
30A
330
1B
100
AcDbEntity
  8
4
100
AcDbCircle
 10
620.7127363997629
 20
1266.850621678874
 30
0.0
 40
20.0
100
AcDbArc
 50
18.20995686428299
 51
161.790043135717
  0
LINE
  5
30B
330
1B
100
AcDbEntity
  8
4
100
AcDbLine
 10
596.9627363997633
 20
1273.100621678874
 30
0.0
 11
644.4627363997633
 21
1273.100621678874
 31
0.0
  0
ARC
  5
30C
330
1B
100
AcDbEntity
  8
4
100
AcDbCircle
 10
620.7127363997633
 20
1266.850621678874
 30
0.0
 40
16.0
100
AcDbArc
 50
22.99339431429694
 51
157.0066056857031
  0
ARC
  5
30D
330
1B
100
AcDbEntity
  8
4
100
AcDbCircle
 10
620.7127363997633
 20
1266.850621678874
 30
0.0
 40
17.5
100
AcDbArc
 50
20.9248324276376
 51
159.0751675723624
  0
LINE
  5
30E
330
1B
100
AcDbEntity
  8
4
100
AcDbLine
 10
596.9627363997633
 20
1260.600621678874
 30
0.0
 11
644.4627363997633
 21
1260.600621678874
 31
0.0
  0
ARC
  5
30F
330
1B
100
AcDbEntity
  8
4
100
AcDbCircle
 10
620.7127363997633
 20
1266.850621678874
 30
0.0
 40
16.0
100
AcDbArc
 50
202.9933943142979
 51
337.0066056857022
  0
ARC
  5
310
330
1B
100
AcDbEntity
  8
4
100
AcDbCircle
 10
620.7127363997633
 20
1266.850621678874
 30
0.0
 40
17.5
100
AcDbArc
 50
200.9248324276383
 51
339.0751675723617
  0
ARC
  5
311
330
1B
100
AcDbEntity
  8
4
100
AcDbCircle
 10
620.7127363997629
 20
1266.850621678874
 30
0.0
 40
20.0
100
AcDbArc
 50
198.209956864283
 51
341.790043135717
  0
LINE
  5
312
330
1B
100
AcDbEntity
  8
4
100
AcDbLine
 10
611.7127363997629
 20
1536.850621678874
 30
0.0
 11
611.7127363997629
 21
1435.850621678874
 31
0.0
  0
LINE
  5
313
330
1B
100
AcDbEntity
  8
4
100
AcDbLine
 10
586.7127363997629
 20
1417.850621678874
 30
0.0
 11
586.7127363997629
 21
1535.850621678874
 31
0.0
  0
LINE
  5
314
330
1B
100
AcDbEntity
  8
4
100
AcDbLine
 10
654.7127363997629
 20
1417.850621678874
 30
0.0
 11
654.7127363997629
 21
1535.850621678874
 31
0.0
  0
LINE
  5
315
330
1B
100
AcDbEntity
  8
4
100
AcDbLine
 10
629.7127363997629
 20
1536.850621678874
 30
0.0
 11
629.7127363997629
 21
1435.850621678874
 31
0.0
  0
LINE
  5
316
330
1B
100
AcDbEntity
  8
L-CENTER
100
AcDbLine
 10
842.4937883421353
 20
1318.116006678873
 30
0.0
 11
797.9781633421353
 21
1318.116006678873
 31
0.0
  0
LINE
  5
317
330
1B
100
AcDbEntity
  8
L-CENTER
100
AcDbLine
 10
842.4937883421353
 20
1215.585241678873
 30
0.0
 11
797.9781633421353
 21
1215.585241678873
 31
0.0
  0
ARC
  5
318
330
1B
100
AcDbEntity
  8
4
100
AcDbCircle
 10
804.7127363997629
 20
1355.871456381415
 30
0.0
 40
13.77916529745958
100
AcDbArc
 50
69.13593563607864
 51
110.8640643639196
  0
LINE
  5
319
330
1B
100
AcDbEntity
  8
4
100
AcDbLine
 10
794.8977818235389
 20
1362.650621678874
 30
0.0
 11
814.5276909759864
 21
1362.650621678874
 31
0.0
  0
LINE
  5
31A
330
1B
100
AcDbEntity
  8
4
100
AcDbLine
 10
812.0739523319303
 20
1369.650621678874
 30
0.0
 11
797.351520467595
 21
1369.650621678874
 31
0.0
  0
LINE
  5
31B
330
1B
100
AcDbEntity
  8
4
100
AcDbLine
 10
794.8977818235389
 20
1360.150621678874
 30
0.0
 11
814.5276909759864
 21
1360.150621678874
 31
0.0
  0
ARC
  5
31F
330
1B
100
AcDbEntity
  8
4
100
AcDbCircle
 10
795.7127363997629
 20
1141.850621678873
 30
0.0
 40
5.0
100
AcDbArc
 50
270.0
 51
0.0
  0
LINE
  5
320
330
1B
100
AcDbEntity
  8
L-CENTER
100
AcDbLine
 10
715.1282144601514
 20
1166.850621678874
 30
0.0
 11
766.2972583393744
 21
1166.850621678874
 31
0.0
  0
ARC
  5
321
330
1B
100
AcDbEntity
  8
4
100
AcDbCircle
 10
740.7127363997629
 20
1166.850621678874
 30
0.0
 40
11.0
100
AcDbArc
 50
219.8144800252653
 51
354.8233968377648
  0
LINE
  5
322
330
1B
100
AcDbEntity
  8
4
100
AcDbLine
 10
678.7127363997624
 20
1149.780621678874
 30
0.0
 11
678.7127363997624
 21
1167.004621678873
 31
0.0
  0
LINE
  5
323
330
1B
100
AcDbEntity
  8
4
100
AcDbLine
 10
685.7127363997629
 20
1126.850621678873
 30
0.0
 11
691.3209770799463
 21
1147.040288127533
 31
0.0
  0
ELLIPSE
  5
324
330
1B
100
AcDbEntity
  8
4
100
AcDbEllipse
 10
658.2127363997629
 20
1161.622326221374
 30
0.0
 11
-5.5
 21
0.0
 31
0.0
210
0.0
220
0.0
230
1.0
 40
0.307590908999993
 41
0.0
 42
6.283185307179586
  0
LINE
  5
325
330
1B
100
AcDbEntity
  8
4
100
AcDbLine
 10
670.7127363997629
 20
1146.850621678873
 30
0.0
 11
670.4180122618322
 21
1147.627621678874
 31
0.0
  0
LINE
  5
326
330
1B
100
AcDbEntity
  8
4
100
AcDbLine
 10
637.7127363997624
 20
1159.469189858374
 30
0.0
 11
637.7127363997629
 21
1157.316053495374
 31
0.0
  0
ELLIPSE
  5
327
330
1B
100
AcDbEntity
  8
4
100
AcDbEllipse
 10
658.2127363997629
 20
1155.778098950374
 30
0.0
 11
-13.49999237819156
 21
0.0
 31
0.0
210
0.0
220
0.0
230
1.0
 40
0.3065284643097903
 41
5.352093955025739
 42
10.35586931292323
  0
ELLIPSE
  5
328
330
1B
100
AcDbEntity
  8
4
100
AcDbEllipse
 10
658.2127363997629
 20
1155.778098950374
 30
0.0
 11
-7.5
 21
0.0
 31
0.0
210
0.0
220
0.0
230
1.0
 40
0.3075909089999944
 41
0.0
 42
6.283185307179586
  0
ELLIPSE
  5
329
330
1B
100
AcDbEntity
  8
4
100
AcDbEllipse
 10
658.2127363997629
 20
1161.622326221374
 30
0.0
 11
-11.49999929403566
 21
0.0
 31
0.0
210
0.0
220
0.0
230
1.0
 40
0.3076987060934744
 41
2.347282901253021
 42
7.077495059516358
  0
LINE
  5
32A
330
1B
100
AcDbEntity
  8
4
100
AcDbLine
 10
670.4180122618322
 20
1147.627621678874
 30
0.0
 11
685.7127363997624
 21
1147.627621678874
 31
0.0
  0
LINE
  5
32B
330
1B
100
AcDbEntity
  8
4
100
AcDbLine
 10
795.7127363997629
 20
1136.850621678873
 30
0.0
 11
688.4905141775407
 21
1136.850621678873
 31
0.0
  0
LINE
  5
32D
330
1B
100
AcDbEntity
  8
4
100
AcDbLine
 10
627.7127363997624
 20
1159.469189858374
 30
0.0
 11
627.7127363997624
 21
1157.316053495374
 31
0.0
  0
LINE
  5
32E
330
1B
100
AcDbEntity
  8
4
100
AcDbLine
 10
616.8975523087543
 20
1154.701530768874
 30
0.0
 11
619.5111886723907
 21
1151.625621678874
 31
0.0
  0
LINE
  5
32F
330
1B
100
AcDbEntity
  8
4
100
AcDbLine
 10
609.7127363997629
 20
1163.157121941356
 30
0.0
 11
615.0680068542088
 21
1156.854667131874
 31
0.0
  0
LINE
  5
330
330
1B
100
AcDbEntity
  8
4
100
AcDbLine
 10
619.5111886723907
 20
1151.625621678874
 30
0.0
 11
625.7127363997629
 21
1151.625621678874
 31
0.0
  0
LINE
  5
331
330
1B
100
AcDbEntity
  8
4
100
AcDbLine
 10
614.2127363997629
 20
1165.159621674874
 30
0.0
 11
625.7127363997629
 21
1151.625621678874
 31
0.0
  0
LINE
  5
332
330
1B
100
AcDbEntity
  8
4
100
AcDbLine
 10
599.914284127135
 20
1151.625621678874
 30
0.0
 11
602.5279204907711
 21
1154.701530768874
 31
0.0
  0
LINE
  5
333
330
1B
100
AcDbEntity
  8
4
100
AcDbLine
 10
591.7127363997629
 20
1153.778758041874
 30
0.0
 11
591.7127363997629
 21
1151.625621678874
 31
0.0
  0
LINE
  5
334
330
1B
100
AcDbEntity
  8
4
100
AcDbLine
 10
593.7127363997629
 20
1151.625621678874
 30
0.0
 11
599.914284127135
 21
1151.625621678874
 31
0.0
  0
LINE
  5
335
330
1B
100
AcDbEntity
  8
4
100
AcDbLine
 10
593.7127363997629
 20
1151.625621678874
 30
0.0
 11
605.2127363997629
 21
1165.159621674874
 31
0.0
  0
LINE
  5
336
330
1B
100
AcDbEntity
  8
4
100
AcDbLine
 10
614.2127363997624
 20
1165.159621674874
 30
0.0
 11
605.2127363997629
 21
1165.159621674874
 31
0.0
  0
LINE
  5
337
330
1B
100
AcDbEntity
  8
4
100
AcDbLine
 10
616.8975523087538
 20
1154.701530768874
 30
0.0
 11
602.5279204907711
 21
1154.701530768874
 31
0.0
  0
LINE
  5
338
330
1B
100
AcDbEntity
  8
4
100
AcDbLine
 10
615.0680068542088
 20
1156.854667131874
 30
0.0
 11
604.357465945317
 21
1156.854667131874
 31
0.0
  0
LINE
  5
339
330
1B
100
AcDbEntity
  8
4
100
AcDbLine
 10
604.357465945317
 20
1156.854667131874
 30
0.0
 11
609.7127363997629
 21
1163.157121941356
 31
0.0
  0
LINE
  5
33A
330
1B
100
AcDbEntity
  8
4
100
AcDbLine
 10
568.7127363997629
 20
1165.159621674874
 30
0.0
 11
575.7127363997629
 21
1165.159621674874
 31
0.0
  0
LINE
  5
33B
330
1B
100
AcDbEntity
  8
4
100
AcDbLine
 10
568.7127363997629
 20
1165.159621674874
 30
0.0
 11
568.7127363997629
 21
1151.625621678874
 31
0.0
  0
LINE
  5
33C
330
1B
100
AcDbEntity
  8
4
100
AcDbLine
 10
575.7127363997629
 20
1165.159621674874
 30
0.0
 11
575.7127363997629
 21
1153.778758041874
 31
0.0
  0
LINE
  5
33D
330
1B
100
AcDbEntity
  8
4
100
AcDbLine
 10
570.7127363997629
 20
1146.850621678874
 30
0.0
 11
571.007460537694
 21
1147.627621678874
 31
0.0
  0
LINE
  5
33E
330
1B
100
AcDbEntity
  8
4
100
AcDbLine
 10
562.7127363997633
 20
1149.780621678874
 30
0.0
 11
562.7127363997633
 21
1167.004621678874
 31
0.0
  0
LINE
  5
33F
330
1B
100
AcDbEntity
  8
4
100
AcDbLine
 10
555.7127363997633
 20
1147.627621678874
 30
0.0
 11
571.007460537694
 21
1147.627621678874
 31
0.0
  0
LINE
  5
340
330
1B
100
AcDbEntity
  8
4
100
AcDbLine
 10
555.7127363997629
 20
1126.850621678874
 30
0.0
 11
550.1044957195795
 21
1147.040288127533
 31
0.0
  0
LINE
  5
341
330
1B
100
AcDbEntity
  8
4
100
AcDbLine
 10
568.7127363997629
 20
1151.625621678874
 30
0.0
 11
591.7127363997629
 21
1151.625621678874
 31
0.0
  0
LINE
  5
342
330
1B
100
AcDbEntity
  8
4
100
AcDbLine
 10
575.7127363997629
 20
1153.778758041874
 30
0.0
 11
591.7127363997629
 21
1153.778758041874
 31
0.0
  0
LINE
  5
343
330
1B
100
AcDbEntity
  8
L-CENTER
100
AcDbLine
 10
475.1282144601514
 20
1166.850621678874
 30
0.0
 11
526.2972583393744
 21
1166.850621678874
 31
0.0
  0
ARC
  5
344
330
1B
100
AcDbEntity
  8
4
100
AcDbCircle
 10
500.7127363997629
 20
1166.850621678874
 30
0.0
 40
11.0
100
AcDbArc
 50
185.1766031622316
 51
320.185519974739
  0
LINE
  5
345
330
1B
100
AcDbEntity
  8
4
100
AcDbLine
 10
637.7127363997624
 20
1157.316053495374
 30
0.0
 11
627.7127363997629
 21
1157.316053495374
 31
0.0
  0
LINE
  5
346
330
1B
100
AcDbEntity
  8
4
100
AcDbLine
 10
637.7127363997624
 20
1159.469189858374
 30
0.0
 11
627.7127363997624
 21
1159.469189858374
 31
0.0
  0
LINE
  5
347
330
1B
100
AcDbEntity
  8
4
100
AcDbLine
 10
562.7127363997633
 20
1167.004621678874
 30
0.0
 11
678.7127363997624
 21
1167.004621678873
 31
0.0
  0
LINE
  5
348
330
1B
100
AcDbEntity
  8
4
100
AcDbLine
 10
562.7127363997633
 20
1149.780621678874
 30
0.0
 11
678.7127363997624
 21
1149.780621678874
 31
0.0
  0
LINE
  5
349
330
1B
100
AcDbEntity
  8
4
100
AcDbLine
 10
555.7127363997629
 20
1126.850621678874
 30
0.0
 11
685.7127363997629
 21
1126.850621678874
 31
0.0
  0
LINE
  5
34A
330
1B
100
AcDbEntity
  8
4
100
AcDbLine
 10
550.7127363997629
 20
1146.850621678874
 30
0.0
 11
690.7127363997629
 21
1146.850621678873
 31
0.0
  0
ARC
  5
34C
330
1B
100
AcDbEntity
  8
4
100
AcDbCircle
 10
790.5982563997627
 20
615.286478138444
 30
0.0
 40
5.0
100
AcDbArc
 50
14.16950899999949
 51
75.83044899999973
  0
ARC
  5
34D
330
1B
100
AcDbEntity
  8
4
100
AcDbCircle
 10
632.3345613997631
 20
656.3011281384438
 30
0.0
 40
1.100115
100
AcDbArc
 50
12.80874900000121
 51
90.0
  0
ARC
  5
34E
330
1B
100
AcDbEntity
  8
4
100
AcDbCircle
 10
642.7127363997629
 20
644.0562531384439
 30
0.0
 40
2.000005
100
AcDbArc
 50
180.0
 51
268.2022290000027
  0
LINE
  5
34F
330
1B
100
AcDbEntity
  8
4
100
AcDbLine
 10
640.7127363997629
 20
644.0562531384439
 30
0.0
 11
640.7127363997629
 21
646.4012231384438
 31
0.0
  0
ARC
  5
350
330
1B
100
AcDbEntity
  8
4
100
AcDbCircle
 10
641.668306399763
 20
647.1290081384436
 30
0.0
 40
5.999939999999999
100
AcDbArc
 50
125.5992010000019
 51
186.9671319999993
  0
LINE
  5
351
330
1B
100
AcDbEntity
  8
4
100
AcDbLine
 10
633.4073163997627
 20
656.5450231384439
 30
0.0
 11
635.7127363997629
 21
646.4012231384438
 31
0.0
  0
LINE
  5
352
330
1B
100
AcDbEntity
  8
4
100
AcDbLine
 10
685.7127363997624
 20
597.4012231384438
 30
0.0
 11
685.7127363997624
 21
527.4012231384438
 31
0.0
  0
LINE
  5
353
330
1B
100
AcDbEntity
  8
4
100
AcDbLine
 10
678.7127363997624
 20
590.401223138444
 30
0.0
 11
678.7127363997624
 21
534.401223138444
 31
0.0
  0
CIRCLE
  5
354
330
1B
100
AcDbEntity
  8
4
100
AcDbCircle
 10
658.2127363997629
 20
572.901223138444
 30
0.0
 40
5.5
  0
ARC
  5
355
330
1B
100
AcDbEntity
  8
4
100
AcDbCircle
 10
658.2127363997629
 20
572.9052526767509
 30
0.0
 40
11.5
100
AcDbArc
 50
314.6706406007723
 51
225.3293593992273
  0
ARC
  5
356
330
1B
100
AcDbEntity
  8
4
100
AcDbCircle
 10
671.0304320972132
 20
525.4012231384438
 30
0.0
 40
2.0
100
AcDbArc
 50
90.0
 51
167.1993734975087
  0
LINE
  5
357
330
1B
100
AcDbEntity
  8
4
100
AcDbLine
 10
637.7127363997629
 20
558.901223138444
 30
0.0
 11
637.7127363997629
 21
565.901223138444
 31
0.0
  0
ARC
  5
358
330
1B
100
AcDbEntity
  8
4
100
AcDbCircle
 10
658.2127363997629
 20
553.915568478063
 30
0.0
 40
13.5
100
AcDbArc
 50
126.789563507821
 51
53.21043649217901
  0
CIRCLE
  5
359
330
1B
100
AcDbEntity
  8
4
100
AcDbCircle
 10
658.2127363997629
 20
553.901223138444
 30
0.0
 40
7.5
  0
LINE
  5
35A
330
1B
100
AcDbEntity
  8
4
100
AcDbLine
 10
671.0304320972132
 20
527.4012231384438
 30
0.0
 11
685.7127363997624
 21
527.401223138444
 31
0.0
  0
LINE
  5
35B
330
1B
100
AcDbEntity
  8
4
100
AcDbLine
 10
661.13785845755
 20
597.4012231384438
 30
0.0
 11
685.7127363997624
 21
597.4012231384438
 31
0.0
  0
ARC
  5
35C
330
1B
100
AcDbEntity
  8
4
100
AcDbCircle
 10
670.1361508008754
 20
597.5765368688114
 30
0.0
 40
9.0
100
AcDbArc
 50
72.00726859391929
 51
181.1161524648742
  0
LINE
  5
362
330
1B
100
AcDbEntity
  8
4
100
AcDbLine
 10
620.7127363997629
 20
658.9012231384438
 30
0.0
 11
608.9507763997631
 21
657.3921931384439
 31
0.0
  0
ARC
  5
363
330
1B
100
AcDbEntity
  8
4
100
AcDbCircle
 10
598.7127363997629
 20
644.0562531384439
 30
0.0
 40
2.000005
100
AcDbArc
 50
271.7977709999973
 51
0.0
  0
LINE
  5
364
330
1B
100
AcDbEntity
  8
4
100
AcDbLine
 10
600.7127363997629
 20
644.0562531384439
 30
0.0
 11
600.7127363997629
 21
646.4012231384438
 31
0.0
  0
ARC
  5
365
330
1B
100
AcDbEntity
  8
4
100
AcDbCircle
 10
599.7569263997625
 20
647.1290081384436
 30
0.0
 40
6.00006
100
AcDbArc
 50
353.0331490000007
 51
54.40080699999846
  0
LINE
  5
366
330
1B
100
AcDbEntity
  8
4
100
AcDbLine
 10
608.018156399763
 20
656.5450231384439
 30
0.0
 11
605.7127363997629
 21
646.4012231384438
 31
0.0
  0
ARC
  5
367
330
1B
100
AcDbEntity
  8
4
100
AcDbCircle
 10
609.090666399763
 20
656.3011281384438
 30
0.0
 40
1.100115
100
AcDbArc
 50
90.0
 51
167.1912509999988
  0
LINE
  5
368
330
1B
100
AcDbEntity
  8
4
100
AcDbLine
 10
620.7127363997629
 20
646.4012231384438
 30
0.0
 11
600.7127363997629
 21
646.4012231384438
 31
0.0
  0
LINE
  5
369
330
1B
100
AcDbEntity
  8
4
100
AcDbLine
 10
605.2127363997629
 20
584.401223138444
 30
0.0
 11
614.2127363997629
 21
584.401223138444
 31
0.0
  0
LINE
  5
36A
330
1B
100
AcDbEntity
  8
4
100
AcDbLine
 10
619.5111886723907
 20
540.401223138444
 30
0.0
 11
625.7127363997629
 21
540.401223138444
 31
0.0
  0
LINE
  5
36B
330
1B
100
AcDbEntity
  8
4
100
AcDbLine
 10
616.8975523087543
 20
550.401223138444
 30
0.0
 11
619.5111886723907
 21
540.401223138444
 31
0.0
  0
LINE
  5
36C
330
1B
100
AcDbEntity
  8
4
100
AcDbLine
 10
602.5279204907715
 20
550.401223138444
 30
0.0
 11
599.914284127135
 21
540.401223138444
 31
0.0
  0
LINE
  5
36D
330
1B
100
AcDbEntity
  8
4
100
AcDbLine
 10
593.7127363997629
 20
540.401223138444
 30
0.0
 11
599.914284127135
 21
540.401223138444
 31
0.0
  0
LINE
  5
36E
330
1B
100
AcDbEntity
  8
4
100
AcDbLine
 10
591.7127363997629
 20
547.401223138444
 30
0.0
 11
591.7127363997629
 21
540.401223138444
 31
0.0
  0
LINE
  5
36F
330
1B
100
AcDbEntity
  8
4
100
AcDbLine
 10
602.5279204907715
 20
550.401223138444
 30
0.0
 11
616.8975523087543
 21
550.401223138444
 31
0.0
  0
LINE
  5
370
330
1B
100
AcDbEntity
  8
4
100
AcDbLine
 10
604.357465945317
 20
557.401223138444
 30
0.0
 11
615.0680068542088
 21
557.401223138444
 31
0.0
  0
LINE
  5
371
330
1B
100
AcDbEntity
  8
4
100
AcDbLine
 10
627.7127363997629
 20
558.901223138444
 30
0.0
 11
627.7127363997629
 21
565.901223138444
 31
0.0
  0
LINE
  5
372
330
1B
100
AcDbEntity
  8
4
100
AcDbLine
 10
614.2127363997629
 20
584.401223138444
 30
0.0
 11
625.7127363997629
 21
540.401223138444
 31
0.0
  0
LINE
  5
373
330
1B
100
AcDbEntity
  8
4
100
AcDbLine
 10
605.2127363997629
 20
584.401223138444
 30
0.0
 11
593.7127363997629
 21
540.401223138444
 31
0.0
  0
LINE
  5
374
330
1B
100
AcDbEntity
  8
4
100
AcDbLine
 10
609.7127363997629
 20
577.890953572846
 30
0.0
 11
604.357465945317
 21
557.401223138444
 31
0.0
  0
LINE
  5
375
330
1B
100
AcDbEntity
  8
4
100
AcDbLine
 10
609.7127363997629
 20
577.890953572846
 30
0.0
 11
615.0680068542088
 21
557.401223138444
 31
0.0
  0
LINE
  5
376
330
1B
100
AcDbEntity
  8
4
100
AcDbLine
 10
568.7127363997629
 20
584.401223138444
 30
0.0
 11
575.7127363997629
 21
584.401223138444
 31
0.0
  0
LINE
  5
377
330
1B
100
AcDbEntity
  8
4
100
AcDbLine
 10
580.2876143419758
 20
597.4012231384438
 30
0.0
 11
555.7127363997633
 21
597.4012231384438
 31
0.0
  0
ARC
  5
378
330
1B
100
AcDbEntity
  8
4
100
AcDbCircle
 10
570.3950407023126
 20
525.4012231384438
 30
0.0
 40
2.0
100
AcDbArc
 50
12.80062650249128
 51
90.0
  0
LINE
  5
379
330
1B
100
AcDbEntity
  8
4
100
AcDbLine
 10
570.3950407023126
 20
527.4012231384438
 30
0.0
 11
555.7127363997633
 21
527.401223138444
 31
0.0
  0
LINE
  5
37A
330
1B
100
AcDbEntity
  8
4
100
AcDbLine
 10
562.7127363997633
 20
590.401223138444
 30
0.0
 11
562.7127363997633
 21
534.401223138444
 31
0.0
  0
LINE
  5
37B
330
1B
100
AcDbEntity
  8
4
100
AcDbLine
 10
555.7127363997633
 20
597.4012231384438
 30
0.0
 11
555.7127363997633
 21
527.4012231384438
 31
0.0
  0
LINE
  5
37C
330
1B
100
AcDbEntity
  8
4
100
AcDbLine
 10
575.7127363997629
 20
584.401223138444
 30
0.0
 11
575.7127363997629
 21
547.401223138444
 31
0.0
  0
LINE
  5
37D
330
1B
100
AcDbEntity
  8
4
100
AcDbLine
 10
568.7127363997629
 20
584.401223138444
 30
0.0
 11
568.7127363997629
 21
540.401223138444
 31
0.0
  0
LINE
  5
37E
330
1B
100
AcDbEntity
  8
4
100
AcDbLine
 10
568.7127363997629
 20
540.401223138444
 30
0.0
 11
591.7127363997629
 21
540.401223138444
 31
0.0
  0
LINE
  5
37F
330
1B
100
AcDbEntity
  8
4
100
AcDbLine
 10
575.7127363997629
 20
547.401223138444
 30
0.0
 11
591.7127363997629
 21
547.401223138444
 31
0.0
  0
ARC
  5
380
330
1B
100
AcDbEntity
  8
4
100
AcDbCircle
 10
571.2893219986504
 20
597.5765368688114
 30
0.0
 40
9.0
100
AcDbArc
 50
358.8838475351258
 51
107.9927314060807
  0
LINE
  5
381
330
1B
100
AcDbEntity
  8
4
100
AcDbLine
 10
533.7127363997629
 20
641.9012231384438
 30
0.0
 11
533.7127363997629
 21
650.9012231384438
 31
0.0
  0
LINE
  5
382
330
1B
100
AcDbEntity
  8
4
100
AcDbLine
 10
522.2127363997629
 20
645.9012231384438
 30
0.0
 11
522.2127363997629
 21
650.9012231384438
 31
0.0
  0
LINE
  5
383
330
1B
100
AcDbEntity
  8
4
100
AcDbLine
 10
499.2127363997629
 20
645.9012231384438
 30
0.0
 11
499.2127363997629
 21
650.9012231384438
 31
0.0
  0
LINE
  5
384
330
1B
100
AcDbEntity
  8
4
100
AcDbLine
 10
535.7127363997629
 20
638.4699281384437
 30
0.0
 11
535.7127363997629
 21
640.401223138444
 31
0.0
  0
ARC
  5
385
330
1B
100
AcDbEntity
  8
4
100
AcDbCircle
 10
537.7127363997629
 20
638.4699281384437
 30
0.0
 40
2.0
100
AcDbArc
 50
180.0
 51
276.7999229999955
  0
LINE
  5
386
330
1B
100
AcDbEntity
  8
L-CENTER
100
AcDbLine
 10
510.7127363997629
 20
653.9427881384436
 30
0.0
 11
510.7127363997629
 21
613.1879293751808
 31
0.0
  0
LINE
  5
387
330
1B
100
AcDbEntity
  8
4
100
AcDbLine
 10
532.7127363997629
 20
641.9012231384438
 30
0.0
 11
532.7127363997629
 21
640.401223138444
 31
0.0
  0
LINE
  5
388
330
1B
100
AcDbEntity
  8
4
100
AcDbLine
 10
487.7127363997629
 20
641.9012231384438
 30
0.0
 11
487.7127363997629
 21
650.9012231384438
 31
0.0
  0
LINE
  5
389
330
1B
100
AcDbEntity
  8
4
100
AcDbLine
 10
485.7127363997629
 20
629.8833131384438
 30
0.0
 11
485.7127363997629
 21
640.401223138444
 31
0.0
  0
ARC
  5
38A
330
1B
100
AcDbEntity
  8
4
100
AcDbCircle
 10
483.7127363997629
 20
629.8833131384438
 30
0.0
 40
2.0
100
AcDbArc
 50
281.270162000007
 51
0.0
  0
LINE
  5
38B
330
1B
100
AcDbEntity
  8
4
100
AcDbLine
 10
488.7127363997629
 20
641.9012231384438
 30
0.0
 11
488.7127363997629
 21
640.401223138444
 31
0.0
  0
LINE
  5
38C
330
1B
100
AcDbEntity
  8
4
100
AcDbLine
 10
485.7127363997629
 20
640.401223138444
 30
0.0
 11
535.7127363997629
 21
640.401223138444
 31
0.0
  0
LINE
  5
38D
330
1B
100
AcDbEntity
  8
4
100
AcDbLine
 10
488.7127363997629
 20
640.401223138444
 30
0.0
 11
532.7127363997629
 21
640.401223138444
 31
0.0
  0
LINE
  5
38E
330
1B
100
AcDbEntity
  8
4
100
AcDbLine
 10
487.7127363997629
 20
641.9012231384438
 30
0.0
 11
533.7127363997629
 21
641.9012231384438
 31
0.0
  0
LINE
  5
38F
330
1B
100
AcDbEntity
  8
4
100
AcDbLine
 10
487.7127363997629
 20
645.9012231384438
 30
0.0
 11
533.7127363997629
 21
645.9012231384438
 31
0.0
  0
LINE
  5
390
330
1B
100
AcDbEntity
  8
4
100
AcDbLine
 10
487.7127363997629
 20
650.9012231384438
 30
0.0
 11
533.7127363997629
 21
650.9012231384438
 31
0.0
  0
LINE
  5
391
330
1B
100
AcDbEntity
  8
4
100
AcDbLine
 10
485.7127363997629
 20
640.401223138444
 30
0.0
 11
535.7127363997629
 21
640.401223138444
 31
0.0
  0
CIRCLE
  5
392
330
1B
100
AcDbEntity
  8
4
100
AcDbCircle
 10
620.7127363997629
 20
676.4012231384438
 30
0.0
 40
17.5
  0
ARC
  5
393
330
1B
100
AcDbEntity
  8
4
100
AcDbCircle
 10
620.7127363997629
 20
676.4012231384438
 30
0.0
 40
30.00008
100
AcDbArc
 50
305.6002280000004
 51
234.4024820000001
  0
LINE
  5
394
330
1B
100
AcDbEntity
  8
4
100
AcDbLine
 10
609.090666399763
 20
657.4012231384436
 30
0.0
 11
632.3345613997631
 21
657.4012231384436
 31
0.0
  0
LINE
  5
395
330
1B
100
AcDbEntity
  8
4
100
AcDbLine
 10
620.7127363997629
 20
658.9012231384438
 30
0.0
 11
632.4744563997629
 21
657.3921931384439
 31
0.0
  0
LINE
  5
396
330
1B
100
AcDbEntity
  8
4
100
AcDbLine
 10
605.7127363997629
 20
646.4012231384438
 30
0.0
 11
635.7127363997629
 21
646.4012231384438
 31
0.0
  0
LINE
  5
397
330
1B
100
AcDbEntity
  8
4
100
AcDbLine
 10
600.7127363997629
 20
646.4012231384438
 30
0.0
 11
640.7127363997629
 21
646.4012231384438
 31
0.0
  0
LINE
  5
398
330
1B
100
AcDbEntity
  8
4
100
AcDbLine
 10
620.7127363997629
 20
646.4012231384438
 30
0.0
 11
640.7127363997629
 21
646.4012231384438
 31
0.0
  0
LINE
  5
399
330
1B
100
AcDbEntity
  8
L-CENTER
100
AcDbLine
 10
578.2251863997631
 20
676.4012231384438
 30
0.0
 11
663.2002863997627
 21
676.4012231384438
 31
0.0
  0
ARC
  5
39A
330
1B
100
AcDbEntity
  8
4
100
AcDbCircle
 10
620.7124913997627
 20
-57.59901686155621
 30
0.0
 40
699.0000450000001
100
AcDbArc
 50
75.83044899999999
 51
89.99998000000002
  0
LINE
  5
39C
330
1B
100
AcDbEntity
  8
4
100
AcDbLine
 10
562.7127363997633
 20
534.401223138444
 30
0.0
 11
678.7127363997624
 21
534.401223138444
 31
0.0
  0
LINE
  5
39D
330
1B
100
AcDbEntity
  8
4
100
AcDbLine
 10
627.7127363997629
 20
558.901223138444
 30
0.0
 11
637.7127363997629
 21
558.901223138444
 31
0.0
  0
LINE
  5
39E
330
1B
100
AcDbEntity
  8
4
100
AcDbLine
 10
627.7127363997629
 20
565.901223138444
 30
0.0
 11
637.7127363997629
 21
565.901223138444
 31
0.0
  0
LINE
  5
39F
330
1B
100
AcDbEntity
  8
4
100
AcDbLine
 10
562.7127363997633
 20
590.4012231384438
 30
0.0
 11
678.7127363997624
 21
590.4012231384438
 31
0.0
  0
LINE
  5
3A1
330
1B
100
AcDbEntity
  8
4
100
AcDbLine
 10
685.7127363997624
 20
1147.627621678874
 30
0.0
 11
685.7127363997624
 21
1169.157621678874
 31
0.0
  0
LINE
  5
3A2
330
1B
100
AcDbEntity
  8
4
100
AcDbLine
 10
555.7127363997633
 20
1147.627621678874
 30
0.0
 11
555.7127363997633
 21
1169.157621678874
 31
0.0
  0
LINE
  5
3A3
330
1B
100
AcDbEntity
  8
L-CENTER
100
AcDbLine
 10
500.7127363997629
 20
1192.435143618485
 30
0.0
 11
500.7127363997629
 21
1141.266099739262
 31
0.0
  0
LINE
  5
3A4
330
1B
100
AcDbEntity
  8
L-CENTER
100
AcDbLine
 10
620.7127363997629
 20
985.472076294016
 30
0.0
 11
620.7127363997629
 21
1548.229167063731
 31
0.0
  0
LINE
  5
3A5
330
1B
100
AcDbEntity
  8
4
100
AcDbLine
 10
800.7127363997629
 20
1141.850621678873
 30
0.0
 11
800.7127363997629
 21
1175.850621678874
 31
0.0
  0
LINE
  5
3A6
330
1B
100
AcDbEntity
  8
L-CENTER
100
AcDbLine
 10
740.7127363997629
 20
1141.266099739262
 30
0.0
 11
740.7127363997629
 21
1192.435143618485
 31
0.0
  0
LINE
  5
3A7
330
1B
100
AcDbEntity
  8
4
100
AcDbLine
 10
457.7127363997629
 20
1175.850621678874
 30
0.0
 11
550.7127363997629
 21
1146.850621678874
 31
0.0
  0
LINE
  5
3A8
330
1B
100
AcDbEntity
  8
4
100
AcDbLine
 10
464.0362213997628
 20
1175.850621678874
 30
0.0
 11
557.0362213997632
 21
1146.850621678874
 31
0.0
  0
LINE
  5
3A9
330
1B
100
AcDbEntity
  8
4
100
AcDbLine
 10
777.3892463997631
 20
1175.850621678873
 30
0.0
 11
684.3892463997631
 21
1146.850621678873
 31
0.0
  0
LINE
  5
3AA
330
1B
100
AcDbEntity
  8
4
100
AcDbLine
 10
783.7127363997629
 20
1175.850621678873
 30
0.0
 11
690.7127363997629
 21
1146.850621678873
 31
0.0
  0
ARC
  5
3AB
330
1B
100
AcDbEntity
  8
4
100
AcDbCircle
 10
445.7127363997638
 20
1391.850621678874
 30
0.0
 40
5.0
100
AcDbArc
 50
90.0
 51
180.0
  0
ARC
  5
3AC
330
1B
100
AcDbEntity
  8
4
100
AcDbCircle
 10
436.7127363997629
 20
1355.871456381415
 30
0.0
 40
13.77916529745958
100
AcDbArc
 50
69.13593563608018
 51
110.8640643639198
  0
LINE
  5
3AD
330
1B
100
AcDbEntity
  8
4
100
AcDbLine
 10
446.5276909759868
 20
1368.747094733021
 30
0.0
 11
446.5276909759868
 21
1360.150621678874
 31
0.0
  0
LINE
  5
3AE
330
1B
100
AcDbEntity
  8
4
100
AcDbLine
 10
441.6202136878751
 20
1368.747094733021
 30
0.0
 11
441.6202136878751
 21
1362.650621678874
 31
0.0
  0
ARC
  5
3AF
330
1B
100
AcDbEntity
  8
4
100
AcDbCircle
 10
444.0739523319307
 20
1365.867007749815
 30
0.0
 40
3.783613929059507
100
AcDbArc
 50
49.57010315517537
 51
130.4298968448315
  0
LINE
  5
3B0
330
1B
100
AcDbEntity
  8
4
100
AcDbLine
 10
431.8052591116511
 20
1368.747094733021
 30
0.0
 11
431.8052591116511
 21
1362.650621678874
 31
0.0
  0
LINE
  5
3B1
330
1B
100
AcDbEntity
  8
4
100
AcDbLine
 10
426.7127363997629
 20
1343.850621678874
 30
0.0
 11
426.7127363997629
 21
1345.850621678874
 31
0.0
  0
LINE
  5
3B2
330
1B
100
AcDbEntity
  8
4
100
AcDbLine
 10
414.9127363997627
 20
1351.850621678874
 30
0.0
 11
426.7127363997629
 21
1351.850621678874
 31
0.0
  0
ARC
  5
3B3
330
1B
100
AcDbEntity
  8
4
100
AcDbCircle
 10
414.9127363997627
 20
1350.850621678874
 30
0.0
 40
1.0
100
AcDbArc
 50
90.0
 51
180.0
  0
ARC
  5
3B4
330
1B
100
AcDbEntity
  8
4
100
AcDbCircle
 10
427.7127363997629
 20
1359.150621678874
 30
0.0
 40
1.0
100
AcDbArc
 50
90.0
 51
180.0
  0
LINE
  5
3B5
330
1B
100
AcDbEntity
  8
4
100
AcDbLine
 10
426.7127363997629
 20
1359.150621678874
 30
0.0
 11
426.7127363997629
 21
1346.150621678874
 31
0.0
  0
LINE
  5
3B6
330
1B
100
AcDbEntity
  8
4
100
AcDbLine
 10
426.8977818235394
 20
1360.150621678874
 30
0.0
 11
426.8977818235394
 21
1368.747094733021
 31
0.0
  0
LINE
  5
3B7
330
1B
100
AcDbEntity
  8
4
100
AcDbLine
 10
446.5276909759868
 20
1360.150621678874
 30
0.0
 11
426.8977818235394
 21
1360.150621678874
 31
0.0
  0
LINE
  5
3B8
330
1B
100
AcDbEntity
  8
4
100
AcDbLine
 10
429.3515204675955
 20
1369.650621678874
 30
0.0
 11
444.0739523319307
 21
1369.650621678874
 31
0.0
  0
LINE
  5
3B9
330
1B
100
AcDbEntity
  8
4
100
AcDbLine
 10
446.5276909759868
 20
1362.650621678874
 30
0.0
 11
426.8977818235394
 21
1362.650621678874
 31
0.0
  0
ARC
  5
3BA
330
1B
100
AcDbEntity
  8
4
100
AcDbCircle
 10
429.3515204675955
 20
1365.867007749815
 30
0.0
 40
3.783613929059507
100
AcDbArc
 50
49.57010315517537
 51
130.4298968448315
  0
LINE
  5
3BB
330
1B
100
AcDbEntity
  8
4
100
AcDbLine
 10
440.7127363997638
 20
1369.650621678874
 30
0.0
 11
440.7127363997638
 21
1391.850621678874
 31
0.0
  0
LINE
  5
3BC
330
1B
100
AcDbEntity
  8
L-CENTER
100
AcDbLine
 10
436.7127363997629
 20
1331.414016112811
 30
0.0
 11
436.7127363997629
 21
1374.293261112812
 31
0.0
  0
LINE
  5
3BD
330
1B
100
AcDbEntity
  8
4
100
AcDbLine
 10
413.9128363997629
 20
1308.301052102649
 30
0.0
 11
413.9128363997629
 21
1327.930961255097
 31
0.0
  0
LINE
  5
3BE
330
1B
100
AcDbEntity
  8
4
100
AcDbLine
 10
411.4128363997629
 20
1308.301052102649
 30
0.0
 11
411.4128363997629
 21
1327.930961255097
 31
0.0
  0
ARC
  5
3BF
330
1B
100
AcDbEntity
  8
4
100
AcDbCircle
 10
408.1964503288223
 20
1325.477222611041
 30
0.0
 40
3.783613929059507
100
AcDbArc
 50
139.5701031551723
 51
220.4298968448277
  0
ARC
  5
3C0
330
1B
100
AcDbEntity
  8
4
100
AcDbCircle
 10
408.1964503288223
 20
1310.754790746706
 30
0.0
 40
3.783613929059507
100
AcDbArc
 50
139.5701031551723
 51
220.4298968448277
  0
ARC
  5
3C1
330
1B
100
AcDbEntity
  8
4
100
AcDbCircle
 10
418.1920016972222
 20
1318.116006678873
 30
0.0
 40
13.77916529745958
100
AcDbArc
 50
159.1359356360806
 51
200.8640643639194
  0
LINE
  5
3C2
330
1B
100
AcDbEntity
  8
4
100
AcDbLine
 10
404.4128363997629
 20
1325.477222611041
 30
0.0
 11
404.4128363997629
 21
1310.754790746706
 31
0.0
  0
LINE
  5
3C3
330
1B
100
AcDbEntity
  8
L-CENTER
100
AcDbLine
 10
398.9279425318878
 20
1318.116006678873
 30
0.0
 11
443.4435675318882
 21
1318.116006678873
 31
0.0
  0
LINE
  5
3C4
330
1B
100
AcDbEntity
  8
4
100
AcDbLine
 10
405.3163633456156
 20
1323.023483966985
 30
0.0
 11
411.4128363997629
 21
1323.023483966985
 31
0.0
  0
LINE
  5
3C5
330
1B
100
AcDbEntity
  8
4
100
AcDbLine
 10
405.3163633456156
 20
1313.208529390761
 30
0.0
 11
411.4128363997629
 21
1313.208529390761
 31
0.0
  0
LINE
  5
3C6
330
1B
100
AcDbEntity
  8
4
100
AcDbLine
 10
405.3163633456156
 20
1308.301052102649
 30
0.0
 11
413.9128363997629
 21
1308.301052102649
 31
0.0
  0
LINE
  5
3C7
330
1B
100
AcDbEntity
  8
4
100
AcDbLine
 10
413.9128363997629
 20
1327.930961255097
 30
0.0
 11
405.3163633456156
 21
1327.930961255097
 31
0.0
  0
LINE
  5
3C8
330
1B
100
AcDbEntity
  8
4
100
AcDbLine
 10
426.7127363997629
 20
1176.850621678873
 30
0.0
 11
426.7127363997629
 21
1189.850621678873
 31
0.0
  0
LINE
  5
3C9
330
1B
100
AcDbEntity
  8
4
100
AcDbLine
 10
414.9127363997627
 20
1181.850621678874
 30
0.0
 11
426.7127363997629
 21
1181.850621678874
 31
0.0
  0
ARC
  5
3CA
330
1B
100
AcDbEntity
  8
4
100
AcDbCircle
 10
414.9127363997627
 20
1182.850621678874
 30
0.0
 40
1.0
100
AcDbArc
 50
180.0
 51
270.0
  0
LINE
  5
3CB
330
1B
100
AcDbEntity
  8
4
100
AcDbLine
 10
411.4128363997629
 20
1205.770287102649
 30
0.0
 11
411.4128363997629
 21
1225.400196255097
 31
0.0
  0
LINE
  5
3CC
330
1B
100
AcDbEntity
  8
4
100
AcDbLine
 10
413.9128363997629
 20
1205.770287102649
 30
0.0
 11
413.9128363997629
 21
1225.400196255097
 31
0.0
  0
ARC
  5
3CD
330
1B
100
AcDbEntity
  8
4
100
AcDbCircle
 10
418.1920016972222
 20
1215.585241678873
 30
0.0
 40
13.77916529745958
100
AcDbArc
 50
159.1359356360806
 51
200.8640643639194
  0
ARC
  5
3CE
330
1B
100
AcDbEntity
  8
4
100
AcDbCircle
 10
408.1964503288223
 20
1222.946457611041
 30
0.0
 40
3.783613929059507
100
AcDbArc
 50
139.5701031551777
 51
220.4298968448223
  0
LINE
  5
3CF
330
1B
100
AcDbEntity
  8
4
100
AcDbLine
 10
404.4128363997629
 20
1222.946457611041
 30
0.0
 11
404.4128363997629
 21
1208.224025746706
 31
0.0
  0
ARC
  5
3D0
330
1B
100
AcDbEntity
  8
4
100
AcDbCircle
 10
408.1964503288223
 20
1208.224025746706
 30
0.0
 40
3.783613929059507
100
AcDbArc
 50
139.5701031551777
 51
220.4298968448223
  0
LINE
  5
3D1
330
1B
100
AcDbEntity
  8
4
100
AcDbLine
 10
413.9128363997629
 20
1225.400196255097
 30
0.0
 11
405.3163633456156
 21
1225.400196255097
 31
0.0
  0
LINE
  5
3D2
330
1B
100
AcDbEntity
  8
4
100
AcDbLine
 10
405.3163633456156
 20
1205.770287102649
 30
0.0
 11
413.9128363997629
 21
1205.770287102649
 31
0.0
  0
LINE
  5
3D3
330
1B
100
AcDbEntity
  8
4
100
AcDbLine
 10
405.3163633456156
 20
1210.677764390761
 30
0.0
 11
411.4128363997629
 21
1210.677764390761
 31
0.0
  0
LINE
  5
3D4
330
1B
100
AcDbEntity
  8
4
100
AcDbLine
 10
405.3163633456156
 20
1220.492718966985
 30
0.0
 11
411.4128363997629
 21
1220.492718966985
 31
0.0
  0
LINE
  5
3D5
330
1B
100
AcDbEntity
  8
L-CENTER
100
AcDbLine
 10
398.9279425318878
 20
1215.585241678873
 30
0.0
 11
443.4435675318882
 21
1215.585241678873
 31
0.0
  0
LINE
  5
3D6
330
1B
100
AcDbEntity
  8
4
100
AcDbLine
 10
425.7127363997629
 20
1189.850621678874
 30
0.0
 11
425.7127363997629
 21
1343.850621678874
 31
0.0
  0
LINE
  5
3D7
330
1B
100
AcDbEntity
  8
4
100
AcDbLine
 10
413.9127363997627
 20
1182.850621678874
 30
0.0
 11
413.9127363997627
 21
1350.850621678874
 31
0.0
  0
ARC
  5
3D8
330
1B
100
AcDbEntity
  8
4
100
AcDbCircle
 10
445.7127363997629
 20
1141.850621678874
 30
0.0
 40
5.0
100
AcDbArc
 50
180.0
 51
270.0
  0
ARC
  5
3DC
330
1B
100
AcDbEntity
  8
4
100
AcDbCircle
 10
450.8271363997628
 20
615.2864281384439
 30
0.0
 40
5.0
100
AcDbArc
 50
104.1695579999976
 51
165.830496000002
  0
LINE
  5
3DD
330
1B
100
AcDbEntity
  8
4
100
AcDbLine
 10
440.7127363997629
 20
1141.850621678874
 30
0.0
 11
440.7127363997629
 21
1175.850621678873
 31
0.0
  0
ARC
  5
3DE
330
1B
100
AcDbEntity
  8
4
100
AcDbCircle
 10
620.7129813997631
 20
-57.59901686155621
 30
0.0
 40
699.0000150000001
100
AcDbArc
 50
89.99998000000002
 51
104.169558
  0
LINE
  5
3E1
330
1B
100
AcDbEntity
  8
L-CENTER
100
AcDbLine
 10
408.2818674415324
 20
1266.850621678874
 30
0.0
 11
949.7793083295421
 21
1266.850621678874
 31
0.0
  0
LINE
  5
3E2
330
1B
100
AcDbEntity
  8
4
100
AcDbLine
 10
552.9349586219855
 20
1136.850621678874
 30
0.0
 11
445.7127363997629
 21
1136.850621678874
 31
0.0
  0
LINE
  5
3E3
330
1B
100
AcDbEntity
  8
4
100
AcDbLine
 10
445.7127363997638
 20
1396.850621678874
 30
0.0
 11
553.237736399763
 21
1396.850621678874
 31
0.0
  0
LINE
  5
3E4
330
1B
100
AcDbEntity
  8
4
100
AcDbLine
 10
427.7127363997629
 20
1175.850621678873
 30
0.0
 11
813.7127363997629
 21
1175.850621678874
 31
0.0
  0
LINE
  5
3E5
330
1B
100
AcDbEntity
  8
4
100
AcDbLine
 10
425.7127363997629
 20
1189.850621678874
 30
0.0
 11
815.7127363997629
 21
1189.850621678874
 31
0.0
  0
LINE
  5
3E6
330
1B
100
AcDbEntity
  8
4
100
AcDbLine
 10
425.7127363997629
 20
1343.850621678874
 30
0.0
 11
815.7127363997629
 21
1343.850621678874
 31
0.0
  0
LINE
  5
3E7
330
1B
100
AcDbEntity
  8
4
100
AcDbLine
 10
426.7127363997629
 20
1345.850621678874
 30
0.0
 11
814.7127363997629
 21
1345.850621678873
 31
0.0
  0
LINE
  5
3E8
330
1B
100
AcDbEntity
  8
4
100
AcDbLine
 10
425.7127363997629
 20
1190.850621678874
 30
0.0
 11
815.7127363997629
 21
1190.850621678874
 31
0.0
  0
LINE
  5
3E9
330
1B
100
AcDbEntity
  8
4
100
AcDbLine
 10
427.7127363997629
 20
1360.150621678874
 30
0.0
 11
813.7127363997629
 21
1360.150621678874
 31
0.0
  0
LINE
  5
3EA
330
1B
100
AcDbEntity
  8
4
100
AcDbLine
 10
426.7127363997629
 20
1346.150621678874
 30
0.0
 11
814.7127363997629
 21
1346.150621678874
 31
0.0
  0
LINE
  5
3EE
330
1B
100
AcDbEntity
  8
4
100
AcDbLine
 10
940.7127363997629
 20
271.9012231384439
 30
0.0
 11
940.7127363997629
 21
223.4012231384439
 31
0.0
  0
LINE
  5
3EF
330
1B
100
AcDbEntity
  8
4
100
AcDbLine
 10
939.7127363997629
 20
268.4012231384439
 30
0.0
 11
939.7127363997629
 21
222.4012231384439
 31
0.0
  0
LINE
  5
3F0
330
1B
100
AcDbEntity
  8
4
100
AcDbLine
 10
939.7127363997629
 20
222.4012231384439
 30
0.0
 11
940.7127363997629
 21
223.4012231384439
 31
0.0
  0
LINE
  5
3F1
330
1B
100
AcDbEntity
  8
4
100
AcDbLine
 10
940.7127363997629
 20
267.4012231384439
 30
0.0
 11
939.7127363997629
 21
268.4012231384439
 31
0.0
  0
LINE
  5
3F3
330
1B
100
AcDbEntity
  8
4
100
AcDbLine
 10
813.7127363997629
 20
330.401223138444
 30
0.0
 11
826.5126413997627
 21
330.4012231384442
 31
0.0
  0
LINE
  5
3F4
330
1B
100
AcDbEntity
  8
4
100
AcDbLine
 10
811.085786399763
 20
330.401223138444
 30
0.0
 11
813.7127363997629
 21
330.401223138444
 31
0.0
  0
ARC
  5
3F5
330
1B
100
AcDbEntity
  8
4
100
AcDbCircle
 10
826.5126413997627
 20
329.4012231384442
 30
0.0
 40
1.0
100
AcDbArc
 50
0.0
 51
90.0
  0
LINE
  5
3F6
330
1B
100
AcDbEntity
  8
4
100
AcDbLine
 10
836.1091094539102
 20
301.5740854265556
 30
0.0
 11
830.0126363997629
 21
301.5740854265556
 31
0.0
  0
LINE
  5
3F7
330
1B
100
AcDbEntity
  8
4
100
AcDbLine
 10
836.1091094539102
 20
291.7591308503316
 30
0.0
 11
830.0126363997629
 21
291.7591308503316
 31
0.0
  0
ARC
  5
3F8
330
1B
100
AcDbEntity
  8
4
100
AcDbCircle
 10
833.2290224707035
 20
304.0278240706112
 30
0.0
 40
3.783613929059507
100
AcDbArc
 50
319.5701031551699
 51
40.42989684483014
  0
ARC
  5
3F9
330
1B
100
AcDbEntity
  8
4
100
AcDbCircle
 10
833.2290224707035
 20
289.305392206276
 30
0.0
 40
3.783613929059507
100
AcDbArc
 50
319.5701031551699
 51
40.42989684483014
  0
ARC
  5
3FA
330
1B
100
AcDbEntity
  8
4
100
AcDbCircle
 10
823.2334711023036
 20
296.6666081384438
 30
0.0
 40
13.77916529745958
100
AcDbArc
 50
339.1359356360801
 51
20.86406436391987
  0
LINE
  5
3FB
330
1B
100
AcDbEntity
  8
4
100
AcDbLine
 10
837.0126363997629
 20
304.0278240706112
 30
0.0
 11
837.0126363997629
 21
289.305392206276
 31
0.0
  0
LINE
  5
3FC
330
1B
100
AcDbEntity
  8
4
100
AcDbLine
 10
830.0126363997629
 20
286.8516535622199
 30
0.0
 11
830.0126363997629
 21
306.4815627146673
 31
0.0
  0
LINE
  5
3FD
330
1B
100
AcDbEntity
  8
4
100
AcDbLine
 10
828.5126413997627
 20
281.4012231384439
 30
0.0
 11
827.5126413997627
 21
281.4012231384439
 31
0.0
  0
LINE
  5
3FE
330
1B
100
AcDbEntity
  8
4
100
AcDbLine
 10
827.5126363997629
 20
286.8516535622199
 30
0.0
 11
827.5126363997629
 21
306.4815627146673
 31
0.0
  0
LINE
  5
3FF
330
1B
100
AcDbEntity
  8
4
100
AcDbLine
 10
836.1091094539102
 20
286.8516535622199
 30
0.0
 11
827.5126363997629
 21
286.8516535622199
 31
0.0
  0
LINE
  5
400
330
1B
100
AcDbEntity
  8
4
100
AcDbLine
 10
827.5126363997629
 20
306.4815627146673
 30
0.0
 11
836.1091094539102
 21
306.4815627146673
 31
0.0
  0
LINE
  5
401
330
1B
100
AcDbEntity
  8
4
100
AcDbLine
 10
850.7127363997629
 20
271.9012231384439
 30
0.0
 11
850.7127363997629
 21
268.4012231384439
 31
0.0
  0
LINE
  5
402
330
1B
100
AcDbEntity
  8
4
100
AcDbLine
 10
840.7127363997629
 20
270.401223138444
 30
0.0
 11
828.5126413997627
 21
270.4012231384439
 31
0.0
  0
LINE
  5
403
330
1B
100
AcDbEntity
  8
4
100
AcDbLine
 10
836.1091094539102
 20
199.0433204265555
 30
0.0
 11
830.0126363997629
 21
199.0433204265555
 31
0.0
  0
ARC
  5
404
330
1B
100
AcDbEntity
  8
4
100
AcDbCircle
 10
833.2290224707035
 20
201.4970590706112
 30
0.0
 40
3.783613929059507
100
AcDbArc
 50
319.5701031551699
 51
40.42989684483014
  0
LINE
  5
405
330
1B
100
AcDbEntity
  8
4
100
AcDbLine
 10
828.5126413997627
 20
209.4012231384439
 30
0.0
 11
827.5126413997627
 21
209.4012231384439
 31
0.0
  0
LINE
  5
406
330
1B
100
AcDbEntity
  8
4
100
AcDbLine
 10
828.5126413997627
 20
220.4012231384439
 30
0.0
 11
840.7127363997629
 21
220.4012231384439
 31
0.0
  0
LINE
  5
407
330
1B
100
AcDbEntity
  8
4
100
AcDbLine
 10
827.5126363997629
 20
203.9507977146673
 30
0.0
 11
836.1091094539102
 21
203.9507977146673
 31
0.0
  0
LINE
  5
408
330
1B
100
AcDbEntity
  8
4
100
AcDbLine
 10
840.7127363997629
 20
270.401223138444
 30
0.0
 11
840.7127363997629
 21
220.4012231384439
 31
0.0
  0
LINE
  5
409
330
1B
100
AcDbEntity
  8
4
100
AcDbLine
 10
828.5126413997627
 20
209.4012231384439
 30
0.0
 11
828.5126413997627
 21
281.4012231384439
 31
0.0
  0
LINE
  5
40A
330
1B
100
AcDbEntity
  8
4
100
AcDbLine
 10
840.7127363997629
 20
222.4012231384439
 30
0.0
 11
939.7127363997629
 21
222.4012231384439
 31
0.0
  0
LINE
  5
40B
330
1B
100
AcDbEntity
  8
4
100
AcDbLine
 10
940.7127363997629
 20
271.9012231384439
 30
0.0
 11
850.7127363997629
 21
271.9012231384439
 31
0.0
  0
LINE
  5
40C
330
1B
100
AcDbEntity
  8
4
100
AcDbLine
 10
840.7127363997629
 20
268.4012231384439
 30
0.0
 11
939.7127363997629
 21
268.4012231384439
 31
0.0
  0
LINE
  5
40F
330
1B
100
AcDbEntity
  8
4
100
AcDbLine
 10
807.5027763997628
 20
268.2286181384439
 30
0.0
 11
814.5374213997629
 21
390.298798138444
 31
0.0
  0
LINE
  5
417
330
1B
100
AcDbEntity
  8
4
100
AcDbLine
 10
836.1091094539102
 20
189.2283658503316
 30
0.0
 11
830.0126363997629
 21
189.2283658503316
 31
0.0
  0
ARC
  5
418
330
1B
100
AcDbEntity
  8
4
100
AcDbCircle
 10
833.2290224707035
 20
186.7746272062759
 30
0.0
 40
3.783613929059507
100
AcDbArc
 50
319.5701031551699
 51
40.42989684483014
  0
LINE
  5
419
330
1B
100
AcDbEntity
  8
4
100
AcDbLine
 10
808.8411563997629
 20
160.4012231384439
 30
0.0
 11
813.7127363997629
 21
160.4012231384439
 31
0.0
  0
LINE
  5
41A
330
1B
100
AcDbEntity
  8
4
100
AcDbLine
 10
813.7127363997629
 20
160.4012231384439
 30
0.0
 11
826.5126413997627
 21
160.4012231384439
 31
0.0
  0
ARC
  5
41B
330
1B
100
AcDbEntity
  8
4
100
AcDbCircle
 10
826.5126413997627
 20
161.4012231384439
 30
0.0
 40
1.0
100
AcDbArc
 50
270.0
 51
0.0
  0
LINE
  5
41C
330
1B
100
AcDbEntity
  8
4
100
AcDbLine
 10
836.1091094539102
 20
184.3208885622198
 30
0.0
 11
827.5126363997629
 21
184.3208885622198
 31
0.0
  0
TEXT
  5
41E
330
1B
100
AcDbEntity
  8
3
100
AcDbText
 10
1080.40409495132
 20
77.78236918279867
 30
0.0
 40
15.61517997527595
  1
LA8-05
  7
KANJI
100
AcDbText
  0
LINE
  5
41F
330
1B
100
AcDbEntity
  8
4
100
AcDbLine
 10
813.7127363997629
 20
160.4012231384439
 30
0.0
 11
813.7127363997629
 21
330.401223138444
 31
0.0
  0
LINE
  5
420
330
1B
100
AcDbEntity
  8
4
100
AcDbLine
 10
827.5126413997627
 20
329.4012231384442
 30
0.0
 11
827.5126413997627
 21
161.4012231384439
 31
0.0
  0
LINE
  5
421
330
1B
100
AcDbEntity
  8
4
100
AcDbLine
 10
813.7127363997629
 20
160.4012231384439
 30
0.0
 11
813.7127363997629
 21
330.401223138444
 31
0.0
  0
LINE
  5
422
330
1B
100
AcDbEntity
  8
4
100
AcDbLine
 10
837.0126363997629
 20
201.4970590706112
 30
0.0
 11
837.0126363997629
 21
186.7746272062759
 31
0.0
  0
ARC
  5
423
330
1B
100
AcDbEntity
  8
4
100
AcDbCircle
 10
823.2334711023036
 20
194.1358431384438
 30
0.0
 40
13.77916529745958
100
AcDbArc
 50
339.1359356360801
 51
20.86406436391987
  0
LINE
  5
424
330
1B
100
AcDbEntity
  8
4
100
AcDbLine
 10
830.0126363997629
 20
184.3208885622198
 30
0.0
 11
830.0126363997629
 21
203.9507977146673
 31
0.0
  0
LINE
  5
425
330
1B
100
AcDbEntity
  8
4
100
AcDbLine
 10
827.5126363997629
 20
184.3208885622198
 30
0.0
 11
827.5126363997629
 21
203.9507977146673
 31
0.0
  0
ARC
  5
426
330
1B
100
AcDbEntity
  8
4
100
AcDbCircle
 10
772.8880313997629
 20
494.824563138444
 30
0.0
 40
8.99999
100
AcDbArc
 50
263.6362980000006
 51
17.99259800000024
  0
ARC
  5
427
330
1B
100
AcDbEntity
  8
4
100
AcDbCircle
 10
772.8880313997629
 20
395.977888138444
 30
0.0
 40
9.000070000000001
100
AcDbArc
 50
342.0093589999988
 51
96.36370200000054
  0
ARC
  5
428
330
1B
100
AcDbEntity
  8
4
100
AcDbCircle
 10
675.492036399763
 20
500.180523138444
 30
0.0
 40
10.000085
100
AcDbArc
 50
10.88800999999996
 51
79.11199100000263
  0
ARC
  5
429
330
1B
100
AcDbEntity
  8
4
100
AcDbCircle
 10
693.3377363997629
 20
502.690043138444
 30
0.0
 40
7.999955
100
AcDbArc
 50
190.7197629999996
 51
263.6379930000003
  0
ARC
  5
42A
330
1B
100
AcDbEntity
  8
4
100
AcDbCircle
 10
671.2715763997626
 20
495.960063138444
 30
0.0
 40
10.00007
100
AcDbArc
 50
10.04023399999969
 51
79.95977099999833
  0
ARC
  5
42B
330
1B
100
AcDbEntity
  8
4
100
AcDbCircle
 10
678.0016159161673
 20
518.0263778823203
 30
0.0
 40
8.0
100
AcDbArc
 50
186.3634968358654
 51
259.2803933279438
  0
ARC
  5
42C
330
1B
100
AcDbEntity
  8
4
100
AcDbCircle
 10
675.492036399763
 20
390.621928138444
 30
0.0
 40
9.99997
100
AcDbArc
 50
280.8896459999989
 51
349.1133619999995
  0
ARC
  5
42D
330
1B
100
AcDbEntity
  8
4
100
AcDbCircle
 10
693.3379813997631
 20
388.1124081384439
 30
0.0
 40
7.999970000000001
100
AcDbArc
 50
96.36374300000114
 51
169.2802370000012
  0
ARC
  5
42E
330
1B
100
AcDbEntity
  8
4
100
AcDbCircle
 10
671.2715763997626
 20
394.8423881384439
 30
0.0
 40
10.00007
100
AcDbArc
 50
280.0416049999998
 51
349.9611419999999
  0
ARC
  5
42F
330
1B
100
AcDbEntity
  8
4
100
AcDbCircle
 10
678.0015563997626
 20
372.775983138444
 30
0.0
 40
7.999970000000001
100
AcDbArc
 50
100.7197620000003
 51
173.6362489999999
  0
ARC
  5
430
330
1B
100
AcDbEntity
  8
4
100
AcDbCircle
 10
385.7127363997629
 20
445.400983138444
 30
0.0
 40
300.000015
100
AcDbArc
 50
349.961123
 51
10.04034900000001
  0
ARC
  5
431
330
1B
100
AcDbEntity
  8
4
100
AcDbCircle
 10
390.7127363997629
 20
445.400983138444
 30
0.0
 40
299.99991
100
AcDbArc
 50
349.113219
 51
10.88829900000003
  0
LINE
  5
432
330
1B
100
AcDbEntity
  8
4
100
AcDbLine
 10
692.4512613997626
 20
396.0630931384439
 30
0.0
 11
771.8904713997631
 21
404.9224681384439
 31
0.0
  0
LINE
  5
433
330
1B
100
AcDbEntity
  8
4
100
AcDbLine
 10
692.4512613997626
 20
494.739358138444
 30
0.0
 11
771.8904713997631
 21
485.879983138444
 31
0.0
  0
ARC
  5
434
330
1B
100
AcDbEntity
  8
4
100
AcDbCircle
 10
790.5982663997629
 20
275.516023138444
 30
0.0
 40
5.0
100
AcDbArc
 50
284.169553
 51
345.8304949999996
  0
ARC
  5
435
330
1B
100
AcDbEntity
  8
4
100
AcDbCircle
 10
796.7127363997629
 20
262.4012231384439
 30
0.0
 40
3.0
100
AcDbArc
 50
90.0
 51
180.0
  0
LINE
  5
436
330
1B
100
AcDbEntity
  8
4
100
AcDbLine
 10
804.5079013997629
 20
265.401223138444
 30
0.0
 11
796.7127363997629
 21
265.401223138444
 31
0.0
  0
ARC
  5
437
330
1B
100
AcDbEntity
  8
4
100
AcDbCircle
 10
670.1360763997627
 20
293.2259331384439
 30
0.0
 40
9.000065000000001
100
AcDbArc
 50
173.636291
 51
287.9955550000017
  0
LINE
  5
438
330
1B
100
AcDbEntity
  8
4
100
AcDbLine
 10
640.7127363997629
 20
250.401223138444
 30
0.0
 11
640.7127363997629
 21
235.401223138444
 31
0.0
  0
LINE
  5
439
330
1B
100
AcDbEntity
  8
4
100
AcDbLine
 10
636.301116399763
 20
226.4012231384439
 30
0.0
 11
636.301116399763
 21
244.4012231384439
 31
0.0
  0
LWPOLYLINE
  5
43A
330
1B
100
AcDbEntity
  8
4
100
AcDbPolyline
 90
       15
 70
     0
 43
0.0
 10
683.4544413997628
 20
241.003643138444
 10
685.8768713997629
 20
239.316773138444
 10
690.0000013997628
 20
236.7490231384439
 10
694.7756863997629
 20
234.181278138444
 10
700.4354013997631
 20
231.6135281384439
 10
707.4271313997629
 20
229.045778138444
 10
716.8966263997631
 20
226.478028138444
 10
740.7089313997626
 20
223.9102781384439
 10
764.5212313997631
 20
226.478013138444
 10
773.9907313997628
 20
229.0457581384439
 10
780.9824663997629
 20
231.6135031384439
 10
786.6421813997626
 20
234.1812481384439
 10
791.4178663997627
 20
236.748993138444
 10
795.5409963997631
 20
239.316738138444
 10
797.9678113997629
 20
241.006793138444
  0
ARC
  5
43B
330
1B
100
AcDbEntity
  8
4
100
AcDbCircle
 10
620.7124913997627
 20
948.4014681384438
 30
0.0
 40
699.0
100
AcDbArc
 50
271.637765
 51
284.169553
  0
LINE
  5
43C
330
1B
100
AcDbEntity
  8
4
100
AcDbLine
 10
670.0508713997629
 20
373.6626981384438
 30
0.0
 11
661.191741399763
 21
294.2234931384439
 31
0.0
  0
ARC
  5
43D
330
1B
100
AcDbEntity
  8
4
100
AcDbCircle
 10
563.4238568833584
 20
518.0263778823203
 30
0.0
 40
8.0
100
AcDbArc
 50
280.7196066720562
 51
353.6365031641347
  0
ARC
  5
43E
330
1B
100
AcDbEntity
  8
4
100
AcDbCircle
 10
565.9334413997626
 20
500.180523138444
 30
0.0
 40
10.000085
100
AcDbArc
 50
100.8880089999974
 51
169.11199
  0
ARC
  5
43F
330
1B
100
AcDbEntity
  8
4
100
AcDbCircle
 10
548.0877363997629
 20
502.690043138444
 30
0.0
 40
7.999944999999999
100
AcDbArc
 50
276.3637510000001
 51
349.2819549999995
  0
ARC
  5
440
330
1B
100
AcDbEntity
  8
4
100
AcDbCircle
 10
570.1539013997631
 20
495.960063138444
 30
0.0
 40
10.00007
100
AcDbArc
 50
100.0402290000017
 51
169.9597650000006
  0
ARC
  5
441
330
1B
100
AcDbEntity
  8
4
100
AcDbCircle
 10
620.7127363997629
 20
215.4012231384439
 30
0.0
 40
300.00001
100
AcDbArc
 50
90.0
 51
100.888391
  0
ARC
  5
442
330
1B
100
AcDbEntity
  8
4
100
AcDbCircle
 10
620.7127363997629
 20
210.4012231384439
 30
0.0
 40
299.999975
100
AcDbArc
 50
90.0
 51
100.040349
  0
ARC
  5
443
330
1B
100
AcDbEntity
  8
4
100
AcDbCircle
 10
563.423921399763
 20
372.775983138444
 30
0.0
 40
7.999970000000001
100
AcDbArc
 50
6.363751000000086
 51
79.28023799999973
  0
ARC
  5
444
330
1B
100
AcDbEntity
  8
4
100
AcDbCircle
 10
565.9334413997626
 20
390.621928138444
 30
0.0
 40
10.000085
100
AcDbArc
 50
190.8880099999999
 51
259.1119910000025
  0
ARC
  5
445
330
1B
100
AcDbEntity
  8
4
100
AcDbCircle
 10
570.1539013997631
 20
394.8423881384439
 30
0.0
 40
10.00007
100
AcDbArc
 50
190.0402349999994
 51
259.9597709999982
  0
ARC
  5
446
330
1B
100
AcDbEntity
  8
4
100
AcDbCircle
 10
548.0874913997627
 20
388.1124081384439
 30
0.0
 40
7.999970000000001
100
AcDbArc
 50
10.71976200000027
 51
83.63624899999913
  0
ARC
  5
447
330
1B
100
AcDbEntity
  8
4
100
AcDbCircle
 10
620.7127363997629
 20
675.401223138444
 30
0.0
 40
299.999955
100
AcDbArc
 50
259.11246
 51
270.001072
  0
ARC
  5
448
330
1B
100
AcDbEntity
  8
4
100
AcDbCircle
 10
620.7127363997629
 20
680.401223138444
 30
0.0
 40
299.999995
100
AcDbArc
 50
259.96041
 51
270.001072
  0
ARC
  5
449
330
1B
100
AcDbEntity
  8
4
100
AcDbCircle
 10
850.7127363997629
 20
445.400983138444
 30
0.0
 40
300.00004
100
AcDbArc
 50
169.112515
 51
190.888107
  0
ARC
  5
44A
330
1B
100
AcDbEntity
  8
4
100
AcDbCircle
 10
855.7127363997629
 20
445.400983138444
 30
0.0
 40
299.99997
100
AcDbArc
 50
169.9604100000001
 51
190.040349
  0
ARC
  5
44B
330
1B
100
AcDbEntity
  8
4
100
AcDbCircle
 10
468.5374463997628
 20
494.824563138444
 30
0.0
 40
8.999965
100
AcDbArc
 50
162.0088830000003
 51
276.3652519999999
  0
ARC
  5
44C
330
1B
100
AcDbEntity
  8
4
100
AcDbCircle
 10
468.5374463997628
 20
395.977888138444
 30
0.0
 40
8.99999
100
AcDbArc
 50
83.6362910000007
 51
197.9925999999999
  0
LINE
  5
44D
330
1B
100
AcDbEntity
  8
4
100
AcDbLine
 10
548.9742113997631
 20
396.0630931384439
 30
0.0
 11
469.5350013997627
 21
404.9224681384439
 31
0.0
  0
LINE
  5
44E
330
1B
100
AcDbEntity
  8
4
100
AcDbLine
 10
548.9742113997631
 20
494.739358138444
 30
0.0
 11
469.5350013997627
 21
485.879983138444
 31
0.0
  0
ARC
  5
44F
330
1B
100
AcDbEntity
  8
4
100
AcDbCircle
 10
571.2893963997626
 20
293.2259331384439
 30
0.0
 40
9.000024999999999
100
AcDbArc
 50
252.0059280000004
 51
6.363709000000037
  0
LINE
  5
450
330
1B
100
AcDbEntity
  8
4
100
AcDbLine
 10
600.7127363997629
 20
250.401223138444
 30
0.0
 11
600.7127363997629
 21
235.401223138444
 31
0.0
  0
LINE
  5
451
330
1B
100
AcDbEntity
  8
4
100
AcDbLine
 10
620.7127363997629
 20
253.4012231384439
 30
0.0
 11
605.1241163997629
 21
244.4012231384439
 31
0.0
  0
LINE
  5
452
330
1B
100
AcDbEntity
  8
4
100
AcDbLine
 10
605.1241163997629
 20
226.4012231384439
 30
0.0
 11
620.7127363997629
 21
217.4012231384439
 31
0.0
  0
LINE
  5
453
330
1B
100
AcDbEntity
  8
4
100
AcDbLine
 10
605.1241163997629
 20
226.4012231384439
 30
0.0
 11
605.1241163997629
 21
244.4012231384439
 31
0.0
  0
LINE
  5
454
330
1B
100
AcDbEntity
  8
4
100
AcDbLine
 10
571.3746013997629
 20
373.6626981384438
 30
0.0
 11
580.2337313997627
 21
294.2234931384439
 31
0.0
  0
ARC
  5
455
330
1B
100
AcDbEntity
  8
4
100
AcDbCircle
 10
620.7127363997629
 20
235.401223138444
 30
0.0
 40
20.0
100
AcDbArc
 50
180.0
 51
0.0
  0
LINE
  5
456
330
1B
100
AcDbEntity
  8
4
100
AcDbLine
 10
620.7127363997629
 20
217.4012231384439
 30
0.0
 11
636.301116399763
 21
226.4012231384439
 31
0.0
  0
CIRCLE
  5
457
330
1B
100
AcDbEntity
  8
4
100
AcDbCircle
 10
620.7127363997629
 20
235.401223138444
 30
0.0
 40
18.0
  0
ARC
  5
458
330
1B
100
AcDbEntity
  8
4
100
AcDbCircle
 10
620.7127363997629
 20
675.401223138444
 30
0.0
 40
300.000065
100
AcDbArc
 50
270.001212
 51
280.889241
  0
ARC
  5
459
330
1B
100
AcDbEntity
  8
4
100
AcDbCircle
 10
620.7127363997629
 20
680.401223138444
 30
0.0
 40
300.00004
100
AcDbArc
 50
270.001212
 51
280.041292
  0
ARC
  5
45A
330
1B
100
AcDbEntity
  8
4
100
AcDbCircle
 10
620.7127363997629
 20
235.401223138444
 30
0.0
 40
25.0
100
AcDbArc
 50
36.86989800000043
 51
143.1301019999996
  0
LINE
  5
45B
330
1B
100
AcDbEntity
  8
4
100
AcDbLine
 10
636.301116399763
 20
244.4012231384439
 30
0.0
 11
620.7127363997629
 21
253.4012231384439
 31
0.0
  0
LINE
  5
45C
330
1B
100
AcDbEntity
  8
L-CENTER
100
AcDbLine
 10
594.844086399763
 20
235.401223138444
 30
0.0
 11
646.5813863997628
 21
235.401223138444
 31
0.0
  0
ARC
  5
45D
330
1B
100
AcDbEntity
  8
4
100
AcDbCircle
 10
620.7127363997629
 20
215.4012231384439
 30
0.0
 40
300.00004
100
AcDbArc
 50
79.111801
 51
90.0
  0
ARC
  5
45E
330
1B
100
AcDbEntity
  8
4
100
AcDbCircle
 10
620.7127363997629
 20
210.4012231384439
 30
0.0
 40
299.999955
100
AcDbArc
 50
79.959697
 51
90.0
  0
ARC
  5
45F
330
1B
100
AcDbEntity
  8
4
100
AcDbCircle
 10
797.7127363997629
 20
154.4012231384439
 30
0.0
 40
3.0
100
AcDbArc
 50
0.0
 51
90.0
  0
LINE
  5
460
330
1B
100
AcDbEntity
  8
4
100
AcDbLine
 10
800.7127363997629
 20
115.4012231384439
 30
0.0
 11
800.7127363997629
 21
157.4012231384439
 31
0.0
  0
LINE
  5
461
330
1B
100
AcDbEntity
  8
4
100
AcDbLine
 10
751.7127363997629
 20
157.4012231384439
 30
0.0
 11
751.7127363997629
 21
115.4012231384439
 31
0.0
  0
LINE
  5
462
330
1B
100
AcDbEntity
  8
4
100
AcDbLine
 10
729.7127363997629
 20
157.4012231384439
 30
0.0
 11
729.7127363997629
 21
115.4012231384439
 31
0.0
  0
LINE
  5
464
330
1B
100
AcDbEntity
  8
L-CENTER
100
AcDbLine
 10
740.7127363997629
 20
175.4012231384439
 30
0.0
 11
740.7127363997629
 21
97.40122313844392
 31
0.0
  0
ARC
  5
465
330
1B
100
AcDbEntity
  8
4
100
AcDbCircle
 10
695.7127363997629
 20
162.4012231384439
 30
0.0
 40
5.0
100
AcDbArc
 50
180.0
 51
270.0
  0
ARC
  5
466
330
1B
100
AcDbEntity
  8
4
100
AcDbCircle
 10
687.7127363997629
 20
129.4012231384439
 30
0.0
 40
3.0
100
AcDbArc
 50
0.0
 51
90.0
  0
ARC
  5
467
330
1B
100
AcDbEntity
  8
4
100
AcDbCircle
 10
682.7127363997629
 20
129.4012231384439
 30
0.0
 40
3.0
100
AcDbArc
 50
0.0
 51
90.0
  0
LINE
  5
468
330
1B
100
AcDbEntity
  8
4
100
AcDbLine
 10
690.7127363997629
 20
115.4012231384439
 30
0.0
 11
690.7127363997629
 21
129.4012231384439
 31
0.0
  0
LINE
  5
469
330
1B
100
AcDbEntity
  8
4
100
AcDbLine
 10
685.7127363997629
 20
115.4012231384439
 30
0.0
 11
685.7127363997629
 21
129.4012231384439
 31
0.0
  0
LWPOLYLINE
  5
46A
330
1B
100
AcDbEntity
  8
4
100
AcDbPolyline
 90
       30
 70
     0
 43
0.0
 10
708.6178513997629
 20
157.894243138444
 10
709.4324313997627
 20
157.1230931384439
 10
710.2359263997628
 20
156.350548138444
 10
711.017241399763
 20
155.5752231384439
 10
713.1172513997631
 20
153.218663138444
 10
714.618496399763
 20
150.787008138444
 10
714.9341063997631
 20
149.953278138444
 10
715.1388313997627
 20
149.1056481384439
 10
715.221586399763
 20
148.2427181384439
 10
715.178531399763
 20
147.382613138444
 10
715.0258463997629
 20
146.5080731384439
 10
714.781316399763
 20
145.6206431384439
 10
713.674551399763
 20
142.8964081384439
 10
712.3815313997629
 20
140.111673138444
 10
711.3825163997631
 20
137.308088138444
 10
711.1978513997628
 20
136.3765731384439
 10
711.117001399763
 20
135.4491281384439
 10
711.1577513997631
 20
134.527308138444
 10
711.4587863997626
 20
133.1717481384439
 10
711.994556399763
 20
131.831543138444
 10
712.6926763997631
 20
130.506253138444
 10
715.0373613997631
 20
126.6156181384439
 10
715.6610913997629
 20
125.3457181384439
 10
716.0852713997629
 20
124.0885881384439
 10
716.2375163997626
 20
122.8438031384439
 10
715.9744063997628
 20
121.297348138444
 10
715.2771263997629
 20
119.765913138444
 10
714.254226399763
 20
118.2457431384439
 10
713.0142413997628
 20
116.7330881384439
 10
711.6657163997629
 20
115.2241831384439
  0
LINE
  5
46B
330
1B
100
AcDbEntity
  8
4
100
AcDbLine
 10
685.7127363997629
 20
115.4012231384439
 30
0.0
 11
800.7127363997629
 21
115.4012231384439
 31
0.0
  0
LINE
  5
46C
330
1B
100
AcDbEntity
  8
4
100
AcDbLine
 10
695.7127363997629
 20
157.4012231384439
 30
0.0
 11
797.7127363997629
 21
157.4012231384439
 31
0.0
  0
LINE
  5
471
330
1B
100
AcDbEntity
  8
4
100
AcDbLine
 10
626.640941399763
 20
156.9785731384439
 30
0.0
 11
626.640941399763
 21
163.8238731384439
 31
0.0
  0
LINE
  5
472
330
1B
100
AcDbEntity
  8
4
100
AcDbLine
 10
620.7127363997629
 20
167.2465231384439
 30
0.0
 11
614.7845363997626
 21
163.8238731384439
 31
0.0
  0
LINE
  5
473
330
1B
100
AcDbEntity
  8
4
100
AcDbLine
 10
614.7845363997626
 20
156.9785731384439
 30
0.0
 11
620.7127363997629
 21
153.555928138444
 31
0.0
  0
LINE
  5
474
330
1B
100
AcDbEntity
  8
4
100
AcDbLine
 10
614.7845363997626
 20
163.8238731384439
 30
0.0
 11
614.7845363997626
 21
156.9785731384439
 31
0.0
  0
LINE
  5
475
330
1B
100
AcDbEntity
  8
4
100
AcDbLine
 10
626.640941399763
 20
163.8238731384439
 30
0.0
 11
620.7127363997629
 21
167.2465231384439
 31
0.0
  0
LINE
  5
476
330
1B
100
AcDbEntity
  8
4
100
AcDbLine
 10
620.7127363997629
 20
153.555928138444
 30
0.0
 11
626.640941399763
 21
156.9785731384439
 31
0.0
  0
CIRCLE
  5
477
330
1B
100
AcDbEntity
  8
2
100
AcDbCircle
 10
620.7127363997629
 20
160.4012231384439
 30
0.0
 40
8.0
  0
ARC
  5
478
330
1B
100
AcDbEntity
  8
4
100
AcDbCircle
 10
545.7127363997629
 20
162.4012231384439
 30
0.0
 40
5.0
100
AcDbArc
 50
270.0
 51
0.0
  0
ARC
  5
479
330
1B
100
AcDbEntity
  8
4
100
AcDbCircle
 10
558.7127363997629
 20
129.4012231384439
 30
0.0
 40
3.0
100
AcDbArc
 50
90.0
 51
180.0
  0
LINE
  5
47A
330
1B
100
AcDbEntity
  8
4
100
AcDbLine
 10
555.7127363997629
 20
115.4012231384439
 30
0.0
 11
555.7127363997629
 21
129.4012231384439
 31
0.0
  0
LINE
  5
47B
330
1B
100
AcDbEntity
  8
4
100
AcDbLine
 10
550.7127363997629
 20
115.4012231384439
 30
0.0
 11
550.7127363997629
 21
129.4012231384439
 31
0.0
  0
ARC
  5
47C
330
1B
100
AcDbEntity
  8
4
100
AcDbCircle
 10
553.7127363997629
 20
129.4012231384439
 30
0.0
 40
3.0
100
AcDbArc
 50
90.0
 51
180.0
  0
LINE
  5
47D
330
1B
100
AcDbEntity
  8
4
100
AcDbLine
 10
620.7127363997629
 20
132.4012231384439
 30
0.0
 11
553.7127363997629
 21
132.4012231384439
 31
0.0
  0
LINE
  5
47E
330
1B
100
AcDbEntity
  8
L-CENTER
100
AcDbLine
 10
500.7127363997629
 20
175.4012231384439
 30
0.0
 11
500.7127363997629
 21
97.40122313844392
 31
0.0
  0
CIRCLE
  5
485
330
1B
100
AcDbEntity
  8
4
100
AcDbCircle
 10
620.7127363997629
 20
160.4012231384439
 30
0.0
 40
15.0
  0
LINE
  5
486
330
1B
100
AcDbEntity
  8
L-CENTER
100
AcDbLine
 10
642.0179113997629
 20
160.4012231384439
 30
0.0
 11
599.4075613997629
 21
160.4012231384439
 31
0.0
  0
LINE
  5
487
330
1B
100
AcDbEntity
  8
4
100
AcDbLine
 10
620.7127363997629
 20
132.4012231384439
 30
0.0
 11
687.7127363997629
 21
132.4012231384439
 31
0.0
  0
LINE
  5
48B
330
1B
100
AcDbEntity
  8
4
100
AcDbLine
 10
690.7127363997629
 20
235.3902381384439
 30
0.0
 11
690.7127363997629
 21
162.4012231384439
 31
0.0
  0
LINE
  5
48C
330
1B
100
AcDbEntity
  8
4
100
AcDbLine
 10
680.7127363997629
 20
250.401223138444
 30
0.0
 11
680.7127363997629
 21
132.4012231384439
 31
0.0
  0
LINE
  5
48D
330
1B
100
AcDbEntity
  8
4
100
AcDbLine
 10
793.7127363997629
 20
262.4012231384439
 30
0.0
 11
793.7127363997629
 21
160.4012231384439
 31
0.0
  0
LINE
  5
48E
330
1B
100
AcDbEntity
  8
4
100
AcDbLine
 10
560.7127363997629
 20
250.401223138444
 30
0.0
 11
560.7127363997629
 21
132.4012231384439
 31
0.0
  0
LINE
  5
48F
330
1B
100
AcDbEntity
  8
4
100
AcDbLine
 10
800.7127363997629
 20
157.4012231384439
 30
0.0
 11
806.1873463997631
 21
245.401223138444
 31
0.0
  0
LINE
  5
490
330
1B
100
AcDbEntity
  8
4
100
AcDbLine
 10
550.7127363997629
 20
235.3902381384439
 30
0.0
 11
550.7127363997629
 21
162.4012231384439
 31
0.0
  0
LINE
  5
491
330
1B
100
AcDbEntity
  8
4
100
AcDbLine
 10
605.7127363997629
 20
222.1724681384439
 30
0.0
 11
605.7127363997629
 21
132.4012231384439
 31
0.0
  0
LINE
  5
492
330
1B
100
AcDbEntity
  8
4
100
AcDbLine
 10
635.7127363997629
 20
222.1724681384439
 30
0.0
 11
635.7127363997629
 21
132.4012231384439
 31
0.0
  0
ARC
  5
493
330
1B
100
AcDbEntity
  8
4
100
AcDbCircle
 10
808.8411563997629
 20
152.4012231384439
 30
0.0
 40
8.00003
100
AcDbArc
 50
90.0
 51
176.702223
  0
ARC
  5
497
330
1B
100
AcDbEntity
  8
4
100
AcDbCircle
 10
804.5079013997629
 20
268.4012231384439
 30
0.0
 40
3.000045
100
AcDbArc
 50
270.0
 51
356.701723
  0
LINE
  5
4B5
330
1B
100
AcDbEntity
  8
4
100
AcDbLine
 10
427.7127363997629
 20
330.401223138444
 30
0.0
 11
414.9128363997629
 21
330.4012231384442
 31
0.0
  0
LINE
  5
4B6
330
1B
100
AcDbEntity
  8
4
100
AcDbLine
 10
430.3396913997626
 20
330.401223138444
 30
0.0
 11
427.7127363997629
 21
330.401223138444
 31
0.0
  0
ARC
  5
4B7
330
1B
100
AcDbEntity
  8
4
100
AcDbCircle
 10
414.9128363997629
 20
329.4012231384442
 30
0.0
 40
1.0
100
AcDbArc
 50
90.0
 51
180.0
  0
LINE
  5
4B8
330
1B
100
AcDbEntity
  8
4
100
AcDbLine
 10
411.4128363997629
 20
286.8516535622199
 30
0.0
 11
411.4128363997629
 21
306.4815627146673
 31
0.0
  0
LINE
  5
4B9
330
1B
100
AcDbEntity
  8
4
100
AcDbLine
 10
413.9128363997629
 20
286.8516535622199
 30
0.0
 11
413.9128363997629
 21
306.4815627146673
 31
0.0
  0
LINE
  5
4BA
330
1B
100
AcDbEntity
  8
4
100
AcDbLine
 10
404.4128363997629
 20
304.0278240706112
 30
0.0
 11
404.4128363997629
 21
289.305392206276
 31
0.0
  0
ARC
  5
4BB
330
1B
100
AcDbEntity
  8
4
100
AcDbCircle
 10
418.1920016972222
 20
296.6666081384438
 30
0.0
 40
13.77916529745958
100
AcDbArc
 50
159.1359356360801
 51
200.8640643639194
  0
ARC
  5
4BC
330
1B
100
AcDbEntity
  8
4
100
AcDbCircle
 10
408.1964503288223
 20
289.305392206276
 30
0.0
 40
3.783613929059507
100
AcDbArc
 50
139.5701031551704
 51
220.4298968448296
  0
ARC
  5
4BD
330
1B
100
AcDbEntity
  8
4
100
AcDbCircle
 10
408.1964503288223
 20
304.0278240706112
 30
0.0
 40
3.783613929059507
100
AcDbArc
 50
139.5701031551704
 51
220.4298968448296
  0
LINE
  5
4BE
330
1B
100
AcDbEntity
  8
L-CENTER
100
AcDbLine
 10
398.9279425318878
 20
296.666608138444
 30
0.0
 11
443.4435675318882
 21
296.666608138444
 31
0.0
  0
LINE
  5
4BF
330
1B
100
AcDbEntity
  8
4
100
AcDbLine
 10
413.9128363997629
 20
306.4815627146673
 30
0.0
 11
405.3163633456156
 21
306.4815627146673
 31
0.0
  0
LINE
  5
4C0
330
1B
100
AcDbEntity
  8
4
100
AcDbLine
 10
405.3163633456156
 20
286.8516535622199
 30
0.0
 11
413.9128363997629
 21
286.8516535622199
 31
0.0
  0
LINE
  5
4C1
330
1B
100
AcDbEntity
  8
4
100
AcDbLine
 10
405.3163633456156
 20
291.7591308503316
 30
0.0
 11
411.4128363997629
 21
291.7591308503316
 31
0.0
  0
LINE
  5
4C2
330
1B
100
AcDbEntity
  8
4
100
AcDbLine
 10
405.3163633456156
 20
301.5740854265556
 30
0.0
 11
411.4128363997629
 21
301.5740854265556
 31
0.0
  0
ARC
  5
4C3
330
1B
100
AcDbEntity
  8
4
100
AcDbCircle
 10
436.9175713997629
 20
268.4012231384439
 30
0.0
 40
3.000045
100
AcDbArc
 50
183.2982770000002
 51
270.0
  0
ARC
  5
4C4
330
1B
100
AcDbEntity
  8
4
100
AcDbCircle
 10
450.8271463997626
 20
275.5159931384439
 30
0.0
 40
5.0
100
AcDbArc
 50
194.1695060000015
 51
255.830443
  0
ARC
  5
4C5
330
1B
100
AcDbEntity
  8
4
100
AcDbCircle
 10
444.7127363997629
 20
262.4012231384439
 30
0.0
 40
3.0
100
AcDbArc
 50
0.0
 51
90.0
  0
LINE
  5
4C6
330
1B
100
AcDbEntity
  8
4
100
AcDbLine
 10
436.9175713997629
 20
265.401223138444
 30
0.0
 11
444.7127363997629
 21
265.401223138444
 31
0.0
  0
ARC
  5
4C7
330
1B
100
AcDbEntity
  8
4
100
AcDbCircle
 10
408.1964503288223
 20
201.4970590706112
 30
0.0
 40
3.783613929059507
100
AcDbArc
 50
139.5701031551777
 51
220.4298968448223
  0
LINE
  5
4C8
330
1B
100
AcDbEntity
  8
L-CENTER
100
AcDbLine
 10
398.9279425318878
 20
194.1358431384439
 30
0.0
 11
443.4435675318882
 21
194.1358431384439
 31
0.0
  0
LINE
  5
4C9
330
1B
100
AcDbEntity
  8
4
100
AcDbLine
 10
405.3163633456156
 20
199.0433204265555
 30
0.0
 11
411.4128363997629
 21
199.0433204265555
 31
0.0
  0
LINE
  5
4CA
330
1B
100
AcDbEntity
  8
4
100
AcDbLine
 10
413.9128363997629
 20
203.9507977146673
 30
0.0
 11
405.3163633456156
 21
203.9507977146673
 31
0.0
  0
LINE
  5
4CB
330
1B
100
AcDbEntity
  8
4
100
AcDbLine
 10
433.922696399763
 20
268.2286181384439
 30
0.0
 11
426.888241399763
 21
390.295573138444
 31
0.0
  0
ARC
  5
4CC
330
1B
100
AcDbEntity
  8
4
100
AcDbCircle
 10
443.7127363997629
 20
154.4012231384439
 30
0.0
 40
3.0
100
AcDbArc
 50
90.0
 51
180.0
  0
ARC
  5
4CD
330
1B
100
AcDbEntity
  8
4
100
AcDbCircle
 10
414.9128363997629
 20
161.4012231384439
 30
0.0
 40
1.0
100
AcDbArc
 50
180.0
 51
270.0
  0
LINE
  5
4CE
330
1B
100
AcDbEntity
  8
4
100
AcDbLine
 10
432.7127363997629
 20
160.4012231384439
 30
0.0
 11
414.9128363997629
 21
160.4012231384439
 31
0.0
  0
LINE
  5
4CF
330
1B
100
AcDbEntity
  8
4
100
AcDbLine
 10
432.5843213997628
 20
160.4012231384439
 30
0.0
 11
427.7127363997629
 21
160.4012231384439
 31
0.0
  0
LINE
  5
4D0
330
1B
100
AcDbEntity
  8
4
100
AcDbLine
 10
440.7127363997629
 20
115.4012231384439
 30
0.0
 11
440.7127363997629
 21
152.4012231384439
 31
0.0
  0
ARC
  5
4D1
330
1B
100
AcDbEntity
  8
4
100
AcDbCircle
 10
432.7127363997629
 20
152.4012231384439
 30
0.0
 40
8.0
100
AcDbArc
 50
0.0
 51
90.0
  0
ARC
  5
4D2
330
1B
100
AcDbEntity
  8
4
100
AcDbCircle
 10
408.1964503288223
 20
186.7746272062759
 30
0.0
 40
3.783613929059507
100
AcDbArc
 50
139.5701031551777
 51
220.4298968448223
  0
LINE
  5
4D3
330
1B
100
AcDbEntity
  8
4
100
AcDbLine
 10
405.3163633456156
 20
189.2283658503316
 30
0.0
 11
411.4128363997629
 21
189.2283658503316
 31
0.0
  0
LINE
  5
4D4
330
1B
100
AcDbEntity
  8
4
100
AcDbLine
 10
405.3163633456156
 20
184.3208885622198
 30
0.0
 11
413.9128363997629
 21
184.3208885622198
 31
0.0
  0
LINE
  5
4D8
330
1B
100
AcDbEntity
  8
4
100
AcDbLine
 10
447.7127363997629
 20
262.4012231384439
 30
0.0
 11
447.7127363997629
 21
160.4012231384439
 31
0.0
  0
LINE
  5
4D9
330
1B
100
AcDbEntity
  8
4
100
AcDbLine
 10
440.8446413997631
 20
155.2810031384439
 30
0.0
 11
435.2381263997627
 21
245.401223138444
 31
0.0
  0
LINE
  5
4DA
330
1B
100
AcDbEntity
  8
4
100
AcDbLine
 10
447.7127363997629
 20
262.4012231384439
 30
0.0
 11
447.7127363997629
 21
160.4012231384439
 31
0.0
  0
LINE
  5
4DB
330
1B
100
AcDbEntity
  8
4
100
AcDbLine
 10
427.4127363997627
 20
160.4012231384439
 30
0.0
 11
427.4127363997627
 21
330.401223138444
 31
0.0
  0
LINE
  5
4DC
330
1B
100
AcDbEntity
  8
4
100
AcDbLine
 10
427.7127363997629
 20
160.4012231384439
 30
0.0
 11
427.7127363997629
 21
330.401223138444
 31
0.0
  0
LINE
  5
4DD
330
1B
100
AcDbEntity
  8
4
100
AcDbLine
 10
413.9128363997629
 20
329.4012231384442
 30
0.0
 11
413.9128363997629
 21
161.4012231384439
 31
0.0
  0
LINE
  5
4DE
330
1B
100
AcDbEntity
  8
4
100
AcDbLine
 10
427.7127363997629
 20
160.4012231384439
 30
0.0
 11
427.7127363997629
 21
330.401223138444
 31
0.0
  0
ARC
  5
4DF
330
1B
100
AcDbEntity
  8
4
100
AcDbCircle
 10
418.1920016972222
 20
194.1358431384438
 30
0.0
 40
13.77916529745958
100
AcDbArc
 50
159.1359356360801
 51
200.8640643639194
  0
LINE
  5
4E0
330
1B
100
AcDbEntity
  8
4
100
AcDbLine
 10
404.4128363997629
 20
201.4970590706112
 30
0.0
 11
404.4128363997629
 21
186.7746272062759
 31
0.0
  0
LINE
  5
4E1
330
1B
100
AcDbEntity
  8
4
100
AcDbLine
 10
413.9128363997629
 20
184.3208885622198
 30
0.0
 11
413.9128363997629
 21
203.9507977146673
 31
0.0
  0
LINE
  5
4E2
330
1B
100
AcDbEntity
  8
4
100
AcDbLine
 10
411.4128363997629
 20
184.3208885622198
 30
0.0
 11
411.4128363997629
 21
203.9507977146673
 31
0.0
  0
LWPOLYLINE
  5
505
330
1B
100
AcDbEntity
  8
4
100
AcDbPolyline
 90
       15
 70
     0
 43
0.0
 10
443.4604913997628
 20
241.007818138444
 10
445.8827213997629
 20
239.3210831384439
 10
450.0054113997626
 20
236.753608138444
 10
454.7805863997628
 20
234.1861331384439
 10
460.4396963997629
 20
231.6186581384439
 10
467.4306813997628
 20
229.051183138444
 10
476.899171399763
 20
226.4837081384439
 10
500.7089313997626
 20
223.916228138444
 10
524.5186913997627
 20
226.483693138444
 10
533.9871813997629
 20
229.0511631384439
 10
540.9781663997628
 20
231.618633138444
 10
546.6372813997627
 20
234.186103138444
 10
551.412456399763
 20
236.7535731384439
 10
555.5351463997627
 20
239.321048138444
 10
557.961761399763
 20
241.0109631384439
  0
LINE
  5
506
330
1B
100
AcDbEntity
  8
4
100
AcDbLine
 10
545.7127363997629
 20
157.4012231384439
 30
0.0
 11
443.7127363997629
 21
157.4012231384439
 31
0.0
  0
LINE
  5
507
330
1B
100
AcDbEntity
  8
4
100
AcDbLine
 10
555.7127363997629
 20
115.4012231384439
 30
0.0
 11
440.7127363997629
 21
115.4012231384439
 31
0.0
  0
LINE
  5
509
330
1B
100
AcDbEntity
  8
L-CENTER
100
AcDbLine
 10
825.9567010881087
 20
445.401223138444
 30
0.0
 11
415.468771711417
 21
445.401223138444
 31
0.0
  0
ARC
  5
50A
330
1B
100
AcDbEntity
  8
4
100
AcDbCircle
 10
620.7129813997631
 20
948.4014681384438
 30
0.0
 40
699.0000450000001
100
AcDbArc
 50
255.830443
 51
268.363055
  0
LINE
  5
50B
330
1B
100
AcDbEntity
  8
L-CENTER
100
AcDbLine
 10
949.7793083295421
 20
245.401223138444
 30
0.0
 11
408.2818674415324
 21
245.4012231384442
 31
0.0
  0
LINE
  5
50C
330
1B
100
AcDbEntity
  8
L-CENTER
100
AcDbLine
 10
620.7127363997629
 20
121.9794405551554
 30
0.0
 11
620.7127363997629
 21
718.8887731384439
 31
0.0
  0
CIRCLE
  5
50D
330
1B
100
AcDbEntity
  8
4
100
AcDbCircle
 10
620.7127363997629
 20
445.401223138444
 30
0.0
 40
169.0
  0
ARC
  5
50E
330
1B
100
AcDbEntity
  8
4
100
AcDbCircle
 10
620.7127363997629
 20
445.401223138444
 30
0.0
 40
194.000075
100
AcDbArc
 50
275.4555699999999
 51
264.5454419999999
  0
ARC
  5
50F
330
1B
100
AcDbEntity
  8
4
100
AcDbCircle
 10
1123.712736399763
 20
445.401223138444
 30
0.0
 40
699.00001
100
AcDbArc
 50
165.830496
 51
194.169506
  0
ARC
  5
511
330
1B
100
AcDbEntity
  8
4
100
AcDbCircle
 10
117.7127363997629
 20
445.401223138444
 30
0.0
 40
698.9999399999999
100
AcDbArc
 50
345.830495
 51
14.16950899999999
  0
LINE
  5
513
330
1B
100
AcDbEntity
  8
4
100
AcDbLine
 10
670.0509060411787
 20
517.1396916448293
 30
0.0
 11
669.0801382337768
 21
525.8443414592584
 31
0.0
  0
LINE
  5
514
330
1B
100
AcDbEntity
  8
4
100
AcDbLine
 10
571.3745667583471
 20
517.1396916448293
 30
0.0
 11
572.345334565749
 21
525.8443414592584
 31
0.0
  0
LINE
  5
574
330
1B
100
AcDbEntity
  8
4
100
AcDbLine
 10
629.7127363997629
 20
996.8506216788737
 30
0.0
 11
629.7127363997629
 21
1097.850621678874
 31
0.0
  0
LINE
  5
575
330
1B
100
AcDbEntity
  8
4
100
AcDbLine
 10
654.7127363997629
 20
1115.850621678874
 30
0.0
 11
654.7127363997629
 21
997.8506216788737
 31
0.0
  0
LINE
  5
576
330
1B
100
AcDbEntity
  8
4
100
AcDbLine
 10
586.7127363997629
 20
1115.850621678874
 30
0.0
 11
586.7127363997629
 21
997.8506216788737
 31
0.0
  0
LINE
  5
577
330
1B
100
AcDbEntity
  8
4
100
AcDbLine
 10
611.7127363997629
 20
996.8506216788737
 30
0.0
 11
611.7127363997629
 21
1097.850621678874
 31
0.0
  0
LINE
  5
578
330
1B
100
AcDbEntity
  8
4
100
AcDbLine
 10
585.7127363997629
 20
1116.850621678874
 30
0.0
 11
655.7127363997629
 21
1116.850621678874
 31
0.0
  0
LINE
  5
579
330
1B
100
AcDbEntity
  8
4
100
AcDbLine
 10
670.7127363997629
 20
1125.850621678874
 30
0.0
 11
570.7127363997629
 21
1125.850621678874
 31
0.0
  0
LINE
  5
57A
330
1B
100
AcDbEntity
  8
4
100
AcDbLine
 10
585.7127363997629
 20
1125.850621678874
 30
0.0
 11
585.7127363997629
 21
1116.850621678874
 31
0.0
  0
LINE
  5
57B
330
1B
100
AcDbEntity
  8
4
100
AcDbLine
 10
570.7127363997629
 20
1125.850621678874
 30
0.0
 11
570.7127363997629
 21
1126.850621678874
 31
0.0
  0
ARC
  5
57C
330
1B
100
AcDbEntity
  8
4
100
AcDbCircle
 10
585.7127363997629
 20
1115.850621678874
 30
0.0
 40
1.0
100
AcDbArc
 50
0.0
 51
90.0
  0
ARC
  5
57D
330
1B
100
AcDbEntity
  8
4
100
AcDbCircle
 10
620.7127363997629
 20
1097.850621678874
 30
0.0
 40
9.0
100
AcDbArc
 50
0.0
 51
180.0
  0
LINE
  5
57E
330
1B
100
AcDbEntity
  8
4
100
AcDbLine
 10
655.7127363997629
 20
1125.850621678874
 30
0.0
 11
655.7127363997629
 21
1116.850621678874
 31
0.0
  0
LINE
  5
57F
330
1B
100
AcDbEntity
  8
4
100
AcDbLine
 10
670.7127363997629
 20
1125.850621678874
 30
0.0
 11
670.7127363997629
 21
1126.850621678874
 31
0.0
  0
ARC
  5
580
330
1B
100
AcDbEntity
  8
4
100
AcDbCircle
 10
655.7127363997629
 20
1115.850621678874
 30
0.0
 40
1.0
100
AcDbArc
 50
90.0
 51
180.0
  0
LINE
  5
581
330
1B
100
AcDbEntity
  8
4
100
AcDbLine
 10
629.7127363997629
 20
997.8506216788737
 30
0.0
 11
654.7127363997629
 21
997.8506216788737
 31
0.0
  0
LINE
  5
582
330
1B
100
AcDbEntity
  8
4
100
AcDbLine
 10
653.7127363997629
 20
996.8506216788737
 30
0.0
 11
587.7127363997629
 21
996.8506216788737
 31
0.0
  0
LINE
  5
583
330
1B
100
AcDbEntity
  8
4
100
AcDbLine
 10
586.7127363997629
 20
997.8506216788737
 30
0.0
 11
611.7127363997629
 21
997.8506216788737
 31
0.0
  0
LINE
  5
584
330
1B
100
AcDbEntity
  8
4
100
AcDbLine
 10
586.7127363997629
 20
997.8506216788737
 30
0.0
 11
587.7127363997629
 21
996.8506216788737
 31
0.0
  0
LINE
  5
585
330
1B
100
AcDbEntity
  8
4
100
AcDbLine
 10
654.7127363997629
 20
997.8506216788737
 30
0.0
 11
653.7127363997629
 21
996.8506216788737
 31
0.0
  0
LINE
  5
586
330
1B
100
AcDbEntity
  8
4
100
AcDbLine
 10
1373.025002573808
 20
479.401223138444
 30
0.0
 11
1254.025002573808
 21
479.401223138444
 31
0.0
  0
LINE
  5
587
330
1B
100
AcDbEntity
  8
4
100
AcDbLine
 10
1253.025002573807
 20
485.401223138444
 30
0.0
 11
1363.025002573808
 21
485.401223138444
 31
0.0
  0
LINE
  5
588
330
1B
100
AcDbEntity
  8
4
100
AcDbLine
 10
1373.025002573808
 20
411.4012231384439
 30
0.0
 11
1254.025002573808
 21
411.4012231384439
 31
0.0
  0
LINE
  5
589
330
1B
100
AcDbEntity
  8
4
100
AcDbLine
 10
1382.125247573808
 20
491.4012231384439
 30
0.0
 11
1382.125247573808
 21
399.4012231384439
 31
0.0
  0
LINE
  5
58A
330
1B
100
AcDbEntity
  8
4
100
AcDbLine
 10
1373.025002573808
 20
480.401223138444
 30
0.0
 11
1373.025002573808
 21
410.401223138444
 31
0.0
  0
LINE
  5
58B
330
1B
100
AcDbEntity
  8
4
100
AcDbLine
 10
1382.125247573808
 20
410.401223138444
 30
0.0
 11
1373.025002573808
 21
410.401223138444
 31
0.0
  0
LINE
  5
58C
330
1B
100
AcDbEntity
  8
4
100
AcDbLine
 10
1383.125247573808
 20
399.4012231384439
 30
0.0
 11
1382.125247573808
 21
399.4012231384439
 31
0.0
  0
LINE
  5
58D
330
1B
100
AcDbEntity
  8
4
100
AcDbLine
 10
1383.125247573808
 20
491.4012231384439
 30
0.0
 11
1382.125247573808
 21
491.4012231384439
 31
0.0
  0
LINE
  5
58E
330
1B
100
AcDbEntity
  8
4
100
AcDbLine
 10
1373.025002573808
 20
480.401223138444
 30
0.0
 11
1382.125247573808
 21
480.401223138444
 31
0.0
  0
LINE
  5
58F
330
1B
100
AcDbEntity
  8
4
100
AcDbLine
 10
1363.025002573808
 20
485.401223138444
 30
0.0
 11
1363.025002573808
 21
479.401223138444
 31
0.0
  0
LINE
  5
590
330
1B
100
AcDbEntity
  8
4
100
AcDbLine
 10
1254.025002573808
 20
479.401223138444
 30
0.0
 11
1254.025002573808
 21
411.4012231384439
 31
0.0
  0
LINE
  5
591
330
1B
100
AcDbEntity
  8
4
100
AcDbLine
 10
1253.025002573807
 20
485.401223138444
 30
0.0
 11
1253.025002573807
 21
412.401223138444
 31
0.0
  0
LINE
  5
592
330
1B
100
AcDbEntity
  8
4
100
AcDbLine
 10
1254.025002573808
 20
411.4012231384439
 30
0.0
 11
1253.025002573807
 21
412.401223138444
 31
0.0
  0
LINE
  5
593
330
1B
100
AcDbEntity
  8
4
100
AcDbLine
 10
1253.025002573807
 20
478.4012231384439
 30
0.0
 11
1254.025002573808
 21
479.401223138444
 31
0.0
  0
CIRCLE
  5
5AE
330
1B
100
AcDbEntity
  8
4
100
AcDbCircle
 10
620.7127363997629
 20
445.401223138444
 30
0.0
 40
45.99999999999989
  0
ARC
  5
5AF
330
1B
100
AcDbEntity
  8
4
100
AcDbCircle
 10
620.7127363997629
 20
445.4012231384443
 30
0.0
 40
33.99992
100
AcDbArc
 50
105.3495140230844
 51
74.65048599999932
  0
LINE
  5
5B0
330
1B
100
AcDbEntity
  8
4
100
AcDbLine
 10
629.7127363997629
 20
485.4012231384443
 30
0.0
 11
611.7127363997629
 21
485.4012231384443
 31
0.0
  0
LINE
  5
5B1
330
1B
100
AcDbEntity
  8
4
100
AcDbLine
 10
629.7127363997629
 20
473.4012231384443
 30
0.0
 11
611.7127363997629
 21
473.4012231384443
 31
0.0
  0
LINE
  5
5B2
330
1B
100
AcDbEntity
  8
4
100
AcDbLine
 10
611.7127363997629
 20
473.4012231384443
 30
0.0
 11
611.7127363997629
 21
485.4012231384443
 31
0.0
  0
LINE
  5
5B3
330
1B
100
AcDbEntity
  8
4
100
AcDbLine
 10
629.7127363997629
 20
485.4012231384443
 30
0.0
 11
629.7127363997629
 21
473.4012231384443
 31
0.0
  0
CIRCLE
  5
5B4
330
1B
100
AcDbEntity
  8
4
100
AcDbCircle
 10
620.7127363997629
 20
160.4012231384439
 30
0.0
 40
9.0
  0
ENDSEC
  0
SECTION
  2
OBJECTS
  0
DICTIONARY
  5
9
330
0
100
AcDbDictionary
281
     1
  3
ACAD_COLOR
350
2E
  3
ACAD_GROUP
350
2C
  3
ACAD_LAYOUT
350
24
  3
ACAD_MATERIAL
350
B
  3
ACAD_MLEADERSTYLE
350
518
  3
ACAD_MLINESTYLE
350
19
  3
ACAD_PLOTSETTINGS
350
2D
  3
ACAD_PLOTSTYLENAME
350
8
  3
ACAD_SCALELIST
350
33
  3
ACAD_TABLESTYLE
350
517
  3
ACAD_VISUALSTYLE
350
2F
  3
ACDBHEADERROUNDTRIPXREC
350
5CE
  3
AcDbVariableDictionary
350
515
  3
DWGPROPS
350
5D1
  0
DICTIONARY
  5
5D2
330
2B
100
AcDbDictionary
280
     1
281
     1
  3
ACAD_XREC_ROUNDTRIP
360
5D3
  0
DICTIONARY
  5
3
330
2
100
AcDbDictionary
280
     1
281
     1
  3
ACAD_LAYERSTATES
360
4
  0
DICTIONARY
  5
20
330
1F
100
AcDbDictionary
280
     1
281
     1
  3
ADSK_XREC_LAYER_RECONCILED
360
21
  0
DICTIONARY
  5
D2
330
D1
100
AcDbDictionary
280
     1
281
     1
  3
ADSK_XREC_LAYER_RECONCILED
360
D3
  0
DICTIONARY
  5
5
330
1
100
AcDbDictionary
280
     1
281
     1
  3
ADSK_XREC_LAYER_RECONCILED
360
6
  0
DICTIONARY
  5
62
330
61
100
AcDbDictionary
280
     1
281
     1
  3
ADSK_XREC_LAYER_RECONCILED
360
63
  0
DICTIONARY
  5
67
330
66
100
AcDbDictionary
280
     1
281
     1
  3
ADSK_XREC_LAYER_RECONCILED
360
68
  0
DICTIONARY
  5
59
330
58
100
AcDbDictionary
280
     1
281
     1
  3
ADSK_XREC_LAYER_RECONCILED
360
5A
  0
DICTIONARY
  5
1C
330
1B
100
AcDbDictionary
280
     1
281
     1
  3
ACAD_SORTENTS
360
1D
  0
DICTIONARY
  5
2E
102
{ACAD_REACTORS
330
9
102
}
330
9
100
AcDbDictionary
281
     1
  0
DICTIONARY
  5
2C
102
{ACAD_REACTORS
330
9
102
}
330
9
100
AcDbDictionary
281
     1
  0
DICTIONARY
  5
24
102
{ACAD_REACTORS
330
9
102
}
330
9
100
AcDbDictionary
281
     1
  3
Model
350
23
  3
ﾚｲｱｳﾄ1
350
28
  0
DICTIONARY
  5
B
102
{ACAD_REACTORS
330
9
102
}
330
9
100
AcDbDictionary
281
     1
  3
ByBlock
350
56
  3
ByLayer
350
14
  3
Global
350
A
  0
DICTIONARY
  5
518
102
{ACAD_REACTORS
330
9
102
}
330
9
100
AcDbDictionary
281
     1
  3
Standard
350
5B7
  0
DICTIONARY
  5
19
102
{ACAD_REACTORS
330
9
102
}
330
9
100
AcDbDictionary
281
     1
  3
STANDARD
350
18
  0
DICTIONARY
  5
2D
102
{ACAD_REACTORS
330
9
102
}
330
9
100
AcDbDictionary
281
     1
  0
ACDBDICTIONARYWDFLT
  5
8
102
{ACAD_REACTORS
330
9
102
}
330
9
100
AcDbDictionary
281
     1
  3
Normal
350
7
100
AcDbDictionaryWithDefault
340
7
  0
DICTIONARY
  5
33
102
{ACAD_REACTORS
330
9
102
}
330
9
100
AcDbDictionary
281
     1
  3
*A1
350
55
  0
DICTIONARY
  5
517
102
{ACAD_REACTORS
330
9
102
}
330
9
100
AcDbDictionary
281
     1
  3
Standard
350
5CA
  0
DICTIONARY
  5
2F
102
{ACAD_REACTORS
330
9
102
}
330
9
100
AcDbDictionary
281
     1
  3
2dWireframe
350
520
  3
Basic
350
523
  3
Brighten
350
527
  3
ColorChange
350
52B
  3
Conceptual
350
525
  3
Dim
350
526
  3
EdgeColorOff
350
52E
  3
Facepattern
350
52A
  3
Flat
350
51C
  3
FlatWithEdges
350
51D
  3
Gouraud
350
51E
  3
GouraudWithEdges
350
51F
  3
Hidden
350
522
  3
JitterOff
350
52C
  3
Linepattern
350
529
  3
OverhangOff
350
52D
  3
Realistic
350
524
  3
Shaded
350
533
  3
Shaded with edges
350
532
  3
Shades of Gray
350
52F
  3
Sketchy
350
530
  3
Thicken
350
528
  3
Wireframe
350
521
  3
X-Ray
350
531
  0
DICTIONARY
  5
5CE
102
{ACAD_REACTORS
330
9
102
}
330
9
100
AcDbDictionary
281
     1
  3
COLORDICT
350
5CF
  3
MATERIALDICT
350
5D0
  0
DICTIONARY
  5
515
102
{ACAD_REACTORS
330
9
102
}
330
9
100
AcDbDictionary
281
     1
  3
CANNOSCALE
350
516
  3
CMLEADERSTYLE
350
5BC
  3
CTABLESTYLE
350
5CB
  3
DIMASSOC
350
5CC
  3
HIDETEXT
350
5CD
  3
MSLTSCALE
350
5D4
  3
XCLIPFRAME
350
519
  0
XRECORD
  5
5D1
102
{ACAD_REACTORS
330
9
102
}
330
9
100
AcDbXrecord
280
     1
  1
DWGPROPS COOKIE
  2

  3

  4

  6

  7

  8
sg-d04
  9

300
=
301
=
302
=
303
=
304
=
305
=
306
=
307
=
308
=
309
=
 40
0.0
 41
2457542.089100729
 42
2457871.444959757
  1

 90
        0
  0
XRECORD
  5
5D3
102
{ACAD_REACTORS
330
5D2
102
}
330
5D2
100
AcDbXrecord
280
     1
102
VTR_0.000_0.000_1.000_1.000_VISUALSTYLE
340
520
102
VTR_0.000_0.000_1.000_1.000_GRIDDISPLAY
 70
     3
102
VTR_0.000_0.000_1.000_1.000_GRIDMAJOR
 70
     5
102
VTR_0.000_0.000_1.000_1.000_DEFAULTLIGHTING
280
     1
102
VTR_0.000_0.000_1.000_1.000_DEFAULTLIGHTINGTYPE
 70
     1
102
VTR_0.000_0.000_1.000_1.000_BRIGHTNESS
141
0.0
102
VTR_0.000_0.000_1.000_1.000_CONTRAST
142
0.0
  0
DICTIONARY
  5
4
102
{ACAD_REACTORS
330
3
102
}
330
3
100
AcDbDictionary
281
     1
  0
XRECORD
  5
21
102
{ACAD_REACTORS
330
20
102
}
330
20
100
AcDbXrecord
280
     1
290
     1
  0
XRECORD
  5
D3
102
{ACAD_REACTORS
330
D2
102
}
330
D2
100
AcDbXrecord
280
     1
290
     1
  0
XRECORD
  5
6
102
{ACAD_REACTORS
330
5
102
}
330
5
100
AcDbXrecord
280
     1
290
     1
  0
XRECORD
  5
63
102
{ACAD_REACTORS
330
62
102
}
330
62
100
AcDbXrecord
280
     1
290
     1
  0
XRECORD
  5
68
102
{ACAD_REACTORS
330
67
102
}
330
67
100
AcDbXrecord
280
     1
290
     1
  0
XRECORD
  5
5A
102
{ACAD_REACTORS
330
59
102
}
330
59
100
AcDbXrecord
280
     1
290
     1
  0
SORTENTSTABLE
  5
1D
102
{ACAD_REACTORS
330
1C
102
}
330
1C
100
AcDbSortentsTable
330
1B
331
0
  5
5BB
331
60
  5
4D6
331
64
  5
4D5
331
65
  5
4D4
331
6A
  5
4D3
331
1A6
  5
39B
331
1A8
  5
399
331
1A9
  5
398
331
1AA
  5
397
331
1AB
  5
396
331
1AC
  5
395
331
1AD
  5
394
331
1AE
  5
393
331
1AF
  5
392
331
1B0
  5
391
331
1B1
  5
390
331
1B2
  5
38F
331
1B3
  5
38E
331
1B4
  5
38D
331
1B5
  5
38C
331
1B6
  5
38B
331
1B7
  5
38A
331
1B8
  5
389
331
1B9
  5
388
331
1BA
  5
387
331
1BB
  5
386
331
1BC
  5
385
331
1BD
  5
384
331
1BE
  5
383
331
1BF
  5
382
331
1C0
  5
381
331
1C1
  5
380
331
1C2
  5
37F
331
1C3
  5
37E
331
1C4
  5
37D
331
1C5
  5
37C
331
1C6
  5
37B
331
1C7
  5
37A
331
1C8
  5
379
331
1C9
  5
378
331
1CE
  5
373
331
1CF
  5
372
331
1D0
  5
371
331
1D5
  5
36C
331
1DD
  5
364
331
1DE
  5
363
331
1DF
  5
362
331
1E0
  5
361
331
1E1
  5
360
331
1E2
  5
35F
331
1E3
  5
35E
331
1E4
  5
35D
331
1E5
  5
35C
331
1E6
  5
35B
331
1E7
  5
35A
331
1E8
  5
359
331
1E9
  5
358
331
1EA
  5
357
331
1EB
  5
356
331
1EC
  5
355
331
1ED
  5
354
331
1EE
  5
353
331
1EF
  5
352
331
1F0
  5
351
331
1F1
  5
350
331
1F2
  5
34F
331
1F3
  5
34E
331
1F4
  5
34D
331
1F5
  5
34C
331
1F6
  5
34B
331
1F7
  5
34A
331
1F8
  5
349
331
1F9
  5
348
331
1FA
  5
347
331
1FB
  5
346
331
1FC
  5
345
331
1FD
  5
344
331
1FE
  5
343
331
1FF
  5
342
331
200
  5
341
331
201
  5
340
331
202
  5
33F
331
203
  5
33E
331
204
  5
33D
331
205
  5
33C
331
206
  5
33B
331
207
  5
33A
331
208
  5
339
331
209
  5
338
331
20A
  5
337
331
20B
  5
336
331
20C
  5
335
331
20D
  5
334
331
20E
  5
333
331
20F
  5
332
331
210
  5
331
331
211
  5
330
331
212
  5
32F
331
213
  5
32E
331
214
  5
32D
331
215
  5
32C
331
216
  5
32B
331
217
  5
32A
331
218
  5
329
331
219
  5
328
331
21A
  5
327
331
21B
  5
326
331
21C
  5
325
331
21D
  5
324
331
21E
  5
323
331
21F
  5
322
331
220
  5
321
331
221
  5
320
331
222
  5
31F
331
223
  5
31E
331
224
  5
31D
331
225
  5
31C
331
226
  5
31B
331
227
  5
31A
331
22A
  5
317
331
22B
  5
316
331
22C
  5
315
331
22D
  5
314
331
22E
  5
313
331
22F
  5
312
331
234
  5
30D
331
235
  5
30C
331
236
  5
30B
331
237
  5
30A
331
238
  5
309
331
239
  5
308
331
23A
  5
307
331
23B
  5
306
331
23C
  5
305
331
23D
  5
304
331
23E
  5
303
331
23F
  5
302
331
240
  5
301
331
241
  5
300
331
242
  5
2FF
331
243
  5
2FE
331
244
  5
2FD
331
246
  5
2FB
331
247
  5
2FA
331
255
  5
2EC
331
256
  5
2EB
331
257
  5
2EA
331
258
  5
2E9
331
265
  5
2DC
331
267
  5
2DA
331
268
  5
2D9
331
269
  5
2D8
331
26B
  5
2D6
331
26C
  5
2D5
331
26E
  5
2D3
331
26F
  5
2D2
331
270
  5
2D1
331
271
  5
2D0
331
273
  5
2CE
331
276
  5
2CB
331
277
  5
2CA
331
278
  5
2C9
331
279
  5
2C8
331
27A
  5
2C7
331
27B
  5
2C6
331
27C
  5
2C5
331
27D
  5
2C4
331
27E
  5
2C3
331
27F
  5
2C2
331
280
  5
2C1
331
283
  5
2BE
331
284
  5
2BD
331
285
  5
2BC
331
286
  5
2BB
331
287
  5
2BA
331
288
  5
2B9
331
289
  5
2B8
331
28A
  5
2B7
331
28B
  5
2B6
331
28C
  5
2B5
331
28D
  5
2B4
331
28E
  5
2B3
331
28F
  5
2B2
331
290
  5
2B1
331
291
  5
2B0
331
292
  5
2AF
331
293
  5
2AE
331
294
  5
2AD
331
295
  5
2AC
331
296
  5
2AB
331
297
  5
2AA
331
298
  5
2A9
331
299
  5
2A8
331
29A
  5
2A7
331
29B
  5
2A6
331
29C
  5
2A5
331
29D
  5
2A4
331
29E
  5
2A3
331
29F
  5
2A2
331
2A0
  5
2A1
331
2A1
  5
2A0
331
2A2
  5
29F
331
2A3
  5
29E
331
2A4
  5
29D
331
2A5
  5
29C
331
2A6
  5
29B
331
2A7
  5
29A
331
2A8
  5
299
331
2A9
  5
298
331
2AA
  5
297
331
2AB
  5
296
331
2AC
  5
295
331
2AD
  5
294
331
2AE
  5
293
331
2AF
  5
292
331
2B0
  5
291
331
2B1
  5
290
331
2B2
  5
28F
331
2B3
  5
28E
331
2B4
  5
28D
331
2B5
  5
28C
331
2B6
  5
28B
331
2B7
  5
28A
331
2B8
  5
289
331
2B9
  5
288
331
2BA
  5
287
331
2BB
  5
286
331
2BC
  5
285
331
2BD
  5
284
331
2BE
  5
283
331
2BF
  5
282
331
2C0
  5
281
331
2C1
  5
280
331
2C2
  5
27F
331
2C3
  5
27E
331
2C4
  5
27D
331
2C5
  5
27C
331
2C6
  5
27B
331
2C7
  5
27A
331
2C8
  5
279
331
2C9
  5
278
331
2CA
  5
277
331
2CB
  5
276
331
2CC
  5
275
331
2CD
  5
274
331
2CE
  5
273
331
2CF
  5
272
331
2D0
  5
271
331
2D1
  5
270
331
2D2
  5
26F
331
2D3
  5
26E
331
2D4
  5
26D
331
2D5
  5
26C
331
2D6
  5
26B
331
2D7
  5
26A
331
2D8
  5
269
331
2D9
  5
268
331
2DA
  5
267
331
2DB
  5
266
331
2DC
  5
265
331
2DD
  5
264
331
2DE
  5
263
331
2DF
  5
262
331
2E0
  5
261
331
2E1
  5
260
331
2E2
  5
25F
331
2E3
  5
25E
331
2E4
  5
25D
331
2E5
  5
25C
331
2E6
  5
25B
331
2E7
  5
25A
331
2E8
  5
259
331
2E9
  5
258
331
2EA
  5
257
331
2EB
  5
256
331
2EC
  5
255
331
2ED
  5
254
331
2EE
  5
253
331
2EF
  5
252
331
2F0
  5
251
331
2F1
  5
250
331
2F2
  5
24F
331
2F3
  5
24E
331
2F4
  5
24D
331
2F5
  5
24C
331
2F6
  5
24B
331
2F7
  5
24A
331
2F8
  5
249
331
2F9
  5
248
331
2FA
  5
247
331
2FB
  5
246
331
2FC
  5
245
331
2FD
  5
244
331
2FE
  5
243
331
2FF
  5
242
331
300
  5
241
331
301
  5
240
331
302
  5
23F
331
303
  5
23E
331
304
  5
23D
331
305
  5
23C
331
306
  5
23B
331
307
  5
23A
331
308
  5
239
331
309
  5
238
331
30A
  5
237
331
30B
  5
236
331
30C
  5
235
331
30D
  5
234
331
30E
  5
233
331
30F
  5
232
331
310
  5
231
331
311
  5
230
331
312
  5
22F
331
313
  5
22E
331
314
  5
22D
331
315
  5
22C
331
316
  5
22B
331
317
  5
22A
331
318
  5
229
331
319
  5
228
331
31A
  5
227
331
31B
  5
226
331
31F
  5
223
331
320
  5
221
331
321
  5
220
331
322
  5
21F
331
323
  5
21E
331
324
  5
21D
331
325
  5
21C
331
326
  5
21B
331
327
  5
21A
331
328
  5
219
331
329
  5
218
331
32A
  5
217
331
32B
  5
216
331
32D
  5
215
331
32E
  5
213
331
32F
  5
212
331
330
  5
211
331
331
  5
210
331
332
  5
20F
331
333
  5
20E
331
334
  5
20D
331
335
  5
20C
331
336
  5
20B
331
337
  5
20A
331
338
  5
209
331
339
  5
208
331
33A
  5
207
331
33B
  5
206
331
33C
  5
205
331
33D
  5
204
331
33E
  5
203
331
33F
  5
202
331
340
  5
201
331
341
  5
200
331
342
  5
1FF
331
343
  5
1FE
331
344
  5
1FD
331
345
  5
1FC
331
346
  5
1FB
331
347
  5
1FA
331
348
  5
1F9
331
349
  5
1F8
331
34A
  5
1F7
331
34C
  5
1F5
331
34D
  5
1F4
331
34E
  5
1F3
331
34F
  5
1F2
331
350
  5
1F1
331
351
  5
1F0
331
352
  5
1EF
331
353
  5
1EE
331
354
  5
1ED
331
355
  5
1EC
331
356
  5
1EB
331
357
  5
1EA
331
358
  5
1E9
331
359
  5
1E8
331
35A
  5
1E7
331
35B
  5
1E6
331
35C
  5
1E5
331
362
  5
1E0
331
363
  5
1DE
331
364
  5
1DD
331
365
  5
1DC
331
366
  5
1DB
331
367
  5
1DA
331
368
  5
1D9
331
369
  5
1D8
331
36A
  5
1D7
331
36B
  5
1D6
331
36C
  5
1D5
331
36D
  5
1D4
331
36E
  5
1D3
331
36F
  5
1D2
331
370
  5
1D1
331
371
  5
1D0
331
372
  5
1CF
331
373
  5
1CE
331
374
  5
1CD
331
375
  5
1CC
331
376
  5
1CB
331
377
  5
1CA
331
378
  5
1C9
331
379
  5
1C8
331
37A
  5
1C7
331
37B
  5
1C6
331
37C
  5
1C5
331
37D
  5
1C4
331
37E
  5
1C3
331
37F
  5
1C2
331
380
  5
1C1
331
381
  5
1C0
331
382
  5
1BF
331
383
  5
1BE
331
384
  5
1BD
331
385
  5
1BC
331
386
  5
1BB
331
387
  5
1BA
331
388
  5
1B9
331
389
  5
1B8
331
38A
  5
1B7
331
38B
  5
1B6
331
38C
  5
1B5
331
38D
  5
1B4
331
38E
  5
1B3
331
38F
  5
1B2
331
390
  5
1B1
331
391
  5
1B0
331
392
  5
1AF
331
393
  5
1AE
331
394
  5
1AD
331
395
  5
1AC
331
396
  5
1AB
331
397
  5
1AA
331
398
  5
1A9
331
399
  5
1A8
331
39A
  5
1A7
331
39C
  5
1A5
331
39D
  5
1A4
331
39E
  5
1A3
331
39F
  5
1A2
331
3A1
  5
1A0
331
3A2
  5
19F
331
3A3
  5
19E
331
3A4
  5
19D
331
3A5
  5
19C
331
3A6
  5
19B
331
3A7
  5
19A
331
3A8
  5
199
331
3A9
  5
198
331
3AA
  5
197
331
3AB
  5
196
331
3AC
  5
195
331
3AD
  5
194
331
3AE
  5
193
331
3AF
  5
192
331
3B0
  5
191
331
3B1
  5
190
331
3B2
  5
18F
331
3B3
  5
18E
331
3B4
  5
18D
331
3B5
  5
18C
331
3B6
  5
18B
331
3B7
  5
18A
331
3B8
  5
189
331
3B9
  5
188
331
3BA
  5
187
331
3BB
  5
186
331
3BC
  5
185
331
3BD
  5
184
331
3BE
  5
183
331
3BF
  5
182
331
3C0
  5
181
331
3C1
  5
180
331
3C2
  5
17F
331
3C3
  5
17E
331
3C4
  5
17D
331
3C5
  5
17C
331
3C6
  5
17B
331
3C7
  5
17A
331
3C8
  5
179
331
3C9
  5
178
331
3CA
  5
177
331
3CB
  5
176
331
3CC
  5
175
331
3CD
  5
174
331
3CE
  5
173
331
3CF
  5
172
331
3D0
  5
171
331
3D1
  5
170
331
3D2
  5
16F
331
3D3
  5
16E
331
3D4
  5
16D
331
3D5
  5
16C
331
3D6
  5
16B
331
3D7
  5
16A
331
3D8
  5
169
331
3DC
  5
168
331
3DD
  5
164
331
3DE
  5
163
331
3E1
  5
162
331
3E2
  5
15F
331
3E3
  5
15E
331
3E4
  5
15D
331
3E5
  5
15C
331
3E6
  5
15B
331
3E7
  5
15A
331
3E8
  5
159
331
3E9
  5
158
331
3EA
  5
157
331
3EE
  5
153
331
3EF
  5
152
331
3F0
  5
151
331
3F1
  5
150
331
3F3
  5
14E
331
3F4
  5
14D
331
3F5
  5
14C
331
3F6
  5
14B
331
3F7
  5
14A
331
3F8
  5
149
331
3F9
  5
148
331
3FA
  5
147
331
3FB
  5
146
331
3FC
  5
145
331
3FD
  5
144
331
3FE
  5
143
331
3FF
  5
142
331
400
  5
141
331
401
  5
140
331
402
  5
13F
331
403
  5
13E
331
404
  5
13D
331
405
  5
13C
331
406
  5
13B
331
407
  5
13A
331
408
  5
139
331
409
  5
138
331
40A
  5
137
331
40B
  5
136
331
40C
  5
135
331
40F
  5
132
331
417
  5
12A
331
418
  5
129
331
419
  5
128
331
41A
  5
127
331
41B
  5
126
331
41C
  5
125
331
41E
  5
123
331
41F
  5
122
331
420
  5
121
331
421
  5
120
331
422
  5
11F
331
423
  5
11E
331
424
  5
11D
331
425
  5
11C
331
426
  5
11B
331
427
  5
11A
331
428
  5
119
331
429
  5
118
331
42A
  5
117
331
42B
  5
116
331
42C
  5
115
331
42D
  5
114
331
42E
  5
113
331
42F
  5
112
331
430
  5
111
331
431
  5
110
331
432
  5
10F
331
433
  5
10E
331
434
  5
10D
331
435
  5
10C
331
436
  5
10B
331
437
  5
10A
331
438
  5
109
331
439
  5
108
331
43A
  5
107
331
43B
  5
106
331
43C
  5
105
331
43D
  5
104
331
43E
  5
103
331
43F
  5
102
331
440
  5
101
331
441
  5
100
331
442
  5
FF
331
443
  5
FE
331
444
  5
FD
331
445
  5
FC
331
446
  5
FB
331
447
  5
FA
331
448
  5
F9
331
449
  5
F8
331
44A
  5
F7
331
44B
  5
F6
331
44C
  5
F5
331
44D
  5
F4
331
44E
  5
F3
331
44F
  5
F2
331
450
  5
F1
331
451
  5
F0
331
452
  5
EF
331
453
  5
EE
331
454
  5
ED
331
455
  5
EC
331
456
  5
EB
331
457
  5
EA
331
458
  5
E9
331
459
  5
E8
331
45A
  5
E7
331
45B
  5
E6
331
45C
  5
E5
331
45D
  5
E4
331
45E
  5
E3
331
45F
  5
E2
331
460
  5
E1
331
461
  5
E0
331
462
  5
DF
331
464
  5
DD
331
465
  5
DC
331
466
  5
DB
331
467
  5
DA
331
468
  5
D9
331
469
  5
D8
331
46A
  5
D7
331
46B
  5
D6
331
46C
  5
D5
331
471
  5
CD
331
472
  5
CC
331
473
  5
CB
331
474
  5
CA
331
475
  5
C8
331
476
  5
C7
331
477
  5
C5
331
478
  5
C4
331
479
  5
C3
331
47A
  5
C2
331
47B
  5
C1
331
47C
  5
C0
331
47D
  5
BF
331
47E
  5
BE
331
485
  5
B7
331
486
  5
B6
331
487
  5
B5
331
48B
  5
B1
331
48C
  5
B0
331
48D
  5
AF
331
48E
  5
AE
331
48F
  5
AD
331
490
  5
AC
331
491
  5
AB
331
492
  5
AA
331
493
  5
A9
331
497
  5
A5
331
4B5
  5
87
331
4B6
  5
86
331
4B7
  5
85
331
4B8
  5
84
331
4B9
  5
83
331
4BA
  5
82
331
4BB
  5
81
331
4BC
  5
80
331
4BD
  5
7F
331
4BE
  5
7E
331
4BF
  5
7D
331
4C0
  5
7C
331
4C1
  5
7B
331
4C2
  5
7A
331
4C3
  5
79
331
4C4
  5
78
331
4C5
  5
77
331
4C6
  5
76
331
4C7
  5
75
331
4C8
  5
74
331
4C9
  5
73
331
4CA
  5
72
331
4CB
  5
71
331
4CC
  5
70
331
4CD
  5
6F
331
4CE
  5
6E
331
4CF
  5
6D
331
4D0
  5
6C
331
4D1
  5
6B
331
4D2
  5
6A
331
4D3
  5
65
331
4D4
  5
64
331
4D8
  5
5D
331
4D9
  5
5C
331
4DA
  5
5B
331
4DB
  5
57
331
4DC
  5
4DD
331
4DD
  5
4DE
331
4DE
  5
4DF
331
4DF
  5
4E0
331
4E0
  5
4E1
331
4E1
  5
4E2
331
4E2
  5
4E3
331
505
  5
506
331
506
  5
507
331
507
  5
509
331
509
  5
50C
331
50A
  5
50D
331
50B
  5
50E
331
50C
  5
50F
331
50D
  5
510
331
50E
  5
511
331
50F
  5
513
331
511
  5
535
331
513
  5
536
331
514
  5
537
331
574
  5
577
331
575
  5
578
331
576
  5
579
331
577
  5
57A
331
578
  5
57B
331
579
  5
57C
331
57A
  5
57D
331
57B
  5
57E
331
57C
  5
57F
331
57D
  5
580
331
57E
  5
581
331
57F
  5
582
331
580
  5
583
331
581
  5
584
331
582
  5
585
331
583
  5
586
331
584
  5
587
331
585
  5
588
331
586
  5
589
331
587
  5
58A
331
588
  5
58B
331
589
  5
58C
331
58A
  5
58D
331
58B
  5
58E
331
58C
  5
58F
331
58D
  5
590
331
58E
  5
591
331
58F
  5
592
331
590
  5
593
331
591
  5
594
331
592
  5
595
331
593
  5
596
331
5AE
  5
5B1
331
5AF
  5
5B2
331
5B0
  5
5B3
331
5B1
  5
5B4
331
5B2
  5
5B5
331
5B3
  5
5B6
331
5B4
  5
C6
  0
LAYOUT
  5
23
102
{ACAD_REACTORS
330
24
102
}
330
24
100
AcDbPlotSettings
  1

  2
Bullzip PDF Printer.pc3
  4
A3
  6

 40
0.2
 41
0.0
 42
0.0
 43
0.0
 44
420.2
 45
297.1
 46
25.0
 47
12.0
 48
99.99999984166652
 49
67.29919358222476
140
2009.999995466667
141
1429.799190403058
142
1.0
143
5.0
 70
 11936
 72
     1
 73
     0
 74
     4
  7
monochrome.ctb
 75
     0
147
0.2
148
-99.99999984166652
149
-67.29919358222476
100
AcDbLayout
  1
Model
 70
     0
 71
     0
 10
0.0
 20
0.0
 11
12.0
 21
9.0
 12
0.0
 22
0.0
 32
0.0
 14
398.9279425318878
 24
77.78236918279867
 34
0.0
 15
1804.403547958666
 25
1548.229167063731
 35
0.0
146
0.0
 13
0.0
 23
0.0
 33
0.0
 16
1.0
 26
0.0
 36
0.0
 17
0.0
 27
1.0
 37
0.0
 76
     0
330
1B
331
30
1001
ACAD_PSEXT
1000
Bullzip PDF Printer.pc3
1000
Bullzip PDF Printer
1000
BULLZIP
1000
Bullzip PDF Printer 10.1.0.1871
1070
     0
  0
LAYOUT
  5
28
102
{ACAD_REACTORS
330
24
102
}
330
24
100
AcDbPlotSettings
  1

  2
SR-LP8300F
  4

  6

 40
0.0
 41
0.0
 42
0.0
 43
0.0
 44
0.0
 45
0.0
 46
0.0
 47
0.0
 48
0.0
 49
0.0
140
0.0
141
0.0
142
1.0
143
1.0
 70
   688
 72
     0
 73
     0
 74
     5
  7
monochrome.ctb
 75
    16
147
1.0
148
0.0
149
0.0
100
AcDbLayout
  1
ﾚｲｱｳﾄ1
 70
     0
 71
     1
 10
0.0
 20
0.0
 11
12.0
 21
9.0
 12
0.0
 22
0.0
 32
0.0
 14
1.000000000000000E+20
 24
1.000000000000000E+20
 34
1.000000000000000E+20
 15
-1.000000000000000E+20
 25
-1.000000000000000E+20
 35
-1.000000000000000E+20
146
0.0
 13
0.0
 23
0.0
 33
0.0
 16
1.0
 26
0.0
 36
0.0
 17
0.0
 27
1.0
 37
0.0
 76
     0
330
25
  0
MATERIAL
  5
56
102
{ACAD_REACTORS
330
B
102
}
102
{ACAD_XDICTIONARY
360
5D9
102
}
330
B
100
AcDbMaterial
  1
ByBlock
 72
     0
 73
     2
 43
0.0208333333333333
 43
0.0
 43
0.0
 43
0.0
 43
0.0
 43
0.0208333333333333
 43
0.0
 43
0.0
 43
0.0
 43
0.0
 43
1.0
 43
0.0
 43
0.0
 43
0.0
 43
0.0
 43
1.0
 77
     0
 78
     2
 47
0.0208333333333333
 47
0.0
 47
0.0
 47
0.0
 47
0.0
 47
0.0208333333333333
 47
0.0
 47
0.0
 47
0.0
 47
0.0
 47
1.0
 47
0.0
 47
0.0
 47
0.0
 47
0.0
 47
1.0
171
     0
172
     2
 49
0.0208333333333333
 49
0.0
 49
0.0
 49
0.0
 49
0.0
 49
0.0208333333333333
 49
0.0
 49
0.0
 49
0.0
 49
0.0
 49
1.0
 49
0.0
 49
0.0
 49
0.0
 49
0.0
 49
1.0
175
     0
176
     2
142
0.0208333333333333
142
0.0
142
0.0
142
0.0
142
0.0
142
0.0208333333333333
142
0.0
142
0.0
142
0.0
142
0.0
142
1.0
142
0.0
142
0.0
142
0.0
142
0.0
142
1.0
179
     0
270
     2
144
0.0208333333333333
144
0.0
144
0.0
144
0.0
144
0.0
144
0.0208333333333333
144
0.0
144
0.0
144
0.0
144
0.0
144
1.0
144
0.0
144
0.0
144
0.0
144
0.0
144
1.0
274
     2
147
0.0208333333333333
147
0.0
147
0.0
147
0.0
147
0.0
147
0.0208333333333333
147
0.0
147
0.0
147
0.0
147
0.0
147
1.0
147
0.0
147
0.0
147
0.0
147
0.0
147
1.0
  0
MATERIAL
  5
14
102
{ACAD_REACTORS
330
B
102
}
102
{ACAD_XDICTIONARY
360
5D5
102
}
330
B
100
AcDbMaterial
  1
ByLayer
 72
     0
 73
     2
 43
0.0208333333333333
 43
0.0
 43
0.0
 43
0.0
 43
0.0
 43
0.0208333333333333
 43
0.0
 43
0.0
 43
0.0
 43
0.0
 43
1.0
 43
0.0
 43
0.0
 43
0.0
 43
0.0
 43
1.0
 77
     0
 78
     2
 47
0.0208333333333333
 47
0.0
 47
0.0
 47
0.0
 47
0.0
 47
0.0208333333333333
 47
0.0
 47
0.0
 47
0.0
 47
0.0
 47
1.0
 47
0.0
 47
0.0
 47
0.0
 47
0.0
 47
1.0
171
     0
172
     2
 49
0.0208333333333333
 49
0.0
 49
0.0
 49
0.0
 49
0.0
 49
0.0208333333333333
 49
0.0
 49
0.0
 49
0.0
 49
0.0
 49
1.0
 49
0.0
 49
0.0
 49
0.0
 49
0.0
 49
1.0
175
     0
176
     2
142
0.0208333333333333
142
0.0
142
0.0
142
0.0
142
0.0
142
0.0208333333333333
142
0.0
142
0.0
142
0.0
142
0.0
142
1.0
142
0.0
142
0.0
142
0.0
142
0.0
142
1.0
179
     0
270
     2
144
0.0208333333333333
144
0.0
144
0.0
144
0.0
144
0.0
144
0.0208333333333333
144
0.0
144
0.0
144
0.0
144
0.0
144
1.0
144
0.0
144
0.0
144
0.0
144
0.0
144
1.0
274
     2
147
0.0208333333333333
147
0.0
147
0.0
147
0.0
147
0.0
147
0.0208333333333333
147
0.0
147
0.0
147
0.0
147
0.0
147
1.0
147
0.0
147
0.0
147
0.0
147
0.0
147
1.0
  0
MATERIAL
  5
A
102
{ACAD_REACTORS
330
B
102
}
102
{ACAD_XDICTIONARY
360
5D7
102
}
330
B
100
AcDbMaterial
  1
Global
 72
     0
 73
     2
 43
0.0208333333333333
 43
0.0
 43
0.0
 43
0.0
 43
0.0
 43
0.0208333333333333
 43
0.0
 43
0.0
 43
0.0
 43
0.0
 43
1.0
 43
0.0
 43
0.0
 43
0.0
 43
0.0
 43
1.0
 77
     0
 78
     2
 47
0.0208333333333333
 47
0.0
 47
0.0
 47
0.0
 47
0.0
 47
0.0208333333333333
 47
0.0
 47
0.0
 47
0.0
 47
0.0
 47
1.0
 47
0.0
 47
0.0
 47
0.0
 47
0.0
 47
1.0
171
     0
172
     2
 49
0.0208333333333333
 49
0.0
 49
0.0
 49
0.0
 49
0.0
 49
0.0208333333333333
 49
0.0
 49
0.0
 49
0.0
 49
0.0
 49
1.0
 49
0.0
 49
0.0
 49
0.0
 49
0.0
 49
1.0
175
     0
176
     2
142
0.0208333333333333
142
0.0
142
0.0
142
0.0
142
0.0
142
0.0208333333333333
142
0.0
142
0.0
142
0.0
142
0.0
142
1.0
142
0.0
142
0.0
142
0.0
142
0.0
142
1.0
179
     0
270
     2
144
0.0208333333333333
144
0.0
144
0.0
144
0.0
144
0.0
144
0.0208333333333333
144
0.0
144
0.0
144
0.0
144
0.0
144
1.0
144
0.0
144
0.0
144
0.0
144
0.0
144
1.0
274
     2
147
0.0208333333333333
147
0.0
147
0.0
147
0.0
147
0.0
147
0.0208333333333333
147
0.0
147
0.0
147
0.0
147
0.0
147
1.0
147
0.0
147
0.0
147
0.0
147
0.0
147
1.0
1001
ACAD
1070
    -1
1070
     3
1070
     0
1000

1071
        0
  0
MLEADERSTYLE
  5
5B7
102
{ACAD_REACTORS
330
518
102
}
102
{ACAD_XDICTIONARY
360
60B
102
}
330
518
100
AcDbMLeaderStyle
170
     2
171
     1
172
     0
 90
        2
 40
0.0
 41
0.0
173
     1
 91
-1056964608
340
11
 92
       -2
290
     1
 42
0.09
291
     1
 43
0.36
  3
Standard
341
0
 44
0.18
300

342
12
174
     1
178
     6
175
     1
176
     0
 93
-1056964608
 45
0.18
292
     0
297
     0
 46
0.18
343
0
 94
-1056964608
 47
1.0
 49
1.0
140
1.0
293
     1
141
0.0
294
     1
177
     0
142
1.0
295
     0
296
     0
143
0.125
1001
ACAD_MLEADERVER
1070
     2
  0
MLINESTYLE
  5
18
102
{ACAD_REACTORS
330
19
102
}
330
19
100
AcDbMlineStyle
  2
STANDARD
 70
     0
  3

 62
     0
 51
90.0
 52
90.0
 71
     2
 49
0.5
 62
   256
  6
BYLAYER
 49
-0.5
 62
   256
  6
BYLAYER
  0
ACDBPLACEHOLDER
  5
7
102
{ACAD_REACTORS
330
8
102
}
330
8
  0
SCALE
  5
55
102
{ACAD_REACTORS
330
33
102
}
330
33
100
AcDbScale
 70
     0
300
1:1
140
1.0
141
1.0
290
     1
  0
TABLESTYLE
  5
5CA
102
{ACAD_REACTORS
330
517
102
}
330
517
100
AcDbTableStyle
  3
Standard
 70
     0
 71
     0
 40
0.06
 41
0.06
280
     0
281
     0
  7
STANDARD
140
0.18
170
     2
 62
     0
 63
   257
283
     0
274
    -2
284
     1
 64
     0
275
    -2
285
     1
 65
     0
276
    -2
286
     1
 66
     0
277
    -2
287
     1
 67
     0
278
    -2
288
     1
 68
     0
279
    -2
289
     1
 69
     0
  7
STANDARD
140
0.25
170
     5
 62
     0
 63
   257
283
     0
274
    -2
284
     1
 64
     0
275
    -2
285
     1
 65
     0
276
    -2
286
     1
 66
     0
277
    -2
287
     1
 67
     0
278
    -2
288
     1
 68
     0
279
    -2
289
     1
 69
     0
  7
STANDARD
140
0.18
170
     5
 62
     0
 63
   257
283
     0
274
    -2
284
     1
 64
     0
275
    -2
285
     1
 65
     0
276
    -2
286
     1
 66
     0
277
    -2
287
     1
 67
     0
278
    -2
288
     1
 68
     0
279
    -2
289
     1
 69
     0
  0
VISUALSTYLE
  5
520
102
{ACAD_REACTORS
330
2F
102
}
102
{ACAD_XDICTIONARY
360
5E3
102
}
330
2F
100
AcDbVisualStyle
  2
2dWireframe
 70
     4
 71
     0
 72
     2
 73
     0
 90
        0
 40
0.6
 41
30.0
 62
     5
 63
     7
 74
     1
 91
        4
 64
     7
 65
   257
 75
     1
175
     1
 42
1.0
 92
        0
 66
   257
 43
1.0
 76
     1
 77
     6
 78
     2
 67
     7
 79
     5
170
     0
171
     0
290
     0
174
     0
 93
        1
 44
0.0
173
     0
291
     0
 45
0.0
1001
ACAD
1000
AcDbSavedByObjectVersion
1070
     0
  0
VISUALSTYLE
  5
523
102
{ACAD_REACTORS
330
2F
102
}
102
{ACAD_XDICTIONARY
360
5E9
102
}
330
2F
100
AcDbVisualStyle
  2
Basic
 70
     7
 71
     1
 72
     0
 73
     1
 90
        0
 40
0.6
 41
30.0
 62
     5
 63
     7
 74
     0
 91
        4
 64
     7
 65
   257
 75
     1
175
     1
 42
1.0
 92
        8
 66
     7
 43
1.0
 76
     1
 77
     6
 78
     2
 67
     7
 79
     5
170
     0
171
     0
290
     0
174
     0
 93
        1
 44
0.0
173
     0
291
     1
 45
0.0
1001
ACAD
1000
AcDbSavedByObjectVersion
1070
     0
  0
VISUALSTYLE
  5
527
102
{ACAD_REACTORS
330
2F
102
}
102
{ACAD_XDICTIONARY
360
5F1
102
}
330
2F
100
AcDbVisualStyle
  2
Brighten
 70
    12
 71
     2
 72
     2
 73
     0
 90
        0
 40
0.6
 41
30.0
 62
     5
 63
     7
 74
     1
 91
        4
 64
     7
 65
   257
 75
     1
175
     1
 42
1.0
 92
        8
 66
     7
 43
1.0
 76
     1
 77
     6
 78
     2
 67
     7
 79
     5
170
     0
171
     0
290
     0
174
     0
 93
        1
 44
50.0
173
     0
291
     1
 45
0.0
1001
ACAD
1000
AcDbSavedByObjectVersion
1070
     0
  0
VISUALSTYLE
  5
52B
102
{ACAD_REACTORS
330
2F
102
}
102
{ACAD_XDICTIONARY
360
5F9
102
}
330
2F
100
AcDbVisualStyle
  2
ColorChange
 70
    16
 71
     2
 72
     2
 73
     3
 90
        0
 40
0.6
 41
30.0
 62
     5
 63
     8
 74
     1
 91
        4
 64
     7
 65
   257
 75
     1
175
     1
 42
1.0
 92
        8
 66
     8
 43
1.0
 76
     1
 77
     6
 78
     2
 67
     7
 79
     5
170
     0
171
     0
290
     0
174
     0
 93
        1
 44
0.0
173
     0
291
     1
 45
0.0
1001
ACAD
1000
AcDbSavedByObjectVersion
1070
     0
  0
VISUALSTYLE
  5
525
102
{ACAD_REACTORS
330
2F
102
}
102
{ACAD_XDICTIONARY
360
5ED
102
}
330
2F
100
AcDbVisualStyle
  2
Conceptual
 70
     9
 71
     3
 72
     2
 73
     0
 90
        0
 40
0.6
 41
30.0
 62
     5
 63
     7
 74
     2
 91
        2
 64
     7
 65
   257
 75
     1
175
     1
 42
40.0
 92
        8
 66
     7
 43
1.0
 76
     1
 77
     6
 78
     2
 67
     7
 79
     3
170
     0
171
     0
290
     0
174
     0
 93
        1
 44
0.0
173
     0
291
     0
 45
0.0
1001
ACAD
1000
AcDbSavedByObjectVersion
1070
     0
  0
VISUALSTYLE
  5
526
102
{ACAD_REACTORS
330
2F
102
}
102
{ACAD_XDICTIONARY
360
5EF
102
}
330
2F
100
AcDbVisualStyle
  2
Dim
 70
    11
 71
     2
 72
     2
 73
     0
 90
        0
 40
0.6
 41
30.0
 62
     5
 63
     7
 74
     1
 91
        4
 64
     7
 65
   257
 75
     1
175
     1
 42
1.0
 92
        8
 66
     7
 43
1.0
 76
     1
 77
     6
 78
     2
 67
     7
 79
     5
170
     0
171
     0
290
     0
174
     0
 93
        1
 44
-50.0
173
     0
291
     1
 45
0.0
1001
ACAD
1000
AcDbSavedByObjectVersion
1070
     0
  0
VISUALSTYLE
  5
52E
102
{ACAD_REACTORS
330
2F
102
}
102
{ACAD_XDICTIONARY
360
5FF
102
}
330
2F
100
AcDbVisualStyle
  2
EdgeColorOff
 70
    22
 71
     2
 72
     2
 73
     0
 90
        0
 40
0.6
 41
30.0
 62
     5
 63
     7
 74
     1
 91
        4
 64
     7
 65
   257
 75
     1
175
     1
 42
1.0
 92
        8
 66
     7
 43
1.0
 76
     1
 77
     6
 78
     2
 67
     7
 79
     5
170
     0
171
     0
290
     0
174
     0
 93
        1
 44
0.0
173
     0
291
     1
 45
0.0
1001
ACAD
1000
AcDbSavedByObjectVersion
1070
     0
  0
VISUALSTYLE
  5
52A
102
{ACAD_REACTORS
330
2F
102
}
102
{ACAD_XDICTIONARY
360
5F7
102
}
330
2F
100
AcDbVisualStyle
  2
Facepattern
 70
    15
 71
     2
 72
     2
 73
     0
 90
        0
 40
0.6
 41
30.0
 62
     5
 63
     7
 74
     1
 91
        4
 64
     7
 65
   257
 75
     1
175
     1
 42
1.0
 92
        8
 66
     7
 43
1.0
 76
     1
 77
     6
 78
     2
 67
     7
 79
     5
170
     0
171
     0
290
     0
174
     0
 93
        1
 44
0.0
173
     0
291
     1
 45
0.0
1001
ACAD
1000
AcDbSavedByObjectVersion
1070
     0
  0
VISUALSTYLE
  5
51C
102
{ACAD_REACTORS
330
2F
102
}
102
{ACAD_XDICTIONARY
360
5DB
102
}
330
2F
100
AcDbVisualStyle
  2
Flat
 70
     0
 71
     2
 72
     1
 73
     1
 90
        2
 40
0.6
 41
30.0
 62
     5
 63
     7
 74
     0
 91
        4
 64
     7
 65
   257
 75
     1
175
     1
 42
1.0
 92
        8
 66
     7
 43
1.0
 76
     1
 77
     6
 78
     2
 67
     7
 79
     5
170
     0
171
     0
290
     0
174
     0
 93
       13
 44
0.0
173
     0
291
     1
 45
0.0
1001
ACAD
1000
AcDbSavedByObjectVersion
1070
     0
  0
VISUALSTYLE
  5
51D
102
{ACAD_REACTORS
330
2F
102
}
102
{ACAD_XDICTIONARY
360
5DD
102
}
330
2F
100
AcDbVisualStyle
  2
FlatWithEdges
 70
     1
 71
     2
 72
     1
 73
     1
 90
        2
 40
0.6
 41
30.0
 62
     5
 63
     7
 74
     1
 91
        4
 64
     7
 65
   257
 75
     1
175
     1
 42
1.0
 92
        0
 66
   257
 43
1.0
 76
     1
 77
     6
 78
     2
 67
     7
 79
     5
170
     0
171
     0
290
     0
174
     0
 93
       13
 44
0.0
173
     0
291
     1
 45
0.0
1001
ACAD
1000
AcDbSavedByObjectVersion
1070
     0
  0
VISUALSTYLE
  5
51E
102
{ACAD_REACTORS
330
2F
102
}
102
{ACAD_XDICTIONARY
360
5DF
102
}
330
2F
100
AcDbVisualStyle
  2
Gouraud
 70
     2
 71
     2
 72
     2
 73
     1
 90
        2
 40
0.6
 41
30.0
 62
     5
 63
     7
 74
     0
 91
        4
 64
     7
 65
   257
 75
     1
175
     1
 42
1.0
 92
        0
 66
     7
 43
1.0
 76
     1
 77
     6
 78
     2
 67
     7
 79
     5
170
     0
171
     0
290
     0
174
     0
 93
       13
 44
0.0
173
     0
291
     1
 45
0.0
1001
ACAD
1000
AcDbSavedByObjectVersion
1070
     0
  0
VISUALSTYLE
  5
51F
102
{ACAD_REACTORS
330
2F
102
}
102
{ACAD_XDICTIONARY
360
5E1
102
}
330
2F
100
AcDbVisualStyle
  2
GouraudWithEdges
 70
     3
 71
     2
 72
     2
 73
     1
 90
        2
 40
0.6
 41
30.0
 62
     5
 63
     7
 74
     1
 91
        4
 64
     7
 65
   257
 75
     1
175
     1
 42
1.0
 92
        0
 66
   257
 43
1.0
 76
     1
 77
     6
 78
     2
 67
     7
 79
     5
170
     0
171
     0
290
     0
174
     0
 93
       13
 44
0.0
173
     0
291
     1
 45
0.0
1001
ACAD
1000
AcDbSavedByObjectVersion
1070
     0
  0
VISUALSTYLE
  5
522
102
{ACAD_REACTORS
330
2F
102
}
102
{ACAD_XDICTIONARY
360
5E7
102
}
330
2F
100
AcDbVisualStyle
  2
Hidden
 70
     6
 71
     1
 72
     2
 73
     2
 90
        0
 40
0.6
 41
30.0
 62
     5
 63
     7
 74
     2
 91
        2
 64
     7
 65
   257
 75
     2
175
     1
 42
40.0
 92
        0
 66
   257
 43
1.0
 76
     1
 77
     6
 78
     2
 67
     7
 79
     3
170
     0
171
     0
290
     0
174
     0
 93
        1
 44
0.0
173
     0
291
     0
 45
0.0
1001
ACAD
1000
AcDbSavedByObjectVersion
1070
     0
  0
VISUALSTYLE
  5
52C
102
{ACAD_REACTORS
330
2F
102
}
102
{ACAD_XDICTIONARY
360
5FB
102
}
330
2F
100
AcDbVisualStyle
  2
JitterOff
 70
    20
 71
     2
 72
     2
 73
     0
 90
        0
 40
0.6
 41
30.0
 62
     5
 63
     7
 74
     1
 91
        4
 64
     7
 65
   257
 75
     1
175
     1
 42
1.0
 92
       10
 66
     7
 43
1.0
 76
     1
 77
     6
 78
     2
 67
     7
 79
     5
170
     0
171
     0
290
     0
174
     0
 93
        1
 44
0.0
173
     0
291
     1
 45
0.0
1001
ACAD
1000
AcDbSavedByObjectVersion
1070
     0
  0
VISUALSTYLE
  5
529
102
{ACAD_REACTORS
330
2F
102
}
102
{ACAD_XDICTIONARY
360
5F5
102
}
330
2F
100
AcDbVisualStyle
  2
Linepattern
 70
    14
 71
     2
 72
     2
 73
     0
 90
        0
 40
0.6
 41
30.0
 62
     5
 63
     7
 74
     1
 91
        4
 64
     7
 65
   257
 75
     7
175
     7
 42
1.0
 92
        8
 66
     7
 43
1.0
 76
     1
 77
     6
 78
     2
 67
     7
 79
     5
170
     0
171
     0
290
     0
174
     0
 93
        1
 44
0.0
173
     0
291
     1
 45
0.0
1001
ACAD
1000
AcDbSavedByObjectVersion
1070
     0
  0
VISUALSTYLE
  5
52D
102
{ACAD_REACTORS
330
2F
102
}
102
{ACAD_XDICTIONARY
360
5FD
102
}
330
2F
100
AcDbVisualStyle
  2
OverhangOff
 70
    21
 71
     2
 72
     2
 73
     0
 90
        0
 40
0.6
 41
30.0
 62
     5
 63
     7
 74
     1
 91
        4
 64
     7
 65
   257
 75
     1
175
     1
 42
1.0
 92
        9
 66
     7
 43
1.0
 76
     1
 77
     6
 78
     2
 67
     7
 79
     5
170
     0
171
     0
290
     0
174
     0
 93
        1
 44
0.0
173
     0
291
     1
 45
0.0
1001
ACAD
1000
AcDbSavedByObjectVersion
1070
     0
  0
VISUALSTYLE
  5
524
102
{ACAD_REACTORS
330
2F
102
}
102
{ACAD_XDICTIONARY
360
5EB
102
}
330
2F
100
AcDbVisualStyle
  2
Realistic
 70
     8
 71
     2
 72
     3
 73
     0
 90
        2
 40
0.6
 41
30.0
 62
     5
 63
     7
 74
     0
 91
        0
 64
     7
 65
   257
 75
     1
175
     1
 42
1.0
 92
        8
 66
   257
 43
1.0
 76
     1
 77
     6
 78
     2
 67
     7
 79
     3
170
     0
171
     0
290
     0
174
     0
 93
       13
 44
0.0
173
     0
291
     0
 45
0.0
1001
ACAD
1000
AcDbSavedByObjectVersion
1070
     0
  0
VISUALSTYLE
  5
533
102
{ACAD_REACTORS
330
2F
102
}
102
{ACAD_XDICTIONARY
360
609
102
}
330
2F
100
AcDbVisualStyle
  2
Shaded
 70
    27
 71
     2
 72
     2
 73
     1
 90
        2
 40
0.6
 41
30.0
 62
     5
 63
     7
 74
     0
 91
        4
 64
     7
 65
   257
 75
     1
175
     1
 42
1.0
 92
        8
 66
   257
 43
1.0
 76
     1
 77
     6
 78
     2
 67
   251
 79
     3
170
     0
171
     0
290
     0
174
     0
 93
        5
 44
0.0
173
     0
291
     0
 45
0.0
1001
ACAD
1000
AcDbSavedByObjectVersion
1070
     0
  0
VISUALSTYLE
  5
532
102
{ACAD_REACTORS
330
2F
102
}
102
{ACAD_XDICTIONARY
360
607
102
}
330
2F
100
AcDbVisualStyle
  2
Shaded with edges
 70
    26
 71
     2
 72
     2
 73
     1
 90
        2
 40
0.6
 41
30.0
 62
     5
 63
     7
 74
     1
 91
       10
 64
     7
 65
   257
 75
     2
175
     1
 42
1.0
 92
        8
 66
   257
 43
1.0
 76
     1
 77
     6
 78
     2
 67
     7
 79
     3
170
     0
171
     0
290
     0
174
     0
 93
        5
 44
0.0
173
     0
291
     0
 45
0.0
1001
ACAD
1000
AcDbSavedByObjectVersion
1070
     0
  0
VISUALSTYLE
  5
52F
102
{ACAD_REACTORS
330
2F
102
}
102
{ACAD_XDICTIONARY
360
601
102
}
330
2F
100
AcDbVisualStyle
  2
Shades of Gray
 70
    23
 71
     2
 72
     2
 73
     3
 90
        0
 40
0.6
 41
30.0
 62
     5
 63
     7
 74
     2
 91
        2
 64
     7
 65
     7
 75
     1
175
     1
 42
40.0
 92
        8
 66
     7
 43
1.0
 76
     1
 77
     6
 78
     2
 67
     7
 79
     3
170
     0
171
     0
290
     0
174
     0
 93
        1
 44
0.0
173
     0
291
     0
 45
0.0
1001
ACAD
1000
AcDbSavedByObjectVersion
1070
     0
  0
VISUALSTYLE
  5
530
102
{ACAD_REACTORS
330
2F
102
}
102
{ACAD_XDICTIONARY
360
603
102
}
330
2F
100
AcDbVisualStyle
  2
Sketchy
 70
    24
 71
     1
 72
     2
 73
     2
 90
        0
 40
0.6
 41
30.0
 62
     5
 63
     7
 74
     2
 91
        2
 64
     7
 65
     7
 75
     1
175
     1
 42
40.0
 92
       11
 66
     7
 43
1.0
 76
     1
 77
     6
 78
     2
 67
     7
 79
     6
170
     0
171
     0
290
     0
174
     0
 93
        1
 44
0.0
173
     0
291
     0
 45
0.0
1001
ACAD
1000
AcDbSavedByObjectVersion
1070
     0
  0
VISUALSTYLE
  5
528
102
{ACAD_REACTORS
330
2F
102
}
102
{ACAD_XDICTIONARY
360
5F3
102
}
330
2F
100
AcDbVisualStyle
  2
Thicken
 70
    13
 71
     2
 72
     2
 73
     0
 90
        0
 40
0.6
 41
30.0
 62
     5
 63
     7
 74
     1
 91
        4
 64
     7
 65
   257
 75
     1
175
     1
 42
1.0
 92
       12
 66
     7
 43
1.0
 76
     1
 77
     6
 78
     2
 67
     7
 79
     5
170
     0
171
     0
290
     0
174
     0
 93
        1
 44
0.0
173
     0
291
     1
 45
0.0
1001
ACAD
1000
AcDbSavedByObjectVersion
1070
     0
  0
VISUALSTYLE
  5
521
102
{ACAD_REACTORS
330
2F
102
}
102
{ACAD_XDICTIONARY
360
5E5
102
}
330
2F
100
AcDbVisualStyle
  2
Wireframe
 70
     5
 71
     0
 72
     2
 73
     0
 90
        0
 40
0.6
 41
30.0
 62
     5
 63
     7
 74
     1
 91
        4
 64
     7
 65
   257
 75
     1
175
     1
 42
1.0
 92
        0
 66
   257
 43
1.0
 76
     1
 77
     6
 78
     2
 67
     7
 79
     5
170
     0
171
     0
290
     0
174
     0
 93
        1
 44
0.0
173
     0
291
     0
 45
0.0
1001
ACAD
1000
AcDbSavedByObjectVersion
1070
     0
  0
VISUALSTYLE
  5
531
102
{ACAD_REACTORS
330
2F
102
}
102
{ACAD_XDICTIONARY
360
605
102
}
330
2F
100
AcDbVisualStyle
  2
X-Ray
 70
    25
 71
     2
 72
     2
 73
     1
 90
        1
 40
0.5
 41
30.0
 62
     5
 63
     7
 74
     1
 91
        0
 64
     7
 65
   257
 75
     1
175
     1
 42
1.0
 92
        8
 66
     7
 43
1.0
 76
     1
 77
     6
 78
     2
 67
     7
 79
     3
170
     0
171
     0
290
     0
174
     0
 93
       13
 44
0.0
173
     0
291
     0
 45
0.0
1001
ACAD
1000
AcDbSavedByObjectVersion
1070
     0
  0
XRECORD
  5
5CF
102
{ACAD_REACTORS
330
5CE
102
}
330
5CE
100
AcDbXrecord
280
     1
340
2E
  0
XRECORD
  5
5D0
102
{ACAD_REACTORS
330
5CE
102
}
330
5CE
100
AcDbXrecord
280
     1
340
B
  0
DICTIONARYVAR
  5
516
102
{ACAD_REACTORS
330
515
102
}
330
515
100
DictionaryVariables
280
     0
  1
1:1
  0
DICTIONARYVAR
  5
5BC
102
{ACAD_REACTORS
330
515
102
}
330
515
100
DictionaryVariables
280
     0
  1
Standard
  0
DICTIONARYVAR
  5
5CB
102
{ACAD_REACTORS
330
515
102
}
330
515
100
DictionaryVariables
280
     0
  1
Standard
  0
DICTIONARYVAR
  5
5CC
102
{ACAD_REACTORS
330
515
102
}
330
515
100
DictionaryVariables
280
     0
  1
0
  0
DICTIONARYVAR
  5
5CD
102
{ACAD_REACTORS
330
515
102
}
330
515
100
DictionaryVariables
280
     0
  1
1
  0
DICTIONARYVAR
  5
5D4
102
{ACAD_REACTORS
330
515
102
}
330
515
100
DictionaryVariables
280
     0
  1
1
  0
DICTIONARYVAR
  5
519
102
{ACAD_REACTORS
330
515
102
}
330
515
100
DictionaryVariables
280
     0
  1
0
  0
DICTIONARY
  5
5D9
330
56
100
AcDbDictionary
280
     1
281
     1
  3
ACAD_XREC_ROUNDTRIP
360
5DA
  0
DICTIONARY
  5
5D5
330
14
100
AcDbDictionary
280
     1
281
     1
  3
ACAD_XREC_ROUNDTRIP
360
5D6
  0
DICTIONARY
  5
5D7
330
A
100
AcDbDictionary
280
     1
281
     1
  3
ACAD_XREC_ROUNDTRIP
360
5D8
  0
DICTIONARY
  5
60B
330
5B7
100
AcDbDictionary
280
     1
281
     1
  3
ACAD_XREC_ROUNDTRIP
360
60C
  0
DICTIONARY
  5
5E3
330
520
100
AcDbDictionary
280
     1
281
     1
  3
ACAD_XREC_ROUNDTRIP
360
5E4
  0
DICTIONARY
  5
5E9
330
523
100
AcDbDictionary
280
     1
281
     1
  3
ACAD_XREC_ROUNDTRIP
360
5EA
  0
DICTIONARY
  5
5F1
330
527
100
AcDbDictionary
280
     1
281
     1
  3
ACAD_XREC_ROUNDTRIP
360
5F2
  0
DICTIONARY
  5
5F9
330
52B
100
AcDbDictionary
280
     1
281
     1
  3
ACAD_XREC_ROUNDTRIP
360
5FA
  0
DICTIONARY
  5
5ED
330
525
100
AcDbDictionary
280
     1
281
     1
  3
ACAD_XREC_ROUNDTRIP
360
5EE
  0
DICTIONARY
  5
5EF
330
526
100
AcDbDictionary
280
     1
281
     1
  3
ACAD_XREC_ROUNDTRIP
360
5F0
  0
DICTIONARY
  5
5FF
330
52E
100
AcDbDictionary
280
     1
281
     1
  3
ACAD_XREC_ROUNDTRIP
360
600
  0
DICTIONARY
  5
5F7
330
52A
100
AcDbDictionary
280
     1
281
     1
  3
ACAD_XREC_ROUNDTRIP
360
5F8
  0
DICTIONARY
  5
5DB
330
51C
100
AcDbDictionary
280
     1
281
     1
  3
ACAD_XREC_ROUNDTRIP
360
5DC
  0
DICTIONARY
  5
5DD
330
51D
100
AcDbDictionary
280
     1
281
     1
  3
ACAD_XREC_ROUNDTRIP
360
5DE
  0
DICTIONARY
  5
5DF
330
51E
100
AcDbDictionary
280
     1
281
     1
  3
ACAD_XREC_ROUNDTRIP
360
5E0
  0
DICTIONARY
  5
5E1
330
51F
100
AcDbDictionary
280
     1
281
     1
  3
ACAD_XREC_ROUNDTRIP
360
5E2
  0
DICTIONARY
  5
5E7
330
522
100
AcDbDictionary
280
     1
281
     1
  3
ACAD_XREC_ROUNDTRIP
360
5E8
  0
DICTIONARY
  5
5FB
330
52C
100
AcDbDictionary
280
     1
281
     1
  3
ACAD_XREC_ROUNDTRIP
360
5FC
  0
DICTIONARY
  5
5F5
330
529
100
AcDbDictionary
280
     1
281
     1
  3
ACAD_XREC_ROUNDTRIP
360
5F6
  0
DICTIONARY
  5
5FD
330
52D
100
AcDbDictionary
280
     1
281
     1
  3
ACAD_XREC_ROUNDTRIP
360
5FE
  0
DICTIONARY
  5
5EB
330
524
100
AcDbDictionary
280
     1
281
     1
  3
ACAD_XREC_ROUNDTRIP
360
5EC
  0
DICTIONARY
  5
609
330
533
100
AcDbDictionary
280
     1
281
     1
  3
ACAD_XREC_ROUNDTRIP
360
60A
  0
DICTIONARY
  5
607
330
532
100
AcDbDictionary
280
     1
281
     1
  3
ACAD_XREC_ROUNDTRIP
360
608
  0
DICTIONARY
  5
601
330
52F
100
AcDbDictionary
280
     1
281
     1
  3
ACAD_XREC_ROUNDTRIP
360
602
  0
DICTIONARY
  5
603
330
530
100
AcDbDictionary
280
     1
281
     1
  3
ACAD_XREC_ROUNDTRIP
360
604
  0
DICTIONARY
  5
5F3
330
528
100
AcDbDictionary
280
     1
281
     1
  3
ACAD_XREC_ROUNDTRIP
360
5F4
  0
DICTIONARY
  5
5E5
330
521
100
AcDbDictionary
280
     1
281
     1
  3
ACAD_XREC_ROUNDTRIP
360
5E6
  0
DICTIONARY
  5
605
330
531
100
AcDbDictionary
280
     1
281
     1
  3
ACAD_XREC_ROUNDTRIP
360
606
  0
XRECORD
  5
5DA
102
{ACAD_REACTORS
330
5D9
102
}
330
5D9
100
AcDbXrecord
280
     1
102
MATERIAL
148
0.0
149
0.0
149
0.0
 93
        0
 94
      127
282
     0
 72
     0
 77
     0
171
     0
175
     0
179
     0
273
     0
  0
XRECORD
  5
5D6
102
{ACAD_REACTORS
330
5D5
102
}
330
5D5
100
AcDbXrecord
280
     1
102
MATERIAL
148
0.0
149
0.0
149
0.0
 93
        0
 94
      127
282
     0
 72
     0
 77
     0
171
     0
175
     0
179
     0
273
     0
  0
XRECORD
  5
5D8
102
{ACAD_REACTORS
330
5D7
102
}
330
5D7
100
AcDbXrecord
280
     1
102
MATERIAL
148
0.0
149
0.0
149
0.0
 93
        0
 94
      127
282
     0
 72
     0
 77
     0
171
     0
175
     0
179
     0
273
     0
  0
XRECORD
  5
60C
102
{ACAD_REACTORS
330
60B
102
}
330
60B
100
AcDbXrecord
280
     1
102
ACAD_ROUNDTRIP_2010_MLEADER_STYLE
  0
XRECORD
  5
5E4
102
{ACAD_REACTORS
330
5E3
102
}
330
5E3
100
AcDbXrecord
280
     1
102
RTVSPropertyOp0
 70
     1
102
RTVSPropertyOp1
 70
     1
102
RTVSPropertyOp2
 70
     1
102
RTVSPropertyOp3
 70
     1
102
RTVSPropertyOp4
 70
     1
102
RTVSPropertyOp5
 70
     1
102
RTVSPropertyOp6
 70
     1
102
RTVSPropertyOp7
 70
     1
102
RTVSPropertyOp8
 70
     1
102
RTVSPropertyOp9
 70
     1
102
RTVSPropertyOp10
 70
     1
102
RTVSPropertyOp11
 70
     1
102
RTVSPropertyOp12
 70
     1
102
RTVSPropertyOp13
 70
     1
102
RTVSPropertyOp14
 70
     1
102
RTVSPropertyOp15
 70
     1
102
RTVSPropertyOp16
 70
     1
102
RTVSPropertyOp17
 70
     1
102
RTVSPropertyOp18
 70
     1
102
RTVSPropertyOp19
 70
     1
102
RTVSPropertyOp20
 70
     1
102
RTVSPropertyOp21
 70
     1
102
RTVSPropertyOp22
 70
     1
102
RTVSPropertyOp23
 70
     1
102
RTVSPropertyOp24
 70
     1
102
RTVSPropertyOp25
 70
     1
102
RTVSPropertyOp26
 70
     1
102
RTVSPropertyOp27
 70
     1
102
RTVSPropertyOp28
 70
     1
102
RTVSPropertyOp29
 70
     1
102
RTVSPropertyOp30
 70
     1
102
RTVSPropertyOp31
 70
     1
102
RTVSPropertyOp32
 70
     1
102
RTVSPropertyOp33
 70
     1
102
RTVSPropertyOp34
 70
     1
102
RTVSPropertyOp35
 70
     1
102
RTVSPropertyOp36
 70
     1
102
RTVSPropertyOp37
 70
     1
102
RTVSPropertyOp38
 70
     1
102
RTVSPropertyOp39
 70
     1
102
RTVSPropertyOp40
 70
     1
102
RTVSPropertyOp41
 70
     1
102
RTVSPropertyOp42
 70
     1
102
RTVSPropertyOp43
 70
     1
102
RTVSPropertyOp44
 70
     1
102
RTVSPropertyOp45
 70
     1
102
RTVSPropertyOp46
 70
     1
102
RTVSPropertyOp47
 70
     1
102
RTVSPropertyOp48
 70
     1
102
RTVSPropertyOp49
 70
     1
102
RTVSPropertyOp50
 70
     1
102
RTVSPropertyOp51
 70
     0
102
RTVSPropertyOp52
 70
     0
102
RTVSPropertyOp53
 70
     1
102
RTVSPropertyOp54
 70
     1
102
RTVSPropertyOp55
 70
     1
102
RTVSPropertyOp56
 70
     1
102
RTVSPropertyOp57
 70
     1
102
RTVSPost2010Prop28
280
     1
102
RTVSPost2010PropOp28
 70
     1
102
RTVSPost2010Prop29
280
     1
102
RTVSPost2010PropOp29
 70
     1
102
RTVSPost2010Prop30
280
     0
102
RTVSPost2010PropOp30
 70
     1
102
RTVSPost2010Prop31
280
     0
102
RTVSPost2010PropOp31
 70
     1
102
RTVSPost2010Prop32
280
     0
102
RTVSPost2010PropOp32
 70
     1
102
RTVSPost2010Prop33
280
     0
102
RTVSPost2010PropOp33
 70
     1
102
RTVSPost2010Prop34
280
     0
102
RTVSPost2010PropOp34
 70
     1
102
RTVSPost2010Prop35
280
     0
102
RTVSPost2010PropOp35
 70
     1
102
RTVSPost2010Prop36
280
     0
102
RTVSPost2010PropOp36
 70
     1
102
RTVSPost2010Prop37
 90
       50
102
RTVSPost2010PropOp37
 70
     1
102
RTVSPost2010Prop38
140
0.0
102
RTVSPost2010PropOp38
 70
     1
102
RTVSPost2010Prop39
140
1.0
102
RTVSPost2010PropOp39
 70
     1
102
RTVSPost2010Prop40
 90
        0
102
RTVSPost2010PropOp40
 70
     1
102
RTVSPost2010Prop41ColorIndex
 90
       18
102
RTVSPost2010Prop41ColorRGB
 90
        0
102
RTVSPost2010PropOp41
 70
     1
102
RTVSPost2010Prop42
 90
       50
102
RTVSPost2010PropOp42
 70
     1
102
RTVSPost2010Prop43
 90
        3
102
RTVSPost2010PropOp43
 70
     1
102
RTVSPost2010Prop44ColorIndex
 90
        5
102
RTVSPost2010Prop44ColorRGB
 90
      255
102
RTVSPost2010PropOp44
 70
     1
102
RTVSPost2010Prop45
280
     0
102
RTVSPost2010PropOp45
 70
     1
102
RTVSPost2010Prop46
 90
       50
102
RTVSPost2010PropOp46
 70
     1
102
RTVSPost2010Prop47
 90
       50
102
RTVSPost2010PropOp47
 70
     1
102
RTVSPost2010Prop48
 90
       50
102
RTVSPost2010PropOp48
 70
     1
102
RTVSPost2010Prop49
280
     0
102
RTVSPost2010PropOp49
 70
     1
102
RTVSPost2010Prop50
 90
       50
102
RTVSPost2010PropOp50
 70
     1
102
RTVSPost2010Prop51ColorIndex
 90
      256
102
RTVSPost2010Prop51ColorRGB
 90
-16777216
102
RTVSPost2010PropOp51
 70
     0
102
RTVSPost2010Prop52
140
1.0
102
RTVSPost2010PropOp52
 70
     0
102
RTVSPost2010Prop53
 90
        2
102
RTVSPost2010PropOp53
 70
     1
102
RTVSPost2010Prop54
  1
strokes_ogs.tif
102
RTVSPost2010PropOp54
 70
     1
102
RTVSPost2010Prop55
280
     0
102
RTVSPost2010PropOp55
 70
     1
102
RTVSPost2010Prop56
140
1.0
102
RTVSPost2010PropOp56
 70
     1
102
RTVSPost2010Prop57
140
1.0
102
RTVSPost2010PropOp57
 70
     1
  0
XRECORD
  5
5EA
102
{ACAD_REACTORS
330
5E9
102
}
330
5E9
100
AcDbXrecord
280
     1
102
RTVSPropertyOp0
 70
     1
102
RTVSPropertyOp1
 70
     1
102
RTVSPropertyOp2
 70
     1
102
RTVSPropertyOp3
 70
     1
102
RTVSPropertyOp4
 70
     1
102
RTVSPropertyOp5
 70
     1
102
RTVSPropertyOp6
 70
     1
102
RTVSPropertyOp7
 70
     1
102
RTVSPropertyOp8
 70
     1
102
RTVSPropertyOp9
 70
     1
102
RTVSPropertyOp10
 70
     1
102
RTVSPropertyOp11
 70
     1
102
RTVSPropertyOp12
 70
     1
102
RTVSPropertyOp13
 70
     1
102
RTVSPropertyOp14
 70
     1
102
RTVSPropertyOp15
 70
     1
102
RTVSPropertyOp16
 70
     1
102
RTVSPropertyOp17
 70
     1
102
RTVSPropertyOp18
 70
     1
102
RTVSPropertyOp19
 70
     1
102
RTVSPropertyOp20
 70
     1
102
RTVSPropertyOp21
 70
     1
102
RTVSPropertyOp22
 70
     1
102
RTVSPropertyOp23
 70
     1
102
RTVSPropertyOp24
 70
     1
102
RTVSPropertyOp25
 70
     1
102
RTVSPropertyOp26
 70
     1
102
RTVSPropertyOp27
 70
     1
102
RTVSPropertyOp28
 70
     1
102
RTVSPropertyOp29
 70
     1
102
RTVSPropertyOp30
 70
     1
102
RTVSPropertyOp31
 70
     1
102
RTVSPropertyOp32
 70
     1
102
RTVSPropertyOp33
 70
     1
102
RTVSPropertyOp34
 70
     1
102
RTVSPropertyOp35
 70
     1
102
RTVSPropertyOp36
 70
     1
102
RTVSPropertyOp37
 70
     1
102
RTVSPropertyOp38
 70
     1
102
RTVSPropertyOp39
 70
     1
102
RTVSPropertyOp40
 70
     1
102
RTVSPropertyOp41
 70
     1
102
RTVSPropertyOp42
 70
     1
102
RTVSPropertyOp43
 70
     1
102
RTVSPropertyOp44
 70
     1
102
RTVSPropertyOp45
 70
     1
102
RTVSPropertyOp46
 70
     1
102
RTVSPropertyOp47
 70
     1
102
RTVSPropertyOp48
 70
     1
102
RTVSPropertyOp49
 70
     1
102
RTVSPropertyOp50
 70
     1
102
RTVSPropertyOp51
 70
     0
102
RTVSPropertyOp52
 70
     0
102
RTVSPropertyOp53
 70
     1
102
RTVSPropertyOp54
 70
     1
102
RTVSPropertyOp55
 70
     1
102
RTVSPropertyOp56
 70
     1
102
RTVSPropertyOp57
 70
     1
102
RTVSPost2010Prop28
280
     0
102
RTVSPost2010PropOp28
 70
     1
102
RTVSPost2010Prop29
280
     1
102
RTVSPost2010PropOp29
 70
     1
102
RTVSPost2010Prop30
280
     1
102
RTVSPost2010PropOp30
 70
     1
102
RTVSPost2010Prop31
280
     0
102
RTVSPost2010PropOp31
 70
     1
102
RTVSPost2010Prop32
280
     0
102
RTVSPost2010PropOp32
 70
     1
102
RTVSPost2010Prop33
280
     0
102
RTVSPost2010PropOp33
 70
     1
102
RTVSPost2010Prop34
280
     0
102
RTVSPost2010PropOp34
 70
     1
102
RTVSPost2010Prop35
280
     0
102
RTVSPost2010PropOp35
 70
     1
102
RTVSPost2010Prop36
280
     0
102
RTVSPost2010PropOp36
 70
     1
102
RTVSPost2010Prop37
 90
       50
102
RTVSPost2010PropOp37
 70
     1
102
RTVSPost2010Prop38
140
0.0
102
RTVSPost2010PropOp38
 70
     1
102
RTVSPost2010Prop39
140
1.0
102
RTVSPost2010PropOp39
 70
     1
102
RTVSPost2010Prop40
 90
        0
102
RTVSPost2010PropOp40
 70
     1
102
RTVSPost2010Prop41ColorIndex
 90
       18
102
RTVSPost2010Prop41ColorRGB
 90
        0
102
RTVSPost2010PropOp41
 70
     1
102
RTVSPost2010Prop42
 90
       50
102
RTVSPost2010PropOp42
 70
     1
102
RTVSPost2010Prop43
 90
        3
102
RTVSPost2010PropOp43
 70
     1
102
RTVSPost2010Prop44ColorIndex
 90
        5
102
RTVSPost2010Prop44ColorRGB
 90
      255
102
RTVSPost2010PropOp44
 70
     1
102
RTVSPost2010Prop45
280
     0
102
RTVSPost2010PropOp45
 70
     1
102
RTVSPost2010Prop46
 90
       50
102
RTVSPost2010PropOp46
 70
     1
102
RTVSPost2010Prop47
 90
       50
102
RTVSPost2010PropOp47
 70
     1
102
RTVSPost2010Prop48
 90
       50
102
RTVSPost2010PropOp48
 70
     1
102
RTVSPost2010Prop49
280
     0
102
RTVSPost2010PropOp49
 70
     1
102
RTVSPost2010Prop50
 90
       50
102
RTVSPost2010PropOp50
 70
     1
102
RTVSPost2010Prop51ColorIndex
 90
      256
102
RTVSPost2010Prop51ColorRGB
 90
-16777216
102
RTVSPost2010PropOp51
 70
     0
102
RTVSPost2010Prop52
140
1.0
102
RTVSPost2010PropOp52
 70
     0
102
RTVSPost2010Prop53
 90
        2
102
RTVSPost2010PropOp53
 70
     1
102
RTVSPost2010Prop54
  1
strokes_ogs.tif
102
RTVSPost2010PropOp54
 70
     1
102
RTVSPost2010Prop55
280
     0
102
RTVSPost2010PropOp55
 70
     1
102
RTVSPost2010Prop56
140
1.0
102
RTVSPost2010PropOp56
 70
     1
102
RTVSPost2010Prop57
140
1.0
102
RTVSPost2010PropOp57
 70
     1
  0
XRECORD
  5
5F2
102
{ACAD_REACTORS
330
5F1
102
}
330
5F1
100
AcDbXrecord
280
     1
102
RTVSPropertyOp0
 70
     1
102
RTVSPropertyOp1
 70
     1
102
RTVSPropertyOp2
 70
     1
102
RTVSPropertyOp3
 70
     1
102
RTVSPropertyOp4
 70
     1
102
RTVSPropertyOp5
 70
     1
102
RTVSPropertyOp6
 70
     1
102
RTVSPropertyOp7
 70
     1
102
RTVSPropertyOp8
 70
     1
102
RTVSPropertyOp9
 70
     1
102
RTVSPropertyOp10
 70
     1
102
RTVSPropertyOp11
 70
     1
102
RTVSPropertyOp12
 70
     1
102
RTVSPropertyOp13
 70
     1
102
RTVSPropertyOp14
 70
     1
102
RTVSPropertyOp15
 70
     1
102
RTVSPropertyOp16
 70
     1
102
RTVSPropertyOp17
 70
     1
102
RTVSPropertyOp18
 70
     1
102
RTVSPropertyOp19
 70
     1
102
RTVSPropertyOp20
 70
     1
102
RTVSPropertyOp21
 70
     1
102
RTVSPropertyOp22
 70
     1
102
RTVSPropertyOp23
 70
     1
102
RTVSPropertyOp24
 70
     1
102
RTVSPropertyOp25
 70
     1
102
RTVSPropertyOp26
 70
     1
102
RTVSPropertyOp27
 70
     1
102
RTVSPropertyOp28
 70
     1
102
RTVSPropertyOp29
 70
     1
102
RTVSPropertyOp30
 70
     1
102
RTVSPropertyOp31
 70
     1
102
RTVSPropertyOp32
 70
     1
102
RTVSPropertyOp33
 70
     1
102
RTVSPropertyOp34
 70
     1
102
RTVSPropertyOp35
 70
     1
102
RTVSPropertyOp36
 70
     1
102
RTVSPropertyOp37
 70
     1
102
RTVSPropertyOp38
 70
     1
102
RTVSPropertyOp39
 70
     1
102
RTVSPropertyOp40
 70
     1
102
RTVSPropertyOp41
 70
     1
102
RTVSPropertyOp42
 70
     1
102
RTVSPropertyOp43
 70
     1
102
RTVSPropertyOp44
 70
     1
102
RTVSPropertyOp45
 70
     1
102
RTVSPropertyOp46
 70
     1
102
RTVSPropertyOp47
 70
     1
102
RTVSPropertyOp48
 70
     1
102
RTVSPropertyOp49
 70
     1
102
RTVSPropertyOp50
 70
     1
102
RTVSPropertyOp51
 70
     0
102
RTVSPropertyOp52
 70
     0
102
RTVSPropertyOp53
 70
     1
102
RTVSPropertyOp54
 70
     1
102
RTVSPropertyOp55
 70
     1
102
RTVSPropertyOp56
 70
     1
102
RTVSPropertyOp57
 70
     1
102
RTVSPost2010Prop28
280
     0
102
RTVSPost2010PropOp28
 70
     1
102
RTVSPost2010Prop29
280
     1
102
RTVSPost2010PropOp29
 70
     1
102
RTVSPost2010Prop30
280
     1
102
RTVSPost2010PropOp30
 70
     1
102
RTVSPost2010Prop31
280
     0
102
RTVSPost2010PropOp31
 70
     1
102
RTVSPost2010Prop32
280
     0
102
RTVSPost2010PropOp32
 70
     1
102
RTVSPost2010Prop33
280
     0
102
RTVSPost2010PropOp33
 70
     1
102
RTVSPost2010Prop34
280
     0
102
RTVSPost2010PropOp34
 70
     1
102
RTVSPost2010Prop35
280
     0
102
RTVSPost2010PropOp35
 70
     1
102
RTVSPost2010Prop36
280
     0
102
RTVSPost2010PropOp36
 70
     1
102
RTVSPost2010Prop37
 90
       50
102
RTVSPost2010PropOp37
 70
     1
102
RTVSPost2010Prop38
140
0.0
102
RTVSPost2010PropOp38
 70
     1
102
RTVSPost2010Prop39
140
1.0
102
RTVSPost2010PropOp39
 70
     1
102
RTVSPost2010Prop40
 90
        0
102
RTVSPost2010PropOp40
 70
     1
102
RTVSPost2010Prop41ColorIndex
 90
       18
102
RTVSPost2010Prop41ColorRGB
 90
        0
102
RTVSPost2010PropOp41
 70
     1
102
RTVSPost2010Prop42
 90
       50
102
RTVSPost2010PropOp42
 70
     1
102
RTVSPost2010Prop43
 90
        3
102
RTVSPost2010PropOp43
 70
     1
102
RTVSPost2010Prop44ColorIndex
 90
        5
102
RTVSPost2010Prop44ColorRGB
 90
      255
102
RTVSPost2010PropOp44
 70
     1
102
RTVSPost2010Prop45
280
     0
102
RTVSPost2010PropOp45
 70
     1
102
RTVSPost2010Prop46
 90
       50
102
RTVSPost2010PropOp46
 70
     1
102
RTVSPost2010Prop47
 90
       50
102
RTVSPost2010PropOp47
 70
     1
102
RTVSPost2010Prop48
 90
       50
102
RTVSPost2010PropOp48
 70
     1
102
RTVSPost2010Prop49
280
     0
102
RTVSPost2010PropOp49
 70
     1
102
RTVSPost2010Prop50
 90
       50
102
RTVSPost2010PropOp50
 70
     1
102
RTVSPost2010Prop51ColorIndex
 90
      256
102
RTVSPost2010Prop51ColorRGB
 90
-16777216
102
RTVSPost2010PropOp51
 70
     0
102
RTVSPost2010Prop52
140
1.0
102
RTVSPost2010PropOp52
 70
     0
102
RTVSPost2010Prop53
 90
        2
102
RTVSPost2010PropOp53
 70
     1
102
RTVSPost2010Prop54
  1
strokes_ogs.tif
102
RTVSPost2010PropOp54
 70
     1
102
RTVSPost2010Prop55
280
     0
102
RTVSPost2010PropOp55
 70
     1
102
RTVSPost2010Prop56
140
1.0
102
RTVSPost2010PropOp56
 70
     1
102
RTVSPost2010Prop57
140
1.0
102
RTVSPost2010PropOp57
 70
     1
  0
XRECORD
  5
5FA
102
{ACAD_REACTORS
330
5F9
102
}
330
5F9
100
AcDbXrecord
280
     1
102
RTVSPropertyOp0
 70
     1
102
RTVSPropertyOp1
 70
     1
102
RTVSPropertyOp2
 70
     1
102
RTVSPropertyOp3
 70
     1
102
RTVSPropertyOp4
 70
     1
102
RTVSPropertyOp5
 70
     1
102
RTVSPropertyOp6
 70
     1
102
RTVSPropertyOp7
 70
     1
102
RTVSPropertyOp8
 70
     1
102
RTVSPropertyOp9
 70
     1
102
RTVSPropertyOp10
 70
     1
102
RTVSPropertyOp11
 70
     1
102
RTVSPropertyOp12
 70
     1
102
RTVSPropertyOp13
 70
     1
102
RTVSPropertyOp14
 70
     1
102
RTVSPropertyOp15
 70
     1
102
RTVSPropertyOp16
 70
     1
102
RTVSPropertyOp17
 70
     1
102
RTVSPropertyOp18
 70
     1
102
RTVSPropertyOp19
 70
     1
102
RTVSPropertyOp20
 70
     1
102
RTVSPropertyOp21
 70
     1
102
RTVSPropertyOp22
 70
     1
102
RTVSPropertyOp23
 70
     1
102
RTVSPropertyOp24
 70
     1
102
RTVSPropertyOp25
 70
     1
102
RTVSPropertyOp26
 70
     1
102
RTVSPropertyOp27
 70
     1
102
RTVSPropertyOp28
 70
     1
102
RTVSPropertyOp29
 70
     1
102
RTVSPropertyOp30
 70
     1
102
RTVSPropertyOp31
 70
     1
102
RTVSPropertyOp32
 70
     1
102
RTVSPropertyOp33
 70
     1
102
RTVSPropertyOp34
 70
     1
102
RTVSPropertyOp35
 70
     1
102
RTVSPropertyOp36
 70
     1
102
RTVSPropertyOp37
 70
     1
102
RTVSPropertyOp38
 70
     1
102
RTVSPropertyOp39
 70
     1
102
RTVSPropertyOp40
 70
     1
102
RTVSPropertyOp41
 70
     1
102
RTVSPropertyOp42
 70
     1
102
RTVSPropertyOp43
 70
     1
102
RTVSPropertyOp44
 70
     1
102
RTVSPropertyOp45
 70
     1
102
RTVSPropertyOp46
 70
     1
102
RTVSPropertyOp47
 70
     1
102
RTVSPropertyOp48
 70
     1
102
RTVSPropertyOp49
 70
     1
102
RTVSPropertyOp50
 70
     1
102
RTVSPropertyOp51
 70
     0
102
RTVSPropertyOp52
 70
     0
102
RTVSPropertyOp53
 70
     1
102
RTVSPropertyOp54
 70
     1
102
RTVSPropertyOp55
 70
     1
102
RTVSPropertyOp56
 70
     1
102
RTVSPropertyOp57
 70
     1
102
RTVSPost2010Prop28
280
     0
102
RTVSPost2010PropOp28
 70
     1
102
RTVSPost2010Prop29
280
     1
102
RTVSPost2010PropOp29
 70
     1
102
RTVSPost2010Prop30
280
     1
102
RTVSPost2010PropOp30
 70
     1
102
RTVSPost2010Prop31
280
     0
102
RTVSPost2010PropOp31
 70
     1
102
RTVSPost2010Prop32
280
     0
102
RTVSPost2010PropOp32
 70
     1
102
RTVSPost2010Prop33
280
     0
102
RTVSPost2010PropOp33
 70
     1
102
RTVSPost2010Prop34
280
     0
102
RTVSPost2010PropOp34
 70
     1
102
RTVSPost2010Prop35
280
     0
102
RTVSPost2010PropOp35
 70
     1
102
RTVSPost2010Prop36
280
     0
102
RTVSPost2010PropOp36
 70
     1
102
RTVSPost2010Prop37
 90
       50
102
RTVSPost2010PropOp37
 70
     1
102
RTVSPost2010Prop38
140
0.0
102
RTVSPost2010PropOp38
 70
     1
102
RTVSPost2010Prop39
140
1.0
102
RTVSPost2010PropOp39
 70
     1
102
RTVSPost2010Prop40
 90
        0
102
RTVSPost2010PropOp40
 70
     1
102
RTVSPost2010Prop41ColorIndex
 90
       18
102
RTVSPost2010Prop41ColorRGB
 90
        0
102
RTVSPost2010PropOp41
 70
     1
102
RTVSPost2010Prop42
 90
       50
102
RTVSPost2010PropOp42
 70
     1
102
RTVSPost2010Prop43
 90
        3
102
RTVSPost2010PropOp43
 70
     1
102
RTVSPost2010Prop44ColorIndex
 90
        5
102
RTVSPost2010Prop44ColorRGB
 90
      255
102
RTVSPost2010PropOp44
 70
     1
102
RTVSPost2010Prop45
280
     0
102
RTVSPost2010PropOp45
 70
     1
102
RTVSPost2010Prop46
 90
       50
102
RTVSPost2010PropOp46
 70
     1
102
RTVSPost2010Prop47
 90
       50
102
RTVSPost2010PropOp47
 70
     1
102
RTVSPost2010Prop48
 90
       50
102
RTVSPost2010PropOp48
 70
     1
102
RTVSPost2010Prop49
280
     0
102
RTVSPost2010PropOp49
 70
     1
102
RTVSPost2010Prop50
 90
       50
102
RTVSPost2010PropOp50
 70
     1
102
RTVSPost2010Prop51ColorIndex
 90
      256
102
RTVSPost2010Prop51ColorRGB
 90
-16777216
102
RTVSPost2010PropOp51
 70
     0
102
RTVSPost2010Prop52
140
1.0
102
RTVSPost2010PropOp52
 70
     0
102
RTVSPost2010Prop53
 90
        2
102
RTVSPost2010PropOp53
 70
     1
102
RTVSPost2010Prop54
  1
strokes_ogs.tif
102
RTVSPost2010PropOp54
 70
     1
102
RTVSPost2010Prop55
280
     0
102
RTVSPost2010PropOp55
 70
     1
102
RTVSPost2010Prop56
140
1.0
102
RTVSPost2010PropOp56
 70
     1
102
RTVSPost2010Prop57
140
1.0
102
RTVSPost2010PropOp57
 70
     1
  0
XRECORD
  5
5EE
102
{ACAD_REACTORS
330
5ED
102
}
330
5ED
100
AcDbXrecord
280
     1
102
RTVSPropertyOp0
 70
     1
102
RTVSPropertyOp1
 70
     1
102
RTVSPropertyOp2
 70
     1
102
RTVSPropertyOp3
 70
     1
102
RTVSPropertyOp4
 70
     1
102
RTVSPropertyOp5
 70
     1
102
RTVSPropertyOp6
 70
     1
102
RTVSPropertyOp7
 70
     1
102
RTVSPropertyOp8
 70
     1
102
RTVSPropertyOp9
 70
     1
102
RTVSPropertyOp10
 70
     1
102
RTVSPropertyOp11
 70
     1
102
RTVSPropertyOp12
 70
     1
102
RTVSPropertyOp13
 70
     1
102
RTVSPropertyOp14
 70
     1
102
RTVSPropertyOp15
 70
     1
102
RTVSPropertyOp16
 70
     1
102
RTVSPropertyOp17
 70
     1
102
RTVSPropertyOp18
 70
     1
102
RTVSPropertyOp19
 70
     1
102
RTVSPropertyOp20
 70
     1
102
RTVSPropertyOp21
 70
     1
102
RTVSPropertyOp22
 70
     1
102
RTVSPropertyOp23
 70
     1
102
RTVSPropertyOp24
 70
     1
102
RTVSPropertyOp25
 70
     1
102
RTVSPropertyOp26
 70
     1
102
RTVSPropertyOp27
 70
     1
102
RTVSPropertyOp28
 70
     1
102
RTVSPropertyOp29
 70
     1
102
RTVSPropertyOp30
 70
     1
102
RTVSPropertyOp31
 70
     1
102
RTVSPropertyOp32
 70
     1
102
RTVSPropertyOp33
 70
     1
102
RTVSPropertyOp34
 70
     1
102
RTVSPropertyOp35
 70
     1
102
RTVSPropertyOp36
 70
     1
102
RTVSPropertyOp37
 70
     1
102
RTVSPropertyOp38
 70
     1
102
RTVSPropertyOp39
 70
     1
102
RTVSPropertyOp40
 70
     1
102
RTVSPropertyOp41
 70
     1
102
RTVSPropertyOp42
 70
     1
102
RTVSPropertyOp43
 70
     1
102
RTVSPropertyOp44
 70
     1
102
RTVSPropertyOp45
 70
     1
102
RTVSPropertyOp46
 70
     1
102
RTVSPropertyOp47
 70
     1
102
RTVSPropertyOp48
 70
     1
102
RTVSPropertyOp49
 70
     1
102
RTVSPropertyOp50
 70
     1
102
RTVSPropertyOp51
 70
     0
102
RTVSPropertyOp52
 70
     0
102
RTVSPropertyOp53
 70
     1
102
RTVSPropertyOp54
 70
     1
102
RTVSPropertyOp55
 70
     1
102
RTVSPropertyOp56
 70
     1
102
RTVSPropertyOp57
 70
     1
102
RTVSPost2010Prop28
280
     0
102
RTVSPost2010PropOp28
 70
     1
102
RTVSPost2010Prop29
280
     1
102
RTVSPost2010PropOp29
 70
     1
102
RTVSPost2010Prop30
280
     1
102
RTVSPost2010PropOp30
 70
     1
102
RTVSPost2010Prop31
280
     0
102
RTVSPost2010PropOp31
 70
     1
102
RTVSPost2010Prop32
280
     0
102
RTVSPost2010PropOp32
 70
     1
102
RTVSPost2010Prop33
280
     0
102
RTVSPost2010PropOp33
 70
     1
102
RTVSPost2010Prop34
280
     0
102
RTVSPost2010PropOp34
 70
     1
102
RTVSPost2010Prop35
280
     0
102
RTVSPost2010PropOp35
 70
     1
102
RTVSPost2010Prop36
280
     0
102
RTVSPost2010PropOp36
 70
     1
102
RTVSPost2010Prop37
 90
       50
102
RTVSPost2010PropOp37
 70
     1
102
RTVSPost2010Prop38
140
0.0
102
RTVSPost2010PropOp38
 70
     1
102
RTVSPost2010Prop39
140
1.0
102
RTVSPost2010PropOp39
 70
     1
102
RTVSPost2010Prop40
 90
        0
102
RTVSPost2010PropOp40
 70
     1
102
RTVSPost2010Prop41ColorIndex
 90
       18
102
RTVSPost2010Prop41ColorRGB
 90
        0
102
RTVSPost2010PropOp41
 70
     1
102
RTVSPost2010Prop42
 90
       50
102
RTVSPost2010PropOp42
 70
     1
102
RTVSPost2010Prop43
 90
        3
102
RTVSPost2010PropOp43
 70
     1
102
RTVSPost2010Prop44ColorIndex
 90
        5
102
RTVSPost2010Prop44ColorRGB
 90
      255
102
RTVSPost2010PropOp44
 70
     1
102
RTVSPost2010Prop45
280
     0
102
RTVSPost2010PropOp45
 70
     1
102
RTVSPost2010Prop46
 90
       50
102
RTVSPost2010PropOp46
 70
     1
102
RTVSPost2010Prop47
 90
       50
102
RTVSPost2010PropOp47
 70
     1
102
RTVSPost2010Prop48
 90
       50
102
RTVSPost2010PropOp48
 70
     1
102
RTVSPost2010Prop49
280
     0
102
RTVSPost2010PropOp49
 70
     1
102
RTVSPost2010Prop50
 90
       50
102
RTVSPost2010PropOp50
 70
     1
102
RTVSPost2010Prop51ColorIndex
 90
      256
102
RTVSPost2010Prop51ColorRGB
 90
-16777216
102
RTVSPost2010PropOp51
 70
     0
102
RTVSPost2010Prop52
140
1.0
102
RTVSPost2010PropOp52
 70
     0
102
RTVSPost2010Prop53
 90
        2
102
RTVSPost2010PropOp53
 70
     1
102
RTVSPost2010Prop54
  1
strokes_ogs.tif
102
RTVSPost2010PropOp54
 70
     1
102
RTVSPost2010Prop55
280
     0
102
RTVSPost2010PropOp55
 70
     1
102
RTVSPost2010Prop56
140
1.0
102
RTVSPost2010PropOp56
 70
     1
102
RTVSPost2010Prop57
140
1.0
102
RTVSPost2010PropOp57
 70
     1
  0
XRECORD
  5
5F0
102
{ACAD_REACTORS
330
5EF
102
}
330
5EF
100
AcDbXrecord
280
     1
102
RTVSPropertyOp0
 70
     1
102
RTVSPropertyOp1
 70
     1
102
RTVSPropertyOp2
 70
     1
102
RTVSPropertyOp3
 70
     1
102
RTVSPropertyOp4
 70
     1
102
RTVSPropertyOp5
 70
     1
102
RTVSPropertyOp6
 70
     1
102
RTVSPropertyOp7
 70
     1
102
RTVSPropertyOp8
 70
     1
102
RTVSPropertyOp9
 70
     1
102
RTVSPropertyOp10
 70
     1
102
RTVSPropertyOp11
 70
     1
102
RTVSPropertyOp12
 70
     1
102
RTVSPropertyOp13
 70
     1
102
RTVSPropertyOp14
 70
     1
102
RTVSPropertyOp15
 70
     1
102
RTVSPropertyOp16
 70
     1
102
RTVSPropertyOp17
 70
     1
102
RTVSPropertyOp18
 70
     1
102
RTVSPropertyOp19
 70
     1
102
RTVSPropertyOp20
 70
     1
102
RTVSPropertyOp21
 70
     1
102
RTVSPropertyOp22
 70
     1
102
RTVSPropertyOp23
 70
     1
102
RTVSPropertyOp24
 70
     1
102
RTVSPropertyOp25
 70
     1
102
RTVSPropertyOp26
 70
     1
102
RTVSPropertyOp27
 70
     1
102
RTVSPropertyOp28
 70
     1
102
RTVSPropertyOp29
 70
     1
102
RTVSPropertyOp30
 70
     1
102
RTVSPropertyOp31
 70
     1
102
RTVSPropertyOp32
 70
     1
102
RTVSPropertyOp33
 70
     1
102
RTVSPropertyOp34
 70
     1
102
RTVSPropertyOp35
 70
     1
102
RTVSPropertyOp36
 70
     1
102
RTVSPropertyOp37
 70
     1
102
RTVSPropertyOp38
 70
     1
102
RTVSPropertyOp39
 70
     1
102
RTVSPropertyOp40
 70
     1
102
RTVSPropertyOp41
 70
     1
102
RTVSPropertyOp42
 70
     1
102
RTVSPropertyOp43
 70
     1
102
RTVSPropertyOp44
 70
     1
102
RTVSPropertyOp45
 70
     1
102
RTVSPropertyOp46
 70
     1
102
RTVSPropertyOp47
 70
     1
102
RTVSPropertyOp48
 70
     1
102
RTVSPropertyOp49
 70
     1
102
RTVSPropertyOp50
 70
     1
102
RTVSPropertyOp51
 70
     0
102
RTVSPropertyOp52
 70
     0
102
RTVSPropertyOp53
 70
     1
102
RTVSPropertyOp54
 70
     1
102
RTVSPropertyOp55
 70
     1
102
RTVSPropertyOp56
 70
     1
102
RTVSPropertyOp57
 70
     1
102
RTVSPost2010Prop28
280
     0
102
RTVSPost2010PropOp28
 70
     1
102
RTVSPost2010Prop29
280
     1
102
RTVSPost2010PropOp29
 70
     1
102
RTVSPost2010Prop30
280
     1
102
RTVSPost2010PropOp30
 70
     1
102
RTVSPost2010Prop31
280
     0
102
RTVSPost2010PropOp31
 70
     1
102
RTVSPost2010Prop32
280
     0
102
RTVSPost2010PropOp32
 70
     1
102
RTVSPost2010Prop33
280
     0
102
RTVSPost2010PropOp33
 70
     1
102
RTVSPost2010Prop34
280
     0
102
RTVSPost2010PropOp34
 70
     1
102
RTVSPost2010Prop35
280
     0
102
RTVSPost2010PropOp35
 70
     1
102
RTVSPost2010Prop36
280
     0
102
RTVSPost2010PropOp36
 70
     1
102
RTVSPost2010Prop37
 90
       50
102
RTVSPost2010PropOp37
 70
     1
102
RTVSPost2010Prop38
140
0.0
102
RTVSPost2010PropOp38
 70
     1
102
RTVSPost2010Prop39
140
1.0
102
RTVSPost2010PropOp39
 70
     1
102
RTVSPost2010Prop40
 90
        0
102
RTVSPost2010PropOp40
 70
     1
102
RTVSPost2010Prop41ColorIndex
 90
       18
102
RTVSPost2010Prop41ColorRGB
 90
        0
102
RTVSPost2010PropOp41
 70
     1
102
RTVSPost2010Prop42
 90
       50
102
RTVSPost2010PropOp42
 70
     1
102
RTVSPost2010Prop43
 90
        3
102
RTVSPost2010PropOp43
 70
     1
102
RTVSPost2010Prop44ColorIndex
 90
        5
102
RTVSPost2010Prop44ColorRGB
 90
      255
102
RTVSPost2010PropOp44
 70
     1
102
RTVSPost2010Prop45
280
     0
102
RTVSPost2010PropOp45
 70
     1
102
RTVSPost2010Prop46
 90
       50
102
RTVSPost2010PropOp46
 70
     1
102
RTVSPost2010Prop47
 90
       50
102
RTVSPost2010PropOp47
 70
     1
102
RTVSPost2010Prop48
 90
       50
102
RTVSPost2010PropOp48
 70
     1
102
RTVSPost2010Prop49
280
     0
102
RTVSPost2010PropOp49
 70
     1
102
RTVSPost2010Prop50
 90
       50
102
RTVSPost2010PropOp50
 70
     1
102
RTVSPost2010Prop51ColorIndex
 90
      256
102
RTVSPost2010Prop51ColorRGB
 90
-16777216
102
RTVSPost2010PropOp51
 70
     0
102
RTVSPost2010Prop52
140
1.0
102
RTVSPost2010PropOp52
 70
     0
102
RTVSPost2010Prop53
 90
        2
102
RTVSPost2010PropOp53
 70
     1
102
RTVSPost2010Prop54
  1
strokes_ogs.tif
102
RTVSPost2010PropOp54
 70
     1
102
RTVSPost2010Prop55
280
     0
102
RTVSPost2010PropOp55
 70
     1
102
RTVSPost2010Prop56
140
1.0
102
RTVSPost2010PropOp56
 70
     1
102
RTVSPost2010Prop57
140
1.0
102
RTVSPost2010PropOp57
 70
     1
  0
XRECORD
  5
600
102
{ACAD_REACTORS
330
5FF
102
}
330
5FF
100
AcDbXrecord
280
     1
102
RTVSPropertyOp0
 70
     0
102
RTVSPropertyOp1
 70
     0
102
RTVSPropertyOp2
 70
     0
102
RTVSPropertyOp3
 70
     0
102
RTVSPropertyOp4
 70
     0
102
RTVSPropertyOp5
 70
     0
102
RTVSPropertyOp6
 70
     0
102
RTVSPropertyOp7
 70
     0
102
RTVSPropertyOp8
 70
     0
102
RTVSPropertyOp9
 70
     0
102
RTVSPropertyOp10
 70
     0
102
RTVSPropertyOp11
 70
     0
102
RTVSPropertyOp12
 70
     0
102
RTVSPropertyOp13
 70
     0
102
RTVSPropertyOp14
 70
     0
102
RTVSPropertyOp15
 70
     0
102
RTVSPropertyOp16
 70
     0
102
RTVSPropertyOp17
 70
     0
102
RTVSPropertyOp18
 70
     0
102
RTVSPropertyOp19
 70
     0
102
RTVSPropertyOp20
 70
     0
102
RTVSPropertyOp21
 70
     0
102
RTVSPropertyOp22
 70
     0
102
RTVSPropertyOp23
 70
     0
102
RTVSPropertyOp24
 70
     0
102
RTVSPropertyOp25
 70
     0
102
RTVSPropertyOp26
 70
     0
102
RTVSPropertyOp27
 70
     0
102
RTVSPropertyOp28
 70
     1
102
RTVSPropertyOp29
 70
     1
102
RTVSPropertyOp30
 70
     1
102
RTVSPropertyOp31
 70
     1
102
RTVSPropertyOp32
 70
     1
102
RTVSPropertyOp33
 70
     1
102
RTVSPropertyOp34
 70
     1
102
RTVSPropertyOp35
 70
     1
102
RTVSPropertyOp36
 70
     1
102
RTVSPropertyOp37
 70
     1
102
RTVSPropertyOp38
 70
     1
102
RTVSPropertyOp39
 70
     1
102
RTVSPropertyOp40
 70
     1
102
RTVSPropertyOp41
 70
     1
102
RTVSPropertyOp42
 70
     1
102
RTVSPropertyOp43
 70
     1
102
RTVSPropertyOp44
 70
     1
102
RTVSPropertyOp45
 70
     1
102
RTVSPropertyOp46
 70
     1
102
RTVSPropertyOp47
 70
     1
102
RTVSPropertyOp48
 70
     1
102
RTVSPropertyOp49
 70
     1
102
RTVSPropertyOp50
 70
     1
102
RTVSPropertyOp51
 70
     0
102
RTVSPropertyOp52
 70
     0
102
RTVSPropertyOp53
 70
     1
102
RTVSPropertyOp54
 70
     1
102
RTVSPropertyOp55
 70
     1
102
RTVSPropertyOp56
 70
     1
102
RTVSPropertyOp57
 70
     1
102
RTVSPost2010Prop28
280
     0
102
RTVSPost2010PropOp28
 70
     1
102
RTVSPost2010Prop29
280
     1
102
RTVSPost2010PropOp29
 70
     1
102
RTVSPost2010Prop30
280
     1
102
RTVSPost2010PropOp30
 70
     1
102
RTVSPost2010Prop31
280
     0
102
RTVSPost2010PropOp31
 70
     1
102
RTVSPost2010Prop32
280
     0
102
RTVSPost2010PropOp32
 70
     1
102
RTVSPost2010Prop33
280
     0
102
RTVSPost2010PropOp33
 70
     1
102
RTVSPost2010Prop34
280
     0
102
RTVSPost2010PropOp34
 70
     1
102
RTVSPost2010Prop35
280
     0
102
RTVSPost2010PropOp35
 70
     1
102
RTVSPost2010Prop36
280
     0
102
RTVSPost2010PropOp36
 70
     1
102
RTVSPost2010Prop37
 90
       50
102
RTVSPost2010PropOp37
 70
     1
102
RTVSPost2010Prop38
140
0.0
102
RTVSPost2010PropOp38
 70
     1
102
RTVSPost2010Prop39
140
1.0
102
RTVSPost2010PropOp39
 70
     1
102
RTVSPost2010Prop40
 90
        0
102
RTVSPost2010PropOp40
 70
     1
102
RTVSPost2010Prop41ColorIndex
 90
       18
102
RTVSPost2010Prop41ColorRGB
 90
        0
102
RTVSPost2010PropOp41
 70
     1
102
RTVSPost2010Prop42
 90
       50
102
RTVSPost2010PropOp42
 70
     1
102
RTVSPost2010Prop43
 90
        3
102
RTVSPost2010PropOp43
 70
     1
102
RTVSPost2010Prop44ColorIndex
 90
        5
102
RTVSPost2010Prop44ColorRGB
 90
      255
102
RTVSPost2010PropOp44
 70
     1
102
RTVSPost2010Prop45
280
     0
102
RTVSPost2010PropOp45
 70
     1
102
RTVSPost2010Prop46
 90
       50
102
RTVSPost2010PropOp46
 70
     1
102
RTVSPost2010Prop47
 90
       50
102
RTVSPost2010PropOp47
 70
     1
102
RTVSPost2010Prop48
 90
       50
102
RTVSPost2010PropOp48
 70
     1
102
RTVSPost2010Prop49
280
     0
102
RTVSPost2010PropOp49
 70
     1
102
RTVSPost2010Prop50
 90
       50
102
RTVSPost2010PropOp50
 70
     1
102
RTVSPost2010Prop51ColorIndex
 90
      256
102
RTVSPost2010Prop51ColorRGB
 90
-16777216
102
RTVSPost2010PropOp51
 70
     0
102
RTVSPost2010Prop52
140
1.0
102
RTVSPost2010PropOp52
 70
     0
102
RTVSPost2010Prop53
 90
        2
102
RTVSPost2010PropOp53
 70
     1
102
RTVSPost2010Prop54
  1
strokes_ogs.tif
102
RTVSPost2010PropOp54
 70
     1
102
RTVSPost2010Prop55
280
     0
102
RTVSPost2010PropOp55
 70
     1
102
RTVSPost2010Prop56
140
1.0
102
RTVSPost2010PropOp56
 70
     1
102
RTVSPost2010Prop57
140
1.0
102
RTVSPost2010PropOp57
 70
     1
  0
XRECORD
  5
5F8
102
{ACAD_REACTORS
330
5F7
102
}
330
5F7
100
AcDbXrecord
280
     1
102
RTVSPropertyOp0
 70
     1
102
RTVSPropertyOp1
 70
     1
102
RTVSPropertyOp2
 70
     1
102
RTVSPropertyOp3
 70
     1
102
RTVSPropertyOp4
 70
     1
102
RTVSPropertyOp5
 70
     1
102
RTVSPropertyOp6
 70
     1
102
RTVSPropertyOp7
 70
     1
102
RTVSPropertyOp8
 70
     1
102
RTVSPropertyOp9
 70
     1
102
RTVSPropertyOp10
 70
     1
102
RTVSPropertyOp11
 70
     1
102
RTVSPropertyOp12
 70
     1
102
RTVSPropertyOp13
 70
     1
102
RTVSPropertyOp14
 70
     1
102
RTVSPropertyOp15
 70
     1
102
RTVSPropertyOp16
 70
     1
102
RTVSPropertyOp17
 70
     1
102
RTVSPropertyOp18
 70
     1
102
RTVSPropertyOp19
 70
     1
102
RTVSPropertyOp20
 70
     1
102
RTVSPropertyOp21
 70
     1
102
RTVSPropertyOp22
 70
     1
102
RTVSPropertyOp23
 70
     1
102
RTVSPropertyOp24
 70
     1
102
RTVSPropertyOp25
 70
     1
102
RTVSPropertyOp26
 70
     1
102
RTVSPropertyOp27
 70
     1
102
RTVSPropertyOp28
 70
     1
102
RTVSPropertyOp29
 70
     1
102
RTVSPropertyOp30
 70
     1
102
RTVSPropertyOp31
 70
     1
102
RTVSPropertyOp32
 70
     1
102
RTVSPropertyOp33
 70
     1
102
RTVSPropertyOp34
 70
     1
102
RTVSPropertyOp35
 70
     1
102
RTVSPropertyOp36
 70
     1
102
RTVSPropertyOp37
 70
     1
102
RTVSPropertyOp38
 70
     1
102
RTVSPropertyOp39
 70
     1
102
RTVSPropertyOp40
 70
     1
102
RTVSPropertyOp41
 70
     1
102
RTVSPropertyOp42
 70
     1
102
RTVSPropertyOp43
 70
     1
102
RTVSPropertyOp44
 70
     1
102
RTVSPropertyOp45
 70
     1
102
RTVSPropertyOp46
 70
     1
102
RTVSPropertyOp47
 70
     1
102
RTVSPropertyOp48
 70
     1
102
RTVSPropertyOp49
 70
     1
102
RTVSPropertyOp50
 70
     1
102
RTVSPropertyOp51
 70
     0
102
RTVSPropertyOp52
 70
     0
102
RTVSPropertyOp53
 70
     1
102
RTVSPropertyOp54
 70
     1
102
RTVSPropertyOp55
 70
     1
102
RTVSPropertyOp56
 70
     1
102
RTVSPropertyOp57
 70
     1
102
RTVSPost2010Prop28
280
     0
102
RTVSPost2010PropOp28
 70
     1
102
RTVSPost2010Prop29
280
     1
102
RTVSPost2010PropOp29
 70
     1
102
RTVSPost2010Prop30
280
     1
102
RTVSPost2010PropOp30
 70
     1
102
RTVSPost2010Prop31
280
     0
102
RTVSPost2010PropOp31
 70
     1
102
RTVSPost2010Prop32
280
     0
102
RTVSPost2010PropOp32
 70
     1
102
RTVSPost2010Prop33
280
     0
102
RTVSPost2010PropOp33
 70
     1
102
RTVSPost2010Prop34
280
     0
102
RTVSPost2010PropOp34
 70
     1
102
RTVSPost2010Prop35
280
     0
102
RTVSPost2010PropOp35
 70
     1
102
RTVSPost2010Prop36
280
     0
102
RTVSPost2010PropOp36
 70
     1
102
RTVSPost2010Prop37
 90
       50
102
RTVSPost2010PropOp37
 70
     1
102
RTVSPost2010Prop38
140
0.0
102
RTVSPost2010PropOp38
 70
     1
102
RTVSPost2010Prop39
140
1.0
102
RTVSPost2010PropOp39
 70
     1
102
RTVSPost2010Prop40
 90
        0
102
RTVSPost2010PropOp40
 70
     1
102
RTVSPost2010Prop41ColorIndex
 90
       18
102
RTVSPost2010Prop41ColorRGB
 90
        0
102
RTVSPost2010PropOp41
 70
     1
102
RTVSPost2010Prop42
 90
       50
102
RTVSPost2010PropOp42
 70
     1
102
RTVSPost2010Prop43
 90
        3
102
RTVSPost2010PropOp43
 70
     1
102
RTVSPost2010Prop44ColorIndex
 90
        5
102
RTVSPost2010Prop44ColorRGB
 90
      255
102
RTVSPost2010PropOp44
 70
     1
102
RTVSPost2010Prop45
280
     0
102
RTVSPost2010PropOp45
 70
     1
102
RTVSPost2010Prop46
 90
       50
102
RTVSPost2010PropOp46
 70
     1
102
RTVSPost2010Prop47
 90
       50
102
RTVSPost2010PropOp47
 70
     1
102
RTVSPost2010Prop48
 90
       50
102
RTVSPost2010PropOp48
 70
     1
102
RTVSPost2010Prop49
280
     0
102
RTVSPost2010PropOp49
 70
     1
102
RTVSPost2010Prop50
 90
       50
102
RTVSPost2010PropOp50
 70
     1
102
RTVSPost2010Prop51ColorIndex
 90
      256
102
RTVSPost2010Prop51ColorRGB
 90
-16777216
102
RTVSPost2010PropOp51
 70
     0
102
RTVSPost2010Prop52
140
1.0
102
RTVSPost2010PropOp52
 70
     0
102
RTVSPost2010Prop53
 90
        2
102
RTVSPost2010PropOp53
 70
     1
102
RTVSPost2010Prop54
  1
strokes_ogs.tif
102
RTVSPost2010PropOp54
 70
     1
102
RTVSPost2010Prop55
280
     0
102
RTVSPost2010PropOp55
 70
     1
102
RTVSPost2010Prop56
140
1.0
102
RTVSPost2010PropOp56
 70
     1
102
RTVSPost2010Prop57
140
1.0
102
RTVSPost2010PropOp57
 70
     1
  0
XRECORD
  5
5DC
102
{ACAD_REACTORS
330
5DB
102
}
330
5DB
100
AcDbXrecord
280
     1
102
RTVSPropertyOp0
 70
     1
102
RTVSPropertyOp1
 70
     1
102
RTVSPropertyOp2
 70
     1
102
RTVSPropertyOp3
 70
     1
102
RTVSPropertyOp4
 70
     1
102
RTVSPropertyOp5
 70
     1
102
RTVSPropertyOp6
 70
     1
102
RTVSPropertyOp7
 70
     1
102
RTVSPropertyOp8
 70
     1
102
RTVSPropertyOp9
 70
     1
102
RTVSPropertyOp10
 70
     1
102
RTVSPropertyOp11
 70
     1
102
RTVSPropertyOp12
 70
     1
102
RTVSPropertyOp13
 70
     1
102
RTVSPropertyOp14
 70
     1
102
RTVSPropertyOp15
 70
     1
102
RTVSPropertyOp16
 70
     1
102
RTVSPropertyOp17
 70
     1
102
RTVSPropertyOp18
 70
     1
102
RTVSPropertyOp19
 70
     1
102
RTVSPropertyOp20
 70
     1
102
RTVSPropertyOp21
 70
     1
102
RTVSPropertyOp22
 70
     1
102
RTVSPropertyOp23
 70
     1
102
RTVSPropertyOp24
 70
     1
102
RTVSPropertyOp25
 70
     1
102
RTVSPropertyOp26
 70
     1
102
RTVSPropertyOp27
 70
     1
102
RTVSPropertyOp28
 70
     1
102
RTVSPropertyOp29
 70
     1
102
RTVSPropertyOp30
 70
     1
102
RTVSPropertyOp31
 70
     1
102
RTVSPropertyOp32
 70
     1
102
RTVSPropertyOp33
 70
     1
102
RTVSPropertyOp34
 70
     1
102
RTVSPropertyOp35
 70
     1
102
RTVSPropertyOp36
 70
     1
102
RTVSPropertyOp37
 70
     1
102
RTVSPropertyOp38
 70
     1
102
RTVSPropertyOp39
 70
     1
102
RTVSPropertyOp40
 70
     1
102
RTVSPropertyOp41
 70
     1
102
RTVSPropertyOp42
 70
     1
102
RTVSPropertyOp43
 70
     1
102
RTVSPropertyOp44
 70
     1
102
RTVSPropertyOp45
 70
     1
102
RTVSPropertyOp46
 70
     1
102
RTVSPropertyOp47
 70
     1
102
RTVSPropertyOp48
 70
     1
102
RTVSPropertyOp49
 70
     1
102
RTVSPropertyOp50
 70
     1
102
RTVSPropertyOp51
 70
     0
102
RTVSPropertyOp52
 70
     0
102
RTVSPropertyOp53
 70
     1
102
RTVSPropertyOp54
 70
     1
102
RTVSPropertyOp55
 70
     1
102
RTVSPropertyOp56
 70
     1
102
RTVSPropertyOp57
 70
     1
102
RTVSPost2010Prop28
280
     0
102
RTVSPost2010PropOp28
 70
     1
102
RTVSPost2010Prop29
280
     1
102
RTVSPost2010PropOp29
 70
     1
102
RTVSPost2010Prop30
280
     1
102
RTVSPost2010PropOp30
 70
     1
102
RTVSPost2010Prop31
280
     0
102
RTVSPost2010PropOp31
 70
     1
102
RTVSPost2010Prop32
280
     0
102
RTVSPost2010PropOp32
 70
     1
102
RTVSPost2010Prop33
280
     0
102
RTVSPost2010PropOp33
 70
     1
102
RTVSPost2010Prop34
280
     0
102
RTVSPost2010PropOp34
 70
     1
102
RTVSPost2010Prop35
280
     0
102
RTVSPost2010PropOp35
 70
     1
102
RTVSPost2010Prop36
280
     0
102
RTVSPost2010PropOp36
 70
     1
102
RTVSPost2010Prop37
 90
       50
102
RTVSPost2010PropOp37
 70
     1
102
RTVSPost2010Prop38
140
0.0
102
RTVSPost2010PropOp38
 70
     1
102
RTVSPost2010Prop39
140
1.0
102
RTVSPost2010PropOp39
 70
     1
102
RTVSPost2010Prop40
 90
        0
102
RTVSPost2010PropOp40
 70
     1
102
RTVSPost2010Prop41ColorIndex
 90
       18
102
RTVSPost2010Prop41ColorRGB
 90
        0
102
RTVSPost2010PropOp41
 70
     1
102
RTVSPost2010Prop42
 90
       50
102
RTVSPost2010PropOp42
 70
     1
102
RTVSPost2010Prop43
 90
        3
102
RTVSPost2010PropOp43
 70
     1
102
RTVSPost2010Prop44ColorIndex
 90
        5
102
RTVSPost2010Prop44ColorRGB
 90
      255
102
RTVSPost2010PropOp44
 70
     1
102
RTVSPost2010Prop45
280
     0
102
RTVSPost2010PropOp45
 70
     1
102
RTVSPost2010Prop46
 90
       50
102
RTVSPost2010PropOp46
 70
     1
102
RTVSPost2010Prop47
 90
       50
102
RTVSPost2010PropOp47
 70
     1
102
RTVSPost2010Prop48
 90
       50
102
RTVSPost2010PropOp48
 70
     1
102
RTVSPost2010Prop49
280
     0
102
RTVSPost2010PropOp49
 70
     1
102
RTVSPost2010Prop50
 90
       50
102
RTVSPost2010PropOp50
 70
     1
102
RTVSPost2010Prop51ColorIndex
 90
      256
102
RTVSPost2010Prop51ColorRGB
 90
-16777216
102
RTVSPost2010PropOp51
 70
     0
102
RTVSPost2010Prop52
140
1.0
102
RTVSPost2010PropOp52
 70
     0
102
RTVSPost2010Prop53
 90
        2
102
RTVSPost2010PropOp53
 70
     1
102
RTVSPost2010Prop54
  1
strokes_ogs.tif
102
RTVSPost2010PropOp54
 70
     1
102
RTVSPost2010Prop55
280
     0
102
RTVSPost2010PropOp55
 70
     1
102
RTVSPost2010Prop56
140
1.0
102
RTVSPost2010PropOp56
 70
     1
102
RTVSPost2010Prop57
140
1.0
102
RTVSPost2010PropOp57
 70
     1
  0
XRECORD
  5
5DE
102
{ACAD_REACTORS
330
5DD
102
}
330
5DD
100
AcDbXrecord
280
     1
102
RTVSPropertyOp0
 70
     1
102
RTVSPropertyOp1
 70
     1
102
RTVSPropertyOp2
 70
     1
102
RTVSPropertyOp3
 70
     1
102
RTVSPropertyOp4
 70
     1
102
RTVSPropertyOp5
 70
     1
102
RTVSPropertyOp6
 70
     1
102
RTVSPropertyOp7
 70
     1
102
RTVSPropertyOp8
 70
     1
102
RTVSPropertyOp9
 70
     1
102
RTVSPropertyOp10
 70
     1
102
RTVSPropertyOp11
 70
     1
102
RTVSPropertyOp12
 70
     1
102
RTVSPropertyOp13
 70
     1
102
RTVSPropertyOp14
 70
     1
102
RTVSPropertyOp15
 70
     1
102
RTVSPropertyOp16
 70
     1
102
RTVSPropertyOp17
 70
     1
102
RTVSPropertyOp18
 70
     1
102
RTVSPropertyOp19
 70
     1
102
RTVSPropertyOp20
 70
     1
102
RTVSPropertyOp21
 70
     1
102
RTVSPropertyOp22
 70
     1
102
RTVSPropertyOp23
 70
     1
102
RTVSPropertyOp24
 70
     1
102
RTVSPropertyOp25
 70
     1
102
RTVSPropertyOp26
 70
     1
102
RTVSPropertyOp27
 70
     1
102
RTVSPropertyOp28
 70
     1
102
RTVSPropertyOp29
 70
     1
102
RTVSPropertyOp30
 70
     1
102
RTVSPropertyOp31
 70
     1
102
RTVSPropertyOp32
 70
     1
102
RTVSPropertyOp33
 70
     1
102
RTVSPropertyOp34
 70
     1
102
RTVSPropertyOp35
 70
     1
102
RTVSPropertyOp36
 70
     1
102
RTVSPropertyOp37
 70
     1
102
RTVSPropertyOp38
 70
     1
102
RTVSPropertyOp39
 70
     1
102
RTVSPropertyOp40
 70
     1
102
RTVSPropertyOp41
 70
     1
102
RTVSPropertyOp42
 70
     1
102
RTVSPropertyOp43
 70
     1
102
RTVSPropertyOp44
 70
     1
102
RTVSPropertyOp45
 70
     1
102
RTVSPropertyOp46
 70
     1
102
RTVSPropertyOp47
 70
     1
102
RTVSPropertyOp48
 70
     1
102
RTVSPropertyOp49
 70
     1
102
RTVSPropertyOp50
 70
     1
102
RTVSPropertyOp51
 70
     0
102
RTVSPropertyOp52
 70
     0
102
RTVSPropertyOp53
 70
     1
102
RTVSPropertyOp54
 70
     1
102
RTVSPropertyOp55
 70
     1
102
RTVSPropertyOp56
 70
     1
102
RTVSPropertyOp57
 70
     1
102
RTVSPost2010Prop28
280
     0
102
RTVSPost2010PropOp28
 70
     1
102
RTVSPost2010Prop29
280
     1
102
RTVSPost2010PropOp29
 70
     1
102
RTVSPost2010Prop30
280
     1
102
RTVSPost2010PropOp30
 70
     1
102
RTVSPost2010Prop31
280
     0
102
RTVSPost2010PropOp31
 70
     1
102
RTVSPost2010Prop32
280
     0
102
RTVSPost2010PropOp32
 70
     1
102
RTVSPost2010Prop33
280
     0
102
RTVSPost2010PropOp33
 70
     1
102
RTVSPost2010Prop34
280
     0
102
RTVSPost2010PropOp34
 70
     1
102
RTVSPost2010Prop35
280
     0
102
RTVSPost2010PropOp35
 70
     1
102
RTVSPost2010Prop36
280
     0
102
RTVSPost2010PropOp36
 70
     1
102
RTVSPost2010Prop37
 90
       50
102
RTVSPost2010PropOp37
 70
     1
102
RTVSPost2010Prop38
140
0.0
102
RTVSPost2010PropOp38
 70
     1
102
RTVSPost2010Prop39
140
1.0
102
RTVSPost2010PropOp39
 70
     1
102
RTVSPost2010Prop40
 90
        0
102
RTVSPost2010PropOp40
 70
     1
102
RTVSPost2010Prop41ColorIndex
 90
       18
102
RTVSPost2010Prop41ColorRGB
 90
        0
102
RTVSPost2010PropOp41
 70
     1
102
RTVSPost2010Prop42
 90
       50
102
RTVSPost2010PropOp42
 70
     1
102
RTVSPost2010Prop43
 90
        3
102
RTVSPost2010PropOp43
 70
     1
102
RTVSPost2010Prop44ColorIndex
 90
        5
102
RTVSPost2010Prop44ColorRGB
 90
      255
102
RTVSPost2010PropOp44
 70
     1
102
RTVSPost2010Prop45
280
     0
102
RTVSPost2010PropOp45
 70
     1
102
RTVSPost2010Prop46
 90
       50
102
RTVSPost2010PropOp46
 70
     1
102
RTVSPost2010Prop47
 90
       50
102
RTVSPost2010PropOp47
 70
     1
102
RTVSPost2010Prop48
 90
       50
102
RTVSPost2010PropOp48
 70
     1
102
RTVSPost2010Prop49
280
     0
102
RTVSPost2010PropOp49
 70
     1
102
RTVSPost2010Prop50
 90
       50
102
RTVSPost2010PropOp50
 70
     1
102
RTVSPost2010Prop51ColorIndex
 90
      256
102
RTVSPost2010Prop51ColorRGB
 90
-16777216
102
RTVSPost2010PropOp51
 70
     0
102
RTVSPost2010Prop52
140
1.0
102
RTVSPost2010PropOp52
 70
     0
102
RTVSPost2010Prop53
 90
        2
102
RTVSPost2010PropOp53
 70
     1
102
RTVSPost2010Prop54
  1
strokes_ogs.tif
102
RTVSPost2010PropOp54
 70
     1
102
RTVSPost2010Prop55
280
     0
102
RTVSPost2010PropOp55
 70
     1
102
RTVSPost2010Prop56
140
1.0
102
RTVSPost2010PropOp56
 70
     1
102
RTVSPost2010Prop57
140
1.0
102
RTVSPost2010PropOp57
 70
     1
  0
XRECORD
  5
5E0
102
{ACAD_REACTORS
330
5DF
102
}
330
5DF
100
AcDbXrecord
280
     1
102
RTVSPropertyOp0
 70
     1
102
RTVSPropertyOp1
 70
     1
102
RTVSPropertyOp2
 70
     1
102
RTVSPropertyOp3
 70
     1
102
RTVSPropertyOp4
 70
     1
102
RTVSPropertyOp5
 70
     1
102
RTVSPropertyOp6
 70
     1
102
RTVSPropertyOp7
 70
     1
102
RTVSPropertyOp8
 70
     1
102
RTVSPropertyOp9
 70
     1
102
RTVSPropertyOp10
 70
     1
102
RTVSPropertyOp11
 70
     1
102
RTVSPropertyOp12
 70
     1
102
RTVSPropertyOp13
 70
     1
102
RTVSPropertyOp14
 70
     1
102
RTVSPropertyOp15
 70
     1
102
RTVSPropertyOp16
 70
     1
102
RTVSPropertyOp17
 70
     1
102
RTVSPropertyOp18
 70
     1
102
RTVSPropertyOp19
 70
     1
102
RTVSPropertyOp20
 70
     1
102
RTVSPropertyOp21
 70
     1
102
RTVSPropertyOp22
 70
     1
102
RTVSPropertyOp23
 70
     1
102
RTVSPropertyOp24
 70
     1
102
RTVSPropertyOp25
 70
     1
102
RTVSPropertyOp26
 70
     1
102
RTVSPropertyOp27
 70
     1
102
RTVSPropertyOp28
 70
     1
102
RTVSPropertyOp29
 70
     1
102
RTVSPropertyOp30
 70
     1
102
RTVSPropertyOp31
 70
     1
102
RTVSPropertyOp32
 70
     1
102
RTVSPropertyOp33
 70
     1
102
RTVSPropertyOp34
 70
     1
102
RTVSPropertyOp35
 70
     1
102
RTVSPropertyOp36
 70
     1
102
RTVSPropertyOp37
 70
     1
102
RTVSPropertyOp38
 70
     1
102
RTVSPropertyOp39
 70
     1
102
RTVSPropertyOp40
 70
     1
102
RTVSPropertyOp41
 70
     1
102
RTVSPropertyOp42
 70
     1
102
RTVSPropertyOp43
 70
     1
102
RTVSPropertyOp44
 70
     1
102
RTVSPropertyOp45
 70
     1
102
RTVSPropertyOp46
 70
     1
102
RTVSPropertyOp47
 70
     1
102
RTVSPropertyOp48
 70
     1
102
RTVSPropertyOp49
 70
     1
102
RTVSPropertyOp50
 70
     1
102
RTVSPropertyOp51
 70
     0
102
RTVSPropertyOp52
 70
     0
102
RTVSPropertyOp53
 70
     1
102
RTVSPropertyOp54
 70
     1
102
RTVSPropertyOp55
 70
     1
102
RTVSPropertyOp56
 70
     1
102
RTVSPropertyOp57
 70
     1
102
RTVSPost2010Prop28
280
     0
102
RTVSPost2010PropOp28
 70
     1
102
RTVSPost2010Prop29
280
     1
102
RTVSPost2010PropOp29
 70
     1
102
RTVSPost2010Prop30
280
     1
102
RTVSPost2010PropOp30
 70
     1
102
RTVSPost2010Prop31
280
     0
102
RTVSPost2010PropOp31
 70
     1
102
RTVSPost2010Prop32
280
     0
102
RTVSPost2010PropOp32
 70
     1
102
RTVSPost2010Prop33
280
     0
102
RTVSPost2010PropOp33
 70
     1
102
RTVSPost2010Prop34
280
     0
102
RTVSPost2010PropOp34
 70
     1
102
RTVSPost2010Prop35
280
     0
102
RTVSPost2010PropOp35
 70
     1
102
RTVSPost2010Prop36
280
     0
102
RTVSPost2010PropOp36
 70
     1
102
RTVSPost2010Prop37
 90
       50
102
RTVSPost2010PropOp37
 70
     1
102
RTVSPost2010Prop38
140
0.0
102
RTVSPost2010PropOp38
 70
     1
102
RTVSPost2010Prop39
140
1.0
102
RTVSPost2010PropOp39
 70
     1
102
RTVSPost2010Prop40
 90
        0
102
RTVSPost2010PropOp40
 70
     1
102
RTVSPost2010Prop41ColorIndex
 90
       18
102
RTVSPost2010Prop41ColorRGB
 90
        0
102
RTVSPost2010PropOp41
 70
     1
102
RTVSPost2010Prop42
 90
       50
102
RTVSPost2010PropOp42
 70
     1
102
RTVSPost2010Prop43
 90
        3
102
RTVSPost2010PropOp43
 70
     1
102
RTVSPost2010Prop44ColorIndex
 90
        5
102
RTVSPost2010Prop44ColorRGB
 90
      255
102
RTVSPost2010PropOp44
 70
     1
102
RTVSPost2010Prop45
280
     0
102
RTVSPost2010PropOp45
 70
     1
102
RTVSPost2010Prop46
 90
       50
102
RTVSPost2010PropOp46
 70
     1
102
RTVSPost2010Prop47
 90
       50
102
RTVSPost2010PropOp47
 70
     1
102
RTVSPost2010Prop48
 90
       50
102
RTVSPost2010PropOp48
 70
     1
102
RTVSPost2010Prop49
280
     0
102
RTVSPost2010PropOp49
 70
     1
102
RTVSPost2010Prop50
 90
       50
102
RTVSPost2010PropOp50
 70
     1
102
RTVSPost2010Prop51ColorIndex
 90
      256
102
RTVSPost2010Prop51ColorRGB
 90
-16777216
102
RTVSPost2010PropOp51
 70
     0
102
RTVSPost2010Prop52
140
1.0
102
RTVSPost2010PropOp52
 70
     0
102
RTVSPost2010Prop53
 90
        2
102
RTVSPost2010PropOp53
 70
     1
102
RTVSPost2010Prop54
  1
strokes_ogs.tif
102
RTVSPost2010PropOp54
 70
     1
102
RTVSPost2010Prop55
280
     0
102
RTVSPost2010PropOp55
 70
     1
102
RTVSPost2010Prop56
140
1.0
102
RTVSPost2010PropOp56
 70
     1
102
RTVSPost2010Prop57
140
1.0
102
RTVSPost2010PropOp57
 70
     1
  0
XRECORD
  5
5E2
102
{ACAD_REACTORS
330
5E1
102
}
330
5E1
100
AcDbXrecord
280
     1
102
RTVSPropertyOp0
 70
     1
102
RTVSPropertyOp1
 70
     1
102
RTVSPropertyOp2
 70
     1
102
RTVSPropertyOp3
 70
     1
102
RTVSPropertyOp4
 70
     1
102
RTVSPropertyOp5
 70
     1
102
RTVSPropertyOp6
 70
     1
102
RTVSPropertyOp7
 70
     1
102
RTVSPropertyOp8
 70
     1
102
RTVSPropertyOp9
 70
     1
102
RTVSPropertyOp10
 70
     1
102
RTVSPropertyOp11
 70
     1
102
RTVSPropertyOp12
 70
     1
102
RTVSPropertyOp13
 70
     1
102
RTVSPropertyOp14
 70
     1
102
RTVSPropertyOp15
 70
     1
102
RTVSPropertyOp16
 70
     1
102
RTVSPropertyOp17
 70
     1
102
RTVSPropertyOp18
 70
     1
102
RTVSPropertyOp19
 70
     1
102
RTVSPropertyOp20
 70
     1
102
RTVSPropertyOp21
 70
     1
102
RTVSPropertyOp22
 70
     1
102
RTVSPropertyOp23
 70
     1
102
RTVSPropertyOp24
 70
     1
102
RTVSPropertyOp25
 70
     1
102
RTVSPropertyOp26
 70
     1
102
RTVSPropertyOp27
 70
     1
102
RTVSPropertyOp28
 70
     1
102
RTVSPropertyOp29
 70
     1
102
RTVSPropertyOp30
 70
     1
102
RTVSPropertyOp31
 70
     1
102
RTVSPropertyOp32
 70
     1
102
RTVSPropertyOp33
 70
     1
102
RTVSPropertyOp34
 70
     1
102
RTVSPropertyOp35
 70
     1
102
RTVSPropertyOp36
 70
     1
102
RTVSPropertyOp37
 70
     1
102
RTVSPropertyOp38
 70
     1
102
RTVSPropertyOp39
 70
     1
102
RTVSPropertyOp40
 70
     1
102
RTVSPropertyOp41
 70
     1
102
RTVSPropertyOp42
 70
     1
102
RTVSPropertyOp43
 70
     1
102
RTVSPropertyOp44
 70
     1
102
RTVSPropertyOp45
 70
     1
102
RTVSPropertyOp46
 70
     1
102
RTVSPropertyOp47
 70
     1
102
RTVSPropertyOp48
 70
     1
102
RTVSPropertyOp49
 70
     1
102
RTVSPropertyOp50
 70
     1
102
RTVSPropertyOp51
 70
     0
102
RTVSPropertyOp52
 70
     0
102
RTVSPropertyOp53
 70
     1
102
RTVSPropertyOp54
 70
     1
102
RTVSPropertyOp55
 70
     1
102
RTVSPropertyOp56
 70
     1
102
RTVSPropertyOp57
 70
     1
102
RTVSPost2010Prop28
280
     0
102
RTVSPost2010PropOp28
 70
     1
102
RTVSPost2010Prop29
280
     1
102
RTVSPost2010PropOp29
 70
     1
102
RTVSPost2010Prop30
280
     1
102
RTVSPost2010PropOp30
 70
     1
102
RTVSPost2010Prop31
280
     0
102
RTVSPost2010PropOp31
 70
     1
102
RTVSPost2010Prop32
280
     0
102
RTVSPost2010PropOp32
 70
     1
102
RTVSPost2010Prop33
280
     0
102
RTVSPost2010PropOp33
 70
     1
102
RTVSPost2010Prop34
280
     0
102
RTVSPost2010PropOp34
 70
     1
102
RTVSPost2010Prop35
280
     0
102
RTVSPost2010PropOp35
 70
     1
102
RTVSPost2010Prop36
280
     0
102
RTVSPost2010PropOp36
 70
     1
102
RTVSPost2010Prop37
 90
       50
102
RTVSPost2010PropOp37
 70
     1
102
RTVSPost2010Prop38
140
0.0
102
RTVSPost2010PropOp38
 70
     1
102
RTVSPost2010Prop39
140
1.0
102
RTVSPost2010PropOp39
 70
     1
102
RTVSPost2010Prop40
 90
        0
102
RTVSPost2010PropOp40
 70
     1
102
RTVSPost2010Prop41ColorIndex
 90
       18
102
RTVSPost2010Prop41ColorRGB
 90
        0
102
RTVSPost2010PropOp41
 70
     1
102
RTVSPost2010Prop42
 90
       50
102
RTVSPost2010PropOp42
 70
     1
102
RTVSPost2010Prop43
 90
        3
102
RTVSPost2010PropOp43
 70
     1
102
RTVSPost2010Prop44ColorIndex
 90
        5
102
RTVSPost2010Prop44ColorRGB
 90
      255
102
RTVSPost2010PropOp44
 70
     1
102
RTVSPost2010Prop45
280
     0
102
RTVSPost2010PropOp45
 70
     1
102
RTVSPost2010Prop46
 90
       50
102
RTVSPost2010PropOp46
 70
     1
102
RTVSPost2010Prop47
 90
       50
102
RTVSPost2010PropOp47
 70
     1
102
RTVSPost2010Prop48
 90
       50
102
RTVSPost2010PropOp48
 70
     1
102
RTVSPost2010Prop49
280
     0
102
RTVSPost2010PropOp49
 70
     1
102
RTVSPost2010Prop50
 90
       50
102
RTVSPost2010PropOp50
 70
     1
102
RTVSPost2010Prop51ColorIndex
 90
      256
102
RTVSPost2010Prop51ColorRGB
 90
-16777216
102
RTVSPost2010PropOp51
 70
     0
102
RTVSPost2010Prop52
140
1.0
102
RTVSPost2010PropOp52
 70
     0
102
RTVSPost2010Prop53
 90
        2
102
RTVSPost2010PropOp53
 70
     1
102
RTVSPost2010Prop54
  1
strokes_ogs.tif
102
RTVSPost2010PropOp54
 70
     1
102
RTVSPost2010Prop55
280
     0
102
RTVSPost2010PropOp55
 70
     1
102
RTVSPost2010Prop56
140
1.0
102
RTVSPost2010PropOp56
 70
     1
102
RTVSPost2010Prop57
140
1.0
102
RTVSPost2010PropOp57
 70
     1
  0
XRECORD
  5
5E8
102
{ACAD_REACTORS
330
5E7
102
}
330
5E7
100
AcDbXrecord
280
     1
102
RTVSPropertyOp0
 70
     1
102
RTVSPropertyOp1
 70
     1
102
RTVSPropertyOp2
 70
     1
102
RTVSPropertyOp3
 70
     1
102
RTVSPropertyOp4
 70
     1
102
RTVSPropertyOp5
 70
     1
102
RTVSPropertyOp6
 70
     1
102
RTVSPropertyOp7
 70
     1
102
RTVSPropertyOp8
 70
     1
102
RTVSPropertyOp9
 70
     1
102
RTVSPropertyOp10
 70
     1
102
RTVSPropertyOp11
 70
     1
102
RTVSPropertyOp12
 70
     1
102
RTVSPropertyOp13
 70
     1
102
RTVSPropertyOp14
 70
     1
102
RTVSPropertyOp15
 70
     1
102
RTVSPropertyOp16
 70
     1
102
RTVSPropertyOp17
 70
     1
102
RTVSPropertyOp18
 70
     1
102
RTVSPropertyOp19
 70
     1
102
RTVSPropertyOp20
 70
     1
102
RTVSPropertyOp21
 70
     1
102
RTVSPropertyOp22
 70
     1
102
RTVSPropertyOp23
 70
     1
102
RTVSPropertyOp24
 70
     1
102
RTVSPropertyOp25
 70
     1
102
RTVSPropertyOp26
 70
     1
102
RTVSPropertyOp27
 70
     1
102
RTVSPropertyOp28
 70
     1
102
RTVSPropertyOp29
 70
     1
102
RTVSPropertyOp30
 70
     1
102
RTVSPropertyOp31
 70
     1
102
RTVSPropertyOp32
 70
     1
102
RTVSPropertyOp33
 70
     1
102
RTVSPropertyOp34
 70
     1
102
RTVSPropertyOp35
 70
     1
102
RTVSPropertyOp36
 70
     1
102
RTVSPropertyOp37
 70
     1
102
RTVSPropertyOp38
 70
     1
102
RTVSPropertyOp39
 70
     1
102
RTVSPropertyOp40
 70
     1
102
RTVSPropertyOp41
 70
     1
102
RTVSPropertyOp42
 70
     1
102
RTVSPropertyOp43
 70
     1
102
RTVSPropertyOp44
 70
     1
102
RTVSPropertyOp45
 70
     1
102
RTVSPropertyOp46
 70
     1
102
RTVSPropertyOp47
 70
     1
102
RTVSPropertyOp48
 70
     1
102
RTVSPropertyOp49
 70
     1
102
RTVSPropertyOp50
 70
     1
102
RTVSPropertyOp51
 70
     0
102
RTVSPropertyOp52
 70
     0
102
RTVSPropertyOp53
 70
     1
102
RTVSPropertyOp54
 70
     1
102
RTVSPropertyOp55
 70
     1
102
RTVSPropertyOp56
 70
     1
102
RTVSPropertyOp57
 70
     1
102
RTVSPost2010Prop28
280
     0
102
RTVSPost2010PropOp28
 70
     1
102
RTVSPost2010Prop29
280
     1
102
RTVSPost2010PropOp29
 70
     1
102
RTVSPost2010Prop30
280
     1
102
RTVSPost2010PropOp30
 70
     1
102
RTVSPost2010Prop31
280
     0
102
RTVSPost2010PropOp31
 70
     1
102
RTVSPost2010Prop32
280
     0
102
RTVSPost2010PropOp32
 70
     1
102
RTVSPost2010Prop33
280
     0
102
RTVSPost2010PropOp33
 70
     1
102
RTVSPost2010Prop34
280
     0
102
RTVSPost2010PropOp34
 70
     1
102
RTVSPost2010Prop35
280
     0
102
RTVSPost2010PropOp35
 70
     1
102
RTVSPost2010Prop36
280
     0
102
RTVSPost2010PropOp36
 70
     1
102
RTVSPost2010Prop37
 90
       50
102
RTVSPost2010PropOp37
 70
     1
102
RTVSPost2010Prop38
140
0.0
102
RTVSPost2010PropOp38
 70
     1
102
RTVSPost2010Prop39
140
1.0
102
RTVSPost2010PropOp39
 70
     1
102
RTVSPost2010Prop40
 90
        0
102
RTVSPost2010PropOp40
 70
     1
102
RTVSPost2010Prop41ColorIndex
 90
       18
102
RTVSPost2010Prop41ColorRGB
 90
        0
102
RTVSPost2010PropOp41
 70
     1
102
RTVSPost2010Prop42
 90
       50
102
RTVSPost2010PropOp42
 70
     1
102
RTVSPost2010Prop43
 90
        3
102
RTVSPost2010PropOp43
 70
     1
102
RTVSPost2010Prop44ColorIndex
 90
        5
102
RTVSPost2010Prop44ColorRGB
 90
      255
102
RTVSPost2010PropOp44
 70
     1
102
RTVSPost2010Prop45
280
     0
102
RTVSPost2010PropOp45
 70
     1
102
RTVSPost2010Prop46
 90
       50
102
RTVSPost2010PropOp46
 70
     1
102
RTVSPost2010Prop47
 90
       50
102
RTVSPost2010PropOp47
 70
     1
102
RTVSPost2010Prop48
 90
       50
102
RTVSPost2010PropOp48
 70
     1
102
RTVSPost2010Prop49
280
     0
102
RTVSPost2010PropOp49
 70
     1
102
RTVSPost2010Prop50
 90
       50
102
RTVSPost2010PropOp50
 70
     1
102
RTVSPost2010Prop51ColorIndex
 90
      256
102
RTVSPost2010Prop51ColorRGB
 90
-16777216
102
RTVSPost2010PropOp51
 70
     0
102
RTVSPost2010Prop52
140
1.0
102
RTVSPost2010PropOp52
 70
     0
102
RTVSPost2010Prop53
 90
        2
102
RTVSPost2010PropOp53
 70
     1
102
RTVSPost2010Prop54
  1
strokes_ogs.tif
102
RTVSPost2010PropOp54
 70
     1
102
RTVSPost2010Prop55
280
     0
102
RTVSPost2010PropOp55
 70
     1
102
RTVSPost2010Prop56
140
1.0
102
RTVSPost2010PropOp56
 70
     1
102
RTVSPost2010Prop57
140
1.0
102
RTVSPost2010PropOp57
 70
     1
  0
XRECORD
  5
5FC
102
{ACAD_REACTORS
330
5FB
102
}
330
5FB
100
AcDbXrecord
280
     1
102
RTVSPropertyOp0
 70
     0
102
RTVSPropertyOp1
 70
     0
102
RTVSPropertyOp2
 70
     0
102
RTVSPropertyOp3
 70
     0
102
RTVSPropertyOp4
 70
     0
102
RTVSPropertyOp5
 70
     0
102
RTVSPropertyOp6
 70
     0
102
RTVSPropertyOp7
 70
     0
102
RTVSPropertyOp8
 70
     0
102
RTVSPropertyOp9
 70
     0
102
RTVSPropertyOp10
 70
     0
102
RTVSPropertyOp11
 70
     0
102
RTVSPropertyOp12
 70
     0
102
RTVSPropertyOp13
 70
     0
102
RTVSPropertyOp14
 70
     0
102
RTVSPropertyOp15
 70
     0
102
RTVSPropertyOp16
 70
     0
102
RTVSPropertyOp17
 70
     0
102
RTVSPropertyOp18
 70
     0
102
RTVSPropertyOp19
 70
     0
102
RTVSPropertyOp20
 70
     0
102
RTVSPropertyOp21
 70
     0
102
RTVSPropertyOp22
 70
     0
102
RTVSPropertyOp23
 70
     0
102
RTVSPropertyOp24
 70
     0
102
RTVSPropertyOp25
 70
     0
102
RTVSPropertyOp26
 70
     0
102
RTVSPropertyOp27
 70
     0
102
RTVSPropertyOp28
 70
     1
102
RTVSPropertyOp29
 70
     1
102
RTVSPropertyOp30
 70
     1
102
RTVSPropertyOp31
 70
     1
102
RTVSPropertyOp32
 70
     1
102
RTVSPropertyOp33
 70
     1
102
RTVSPropertyOp34
 70
     1
102
RTVSPropertyOp35
 70
     1
102
RTVSPropertyOp36
 70
     1
102
RTVSPropertyOp37
 70
     1
102
RTVSPropertyOp38
 70
     1
102
RTVSPropertyOp39
 70
     1
102
RTVSPropertyOp40
 70
     1
102
RTVSPropertyOp41
 70
     1
102
RTVSPropertyOp42
 70
     1
102
RTVSPropertyOp43
 70
     1
102
RTVSPropertyOp44
 70
     1
102
RTVSPropertyOp45
 70
     1
102
RTVSPropertyOp46
 70
     1
102
RTVSPropertyOp47
 70
     1
102
RTVSPropertyOp48
 70
     1
102
RTVSPropertyOp49
 70
     1
102
RTVSPropertyOp50
 70
     1
102
RTVSPropertyOp51
 70
     0
102
RTVSPropertyOp52
 70
     0
102
RTVSPropertyOp53
 70
     1
102
RTVSPropertyOp54
 70
     1
102
RTVSPropertyOp55
 70
     1
102
RTVSPropertyOp56
 70
     1
102
RTVSPropertyOp57
 70
     1
102
RTVSPost2010Prop28
280
     0
102
RTVSPost2010PropOp28
 70
     1
102
RTVSPost2010Prop29
280
     1
102
RTVSPost2010PropOp29
 70
     1
102
RTVSPost2010Prop30
280
     1
102
RTVSPost2010PropOp30
 70
     1
102
RTVSPost2010Prop31
280
     0
102
RTVSPost2010PropOp31
 70
     1
102
RTVSPost2010Prop32
280
     0
102
RTVSPost2010PropOp32
 70
     1
102
RTVSPost2010Prop33
280
     0
102
RTVSPost2010PropOp33
 70
     1
102
RTVSPost2010Prop34
280
     0
102
RTVSPost2010PropOp34
 70
     1
102
RTVSPost2010Prop35
280
     0
102
RTVSPost2010PropOp35
 70
     1
102
RTVSPost2010Prop36
280
     0
102
RTVSPost2010PropOp36
 70
     1
102
RTVSPost2010Prop37
 90
       50
102
RTVSPost2010PropOp37
 70
     1
102
RTVSPost2010Prop38
140
0.0
102
RTVSPost2010PropOp38
 70
     1
102
RTVSPost2010Prop39
140
1.0
102
RTVSPost2010PropOp39
 70
     1
102
RTVSPost2010Prop40
 90
        0
102
RTVSPost2010PropOp40
 70
     1
102
RTVSPost2010Prop41ColorIndex
 90
       18
102
RTVSPost2010Prop41ColorRGB
 90
        0
102
RTVSPost2010PropOp41
 70
     1
102
RTVSPost2010Prop42
 90
       50
102
RTVSPost2010PropOp42
 70
     1
102
RTVSPost2010Prop43
 90
        3
102
RTVSPost2010PropOp43
 70
     1
102
RTVSPost2010Prop44ColorIndex
 90
        5
102
RTVSPost2010Prop44ColorRGB
 90
      255
102
RTVSPost2010PropOp44
 70
     1
102
RTVSPost2010Prop45
280
     0
102
RTVSPost2010PropOp45
 70
     1
102
RTVSPost2010Prop46
 90
       50
102
RTVSPost2010PropOp46
 70
     1
102
RTVSPost2010Prop47
 90
       50
102
RTVSPost2010PropOp47
 70
     1
102
RTVSPost2010Prop48
 90
       50
102
RTVSPost2010PropOp48
 70
     1
102
RTVSPost2010Prop49
280
     0
102
RTVSPost2010PropOp49
 70
     1
102
RTVSPost2010Prop50
 90
       50
102
RTVSPost2010PropOp50
 70
     1
102
RTVSPost2010Prop51ColorIndex
 90
      256
102
RTVSPost2010Prop51ColorRGB
 90
-16777216
102
RTVSPost2010PropOp51
 70
     0
102
RTVSPost2010Prop52
140
1.0
102
RTVSPost2010PropOp52
 70
     0
102
RTVSPost2010Prop53
 90
        2
102
RTVSPost2010PropOp53
 70
     1
102
RTVSPost2010Prop54
  1
strokes_ogs.tif
102
RTVSPost2010PropOp54
 70
     1
102
RTVSPost2010Prop55
280
     0
102
RTVSPost2010PropOp55
 70
     1
102
RTVSPost2010Prop56
140
1.0
102
RTVSPost2010PropOp56
 70
     1
102
RTVSPost2010Prop57
140
1.0
102
RTVSPost2010PropOp57
 70
     1
  0
XRECORD
  5
5F6
102
{ACAD_REACTORS
330
5F5
102
}
330
5F5
100
AcDbXrecord
280
     1
102
RTVSPropertyOp0
 70
     1
102
RTVSPropertyOp1
 70
     1
102
RTVSPropertyOp2
 70
     1
102
RTVSPropertyOp3
 70
     1
102
RTVSPropertyOp4
 70
     1
102
RTVSPropertyOp5
 70
     1
102
RTVSPropertyOp6
 70
     1
102
RTVSPropertyOp7
 70
     1
102
RTVSPropertyOp8
 70
     1
102
RTVSPropertyOp9
 70
     1
102
RTVSPropertyOp10
 70
     1
102
RTVSPropertyOp11
 70
     1
102
RTVSPropertyOp12
 70
     1
102
RTVSPropertyOp13
 70
     1
102
RTVSPropertyOp14
 70
     1
102
RTVSPropertyOp15
 70
     1
102
RTVSPropertyOp16
 70
     1
102
RTVSPropertyOp17
 70
     1
102
RTVSPropertyOp18
 70
     1
102
RTVSPropertyOp19
 70
     1
102
RTVSPropertyOp20
 70
     1
102
RTVSPropertyOp21
 70
     1
102
RTVSPropertyOp22
 70
     1
102
RTVSPropertyOp23
 70
     1
102
RTVSPropertyOp24
 70
     1
102
RTVSPropertyOp25
 70
     1
102
RTVSPropertyOp26
 70
     1
102
RTVSPropertyOp27
 70
     1
102
RTVSPropertyOp28
 70
     1
102
RTVSPropertyOp29
 70
     1
102
RTVSPropertyOp30
 70
     1
102
RTVSPropertyOp31
 70
     1
102
RTVSPropertyOp32
 70
     1
102
RTVSPropertyOp33
 70
     1
102
RTVSPropertyOp34
 70
     1
102
RTVSPropertyOp35
 70
     1
102
RTVSPropertyOp36
 70
     1
102
RTVSPropertyOp37
 70
     1
102
RTVSPropertyOp38
 70
     1
102
RTVSPropertyOp39
 70
     1
102
RTVSPropertyOp40
 70
     1
102
RTVSPropertyOp41
 70
     1
102
RTVSPropertyOp42
 70
     1
102
RTVSPropertyOp43
 70
     1
102
RTVSPropertyOp44
 70
     1
102
RTVSPropertyOp45
 70
     1
102
RTVSPropertyOp46
 70
     1
102
RTVSPropertyOp47
 70
     1
102
RTVSPropertyOp48
 70
     1
102
RTVSPropertyOp49
 70
     1
102
RTVSPropertyOp50
 70
     1
102
RTVSPropertyOp51
 70
     0
102
RTVSPropertyOp52
 70
     0
102
RTVSPropertyOp53
 70
     1
102
RTVSPropertyOp54
 70
     1
102
RTVSPropertyOp55
 70
     1
102
RTVSPropertyOp56
 70
     1
102
RTVSPropertyOp57
 70
     1
102
RTVSPost2010Prop28
280
     0
102
RTVSPost2010PropOp28
 70
     1
102
RTVSPost2010Prop29
280
     1
102
RTVSPost2010PropOp29
 70
     1
102
RTVSPost2010Prop30
280
     1
102
RTVSPost2010PropOp30
 70
     1
102
RTVSPost2010Prop31
280
     0
102
RTVSPost2010PropOp31
 70
     1
102
RTVSPost2010Prop32
280
     0
102
RTVSPost2010PropOp32
 70
     1
102
RTVSPost2010Prop33
280
     0
102
RTVSPost2010PropOp33
 70
     1
102
RTVSPost2010Prop34
280
     0
102
RTVSPost2010PropOp34
 70
     1
102
RTVSPost2010Prop35
280
     0
102
RTVSPost2010PropOp35
 70
     1
102
RTVSPost2010Prop36
280
     0
102
RTVSPost2010PropOp36
 70
     1
102
RTVSPost2010Prop37
 90
       50
102
RTVSPost2010PropOp37
 70
     1
102
RTVSPost2010Prop38
140
0.0
102
RTVSPost2010PropOp38
 70
     1
102
RTVSPost2010Prop39
140
1.0
102
RTVSPost2010PropOp39
 70
     1
102
RTVSPost2010Prop40
 90
        0
102
RTVSPost2010PropOp40
 70
     1
102
RTVSPost2010Prop41ColorIndex
 90
       18
102
RTVSPost2010Prop41ColorRGB
 90
        0
102
RTVSPost2010PropOp41
 70
     1
102
RTVSPost2010Prop42
 90
       50
102
RTVSPost2010PropOp42
 70
     1
102
RTVSPost2010Prop43
 90
        3
102
RTVSPost2010PropOp43
 70
     1
102
RTVSPost2010Prop44ColorIndex
 90
        5
102
RTVSPost2010Prop44ColorRGB
 90
      255
102
RTVSPost2010PropOp44
 70
     1
102
RTVSPost2010Prop45
280
     0
102
RTVSPost2010PropOp45
 70
     1
102
RTVSPost2010Prop46
 90
       50
102
RTVSPost2010PropOp46
 70
     1
102
RTVSPost2010Prop47
 90
       50
102
RTVSPost2010PropOp47
 70
     1
102
RTVSPost2010Prop48
 90
       50
102
RTVSPost2010PropOp48
 70
     1
102
RTVSPost2010Prop49
280
     0
102
RTVSPost2010PropOp49
 70
     1
102
RTVSPost2010Prop50
 90
       50
102
RTVSPost2010PropOp50
 70
     1
102
RTVSPost2010Prop51ColorIndex
 90
      256
102
RTVSPost2010Prop51ColorRGB
 90
-16777216
102
RTVSPost2010PropOp51
 70
     0
102
RTVSPost2010Prop52
140
1.0
102
RTVSPost2010PropOp52
 70
     0
102
RTVSPost2010Prop53
 90
        2
102
RTVSPost2010PropOp53
 70
     1
102
RTVSPost2010Prop54
  1
strokes_ogs.tif
102
RTVSPost2010PropOp54
 70
     1
102
RTVSPost2010Prop55
280
     0
102
RTVSPost2010PropOp55
 70
     1
102
RTVSPost2010Prop56
140
1.0
102
RTVSPost2010PropOp56
 70
     1
102
RTVSPost2010Prop57
140
1.0
102
RTVSPost2010PropOp57
 70
     1
  0
XRECORD
  5
5FE
102
{ACAD_REACTORS
330
5FD
102
}
330
5FD
100
AcDbXrecord
280
     1
102
RTVSPropertyOp0
 70
     0
102
RTVSPropertyOp1
 70
     0
102
RTVSPropertyOp2
 70
     0
102
RTVSPropertyOp3
 70
     0
102
RTVSPropertyOp4
 70
     0
102
RTVSPropertyOp5
 70
     0
102
RTVSPropertyOp6
 70
     0
102
RTVSPropertyOp7
 70
     0
102
RTVSPropertyOp8
 70
     0
102
RTVSPropertyOp9
 70
     0
102
RTVSPropertyOp10
 70
     0
102
RTVSPropertyOp11
 70
     0
102
RTVSPropertyOp12
 70
     0
102
RTVSPropertyOp13
 70
     0
102
RTVSPropertyOp14
 70
     0
102
RTVSPropertyOp15
 70
     0
102
RTVSPropertyOp16
 70
     0
102
RTVSPropertyOp17
 70
     0
102
RTVSPropertyOp18
 70
     0
102
RTVSPropertyOp19
 70
     0
102
RTVSPropertyOp20
 70
     0
102
RTVSPropertyOp21
 70
     0
102
RTVSPropertyOp22
 70
     0
102
RTVSPropertyOp23
 70
     0
102
RTVSPropertyOp24
 70
     0
102
RTVSPropertyOp25
 70
     0
102
RTVSPropertyOp26
 70
     0
102
RTVSPropertyOp27
 70
     0
102
RTVSPropertyOp28
 70
     1
102
RTVSPropertyOp29
 70
     1
102
RTVSPropertyOp30
 70
     1
102
RTVSPropertyOp31
 70
     1
102
RTVSPropertyOp32
 70
     1
102
RTVSPropertyOp33
 70
     1
102
RTVSPropertyOp34
 70
     1
102
RTVSPropertyOp35
 70
     1
102
RTVSPropertyOp36
 70
     1
102
RTVSPropertyOp37
 70
     1
102
RTVSPropertyOp38
 70
     1
102
RTVSPropertyOp39
 70
     1
102
RTVSPropertyOp40
 70
     1
102
RTVSPropertyOp41
 70
     1
102
RTVSPropertyOp42
 70
     1
102
RTVSPropertyOp43
 70
     1
102
RTVSPropertyOp44
 70
     1
102
RTVSPropertyOp45
 70
     1
102
RTVSPropertyOp46
 70
     1
102
RTVSPropertyOp47
 70
     1
102
RTVSPropertyOp48
 70
     1
102
RTVSPropertyOp49
 70
     1
102
RTVSPropertyOp50
 70
     1
102
RTVSPropertyOp51
 70
     0
102
RTVSPropertyOp52
 70
     0
102
RTVSPropertyOp53
 70
     1
102
RTVSPropertyOp54
 70
     1
102
RTVSPropertyOp55
 70
     1
102
RTVSPropertyOp56
 70
     1
102
RTVSPropertyOp57
 70
     1
102
RTVSPost2010Prop28
280
     0
102
RTVSPost2010PropOp28
 70
     1
102
RTVSPost2010Prop29
280
     1
102
RTVSPost2010PropOp29
 70
     1
102
RTVSPost2010Prop30
280
     1
102
RTVSPost2010PropOp30
 70
     1
102
RTVSPost2010Prop31
280
     0
102
RTVSPost2010PropOp31
 70
     1
102
RTVSPost2010Prop32
280
     0
102
RTVSPost2010PropOp32
 70
     1
102
RTVSPost2010Prop33
280
     0
102
RTVSPost2010PropOp33
 70
     1
102
RTVSPost2010Prop34
280
     0
102
RTVSPost2010PropOp34
 70
     1
102
RTVSPost2010Prop35
280
     0
102
RTVSPost2010PropOp35
 70
     1
102
RTVSPost2010Prop36
280
     0
102
RTVSPost2010PropOp36
 70
     1
102
RTVSPost2010Prop37
 90
       50
102
RTVSPost2010PropOp37
 70
     1
102
RTVSPost2010Prop38
140
0.0
102
RTVSPost2010PropOp38
 70
     1
102
RTVSPost2010Prop39
140
1.0
102
RTVSPost2010PropOp39
 70
     1
102
RTVSPost2010Prop40
 90
        0
102
RTVSPost2010PropOp40
 70
     1
102
RTVSPost2010Prop41ColorIndex
 90
       18
102
RTVSPost2010Prop41ColorRGB
 90
        0
102
RTVSPost2010PropOp41
 70
     1
102
RTVSPost2010Prop42
 90
       50
102
RTVSPost2010PropOp42
 70
     1
102
RTVSPost2010Prop43
 90
        3
102
RTVSPost2010PropOp43
 70
     1
102
RTVSPost2010Prop44ColorIndex
 90
        5
102
RTVSPost2010Prop44ColorRGB
 90
      255
102
RTVSPost2010PropOp44
 70
     1
102
RTVSPost2010Prop45
280
     0
102
RTVSPost2010PropOp45
 70
     1
102
RTVSPost2010Prop46
 90
       50
102
RTVSPost2010PropOp46
 70
     1
102
RTVSPost2010Prop47
 90
       50
102
RTVSPost2010PropOp47
 70
     1
102
RTVSPost2010Prop48
 90
       50
102
RTVSPost2010PropOp48
 70
     1
102
RTVSPost2010Prop49
280
     0
102
RTVSPost2010PropOp49
 70
     1
102
RTVSPost2010Prop50
 90
       50
102
RTVSPost2010PropOp50
 70
     1
102
RTVSPost2010Prop51ColorIndex
 90
      256
102
RTVSPost2010Prop51ColorRGB
 90
-16777216
102
RTVSPost2010PropOp51
 70
     0
102
RTVSPost2010Prop52
140
1.0
102
RTVSPost2010PropOp52
 70
     0
102
RTVSPost2010Prop53
 90
        2
102
RTVSPost2010PropOp53
 70
     1
102
RTVSPost2010Prop54
  1
strokes_ogs.tif
102
RTVSPost2010PropOp54
 70
     1
102
RTVSPost2010Prop55
280
     0
102
RTVSPost2010PropOp55
 70
     1
102
RTVSPost2010Prop56
140
1.0
102
RTVSPost2010PropOp56
 70
     1
102
RTVSPost2010Prop57
140
1.0
102
RTVSPost2010PropOp57
 70
     1
  0
XRECORD
  5
5EC
102
{ACAD_REACTORS
330
5EB
102
}
330
5EB
100
AcDbXrecord
280
     1
102
RTVSPropertyOp0
 70
     1
102
RTVSPropertyOp1
 70
     1
102
RTVSPropertyOp2
 70
     1
102
RTVSPropertyOp3
 70
     1
102
RTVSPropertyOp4
 70
     1
102
RTVSPropertyOp5
 70
     1
102
RTVSPropertyOp6
 70
     1
102
RTVSPropertyOp7
 70
     1
102
RTVSPropertyOp8
 70
     1
102
RTVSPropertyOp9
 70
     1
102
RTVSPropertyOp10
 70
     1
102
RTVSPropertyOp11
 70
     1
102
RTVSPropertyOp12
 70
     1
102
RTVSPropertyOp13
 70
     1
102
RTVSPropertyOp14
 70
     1
102
RTVSPropertyOp15
 70
     1
102
RTVSPropertyOp16
 70
     1
102
RTVSPropertyOp17
 70
     1
102
RTVSPropertyOp18
 70
     1
102
RTVSPropertyOp19
 70
     1
102
RTVSPropertyOp20
 70
     1
102
RTVSPropertyOp21
 70
     1
102
RTVSPropertyOp22
 70
     1
102
RTVSPropertyOp23
 70
     1
102
RTVSPropertyOp24
 70
     1
102
RTVSPropertyOp25
 70
     1
102
RTVSPropertyOp26
 70
     1
102
RTVSPropertyOp27
 70
     1
102
RTVSPropertyOp28
 70
     1
102
RTVSPropertyOp29
 70
     1
102
RTVSPropertyOp30
 70
     1
102
RTVSPropertyOp31
 70
     1
102
RTVSPropertyOp32
 70
     1
102
RTVSPropertyOp33
 70
     1
102
RTVSPropertyOp34
 70
     1
102
RTVSPropertyOp35
 70
     1
102
RTVSPropertyOp36
 70
     1
102
RTVSPropertyOp37
 70
     1
102
RTVSPropertyOp38
 70
     1
102
RTVSPropertyOp39
 70
     1
102
RTVSPropertyOp40
 70
     1
102
RTVSPropertyOp41
 70
     1
102
RTVSPropertyOp42
 70
     1
102
RTVSPropertyOp43
 70
     1
102
RTVSPropertyOp44
 70
     1
102
RTVSPropertyOp45
 70
     1
102
RTVSPropertyOp46
 70
     1
102
RTVSPropertyOp47
 70
     1
102
RTVSPropertyOp48
 70
     1
102
RTVSPropertyOp49
 70
     1
102
RTVSPropertyOp50
 70
     1
102
RTVSPropertyOp51
 70
     0
102
RTVSPropertyOp52
 70
     0
102
RTVSPropertyOp53
 70
     1
102
RTVSPropertyOp54
 70
     1
102
RTVSPropertyOp55
 70
     1
102
RTVSPropertyOp56
 70
     1
102
RTVSPropertyOp57
 70
     1
102
RTVSPost2010Prop28
280
     0
102
RTVSPost2010PropOp28
 70
     1
102
RTVSPost2010Prop29
280
     1
102
RTVSPost2010PropOp29
 70
     1
102
RTVSPost2010Prop30
280
     1
102
RTVSPost2010PropOp30
 70
     1
102
RTVSPost2010Prop31
280
     0
102
RTVSPost2010PropOp31
 70
     1
102
RTVSPost2010Prop32
280
     0
102
RTVSPost2010PropOp32
 70
     1
102
RTVSPost2010Prop33
280
     0
102
RTVSPost2010PropOp33
 70
     1
102
RTVSPost2010Prop34
280
     0
102
RTVSPost2010PropOp34
 70
     1
102
RTVSPost2010Prop35
280
     0
102
RTVSPost2010PropOp35
 70
     1
102
RTVSPost2010Prop36
280
     0
102
RTVSPost2010PropOp36
 70
     1
102
RTVSPost2010Prop37
 90
       50
102
RTVSPost2010PropOp37
 70
     1
102
RTVSPost2010Prop38
140
0.0
102
RTVSPost2010PropOp38
 70
     1
102
RTVSPost2010Prop39
140
1.0
102
RTVSPost2010PropOp39
 70
     1
102
RTVSPost2010Prop40
 90
        0
102
RTVSPost2010PropOp40
 70
     1
102
RTVSPost2010Prop41ColorIndex
 90
       18
102
RTVSPost2010Prop41ColorRGB
 90
        0
102
RTVSPost2010PropOp41
 70
     1
102
RTVSPost2010Prop42
 90
       50
102
RTVSPost2010PropOp42
 70
     1
102
RTVSPost2010Prop43
 90
        3
102
RTVSPost2010PropOp43
 70
     1
102
RTVSPost2010Prop44ColorIndex
 90
        5
102
RTVSPost2010Prop44ColorRGB
 90
      255
102
RTVSPost2010PropOp44
 70
     1
102
RTVSPost2010Prop45
280
     0
102
RTVSPost2010PropOp45
 70
     1
102
RTVSPost2010Prop46
 90
       50
102
RTVSPost2010PropOp46
 70
     1
102
RTVSPost2010Prop47
 90
       50
102
RTVSPost2010PropOp47
 70
     1
102
RTVSPost2010Prop48
 90
       50
102
RTVSPost2010PropOp48
 70
     1
102
RTVSPost2010Prop49
280
     0
102
RTVSPost2010PropOp49
 70
     1
102
RTVSPost2010Prop50
 90
       50
102
RTVSPost2010PropOp50
 70
     1
102
RTVSPost2010Prop51ColorIndex
 90
      256
102
RTVSPost2010Prop51ColorRGB
 90
-16777216
102
RTVSPost2010PropOp51
 70
     0
102
RTVSPost2010Prop52
140
1.0
102
RTVSPost2010PropOp52
 70
     0
102
RTVSPost2010Prop53
 90
        2
102
RTVSPost2010PropOp53
 70
     1
102
RTVSPost2010Prop54
  1
strokes_ogs.tif
102
RTVSPost2010PropOp54
 70
     1
102
RTVSPost2010Prop55
280
     0
102
RTVSPost2010PropOp55
 70
     1
102
RTVSPost2010Prop56
140
1.0
102
RTVSPost2010PropOp56
 70
     1
102
RTVSPost2010Prop57
140
1.0
102
RTVSPost2010PropOp57
 70
     1
  0
XRECORD
  5
60A
102
{ACAD_REACTORS
330
609
102
}
330
609
100
AcDbXrecord
280
     1
102
RTVSPropertyOp0
 70
     1
102
RTVSPropertyOp1
 70
     1
102
RTVSPropertyOp2
 70
     1
102
RTVSPropertyOp3
 70
     1
102
RTVSPropertyOp4
 70
     1
102
RTVSPropertyOp5
 70
     1
102
RTVSPropertyOp6
 70
     1
102
RTVSPropertyOp7
 70
     1
102
RTVSPropertyOp8
 70
     1
102
RTVSPropertyOp9
 70
     1
102
RTVSPropertyOp10
 70
     1
102
RTVSPropertyOp11
 70
     1
102
RTVSPropertyOp12
 70
     1
102
RTVSPropertyOp13
 70
     1
102
RTVSPropertyOp14
 70
     1
102
RTVSPropertyOp15
 70
     1
102
RTVSPropertyOp16
 70
     1
102
RTVSPropertyOp17
 70
     1
102
RTVSPropertyOp18
 70
     1
102
RTVSPropertyOp19
 70
     1
102
RTVSPropertyOp20
 70
     1
102
RTVSPropertyOp21
 70
     1
102
RTVSPropertyOp22
 70
     1
102
RTVSPropertyOp23
 70
     1
102
RTVSPropertyOp24
 70
     1
102
RTVSPropertyOp25
 70
     1
102
RTVSPropertyOp26
 70
     1
102
RTVSPropertyOp27
 70
     1
102
RTVSPropertyOp28
 70
     1
102
RTVSPropertyOp29
 70
     1
102
RTVSPropertyOp30
 70
     1
102
RTVSPropertyOp31
 70
     1
102
RTVSPropertyOp32
 70
     1
102
RTVSPropertyOp33
 70
     1
102
RTVSPropertyOp34
 70
     1
102
RTVSPropertyOp35
 70
     1
102
RTVSPropertyOp36
 70
     1
102
RTVSPropertyOp37
 70
     1
102
RTVSPropertyOp38
 70
     1
102
RTVSPropertyOp39
 70
     1
102
RTVSPropertyOp40
 70
     1
102
RTVSPropertyOp41
 70
     1
102
RTVSPropertyOp42
 70
     1
102
RTVSPropertyOp43
 70
     1
102
RTVSPropertyOp44
 70
     1
102
RTVSPropertyOp45
 70
     1
102
RTVSPropertyOp46
 70
     1
102
RTVSPropertyOp47
 70
     1
102
RTVSPropertyOp48
 70
     1
102
RTVSPropertyOp49
 70
     1
102
RTVSPropertyOp50
 70
     1
102
RTVSPropertyOp51
 70
     0
102
RTVSPropertyOp52
 70
     0
102
RTVSPropertyOp53
 70
     1
102
RTVSPropertyOp54
 70
     1
102
RTVSPropertyOp55
 70
     1
102
RTVSPropertyOp56
 70
     1
102
RTVSPropertyOp57
 70
     1
102
RTVSPost2010Prop28
280
     0
102
RTVSPost2010PropOp28
 70
     1
102
RTVSPost2010Prop29
280
     1
102
RTVSPost2010PropOp29
 70
     1
102
RTVSPost2010Prop30
280
     1
102
RTVSPost2010PropOp30
 70
     1
102
RTVSPost2010Prop31
280
     0
102
RTVSPost2010PropOp31
 70
     1
102
RTVSPost2010Prop32
280
     0
102
RTVSPost2010PropOp32
 70
     1
102
RTVSPost2010Prop33
280
     0
102
RTVSPost2010PropOp33
 70
     1
102
RTVSPost2010Prop34
280
     0
102
RTVSPost2010PropOp34
 70
     1
102
RTVSPost2010Prop35
280
     0
102
RTVSPost2010PropOp35
 70
     1
102
RTVSPost2010Prop36
280
     0
102
RTVSPost2010PropOp36
 70
     1
102
RTVSPost2010Prop37
 90
       50
102
RTVSPost2010PropOp37
 70
     1
102
RTVSPost2010Prop38
140
0.0
102
RTVSPost2010PropOp38
 70
     1
102
RTVSPost2010Prop39
140
1.0
102
RTVSPost2010PropOp39
 70
     1
102
RTVSPost2010Prop40
 90
        0
102
RTVSPost2010PropOp40
 70
     1
102
RTVSPost2010Prop41ColorIndex
 90
       18
102
RTVSPost2010Prop41ColorRGB
 90
        0
102
RTVSPost2010PropOp41
 70
     1
102
RTVSPost2010Prop42
 90
       50
102
RTVSPost2010PropOp42
 70
     1
102
RTVSPost2010Prop43
 90
        3
102
RTVSPost2010PropOp43
 70
     1
102
RTVSPost2010Prop44ColorIndex
 90
        5
102
RTVSPost2010Prop44ColorRGB
 90
      255
102
RTVSPost2010PropOp44
 70
     1
102
RTVSPost2010Prop45
280
     0
102
RTVSPost2010PropOp45
 70
     1
102
RTVSPost2010Prop46
 90
       50
102
RTVSPost2010PropOp46
 70
     1
102
RTVSPost2010Prop47
 90
       50
102
RTVSPost2010PropOp47
 70
     1
102
RTVSPost2010Prop48
 90
       50
102
RTVSPost2010PropOp48
 70
     1
102
RTVSPost2010Prop49
280
     0
102
RTVSPost2010PropOp49
 70
     1
102
RTVSPost2010Prop50
 90
       50
102
RTVSPost2010PropOp50
 70
     1
102
RTVSPost2010Prop51ColorIndex
 90
      256
102
RTVSPost2010Prop51ColorRGB
 90
-16777216
102
RTVSPost2010PropOp51
 70
     0
102
RTVSPost2010Prop52
140
1.0
102
RTVSPost2010PropOp52
 70
     0
102
RTVSPost2010Prop53
 90
        2
102
RTVSPost2010PropOp53
 70
     1
102
RTVSPost2010Prop54
  1
strokes_ogs.tif
102
RTVSPost2010PropOp54
 70
     1
102
RTVSPost2010Prop55
280
     0
102
RTVSPost2010PropOp55
 70
     1
102
RTVSPost2010Prop56
140
1.0
102
RTVSPost2010PropOp56
 70
     1
102
RTVSPost2010Prop57
140
1.0
102
RTVSPost2010PropOp57
 70
     1
  0
XRECORD
  5
608
102
{ACAD_REACTORS
330
607
102
}
330
607
100
AcDbXrecord
280
     1
102
RTVSPropertyOp0
 70
     1
102
RTVSPropertyOp1
 70
     1
102
RTVSPropertyOp2
 70
     1
102
RTVSPropertyOp3
 70
     1
102
RTVSPropertyOp4
 70
     1
102
RTVSPropertyOp5
 70
     1
102
RTVSPropertyOp6
 70
     1
102
RTVSPropertyOp7
 70
     1
102
RTVSPropertyOp8
 70
     1
102
RTVSPropertyOp9
 70
     1
102
RTVSPropertyOp10
 70
     1
102
RTVSPropertyOp11
 70
     1
102
RTVSPropertyOp12
 70
     1
102
RTVSPropertyOp13
 70
     1
102
RTVSPropertyOp14
 70
     1
102
RTVSPropertyOp15
 70
     1
102
RTVSPropertyOp16
 70
     1
102
RTVSPropertyOp17
 70
     1
102
RTVSPropertyOp18
 70
     1
102
RTVSPropertyOp19
 70
     1
102
RTVSPropertyOp20
 70
     1
102
RTVSPropertyOp21
 70
     1
102
RTVSPropertyOp22
 70
     1
102
RTVSPropertyOp23
 70
     1
102
RTVSPropertyOp24
 70
     1
102
RTVSPropertyOp25
 70
     1
102
RTVSPropertyOp26
 70
     1
102
RTVSPropertyOp27
 70
     1
102
RTVSPropertyOp28
 70
     1
102
RTVSPropertyOp29
 70
     1
102
RTVSPropertyOp30
 70
     1
102
RTVSPropertyOp31
 70
     1
102
RTVSPropertyOp32
 70
     1
102
RTVSPropertyOp33
 70
     1
102
RTVSPropertyOp34
 70
     1
102
RTVSPropertyOp35
 70
     1
102
RTVSPropertyOp36
 70
     1
102
RTVSPropertyOp37
 70
     1
102
RTVSPropertyOp38
 70
     1
102
RTVSPropertyOp39
 70
     1
102
RTVSPropertyOp40
 70
     1
102
RTVSPropertyOp41
 70
     1
102
RTVSPropertyOp42
 70
     1
102
RTVSPropertyOp43
 70
     1
102
RTVSPropertyOp44
 70
     1
102
RTVSPropertyOp45
 70
     1
102
RTVSPropertyOp46
 70
     1
102
RTVSPropertyOp47
 70
     1
102
RTVSPropertyOp48
 70
     1
102
RTVSPropertyOp49
 70
     1
102
RTVSPropertyOp50
 70
     1
102
RTVSPropertyOp51
 70
     0
102
RTVSPropertyOp52
 70
     0
102
RTVSPropertyOp53
 70
     1
102
RTVSPropertyOp54
 70
     1
102
RTVSPropertyOp55
 70
     1
102
RTVSPropertyOp56
 70
     1
102
RTVSPropertyOp57
 70
     1
102
RTVSPost2010Prop28
280
     0
102
RTVSPost2010PropOp28
 70
     1
102
RTVSPost2010Prop29
280
     1
102
RTVSPost2010PropOp29
 70
     1
102
RTVSPost2010Prop30
280
     1
102
RTVSPost2010PropOp30
 70
     1
102
RTVSPost2010Prop31
280
     0
102
RTVSPost2010PropOp31
 70
     1
102
RTVSPost2010Prop32
280
     0
102
RTVSPost2010PropOp32
 70
     1
102
RTVSPost2010Prop33
280
     0
102
RTVSPost2010PropOp33
 70
     1
102
RTVSPost2010Prop34
280
     0
102
RTVSPost2010PropOp34
 70
     1
102
RTVSPost2010Prop35
280
     0
102
RTVSPost2010PropOp35
 70
     1
102
RTVSPost2010Prop36
280
     0
102
RTVSPost2010PropOp36
 70
     1
102
RTVSPost2010Prop37
 90
       50
102
RTVSPost2010PropOp37
 70
     1
102
RTVSPost2010Prop38
140
0.0
102
RTVSPost2010PropOp38
 70
     1
102
RTVSPost2010Prop39
140
1.0
102
RTVSPost2010PropOp39
 70
     1
102
RTVSPost2010Prop40
 90
        0
102
RTVSPost2010PropOp40
 70
     1
102
RTVSPost2010Prop41ColorIndex
 90
       18
102
RTVSPost2010Prop41ColorRGB
 90
        0
102
RTVSPost2010PropOp41
 70
     1
102
RTVSPost2010Prop42
 90
       50
102
RTVSPost2010PropOp42
 70
     1
102
RTVSPost2010Prop43
 90
        3
102
RTVSPost2010PropOp43
 70
     1
102
RTVSPost2010Prop44ColorIndex
 90
        5
102
RTVSPost2010Prop44ColorRGB
 90
      255
102
RTVSPost2010PropOp44
 70
     1
102
RTVSPost2010Prop45
280
     0
102
RTVSPost2010PropOp45
 70
     1
102
RTVSPost2010Prop46
 90
       50
102
RTVSPost2010PropOp46
 70
     1
102
RTVSPost2010Prop47
 90
       50
102
RTVSPost2010PropOp47
 70
     1
102
RTVSPost2010Prop48
 90
       50
102
RTVSPost2010PropOp48
 70
     1
102
RTVSPost2010Prop49
280
     0
102
RTVSPost2010PropOp49
 70
     1
102
RTVSPost2010Prop50
 90
       50
102
RTVSPost2010PropOp50
 70
     1
102
RTVSPost2010Prop51ColorIndex
 90
      256
102
RTVSPost2010Prop51ColorRGB
 90
-16777216
102
RTVSPost2010PropOp51
 70
     0
102
RTVSPost2010Prop52
140
1.0
102
RTVSPost2010PropOp52
 70
     0
102
RTVSPost2010Prop53
 90
        2
102
RTVSPost2010PropOp53
 70
     1
102
RTVSPost2010Prop54
  1
strokes_ogs.tif
102
RTVSPost2010PropOp54
 70
     1
102
RTVSPost2010Prop55
280
     0
102
RTVSPost2010PropOp55
 70
     1
102
RTVSPost2010Prop56
140
1.0
102
RTVSPost2010PropOp56
 70
     1
102
RTVSPost2010Prop57
140
1.0
102
RTVSPost2010PropOp57
 70
     1
  0
XRECORD
  5
602
102
{ACAD_REACTORS
330
601
102
}
330
601
100
AcDbXrecord
280
     1
102
RTVSPropertyOp0
 70
     1
102
RTVSPropertyOp1
 70
     1
102
RTVSPropertyOp2
 70
     1
102
RTVSPropertyOp3
 70
     1
102
RTVSPropertyOp4
 70
     1
102
RTVSPropertyOp5
 70
     1
102
RTVSPropertyOp6
 70
     1
102
RTVSPropertyOp7
 70
     1
102
RTVSPropertyOp8
 70
     1
102
RTVSPropertyOp9
 70
     1
102
RTVSPropertyOp10
 70
     1
102
RTVSPropertyOp11
 70
     1
102
RTVSPropertyOp12
 70
     1
102
RTVSPropertyOp13
 70
     1
102
RTVSPropertyOp14
 70
     1
102
RTVSPropertyOp15
 70
     1
102
RTVSPropertyOp16
 70
     1
102
RTVSPropertyOp17
 70
     1
102
RTVSPropertyOp18
 70
     1
102
RTVSPropertyOp19
 70
     1
102
RTVSPropertyOp20
 70
     1
102
RTVSPropertyOp21
 70
     1
102
RTVSPropertyOp22
 70
     1
102
RTVSPropertyOp23
 70
     1
102
RTVSPropertyOp24
 70
     1
102
RTVSPropertyOp25
 70
     1
102
RTVSPropertyOp26
 70
     1
102
RTVSPropertyOp27
 70
     1
102
RTVSPropertyOp28
 70
     1
102
RTVSPropertyOp29
 70
     1
102
RTVSPropertyOp30
 70
     1
102
RTVSPropertyOp31
 70
     1
102
RTVSPropertyOp32
 70
     1
102
RTVSPropertyOp33
 70
     1
102
RTVSPropertyOp34
 70
     1
102
RTVSPropertyOp35
 70
     1
102
RTVSPropertyOp36
 70
     1
102
RTVSPropertyOp37
 70
     1
102
RTVSPropertyOp38
 70
     1
102
RTVSPropertyOp39
 70
     1
102
RTVSPropertyOp40
 70
     1
102
RTVSPropertyOp41
 70
     1
102
RTVSPropertyOp42
 70
     1
102
RTVSPropertyOp43
 70
     1
102
RTVSPropertyOp44
 70
     1
102
RTVSPropertyOp45
 70
     1
102
RTVSPropertyOp46
 70
     1
102
RTVSPropertyOp47
 70
     1
102
RTVSPropertyOp48
 70
     1
102
RTVSPropertyOp49
 70
     1
102
RTVSPropertyOp50
 70
     1
102
RTVSPropertyOp51
 70
     0
102
RTVSPropertyOp52
 70
     0
102
RTVSPropertyOp53
 70
     1
102
RTVSPropertyOp54
 70
     1
102
RTVSPropertyOp55
 70
     1
102
RTVSPropertyOp56
 70
     1
102
RTVSPropertyOp57
 70
     1
102
RTVSPost2010Prop28
280
     0
102
RTVSPost2010PropOp28
 70
     1
102
RTVSPost2010Prop29
280
     1
102
RTVSPost2010PropOp29
 70
     1
102
RTVSPost2010Prop30
280
     1
102
RTVSPost2010PropOp30
 70
     1
102
RTVSPost2010Prop31
280
     0
102
RTVSPost2010PropOp31
 70
     1
102
RTVSPost2010Prop32
280
     0
102
RTVSPost2010PropOp32
 70
     1
102
RTVSPost2010Prop33
280
     0
102
RTVSPost2010PropOp33
 70
     1
102
RTVSPost2010Prop34
280
     0
102
RTVSPost2010PropOp34
 70
     1
102
RTVSPost2010Prop35
280
     0
102
RTVSPost2010PropOp35
 70
     1
102
RTVSPost2010Prop36
280
     0
102
RTVSPost2010PropOp36
 70
     1
102
RTVSPost2010Prop37
 90
       50
102
RTVSPost2010PropOp37
 70
     1
102
RTVSPost2010Prop38
140
0.0
102
RTVSPost2010PropOp38
 70
     1
102
RTVSPost2010Prop39
140
1.0
102
RTVSPost2010PropOp39
 70
     1
102
RTVSPost2010Prop40
 90
        0
102
RTVSPost2010PropOp40
 70
     1
102
RTVSPost2010Prop41ColorIndex
 90
       18
102
RTVSPost2010Prop41ColorRGB
 90
        0
102
RTVSPost2010PropOp41
 70
     1
102
RTVSPost2010Prop42
 90
       50
102
RTVSPost2010PropOp42
 70
     1
102
RTVSPost2010Prop43
 90
        3
102
RTVSPost2010PropOp43
 70
     1
102
RTVSPost2010Prop44ColorIndex
 90
        5
102
RTVSPost2010Prop44ColorRGB
 90
      255
102
RTVSPost2010PropOp44
 70
     1
102
RTVSPost2010Prop45
280
     0
102
RTVSPost2010PropOp45
 70
     1
102
RTVSPost2010Prop46
 90
       50
102
RTVSPost2010PropOp46
 70
     1
102
RTVSPost2010Prop47
 90
       50
102
RTVSPost2010PropOp47
 70
     1
102
RTVSPost2010Prop48
 90
       50
102
RTVSPost2010PropOp48
 70
     1
102
RTVSPost2010Prop49
280
     0
102
RTVSPost2010PropOp49
 70
     1
102
RTVSPost2010Prop50
 90
       50
102
RTVSPost2010PropOp50
 70
     1
102
RTVSPost2010Prop51ColorIndex
 90
      256
102
RTVSPost2010Prop51ColorRGB
 90
-16777216
102
RTVSPost2010PropOp51
 70
     0
102
RTVSPost2010Prop52
140
1.0
102
RTVSPost2010PropOp52
 70
     0
102
RTVSPost2010Prop53
 90
        2
102
RTVSPost2010PropOp53
 70
     1
102
RTVSPost2010Prop54
  1
strokes_ogs.tif
102
RTVSPost2010PropOp54
 70
     1
102
RTVSPost2010Prop55
280
     0
102
RTVSPost2010PropOp55
 70
     1
102
RTVSPost2010Prop56
140
1.0
102
RTVSPost2010PropOp56
 70
     1
102
RTVSPost2010Prop57
140
1.0
102
RTVSPost2010PropOp57
 70
     1
  0
XRECORD
  5
604
102
{ACAD_REACTORS
330
603
102
}
330
603
100
AcDbXrecord
280
     1
102
RTVSPropertyOp0
 70
     1
102
RTVSPropertyOp1
 70
     1
102
RTVSPropertyOp2
 70
     1
102
RTVSPropertyOp3
 70
     1
102
RTVSPropertyOp4
 70
     1
102
RTVSPropertyOp5
 70
     1
102
RTVSPropertyOp6
 70
     1
102
RTVSPropertyOp7
 70
     1
102
RTVSPropertyOp8
 70
     1
102
RTVSPropertyOp9
 70
     1
102
RTVSPropertyOp10
 70
     1
102
RTVSPropertyOp11
 70
     1
102
RTVSPropertyOp12
 70
     1
102
RTVSPropertyOp13
 70
     1
102
RTVSPropertyOp14
 70
     1
102
RTVSPropertyOp15
 70
     1
102
RTVSPropertyOp16
 70
     1
102
RTVSPropertyOp17
 70
     1
102
RTVSPropertyOp18
 70
     1
102
RTVSPropertyOp19
 70
     1
102
RTVSPropertyOp20
 70
     1
102
RTVSPropertyOp21
 70
     1
102
RTVSPropertyOp22
 70
     1
102
RTVSPropertyOp23
 70
     1
102
RTVSPropertyOp24
 70
     1
102
RTVSPropertyOp25
 70
     1
102
RTVSPropertyOp26
 70
     1
102
RTVSPropertyOp27
 70
     1
102
RTVSPropertyOp28
 70
     1
102
RTVSPropertyOp29
 70
     1
102
RTVSPropertyOp30
 70
     1
102
RTVSPropertyOp31
 70
     1
102
RTVSPropertyOp32
 70
     1
102
RTVSPropertyOp33
 70
     1
102
RTVSPropertyOp34
 70
     1
102
RTVSPropertyOp35
 70
     1
102
RTVSPropertyOp36
 70
     1
102
RTVSPropertyOp37
 70
     1
102
RTVSPropertyOp38
 70
     1
102
RTVSPropertyOp39
 70
     1
102
RTVSPropertyOp40
 70
     1
102
RTVSPropertyOp41
 70
     1
102
RTVSPropertyOp42
 70
     1
102
RTVSPropertyOp43
 70
     1
102
RTVSPropertyOp44
 70
     1
102
RTVSPropertyOp45
 70
     1
102
RTVSPropertyOp46
 70
     1
102
RTVSPropertyOp47
 70
     1
102
RTVSPropertyOp48
 70
     1
102
RTVSPropertyOp49
 70
     1
102
RTVSPropertyOp50
 70
     1
102
RTVSPropertyOp51
 70
     0
102
RTVSPropertyOp52
 70
     0
102
RTVSPropertyOp53
 70
     1
102
RTVSPropertyOp54
 70
     1
102
RTVSPropertyOp55
 70
     1
102
RTVSPropertyOp56
 70
     1
102
RTVSPropertyOp57
 70
     1
102
RTVSPost2010Prop28
280
     0
102
RTVSPost2010PropOp28
 70
     1
102
RTVSPost2010Prop29
280
     1
102
RTVSPost2010PropOp29
 70
     1
102
RTVSPost2010Prop30
280
     1
102
RTVSPost2010PropOp30
 70
     1
102
RTVSPost2010Prop31
280
     0
102
RTVSPost2010PropOp31
 70
     1
102
RTVSPost2010Prop32
280
     0
102
RTVSPost2010PropOp32
 70
     1
102
RTVSPost2010Prop33
280
     0
102
RTVSPost2010PropOp33
 70
     1
102
RTVSPost2010Prop34
280
     0
102
RTVSPost2010PropOp34
 70
     1
102
RTVSPost2010Prop35
280
     0
102
RTVSPost2010PropOp35
 70
     1
102
RTVSPost2010Prop36
280
     0
102
RTVSPost2010PropOp36
 70
     1
102
RTVSPost2010Prop37
 90
       50
102
RTVSPost2010PropOp37
 70
     1
102
RTVSPost2010Prop38
140
0.0
102
RTVSPost2010PropOp38
 70
     1
102
RTVSPost2010Prop39
140
1.0
102
RTVSPost2010PropOp39
 70
     1
102
RTVSPost2010Prop40
 90
        0
102
RTVSPost2010PropOp40
 70
     1
102
RTVSPost2010Prop41ColorIndex
 90
       18
102
RTVSPost2010Prop41ColorRGB
 90
        0
102
RTVSPost2010PropOp41
 70
     1
102
RTVSPost2010Prop42
 90
       50
102
RTVSPost2010PropOp42
 70
     1
102
RTVSPost2010Prop43
 90
        3
102
RTVSPost2010PropOp43
 70
     1
102
RTVSPost2010Prop44ColorIndex
 90
        5
102
RTVSPost2010Prop44ColorRGB
 90
      255
102
RTVSPost2010PropOp44
 70
     1
102
RTVSPost2010Prop45
280
     0
102
RTVSPost2010PropOp45
 70
     1
102
RTVSPost2010Prop46
 90
       50
102
RTVSPost2010PropOp46
 70
     1
102
RTVSPost2010Prop47
 90
       50
102
RTVSPost2010PropOp47
 70
     1
102
RTVSPost2010Prop48
 90
       50
102
RTVSPost2010PropOp48
 70
     1
102
RTVSPost2010Prop49
280
     0
102
RTVSPost2010PropOp49
 70
     1
102
RTVSPost2010Prop50
 90
       50
102
RTVSPost2010PropOp50
 70
     1
102
RTVSPost2010Prop51ColorIndex
 90
      256
102
RTVSPost2010Prop51ColorRGB
 90
-16777216
102
RTVSPost2010PropOp51
 70
     0
102
RTVSPost2010Prop52
140
1.0
102
RTVSPost2010PropOp52
 70
     0
102
RTVSPost2010Prop53
 90
        2
102
RTVSPost2010PropOp53
 70
     1
102
RTVSPost2010Prop54
  1
strokes_ogs.tif
102
RTVSPost2010PropOp54
 70
     1
102
RTVSPost2010Prop55
280
     0
102
RTVSPost2010PropOp55
 70
     1
102
RTVSPost2010Prop56
140
1.0
102
RTVSPost2010PropOp56
 70
     1
102
RTVSPost2010Prop57
140
1.0
102
RTVSPost2010PropOp57
 70
     1
  0
XRECORD
  5
5F4
102
{ACAD_REACTORS
330
5F3
102
}
330
5F3
100
AcDbXrecord
280
     1
102
RTVSPropertyOp0
 70
     1
102
RTVSPropertyOp1
 70
     1
102
RTVSPropertyOp2
 70
     1
102
RTVSPropertyOp3
 70
     1
102
RTVSPropertyOp4
 70
     1
102
RTVSPropertyOp5
 70
     1
102
RTVSPropertyOp6
 70
     1
102
RTVSPropertyOp7
 70
     1
102
RTVSPropertyOp8
 70
     1
102
RTVSPropertyOp9
 70
     1
102
RTVSPropertyOp10
 70
     1
102
RTVSPropertyOp11
 70
     1
102
RTVSPropertyOp12
 70
     1
102
RTVSPropertyOp13
 70
     1
102
RTVSPropertyOp14
 70
     1
102
RTVSPropertyOp15
 70
     1
102
RTVSPropertyOp16
 70
     1
102
RTVSPropertyOp17
 70
     1
102
RTVSPropertyOp18
 70
     1
102
RTVSPropertyOp19
 70
     1
102
RTVSPropertyOp20
 70
     1
102
RTVSPropertyOp21
 70
     1
102
RTVSPropertyOp22
 70
     1
102
RTVSPropertyOp23
 70
     1
102
RTVSPropertyOp24
 70
     1
102
RTVSPropertyOp25
 70
     1
102
RTVSPropertyOp26
 70
     1
102
RTVSPropertyOp27
 70
     1
102
RTVSPropertyOp28
 70
     1
102
RTVSPropertyOp29
 70
     1
102
RTVSPropertyOp30
 70
     1
102
RTVSPropertyOp31
 70
     1
102
RTVSPropertyOp32
 70
     1
102
RTVSPropertyOp33
 70
     1
102
RTVSPropertyOp34
 70
     1
102
RTVSPropertyOp35
 70
     1
102
RTVSPropertyOp36
 70
     1
102
RTVSPropertyOp37
 70
     1
102
RTVSPropertyOp38
 70
     1
102
RTVSPropertyOp39
 70
     1
102
RTVSPropertyOp40
 70
     1
102
RTVSPropertyOp41
 70
     1
102
RTVSPropertyOp42
 70
     1
102
RTVSPropertyOp43
 70
     1
102
RTVSPropertyOp44
 70
     1
102
RTVSPropertyOp45
 70
     1
102
RTVSPropertyOp46
 70
     1
102
RTVSPropertyOp47
 70
     1
102
RTVSPropertyOp48
 70
     1
102
RTVSPropertyOp49
 70
     1
102
RTVSPropertyOp50
 70
     1
102
RTVSPropertyOp51
 70
     0
102
RTVSPropertyOp52
 70
     0
102
RTVSPropertyOp53
 70
     1
102
RTVSPropertyOp54
 70
     1
102
RTVSPropertyOp55
 70
     1
102
RTVSPropertyOp56
 70
     1
102
RTVSPropertyOp57
 70
     1
102
RTVSPost2010Prop28
280
     0
102
RTVSPost2010PropOp28
 70
     1
102
RTVSPost2010Prop29
280
     1
102
RTVSPost2010PropOp29
 70
     1
102
RTVSPost2010Prop30
280
     1
102
RTVSPost2010PropOp30
 70
     1
102
RTVSPost2010Prop31
280
     0
102
RTVSPost2010PropOp31
 70
     1
102
RTVSPost2010Prop32
280
     0
102
RTVSPost2010PropOp32
 70
     1
102
RTVSPost2010Prop33
280
     0
102
RTVSPost2010PropOp33
 70
     1
102
RTVSPost2010Prop34
280
     0
102
RTVSPost2010PropOp34
 70
     1
102
RTVSPost2010Prop35
280
     0
102
RTVSPost2010PropOp35
 70
     1
102
RTVSPost2010Prop36
280
     0
102
RTVSPost2010PropOp36
 70
     1
102
RTVSPost2010Prop37
 90
       50
102
RTVSPost2010PropOp37
 70
     1
102
RTVSPost2010Prop38
140
0.0
102
RTVSPost2010PropOp38
 70
     1
102
RTVSPost2010Prop39
140
1.0
102
RTVSPost2010PropOp39
 70
     1
102
RTVSPost2010Prop40
 90
        0
102
RTVSPost2010PropOp40
 70
     1
102
RTVSPost2010Prop41ColorIndex
 90
       18
102
RTVSPost2010Prop41ColorRGB
 90
        0
102
RTVSPost2010PropOp41
 70
     1
102
RTVSPost2010Prop42
 90
       50
102
RTVSPost2010PropOp42
 70
     1
102
RTVSPost2010Prop43
 90
        3
102
RTVSPost2010PropOp43
 70
     1
102
RTVSPost2010Prop44ColorIndex
 90
        5
102
RTVSPost2010Prop44ColorRGB
 90
      255
102
RTVSPost2010PropOp44
 70
     1
102
RTVSPost2010Prop45
280
     0
102
RTVSPost2010PropOp45
 70
     1
102
RTVSPost2010Prop46
 90
       50
102
RTVSPost2010PropOp46
 70
     1
102
RTVSPost2010Prop47
 90
       50
102
RTVSPost2010PropOp47
 70
     1
102
RTVSPost2010Prop48
 90
       50
102
RTVSPost2010PropOp48
 70
     1
102
RTVSPost2010Prop49
280
     0
102
RTVSPost2010PropOp49
 70
     1
102
RTVSPost2010Prop50
 90
       50
102
RTVSPost2010PropOp50
 70
     1
102
RTVSPost2010Prop51ColorIndex
 90
      256
102
RTVSPost2010Prop51ColorRGB
 90
-16777216
102
RTVSPost2010PropOp51
 70
     0
102
RTVSPost2010Prop52
140
1.0
102
RTVSPost2010PropOp52
 70
     0
102
RTVSPost2010Prop53
 90
        2
102
RTVSPost2010PropOp53
 70
     1
102
RTVSPost2010Prop54
  1
strokes_ogs.tif
102
RTVSPost2010PropOp54
 70
     1
102
RTVSPost2010Prop55
280
     0
102
RTVSPost2010PropOp55
 70
     1
102
RTVSPost2010Prop56
140
1.0
102
RTVSPost2010PropOp56
 70
     1
102
RTVSPost2010Prop57
140
1.0
102
RTVSPost2010PropOp57
 70
     1
  0
XRECORD
  5
5E6
102
{ACAD_REACTORS
330
5E5
102
}
330
5E5
100
AcDbXrecord
280
     1
102
RTVSPropertyOp0
 70
     1
102
RTVSPropertyOp1
 70
     1
102
RTVSPropertyOp2
 70
     1
102
RTVSPropertyOp3
 70
     1
102
RTVSPropertyOp4
 70
     1
102
RTVSPropertyOp5
 70
     1
102
RTVSPropertyOp6
 70
     1
102
RTVSPropertyOp7
 70
     1
102
RTVSPropertyOp8
 70
     1
102
RTVSPropertyOp9
 70
     1
102
RTVSPropertyOp10
 70
     1
102
RTVSPropertyOp11
 70
     1
102
RTVSPropertyOp12
 70
     1
102
RTVSPropertyOp13
 70
     1
102
RTVSPropertyOp14
 70
     1
102
RTVSPropertyOp15
 70
     1
102
RTVSPropertyOp16
 70
     1
102
RTVSPropertyOp17
 70
     1
102
RTVSPropertyOp18
 70
     1
102
RTVSPropertyOp19
 70
     1
102
RTVSPropertyOp20
 70
     1
102
RTVSPropertyOp21
 70
     1
102
RTVSPropertyOp22
 70
     1
102
RTVSPropertyOp23
 70
     1
102
RTVSPropertyOp24
 70
     1
102
RTVSPropertyOp25
 70
     1
102
RTVSPropertyOp26
 70
     1
102
RTVSPropertyOp27
 70
     1
102
RTVSPropertyOp28
 70
     1
102
RTVSPropertyOp29
 70
     1
102
RTVSPropertyOp30
 70
     1
102
RTVSPropertyOp31
 70
     1
102
RTVSPropertyOp32
 70
     1
102
RTVSPropertyOp33
 70
     1
102
RTVSPropertyOp34
 70
     1
102
RTVSPropertyOp35
 70
     1
102
RTVSPropertyOp36
 70
     1
102
RTVSPropertyOp37
 70
     1
102
RTVSPropertyOp38
 70
     1
102
RTVSPropertyOp39
 70
     1
102
RTVSPropertyOp40
 70
     1
102
RTVSPropertyOp41
 70
     1
102
RTVSPropertyOp42
 70
     1
102
RTVSPropertyOp43
 70
     1
102
RTVSPropertyOp44
 70
     1
102
RTVSPropertyOp45
 70
     1
102
RTVSPropertyOp46
 70
     1
102
RTVSPropertyOp47
 70
     1
102
RTVSPropertyOp48
 70
     1
102
RTVSPropertyOp49
 70
     1
102
RTVSPropertyOp50
 70
     1
102
RTVSPropertyOp51
 70
     0
102
RTVSPropertyOp52
 70
     0
102
RTVSPropertyOp53
 70
     1
102
RTVSPropertyOp54
 70
     1
102
RTVSPropertyOp55
 70
     1
102
RTVSPropertyOp56
 70
     1
102
RTVSPropertyOp57
 70
     1
102
RTVSPost2010Prop28
280
     0
102
RTVSPost2010PropOp28
 70
     1
102
RTVSPost2010Prop29
280
     1
102
RTVSPost2010PropOp29
 70
     1
102
RTVSPost2010Prop30
280
     1
102
RTVSPost2010PropOp30
 70
     1
102
RTVSPost2010Prop31
280
     0
102
RTVSPost2010PropOp31
 70
     1
102
RTVSPost2010Prop32
280
     0
102
RTVSPost2010PropOp32
 70
     1
102
RTVSPost2010Prop33
280
     0
102
RTVSPost2010PropOp33
 70
     1
102
RTVSPost2010Prop34
280
     0
102
RTVSPost2010PropOp34
 70
     1
102
RTVSPost2010Prop35
280
     0
102
RTVSPost2010PropOp35
 70
     1
102
RTVSPost2010Prop36
280
     0
102
RTVSPost2010PropOp36
 70
     1
102
RTVSPost2010Prop37
 90
       50
102
RTVSPost2010PropOp37
 70
     1
102
RTVSPost2010Prop38
140
0.0
102
RTVSPost2010PropOp38
 70
     1
102
RTVSPost2010Prop39
140
1.0
102
RTVSPost2010PropOp39
 70
     1
102
RTVSPost2010Prop40
 90
        0
102
RTVSPost2010PropOp40
 70
     1
102
RTVSPost2010Prop41ColorIndex
 90
       18
102
RTVSPost2010Prop41ColorRGB
 90
        0
102
RTVSPost2010PropOp41
 70
     1
102
RTVSPost2010Prop42
 90
       50
102
RTVSPost2010PropOp42
 70
     1
102
RTVSPost2010Prop43
 90
        3
102
RTVSPost2010PropOp43
 70
     1
102
RTVSPost2010Prop44ColorIndex
 90
        5
102
RTVSPost2010Prop44ColorRGB
 90
      255
102
RTVSPost2010PropOp44
 70
     1
102
RTVSPost2010Prop45
280
     0
102
RTVSPost2010PropOp45
 70
     1
102
RTVSPost2010Prop46
 90
       50
102
RTVSPost2010PropOp46
 70
     1
102
RTVSPost2010Prop47
 90
       50
102
RTVSPost2010PropOp47
 70
     1
102
RTVSPost2010Prop48
 90
       50
102
RTVSPost2010PropOp48
 70
     1
102
RTVSPost2010Prop49
280
     0
102
RTVSPost2010PropOp49
 70
     1
102
RTVSPost2010Prop50
 90
       50
102
RTVSPost2010PropOp50
 70
     1
102
RTVSPost2010Prop51ColorIndex
 90
      256
102
RTVSPost2010Prop51ColorRGB
 90
-16777216
102
RTVSPost2010PropOp51
 70
     0
102
RTVSPost2010Prop52
140
1.0
102
RTVSPost2010PropOp52
 70
     0
102
RTVSPost2010Prop53
 90
        2
102
RTVSPost2010PropOp53
 70
     1
102
RTVSPost2010Prop54
  1
strokes_ogs.tif
102
RTVSPost2010PropOp54
 70
     1
102
RTVSPost2010Prop55
280
     0
102
RTVSPost2010PropOp55
 70
     1
102
RTVSPost2010Prop56
140
1.0
102
RTVSPost2010PropOp56
 70
     1
102
RTVSPost2010Prop57
140
1.0
102
RTVSPost2010PropOp57
 70
     1
  0
XRECORD
  5
606
102
{ACAD_REACTORS
330
605
102
}
330
605
100
AcDbXrecord
280
     1
102
RTVSPropertyOp0
 70
     1
102
RTVSPropertyOp1
 70
     1
102
RTVSPropertyOp2
 70
     1
102
RTVSPropertyOp3
 70
     1
102
RTVSPropertyOp4
 70
     1
102
RTVSPropertyOp5
 70
     1
102
RTVSPropertyOp6
 70
     1
102
RTVSPropertyOp7
 70
     1
102
RTVSPropertyOp8
 70
     1
102
RTVSPropertyOp9
 70
     1
102
RTVSPropertyOp10
 70
     1
102
RTVSPropertyOp11
 70
     1
102
RTVSPropertyOp12
 70
     1
102
RTVSPropertyOp13
 70
     1
102
RTVSPropertyOp14
 70
     1
102
RTVSPropertyOp15
 70
     1
102
RTVSPropertyOp16
 70
     1
102
RTVSPropertyOp17
 70
     1
102
RTVSPropertyOp18
 70
     1
102
RTVSPropertyOp19
 70
     1
102
RTVSPropertyOp20
 70
     1
102
RTVSPropertyOp21
 70
     1
102
RTVSPropertyOp22
 70
     1
102
RTVSPropertyOp23
 70
     1
102
RTVSPropertyOp24
 70
     1
102
RTVSPropertyOp25
 70
     1
102
RTVSPropertyOp26
 70
     1
102
RTVSPropertyOp27
 70
     1
102
RTVSPropertyOp28
 70
     1
102
RTVSPropertyOp29
 70
     1
102
RTVSPropertyOp30
 70
     1
102
RTVSPropertyOp31
 70
     1
102
RTVSPropertyOp32
 70
     1
102
RTVSPropertyOp33
 70
     1
102
RTVSPropertyOp34
 70
     1
102
RTVSPropertyOp35
 70
     1
102
RTVSPropertyOp36
 70
     1
102
RTVSPropertyOp37
 70
     1
102
RTVSPropertyOp38
 70
     1
102
RTVSPropertyOp39
 70
     1
102
RTVSPropertyOp40
 70
     1
102
RTVSPropertyOp41
 70
     1
102
RTVSPropertyOp42
 70
     1
102
RTVSPropertyOp43
 70
     1
102
RTVSPropertyOp44
 70
     1
102
RTVSPropertyOp45
 70
     1
102
RTVSPropertyOp46
 70
     1
102
RTVSPropertyOp47
 70
     1
102
RTVSPropertyOp48
 70
     1
102
RTVSPropertyOp49
 70
     1
102
RTVSPropertyOp50
 70
     1
102
RTVSPropertyOp51
 70
     0
102
RTVSPropertyOp52
 70
     0
102
RTVSPropertyOp53
 70
     1
102
RTVSPropertyOp54
 70
     1
102
RTVSPropertyOp55
 70
     1
102
RTVSPropertyOp56
 70
     1
102
RTVSPropertyOp57
 70
     1
102
RTVSPost2010Prop28
280
     0
102
RTVSPost2010PropOp28
 70
     1
102
RTVSPost2010Prop29
280
     1
102
RTVSPost2010PropOp29
 70
     1
102
RTVSPost2010Prop30
280
     1
102
RTVSPost2010PropOp30
 70
     1
102
RTVSPost2010Prop31
280
     0
102
RTVSPost2010PropOp31
 70
     1
102
RTVSPost2010Prop32
280
     0
102
RTVSPost2010PropOp32
 70
     1
102
RTVSPost2010Prop33
280
     0
102
RTVSPost2010PropOp33
 70
     1
102
RTVSPost2010Prop34
280
     0
102
RTVSPost2010PropOp34
 70
     1
102
RTVSPost2010Prop35
280
     0
102
RTVSPost2010PropOp35
 70
     1
102
RTVSPost2010Prop36
280
     0
102
RTVSPost2010PropOp36
 70
     1
102
RTVSPost2010Prop37
 90
       50
102
RTVSPost2010PropOp37
 70
     1
102
RTVSPost2010Prop38
140
0.0
102
RTVSPost2010PropOp38
 70
     1
102
RTVSPost2010Prop39
140
1.0
102
RTVSPost2010PropOp39
 70
     1
102
RTVSPost2010Prop40
 90
        0
102
RTVSPost2010PropOp40
 70
     1
102
RTVSPost2010Prop41ColorIndex
 90
       18
102
RTVSPost2010Prop41ColorRGB
 90
        0
102
RTVSPost2010PropOp41
 70
     1
102
RTVSPost2010Prop42
 90
       50
102
RTVSPost2010PropOp42
 70
     1
102
RTVSPost2010Prop43
 90
        3
102
RTVSPost2010PropOp43
 70
     1
102
RTVSPost2010Prop44ColorIndex
 90
        5
102
RTVSPost2010Prop44ColorRGB
 90
      255
102
RTVSPost2010PropOp44
 70
     1
102
RTVSPost2010Prop45
280
     0
102
RTVSPost2010PropOp45
 70
     1
102
RTVSPost2010Prop46
 90
       50
102
RTVSPost2010PropOp46
 70
     1
102
RTVSPost2010Prop47
 90
       50
102
RTVSPost2010PropOp47
 70
     1
102
RTVSPost2010Prop48
 90
       50
102
RTVSPost2010PropOp48
 70
     1
102
RTVSPost2010Prop49
280
     0
102
RTVSPost2010PropOp49
 70
     1
102
RTVSPost2010Prop50
 90
       50
102
RTVSPost2010PropOp50
 70
     1
102
RTVSPost2010Prop51ColorIndex
 90
      256
102
RTVSPost2010Prop51ColorRGB
 90
-16777216
102
RTVSPost2010PropOp51
 70
     0
102
RTVSPost2010Prop52
140
1.0
102
RTVSPost2010PropOp52
 70
     0
102
RTVSPost2010Prop53
 90
        2
102
RTVSPost2010PropOp53
 70
     1
102
RTVSPost2010Prop54
  1
strokes_ogs.tif
102
RTVSPost2010PropOp54
 70
     1
102
RTVSPost2010Prop55
280
     0
102
RTVSPost2010PropOp55
 70
     1
102
RTVSPost2010Prop56
140
1.0
102
RTVSPost2010PropOp56
 70
     1
102
RTVSPost2010Prop57
140
1.0
102
RTVSPost2010PropOp57
 70
     1
  0
ENDSEC
  0
EOF
