  0
SECTION
  2
HEADER
  9
$ACADVER
  1
AC1015
  9
$ACADMAINTVER
 70
     6
  9
$DWGCODEPAGE
  3
ANSI_932
  9
$INSBASE
 10
2274.966880932569
 20
1806.134570618371
 30
0.0
  9
$EXTMIN
 10
398.9279425318878
 20
108.1649635792578
 30
0.0
  9
$EXTMAX
 10
1770.854125341111
 20
1396.602002151945
 30
0.0
  9
$LIMMIN
 10
0.0
 20
0.0
  9
$LIMMAX
 10
816.5000000000001
 20
565.0
  9
$ORTHOMODE
 70
     1
  9
$REGENMODE
 70
     1
  9
$FILLMODE
 70
     1
  9
$QTEXTMODE
 70
     0
  9
$MIRRTEXT
 70
     1
  9
$LTSCALE
 40
20.0
  9
$ATTMODE
 70
     1
  9
$TEXTSIZE
 40
15.0
  9
$TRACEWID
 40
0.05
  9
$TEXTSTYLE
  7
KANJI
  9
$CLAYER
  8
2
  9
$CELTYPE
  6
BYLAYER
  9
$CECOLOR
 62
   256
  9
$CELTSCALE
 40
1.0
  9
$DISPSILH
 70
     0
  9
$DIMSCALE
 40
5.0
  9
$DIMASZ
 40
2.0
  9
$DIMEXO
 40
0.5
  9
$DIMDLI
 40
0.0
  9
$DIMRND
 40
0.0
  9
$DIMDLE
 40
0.0
  9
$DIMEXE
 40
1.0
  9
$DIMTP
 40
0.0
  9
$DIMTM
 40
0.0
  9
$DIMTXT
 40
3.0
  9
$DIMCEN
 40
0.09
  9
$DIMTSZ
 40
0.0
  9
$DIMTOL
 70
     0
  9
$DIMLIM
 70
     0
  9
$DIMTIH
 70
     0
  9
$DIMTOH
 70
     0
  9
$DIMSE1
 70
     0
  9
$DIMSE2
 70
     0
  9
$DIMTAD
 70
     0
  9
$DIMZIN
 70
     8
  9
$DIMBLK
  1

  9
$DIMASO
 70
     0
  9
$DIMSHO
 70
     0
  9
$DIMPOST
  1

  9
$DIMAPOST
  1

  9
$DIMALT
 70
     0
  9
$DIMALTD
 70
     2
  9
$DIMALTF
 40
25.4
  9
$DIMLFAC
 40
1.0
  9
$DIMTOFL
 70
     1
  9
$DIMTVP
 40
1.0
  9
$DIMTIX
 70
     1
  9
$DIMSOXD
 70
     1
  9
$DIMSAH
 70
     0
  9
$DIMBLK1
  1

  9
$DIMBLK2
  1

  9
$DIMSTYLE
  2
STANDARD
  9
$DIMCLRD
 70
   256
  9
$DIMCLRE
 70
   256
  9
$DIMCLRT
 70
   256
  9
$DIMTFAC
 40
1.0
  9
$DIMGAP
 40
0.09
  9
$DIMJUST
 70
     0
  9
$DIMSD1
 70
     0
  9
$DIMSD2
 70
     0
  9
$DIMTOLJ
 70
     1
  9
$DIMTZIN
 70
     0
  9
$DIMALTZ
 70
     0
  9
$DIMALTTZ
 70
     0
  9
$DIMUPT
 70
     0
  9
$DIMDEC
 70
     1
  9
$DIMTDEC
 70
     4
  9
$DIMALTU
 70
     2
  9
$DIMALTTD
 70
     2
  9
$DIMTXSTY
  7
STANDARD
  9
$DIMAUNIT
 70
     0
  9
$DIMADEC
 70
     0
  9
$DIMALTRND
 40
0.0
  9
$DIMAZIN
 70
     0
  9
$DIMDSEP
 70
    46
  9
$DIMATFIT
 70
     3
  9
$DIMFRAC
 70
     0
  9
$DIMLDRBLK
  1

  9
$DIMLUNIT
 70
     2
  9
$DIMLWD
 70
    -2
  9
$DIMLWE
 70
    -2
  9
$DIMTMOVE
 70
     0
  9
$LUNITS
 70
     2
  9
$LUPREC
 70
     3
  9
$SKETCHINC
 40
0.1
  9
$FILLETRAD
 40
1.0
  9
$AUNITS
 70
     0
  9
$AUPREC
 70
     3
  9
$MENU
  1
C:\R13\WIN\SUPPORT\ACADFULL
  9
$ELEVATION
 40
0.0
  9
$PELEVATION
 40
0.0
  9
$THICKNESS
 40
0.0
  9
$LIMCHECK
 70
     0
  9
$CHAMFERA
 40
0.0
  9
$CHAMFERB
 40
0.0
  9
$CHAMFERC
 40
0.0
  9
$CHAMFERD
 40
0.0
  9
$SKPOLY
 70
     0
  9
$TDCREATE
 40
2457547.42598537
  9
$TDUCREATE
 40
2457547.05098537
  9
$TDUPDATE
 40
2457863.669613403
  9
$TDUUPDATE
 40
2457863.294613403
  9
$TDINDWG
 40
0.0142030556
  9
$TDUSRTIMER
 40
0.0142021528
  9
$USRTIMER
 70
     1
  9
$ANGBASE
 50
0.0
  9
$ANGDIR
 70
     0
  9
$PDMODE
 70
     0
  9
$PDSIZE
 40
0.0
  9
$PLINEWID
 40
0.0
  9
$SPLFRAME
 70
     0
  9
$SPLINETYPE
 70
     6
  9
$SPLINESEGS
 70
     8
  9
$HANDSEED
  5
5A4
  9
$SURFTAB1
 70
     6
  9
$SURFTAB2
 70
     6
  9
$SURFTYPE
 70
     6
  9
$SURFU
 70
     6
  9
$SURFV
 70
     6
  9
$UCSBASE
  2

  9
$UCSNAME
  2

  9
$UCSORG
 10
0.0
 20
0.0
 30
0.0
  9
$UCSXDIR
 10
1.0
 20
0.0
 30
0.0
  9
$UCSYDIR
 10
0.0
 20
1.0
 30
0.0
  9
$UCSORTHOREF
  2

  9
$UCSORTHOVIEW
 70
     0
  9
$UCSORGTOP
 10
0.0
 20
0.0
 30
0.0
  9
$UCSORGBOTTOM
 10
0.0
 20
0.0
 30
0.0
  9
$UCSORGLEFT
 10
0.0
 20
0.0
 30
0.0
  9
$UCSORGRIGHT
 10
0.0
 20
0.0
 30
0.0
  9
$UCSORGFRONT
 10
0.0
 20
0.0
 30
0.0
  9
$UCSORGBACK
 10
0.0
 20
0.0
 30
0.0
  9
$PUCSBASE
  2

  9
$PUCSNAME
  2

  9
$PUCSORG
 10
0.0
 20
0.0
 30
0.0
  9
$PUCSXDIR
 10
1.0
 20
0.0
 30
0.0
  9
$PUCSYDIR
 10
0.0
 20
1.0
 30
0.0
  9
$PUCSORTHOREF
  2

  9
$PUCSORTHOVIEW
 70
     0
  9
$PUCSORGTOP
 10
0.0
 20
0.0
 30
0.0
  9
$PUCSORGBOTTOM
 10
0.0
 20
0.0
 30
0.0
  9
$PUCSORGLEFT
 10
0.0
 20
0.0
 30
0.0
  9
$PUCSORGRIGHT
 10
0.0
 20
0.0
 30
0.0
  9
$PUCSORGFRONT
 10
0.0
 20
0.0
 30
0.0
  9
$PUCSORGBACK
 10
0.0
 20
0.0
 30
0.0
  9
$USERI1
 70
     0
  9
$USERI2
 70
     0
  9
$USERI3
 70
     0
  9
$USERI4
 70
     0
  9
$USERI5
 70
     0
  9
$USERR1
 40
0.0
  9
$USERR2
 40
0.0
  9
$USERR3
 40
0.0
  9
$USERR4
 40
2448925.372986111
  9
$USERR5
 40
0.04166667
  9
$WORLDVIEW
 70
     1
  9
$SHADEDGE
 70
     3
  9
$SHADEDIF
 70
    70
  9
$TILEMODE
 70
     1
  9
$MAXACTVP
 70
    16
  9
$PINSBASE
 10
0.0
 20
0.0
 30
0.0
  9
$PLIMCHECK
 70
     0
  9
$PEXTMIN
 10
1000000000000000E+20
 20
1000000000000000E+20
 30
1000000000000000E+20
  9
$PEXTMAX
 10
-1000000000000000E+20
 20
-1000000000000000E+20
 30
-1000000000000000E+20
  9
$PLIMMIN
 10
0.0
 20
0.0
  9
$PLIMMAX
 10
12.0
 20
9.0
  9
$UNITMODE
 70
     0
  9
$VISRETAIN
 70
     0
  9
$PLINEGEN
 70
     0
  9
$PSLTSCALE
 70
     0
  9
$TREEDEPTH
 70
  3020
  9
$CMLSTYLE
  2
STANDARD
  9
$CMLJUST
 70
     0
  9
$CMLSCALE
 40
1.0
  9
$PROXYGRAPHICS
 70
     1
  9
$MEASUREMENT
 70
     0
  9
$CELWEIGHT
370
    -1
  9
$ENDCAPS
280
     0
  9
$JOINSTYLE
280
     0
  9
$LWDISPLAY
290
     0
  9
$INSUNITS
 70
     0
  9
$HYPERLINKBASE
  1

  9
$STYLESHEET
  1

  9
$XEDIT
290
     1
  9
$CEPSNTYPE
380
     0
  9
$PSTYLEMODE
290
     1
  9
$FINGERPRINTGUID
  2
{A11DFAB8-678D-4560-A0E8-252BE2809712}
  9
$VERSIONGUID
  2
{AD34A781-3D5E-4C48-A334-8EEB1AC4B030}
  9
$EXTNAMES
290
     1
  9
$PSVPSCALE
 40
0.0
  9
$OLESTARTUP
290
     0
  0
ENDSEC
  0
SECTION
  2
CLASSES
  0
CLASS
  1
ACDBDICTIONARYWDFLT
  2
AcDbDictionaryWithDefault
  3
ObjectDBX Classes
 90
        0
280
     0
281
     0
  0
CLASS
  1
MATERIAL
  2
AcDbMaterial
  3
ObjectDBX Classes
 90
     1153
280
     0
281
     0
  0
CLASS
  1
SORTENTSTABLE
  2
AcDbSortentsTable
  3
ObjectDBX Classes
 90
        0
280
     0
281
     0
  0
CLASS
  1
SCALE
  2
AcDbScale
  3
ObjectDBX Classes
 90
     1153
280
     0
281
     0
  0
CLASS
  1
DICTIONARYVAR
  2
AcDbDictionaryVar
  3
ObjectDBX Classes
 90
        0
280
     0
281
     0
  0
CLASS
  1
VISUALSTYLE
  2
AcDbVisualStyle
  3
ObjectDBX Classes
 90
     4095
280
     0
281
     0
  0
CLASS
  1
MLEADERSTYLE
  2
AcDbMLeaderStyle
  3
ACDB_MLEADERSTYLE_CLASS
 90
     4095
280
     0
281
     0
  0
CLASS
  1
ACDBPLACEHOLDER
  2
AcDbPlaceHolder
  3
ObjectDBX Classes
 90
        0
280
     0
281
     0
  0
CLASS
  1
LAYOUT
  2
AcDbLayout
  3
ObjectDBX Classes
 90
        0
280
     0
281
     0
  0
ENDSEC
  0
SECTION
  2
TABLES
  0
TABLE
  2
VPORT
  5
2B
102
{ACAD_XDICTIONARY
360
569
102
}
330
0
100
AcDbSymbolTable
 70
     1
  0
VPORT
  5
30
330
2B
100
AcDbSymbolTableRecord
100
AcDbViewportTableRecord
  2
*ACTIVE
 70
     0
 10
0.0
 20
0.0
 11
1.0
 21
1.0
 12
1514.841431916672
 22
752.6070239877265
 13
0.0
 23
0.0
 14
1.0
 24
1.0
 15
50.0
 25
50.0
 16
0.0
 26
0.0
 36
1.0
 17
0.0
 27
0.0
 37
0.0
 40
1363.830973646095
 41
2.174107142857143
 42
50.0
 43
0.0
 44
0.0
 50
0.0
 51
0.0
 71
     0
 72
  5000
 73
     1
 74
     0
 75
     0
 76
     0
 77
     0
 78
     0
281
     0
 65
     1
110
0.0
120
0.0
130
0.0
111
1.0
121
0.0
131
0.0
112
0.0
122
1.0
132
0.0
 79
     0
146
0.0
1001
ACAD_NAV_VCDISPLAY
1070
     3
  0
ENDTAB
  0
TABLE
  2
LTYPE
  5
F
330
0
100
AcDbSymbolTable
 70
     2
  0
LTYPE
  5
10
330
F
100
AcDbSymbolTableRecord
100
AcDbLinetypeTableRecord
  2
BYBLOCK
 70
     0
  3

 72
    65
 73
     0
 40
0.0
  0
LTYPE
  5
11
330
F
100
AcDbSymbolTableRecord
100
AcDbLinetypeTableRecord
  2
BYLAYER
 70
     0
  3

 72
    65
 73
     0
 40
0.0
  0
LTYPE
  5
E
330
F
100
AcDbSymbolTableRecord
100
AcDbLinetypeTableRecord
  2
CONTINUOUS
 70
     0
  3
Solid line
 72
    65
 73
     0
 40
0.0
  0
LTYPE
  5
69
330
F
100
AcDbSymbolTableRecord
100
AcDbLinetypeTableRecord
  2
CENTER
 70
     0
  3
Center ____ _ ____ _ ____ _ ____ _ ____ _ ____
 72
    65
 73
     4
 40
2.0
 49
1.25
 74
     0
 49
-0.25
 74
     0
 49
0.25
 74
     0
 49
-0.25
 74
     0
  0
ENDTAB
  0
TABLE
  2
LAYER
  5
2
102
{ACAD_XDICTIONARY
360
3
102
}
330
0
100
AcDbSymbolTable
 70
     8
  0
LAYER
  5
1F
102
{ACAD_XDICTIONARY
360
20
102
}
330
2
100
AcDbSymbolTableRecord
100
AcDbLayerTableRecord
  2
0
 70
     0
 62
     7
  6
CONTINUOUS
370
    -3
390
7
  0
LAYER
  5
D1
102
{ACAD_XDICTIONARY
360
D2
102
}
330
2
100
AcDbSymbolTableRecord
100
AcDbLayerTableRecord
  2
1
 70
     0
 62
     9
  6
CONTINUOUS
370
    -3
390
7
  0
LAYER
  5
1
102
{ACAD_XDICTIONARY
360
5
102
}
330
2
100
AcDbSymbolTableRecord
100
AcDbLayerTableRecord
  2
2
 70
     0
 62
     4
  6
CONTINUOUS
370
    -3
390
7
  0
LAYER
  5
61
102
{ACAD_XDICTIONARY
360
62
102
}
330
2
100
AcDbSymbolTableRecord
100
AcDbLayerTableRecord
  2
4
 70
     0
 62
     3
  6
CONTINUOUS
370
    -3
390
7
  0
LAYER
  5
66
102
{ACAD_XDICTIONARY
360
67
102
}
330
2
100
AcDbSymbolTableRecord
100
AcDbLayerTableRecord
  2
L-CENTER
 70
     0
 62
     1
  6
CENTER
370
    -3
390
7
  0
LAYER
  5
58
102
{ACAD_XDICTIONARY
360
59
102
}
330
2
100
AcDbSymbolTableRecord
100
AcDbLayerTableRecord
  2
3
 70
     0
 62
     2
  6
CONTINUOUS
370
    -3
390
7
  0
LAYER
  5
C9
330
2
100
AcDbSymbolTableRecord
100
AcDbLayerTableRecord
  2
5
 70
     0
 62
     6
  6
CONTINUOUS
370
    -3
390
7
  0
LAYER
  5
541
330
2
100
AcDbSymbolTableRecord
100
AcDbLayerTableRecord
  2
Defpoints
 70
     0
 62
     7
  6
CONTINUOUS
290
     0
370
    -3
390
7
  0
ENDTAB
  0
TABLE
  2
STYLE
  5
13
330
0
100
AcDbSymbolTable
 70
     2
  0
STYLE
  5
17
330
13
100
AcDbSymbolTableRecord
100
AcDbTextStyleTableRecord
  2
STANDARD
 70
     0
 40
0.0
 41
1.0
 50
0.0
 71
     0
 42
9.0
  3
TXT
  4

  0
STYLE
  5
12
330
13
100
AcDbSymbolTableRecord
100
AcDbTextStyleTableRecord
  2
KANJI
 70
     0
 40
0.0
 41
1.0
 50
0.0
 71
     0
 42
15.0
  3
TXT
  4
BIGFONT
  0
ENDTAB
  0
TABLE
  2
VIEW
  5
29
330
0
100
AcDbSymbolTable
 70
     0
  0
ENDTAB
  0
TABLE
  2
UCS
  5
2A
330
0
100
AcDbSymbolTable
 70
     0
  0
ENDTAB
  0
TABLE
  2
APPID
  5
D
330
0
100
AcDbSymbolTable
 70
     4
  0
APPID
  5
C
330
D
100
AcDbSymbolTableRecord
100
AcDbRegAppTableRecord
  2
ACAD
 70
     0
  0
APPID
  5
31
330
D
100
AcDbSymbolTableRecord
100
AcDbRegAppTableRecord
  2
ACAD_NAV_VCDISPLAY
 70
     0
  0
APPID
  5
534
330
D
100
AcDbSymbolTableRecord
100
AcDbRegAppTableRecord
  2
ACAD_PSEXT
 70
     0
  0
APPID
  5
53A
330
D
100
AcDbSymbolTableRecord
100
AcDbRegAppTableRecord
  2
ACAD_MLEADERVER
 70
     0
  0
ENDTAB
  0
TABLE
  2
DIMSTYLE
  5
16
330
0
100
AcDbSymbolTable
 70
     1
100
AcDbDimStyleTable
  0
DIMSTYLE
105
15
330
16
100
AcDbSymbolTableRecord
100
AcDbDimStyleTableRecord
  2
STANDARD
 70
     0
178
     0
340
17
  0
ENDTAB
  0
TABLE
  2
BLOCK_RECORD
  5
1A
330
0
100
AcDbSymbolTable
 70
     0
  0
BLOCK_RECORD
  5
1B
102
{ACAD_XDICTIONARY
360
1C
102
}
330
1A
100
AcDbSymbolTableRecord
100
AcDbBlockTableRecord
  2
*MODEL_SPACE
340
23
  0
BLOCK_RECORD
  5
25
330
1A
100
AcDbSymbolTableRecord
100
AcDbBlockTableRecord
  2
*PAPER_SPACE
340
28
  0
ENDTAB
  0
ENDSEC
  0
SECTION
  2
BLOCKS
  0
BLOCK
  5
1E
330
1B
100
AcDbEntity
  8
0
100
AcDbBlockBegin
  2
*MODEL_SPACE
 70
     0
 10
0.0
 20
0.0
 30
0.0
  3
*MODEL_SPACE
  1

  0
ENDBLK
  5
22
330
1B
100
AcDbEntity
  8
0
100
AcDbBlockEnd
  0
BLOCK
  5
26
330
25
100
AcDbEntity
 67
     1
  8
0
100
AcDbBlockBegin
  2
*PAPER_SPACE
 70
     0
 10
0.0
 20
0.0
 30
0.0
  3
*PAPER_SPACE
  1

  0
ENDBLK
  5
27
330
25
100
AcDbEntity
 67
     1
  8
0
100
AcDbBlockEnd
  0
ENDSEC
  0
SECTION
  2
ENTITIES
  0
ARC
  5
60
330
1B
100
AcDbEntity
  8
4
100
AcDbCircle
 10
427.7127363997629
 20
1029.483712164933
 30
0.0
 40
1.0
100
AcDbArc
 50
180.0
 51
270.0
  0
ARC
  5
64
330
1B
100
AcDbEntity
  8
4
100
AcDbCircle
 10
813.7127363997629
 20
1029.483712164934
 30
0.0
 40
1.0
100
AcDbArc
 50
270.0
 51
0.0
  0
LINE
  5
65
330
1B
100
AcDbEntity
  8
L-CENTER
100
AcDbLine
 10
842.5030835197854
 20
316.3488862006374
 30
0.0
 11
797.9874587027175
 21
316.3529218736628
 31
0.0
  0
LINE
  5
6A
330
1B
100
AcDbEntity
  8
L-CENTER
100
AcDbLine
 10
842.4937883421353
 20
213.8181216219758
 30
0.0
 11
797.978163525067
 21
213.8221572950013
 31
0.0
  0
ARC
  5
1A6
330
1B
100
AcDbEntity
  8
4
100
AcDbCircle
 10
1341.180872754329
 20
719.8536078961504
 30
0.0
 40
6.25
100
AcDbArc
 50
0.0
 51
180.0
  0
LINE
  5
1A8
330
1B
100
AcDbEntity
  8
4
100
AcDbLine
 10
1443.077250808476
 20
634.2671974723746
 30
0.0
 11
1434.480777754329
 21
634.2671974723746
 31
0.0
  0
LINE
  5
1A9
330
1B
100
AcDbEntity
  8
4
100
AcDbLine
 10
1443.077250808476
 20
629.3597201842629
 30
0.0
 11
1436.980777754329
 21
629.3597201842629
 31
0.0
  0
ARC
  5
1AA
330
1B
100
AcDbEntity
  8
4
100
AcDbCircle
 10
1440.19716382527
 20
631.8134588283185
 30
0.0
 40
3.783613929059507
100
AcDbArc
 50
319.5701031551686
 51
40.42989684482882
  0
LINE
  5
1AB
330
1B
100
AcDbEntity
  8
4
100
AcDbLine
 10
1418.180872754329
 20
659.1036078961504
 30
0.0
 11
1431.48077775433
 21
659.1036078961504
 31
0.0
  0
ARC
  5
1AC
330
1B
100
AcDbEntity
  8
4
100
AcDbCircle
 10
1431.48077775433
 20
656.1036078961504
 30
0.0
 40
3.0
100
AcDbArc
 50
0.0
 51
90.0
  0
LINE
  5
1AD
330
1B
100
AcDbEntity
  8
L-CENTER
100
AcDbLine
 10
1404.573253084478
 20
624.4522428961507
 30
0.0
 11
1447.452498084478
 21
624.4522428961507
 31
0.0
  0
LINE
  5
1AE
330
1B
100
AcDbEntity
  8
4
100
AcDbLine
 10
1443.413472754329
 20
615.1036078961504
 30
0.0
 11
1451.080627754329
 21
615.1036078961504
 31
0.0
  0
ARC
  5
1AF
330
1B
100
AcDbEntity
  8
4
100
AcDbCircle
 10
1440.19716382527
 20
617.0910269639833
 30
0.0
 40
3.783613929059507
100
AcDbArc
 50
319.5701031551686
 51
40.42989684482882
  0
LINE
  5
1B0
330
1B
100
AcDbEntity
  8
4
100
AcDbLine
 10
1434.480777754329
 20
614.6372883199272
 30
0.0
 11
1443.077250808476
 21
614.6372883199272
 31
0.0
  0
LINE
  5
1B1
330
1B
100
AcDbEntity
  8
4
100
AcDbLine
 10
1443.077250808476
 20
619.5447656080389
 30
0.0
 11
1436.980777754329
 21
619.5447656080389
 31
0.0
  0
LINE
  5
1B2
330
1B
100
AcDbEntity
  8
4
100
AcDbLine
 10
1449.718867754329
 20
575.1036078961506
 30
0.0
 11
1451.080627754329
 21
575.1036078961506
 31
0.0
  0
LINE
  5
1B3
330
1B
100
AcDbEntity
  8
4
100
AcDbLine
 10
1451.080627754329
 20
615.1036078961504
 30
0.0
 11
1451.080627754329
 21
575.1036078961506
 31
0.0
  0
LINE
  5
1B4
330
1B
100
AcDbEntity
  8
4
100
AcDbLine
 10
1443.980777754329
 20
617.0910269639833
 30
0.0
 11
1443.980777754329
 21
631.8134588283185
 31
0.0
  0
LINE
  5
1B5
330
1B
100
AcDbEntity
  8
4
100
AcDbLine
 10
1434.480777754329
 20
634.2671974723746
 30
0.0
 11
1434.480777754329
 21
614.6372883199272
 31
0.0
  0
LINE
  5
1B6
330
1B
100
AcDbEntity
  8
4
100
AcDbLine
 10
1436.980777754329
 20
634.2671974723746
 30
0.0
 11
1436.980777754329
 21
614.6372883199272
 31
0.0
  0
ARC
  5
1B7
330
1B
100
AcDbEntity
  8
4
100
AcDbCircle
 10
1430.20161245687
 20
624.4522428961507
 30
0.0
 40
13.77916529745958
100
AcDbArc
 50
339.1359356360795
 51
20.86406436391924
  0
LINE
  5
1B8
330
1B
100
AcDbEntity
  8
4
100
AcDbLine
 10
1347.430872754329
 20
677.8018528961504
 30
0.0
 11
1352.942592754329
 21
677.0945778961504
 31
0.0
  0
LINE
  5
1B9
330
1B
100
AcDbEntity
  8
4
100
AcDbLine
 10
1347.430872754329
 20
677.1036078961502
 30
0.0
 11
1352.802697754329
 21
677.1036078961502
 31
0.0
  0
ARC
  5
1BA
330
1B
100
AcDbEntity
  8
4
100
AcDbCircle
 10
1352.802697754329
 20
676.0035128961504
 30
0.0
 40
1.100115
100
AcDbArc
 50
12.80876099999445
 51
90.0
  0
LINE
  5
1BB
330
1B
100
AcDbEntity
  8
4
100
AcDbLine
 10
1364.180872754329
 20
661.1036078961504
 30
0.0
 11
1364.180872754329
 21
666.1036078961504
 31
0.0
  0
LINE
  5
1BC
330
1B
100
AcDbEntity
  8
4
100
AcDbLine
 10
1361.099327754329
 20
666.1036078961504
 30
0.0
 11
1361.099327754329
 21
671.1036078961504
 31
0.0
  0
LINE
  5
1BD
330
1B
100
AcDbEntity
  8
4
100
AcDbLine
 10
1355.04439775433
 20
671.1036078961504
 30
0.0
 11
1361.099327754329
 21
671.1036078961504
 31
0.0
  0
LINE
  5
1BE
330
1B
100
AcDbEntity
  8
4
100
AcDbLine
 10
1353.875452754329
 20
676.2474078961504
 30
0.0
 11
1356.180872754329
 21
666.1036078961504
 31
0.0
  0
LINE
  5
1BF
330
1B
100
AcDbEntity
  8
4
100
AcDbLine
 10
1334.930872754329
 20
677.8018528961504
 30
0.0
 11
1329.419152754329
 21
677.0945778961504
 31
0.0
  0
LINE
  5
1C0
330
1B
100
AcDbEntity
  8
4
100
AcDbLine
 10
1334.930872754329
 20
677.1036078961502
 30
0.0
 11
1329.559047754329
 21
677.1036078961502
 31
0.0
  0
ARC
  5
1C1
330
1B
100
AcDbEntity
  8
4
100
AcDbCircle
 10
1329.559047754329
 20
676.0035128961504
 30
0.0
 40
1.100115
100
AcDbArc
 50
90.0
 51
167.1912510000001
  0
LINE
  5
1C2
330
1B
100
AcDbEntity
  8
4
100
AcDbLine
 10
1328.486292754329
 20
676.2474078961504
 30
0.0
 11
1326.180872754329
 21
666.1036078961504
 31
0.0
  0
LINE
  5
1C3
330
1B
100
AcDbEntity
  8
L-CENTER
100
AcDbLine
 10
1353.680872754329
 20
696.1036078961504
 30
0.0
 11
1328.680872754329
 21
696.1036078961504
 31
0.0
  0
LINE
  5
1C4
330
1B
100
AcDbEntity
  8
4
100
AcDbLine
 10
1318.180872754329
 20
661.1036078961504
 30
0.0
 11
1318.180872754329
 21
666.1036078961504
 31
0.0
  0
LINE
  5
1C5
330
1B
100
AcDbEntity
  8
4
100
AcDbLine
 10
1321.262172754329
 20
666.1036078961504
 30
0.0
 11
1321.262172754329
 21
671.1036078961504
 31
0.0
  0
LINE
  5
1C6
330
1B
100
AcDbEntity
  8
4
100
AcDbLine
 10
1327.317347754329
 20
671.1036078961504
 30
0.0
 11
1321.262172754329
 21
671.1036078961504
 31
0.0
  0
LINE
  5
1C7
330
1B
100
AcDbEntity
  8
4
100
AcDbLine
 10
1318.180872754329
 20
666.1036078961504
 30
0.0
 11
1364.180872754329
 21
666.1036078961504
 31
0.0
  0
LINE
  5
1C8
330
1B
100
AcDbEntity
  8
4
100
AcDbLine
 10
1347.430872754329
 20
671.1036078961504
 30
0.0
 11
1347.430872754329
 21
719.8536078961504
 31
0.0
  0
LINE
  5
1C9
330
1B
100
AcDbEntity
  8
4
100
AcDbLine
 10
1334.930872754329
 20
671.1036078961504
 30
0.0
 11
1334.930872754329
 21
719.8536078961504
 31
0.0
  0
LINE
  5
1CE
330
1B
100
AcDbEntity
  8
4
100
AcDbLine
 10
1264.180872754329
 20
659.1036078961504
 30
0.0
 11
1256.392787754329
 21
659.1036078961504
 31
0.0
  0
ARC
  5
1CF
330
1B
100
AcDbEntity
  8
4
100
AcDbCircle
 10
1252.180872754329
 20
657.1036078961502
 30
0.0
 40
2.0
100
AcDbArc
 50
90.0
 51
180.0
  0
LINE
  5
1D0
330
1B
100
AcDbEntity
  8
4
100
AcDbLine
 10
1252.180872754329
 20
659.1036078961504
 30
0.0
 11
1256.392787754329
 21
659.1036078961504
 31
0.0
  0
LINE
  5
1D5
330
1B
100
AcDbEntity
  8
4
100
AcDbLine
 10
1264.180872754329
 20
661.1036078961504
 30
0.0
 11
1418.180872754329
 21
661.1036078961504
 31
0.0
  0
LINE
  5
1DD
330
1B
100
AcDbEntity
  8
4
100
AcDbLine
 10
1611.18087275433
 20
498.1036078961505
 30
0.0
 11
1610.180872754329
 21
499.1036078961506
 31
0.0
  0
LINE
  5
1DE
330
1B
100
AcDbEntity
  8
4
100
AcDbLine
 10
1610.180872754329
 20
431.1036078961505
 30
0.0
 11
1611.18087275433
 21
432.1036078961506
 31
0.0
  0
LINE
  5
1DF
330
1B
100
AcDbEntity
  8
4
100
AcDbLine
 10
1611.18087275433
 20
505.1036078961506
 30
0.0
 11
1611.18087275433
 21
432.1036078961506
 31
0.0
  0
LINE
  5
1E0
330
1B
100
AcDbEntity
  8
4
100
AcDbLine
 10
1610.180872754329
 20
499.1036078961506
 30
0.0
 11
1610.180872754329
 21
431.1036078961505
 31
0.0
  0
LINE
  5
1E1
330
1B
100
AcDbEntity
  8
4
100
AcDbLine
 10
1501.180872754329
 20
505.1036078961506
 30
0.0
 11
1501.180872754329
 21
499.1036078961506
 31
0.0
  0
LINE
  5
1E2
330
1B
100
AcDbEntity
  8
4
100
AcDbLine
 10
1491.180872754329
 20
500.1036078961506
 30
0.0
 11
1482.080627754329
 21
500.1036078961506
 31
0.0
  0
LINE
  5
1E3
330
1B
100
AcDbEntity
  8
4
100
AcDbLine
 10
1481.080627754329
 20
511.1036078961505
 30
0.0
 11
1482.080627754329
 21
511.1036078961505
 31
0.0
  0
LINE
  5
1E4
330
1B
100
AcDbEntity
  8
4
100
AcDbLine
 10
1463.080627754329
 20
534.6036078961506
 30
0.0
 11
1481.080627754329
 21
530.1036078961506
 31
0.0
  0
LINE
  5
1E5
330
1B
100
AcDbEntity
  8
4
100
AcDbLine
 10
1481.080627754329
 20
419.1036078961505
 30
0.0
 11
1482.080627754329
 21
419.1036078961505
 31
0.0
  0
LINE
  5
1E6
330
1B
100
AcDbEntity
  8
4
100
AcDbLine
 10
1482.080627754329
 20
430.1036078961506
 30
0.0
 11
1491.180872754329
 21
430.1036078961506
 31
0.0
  0
LINE
  5
1E7
330
1B
100
AcDbEntity
  8
4
100
AcDbLine
 10
1463.080627754329
 20
395.6036078961505
 30
0.0
 11
1481.080627754329
 21
400.1036078961506
 31
0.0
  0
LINE
  5
1E8
330
1B
100
AcDbEntity
  8
4
100
AcDbLine
 10
1491.180872754329
 20
500.1036078961506
 30
0.0
 11
1491.180872754329
 21
430.1036078961506
 31
0.0
  0
LINE
  5
1E9
330
1B
100
AcDbEntity
  8
4
100
AcDbLine
 10
1482.080627754329
 20
511.1036078961505
 30
0.0
 11
1482.080627754329
 21
419.1036078961505
 31
0.0
  0
LINE
  5
1EA
330
1B
100
AcDbEntity
  8
4
100
AcDbLine
 10
1463.080627754329
 20
534.6036078961506
 30
0.0
 11
1463.080627754329
 21
395.6036078961505
 31
0.0
  0
LINE
  5
1EB
330
1B
100
AcDbEntity
  8
4
100
AcDbLine
 10
1481.080627754329
 20
530.1036078961506
 30
0.0
 11
1481.080627754329
 21
400.1036078961506
 31
0.0
  0
LINE
  5
1EC
330
1B
100
AcDbEntity
  8
4
100
AcDbLine
 10
1491.180872754329
 20
431.1036078961505
 30
0.0
 11
1610.180872754329
 21
431.1036078961505
 31
0.0
  0
LINE
  5
1ED
330
1B
100
AcDbEntity
  8
4
100
AcDbLine
 10
1611.18087275433
 20
505.1036078961506
 30
0.0
 11
1501.180872754329
 21
505.1036078961506
 31
0.0
  0
LINE
  5
1EE
330
1B
100
AcDbEntity
  8
4
100
AcDbLine
 10
1491.180872754329
 20
499.1036078961506
 30
0.0
 11
1610.180872754329
 21
499.1036078961506
 31
0.0
  0
LINE
  5
1EF
330
1B
100
AcDbEntity
  8
4
100
AcDbLine
 10
1443.980777754329
 20
457.7423919639832
 30
0.0
 11
1443.980777754329
 21
472.4648238283185
 31
0.0
  0
LINE
  5
1F0
330
1B
100
AcDbEntity
  8
4
100
AcDbLine
 10
1443.077250808476
 20
474.9185624723746
 30
0.0
 11
1434.480777754329
 21
474.9185624723746
 31
0.0
  0
LINE
  5
1F1
330
1B
100
AcDbEntity
  8
4
100
AcDbLine
 10
1443.077250808476
 20
460.1961306080389
 30
0.0
 11
1436.980777754329
 21
460.1961306080389
 31
0.0
  0
LINE
  5
1F2
330
1B
100
AcDbEntity
  8
4
100
AcDbLine
 10
1443.077250808476
 20
470.0110851842628
 30
0.0
 11
1436.980777754329
 21
470.0110851842628
 31
0.0
  0
ARC
  5
1F3
330
1B
100
AcDbEntity
  8
4
100
AcDbCircle
 10
1430.20161245687
 20
465.1036078961506
 30
0.0
 40
13.77916529745958
100
AcDbArc
 50
339.1359356360799
 51
20.86406436392003
  0
ARC
  5
1F4
330
1B
100
AcDbEntity
  8
4
100
AcDbCircle
 10
1440.19716382527
 20
472.4648238283185
 30
0.0
 40
3.783613929059507
100
AcDbArc
 50
319.5701031551699
 51
40.42989684483014
  0
LINE
  5
1F5
330
1B
100
AcDbEntity
  8
4
100
AcDbLine
 10
1434.480777754329
 20
455.2886533199271
 30
0.0
 11
1443.077250808476
 21
455.2886533199271
 31
0.0
  0
ARC
  5
1F6
330
1B
100
AcDbEntity
  8
4
100
AcDbCircle
 10
1440.19716382527
 20
457.7423919639832
 30
0.0
 40
3.783613929059507
100
AcDbArc
 50
319.5701031551699
 51
40.42989684483014
  0
LINE
  5
1F7
330
1B
100
AcDbEntity
  8
4
100
AcDbLine
 10
1434.480777754329
 20
474.9185624723746
 30
0.0
 11
1434.480777754329
 21
455.2886533199271
 31
0.0
  0
LINE
  5
1F8
330
1B
100
AcDbEntity
  8
4
100
AcDbLine
 10
1436.980777754329
 20
474.9185624723746
 30
0.0
 11
1436.980777754329
 21
455.2886533199271
 31
0.0
  0
LINE
  5
1F9
330
1B
100
AcDbEntity
  8
4
100
AcDbLine
 10
1449.718867754329
 20
355.1036078961506
 30
0.0
 11
1451.080627754329
 21
355.1036078961506
 31
0.0
  0
LINE
  5
1FA
330
1B
100
AcDbEntity
  8
4
100
AcDbLine
 10
1443.413472754329
 20
315.1036078961506
 30
0.0
 11
1451.080627754329
 21
315.1036078961506
 31
0.0
  0
ARC
  5
1FB
330
1B
100
AcDbEntity
  8
4
100
AcDbCircle
 10
1440.19716382527
 20
298.3937619639831
 30
0.0
 40
3.783613929059507
100
AcDbArc
 50
319.5701031551699
 51
40.42989684483014
  0
LINE
  5
1FC
330
1B
100
AcDbEntity
  8
4
100
AcDbLine
 10
1443.980777754329
 20
298.3937619639831
 30
0.0
 11
1443.980777754329
 21
313.1161938283184
 31
0.0
  0
LINE
  5
1FD
330
1B
100
AcDbEntity
  8
4
100
AcDbLine
 10
1434.480777754329
 20
315.5699324723745
 30
0.0
 11
1434.480777754329
 21
295.940023319927
 31
0.0
  0
LINE
  5
1FE
330
1B
100
AcDbEntity
  8
4
100
AcDbLine
 10
1436.980777754329
 20
315.5699324723745
 30
0.0
 11
1436.980777754329
 21
295.940023319927
 31
0.0
  0
LINE
  5
1FF
330
1B
100
AcDbEntity
  8
4
100
AcDbLine
 10
1434.480777754329
 20
295.940023319927
 30
0.0
 11
1443.077250808476
 21
295.940023319927
 31
0.0
  0
LINE
  5
200
330
1B
100
AcDbEntity
  8
4
100
AcDbLine
 10
1443.077250808476
 20
315.5699324723745
 30
0.0
 11
1434.480777754329
 21
315.5699324723745
 31
0.0
  0
LINE
  5
201
330
1B
100
AcDbEntity
  8
4
100
AcDbLine
 10
1443.077250808476
 20
300.8475006080388
 30
0.0
 11
1436.980777754329
 21
300.8475006080388
 31
0.0
  0
LINE
  5
202
330
1B
100
AcDbEntity
  8
4
100
AcDbLine
 10
1443.077250808476
 20
310.6624551842627
 30
0.0
 11
1436.980777754329
 21
310.6624551842627
 31
0.0
  0
ARC
  5
203
330
1B
100
AcDbEntity
  8
4
100
AcDbCircle
 10
1430.20161245687
 20
305.7549778961505
 30
0.0
 40
13.77916529745958
100
AcDbArc
 50
339.1359356360799
 51
20.86406436392003
  0
ARC
  5
204
330
1B
100
AcDbEntity
  8
4
100
AcDbCircle
 10
1440.19716382527
 20
313.1161938283184
 30
0.0
 40
3.783613929059507
100
AcDbArc
 50
319.5701031551699
 51
40.42989684483014
  0
LINE
  5
205
330
1B
100
AcDbEntity
  8
4
100
AcDbLine
 10
1451.080627754329
 20
315.1036078961506
 30
0.0
 11
1451.080627754329
 21
355.1036078961506
 31
0.0
  0
LINE
  5
206
330
1B
100
AcDbEntity
  8
4
100
AcDbLine
 10
1394.98628906135
 20
325.8494901410575
 30
0.0
 11
1401.926509999236
 21
318.9092692031718
 31
0.0
  0
LINE
  5
207
330
1B
100
AcDbEntity
  8
4
100
AcDbLine
 10
1399.386212828093
 20
309.4287510941431
 30
0.0
 11
1389.905694719064
 21
306.8884539230003
 31
0.0
  0
LINE
  5
208
330
1B
100
AcDbEntity
  8
4
100
AcDbLine
 10
1401.926509999236
 20
318.9092692031718
 30
0.0
 11
1399.386212828093
 21
309.4287510941431
 31
0.0
  0
LINE
  5
209
330
1B
100
AcDbEntity
  8
4
100
AcDbLine
 10
1382.965473781179
 20
313.8286748608859
 30
0.0
 11
1385.505770952322
 21
323.3091929699149
 31
0.0
  0
LINE
  5
20A
330
1B
100
AcDbEntity
  8
L-CENTER
100
AcDbLine
 10
1406.127371026086
 20
330.0503511679075
 30
0.0
 11
1378.764612754329
 21
302.6875928961506
 31
0.0
  0
LINE
  5
20B
330
1B
100
AcDbEntity
  8
4
100
AcDbLine
 10
1385.505770952322
 20
323.3091929699149
 30
0.0
 11
1394.98628906135
 21
325.8494901410575
 31
0.0
  0
LINE
  5
20C
330
1B
100
AcDbEntity
  8
4
100
AcDbLine
 10
1389.905694719064
 20
306.8884539230003
 30
0.0
 11
1382.965473781179
 21
313.8286748608859
 31
0.0
  0
CIRCLE
  5
20D
330
1B
100
AcDbEntity
  8
4
100
AcDbCircle
 10
1392.445991890208
 20
316.3689720320291
 30
0.0
 40
8.5
  0
LINE
  5
20E
330
1B
100
AcDbEntity
  8
L-CENTER
100
AcDbLine
 10
1448.126083084478
 20
305.7549778961505
 30
0.0
 11
1405.785898084477
 21
305.7549778961505
 31
0.0
  0
LINE
  5
20F
330
1B
100
AcDbEntity
  8
4
100
AcDbLine
 10
1431.48077775433
 20
271.1036078961505
 30
0.0
 11
1425.968957754329
 21
271.1036078961505
 31
0.0
  0
ARC
  5
210
330
1B
100
AcDbEntity
  8
4
100
AcDbCircle
 10
1431.48077775433
 20
274.1036078961505
 30
0.0
 40
3.0
100
AcDbArc
 50
270.0
 51
0.0
  0
LINE
  5
211
330
1B
100
AcDbEntity
  8
4
100
AcDbLine
 10
1399.386460328087
 20
220.7787121981639
 30
0.0
 11
1389.905942219058
 21
223.3190093693065
 31
0.0
  0
LINE
  5
212
330
1B
100
AcDbEntity
  8
4
100
AcDbLine
 10
1389.905942219058
 20
223.3190093693065
 30
0.0
 11
1382.965721281173
 21
216.3787884314208
 31
0.0
  0
CIRCLE
  5
213
330
1B
100
AcDbEntity
  8
4
100
AcDbCircle
 10
1289.915753618451
 20
316.3689720320291
 30
0.0
 40
8.5
  0
LINE
  5
214
330
1B
100
AcDbEntity
  8
4
100
AcDbLine
 10
1280.435235509422
 20
318.9092692031718
 30
0.0
 11
1282.975532680565
 21
309.4287510941431
 31
0.0
  0
LINE
  5
215
330
1B
100
AcDbEntity
  8
4
100
AcDbLine
 10
1299.396271727479
 20
313.8286748608859
 30
0.0
 11
1296.855974556337
 21
323.3091929699149
 31
0.0
  0
LINE
  5
216
330
1B
100
AcDbEntity
  8
4
100
AcDbLine
 10
1292.456050789594
 20
306.8884539230003
 30
0.0
 11
1299.396271727479
 21
313.8286748608859
 31
0.0
  0
LINE
  5
217
330
1B
100
AcDbEntity
  8
4
100
AcDbLine
 10
1282.975532680565
 20
309.4287510941431
 30
0.0
 11
1292.456050789594
 21
306.8884539230003
 31
0.0
  0
LINE
  5
218
330
1B
100
AcDbEntity
  8
4
100
AcDbLine
 10
1296.855974556337
 20
323.3091929699149
 30
0.0
 11
1287.375456447308
 21
325.8494901410575
 31
0.0
  0
LINE
  5
219
330
1B
100
AcDbEntity
  8
4
100
AcDbLine
 10
1287.375456447308
 20
325.8494901410575
 30
0.0
 11
1280.435235509422
 21
318.9092692031718
 31
0.0
  0
LINE
  5
21A
330
1B
100
AcDbEntity
  8
4
100
AcDbLine
 10
1347.180872754329
 20
283.6036078961505
 30
0.0
 11
1347.180872754329
 21
291.6036078961505
 31
0.0
  0
LINE
  5
21B
330
1B
100
AcDbEntity
  8
4
100
AcDbLine
 10
1335.180872754329
 20
283.6036078961505
 30
0.0
 11
1335.180872754329
 21
291.6036078961505
 31
0.0
  0
LINE
  5
21C
330
1B
100
AcDbEntity
  8
4
100
AcDbLine
 10
1347.180872754329
 20
291.6036078961505
 30
0.0
 11
1335.180872754329
 21
291.6036078961505
 31
0.0
  0
LINE
  5
21D
330
1B
100
AcDbEntity
  8
4
100
AcDbLine
 10
1335.180872754329
 20
283.6036078961505
 30
0.0
 11
1347.180872754329
 21
283.6036078961505
 31
0.0
  0
LINE
  5
21E
330
1B
100
AcDbEntity
  8
4
100
AcDbLine
 10
1292.4558032896
 20
223.3190093693065
 30
0.0
 11
1299.396024227486
 21
216.3787884314208
 31
0.0
  0
LINE
  5
21F
330
1B
100
AcDbEntity
  8
4
100
AcDbLine
 10
1282.975285180571
 20
220.7787121981639
 30
0.0
 11
1292.4558032896
 21
223.3190093693065
 31
0.0
  0
ARC
  5
220
330
1B
100
AcDbEntity
  8
4
100
AcDbCircle
 10
1341.180872754329
 20
265.1036078961506
 30
0.0
 40
23.00001
100
AcDbArc
 50
105.1216579999996
 51
74.8783419999992
  0
CIRCLE
  5
221
330
1B
100
AcDbEntity
  8
4
100
AcDbCircle
 10
1341.180872754329
 20
265.1036078961506
 30
0.0
 40
36.0
  0
LINE
  5
222
330
1B
100
AcDbEntity
  8
4
100
AcDbLine
 10
1436.512957588833
 20
315.5699324723744
 30
0.0
 11
1463.080627754329
 21
395.1036078961506
 31
0.0
  0
LINE
  5
223
330
1B
100
AcDbEntity
  8
4
100
AcDbLine
 10
1463.080627754329
 20
401.8758278961506
 30
0.0
 11
1434.480777754329
 21
315.8169878961505
 31
0.0
  0
LINE
  5
224
330
1B
100
AcDbEntity
  8
4
100
AcDbLine
 10
1463.080627754329
 20
414.2765378961506
 30
0.0
 11
1434.480777754329
 21
426.1036078961505
 31
0.0
  0
LINE
  5
225
330
1B
100
AcDbEntity
  8
4
100
AcDbLine
 10
1463.080627754329
 20
515.9306828961505
 30
0.0
 11
1434.480777754329
 21
504.1036078961506
 31
0.0
  0
ARC
  5
226
330
1B
100
AcDbEntity
  8
4
100
AcDbCircle
 10
1468.180872754329
 20
174.1036078961505
 30
0.0
 40
3.0
100
AcDbArc
 50
0.0
 51
90.0
  0
LINE
  5
227
330
1B
100
AcDbEntity
  8
4
100
AcDbLine
 10
1471.180872754329
 20
135.1036078961505
 30
0.0
 11
1471.180872754329
 21
174.1036078961505
 31
0.0
  0
ARC
  5
22A
330
1B
100
AcDbEntity
  8
4
100
AcDbCircle
 10
1432.180872754329
 20
192.1036078961505
 30
0.0
 40
15.0
100
AcDbArc
 50
180.0
 51
270.0009360000004
  0
LINE
  5
22B
330
1B
100
AcDbEntity
  8
4
100
AcDbLine
 10
1394.986536561344
 20
204.3579731512493
 30
0.0
 11
1401.92675749923
 21
211.298194089135
 31
0.0
  0
LINE
  5
22C
330
1B
100
AcDbEntity
  8
4
100
AcDbLine
 10
1385.506018452316
 20
206.8982703223921
 30
0.0
 11
1394.986536561344
 21
204.3579731512493
 31
0.0
  0
LINE
  5
22D
330
1B
100
AcDbEntity
  8
L-CENTER
100
AcDbLine
 10
1441.180872754329
 20
195.1036078961505
 30
0.0
 11
1441.180872754329
 21
117.1036078961505
 31
0.0
  0
LINE
  5
22E
330
1B
100
AcDbEntity
  8
4
100
AcDbLine
 10
1296.855727056343
 20
206.8982703223921
 30
0.0
 11
1287.375208947314
 21
204.3579731512493
 31
0.0
  0
LINE
  5
22F
330
1B
100
AcDbEntity
  8
4
100
AcDbLine
 10
1287.375208947314
 20
204.3579731512493
 30
0.0
 11
1280.434988009428
 21
211.298194089135
 31
0.0
  0
LINE
  5
234
330
1B
100
AcDbEntity
  8
4
100
AcDbLine
 10
1451.180872754329
 20
177.1036078961505
 30
0.0
 11
1426.180872754329
 21
265.1036078961506
 31
0.0
  0
LINE
  5
235
330
1B
100
AcDbEntity
  8
L-CENTER
100
AcDbLine
 10
1406.12761852608
 20
200.1571121243998
 30
0.0
 11
1378.764860254323
 21
227.5198703961565
 31
0.0
  0
LINE
  5
236
330
1B
100
AcDbEntity
  8
4
100
AcDbLine
 10
1417.180872754329
 20
227.0379378961505
 30
0.0
 11
1417.180872754329
 21
192.1036078961505
 31
0.0
  0
CIRCLE
  5
237
330
1B
100
AcDbEntity
  8
4
100
AcDbCircle
 10
1392.446239390201
 20
213.8384912602781
 30
0.0
 40
8.5
  0
LINE
  5
238
330
1B
100
AcDbEntity
  8
4
100
AcDbLine
 10
1382.965721281173
 20
216.3787884314208
 30
0.0
 11
1385.506018452316
 21
206.8982703223921
 31
0.0
  0
LINE
  5
239
330
1B
100
AcDbEntity
  8
4
100
AcDbLine
 10
1401.92675749923
 20
211.298194089135
 30
0.0
 11
1399.386460328087
 21
220.7787121981639
 31
0.0
  0
LINE
  5
23A
330
1B
100
AcDbEntity
  8
4
100
AcDbLine
 10
1280.434988009428
 20
211.298194089135
 30
0.0
 11
1282.975285180571
 21
220.7787121981639
 31
0.0
  0
LINE
  5
23B
330
1B
100
AcDbEntity
  8
4
100
AcDbLine
 10
1299.396024227486
 20
216.3787884314208
 30
0.0
 11
1296.855727056343
 21
206.8982703223921
 31
0.0
  0
CIRCLE
  5
23C
330
1B
100
AcDbEntity
  8
4
100
AcDbCircle
 10
1289.915506118457
 20
213.8384912602781
 30
0.0
 40
8.5
  0
LINE
  5
23D
330
1B
100
AcDbEntity
  8
4
100
AcDbLine
 10
1201.180872754329
 20
530.1036078961506
 30
0.0
 11
1221.370539202988
 21
535.7118485763338
 31
0.0
  0
LINE
  5
23E
330
1B
100
AcDbEntity
  8
4
100
AcDbLine
 10
1221.180872754329
 20
515.1036078961506
 30
0.0
 11
1250.180872754329
 21
504.1036078961506
 31
0.0
  0
LINE
  5
23F
330
1B
100
AcDbEntity
  8
4
100
AcDbLine
 10
1201.180872754329
 20
400.1036078961506
 30
0.0
 11
1221.370539202988
 21
394.4953672159673
 31
0.0
  0
LINE
  5
240
330
1B
100
AcDbEntity
  8
4
100
AcDbLine
 10
1221.180872754329
 20
415.1036078961506
 30
0.0
 11
1250.180872754329
 21
426.1036078961505
 31
0.0
  0
LINE
  5
241
330
1B
100
AcDbEntity
  8
4
100
AcDbLine
 10
1221.180872754329
 20
535.1036078961506
 30
0.0
 11
1221.180872754329
 21
395.1036078961506
 31
0.0
  0
LINE
  5
242
330
1B
100
AcDbEntity
  8
4
100
AcDbLine
 10
1201.180872754329
 20
530.1036078961506
 30
0.0
 11
1201.180872754329
 21
400.1036078961506
 31
0.0
  0
ARC
  5
243
330
1B
100
AcDbEntity
  8
4
100
AcDbCircle
 10
1252.180872754329
 20
273.1036078961505
 30
0.0
 40
2.0
100
AcDbArc
 50
180.0
 51
270.0
  0
LINE
  5
244
330
1B
100
AcDbEntity
  8
4
100
AcDbLine
 10
1252.180872754329
 20
271.1036078961505
 30
0.0
 11
1256.392787754329
 21
271.1036078961505
 31
0.0
  0
LINE
  5
246
330
1B
100
AcDbEntity
  8
4
100
AcDbLine
 10
1250.180872754329
 20
302.1036078961505
 30
0.0
 11
1221.180872754329
 21
395.1036078961506
 31
0.0
  0
LINE
  5
247
330
1B
100
AcDbEntity
  8
4
100
AcDbLine
 10
1250.180872754329
 20
308.4270978961505
 30
0.0
 11
1221.180872754329
 21
401.4270978961505
 31
0.0
  0
ARC
  5
255
330
1B
100
AcDbEntity
  8
4
100
AcDbCircle
 10
1250.180872754329
 20
192.1036078961505
 30
0.0
 40
15.0
100
AcDbArc
 50
270.0009360000004
 51
0.0
  0
ARC
  5
256
330
1B
100
AcDbEntity
  8
4
100
AcDbCircle
 10
1214.180872754329
 20
174.1036078961505
 30
0.0
 40
3.0
100
AcDbArc
 50
90.0
 51
180.0
  0
LINE
  5
257
330
1B
100
AcDbEntity
  8
4
100
AcDbLine
 10
1211.180872754329
 20
135.1036078961505
 30
0.0
 11
1211.180872754329
 21
174.1036078961505
 31
0.0
  0
LINE
  5
258
330
1B
100
AcDbEntity
  8
L-CENTER
100
AcDbLine
 10
1241.180872754329
 20
195.1036078961505
 30
0.0
 11
1241.180872754329
 21
117.1036078961505
 31
0.0
  0
LINE
  5
265
330
1B
100
AcDbEntity
  8
4
100
AcDbLine
 10
1231.180872754329
 20
177.1036078961505
 30
0.0
 11
1256.180872754329
 21
265.1036078961506
 31
0.0
  0
LINE
  5
267
330
1B
100
AcDbEntity
  8
4
100
AcDbLine
 10
1265.180872754329
 20
227.0379378961505
 30
0.0
 11
1265.180872754329
 21
192.1036078961505
 31
0.0
  0
CIRCLE
  5
268
330
1B
100
AcDbEntity
  8
L-CENTER
100
AcDbCircle
 10
1341.180872754329
 20
265.1036078961506
 30
0.0
 40
72.5
  0
CIRCLE
  5
269
330
1B
100
AcDbEntity
  8
4
100
AcDbCircle
 10
1341.180872754329
 20
265.1036078961506
 30
0.0
 40
85.0
  0
LINE
  5
26B
330
1B
100
AcDbEntity
  8
4
100
AcDbLine
 10
1468.180872754329
 20
177.1036078961505
 30
0.0
 11
1214.180872754329
 21
177.1036078961505
 31
0.0
  0
LINE
  5
26C
330
1B
100
AcDbEntity
  8
4
100
AcDbLine
 10
1471.180872754329
 20
135.1036078961505
 30
0.0
 11
1211.180872754329
 21
135.1036078961505
 31
0.0
  0
LINE
  5
26E
330
1B
100
AcDbEntity
  8
L-CENTER
100
AcDbLine
 10
1622.559418139187
 20
465.1036078961506
 30
0.0
 11
1192.337155610745
 21
465.1036078961506
 31
0.0
  0
LINE
  5
26F
330
1B
100
AcDbEntity
  8
L-CENTER
100
AcDbLine
 10
1276.234374482573
 20
330.0503511679075
 30
0.0
 11
1303.597132754329
 21
302.6875928961506
 31
0.0
  0
LINE
  5
270
330
1B
100
AcDbEntity
  8
L-CENTER
100
AcDbLine
 10
1242.848195217322
 20
265.1036078961506
 30
0.0
 11
1439.513550291337
 21
265.1036078961506
 31
0.0
  0
LINE
  5
271
330
1B
100
AcDbEntity
  8
L-CENTER
100
AcDbLine
 10
1276.234126982578
 20
200.1571121243998
 30
0.0
 11
1303.596885254335
 21
227.5198703961566
 31
0.0
  0
LINE
  5
273
330
1B
100
AcDbEntity
  8
L-CENTER
100
AcDbLine
 10
1341.180872754329
 20
123.3724078961505
 30
0.0
 11
1341.180872754329
 21
734.1971178961503
 31
0.0
  0
LINE
  5
276
330
1B
100
AcDbEntity
  8
4
100
AcDbLine
 10
1264.180872754329
 20
661.1036078961504
 30
0.0
 11
1264.180872754329
 21
301.1036078961505
 31
0.0
  0
LINE
  5
277
330
1B
100
AcDbEntity
  8
4
100
AcDbLine
 10
1265.180872754329
 20
661.1036078961504
 30
0.0
 11
1265.180872754329
 21
303.1692828961505
 31
0.0
  0
LINE
  5
278
330
1B
100
AcDbEntity
  8
4
100
AcDbLine
 10
1250.180872754329
 20
657.1036078961502
 30
0.0
 11
1250.180872754329
 21
273.1036078961505
 31
0.0
  0
LINE
  5
279
330
1B
100
AcDbEntity
  8
4
100
AcDbLine
 10
1250.180872754329
 20
621.7801228961505
 30
0.0
 11
1221.180872754329
 21
528.7801228961505
 31
0.0
  0
LINE
  5
27A
330
1B
100
AcDbEntity
  8
4
100
AcDbLine
 10
1250.180872754329
 20
628.1036078961504
 30
0.0
 11
1221.180872754329
 21
535.1036078961506
 31
0.0
  0
LINE
  5
27B
330
1B
100
AcDbEntity
  8
4
100
AcDbLine
 10
1418.180872754329
 20
661.1036078961504
 30
0.0
 11
1418.180872754329
 21
301.1036078961505
 31
0.0
  0
LINE
  5
27C
330
1B
100
AcDbEntity
  8
4
100
AcDbLine
 10
1420.480872754329
 20
659.1036078961504
 30
0.0
 11
1420.480872754329
 21
296.4722628961506
 31
0.0
  0
LINE
  5
27D
330
1B
100
AcDbEntity
  8
4
100
AcDbLine
 10
1420.180872754329
 20
659.1036078961504
 30
0.0
 11
1420.180872754329
 21
296.4722628961506
 31
0.0
  0
LINE
  5
27E
330
1B
100
AcDbEntity
  8
4
100
AcDbLine
 10
1434.480777754329
 20
656.1036078961504
 30
0.0
 11
1434.480777754329
 21
274.1036078961505
 31
0.0
  0
LINE
  5
27F
330
1B
100
AcDbEntity
  8
4
100
AcDbLine
 10
1436.51287636346
 20
614.6372883199269
 30
0.0
 11
1463.080627754329
 21
535.1036078961506
 31
0.0
  0
LINE
  5
280
330
1B
100
AcDbEntity
  8
4
100
AcDbLine
 10
1463.080627754329
 20
528.3313928961504
 30
0.0
 11
1434.480777754329
 21
614.3902328961506
 31
0.0
  0
LINE
  5
283
330
1B
100
AcDbEntity
  8
4
100
AcDbLine
 10
814.7127363997629
 20
1196.483712164934
 30
0.0
 11
814.7127363997629
 21
1198.483712164933
 31
0.0
  0
ARC
  5
284
330
1B
100
AcDbEntity
  8
4
100
AcDbCircle
 10
826.5127363997631
 20
1203.483712164934
 30
0.0
 40
1.0
100
AcDbArc
 50
0.0
 51
90.0
  0
LINE
  5
285
330
1B
100
AcDbEntity
  8
4
100
AcDbLine
 10
826.5127363997631
 20
1204.483712164934
 30
0.0
 11
814.7127363997629
 21
1204.483712164934
 31
0.0
  0
ARC
  5
286
330
1B
100
AcDbEntity
  8
4
100
AcDbCircle
 10
813.7127363997629
 20
1211.783712164934
 30
0.0
 40
1.0
100
AcDbArc
 50
0.0
 51
90.0
  0
LINE
  5
287
330
1B
100
AcDbEntity
  8
4
100
AcDbLine
 10
814.7127363997629
 20
1211.783712164934
 30
0.0
 11
814.7127363997629
 21
1198.783712164934
 31
0.0
  0
LINE
  5
288
330
1B
100
AcDbEntity
  8
4
100
AcDbLine
 10
814.7127363997629
 20
1211.783712164934
 30
0.0
 11
814.7127363997629
 21
1198.783712164934
 31
0.0
  0
LINE
  5
289
330
1B
100
AcDbEntity
  8
4
100
AcDbLine
 10
809.6202136878746
 20
1221.380185219081
 30
0.0
 11
809.6202136878746
 21
1215.283712164934
 31
0.0
  0
ARC
  5
28A
330
1B
100
AcDbEntity
  8
4
100
AcDbCircle
 10
812.0739523319303
 20
1218.500098235875
 30
0.0
 40
3.783613929059507
100
AcDbArc
 50
49.57010315516856
 51
130.429896844823
  0
LINE
  5
28B
330
1B
100
AcDbEntity
  8
4
100
AcDbLine
 10
814.5276909759864
 20
1212.783712164934
 30
0.0
 11
814.5276909759864
 21
1221.380185219081
 31
0.0
  0
LINE
  5
28C
330
1B
100
AcDbEntity
  8
4
100
AcDbLine
 10
939.7127363997633
 20
1142.483712164934
 30
0.0
 11
939.7127363997633
 21
1125.483712164934
 31
0.0
  0
LINE
  5
28D
330
1B
100
AcDbEntity
  8
4
100
AcDbLine
 10
939.7127363997633
 20
1142.483712164934
 30
0.0
 11
940.7127363997633
 21
1141.483712164934
 31
0.0
  0
LINE
  5
28E
330
1B
100
AcDbEntity
  8
4
100
AcDbLine
 10
940.7127363997633
 20
1097.483712164934
 30
0.0
 11
939.7127363997633
 21
1096.483712164934
 31
0.0
  0
LINE
  5
28F
330
1B
100
AcDbEntity
  8
4
100
AcDbLine
 10
939.7127363997633
 20
1113.483712164934
 30
0.0
 11
939.7127363997633
 21
1096.483712164934
 31
0.0
  0
LINE
  5
290
330
1B
100
AcDbEntity
  8
4
100
AcDbLine
 10
940.7127363997633
 20
1141.483712164934
 30
0.0
 11
940.7127363997633
 21
1097.483712164934
 31
0.0
  0
LINE
  5
291
330
1B
100
AcDbEntity
  8
4
100
AcDbLine
 10
836.1091094539102
 20
1165.841619876821
 30
0.0
 11
830.0126363997629
 21
1165.841619876821
 31
0.0
  0
LINE
  5
292
330
1B
100
AcDbEntity
  8
4
100
AcDbLine
 10
836.1091094539102
 20
1175.656574453045
 30
0.0
 11
830.0126363997629
 21
1175.656574453045
 31
0.0
  0
LINE
  5
293
330
1B
100
AcDbEntity
  8
4
100
AcDbLine
 10
837.0126363997629
 20
1178.110313097101
 30
0.0
 11
837.0126363997629
 21
1163.387881232766
 31
0.0
  0
ARC
  5
294
330
1B
100
AcDbEntity
  8
4
100
AcDbCircle
 10
823.2334711023036
 20
1170.749097164934
 30
0.0
 40
13.77916529745958
100
AcDbArc
 50
339.1359356360805
 51
20.86406436391942
  0
ARC
  5
295
330
1B
100
AcDbEntity
  8
4
100
AcDbCircle
 10
833.2290224707035
 20
1163.387881232766
 30
0.0
 40
3.783613929059507
100
AcDbArc
 50
319.5701031551697
 51
40.42989684482509
  0
ARC
  5
296
330
1B
100
AcDbEntity
  8
4
100
AcDbCircle
 10
833.2290224707035
 20
1178.110313097101
 30
0.0
 40
3.783613929059507
100
AcDbArc
 50
319.5701031551697
 51
40.42989684482509
  0
LINE
  5
297
330
1B
100
AcDbEntity
  8
4
100
AcDbLine
 10
830.0126363997629
 20
1160.93414258871
 30
0.0
 11
830.0126363997629
 21
1180.564051741157
 31
0.0
  0
LINE
  5
298
330
1B
100
AcDbEntity
  8
4
100
AcDbLine
 10
827.5126363997629
 20
1160.93414258871
 30
0.0
 11
827.5126363997629
 21
1180.564051741157
 31
0.0
  0
LINE
  5
299
330
1B
100
AcDbEntity
  8
4
100
AcDbLine
 10
827.5127363997626
 20
1155.483712164934
 30
0.0
 11
828.5127363997626
 21
1155.483712164934
 31
0.0
  0
LINE
  5
29A
330
1B
100
AcDbEntity
  8
4
100
AcDbLine
 10
827.5126363997629
 20
1180.564051741157
 30
0.0
 11
836.1091094539102
 21
1180.564051741157
 31
0.0
  0
LINE
  5
29B
330
1B
100
AcDbEntity
  8
4
100
AcDbLine
 10
836.1091094539102
 20
1160.93414258871
 30
0.0
 11
827.5126363997629
 21
1160.93414258871
 31
0.0
  0
LINE
  5
29C
330
1B
100
AcDbEntity
  8
4
100
AcDbLine
 10
840.7127363997633
 20
1144.483712164934
 30
0.0
 11
828.5127363997631
 21
1144.483712164934
 31
0.0
  0
ARC
  5
29D
330
1B
100
AcDbEntity
  8
4
100
AcDbCircle
 10
842.7127363997633
 20
1144.483712164934
 30
0.0
 40
2.0
100
AcDbArc
 50
180.0
 51
270.0
  0
ARC
  5
29E
330
1B
100
AcDbEntity
  8
4
100
AcDbCircle
 10
856.7127363997633
 20
1119.483712164934
 30
0.0
 40
6.0
100
AcDbArc
 50
90.0
 51
270.0
  0
ARC
  5
29F
330
1B
100
AcDbEntity
  8
4
100
AcDbCircle
 10
823.2334711023036
 20
1068.218332164934
 30
0.0
 40
13.77916529745958
100
AcDbArc
 50
339.1359356360805
 51
20.86406436391942
  0
LINE
  5
2A0
330
1B
100
AcDbEntity
  8
4
100
AcDbLine
 10
836.1091094539102
 20
1063.310854876821
 30
0.0
 11
830.0126363997629
 21
1063.310854876821
 31
0.0
  0
LINE
  5
2A1
330
1B
100
AcDbEntity
  8
4
100
AcDbLine
 10
836.1091094539102
 20
1073.125809453045
 30
0.0
 11
830.0126363997629
 21
1073.125809453045
 31
0.0
  0
ARC
  5
2A2
330
1B
100
AcDbEntity
  8
4
100
AcDbCircle
 10
833.2290224707035
 20
1075.579548097101
 30
0.0
 40
3.783613929059507
100
AcDbArc
 50
319.5701031551697
 51
40.42989684482509
  0
ARC
  5
2A3
330
1B
100
AcDbEntity
  8
4
100
AcDbCircle
 10
842.7127363997633
 20
1094.483712164934
 30
0.0
 40
2.0
100
AcDbArc
 50
90.0
 51
180.0
  0
LINE
  5
2A4
330
1B
100
AcDbEntity
  8
4
100
AcDbLine
 10
827.5127363997626
 20
1083.483712164934
 30
0.0
 11
828.5127363997626
 21
1083.483712164934
 31
0.0
  0
LINE
  5
2A5
330
1B
100
AcDbEntity
  8
4
100
AcDbLine
 10
827.5126363997629
 20
1078.033286741157
 30
0.0
 11
836.1091094539102
 21
1078.033286741157
 31
0.0
  0
LINE
  5
2A6
330
1B
100
AcDbEntity
  8
4
100
AcDbLine
 10
840.7127363997633
 20
1094.483712164934
 30
0.0
 11
828.5127363997631
 21
1094.483712164934
 31
0.0
  0
LINE
  5
2A7
330
1B
100
AcDbEntity
  8
4
100
AcDbLine
 10
814.7127363997629
 20
1029.483712164934
 30
0.0
 11
814.7127363997629
 21
1042.483712164934
 31
0.0
  0
ARC
  5
2A8
330
1B
100
AcDbEntity
  8
4
100
AcDbCircle
 10
826.5127363997631
 20
1035.483712164934
 30
0.0
 40
1.0
100
AcDbArc
 50
270.0
 51
0.0
  0
LINE
  5
2A9
330
1B
100
AcDbEntity
  8
4
100
AcDbLine
 10
826.5127363997631
 20
1034.483712164934
 30
0.0
 11
814.7127363997629
 21
1034.483712164934
 31
0.0
  0
LINE
  5
2AA
330
1B
100
AcDbEntity
  8
4
100
AcDbLine
 10
836.1091094539102
 20
1058.40337758871
 30
0.0
 11
827.5126363997629
 21
1058.40337758871
 31
0.0
  0
LINE
  5
2AB
330
1B
100
AcDbEntity
  8
4
100
AcDbLine
 10
827.5126363997629
 20
1058.40337758871
 30
0.0
 11
827.5126363997629
 21
1078.033286741157
 31
0.0
  0
LINE
  5
2AC
330
1B
100
AcDbEntity
  8
4
100
AcDbLine
 10
830.0126363997629
 20
1058.40337758871
 30
0.0
 11
830.0126363997629
 21
1078.033286741157
 31
0.0
  0
LINE
  5
2AD
330
1B
100
AcDbEntity
  8
4
100
AcDbLine
 10
837.0126363997629
 20
1075.579548097101
 30
0.0
 11
837.0126363997629
 21
1060.857116232766
 31
0.0
  0
ARC
  5
2AE
330
1B
100
AcDbEntity
  8
4
100
AcDbCircle
 10
833.2290224707035
 20
1060.857116232766
 30
0.0
 40
3.783613929059507
100
AcDbArc
 50
319.5701031551697
 51
40.42989684482509
  0
LINE
  5
2AF
330
1B
100
AcDbEntity
  8
4
100
AcDbLine
 10
840.7127363997633
 20
1094.483712164934
 30
0.0
 11
840.7127363997633
 21
1144.483712164934
 31
0.0
  0
LINE
  5
2B0
330
1B
100
AcDbEntity
  8
4
100
AcDbLine
 10
828.5127363997631
 20
1083.483712164934
 30
0.0
 11
828.5127363997631
 21
1155.483712164934
 31
0.0
  0
LINE
  5
2B1
330
1B
100
AcDbEntity
  8
4
100
AcDbLine
 10
842.7127363997633
 20
1142.483712164934
 30
0.0
 11
939.7127363997633
 21
1142.483712164934
 31
0.0
  0
LINE
  5
2B2
330
1B
100
AcDbEntity
  8
4
100
AcDbLine
 10
940.7127363997633
 20
1113.483712164934
 30
0.0
 11
856.7127363997633
 21
1113.483712164934
 31
0.0
  0
LINE
  5
2B3
330
1B
100
AcDbEntity
  8
4
100
AcDbLine
 10
940.7127363997633
 20
1125.483712164934
 30
0.0
 11
856.7127363997633
 21
1125.483712164934
 31
0.0
  0
LINE
  5
2B4
330
1B
100
AcDbEntity
  8
4
100
AcDbLine
 10
842.7127363997633
 20
1096.483712164934
 30
0.0
 11
939.7127363997633
 21
1096.483712164934
 31
0.0
  0
LINE
  5
2B5
330
1B
100
AcDbEntity
  8
4
100
AcDbLine
 10
815.7127363997629
 20
1042.483712164934
 30
0.0
 11
815.7127363997629
 21
1196.483712164934
 31
0.0
  0
LINE
  5
2B6
330
1B
100
AcDbEntity
  8
4
100
AcDbLine
 10
827.5127363997631
 20
1035.483712164934
 30
0.0
 11
827.5127363997631
 21
1203.483712164934
 31
0.0
  0
LINE
  5
2B7
330
1B
100
AcDbEntity
  8
4
100
AcDbLine
 10
654.7127363997629
 20
1388.483712164934
 30
0.0
 11
653.7127363997629
 21
1389.483712164934
 31
0.0
  0
LINE
  5
2B8
330
1B
100
AcDbEntity
  8
4
100
AcDbLine
 10
586.7127363997629
 20
1388.483712164934
 30
0.0
 11
587.7127363997629
 21
1389.483712164934
 31
0.0
  0
LINE
  5
2B9
330
1B
100
AcDbEntity
  8
4
100
AcDbLine
 10
586.7127363997629
 20
1388.483712164934
 30
0.0
 11
611.7127363997629
 21
1388.483712164934
 31
0.0
  0
LINE
  5
2BA
330
1B
100
AcDbEntity
  8
4
100
AcDbLine
 10
653.7127363997629
 20
1389.483712164934
 30
0.0
 11
587.7127363997629
 21
1389.483712164934
 31
0.0
  0
LINE
  5
2BB
330
1B
100
AcDbEntity
  8
4
100
AcDbLine
 10
629.7127363997629
 20
1388.483712164934
 30
0.0
 11
654.7127363997629
 21
1388.483712164934
 31
0.0
  0
ARC
  5
2BC
330
1B
100
AcDbEntity
  8
4
100
AcDbCircle
 10
795.7127363997629
 20
1244.483712164934
 30
0.0
 40
5.0
100
AcDbArc
 50
0.0
 51
90.0
  0
ARC
  5
2BD
330
1B
100
AcDbEntity
  8
4
100
AcDbCircle
 10
797.351520467595
 20
1218.500098235875
 30
0.0
 40
3.783613929059507
100
AcDbArc
 50
49.57010315516856
 51
130.429896844823
  0
LINE
  5
2BE
330
1B
100
AcDbEntity
  8
4
100
AcDbLine
 10
799.8052591116507
 20
1221.380185219081
 30
0.0
 11
799.8052591116507
 21
1215.283712164934
 31
0.0
  0
LINE
  5
2BF
330
1B
100
AcDbEntity
  8
4
100
AcDbLine
 10
794.8977818235389
 20
1221.380185219081
 30
0.0
 11
794.8977818235389
 21
1212.783712164934
 31
0.0
  0
LINE
  5
2C0
330
1B
100
AcDbEntity
  8
4
100
AcDbLine
 10
800.7127363997629
 20
1222.283712164934
 30
0.0
 11
800.7127363997629
 21
1244.483712164934
 31
0.0
  0
LINE
  5
2C1
330
1B
100
AcDbEntity
  8
L-CENTER
100
AcDbLine
 10
804.7127363997629
 20
1184.047106598871
 30
0.0
 11
804.7127363997629
 21
1226.926351598872
 31
0.0
  0
ARC
  5
2C2
330
1B
100
AcDbEntity
  8
4
100
AcDbCircle
 10
728.7432280822427
 20
1229.73161586888
 30
0.0
 40
2.0
100
AcDbArc
 50
342.5661388826788
 51
349.9823318517376
  0
LINE
  5
2C3
330
1B
100
AcDbEntity
  8
4
100
AcDbLine
 10
722.5276909759864
 20
1212.783712164934
 30
0.0
 11
722.5276909759864
 21
1221.380185219081
 31
0.0
  0
LINE
  5
2C4
330
1B
100
AcDbEntity
  8
L-CENTER
100
AcDbLine
 10
740.7127363997629
 20
1193.899190225322
 30
0.0
 11
740.7127363997629
 21
1245.068234104545
 31
0.0
  0
ARC
  5
2C5
330
1B
100
AcDbEntity
  8
4
100
AcDbCircle
 10
740.7127363997629
 20
1219.483712164934
 30
0.0
 40
11.0
100
AcDbArc
 50
17.42990442537399
 51
128.2182883431323
  0
ARC
  5
2C6
330
1B
100
AcDbEntity
  8
4
100
AcDbCircle
 10
655.7127363997629
 20
1270.483712164934
 30
0.0
 40
1.0
100
AcDbArc
 50
180.0
 51
270.0
  0
LINE
  5
2C7
330
1B
100
AcDbEntity
  8
4
100
AcDbLine
 10
690.1455703716006
 20
1241.652376277584
 30
0.0
 11
685.9021024935037
 21
1258.62624778997
 31
0.0
  0
LINE
  5
2C8
330
1B
100
AcDbEntity
  8
4
100
AcDbLine
 10
690.7127363997629
 20
1239.383712164934
 30
0.0
 11
690.1455703716006
 21
1241.652376277584
 31
0.0
  0
ARC
  5
2C9
330
1B
100
AcDbEntity
  8
4
100
AcDbCircle
 10
684.9319599933588
 20
1258.383712164934
 30
0.0
 40
1.0
100
AcDbArc
 50
14.0362434679075
 51
90.0
  0
ARC
  5
2CA
330
1B
100
AcDbEntity
  8
4
100
AcDbCircle
 10
712.7127363997629
 20
1208.504546867475
 30
0.0
 40
13.77916529745958
100
AcDbArc
 50
69.13593563608075
 51
110.8640643639193
  0
ARC
  5
2CB
330
1B
100
AcDbEntity
  8
4
100
AcDbCircle
 10
705.351520467595
 20
1218.500098235875
 30
0.0
 40
3.783613929059507
100
AcDbArc
 50
49.57010315517695
 51
130.429896844823
  0
LINE
  5
2CC
330
1B
100
AcDbEntity
  8
4
100
AcDbLine
 10
707.8052591116507
 20
1221.380185219081
 30
0.0
 11
707.8052591116507
 21
1215.283712164934
 31
0.0
  0
LINE
  5
2CD
330
1B
100
AcDbEntity
  8
4
100
AcDbLine
 10
702.8977818235389
 20
1221.380185219081
 30
0.0
 11
702.8977818235389
 21
1212.783712164934
 31
0.0
  0
LINE
  5
2CE
330
1B
100
AcDbEntity
  8
4
100
AcDbLine
 10
717.6202136878746
 20
1221.380185219081
 30
0.0
 11
717.6202136878746
 21
1215.283712164934
 31
0.0
  0
LINE
  5
2CF
330
1B
100
AcDbEntity
  8
L-CENTER
100
AcDbLine
 10
712.7127363997629
 20
1184.047106598871
 30
0.0
 11
712.7127363997629
 21
1226.926351598872
 31
0.0
  0
LINE
  5
2D0
330
1B
100
AcDbEntity
  8
4
100
AcDbLine
 10
670.7127363997629
 20
1260.383712164934
 30
0.0
 11
670.7127363997629
 21
1259.383712164934
 31
0.0
  0
LINE
  5
2D1
330
1B
100
AcDbEntity
  8
4
100
AcDbLine
 10
640.7127363997629
 20
1229.383712164934
 30
0.0
 11
640.7127363997629
 21
1216.74979768706
 31
0.0
  0
LINE
  5
2D2
330
1B
100
AcDbEntity
  8
4
100
AcDbLine
 10
671.5398063997632
 20
1241.383562164934
 30
0.0
 11
659.7127363997629
 21
1212.783712164934
 31
0.0
  0
LINE
  5
2D3
330
1B
100
AcDbEntity
  8
4
100
AcDbLine
 10
655.7127363997629
 20
1260.383712164934
 30
0.0
 11
655.7127363997629
 21
1269.483712164933
 31
0.0
  0
LINE
  5
2D4
330
1B
100
AcDbEntity
  8
L-CENTER
100
AcDbLine
 10
715.1282144601514
 20
1219.483712164934
 30
0.0
 11
766.2972583393744
 21
1219.483712164934
 31
0.0
  0
LINE
  5
2D5
330
1B
100
AcDbEntity
  8
4
100
AcDbLine
 10
795.7127363997629
 20
1249.483712164934
 30
0.0
 11
688.1877363997628
 21
1249.483712164934
 31
0.0
  0
LINE
  5
2D6
330
1B
100
AcDbEntity
  8
4
100
AcDbLine
 10
776.7715599291737
 20
1212.783712164934
 30
0.0
 11
690.7127363997629
 21
1239.383712164934
 31
0.0
  0
LINE
  5
2D7
330
1B
100
AcDbEntity
  8
4
100
AcDbLine
 10
690.1455703716006
 20
1241.652376277584
 30
0.0
 11
783.5441895595809
 21
1212.783712164934
 31
0.0
  0
LINE
  5
2D8
330
1B
100
AcDbEntity
  8
4
100
AcDbLine
 10
702.8977818235389
 20
1215.283712164934
 30
0.0
 11
722.5276909759864
 21
1215.283712164934
 31
0.0
  0
LINE
  5
2D9
330
1B
100
AcDbEntity
  8
4
100
AcDbLine
 10
720.0739523319303
 20
1222.283712164934
 30
0.0
 11
705.351520467595
 21
1222.283712164934
 31
0.0
  0
LINE
  5
2DA
330
1B
100
AcDbEntity
  8
4
100
AcDbLine
 10
702.8977818235389
 20
1212.783712164934
 30
0.0
 11
722.5276909759864
 21
1212.783712164934
 31
0.0
  0
ARC
  5
2DB
330
1B
100
AcDbEntity
  8
4
100
AcDbCircle
 10
720.0739523319303
 20
1218.500098235875
 30
0.0
 40
3.783613929059507
100
AcDbArc
 50
49.57010315516856
 51
130.4298968448315
  0
ARC
  5
2DC
330
1B
100
AcDbEntity
  8
4
100
AcDbCircle
 10
644.4627363997633
 20
1119.483712164934
 30
0.0
 40
6.25
100
AcDbArc
 50
270.0
 51
90.0
  0
LINE
  5
2DD
330
1B
100
AcDbEntity
  8
4
100
AcDbLine
 10
662.2514605376941
 20
1021.790712164934
 30
0.0
 11
659.7127363997629
 21
1028.483712164933
 31
0.0
  0
LINE
  5
2DE
330
1B
100
AcDbEntity
  8
4
100
AcDbLine
 10
662.2514605376941
 20
1021.790712164934
 30
0.0
 11
685.7127363997624
 21
1021.790712164934
 31
0.0
  0
ARC
  5
2DF
330
1B
100
AcDbEntity
  8
4
100
AcDbCircle
 10
620.7127363997629
 20
1288.483712164934
 30
0.0
 40
9.0
100
AcDbArc
 50
180.0
 51
0.0
  0
ARC
  5
2E0
330
1B
100
AcDbEntity
  8
4
100
AcDbCircle
 10
585.7127363997629
 20
1270.483712164934
 30
0.0
 40
1.0
100
AcDbArc
 50
270.0
 51
0.0
  0
LINE
  5
2E1
330
1B
100
AcDbEntity
  8
4
100
AcDbLine
 10
600.7127363997629
 20
1229.383712164934
 30
0.0
 11
600.7127363997629
 21
1216.74979768706
 31
0.0
  0
LINE
  5
2E2
330
1B
100
AcDbEntity
  8
4
100
AcDbLine
 10
570.7127363997629
 20
1260.383712164934
 30
0.0
 11
570.7127363997629
 21
1259.383712164934
 31
0.0
  0
LINE
  5
2E3
330
1B
100
AcDbEntity
  8
4
100
AcDbLine
 10
551.2896840640892
 20
1241.69150282224
 30
0.0
 11
555.5233703060221
 21
1258.62624778997
 31
0.0
  0
LINE
  5
2E4
330
1B
100
AcDbEntity
  8
4
100
AcDbLine
 10
550.7127363997629
 20
1239.383712164934
 30
0.0
 11
551.2584464600209
 21
1241.566552405965
 31
0.0
  0
ARC
  5
2E5
330
1B
100
AcDbEntity
  8
4
100
AcDbCircle
 10
556.4935128061675
 20
1258.383712164934
 30
0.0
 40
1.0
100
AcDbArc
 50
90.0
 51
165.9637565320925
  0
LINE
  5
2E6
330
1B
100
AcDbEntity
  8
4
100
AcDbLine
 10
569.8856613997632
 20
1241.383562164934
 30
0.0
 11
581.7127363997629
 21
1212.783712164934
 31
0.0
  0
LINE
  5
2E7
330
1B
100
AcDbEntity
  8
4
100
AcDbLine
 10
585.7127363997629
 20
1260.383712164934
 30
0.0
 11
585.7127363997629
 21
1269.483712164934
 31
0.0
  0
ARC
  5
2E8
330
1B
100
AcDbEntity
  8
4
100
AcDbCircle
 10
517.7127363997629
 20
1231.277070414334
 30
0.0
 40
2.0
100
AcDbArc
 50
180.0
 51
197.1759036157507
  0
LINE
  5
2E9
330
1B
100
AcDbEntity
  8
4
100
AcDbLine
 10
515.7127363997629
 20
1231.383712164934
 30
0.0
 11
515.7127363997629
 21
1231.277070414334
 31
0.0
  0
LINE
  5
2EA
330
1B
100
AcDbEntity
  8
4
100
AcDbLine
 10
521.3515204675955
 20
1222.283712164934
 30
0.0
 11
536.0739523319307
 21
1222.283712164934
 31
0.0
  0
LINE
  5
2EB
330
1B
100
AcDbEntity
  8
4
100
AcDbLine
 10
523.8052591116511
 20
1221.380185219081
 30
0.0
 11
523.8052591116511
 21
1215.283712164934
 31
0.0
  0
LINE
  5
2EC
330
1B
100
AcDbEntity
  8
4
100
AcDbLine
 10
538.5276909759868
 20
1221.380185219081
 30
0.0
 11
538.5276909759868
 21
1212.783712164934
 31
0.0
  0
LINE
  5
2ED
330
1B
100
AcDbEntity
  8
4
100
AcDbLine
 10
533.6202136878751
 20
1221.380185219081
 30
0.0
 11
533.6202136878751
 21
1215.283712164934
 31
0.0
  0
ARC
  5
2EE
330
1B
100
AcDbEntity
  8
4
100
AcDbCircle
 10
536.0739523319307
 20
1218.500098235875
 30
0.0
 40
3.783613929059507
100
AcDbArc
 50
49.57010315516856
 51
130.4298968448315
  0
ARC
  5
2EF
330
1B
100
AcDbEntity
  8
4
100
AcDbCircle
 10
528.7127363997629
 20
1208.504546867475
 30
0.0
 40
13.77916529745958
100
AcDbArc
 50
69.13593563608075
 51
110.8640643639193
  0
LINE
  5
2F0
330
1B
100
AcDbEntity
  8
4
100
AcDbLine
 10
518.8977818235394
 20
1212.783712164934
 30
0.0
 11
518.8977818235394
 21
1221.380185219081
 31
0.0
  0
ARC
  5
2F1
330
1B
100
AcDbEntity
  8
4
100
AcDbCircle
 10
521.3515204675955
 20
1218.500098235875
 30
0.0
 40
3.783613929059507
100
AcDbArc
 50
49.57010315516856
 51
130.4298968448315
  0
LINE
  5
2F2
330
1B
100
AcDbEntity
  8
4
100
AcDbLine
 10
538.5276909759868
 20
1212.783712164934
 30
0.0
 11
518.8977818235394
 21
1212.783712164934
 31
0.0
  0
LINE
  5
2F3
330
1B
100
AcDbEntity
  8
4
100
AcDbLine
 10
538.5276909759868
 20
1215.283712164934
 30
0.0
 11
518.8977818235394
 21
1215.283712164934
 31
0.0
  0
LINE
  5
2F4
330
1B
100
AcDbEntity
  8
L-CENTER
100
AcDbLine
 10
500.7127363997629
 20
1245.068234104545
 30
0.0
 11
500.7127363997629
 21
1193.899190225322
 31
0.0
  0
LINE
  5
2F5
330
1B
100
AcDbEntity
  8
L-CENTER
100
AcDbLine
 10
528.7127363997629
 20
1184.047106598871
 30
0.0
 11
528.7127363997629
 21
1226.926351598872
 31
0.0
  0
LINE
  5
2F6
330
1B
100
AcDbEntity
  8
4
100
AcDbLine
 10
465.7127363997629
 20
1231.383712164934
 30
0.0
 11
465.7127363997629
 21
1215.204343141606
 31
0.0
  0
LINE
  5
2F7
330
1B
100
AcDbEntity
  8
L-CENTER
100
AcDbLine
 10
475.1282144601514
 20
1219.483712164934
 30
0.0
 11
526.2972583393744
 21
1219.483712164934
 31
0.0
  0
LINE
  5
2F8
330
1B
100
AcDbEntity
  8
L-CENTER
100
AcDbLine
 10
476.6616668720258
 20
1219.483712164934
 30
0.0
 11
526.2972583393744
 21
1219.483712164934
 31
0.0
  0
LINE
  5
2F9
330
1B
100
AcDbEntity
  8
4
100
AcDbLine
 10
465.7127363997629
 20
1231.383712164934
 30
0.0
 11
515.7127363997629
 21
1231.383712164934
 31
0.0
  0
LINE
  5
2FA
330
1B
100
AcDbEntity
  8
4
100
AcDbLine
 10
553.237736399763
 20
1249.483712164934
 30
0.0
 11
534.4255833659577
 21
1249.483712164934
 31
0.0
  0
LINE
  5
2FB
330
1B
100
AcDbEntity
  8
4
100
AcDbLine
 10
550.7127363997629
 20
1239.383712164934
 30
0.0
 11
464.653912870353
 21
1212.783712164934
 31
0.0
  0
LINE
  5
2FC
330
1B
100
AcDbEntity
  8
4
100
AcDbLine
 10
457.8812832399412
 20
1212.783712164934
 30
0.0
 11
551.2799024279252
 21
1241.652376277584
 31
0.0
  0
ARC
  5
2FD
330
1B
100
AcDbEntity
  8
4
100
AcDbCircle
 10
596.9627363997633
 20
1119.483712164934
 30
0.0
 40
6.25
100
AcDbArc
 50
90.0
 51
270.0
  0
LINE
  5
2FE
330
1B
100
AcDbEntity
  8
4
100
AcDbLine
 10
579.1740122618321
 20
1021.790712164934
 30
0.0
 11
581.7127363997629
 21
1028.483712164933
 31
0.0
  0
LINE
  5
2FF
330
1B
100
AcDbEntity
  8
4
100
AcDbLine
 10
555.7127363997633
 20
1021.790712164934
 30
0.0
 11
579.1740122618321
 21
1021.790712164934
 31
0.0
  0
LINE
  5
300
330
1B
100
AcDbEntity
  8
L-CENTER
100
AcDbLine
 10
510.7127363997629
 20
1082.960938617046
 30
0.0
 11
510.7127363997629
 21
1156.006485712821
 31
0.0
  0
CIRCLE
  5
301
330
1B
100
AcDbEntity
  8
4
100
AcDbCircle
 10
510.7127363997629
 20
1119.483712164934
 30
0.0
 40
25.0
  0
CIRCLE
  5
302
330
1B
100
AcDbEntity
  8
4
100
AcDbCircle
 10
510.7127363997629
 20
1119.483712164934
 30
0.0
 40
23.0
  0
LWPOLYLINE
  5
303
330
1B
100
AcDbEntity
  8
4
100
AcDbPolyline
 90
        6
 70
     1
 43
0.0
 10
533.7127363997629
 20
1119.483712164934
 10
522.2127363997629
 20
1139.402296451976
 10
499.2127363997629
 20
1139.402296451976
 10
487.7127363997629
 20
1119.483712164934
 10
499.2127363997629
 20
1099.565127877892
 10
522.2127363997629
 20
1099.565127877892
  0
LINE
  5
304
330
1B
100
AcDbEntity
  8
4
100
AcDbLine
 10
551.2127363997629
 20
1241.383562164934
 30
0.0
 11
690.2127363997629
 21
1241.383562164934
 31
0.0
  0
LINE
  5
305
330
1B
100
AcDbEntity
  8
4
100
AcDbLine
 10
640.7127363997629
 20
1216.74979768706
 30
0.0
 11
600.7127363997629
 21
1216.74979768706
 31
0.0
  0
LINE
  5
306
330
1B
100
AcDbEntity
  8
4
100
AcDbLine
 10
640.7127363997629
 20
1229.383712164934
 30
0.0
 11
600.7127363997629
 21
1229.383712164934
 31
0.0
  0
LINE
  5
307
330
1B
100
AcDbEntity
  8
4
100
AcDbLine
 10
670.7127363997629
 20
1260.383712164934
 30
0.0
 11
570.7127363997629
 21
1260.383712164934
 31
0.0
  0
LINE
  5
308
330
1B
100
AcDbEntity
  8
4
100
AcDbLine
 10
684.9319599933588
 20
1259.383712164934
 30
0.0
 11
556.4935128061675
 21
1259.383712164934
 31
0.0
  0
LINE
  5
309
330
1B
100
AcDbEntity
  8
4
100
AcDbLine
 10
585.7127363997629
 20
1269.483712164934
 30
0.0
 11
655.7127363997629
 21
1269.483712164933
 31
0.0
  0
ARC
  5
30A
330
1B
100
AcDbEntity
  8
4
100
AcDbCircle
 10
620.7127363997629
 20
1119.483712164934
 30
0.0
 40
20.0
100
AcDbArc
 50
18.20995686428299
 51
161.790043135717
  0
LINE
  5
30B
330
1B
100
AcDbEntity
  8
4
100
AcDbLine
 10
596.9627363997633
 20
1125.733712164934
 30
0.0
 11
644.4627363997633
 21
1125.733712164934
 31
0.0
  0
ARC
  5
30C
330
1B
100
AcDbEntity
  8
4
100
AcDbCircle
 10
620.7127363997633
 20
1119.483712164934
 30
0.0
 40
16.0
100
AcDbArc
 50
22.9933943142962
 51
157.0066056857038
  0
ARC
  5
30D
330
1B
100
AcDbEntity
  8
4
100
AcDbCircle
 10
620.7127363997633
 20
1119.483712164934
 30
0.0
 40
17.5
100
AcDbArc
 50
20.92483242763691
 51
159.0751675723631
  0
LINE
  5
30E
330
1B
100
AcDbEntity
  8
4
100
AcDbLine
 10
596.9627363997633
 20
1113.233712164934
 30
0.0
 11
644.4627363997633
 21
1113.233712164934
 31
0.0
  0
ARC
  5
30F
330
1B
100
AcDbEntity
  8
4
100
AcDbCircle
 10
620.7127363997633
 20
1119.483712164934
 30
0.0
 40
16.0
100
AcDbArc
 50
202.9933943142979
 51
337.0066056857022
  0
ARC
  5
310
330
1B
100
AcDbEntity
  8
4
100
AcDbCircle
 10
620.7127363997633
 20
1119.483712164934
 30
0.0
 40
17.5
100
AcDbArc
 50
200.9248324276383
 51
339.0751675723617
  0
ARC
  5
311
330
1B
100
AcDbEntity
  8
4
100
AcDbCircle
 10
620.7127363997629
 20
1119.483712164934
 30
0.0
 40
20.0
100
AcDbArc
 50
198.209956864283
 51
341.790043135717
  0
LINE
  5
312
330
1B
100
AcDbEntity
  8
4
100
AcDbLine
 10
611.7127363997629
 20
1389.483712164934
 30
0.0
 11
611.7127363997629
 21
1288.483712164934
 31
0.0
  0
LINE
  5
313
330
1B
100
AcDbEntity
  8
4
100
AcDbLine
 10
586.7127363997629
 20
1270.483712164934
 30
0.0
 11
586.7127363997629
 21
1388.483712164934
 31
0.0
  0
LINE
  5
314
330
1B
100
AcDbEntity
  8
4
100
AcDbLine
 10
654.7127363997629
 20
1270.483712164934
 30
0.0
 11
654.7127363997629
 21
1388.483712164934
 31
0.0
  0
LINE
  5
315
330
1B
100
AcDbEntity
  8
4
100
AcDbLine
 10
629.7127363997629
 20
1389.483712164934
 30
0.0
 11
629.7127363997629
 21
1288.483712164934
 31
0.0
  0
LINE
  5
316
330
1B
100
AcDbEntity
  8
L-CENTER
100
AcDbLine
 10
842.4937883421353
 20
1170.749097164934
 30
0.0
 11
797.9781633421353
 21
1170.749097164934
 31
0.0
  0
LINE
  5
317
330
1B
100
AcDbEntity
  8
L-CENTER
100
AcDbLine
 10
842.4937883421353
 20
1068.218332164934
 30
0.0
 11
797.9781633421353
 21
1068.218332164934
 31
0.0
  0
ARC
  5
318
330
1B
100
AcDbEntity
  8
4
100
AcDbCircle
 10
804.7127363997629
 20
1208.504546867475
 30
0.0
 40
13.77916529745958
100
AcDbArc
 50
69.13593563607897
 51
110.8640643639193
  0
LINE
  5
319
330
1B
100
AcDbEntity
  8
4
100
AcDbLine
 10
794.8977818235389
 20
1215.283712164934
 30
0.0
 11
814.5276909759864
 21
1215.283712164934
 31
0.0
  0
LINE
  5
31A
330
1B
100
AcDbEntity
  8
4
100
AcDbLine
 10
812.0739523319303
 20
1222.283712164934
 30
0.0
 11
797.351520467595
 21
1222.283712164934
 31
0.0
  0
LINE
  5
31B
330
1B
100
AcDbEntity
  8
4
100
AcDbLine
 10
794.8977818235389
 20
1212.783712164934
 30
0.0
 11
814.5276909759864
 21
1212.783712164934
 31
0.0
  0
ARC
  5
31F
330
1B
100
AcDbEntity
  8
4
100
AcDbCircle
 10
795.7127363997629
 20
994.4837121649333
 30
0.0
 40
5.0
100
AcDbArc
 50
270.0
 51
0.0
  0
LINE
  5
320
330
1B
100
AcDbEntity
  8
L-CENTER
100
AcDbLine
 10
715.1282144601514
 20
1019.483712164934
 30
0.0
 11
766.2972583393744
 21
1019.483712164934
 31
0.0
  0
ARC
  5
321
330
1B
100
AcDbEntity
  8
4
100
AcDbCircle
 10
740.7127363997629
 20
1019.483712164934
 30
0.0
 40
11.0
100
AcDbArc
 50
219.8144800252653
 51
354.8233968377648
  0
LINE
  5
322
330
1B
100
AcDbEntity
  8
4
100
AcDbLine
 10
678.7127363997624
 20
1002.413712164934
 30
0.0
 11
678.7127363997624
 21
1019.637712164934
 31
0.0
  0
LINE
  5
323
330
1B
100
AcDbEntity
  8
4
100
AcDbLine
 10
685.7127363997629
 20
979.4837121649335
 30
0.0
 11
691.3209770799463
 21
999.6733786135927
 31
0.0
  0
ELLIPSE
  5
324
330
1B
100
AcDbEntity
  8
4
100
AcDbEllipse
 10
658.2127363997629
 20
1014.255416707434
 30
0.0
 11
-5.5
 21
0.0
 31
0.0
210
0.0
220
0.0
230
1.0
 40
0.307590908999993
 41
0.0
 42
6.283185307179586
  0
LINE
  5
325
330
1B
100
AcDbEntity
  8
4
100
AcDbLine
 10
670.7127363997629
 20
999.4837121649335
 30
0.0
 11
670.4180122618322
 21
1000.260712164934
 31
0.0
  0
LINE
  5
326
330
1B
100
AcDbEntity
  8
4
100
AcDbLine
 10
637.7127363997624
 20
1012.102280344434
 30
0.0
 11
637.7127363997629
 21
1009.949143981434
 31
0.0
  0
ELLIPSE
  5
327
330
1B
100
AcDbEntity
  8
4
100
AcDbEllipse
 10
658.2127363997629
 20
1008.411189436434
 30
0.0
 11
-13.49999237819156
 21
0.0
 31
0.0
210
0.0
220
0.0
230
1.0
 40
0.3065284643097903
 41
5.352093955025739
 42
10.35586931292323
  0
ELLIPSE
  5
328
330
1B
100
AcDbEntity
  8
4
100
AcDbEllipse
 10
658.2127363997629
 20
1008.411189436434
 30
0.0
 11
-7.5
 21
0.0
 31
0.0
210
0.0
220
0.0
230
1.0
 40
0.3075909089999944
 41
0.0
 42
6.283185307179586
  0
ELLIPSE
  5
329
330
1B
100
AcDbEntity
  8
4
100
AcDbEllipse
 10
658.2127363997629
 20
1014.255416707434
 30
0.0
 11
-11.49999929403566
 21
0.0
 31
0.0
210
0.0
220
0.0
230
1.0
 40
0.3076987060934744
 41
2.347282901253021
 42
7.077495059516358
  0
LINE
  5
32A
330
1B
100
AcDbEntity
  8
4
100
AcDbLine
 10
670.4180122618322
 20
1000.260712164934
 30
0.0
 11
685.7127363997624
 21
1000.260712164934
 31
0.0
  0
LINE
  5
32B
330
1B
100
AcDbEntity
  8
4
100
AcDbLine
 10
795.7127363997629
 20
989.4837121649333
 30
0.0
 11
688.4905141775407
 21
989.4837121649335
 31
0.0
  0
LINE
  5
32D
330
1B
100
AcDbEntity
  8
4
100
AcDbLine
 10
627.7127363997624
 20
1012.102280344434
 30
0.0
 11
627.7127363997624
 21
1009.949143981434
 31
0.0
  0
LINE
  5
32E
330
1B
100
AcDbEntity
  8
4
100
AcDbLine
 10
616.8975523087543
 20
1007.334621254934
 30
0.0
 11
619.5111886723907
 21
1004.258712164934
 31
0.0
  0
LINE
  5
32F
330
1B
100
AcDbEntity
  8
4
100
AcDbLine
 10
609.7127363997629
 20
1015.790212427416
 30
0.0
 11
615.0680068542088
 21
1009.487757617934
 31
0.0
  0
LINE
  5
330
330
1B
100
AcDbEntity
  8
4
100
AcDbLine
 10
619.5111886723907
 20
1004.258712164934
 30
0.0
 11
625.7127363997629
 21
1004.258712164934
 31
0.0
  0
LINE
  5
331
330
1B
100
AcDbEntity
  8
4
100
AcDbLine
 10
614.2127363997629
 20
1017.792712160934
 30
0.0
 11
625.7127363997629
 21
1004.258712164934
 31
0.0
  0
LINE
  5
332
330
1B
100
AcDbEntity
  8
4
100
AcDbLine
 10
599.914284127135
 20
1004.258712164934
 30
0.0
 11
602.5279204907711
 21
1007.334621254934
 31
0.0
  0
LINE
  5
333
330
1B
100
AcDbEntity
  8
4
100
AcDbLine
 10
591.7127363997629
 20
1006.411848527934
 30
0.0
 11
591.7127363997629
 21
1004.258712164934
 31
0.0
  0
LINE
  5
334
330
1B
100
AcDbEntity
  8
4
100
AcDbLine
 10
593.7127363997629
 20
1004.258712164934
 30
0.0
 11
599.914284127135
 21
1004.258712164934
 31
0.0
  0
LINE
  5
335
330
1B
100
AcDbEntity
  8
4
100
AcDbLine
 10
593.7127363997629
 20
1004.258712164934
 30
0.0
 11
605.2127363997629
 21
1017.792712160934
 31
0.0
  0
LINE
  5
336
330
1B
100
AcDbEntity
  8
4
100
AcDbLine
 10
614.2127363997624
 20
1017.792712160934
 30
0.0
 11
605.2127363997629
 21
1017.792712160934
 31
0.0
  0
LINE
  5
337
330
1B
100
AcDbEntity
  8
4
100
AcDbLine
 10
616.8975523087538
 20
1007.334621254934
 30
0.0
 11
602.5279204907711
 21
1007.334621254934
 31
0.0
  0
LINE
  5
338
330
1B
100
AcDbEntity
  8
4
100
AcDbLine
 10
615.0680068542088
 20
1009.487757617934
 30
0.0
 11
604.357465945317
 21
1009.487757617934
 31
0.0
  0
LINE
  5
339
330
1B
100
AcDbEntity
  8
4
100
AcDbLine
 10
604.357465945317
 20
1009.487757617934
 30
0.0
 11
609.7127363997629
 21
1015.790212427416
 31
0.0
  0
LINE
  5
33A
330
1B
100
AcDbEntity
  8
4
100
AcDbLine
 10
568.7127363997629
 20
1017.792712160934
 30
0.0
 11
575.7127363997629
 21
1017.792712160934
 31
0.0
  0
LINE
  5
33B
330
1B
100
AcDbEntity
  8
4
100
AcDbLine
 10
568.7127363997629
 20
1017.792712160934
 30
0.0
 11
568.7127363997629
 21
1004.258712164934
 31
0.0
  0
LINE
  5
33C
330
1B
100
AcDbEntity
  8
4
100
AcDbLine
 10
575.7127363997629
 20
1017.792712160934
 30
0.0
 11
575.7127363997629
 21
1006.411848527934
 31
0.0
  0
LINE
  5
33D
330
1B
100
AcDbEntity
  8
4
100
AcDbLine
 10
570.7127363997629
 20
999.4837121649338
 30
0.0
 11
571.007460537694
 21
1000.260712164934
 31
0.0
  0
LINE
  5
33E
330
1B
100
AcDbEntity
  8
4
100
AcDbLine
 10
562.7127363997633
 20
1002.413712164934
 30
0.0
 11
562.7127363997633
 21
1019.637712164934
 31
0.0
  0
LINE
  5
33F
330
1B
100
AcDbEntity
  8
4
100
AcDbLine
 10
555.7127363997633
 20
1000.260712164934
 30
0.0
 11
571.007460537694
 21
1000.260712164934
 31
0.0
  0
LINE
  5
340
330
1B
100
AcDbEntity
  8
4
100
AcDbLine
 10
555.7127363997629
 20
979.4837121649338
 30
0.0
 11
550.1044957195795
 21
999.6733786135932
 31
0.0
  0
LINE
  5
341
330
1B
100
AcDbEntity
  8
4
100
AcDbLine
 10
568.7127363997629
 20
1004.258712164934
 30
0.0
 11
591.7127363997629
 21
1004.258712164934
 31
0.0
  0
LINE
  5
342
330
1B
100
AcDbEntity
  8
4
100
AcDbLine
 10
575.7127363997629
 20
1006.411848527934
 30
0.0
 11
591.7127363997629
 21
1006.411848527934
 31
0.0
  0
LINE
  5
343
330
1B
100
AcDbEntity
  8
L-CENTER
100
AcDbLine
 10
475.1282144601514
 20
1019.483712164934
 30
0.0
 11
526.2972583393744
 21
1019.483712164934
 31
0.0
  0
ARC
  5
344
330
1B
100
AcDbEntity
  8
4
100
AcDbCircle
 10
500.7127363997629
 20
1019.483712164934
 30
0.0
 40
11.0
100
AcDbArc
 50
185.1766031622316
 51
320.185519974739
  0
LINE
  5
345
330
1B
100
AcDbEntity
  8
4
100
AcDbLine
 10
637.7127363997624
 20
1009.949143981434
 30
0.0
 11
627.7127363997629
 21
1009.949143981434
 31
0.0
  0
LINE
  5
346
330
1B
100
AcDbEntity
  8
4
100
AcDbLine
 10
637.7127363997624
 20
1012.102280344434
 30
0.0
 11
627.7127363997624
 21
1012.102280344434
 31
0.0
  0
LINE
  5
347
330
1B
100
AcDbEntity
  8
4
100
AcDbLine
 10
562.7127363997633
 20
1019.637712164934
 30
0.0
 11
678.7127363997624
 21
1019.637712164934
 31
0.0
  0
LINE
  5
348
330
1B
100
AcDbEntity
  8
4
100
AcDbLine
 10
562.7127363997633
 20
1002.413712164934
 30
0.0
 11
678.7127363997624
 21
1002.413712164934
 31
0.0
  0
LINE
  5
349
330
1B
100
AcDbEntity
  8
4
100
AcDbLine
 10
555.7127363997629
 20
979.4837121649338
 30
0.0
 11
685.7127363997629
 21
979.4837121649338
 31
0.0
  0
LINE
  5
34A
330
1B
100
AcDbEntity
  8
4
100
AcDbLine
 10
550.7127363997629
 20
999.4837121649338
 30
0.0
 11
690.7127363997629
 21
999.4837121649335
 31
0.0
  0
ARC
  5
34C
330
1B
100
AcDbEntity
  8
4
100
AcDbCircle
 10
790.5982563997627
 20
634.9888628961505
 30
0.0
 40
5.0
100
AcDbArc
 50
14.16950899999949
 51
75.83044899999973
  0
ARC
  5
34D
330
1B
100
AcDbEntity
  8
4
100
AcDbCircle
 10
632.3345613997631
 20
676.0035128961504
 30
0.0
 40
1.100115
100
AcDbArc
 50
12.80874900000121
 51
90.0
  0
ARC
  5
34E
330
1B
100
AcDbEntity
  8
4
100
AcDbCircle
 10
642.7127363997629
 20
663.7586378961505
 30
0.0
 40
2.000005
100
AcDbArc
 50
180.0
 51
268.2022290000027
  0
LINE
  5
34F
330
1B
100
AcDbEntity
  8
4
100
AcDbLine
 10
640.7127363997629
 20
663.7586378961505
 30
0.0
 11
640.7127363997629
 21
666.1036078961504
 31
0.0
  0
ARC
  5
350
330
1B
100
AcDbEntity
  8
4
100
AcDbCircle
 10
641.668306399763
 20
666.8313928961502
 30
0.0
 40
5.999939999999999
100
AcDbArc
 50
125.5992010000019
 51
186.9671319999993
  0
LINE
  5
351
330
1B
100
AcDbEntity
  8
4
100
AcDbLine
 10
633.4073163997627
 20
676.2474078961504
 30
0.0
 11
635.7127363997629
 21
666.1036078961504
 31
0.0
  0
LINE
  5
352
330
1B
100
AcDbEntity
  8
4
100
AcDbLine
 10
685.7127363997624
 20
617.1036078961504
 30
0.0
 11
685.7127363997624
 21
547.1036078961504
 31
0.0
  0
LINE
  5
353
330
1B
100
AcDbEntity
  8
4
100
AcDbLine
 10
678.7127363997624
 20
610.1036078961506
 30
0.0
 11
678.7127363997624
 21
554.1036078961506
 31
0.0
  0
CIRCLE
  5
354
330
1B
100
AcDbEntity
  8
4
100
AcDbCircle
 10
658.2127363997629
 20
592.6036078961506
 30
0.0
 40
5.5
  0
ARC
  5
355
330
1B
100
AcDbEntity
  8
4
100
AcDbCircle
 10
658.2127363997629
 20
592.6076374344575
 30
0.0
 40
11.5
100
AcDbArc
 50
314.6706406007723
 51
225.3293593992273
  0
ARC
  5
356
330
1B
100
AcDbEntity
  8
4
100
AcDbCircle
 10
671.0304320972132
 20
545.1036078961504
 30
0.0
 40
2.0
100
AcDbArc
 50
90.0
 51
167.1993734975087
  0
LINE
  5
357
330
1B
100
AcDbEntity
  8
4
100
AcDbLine
 10
637.7127363997629
 20
578.6036078961506
 30
0.0
 11
637.7127363997629
 21
585.6036078961506
 31
0.0
  0
ARC
  5
358
330
1B
100
AcDbEntity
  8
4
100
AcDbCircle
 10
658.2127363997629
 20
573.6179532357696
 30
0.0
 40
13.5
100
AcDbArc
 50
126.789563507821
 51
53.21043649217901
  0
CIRCLE
  5
359
330
1B
100
AcDbEntity
  8
4
100
AcDbCircle
 10
658.2127363997629
 20
573.6036078961506
 30
0.0
 40
7.5
  0
LINE
  5
35A
330
1B
100
AcDbEntity
  8
4
100
AcDbLine
 10
671.0304320972132
 20
547.1036078961504
 30
0.0
 11
685.7127363997624
 21
547.1036078961506
 31
0.0
  0
LINE
  5
35B
330
1B
100
AcDbEntity
  8
4
100
AcDbLine
 10
661.13785845755
 20
617.1036078961504
 30
0.0
 11
685.7127363997624
 21
617.1036078961504
 31
0.0
  0
ARC
  5
35C
330
1B
100
AcDbEntity
  8
4
100
AcDbCircle
 10
670.1361508008754
 20
617.278921626518
 30
0.0
 40
9.0
100
AcDbArc
 50
72.00726859391929
 51
181.1161524648742
  0
LINE
  5
362
330
1B
100
AcDbEntity
  8
4
100
AcDbLine
 10
620.7127363997629
 20
678.6036078961504
 30
0.0
 11
608.9507763997631
 21
677.0945778961504
 31
0.0
  0
ARC
  5
363
330
1B
100
AcDbEntity
  8
4
100
AcDbCircle
 10
598.7127363997629
 20
663.7586378961505
 30
0.0
 40
2.000005
100
AcDbArc
 50
271.7977709999973
 51
0.0
  0
LINE
  5
364
330
1B
100
AcDbEntity
  8
4
100
AcDbLine
 10
600.7127363997629
 20
663.7586378961505
 30
0.0
 11
600.7127363997629
 21
666.1036078961504
 31
0.0
  0
ARC
  5
365
330
1B
100
AcDbEntity
  8
4
100
AcDbCircle
 10
599.7569263997625
 20
666.8313928961502
 30
0.0
 40
6.00006
100
AcDbArc
 50
353.0331490000007
 51
54.40080699999846
  0
LINE
  5
366
330
1B
100
AcDbEntity
  8
4
100
AcDbLine
 10
608.018156399763
 20
676.2474078961504
 30
0.0
 11
605.7127363997629
 21
666.1036078961504
 31
0.0
  0
ARC
  5
367
330
1B
100
AcDbEntity
  8
4
100
AcDbCircle
 10
609.090666399763
 20
676.0035128961504
 30
0.0
 40
1.100115
100
AcDbArc
 50
90.0
 51
167.1912509999988
  0
LINE
  5
368
330
1B
100
AcDbEntity
  8
4
100
AcDbLine
 10
620.7127363997629
 20
666.1036078961504
 30
0.0
 11
600.7127363997629
 21
666.1036078961504
 31
0.0
  0
LINE
  5
369
330
1B
100
AcDbEntity
  8
4
100
AcDbLine
 10
605.2127363997629
 20
604.1036078961506
 30
0.0
 11
614.2127363997629
 21
604.1036078961506
 31
0.0
  0
LINE
  5
36A
330
1B
100
AcDbEntity
  8
4
100
AcDbLine
 10
619.5111886723907
 20
560.1036078961506
 30
0.0
 11
625.7127363997629
 21
560.1036078961506
 31
0.0
  0
LINE
  5
36B
330
1B
100
AcDbEntity
  8
4
100
AcDbLine
 10
616.8975523087543
 20
570.1036078961506
 30
0.0
 11
619.5111886723907
 21
560.1036078961506
 31
0.0
  0
LINE
  5
36C
330
1B
100
AcDbEntity
  8
4
100
AcDbLine
 10
602.5279204907715
 20
570.1036078961506
 30
0.0
 11
599.914284127135
 21
560.1036078961506
 31
0.0
  0
LINE
  5
36D
330
1B
100
AcDbEntity
  8
4
100
AcDbLine
 10
593.7127363997629
 20
560.1036078961506
 30
0.0
 11
599.914284127135
 21
560.1036078961506
 31
0.0
  0
LINE
  5
36E
330
1B
100
AcDbEntity
  8
4
100
AcDbLine
 10
591.7127363997629
 20
567.1036078961506
 30
0.0
 11
591.7127363997629
 21
560.1036078961506
 31
0.0
  0
LINE
  5
36F
330
1B
100
AcDbEntity
  8
4
100
AcDbLine
 10
602.5279204907715
 20
570.1036078961506
 30
0.0
 11
616.8975523087543
 21
570.1036078961506
 31
0.0
  0
LINE
  5
370
330
1B
100
AcDbEntity
  8
4
100
AcDbLine
 10
604.357465945317
 20
577.1036078961506
 30
0.0
 11
615.0680068542088
 21
577.1036078961506
 31
0.0
  0
LINE
  5
371
330
1B
100
AcDbEntity
  8
4
100
AcDbLine
 10
627.7127363997629
 20
578.6036078961506
 30
0.0
 11
627.7127363997629
 21
585.6036078961506
 31
0.0
  0
LINE
  5
372
330
1B
100
AcDbEntity
  8
4
100
AcDbLine
 10
614.2127363997629
 20
604.1036078961506
 30
0.0
 11
625.7127363997629
 21
560.1036078961506
 31
0.0
  0
LINE
  5
373
330
1B
100
AcDbEntity
  8
4
100
AcDbLine
 10
605.2127363997629
 20
604.1036078961506
 30
0.0
 11
593.7127363997629
 21
560.1036078961506
 31
0.0
  0
LINE
  5
374
330
1B
100
AcDbEntity
  8
4
100
AcDbLine
 10
609.7127363997629
 20
597.5933383305526
 30
0.0
 11
604.357465945317
 21
577.1036078961506
 31
0.0
  0
LINE
  5
375
330
1B
100
AcDbEntity
  8
4
100
AcDbLine
 10
609.7127363997629
 20
597.5933383305526
 30
0.0
 11
615.0680068542088
 21
577.1036078961506
 31
0.0
  0
LINE
  5
376
330
1B
100
AcDbEntity
  8
4
100
AcDbLine
 10
568.7127363997629
 20
604.1036078961506
 30
0.0
 11
575.7127363997629
 21
604.1036078961506
 31
0.0
  0
LINE
  5
377
330
1B
100
AcDbEntity
  8
4
100
AcDbLine
 10
580.2876143419758
 20
617.1036078961504
 30
0.0
 11
555.7127363997633
 21
617.1036078961504
 31
0.0
  0
ARC
  5
378
330
1B
100
AcDbEntity
  8
4
100
AcDbCircle
 10
570.3950407023126
 20
545.1036078961504
 30
0.0
 40
2.0
100
AcDbArc
 50
12.80062650249128
 51
90.0
  0
LINE
  5
379
330
1B
100
AcDbEntity
  8
4
100
AcDbLine
 10
570.3950407023126
 20
547.1036078961504
 30
0.0
 11
555.7127363997633
 21
547.1036078961506
 31
0.0
  0
LINE
  5
37A
330
1B
100
AcDbEntity
  8
4
100
AcDbLine
 10
562.7127363997633
 20
610.1036078961506
 30
0.0
 11
562.7127363997633
 21
554.1036078961506
 31
0.0
  0
LINE
  5
37B
330
1B
100
AcDbEntity
  8
4
100
AcDbLine
 10
555.7127363997633
 20
617.1036078961504
 30
0.0
 11
555.7127363997633
 21
547.1036078961504
 31
0.0
  0
LINE
  5
37C
330
1B
100
AcDbEntity
  8
4
100
AcDbLine
 10
575.7127363997629
 20
604.1036078961506
 30
0.0
 11
575.7127363997629
 21
567.1036078961506
 31
0.0
  0
LINE
  5
37D
330
1B
100
AcDbEntity
  8
4
100
AcDbLine
 10
568.7127363997629
 20
604.1036078961506
 30
0.0
 11
568.7127363997629
 21
560.1036078961506
 31
0.0
  0
LINE
  5
37E
330
1B
100
AcDbEntity
  8
4
100
AcDbLine
 10
568.7127363997629
 20
560.1036078961506
 30
0.0
 11
591.7127363997629
 21
560.1036078961506
 31
0.0
  0
LINE
  5
37F
330
1B
100
AcDbEntity
  8
4
100
AcDbLine
 10
575.7127363997629
 20
567.1036078961506
 30
0.0
 11
591.7127363997629
 21
567.1036078961506
 31
0.0
  0
ARC
  5
380
330
1B
100
AcDbEntity
  8
4
100
AcDbCircle
 10
571.2893219986504
 20
617.278921626518
 30
0.0
 40
9.0
100
AcDbArc
 50
358.8838475351258
 51
107.9927314060807
  0
LINE
  5
381
330
1B
100
AcDbEntity
  8
4
100
AcDbLine
 10
533.7127363997629
 20
661.6036078961504
 30
0.0
 11
533.7127363997629
 21
670.6036078961504
 31
0.0
  0
LINE
  5
382
330
1B
100
AcDbEntity
  8
4
100
AcDbLine
 10
522.2127363997629
 20
665.6036078961504
 30
0.0
 11
522.2127363997629
 21
670.6036078961504
 31
0.0
  0
LINE
  5
383
330
1B
100
AcDbEntity
  8
4
100
AcDbLine
 10
499.2127363997629
 20
665.6036078961504
 30
0.0
 11
499.2127363997629
 21
670.6036078961504
 31
0.0
  0
LINE
  5
384
330
1B
100
AcDbEntity
  8
4
100
AcDbLine
 10
535.7127363997629
 20
658.1723128961503
 30
0.0
 11
535.7127363997629
 21
660.1036078961506
 31
0.0
  0
ARC
  5
385
330
1B
100
AcDbEntity
  8
4
100
AcDbCircle
 10
537.7127363997629
 20
658.1723128961503
 30
0.0
 40
2.0
100
AcDbArc
 50
180.0
 51
276.7999229999955
  0
LINE
  5
386
330
1B
100
AcDbEntity
  8
L-CENTER
100
AcDbLine
 10
510.7127363997629
 20
673.6451728961501
 30
0.0
 11
510.7127363997629
 21
632.8903141328874
 31
0.0
  0
LINE
  5
387
330
1B
100
AcDbEntity
  8
4
100
AcDbLine
 10
532.7127363997629
 20
661.6036078961504
 30
0.0
 11
532.7127363997629
 21
660.1036078961506
 31
0.0
  0
LINE
  5
388
330
1B
100
AcDbEntity
  8
4
100
AcDbLine
 10
487.7127363997629
 20
661.6036078961504
 30
0.0
 11
487.7127363997629
 21
670.6036078961504
 31
0.0
  0
LINE
  5
389
330
1B
100
AcDbEntity
  8
4
100
AcDbLine
 10
485.7127363997629
 20
649.5856978961504
 30
0.0
 11
485.7127363997629
 21
660.1036078961506
 31
0.0
  0
ARC
  5
38A
330
1B
100
AcDbEntity
  8
4
100
AcDbCircle
 10
483.7127363997629
 20
649.5856978961504
 30
0.0
 40
2.0
100
AcDbArc
 50
281.270162000007
 51
0.0
  0
LINE
  5
38B
330
1B
100
AcDbEntity
  8
4
100
AcDbLine
 10
488.7127363997629
 20
661.6036078961504
 30
0.0
 11
488.7127363997629
 21
660.1036078961506
 31
0.0
  0
LINE
  5
38C
330
1B
100
AcDbEntity
  8
4
100
AcDbLine
 10
485.7127363997629
 20
660.1036078961506
 30
0.0
 11
535.7127363997629
 21
660.1036078961506
 31
0.0
  0
LINE
  5
38D
330
1B
100
AcDbEntity
  8
4
100
AcDbLine
 10
488.7127363997629
 20
660.1036078961506
 30
0.0
 11
532.7127363997629
 21
660.1036078961506
 31
0.0
  0
LINE
  5
38E
330
1B
100
AcDbEntity
  8
4
100
AcDbLine
 10
487.7127363997629
 20
661.6036078961504
 30
0.0
 11
533.7127363997629
 21
661.6036078961504
 31
0.0
  0
LINE
  5
38F
330
1B
100
AcDbEntity
  8
4
100
AcDbLine
 10
487.7127363997629
 20
665.6036078961504
 30
0.0
 11
533.7127363997629
 21
665.6036078961504
 31
0.0
  0
LINE
  5
390
330
1B
100
AcDbEntity
  8
4
100
AcDbLine
 10
487.7127363997629
 20
670.6036078961504
 30
0.0
 11
533.7127363997629
 21
670.6036078961504
 31
0.0
  0
LINE
  5
391
330
1B
100
AcDbEntity
  8
4
100
AcDbLine
 10
485.7127363997629
 20
660.1036078961506
 30
0.0
 11
535.7127363997629
 21
660.1036078961506
 31
0.0
  0
CIRCLE
  5
392
330
1B
100
AcDbEntity
  8
4
100
AcDbCircle
 10
620.7127363997629
 20
696.1036078961504
 30
0.0
 40
17.5
  0
ARC
  5
393
330
1B
100
AcDbEntity
  8
4
100
AcDbCircle
 10
620.7127363997629
 20
696.1036078961504
 30
0.0
 40
30.00008
100
AcDbArc
 50
305.6002280000004
 51
234.4024820000001
  0
LINE
  5
394
330
1B
100
AcDbEntity
  8
4
100
AcDbLine
 10
609.090666399763
 20
677.1036078961502
 30
0.0
 11
632.3345613997631
 21
677.1036078961502
 31
0.0
  0
LINE
  5
395
330
1B
100
AcDbEntity
  8
4
100
AcDbLine
 10
620.7127363997629
 20
678.6036078961504
 30
0.0
 11
632.4744563997629
 21
677.0945778961504
 31
0.0
  0
LINE
  5
396
330
1B
100
AcDbEntity
  8
4
100
AcDbLine
 10
605.7127363997629
 20
666.1036078961504
 30
0.0
 11
635.7127363997629
 21
666.1036078961504
 31
0.0
  0
LINE
  5
397
330
1B
100
AcDbEntity
  8
4
100
AcDbLine
 10
600.7127363997629
 20
666.1036078961504
 30
0.0
 11
640.7127363997629
 21
666.1036078961504
 31
0.0
  0
LINE
  5
398
330
1B
100
AcDbEntity
  8
4
100
AcDbLine
 10
620.7127363997629
 20
666.1036078961504
 30
0.0
 11
640.7127363997629
 21
666.1036078961504
 31
0.0
  0
LINE
  5
399
330
1B
100
AcDbEntity
  8
L-CENTER
100
AcDbLine
 10
578.2251863997631
 20
696.1036078961504
 30
0.0
 11
663.2002863997627
 21
696.1036078961504
 31
0.0
  0
ARC
  5
39A
330
1B
100
AcDbEntity
  8
4
100
AcDbCircle
 10
620.7124913997627
 20
-37.89663210384964
 30
0.0
 40
699.0000450000001
100
AcDbArc
 50
75.83044899999999
 51
89.99998000000002
  0
LINE
  5
39C
330
1B
100
AcDbEntity
  8
4
100
AcDbLine
 10
562.7127363997633
 20
554.1036078961506
 30
0.0
 11
678.7127363997624
 21
554.1036078961506
 31
0.0
  0
LINE
  5
39D
330
1B
100
AcDbEntity
  8
4
100
AcDbLine
 10
627.7127363997629
 20
578.6036078961506
 30
0.0
 11
637.7127363997629
 21
578.6036078961506
 31
0.0
  0
LINE
  5
39E
330
1B
100
AcDbEntity
  8
4
100
AcDbLine
 10
627.7127363997629
 20
585.6036078961506
 30
0.0
 11
637.7127363997629
 21
585.6036078961506
 31
0.0
  0
LINE
  5
39F
330
1B
100
AcDbEntity
  8
4
100
AcDbLine
 10
562.7127363997633
 20
610.1036078961504
 30
0.0
 11
678.7127363997624
 21
610.1036078961504
 31
0.0
  0
LINE
  5
3A1
330
1B
100
AcDbEntity
  8
4
100
AcDbLine
 10
685.7127363997624
 20
1000.260712164934
 30
0.0
 11
685.7127363997624
 21
1021.790712164934
 31
0.0
  0
LINE
  5
3A2
330
1B
100
AcDbEntity
  8
4
100
AcDbLine
 10
555.7127363997633
 20
1000.260712164934
 30
0.0
 11
555.7127363997633
 21
1021.790712164934
 31
0.0
  0
LINE
  5
3A3
330
1B
100
AcDbEntity
  8
L-CENTER
100
AcDbLine
 10
500.7127363997629
 20
1045.068234104545
 30
0.0
 11
500.7127363997629
 21
993.8991902253221
 31
0.0
  0
LINE
  5
3A4
330
1B
100
AcDbEntity
  8
L-CENTER
100
AcDbLine
 10
620.7127363997629
 20
968.7498721042097
 30
0.0
 11
620.7127363997629
 21
1396.602002151945
 31
0.0
  0
LINE
  5
3A5
330
1B
100
AcDbEntity
  8
4
100
AcDbLine
 10
800.7127363997629
 20
994.4837121649333
 30
0.0
 11
800.7127363997629
 21
1028.483712164934
 31
0.0
  0
LINE
  5
3A6
330
1B
100
AcDbEntity
  8
L-CENTER
100
AcDbLine
 10
740.7127363997629
 20
993.8991902253221
 30
0.0
 11
740.7127363997629
 21
1045.068234104545
 31
0.0
  0
LINE
  5
3A7
330
1B
100
AcDbEntity
  8
4
100
AcDbLine
 10
457.7127363997629
 20
1028.483712164934
 30
0.0
 11
550.7127363997629
 21
999.4837121649338
 31
0.0
  0
LINE
  5
3A8
330
1B
100
AcDbEntity
  8
4
100
AcDbLine
 10
464.0362213997628
 20
1028.483712164934
 30
0.0
 11
557.0362213997632
 21
999.4837121649338
 31
0.0
  0
LINE
  5
3A9
330
1B
100
AcDbEntity
  8
4
100
AcDbLine
 10
777.3892463997631
 20
1028.483712164933
 30
0.0
 11
684.3892463997631
 21
999.4837121649335
 31
0.0
  0
LINE
  5
3AA
330
1B
100
AcDbEntity
  8
4
100
AcDbLine
 10
783.7127363997629
 20
1028.483712164933
 30
0.0
 11
690.7127363997629
 21
999.4837121649335
 31
0.0
  0
ARC
  5
3AB
330
1B
100
AcDbEntity
  8
4
100
AcDbCircle
 10
445.7127363997638
 20
1244.483712164934
 30
0.0
 40
5.0
100
AcDbArc
 50
90.0
 51
180.0
  0
ARC
  5
3AC
330
1B
100
AcDbEntity
  8
4
100
AcDbCircle
 10
436.7127363997629
 20
1208.504546867475
 30
0.0
 40
13.77916529745958
100
AcDbArc
 50
69.13593563608032
 51
110.8640643639197
  0
LINE
  5
3AD
330
1B
100
AcDbEntity
  8
4
100
AcDbLine
 10
446.5276909759868
 20
1221.380185219081
 30
0.0
 11
446.5276909759868
 21
1212.783712164934
 31
0.0
  0
LINE
  5
3AE
330
1B
100
AcDbEntity
  8
4
100
AcDbLine
 10
441.6202136878751
 20
1221.380185219081
 30
0.0
 11
441.6202136878751
 21
1215.283712164934
 31
0.0
  0
ARC
  5
3AF
330
1B
100
AcDbEntity
  8
4
100
AcDbCircle
 10
444.0739523319307
 20
1218.500098235875
 30
0.0
 40
3.783613929059507
100
AcDbArc
 50
49.57010315517695
 51
130.4298968448315
  0
LINE
  5
3B0
330
1B
100
AcDbEntity
  8
4
100
AcDbLine
 10
431.8052591116511
 20
1221.380185219081
 30
0.0
 11
431.8052591116511
 21
1215.283712164934
 31
0.0
  0
LINE
  5
3B1
330
1B
100
AcDbEntity
  8
4
100
AcDbLine
 10
426.7127363997629
 20
1196.483712164934
 30
0.0
 11
426.7127363997629
 21
1198.483712164934
 31
0.0
  0
LINE
  5
3B2
330
1B
100
AcDbEntity
  8
4
100
AcDbLine
 10
414.9127363997627
 20
1204.483712164934
 30
0.0
 11
426.7127363997629
 21
1204.483712164934
 31
0.0
  0
ARC
  5
3B3
330
1B
100
AcDbEntity
  8
4
100
AcDbCircle
 10
414.9127363997627
 20
1203.483712164934
 30
0.0
 40
1.0
100
AcDbArc
 50
90.0
 51
180.0
  0
ARC
  5
3B4
330
1B
100
AcDbEntity
  8
4
100
AcDbCircle
 10
427.7127363997629
 20
1211.783712164934
 30
0.0
 40
1.0
100
AcDbArc
 50
90.0
 51
180.0
  0
LINE
  5
3B5
330
1B
100
AcDbEntity
  8
4
100
AcDbLine
 10
426.7127363997629
 20
1211.783712164934
 30
0.0
 11
426.7127363997629
 21
1198.783712164934
 31
0.0
  0
LINE
  5
3B6
330
1B
100
AcDbEntity
  8
4
100
AcDbLine
 10
426.8977818235394
 20
1212.783712164934
 30
0.0
 11
426.8977818235394
 21
1221.380185219081
 31
0.0
  0
LINE
  5
3B7
330
1B
100
AcDbEntity
  8
4
100
AcDbLine
 10
446.5276909759868
 20
1212.783712164934
 30
0.0
 11
426.8977818235394
 21
1212.783712164934
 31
0.0
  0
LINE
  5
3B8
330
1B
100
AcDbEntity
  8
4
100
AcDbLine
 10
429.3515204675955
 20
1222.283712164934
 30
0.0
 11
444.0739523319307
 21
1222.283712164934
 31
0.0
  0
LINE
  5
3B9
330
1B
100
AcDbEntity
  8
4
100
AcDbLine
 10
446.5276909759868
 20
1215.283712164934
 30
0.0
 11
426.8977818235394
 21
1215.283712164934
 31
0.0
  0
ARC
  5
3BA
330
1B
100
AcDbEntity
  8
4
100
AcDbCircle
 10
429.3515204675955
 20
1218.500098235875
 30
0.0
 40
3.783613929059507
100
AcDbArc
 50
49.57010315517695
 51
130.4298968448315
  0
LINE
  5
3BB
330
1B
100
AcDbEntity
  8
4
100
AcDbLine
 10
440.7127363997638
 20
1222.283712164934
 30
0.0
 11
440.7127363997638
 21
1244.483712164934
 31
0.0
  0
LINE
  5
3BC
330
1B
100
AcDbEntity
  8
L-CENTER
100
AcDbLine
 10
436.7127363997629
 20
1184.047106598871
 30
0.0
 11
436.7127363997629
 21
1226.926351598872
 31
0.0
  0
LINE
  5
3BD
330
1B
100
AcDbEntity
  8
4
100
AcDbLine
 10
413.9128363997629
 20
1160.93414258871
 30
0.0
 11
413.9128363997629
 21
1180.564051741157
 31
0.0
  0
LINE
  5
3BE
330
1B
100
AcDbEntity
  8
4
100
AcDbLine
 10
411.4128363997629
 20
1160.93414258871
 30
0.0
 11
411.4128363997629
 21
1180.564051741157
 31
0.0
  0
ARC
  5
3BF
330
1B
100
AcDbEntity
  8
4
100
AcDbCircle
 10
408.1964503288223
 20
1178.110313097101
 30
0.0
 40
3.783613929059507
100
AcDbArc
 50
139.5701031551755
 51
220.4298968448298
  0
ARC
  5
3C0
330
1B
100
AcDbEntity
  8
4
100
AcDbCircle
 10
408.1964503288223
 20
1163.387881232766
 30
0.0
 40
3.783613929059507
100
AcDbArc
 50
139.5701031551755
 51
220.4298968448298
  0
ARC
  5
3C1
330
1B
100
AcDbEntity
  8
4
100
AcDbCircle
 10
418.1920016972222
 20
1170.749097164934
 30
0.0
 40
13.77916529745958
100
AcDbArc
 50
159.1359356360806
 51
200.8640643639194
  0
LINE
  5
3C2
330
1B
100
AcDbEntity
  8
4
100
AcDbLine
 10
404.4128363997629
 20
1178.110313097101
 30
0.0
 11
404.4128363997629
 21
1163.387881232766
 31
0.0
  0
LINE
  5
3C3
330
1B
100
AcDbEntity
  8
L-CENTER
100
AcDbLine
 10
398.9279425318878
 20
1170.749097164934
 30
0.0
 11
443.4435675318882
 21
1170.749097164934
 31
0.0
  0
LINE
  5
3C4
330
1B
100
AcDbEntity
  8
4
100
AcDbLine
 10
405.3163633456156
 20
1175.656574453045
 30
0.0
 11
411.4128363997629
 21
1175.656574453045
 31
0.0
  0
LINE
  5
3C5
330
1B
100
AcDbEntity
  8
4
100
AcDbLine
 10
405.3163633456156
 20
1165.841619876821
 30
0.0
 11
411.4128363997629
 21
1165.841619876821
 31
0.0
  0
LINE
  5
3C6
330
1B
100
AcDbEntity
  8
4
100
AcDbLine
 10
405.3163633456156
 20
1160.93414258871
 30
0.0
 11
413.9128363997629
 21
1160.93414258871
 31
0.0
  0
LINE
  5
3C7
330
1B
100
AcDbEntity
  8
4
100
AcDbLine
 10
413.9128363997629
 20
1180.564051741157
 30
0.0
 11
405.3163633456156
 21
1180.564051741157
 31
0.0
  0
LINE
  5
3C8
330
1B
100
AcDbEntity
  8
4
100
AcDbLine
 10
426.7127363997629
 20
1029.483712164933
 30
0.0
 11
426.7127363997629
 21
1042.483712164933
 31
0.0
  0
LINE
  5
3C9
330
1B
100
AcDbEntity
  8
4
100
AcDbLine
 10
414.9127363997627
 20
1034.483712164934
 30
0.0
 11
426.7127363997629
 21
1034.483712164934
 31
0.0
  0
ARC
  5
3CA
330
1B
100
AcDbEntity
  8
4
100
AcDbCircle
 10
414.9127363997627
 20
1035.483712164934
 30
0.0
 40
1.0
100
AcDbArc
 50
180.0
 51
270.0
  0
LINE
  5
3CB
330
1B
100
AcDbEntity
  8
4
100
AcDbLine
 10
411.4128363997629
 20
1058.40337758871
 30
0.0
 11
411.4128363997629
 21
1078.033286741157
 31
0.0
  0
LINE
  5
3CC
330
1B
100
AcDbEntity
  8
4
100
AcDbLine
 10
413.9128363997629
 20
1058.40337758871
 30
0.0
 11
413.9128363997629
 21
1078.033286741157
 31
0.0
  0
ARC
  5
3CD
330
1B
100
AcDbEntity
  8
4
100
AcDbCircle
 10
418.1920016972222
 20
1068.218332164934
 30
0.0
 40
13.77916529745958
100
AcDbArc
 50
159.1359356360806
 51
200.8640643639194
  0
ARC
  5
3CE
330
1B
100
AcDbEntity
  8
4
100
AcDbCircle
 10
408.1964503288223
 20
1075.579548097101
 30
0.0
 40
3.783613929059507
100
AcDbArc
 50
139.5701031551777
 51
220.4298968448223
  0
LINE
  5
3CF
330
1B
100
AcDbEntity
  8
4
100
AcDbLine
 10
404.4128363997629
 20
1075.579548097101
 30
0.0
 11
404.4128363997629
 21
1060.857116232766
 31
0.0
  0
ARC
  5
3D0
330
1B
100
AcDbEntity
  8
4
100
AcDbCircle
 10
408.1964503288223
 20
1060.857116232766
 30
0.0
 40
3.783613929059507
100
AcDbArc
 50
139.5701031551777
 51
220.4298968448223
  0
LINE
  5
3D1
330
1B
100
AcDbEntity
  8
4
100
AcDbLine
 10
413.9128363997629
 20
1078.033286741157
 30
0.0
 11
405.3163633456156
 21
1078.033286741157
 31
0.0
  0
LINE
  5
3D2
330
1B
100
AcDbEntity
  8
4
100
AcDbLine
 10
405.3163633456156
 20
1058.40337758871
 30
0.0
 11
413.9128363997629
 21
1058.40337758871
 31
0.0
  0
LINE
  5
3D3
330
1B
100
AcDbEntity
  8
4
100
AcDbLine
 10
405.3163633456156
 20
1063.310854876821
 30
0.0
 11
411.4128363997629
 21
1063.310854876821
 31
0.0
  0
LINE
  5
3D4
330
1B
100
AcDbEntity
  8
4
100
AcDbLine
 10
405.3163633456156
 20
1073.125809453045
 30
0.0
 11
411.4128363997629
 21
1073.125809453045
 31
0.0
  0
LINE
  5
3D5
330
1B
100
AcDbEntity
  8
L-CENTER
100
AcDbLine
 10
398.9279425318878
 20
1068.218332164934
 30
0.0
 11
443.4435675318882
 21
1068.218332164934
 31
0.0
  0
LINE
  5
3D6
330
1B
100
AcDbEntity
  8
4
100
AcDbLine
 10
425.7127363997629
 20
1042.483712164934
 30
0.0
 11
425.7127363997629
 21
1196.483712164934
 31
0.0
  0
LINE
  5
3D7
330
1B
100
AcDbEntity
  8
4
100
AcDbLine
 10
413.9127363997627
 20
1035.483712164934
 30
0.0
 11
413.9127363997627
 21
1203.483712164934
 31
0.0
  0
ARC
  5
3D8
330
1B
100
AcDbEntity
  8
4
100
AcDbCircle
 10
445.7127363997629
 20
994.4837121649338
 30
0.0
 40
5.0
100
AcDbArc
 50
180.0
 51
270.0
  0
ARC
  5
3DC
330
1B
100
AcDbEntity
  8
4
100
AcDbCircle
 10
450.8271363997628
 20
634.9888128961504
 30
0.0
 40
5.0
100
AcDbArc
 50
104.1695579999976
 51
165.830496000002
  0
LINE
  5
3DD
330
1B
100
AcDbEntity
  8
4
100
AcDbLine
 10
440.7127363997629
 20
994.4837121649338
 30
0.0
 11
440.7127363997629
 21
1028.483712164933
 31
0.0
  0
ARC
  5
3DE
330
1B
100
AcDbEntity
  8
4
100
AcDbCircle
 10
620.7129813997631
 20
-37.89663210384964
 30
0.0
 40
699.0000150000001
100
AcDbArc
 50
89.99998000000002
 51
104.169558
  0
LINE
  5
3E1
330
1B
100
AcDbEntity
  8
L-CENTER
100
AcDbLine
 10
406.7504087060825
 20
1119.483712164934
 30
0.0
 11
945.9071355604005
 21
1119.483712164934
 31
0.0
  0
LINE
  5
3E2
330
1B
100
AcDbEntity
  8
4
100
AcDbLine
 10
552.9349586219855
 20
989.4837121649338
 30
0.0
 11
445.7127363997629
 21
989.4837121649342
 31
0.0
  0
LINE
  5
3E3
330
1B
100
AcDbEntity
  8
4
100
AcDbLine
 10
445.7127363997638
 20
1249.483712164934
 30
0.0
 11
553.237736399763
 21
1249.483712164934
 31
0.0
  0
LINE
  5
3E4
330
1B
100
AcDbEntity
  8
4
100
AcDbLine
 10
427.7127363997629
 20
1028.483712164933
 30
0.0
 11
813.7127363997629
 21
1028.483712164934
 31
0.0
  0
LINE
  5
3E5
330
1B
100
AcDbEntity
  8
4
100
AcDbLine
 10
425.7127363997629
 20
1042.483712164934
 30
0.0
 11
815.7127363997629
 21
1042.483712164934
 31
0.0
  0
LINE
  5
3E6
330
1B
100
AcDbEntity
  8
4
100
AcDbLine
 10
425.7127363997629
 20
1196.483712164934
 30
0.0
 11
815.7127363997629
 21
1196.483712164934
 31
0.0
  0
LINE
  5
3E7
330
1B
100
AcDbEntity
  8
4
100
AcDbLine
 10
426.7127363997629
 20
1198.483712164934
 30
0.0
 11
814.7127363997629
 21
1198.483712164933
 31
0.0
  0
LINE
  5
3E8
330
1B
100
AcDbEntity
  8
4
100
AcDbLine
 10
425.7127363997629
 20
1043.483712164934
 30
0.0
 11
815.7127363997629
 21
1043.483712164934
 31
0.0
  0
LINE
  5
3E9
330
1B
100
AcDbEntity
  8
4
100
AcDbLine
 10
427.7127363997629
 20
1212.783712164934
 30
0.0
 11
813.7127363997629
 21
1212.783712164934
 31
0.0
  0
LINE
  5
3EA
330
1B
100
AcDbEntity
  8
4
100
AcDbLine
 10
426.7127363997629
 20
1198.783712164934
 30
0.0
 11
814.7127363997629
 21
1198.783712164934
 31
0.0
  0
LINE
  5
3EE
330
1B
100
AcDbEntity
  8
4
100
AcDbLine
 10
940.7127363997629
 20
291.6036078961505
 30
0.0
 11
940.7127363997629
 21
243.1036078961505
 31
0.0
  0
LINE
  5
3EF
330
1B
100
AcDbEntity
  8
4
100
AcDbLine
 10
939.7127363997629
 20
288.1036078961505
 30
0.0
 11
939.7127363997629
 21
242.1036078961505
 31
0.0
  0
LINE
  5
3F0
330
1B
100
AcDbEntity
  8
4
100
AcDbLine
 10
939.7127363997629
 20
242.1036078961505
 30
0.0
 11
940.7127363997629
 21
243.1036078961505
 31
0.0
  0
LINE
  5
3F1
330
1B
100
AcDbEntity
  8
4
100
AcDbLine
 10
940.7127363997629
 20
287.1036078961505
 30
0.0
 11
939.7127363997629
 21
288.1036078961505
 31
0.0
  0
LINE
  5
3F3
330
1B
100
AcDbEntity
  8
4
100
AcDbLine
 10
813.7127363997629
 20
350.1036078961506
 30
0.0
 11
826.5126413997627
 21
350.1036078961507
 31
0.0
  0
LINE
  5
3F4
330
1B
100
AcDbEntity
  8
4
100
AcDbLine
 10
811.085786399763
 20
350.1036078961506
 30
0.0
 11
813.7127363997629
 21
350.1036078961506
 31
0.0
  0
ARC
  5
3F5
330
1B
100
AcDbEntity
  8
4
100
AcDbCircle
 10
826.5126413997627
 20
349.1036078961507
 30
0.0
 40
1.0
100
AcDbArc
 50
0.0
 51
90.0
  0
LINE
  5
3F6
330
1B
100
AcDbEntity
  8
4
100
AcDbLine
 10
836.1091094539102
 20
321.2764701842622
 30
0.0
 11
830.0126363997629
 21
321.2764701842622
 31
0.0
  0
LINE
  5
3F7
330
1B
100
AcDbEntity
  8
4
100
AcDbLine
 10
836.1091094539102
 20
311.4615156080382
 30
0.0
 11
830.0126363997629
 21
311.4615156080382
 31
0.0
  0
ARC
  5
3F8
330
1B
100
AcDbEntity
  8
4
100
AcDbCircle
 10
833.2290224707035
 20
323.7302088283178
 30
0.0
 40
3.783613929059507
100
AcDbArc
 50
319.5701031551699
 51
40.42989684483014
  0
ARC
  5
3F9
330
1B
100
AcDbEntity
  8
4
100
AcDbCircle
 10
833.2290224707035
 20
309.0077769639826
 30
0.0
 40
3.783613929059507
100
AcDbArc
 50
319.5701031551699
 51
40.42989684483014
  0
ARC
  5
3FA
330
1B
100
AcDbEntity
  8
4
100
AcDbCircle
 10
823.2334711023036
 20
316.3689928961504
 30
0.0
 40
13.77916529745958
100
AcDbArc
 50
339.1359356360801
 51
20.86406436391987
  0
LINE
  5
3FB
330
1B
100
AcDbEntity
  8
4
100
AcDbLine
 10
837.0126363997629
 20
323.7302088283178
 30
0.0
 11
837.0126363997629
 21
309.0077769639826
 31
0.0
  0
LINE
  5
3FC
330
1B
100
AcDbEntity
  8
4
100
AcDbLine
 10
830.0126363997629
 20
306.5540383199265
 30
0.0
 11
830.0126363997629
 21
326.1839474723739
 31
0.0
  0
LINE
  5
3FD
330
1B
100
AcDbEntity
  8
4
100
AcDbLine
 10
828.5126413997627
 20
301.1036078961505
 30
0.0
 11
827.5126413997627
 21
301.1036078961505
 31
0.0
  0
LINE
  5
3FE
330
1B
100
AcDbEntity
  8
4
100
AcDbLine
 10
827.5126363997629
 20
306.5540383199265
 30
0.0
 11
827.5126363997629
 21
326.1839474723739
 31
0.0
  0
LINE
  5
3FF
330
1B
100
AcDbEntity
  8
4
100
AcDbLine
 10
836.1091094539102
 20
306.5540383199265
 30
0.0
 11
827.5126363997629
 21
306.5540383199265
 31
0.0
  0
LINE
  5
400
330
1B
100
AcDbEntity
  8
4
100
AcDbLine
 10
827.5126363997629
 20
326.1839474723739
 30
0.0
 11
836.1091094539102
 21
326.1839474723739
 31
0.0
  0
LINE
  5
401
330
1B
100
AcDbEntity
  8
4
100
AcDbLine
 10
850.7127363997629
 20
291.6036078961505
 30
0.0
 11
850.7127363997629
 21
288.1036078961505
 31
0.0
  0
LINE
  5
402
330
1B
100
AcDbEntity
  8
4
100
AcDbLine
 10
840.7127363997629
 20
290.1036078961506
 30
0.0
 11
828.5126413997627
 21
290.1036078961505
 31
0.0
  0
LINE
  5
403
330
1B
100
AcDbEntity
  8
4
100
AcDbLine
 10
836.1091094539102
 20
218.7457051842621
 30
0.0
 11
830.0126363997629
 21
218.7457051842621
 31
0.0
  0
ARC
  5
404
330
1B
100
AcDbEntity
  8
4
100
AcDbCircle
 10
833.2290224707035
 20
221.1994438283177
 30
0.0
 40
3.783613929059507
100
AcDbArc
 50
319.5701031551699
 51
40.42989684483014
  0
LINE
  5
405
330
1B
100
AcDbEntity
  8
4
100
AcDbLine
 10
828.5126413997627
 20
229.1036078961505
 30
0.0
 11
827.5126413997627
 21
229.1036078961505
 31
0.0
  0
LINE
  5
406
330
1B
100
AcDbEntity
  8
4
100
AcDbLine
 10
828.5126413997627
 20
240.1036078961505
 30
0.0
 11
840.7127363997629
 21
240.1036078961505
 31
0.0
  0
LINE
  5
407
330
1B
100
AcDbEntity
  8
4
100
AcDbLine
 10
827.5126363997629
 20
223.6531824723738
 30
0.0
 11
836.1091094539102
 21
223.6531824723738
 31
0.0
  0
LINE
  5
408
330
1B
100
AcDbEntity
  8
4
100
AcDbLine
 10
840.7127363997629
 20
290.1036078961506
 30
0.0
 11
840.7127363997629
 21
240.1036078961505
 31
0.0
  0
LINE
  5
409
330
1B
100
AcDbEntity
  8
4
100
AcDbLine
 10
828.5126413997627
 20
229.1036078961505
 30
0.0
 11
828.5126413997627
 21
301.1036078961505
 31
0.0
  0
LINE
  5
40A
330
1B
100
AcDbEntity
  8
4
100
AcDbLine
 10
840.7127363997629
 20
242.1036078961505
 30
0.0
 11
939.7127363997629
 21
242.1036078961505
 31
0.0
  0
LINE
  5
40B
330
1B
100
AcDbEntity
  8
4
100
AcDbLine
 10
940.7127363997629
 20
291.6036078961505
 30
0.0
 11
850.7127363997629
 21
291.6036078961505
 31
0.0
  0
LINE
  5
40C
330
1B
100
AcDbEntity
  8
4
100
AcDbLine
 10
840.7127363997629
 20
288.1036078961505
 30
0.0
 11
939.7127363997629
 21
288.1036078961505
 31
0.0
  0
LINE
  5
40F
330
1B
100
AcDbEntity
  8
4
100
AcDbLine
 10
807.5027763997628
 20
287.9310028961505
 30
0.0
 11
814.5374213997629
 21
410.0011828961506
 31
0.0
  0
LINE
  5
417
330
1B
100
AcDbEntity
  8
4
100
AcDbLine
 10
836.1091094539102
 20
208.9307506080381
 30
0.0
 11
830.0126363997629
 21
208.9307506080381
 31
0.0
  0
ARC
  5
418
330
1B
100
AcDbEntity
  8
4
100
AcDbCircle
 10
833.2290224707035
 20
206.4770119639825
 30
0.0
 40
3.783613929059507
100
AcDbArc
 50
319.5701031551699
 51
40.42989684483014
  0
LINE
  5
419
330
1B
100
AcDbEntity
  8
4
100
AcDbLine
 10
808.8411563997629
 20
180.1036078961505
 30
0.0
 11
813.7127363997629
 21
180.1036078961505
 31
0.0
  0
LINE
  5
41A
330
1B
100
AcDbEntity
  8
4
100
AcDbLine
 10
813.7127363997629
 20
180.1036078961505
 30
0.0
 11
826.5126413997627
 21
180.1036078961505
 31
0.0
  0
ARC
  5
41B
330
1B
100
AcDbEntity
  8
4
100
AcDbCircle
 10
826.5126413997627
 20
181.1036078961505
 30
0.0
 40
1.0
100
AcDbArc
 50
270.0
 51
0.0
  0
LINE
  5
41C
330
1B
100
AcDbEntity
  8
4
100
AcDbLine
 10
836.1091094539102
 20
204.0232733199264
 30
0.0
 11
827.5126363997629
 21
204.0232733199264
 31
0.0
  0
TEXT
  5
41E
330
1B
100
AcDbEntity
  8
3
100
AcDbText
 10
968.2613529106936
 20
108.1649635792578
 30
0.0
 40
15.61517997527595
  1
LA8-00
  7
KANJI
100
AcDbText
  0
LINE
  5
41F
330
1B
100
AcDbEntity
  8
4
100
AcDbLine
 10
813.7127363997629
 20
180.1036078961505
 30
0.0
 11
813.7127363997629
 21
350.1036078961506
 31
0.0
  0
LINE
  5
420
330
1B
100
AcDbEntity
  8
4
100
AcDbLine
 10
827.5126413997627
 20
349.1036078961507
 30
0.0
 11
827.5126413997627
 21
181.1036078961505
 31
0.0
  0
LINE
  5
421
330
1B
100
AcDbEntity
  8
4
100
AcDbLine
 10
813.7127363997629
 20
180.1036078961505
 30
0.0
 11
813.7127363997629
 21
350.1036078961506
 31
0.0
  0
LINE
  5
422
330
1B
100
AcDbEntity
  8
4
100
AcDbLine
 10
837.0126363997629
 20
221.1994438283177
 30
0.0
 11
837.0126363997629
 21
206.4770119639825
 31
0.0
  0
ARC
  5
423
330
1B
100
AcDbEntity
  8
4
100
AcDbCircle
 10
823.2334711023036
 20
213.8382278961503
 30
0.0
 40
13.77916529745958
100
AcDbArc
 50
339.1359356360801
 51
20.86406436391987
  0
LINE
  5
424
330
1B
100
AcDbEntity
  8
4
100
AcDbLine
 10
830.0126363997629
 20
204.0232733199264
 30
0.0
 11
830.0126363997629
 21
223.6531824723738
 31
0.0
  0
LINE
  5
425
330
1B
100
AcDbEntity
  8
4
100
AcDbLine
 10
827.5126363997629
 20
204.0232733199264
 30
0.0
 11
827.5126363997629
 21
223.6531824723738
 31
0.0
  0
ARC
  5
426
330
1B
100
AcDbEntity
  8
4
100
AcDbCircle
 10
772.8880313997629
 20
514.5269478961505
 30
0.0
 40
8.99999
100
AcDbArc
 50
263.6362980000006
 51
17.99259800000024
  0
ARC
  5
427
330
1B
100
AcDbEntity
  8
4
100
AcDbCircle
 10
772.8880313997629
 20
415.6802728961505
 30
0.0
 40
9.000070000000001
100
AcDbArc
 50
342.0093589999988
 51
96.36370200000054
  0
ARC
  5
428
330
1B
100
AcDbEntity
  8
4
100
AcDbCircle
 10
675.492036399763
 20
519.8829078961505
 30
0.0
 40
10.000085
100
AcDbArc
 50
10.88800999999996
 51
79.11199100000263
  0
ARC
  5
429
330
1B
100
AcDbEntity
  8
4
100
AcDbCircle
 10
693.3377363997629
 20
522.3924278961506
 30
0.0
 40
7.999955
100
AcDbArc
 50
190.7197629999996
 51
263.6379930000003
  0
ARC
  5
42A
330
1B
100
AcDbEntity
  8
4
100
AcDbCircle
 10
671.2715763997626
 20
515.6624478961505
 30
0.0
 40
10.00007
100
AcDbArc
 50
10.04023399999969
 51
79.95977099999833
  0
ARC
  5
42B
330
1B
100
AcDbEntity
  8
4
100
AcDbCircle
 10
678.0016159161673
 20
537.7287626400268
 30
0.0
 40
8.0
100
AcDbArc
 50
186.3634968358654
 51
259.2803933279438
  0
ARC
  5
42C
330
1B
100
AcDbEntity
  8
4
100
AcDbCircle
 10
675.492036399763
 20
410.3243128961506
 30
0.0
 40
9.99997
100
AcDbArc
 50
280.8896459999989
 51
349.1133619999995
  0
ARC
  5
42D
330
1B
100
AcDbEntity
  8
4
100
AcDbCircle
 10
693.3379813997631
 20
407.8147928961505
 30
0.0
 40
7.999970000000001
100
AcDbArc
 50
96.36374300000114
 51
169.2802370000012
  0
ARC
  5
42E
330
1B
100
AcDbEntity
  8
4
100
AcDbCircle
 10
671.2715763997626
 20
414.5447728961504
 30
0.0
 40
10.00007
100
AcDbArc
 50
280.0416049999998
 51
349.9611419999999
  0
ARC
  5
42F
330
1B
100
AcDbEntity
  8
4
100
AcDbCircle
 10
678.0015563997626
 20
392.4783678961505
 30
0.0
 40
7.999970000000001
100
AcDbArc
 50
100.7197620000003
 51
173.6362489999999
  0
ARC
  5
430
330
1B
100
AcDbEntity
  8
4
100
AcDbCircle
 10
385.7127363997629
 20
465.1033678961505
 30
0.0
 40
300.000015
100
AcDbArc
 50
349.961123
 51
10.04034900000001
  0
ARC
  5
431
330
1B
100
AcDbEntity
  8
4
100
AcDbCircle
 10
390.7127363997629
 20
465.1033678961505
 30
0.0
 40
299.99991
100
AcDbArc
 50
349.113219
 51
10.88829900000003
  0
LINE
  5
432
330
1B
100
AcDbEntity
  8
4
100
AcDbLine
 10
692.4512613997626
 20
415.7654778961505
 30
0.0
 11
771.8904713997631
 21
424.6248528961505
 31
0.0
  0
LINE
  5
433
330
1B
100
AcDbEntity
  8
4
100
AcDbLine
 10
692.4512613997626
 20
514.4417428961506
 30
0.0
 11
771.8904713997631
 21
505.5823678961506
 31
0.0
  0
ARC
  5
434
330
1B
100
AcDbEntity
  8
4
100
AcDbCircle
 10
790.5982663997629
 20
295.2184078961506
 30
0.0
 40
5.0
100
AcDbArc
 50
284.169553
 51
345.8304949999996
  0
ARC
  5
435
330
1B
100
AcDbEntity
  8
4
100
AcDbCircle
 10
796.7127363997629
 20
282.1036078961505
 30
0.0
 40
3.0
100
AcDbArc
 50
90.0
 51
180.0
  0
LINE
  5
436
330
1B
100
AcDbEntity
  8
4
100
AcDbLine
 10
804.5079013997629
 20
285.1036078961506
 30
0.0
 11
796.7127363997629
 21
285.1036078961506
 31
0.0
  0
ARC
  5
437
330
1B
100
AcDbEntity
  8
4
100
AcDbCircle
 10
670.1360763997627
 20
312.9283178961505
 30
0.0
 40
9.000065000000001
100
AcDbArc
 50
173.636291
 51
287.9955550000017
  0
LINE
  5
438
330
1B
100
AcDbEntity
  8
4
100
AcDbLine
 10
640.7127363997629
 20
270.1036078961506
 30
0.0
 11
640.7127363997629
 21
255.1036078961506
 31
0.0
  0
LINE
  5
439
330
1B
100
AcDbEntity
  8
4
100
AcDbLine
 10
636.301116399763
 20
246.1036078961505
 30
0.0
 11
636.301116399763
 21
264.1036078961505
 31
0.0
  0
LWPOLYLINE
  5
43A
330
1B
100
AcDbEntity
  8
4
100
AcDbPolyline
 90
       15
 70
     0
 43
0.0
 10
683.4544413997628
 20
260.7060278961505
 10
685.8768713997629
 20
259.0191578961505
 10
690.0000013997628
 20
256.4514078961505
 10
694.7756863997629
 20
253.8836628961506
 10
700.4354013997631
 20
251.3159128961505
 10
707.4271313997629
 20
248.7481628961506
 10
716.8966263997631
 20
246.1804128961505
 10
740.7089313997626
 20
243.6126628961505
 10
764.5212313997631
 20
246.1803978961506
 10
773.9907313997628
 20
248.7481428961505
 10
780.9824663997629
 20
251.3158878961505
 10
786.6421813997626
 20
253.8836328961505
 10
791.4178663997627
 20
256.4513778961506
 10
795.5409963997631
 20
259.0191228961505
 10
797.9678113997629
 20
260.7091778961505
  0
ARC
  5
43B
330
1B
100
AcDbEntity
  8
4
100
AcDbCircle
 10
620.7124913997627
 20
968.1038528961503
 30
0.0
 40
699.0
100
AcDbArc
 50
271.637765
 51
284.169553
  0
LINE
  5
43C
330
1B
100
AcDbEntity
  8
4
100
AcDbLine
 10
670.0508713997629
 20
393.3650828961504
 30
0.0
 11
661.191741399763
 21
313.9258778961505
 31
0.0
  0
ARC
  5
43D
330
1B
100
AcDbEntity
  8
4
100
AcDbCircle
 10
563.4238568833584
 20
537.7287626400268
 30
0.0
 40
8.0
100
AcDbArc
 50
280.7196066720562
 51
353.6365031641347
  0
ARC
  5
43E
330
1B
100
AcDbEntity
  8
4
100
AcDbCircle
 10
565.9334413997626
 20
519.8829078961505
 30
0.0
 40
10.000085
100
AcDbArc
 50
100.8880089999974
 51
169.11199
  0
ARC
  5
43F
330
1B
100
AcDbEntity
  8
4
100
AcDbCircle
 10
548.0877363997629
 20
522.3924278961506
 30
0.0
 40
7.999944999999999
100
AcDbArc
 50
276.3637510000001
 51
349.2819549999995
  0
ARC
  5
440
330
1B
100
AcDbEntity
  8
4
100
AcDbCircle
 10
570.1539013997631
 20
515.6624478961505
 30
0.0
 40
10.00007
100
AcDbArc
 50
100.0402290000017
 51
169.9597650000006
  0
ARC
  5
441
330
1B
100
AcDbEntity
  8
4
100
AcDbCircle
 10
620.7127363997629
 20
235.1036078961505
 30
0.0
 40
300.00001
100
AcDbArc
 50
90.0
 51
100.888391
  0
ARC
  5
442
330
1B
100
AcDbEntity
  8
4
100
AcDbCircle
 10
620.7127363997629
 20
230.1036078961505
 30
0.0
 40
299.999975
100
AcDbArc
 50
90.0
 51
100.040349
  0
ARC
  5
443
330
1B
100
AcDbEntity
  8
4
100
AcDbCircle
 10
563.423921399763
 20
392.4783678961505
 30
0.0
 40
7.999970000000001
100
AcDbArc
 50
6.363751000000086
 51
79.28023799999973
  0
ARC
  5
444
330
1B
100
AcDbEntity
  8
4
100
AcDbCircle
 10
565.9334413997626
 20
410.3243128961506
 30
0.0
 40
10.000085
100
AcDbArc
 50
190.8880099999999
 51
259.1119910000025
  0
ARC
  5
445
330
1B
100
AcDbEntity
  8
4
100
AcDbCircle
 10
570.1539013997631
 20
414.5447728961504
 30
0.0
 40
10.00007
100
AcDbArc
 50
190.0402349999994
 51
259.9597709999982
  0
ARC
  5
446
330
1B
100
AcDbEntity
  8
4
100
AcDbCircle
 10
548.0874913997627
 20
407.8147928961505
 30
0.0
 40
7.999970000000001
100
AcDbArc
 50
10.71976200000027
 51
83.63624899999913
  0
ARC
  5
447
330
1B
100
AcDbEntity
  8
4
100
AcDbCircle
 10
620.7127363997629
 20
695.1036078961506
 30
0.0
 40
299.999955
100
AcDbArc
 50
259.11246
 51
270.001072
  0
ARC
  5
448
330
1B
100
AcDbEntity
  8
4
100
AcDbCircle
 10
620.7127363997629
 20
700.1036078961506
 30
0.0
 40
299.999995
100
AcDbArc
 50
259.96041
 51
270.001072
  0
ARC
  5
449
330
1B
100
AcDbEntity
  8
4
100
AcDbCircle
 10
850.7127363997629
 20
465.1033678961505
 30
0.0
 40
300.00004
100
AcDbArc
 50
169.112515
 51
190.888107
  0
ARC
  5
44A
330
1B
100
AcDbEntity
  8
4
100
AcDbCircle
 10
855.7127363997629
 20
465.1033678961505
 30
0.0
 40
299.99997
100
AcDbArc
 50
169.9604100000001
 51
190.040349
  0
ARC
  5
44B
330
1B
100
AcDbEntity
  8
4
100
AcDbCircle
 10
468.5374463997628
 20
514.5269478961505
 30
0.0
 40
8.999965
100
AcDbArc
 50
162.0088830000003
 51
276.3652519999999
  0
ARC
  5
44C
330
1B
100
AcDbEntity
  8
4
100
AcDbCircle
 10
468.5374463997628
 20
415.6802728961505
 30
0.0
 40
8.99999
100
AcDbArc
 50
83.6362910000007
 51
197.9925999999999
  0
LINE
  5
44D
330
1B
100
AcDbEntity
  8
4
100
AcDbLine
 10
548.9742113997631
 20
415.7654778961505
 30
0.0
 11
469.5350013997627
 21
424.6248528961505
 31
0.0
  0
LINE
  5
44E
330
1B
100
AcDbEntity
  8
4
100
AcDbLine
 10
548.9742113997631
 20
514.4417428961506
 30
0.0
 11
469.5350013997627
 21
505.5823678961506
 31
0.0
  0
ARC
  5
44F
330
1B
100
AcDbEntity
  8
4
100
AcDbCircle
 10
571.2893963997626
 20
312.9283178961505
 30
0.0
 40
9.000024999999999
100
AcDbArc
 50
252.0059280000004
 51
6.363709000000037
  0
LINE
  5
450
330
1B
100
AcDbEntity
  8
4
100
AcDbLine
 10
600.7127363997629
 20
270.1036078961506
 30
0.0
 11
600.7127363997629
 21
255.1036078961506
 31
0.0
  0
LINE
  5
451
330
1B
100
AcDbEntity
  8
4
100
AcDbLine
 10
620.7127363997629
 20
273.1036078961505
 30
0.0
 11
605.1241163997629
 21
264.1036078961505
 31
0.0
  0
LINE
  5
452
330
1B
100
AcDbEntity
  8
4
100
AcDbLine
 10
605.1241163997629
 20
246.1036078961505
 30
0.0
 11
620.7127363997629
 21
237.1036078961505
 31
0.0
  0
LINE
  5
453
330
1B
100
AcDbEntity
  8
4
100
AcDbLine
 10
605.1241163997629
 20
246.1036078961505
 30
0.0
 11
605.1241163997629
 21
264.1036078961505
 31
0.0
  0
LINE
  5
454
330
1B
100
AcDbEntity
  8
4
100
AcDbLine
 10
571.3746013997629
 20
393.3650828961504
 30
0.0
 11
580.2337313997627
 21
313.9258778961505
 31
0.0
  0
ARC
  5
455
330
1B
100
AcDbEntity
  8
4
100
AcDbCircle
 10
620.7127363997629
 20
255.1036078961506
 30
0.0
 40
20.0
100
AcDbArc
 50
180.0
 51
0.0
  0
LINE
  5
456
330
1B
100
AcDbEntity
  8
4
100
AcDbLine
 10
620.7127363997629
 20
237.1036078961505
 30
0.0
 11
636.301116399763
 21
246.1036078961505
 31
0.0
  0
CIRCLE
  5
457
330
1B
100
AcDbEntity
  8
4
100
AcDbCircle
 10
620.7127363997629
 20
255.1036078961506
 30
0.0
 40
18.0
  0
ARC
  5
458
330
1B
100
AcDbEntity
  8
4
100
AcDbCircle
 10
620.7127363997629
 20
695.1036078961506
 30
0.0
 40
300.000065
100
AcDbArc
 50
270.001212
 51
280.889241
  0
ARC
  5
459
330
1B
100
AcDbEntity
  8
4
100
AcDbCircle
 10
620.7127363997629
 20
700.1036078961506
 30
0.0
 40
300.00004
100
AcDbArc
 50
270.001212
 51
280.041292
  0
ARC
  5
45A
330
1B
100
AcDbEntity
  8
4
100
AcDbCircle
 10
620.7127363997629
 20
255.1036078961506
 30
0.0
 40
25.0
100
AcDbArc
 50
36.86989800000043
 51
143.1301019999996
  0
LINE
  5
45B
330
1B
100
AcDbEntity
  8
4
100
AcDbLine
 10
636.301116399763
 20
264.1036078961505
 30
0.0
 11
620.7127363997629
 21
273.1036078961505
 31
0.0
  0
LINE
  5
45C
330
1B
100
AcDbEntity
  8
L-CENTER
100
AcDbLine
 10
594.844086399763
 20
255.1036078961506
 30
0.0
 11
646.5813863997628
 21
255.1036078961506
 31
0.0
  0
ARC
  5
45D
330
1B
100
AcDbEntity
  8
4
100
AcDbCircle
 10
620.7127363997629
 20
235.1036078961505
 30
0.0
 40
300.00004
100
AcDbArc
 50
79.111801
 51
90.0
  0
ARC
  5
45E
330
1B
100
AcDbEntity
  8
4
100
AcDbCircle
 10
620.7127363997629
 20
230.1036078961505
 30
0.0
 40
299.999955
100
AcDbArc
 50
79.959697
 51
90.0
  0
ARC
  5
45F
330
1B
100
AcDbEntity
  8
4
100
AcDbCircle
 10
797.7127363997629
 20
174.1036078961505
 30
0.0
 40
3.0
100
AcDbArc
 50
0.0
 51
90.0
  0
LINE
  5
460
330
1B
100
AcDbEntity
  8
4
100
AcDbLine
 10
800.7127363997629
 20
135.1036078961505
 30
0.0
 11
800.7127363997629
 21
177.1036078961505
 31
0.0
  0
LINE
  5
461
330
1B
100
AcDbEntity
  8
4
100
AcDbLine
 10
751.7127363997629
 20
177.1036078961505
 30
0.0
 11
751.7127363997629
 21
135.1036078961505
 31
0.0
  0
LINE
  5
462
330
1B
100
AcDbEntity
  8
4
100
AcDbLine
 10
729.7127363997629
 20
177.1036078961505
 30
0.0
 11
729.7127363997629
 21
135.1036078961505
 31
0.0
  0
LINE
  5
464
330
1B
100
AcDbEntity
  8
L-CENTER
100
AcDbLine
 10
740.7127363997629
 20
195.1036078961505
 30
0.0
 11
740.7127363997629
 21
117.1036078961505
 31
0.0
  0
ARC
  5
465
330
1B
100
AcDbEntity
  8
4
100
AcDbCircle
 10
695.7127363997629
 20
182.1036078961505
 30
0.0
 40
5.0
100
AcDbArc
 50
180.0
 51
270.0
  0
ARC
  5
466
330
1B
100
AcDbEntity
  8
4
100
AcDbCircle
 10
687.7127363997629
 20
149.1036078961505
 30
0.0
 40
3.0
100
AcDbArc
 50
0.0
 51
90.0
  0
ARC
  5
467
330
1B
100
AcDbEntity
  8
4
100
AcDbCircle
 10
682.7127363997629
 20
149.1036078961505
 30
0.0
 40
3.0
100
AcDbArc
 50
0.0
 51
90.0
  0
LINE
  5
468
330
1B
100
AcDbEntity
  8
4
100
AcDbLine
 10
690.7127363997629
 20
135.1036078961505
 30
0.0
 11
690.7127363997629
 21
149.1036078961505
 31
0.0
  0
LINE
  5
469
330
1B
100
AcDbEntity
  8
4
100
AcDbLine
 10
685.7127363997629
 20
135.1036078961505
 30
0.0
 11
685.7127363997629
 21
149.1036078961505
 31
0.0
  0
LWPOLYLINE
  5
46A
330
1B
100
AcDbEntity
  8
4
100
AcDbPolyline
 90
       30
 70
     0
 43
0.0
 10
708.6178513997629
 20
177.5966278961506
 10
709.4324313997627
 20
176.8254778961505
 10
710.2359263997628
 20
176.0529328961505
 10
711.017241399763
 20
175.2776078961505
 10
713.1172513997631
 20
172.9210478961505
 10
714.618496399763
 20
170.4893928961505
 10
714.9341063997631
 20
169.6556628961506
 10
715.1388313997627
 20
168.8080328961505
 10
715.221586399763
 20
167.9451028961505
 10
715.178531399763
 20
167.0849978961505
 10
715.0258463997629
 20
166.2104578961505
 10
714.781316399763
 20
165.3230278961505
 10
713.674551399763
 20
162.5987928961505
 10
712.3815313997629
 20
159.8140578961505
 10
711.3825163997631
 20
157.0104728961505
 10
711.1978513997628
 20
156.0789578961504
 10
711.117001399763
 20
155.1515128961505
 10
711.1577513997631
 20
154.2296928961506
 10
711.4587863997626
 20
152.8741328961505
 10
711.994556399763
 20
151.5339278961505
 10
712.6926763997631
 20
150.2086378961505
 10
715.0373613997631
 20
146.3180028961505
 10
715.6610913997629
 20
145.0481028961505
 10
716.0852713997629
 20
143.7909728961505
 10
716.2375163997626
 20
142.5461878961505
 10
715.9744063997628
 20
140.9997328961506
 10
715.2771263997629
 20
139.4682978961506
 10
714.254226399763
 20
137.9481278961505
 10
713.0142413997628
 20
136.4354728961505
 10
711.6657163997629
 20
134.9265678961505
  0
LINE
  5
46B
330
1B
100
AcDbEntity
  8
4
100
AcDbLine
 10
685.7127363997629
 20
135.1036078961505
 30
0.0
 11
800.7127363997629
 21
135.1036078961505
 31
0.0
  0
LINE
  5
46C
330
1B
100
AcDbEntity
  8
4
100
AcDbLine
 10
695.7127363997629
 20
177.1036078961505
 30
0.0
 11
797.7127363997629
 21
177.1036078961505
 31
0.0
  0
LINE
  5
471
330
1B
100
AcDbEntity
  8
2
100
AcDbLine
 10
626.640941399763
 20
176.6809578961505
 30
0.0
 11
626.640941399763
 21
183.5262578961505
 31
0.0
  0
LINE
  5
472
330
1B
100
AcDbEntity
  8
2
100
AcDbLine
 10
620.7127363997629
 20
186.9489078961504
 30
0.0
 11
614.7845363997626
 21
183.5262578961505
 31
0.0
  0
LINE
  5
473
330
1B
100
AcDbEntity
  8
2
100
AcDbLine
 10
614.7845363997626
 20
176.6809578961505
 30
0.0
 11
620.7127363997629
 21
173.2583128961505
 31
0.0
  0
LINE
  5
474
330
1B
100
AcDbEntity
  8
2
100
AcDbLine
 10
614.7845363997626
 20
183.5262578961505
 30
0.0
 11
614.7845363997626
 21
176.6809578961505
 31
0.0
  0
LINE
  5
475
330
1B
100
AcDbEntity
  8
2
100
AcDbLine
 10
626.640941399763
 20
183.5262578961505
 30
0.0
 11
620.7127363997629
 21
186.9489078961504
 31
0.0
  0
LINE
  5
476
330
1B
100
AcDbEntity
  8
2
100
AcDbLine
 10
620.7127363997629
 20
173.2583128961505
 30
0.0
 11
626.640941399763
 21
176.6809578961505
 31
0.0
  0
CIRCLE
  5
477
330
1B
100
AcDbEntity
  8
2
100
AcDbCircle
 10
620.7127363997629
 20
180.1036078961505
 30
0.0
 40
8.0
  0
ARC
  5
478
330
1B
100
AcDbEntity
  8
4
100
AcDbCircle
 10
545.7127363997629
 20
182.1036078961505
 30
0.0
 40
5.0
100
AcDbArc
 50
270.0
 51
0.0
  0
ARC
  5
479
330
1B
100
AcDbEntity
  8
4
100
AcDbCircle
 10
558.7127363997629
 20
149.1036078961505
 30
0.0
 40
3.0
100
AcDbArc
 50
90.0
 51
180.0
  0
LINE
  5
47A
330
1B
100
AcDbEntity
  8
4
100
AcDbLine
 10
555.7127363997629
 20
135.1036078961505
 30
0.0
 11
555.7127363997629
 21
149.1036078961505
 31
0.0
  0
LINE
  5
47B
330
1B
100
AcDbEntity
  8
4
100
AcDbLine
 10
550.7127363997629
 20
135.1036078961505
 30
0.0
 11
550.7127363997629
 21
149.1036078961505
 31
0.0
  0
ARC
  5
47C
330
1B
100
AcDbEntity
  8
4
100
AcDbCircle
 10
553.7127363997629
 20
149.1036078961505
 30
0.0
 40
3.0
100
AcDbArc
 50
90.0
 51
180.0
  0
LINE
  5
47D
330
1B
100
AcDbEntity
  8
4
100
AcDbLine
 10
620.7127363997629
 20
152.1036078961505
 30
0.0
 11
553.7127363997629
 21
152.1036078961505
 31
0.0
  0
LINE
  5
47E
330
1B
100
AcDbEntity
  8
L-CENTER
100
AcDbLine
 10
500.7127363997629
 20
195.1036078961505
 30
0.0
 11
500.7127363997629
 21
117.1036078961505
 31
0.0
  0
CIRCLE
  5
485
330
1B
100
AcDbEntity
  8
4
100
AcDbCircle
 10
620.7127363997629
 20
180.1036078961505
 30
0.0
 40
15.0
  0
LINE
  5
486
330
1B
100
AcDbEntity
  8
L-CENTER
100
AcDbLine
 10
642.0179113997629
 20
180.1036078961505
 30
0.0
 11
599.4075613997629
 21
180.1036078961505
 31
0.0
  0
LINE
  5
487
330
1B
100
AcDbEntity
  8
4
100
AcDbLine
 10
620.7127363997629
 20
152.1036078961505
 30
0.0
 11
687.7127363997629
 21
152.1036078961505
 31
0.0
  0
LINE
  5
48B
330
1B
100
AcDbEntity
  8
4
100
AcDbLine
 10
690.7127363997629
 20
255.0926228961505
 30
0.0
 11
690.7127363997629
 21
182.1036078961505
 31
0.0
  0
LINE
  5
48C
330
1B
100
AcDbEntity
  8
4
100
AcDbLine
 10
680.7127363997629
 20
270.1036078961506
 30
0.0
 11
680.7127363997629
 21
152.1036078961505
 31
0.0
  0
LINE
  5
48D
330
1B
100
AcDbEntity
  8
4
100
AcDbLine
 10
793.7127363997629
 20
282.1036078961505
 30
0.0
 11
793.7127363997629
 21
180.1036078961505
 31
0.0
  0
LINE
  5
48E
330
1B
100
AcDbEntity
  8
4
100
AcDbLine
 10
560.7127363997629
 20
270.1036078961506
 30
0.0
 11
560.7127363997629
 21
152.1036078961505
 31
0.0
  0
LINE
  5
48F
330
1B
100
AcDbEntity
  8
4
100
AcDbLine
 10
800.7127363997629
 20
177.1036078961505
 30
0.0
 11
806.1873463997631
 21
265.1036078961506
 31
0.0
  0
LINE
  5
490
330
1B
100
AcDbEntity
  8
4
100
AcDbLine
 10
550.7127363997629
 20
255.0926228961505
 30
0.0
 11
550.7127363997629
 21
182.1036078961505
 31
0.0
  0
LINE
  5
491
330
1B
100
AcDbEntity
  8
4
100
AcDbLine
 10
605.7127363997629
 20
241.8748528961505
 30
0.0
 11
605.7127363997629
 21
152.1036078961505
 31
0.0
  0
LINE
  5
492
330
1B
100
AcDbEntity
  8
4
100
AcDbLine
 10
635.7127363997629
 20
241.8748528961505
 30
0.0
 11
635.7127363997629
 21
152.1036078961505
 31
0.0
  0
ARC
  5
493
330
1B
100
AcDbEntity
  8
4
100
AcDbCircle
 10
808.8411563997629
 20
172.1036078961505
 30
0.0
 40
8.00003
100
AcDbArc
 50
90.0
 51
176.702223
  0
ARC
  5
497
330
1B
100
AcDbEntity
  8
4
100
AcDbCircle
 10
804.5079013997629
 20
288.1036078961505
 30
0.0
 40
3.000045
100
AcDbArc
 50
270.0
 51
356.701723
  0
LINE
  5
4B5
330
1B
100
AcDbEntity
  8
4
100
AcDbLine
 10
427.7127363997629
 20
350.1036078961506
 30
0.0
 11
414.9128363997629
 21
350.1036078961507
 31
0.0
  0
LINE
  5
4B6
330
1B
100
AcDbEntity
  8
4
100
AcDbLine
 10
430.3396913997626
 20
350.1036078961506
 30
0.0
 11
427.7127363997629
 21
350.1036078961506
 31
0.0
  0
ARC
  5
4B7
330
1B
100
AcDbEntity
  8
4
100
AcDbCircle
 10
414.9128363997629
 20
349.1036078961507
 30
0.0
 40
1.0
100
AcDbArc
 50
90.0
 51
180.0
  0
LINE
  5
4B8
330
1B
100
AcDbEntity
  8
4
100
AcDbLine
 10
411.4128363997629
 20
306.5540383199265
 30
0.0
 11
411.4128363997629
 21
326.1839474723739
 31
0.0
  0
LINE
  5
4B9
330
1B
100
AcDbEntity
  8
4
100
AcDbLine
 10
413.9128363997629
 20
306.5540383199265
 30
0.0
 11
413.9128363997629
 21
326.1839474723739
 31
0.0
  0
LINE
  5
4BA
330
1B
100
AcDbEntity
  8
4
100
AcDbLine
 10
404.4128363997629
 20
323.7302088283178
 30
0.0
 11
404.4128363997629
 21
309.0077769639826
 31
0.0
  0
ARC
  5
4BB
330
1B
100
AcDbEntity
  8
4
100
AcDbCircle
 10
418.1920016972222
 20
316.3689928961504
 30
0.0
 40
13.77916529745958
100
AcDbArc
 50
159.1359356360801
 51
200.8640643639194
  0
ARC
  5
4BC
330
1B
100
AcDbEntity
  8
4
100
AcDbCircle
 10
408.1964503288223
 20
309.0077769639826
 30
0.0
 40
3.783613929059507
100
AcDbArc
 50
139.5701031551704
 51
220.4298968448296
  0
ARC
  5
4BD
330
1B
100
AcDbEntity
  8
4
100
AcDbCircle
 10
408.1964503288223
 20
323.7302088283178
 30
0.0
 40
3.783613929059507
100
AcDbArc
 50
139.5701031551704
 51
220.4298968448296
  0
LINE
  5
4BE
330
1B
100
AcDbEntity
  8
L-CENTER
100
AcDbLine
 10
398.9279425318878
 20
316.3689928961505
 30
0.0
 11
443.4435675318882
 21
316.3689928961505
 31
0.0
  0
LINE
  5
4BF
330
1B
100
AcDbEntity
  8
4
100
AcDbLine
 10
413.9128363997629
 20
326.1839474723739
 30
0.0
 11
405.3163633456156
 21
326.1839474723739
 31
0.0
  0
LINE
  5
4C0
330
1B
100
AcDbEntity
  8
4
100
AcDbLine
 10
405.3163633456156
 20
306.5540383199265
 30
0.0
 11
413.9128363997629
 21
306.5540383199265
 31
0.0
  0
LINE
  5
4C1
330
1B
100
AcDbEntity
  8
4
100
AcDbLine
 10
405.3163633456156
 20
311.4615156080382
 30
0.0
 11
411.4128363997629
 21
311.4615156080382
 31
0.0
  0
LINE
  5
4C2
330
1B
100
AcDbEntity
  8
4
100
AcDbLine
 10
405.3163633456156
 20
321.2764701842622
 30
0.0
 11
411.4128363997629
 21
321.2764701842622
 31
0.0
  0
ARC
  5
4C3
330
1B
100
AcDbEntity
  8
4
100
AcDbCircle
 10
436.9175713997629
 20
288.1036078961505
 30
0.0
 40
3.000045
100
AcDbArc
 50
183.2982770000002
 51
270.0
  0
ARC
  5
4C4
330
1B
100
AcDbEntity
  8
4
100
AcDbCircle
 10
450.8271463997626
 20
295.2183778961505
 30
0.0
 40
5.0
100
AcDbArc
 50
194.1695060000015
 51
255.830443
  0
ARC
  5
4C5
330
1B
100
AcDbEntity
  8
4
100
AcDbCircle
 10
444.7127363997629
 20
282.1036078961505
 30
0.0
 40
3.0
100
AcDbArc
 50
0.0
 51
90.0
  0
LINE
  5
4C6
330
1B
100
AcDbEntity
  8
4
100
AcDbLine
 10
436.9175713997629
 20
285.1036078961506
 30
0.0
 11
444.7127363997629
 21
285.1036078961506
 31
0.0
  0
ARC
  5
4C7
330
1B
100
AcDbEntity
  8
4
100
AcDbCircle
 10
408.1964503288223
 20
221.1994438283177
 30
0.0
 40
3.783613929059507
100
AcDbArc
 50
139.5701031551777
 51
220.4298968448223
  0
LINE
  5
4C8
330
1B
100
AcDbEntity
  8
L-CENTER
100
AcDbLine
 10
398.9279425318878
 20
213.8382278961504
 30
0.0
 11
443.4435675318882
 21
213.8382278961504
 31
0.0
  0
LINE
  5
4C9
330
1B
100
AcDbEntity
  8
4
100
AcDbLine
 10
405.3163633456156
 20
218.7457051842621
 30
0.0
 11
411.4128363997629
 21
218.7457051842621
 31
0.0
  0
LINE
  5
4CA
330
1B
100
AcDbEntity
  8
4
100
AcDbLine
 10
413.9128363997629
 20
223.6531824723738
 30
0.0
 11
405.3163633456156
 21
223.6531824723738
 31
0.0
  0
LINE
  5
4CB
330
1B
100
AcDbEntity
  8
4
100
AcDbLine
 10
433.922696399763
 20
287.9310028961505
 30
0.0
 11
426.888241399763
 21
409.9979578961505
 31
0.0
  0
ARC
  5
4CC
330
1B
100
AcDbEntity
  8
4
100
AcDbCircle
 10
443.7127363997629
 20
174.1036078961505
 30
0.0
 40
3.0
100
AcDbArc
 50
90.0
 51
180.0
  0
ARC
  5
4CD
330
1B
100
AcDbEntity
  8
4
100
AcDbCircle
 10
414.9128363997629
 20
181.1036078961505
 30
0.0
 40
1.0
100
AcDbArc
 50
180.0
 51
270.0
  0
LINE
  5
4CE
330
1B
100
AcDbEntity
  8
4
100
AcDbLine
 10
432.7127363997629
 20
180.1036078961505
 30
0.0
 11
414.9128363997629
 21
180.1036078961505
 31
0.0
  0
LINE
  5
4CF
330
1B
100
AcDbEntity
  8
4
100
AcDbLine
 10
432.5843213997628
 20
180.1036078961505
 30
0.0
 11
427.7127363997629
 21
180.1036078961505
 31
0.0
  0
LINE
  5
4D0
330
1B
100
AcDbEntity
  8
4
100
AcDbLine
 10
440.7127363997629
 20
135.1036078961505
 30
0.0
 11
440.7127363997629
 21
172.1036078961505
 31
0.0
  0
ARC
  5
4D1
330
1B
100
AcDbEntity
  8
4
100
AcDbCircle
 10
432.7127363997629
 20
172.1036078961505
 30
0.0
 40
8.0
100
AcDbArc
 50
0.0
 51
90.0
  0
ARC
  5
4D2
330
1B
100
AcDbEntity
  8
4
100
AcDbCircle
 10
408.1964503288223
 20
206.4770119639825
 30
0.0
 40
3.783613929059507
100
AcDbArc
 50
139.5701031551777
 51
220.4298968448223
  0
LINE
  5
4D3
330
1B
100
AcDbEntity
  8
4
100
AcDbLine
 10
405.3163633456156
 20
208.9307506080381
 30
0.0
 11
411.4128363997629
 21
208.9307506080381
 31
0.0
  0
LINE
  5
4D4
330
1B
100
AcDbEntity
  8
4
100
AcDbLine
 10
405.3163633456156
 20
204.0232733199264
 30
0.0
 11
413.9128363997629
 21
204.0232733199264
 31
0.0
  0
LINE
  5
4D8
330
1B
100
AcDbEntity
  8
4
100
AcDbLine
 10
447.7127363997629
 20
282.1036078961505
 30
0.0
 11
447.7127363997629
 21
180.1036078961505
 31
0.0
  0
LINE
  5
4D9
330
1B
100
AcDbEntity
  8
4
100
AcDbLine
 10
440.8446413997631
 20
174.9833878961505
 30
0.0
 11
435.2381263997627
 21
265.1036078961506
 31
0.0
  0
LINE
  5
4DA
330
1B
100
AcDbEntity
  8
4
100
AcDbLine
 10
447.7127363997629
 20
282.1036078961505
 30
0.0
 11
447.7127363997629
 21
180.1036078961505
 31
0.0
  0
LINE
  5
4DB
330
1B
100
AcDbEntity
  8
4
100
AcDbLine
 10
427.4127363997627
 20
180.1036078961505
 30
0.0
 11
427.4127363997627
 21
350.1036078961506
 31
0.0
  0
LINE
  5
4DC
330
1B
100
AcDbEntity
  8
4
100
AcDbLine
 10
427.7127363997629
 20
180.1036078961505
 30
0.0
 11
427.7127363997629
 21
350.1036078961506
 31
0.0
  0
LINE
  5
4DD
330
1B
100
AcDbEntity
  8
4
100
AcDbLine
 10
413.9128363997629
 20
349.1036078961507
 30
0.0
 11
413.9128363997629
 21
181.1036078961505
 31
0.0
  0
LINE
  5
4DE
330
1B
100
AcDbEntity
  8
4
100
AcDbLine
 10
427.7127363997629
 20
180.1036078961505
 30
0.0
 11
427.7127363997629
 21
350.1036078961506
 31
0.0
  0
ARC
  5
4DF
330
1B
100
AcDbEntity
  8
4
100
AcDbCircle
 10
418.1920016972222
 20
213.8382278961503
 30
0.0
 40
13.77916529745958
100
AcDbArc
 50
159.1359356360801
 51
200.8640643639194
  0
LINE
  5
4E0
330
1B
100
AcDbEntity
  8
4
100
AcDbLine
 10
404.4128363997629
 20
221.1994438283177
 30
0.0
 11
404.4128363997629
 21
206.4770119639825
 31
0.0
  0
LINE
  5
4E1
330
1B
100
AcDbEntity
  8
4
100
AcDbLine
 10
413.9128363997629
 20
204.0232733199264
 30
0.0
 11
413.9128363997629
 21
223.6531824723738
 31
0.0
  0
LINE
  5
4E2
330
1B
100
AcDbEntity
  8
4
100
AcDbLine
 10
411.4128363997629
 20
204.0232733199264
 30
0.0
 11
411.4128363997629
 21
223.6531824723738
 31
0.0
  0
LWPOLYLINE
  5
505
330
1B
100
AcDbEntity
  8
4
100
AcDbPolyline
 90
       15
 70
     0
 43
0.0
 10
443.4604913997628
 20
260.7102028961506
 10
445.8827213997629
 20
259.0234678961505
 10
450.0054113997626
 20
256.4559928961505
 10
454.7805863997628
 20
253.8885178961505
 10
460.4396963997629
 20
251.3210428961505
 10
467.4306813997628
 20
248.7535678961506
 10
476.899171399763
 20
246.1860928961505
 10
500.7089313997626
 20
243.6186128961506
 10
524.5186913997627
 20
246.1860778961506
 10
533.9871813997629
 20
248.7535478961505
 10
540.9781663997628
 20
251.3210178961506
 10
546.6372813997627
 20
253.8884878961505
 10
551.412456399763
 20
256.4559578961505
 10
555.5351463997627
 20
259.0234328961506
 10
557.961761399763
 20
260.7133478961505
  0
LINE
  5
506
330
1B
100
AcDbEntity
  8
4
100
AcDbLine
 10
545.7127363997629
 20
177.1036078961505
 30
0.0
 11
443.7127363997629
 21
177.1036078961505
 31
0.0
  0
LINE
  5
507
330
1B
100
AcDbEntity
  8
4
100
AcDbLine
 10
555.7127363997629
 20
135.1036078961505
 30
0.0
 11
440.7127363997629
 21
135.1036078961505
 31
0.0
  0
LINE
  5
509
330
1B
100
AcDbEntity
  8
L-CENTER
100
AcDbLine
 10
826.4396962776774
 20
465.1036078961506
 30
0.0
 11
414.9857765218484
 21
465.1036078961506
 31
0.0
  0
ARC
  5
50A
330
1B
100
AcDbEntity
  8
4
100
AcDbCircle
 10
620.7129813997631
 20
968.1038528961503
 30
0.0
 40
699.0000450000001
100
AcDbArc
 50
255.830443
 51
268.363055
  0
LINE
  5
50B
330
1B
100
AcDbEntity
  8
L-CENTER
100
AcDbLine
 10
947.2594151874582
 20
265.1036078961506
 30
0.0
 11
406.4612872051725
 21
265.1036078961507
 31
0.0
  0
LINE
  5
50C
330
1B
100
AcDbEntity
  8
L-CENTER
100
AcDbLine
 10
620.7127363997629
 20
141.681825312862
 30
0.0
 11
620.7127363997629
 21
738.5911578961504
 31
0.0
  0
CIRCLE
  5
50D
330
1B
100
AcDbEntity
  8
4
100
AcDbCircle
 10
620.7127363997629
 20
465.1036078961506
 30
0.0
 40
169.0
  0
ARC
  5
50E
330
1B
100
AcDbEntity
  8
4
100
AcDbCircle
 10
620.7127363997629
 20
465.1036078961506
 30
0.0
 40
194.000075
100
AcDbArc
 50
275.4555699999999
 51
264.5454419999999
  0
ARC
  5
50F
330
1B
100
AcDbEntity
  8
4
100
AcDbCircle
 10
1123.712736399763
 20
465.1036078961506
 30
0.0
 40
699.00001
100
AcDbArc
 50
165.830496
 51
194.169506
  0
ARC
  5
511
330
1B
100
AcDbEntity
  8
4
100
AcDbCircle
 10
117.7127363997629
 20
465.1036078961506
 30
0.0
 40
698.9999399999999
100
AcDbArc
 50
345.830495
 51
14.16950899999999
  0
LINE
  5
513
330
1B
100
AcDbEntity
  8
4
100
AcDbLine
 10
670.0509060411787
 20
536.8420764025359
 30
0.0
 11
669.0801382337768
 21
545.546726216965
 31
0.0
  0
LINE
  5
514
330
1B
100
AcDbEntity
  8
4
100
AcDbLine
 10
571.3745667583471
 20
536.8420764025359
 30
0.0
 11
572.345334565749
 21
545.546726216965
 31
0.0
  0
CIRCLE
  5
53B
330
1B
100
AcDbEntity
  8
4
100
AcDbCircle
 10
620.7127363997629
 20
180.1036078961505
 30
0.0
 40
9.0
  0
LINE
  5
55B
330
1B
100
AcDbEntity
  8
L-CENTER
100
AcDbLine
 10
1675.28426794488
 20
465.1036078961506
 30
0.0
 11
1770.854125341111
 21
465.1036078961506
 31
0.0
  0
ARC
  5
55C
330
1B
100
AcDbEntity
  8
4
100
AcDbCircle
 10
1723.069196642995
 20
465.1036078961506
 30
0.0
 40
33.99992
100
AcDbArc
 50
105.3495140230844
 51
74.65048599999932
  0
LINE
  5
55D
330
1B
100
AcDbEntity
  8
L-CENTER
100
AcDbLine
 10
1723.069196642995
 20
512.888536594266
 30
0.0
 11
1723.069196642995
 21
417.3186791980353
 31
0.0
  0
LINE
  5
55E
330
1B
100
AcDbEntity
  8
4
100
AcDbLine
 10
1732.069196642995
 20
505.1036078961506
 30
0.0
 11
1714.069196642995
 21
505.1036078961506
 31
0.0
  0
LINE
  5
55F
330
1B
100
AcDbEntity
  8
4
100
AcDbLine
 10
1732.069196642995
 20
493.1036078961506
 30
0.0
 11
1714.069196642995
 21
493.1036078961506
 31
0.0
  0
LINE
  5
560
330
1B
100
AcDbEntity
  8
4
100
AcDbLine
 10
1714.069196642995
 20
493.1036078961506
 30
0.0
 11
1714.069196642995
 21
505.1036078961506
 31
0.0
  0
LINE
  5
561
330
1B
100
AcDbEntity
  8
4
100
AcDbLine
 10
1732.069196642995
 20
505.1036078961506
 30
0.0
 11
1732.069196642995
 21
493.1036078961506
 31
0.0
  0
ENDSEC
  0
SECTION
  2
OBJECTS
  0
DICTIONARY
  5
9
330
0
100
AcDbDictionary
281
     1
  3
ACAD_COLOR
350
2E
  3
ACAD_GROUP
350
2C
  3
ACAD_LAYOUT
350
24
  3
ACAD_MATERIAL
350
B
  3
ACAD_MLEADERSTYLE
350
518
  3
ACAD_MLINESTYLE
350
19
  3
ACAD_PLOTSETTINGS
350
2D
  3
ACAD_PLOTSTYLENAME
350
8
  3
ACAD_SCALELIST
350
33
  3
ACAD_VISUALSTYLE
350
2F
  3
ACDBHEADERROUNDTRIPXREC
350
565
  3
AcDbVariableDictionary
350
515
  3
DWGPROPS
350
568
  0
DICTIONARY
  5
569
330
2B
100
AcDbDictionary
280
     1
281
     1
  3
ACAD_XREC_ROUNDTRIP
360
56A
  0
DICTIONARY
  5
3
330
2
100
AcDbDictionary
280
     1
281
     1
  3
ACAD_LAYERSTATES
360
4
  0
DICTIONARY
  5
20
330
1F
100
AcDbDictionary
280
     1
281
     1
  3
ADSK_XREC_LAYER_RECONCILED
360
21
  0
DICTIONARY
  5
D2
330
D1
100
AcDbDictionary
280
     1
281
     1
  3
ADSK_XREC_LAYER_RECONCILED
360
D3
  0
DICTIONARY
  5
5
330
1
100
AcDbDictionary
280
     1
281
     1
  3
ADSK_XREC_LAYER_RECONCILED
360
6
  0
DICTIONARY
  5
62
330
61
100
AcDbDictionary
280
     1
281
     1
  3
ADSK_XREC_LAYER_RECONCILED
360
63
  0
DICTIONARY
  5
67
330
66
100
AcDbDictionary
280
     1
281
     1
  3
ADSK_XREC_LAYER_RECONCILED
360
68
  0
DICTIONARY
  5
59
330
58
100
AcDbDictionary
280
     1
281
     1
  3
ADSK_XREC_LAYER_RECONCILED
360
5A
  0
DICTIONARY
  5
1C
330
1B
100
AcDbDictionary
280
     1
281
     1
  3
ACAD_SORTENTS
360
1D
  0
DICTIONARY
  5
2E
102
{ACAD_REACTORS
330
9
102
}
330
9
100
AcDbDictionary
281
     1
  0
DICTIONARY
  5
2C
102
{ACAD_REACTORS
330
9
102
}
330
9
100
AcDbDictionary
281
     1
  0
DICTIONARY
  5
24
102
{ACAD_REACTORS
330
9
102
}
330
9
100
AcDbDictionary
281
     1
  3
Model
350
23
  3
ﾚｲｱｳﾄ1
350
28
  0
DICTIONARY
  5
B
102
{ACAD_REACTORS
330
9
102
}
330
9
100
AcDbDictionary
281
     1
  3
ByBlock
350
56
  3
ByLayer
350
14
  3
Global
350
A
  0
DICTIONARY
  5
518
102
{ACAD_REACTORS
330
9
102
}
330
9
100
AcDbDictionary
281
     1
  3
Standard
350
539
  0
DICTIONARY
  5
19
102
{ACAD_REACTORS
330
9
102
}
330
9
100
AcDbDictionary
281
     1
  3
STANDARD
350
18
  0
DICTIONARY
  5
2D
102
{ACAD_REACTORS
330
9
102
}
330
9
100
AcDbDictionary
281
     1
  0
ACDBDICTIONARYWDFLT
  5
8
102
{ACAD_REACTORS
330
9
102
}
330
9
100
AcDbDictionary
281
     1
  3
Normal
350
7
100
AcDbDictionaryWithDefault
340
7
  0
DICTIONARY
  5
33
102
{ACAD_REACTORS
330
9
102
}
330
9
100
AcDbDictionary
281
     1
  3
*A1
350
55
  0
DICTIONARY
  5
2F
102
{ACAD_REACTORS
330
9
102
}
330
9
100
AcDbDictionary
281
     1
  3
2dWireframe
350
520
  3
Basic
350
523
  3
Brighten
350
527
  3
ColorChange
350
52B
  3
Conceptual
350
525
  3
Dim
350
526
  3
EdgeColorOff
350
52E
  3
Facepattern
350
52A
  3
Flat
350
51C
  3
FlatWithEdges
350
51D
  3
Gouraud
350
51E
  3
GouraudWithEdges
350
51F
  3
Hidden
350
522
  3
JitterOff
350
52C
  3
Linepattern
350
529
  3
OverhangOff
350
52D
  3
Realistic
350
524
  3
Shaded
350
533
  3
Shaded with edges
350
532
  3
Shades of Gray
350
52F
  3
Sketchy
350
530
  3
Thicken
350
528
  3
Wireframe
350
521
  3
X-Ray
350
531
  0
DICTIONARY
  5
565
102
{ACAD_REACTORS
330
9
102
}
330
9
100
AcDbDictionary
281
     1
  3
COLORDICT
350
566
  3
MATERIALDICT
350
567
  0
DICTIONARY
  5
515
102
{ACAD_REACTORS
330
9
102
}
330
9
100
AcDbDictionary
281
     1
  3
CANNOSCALE
350
516
  3
CMLEADERSTYLE
350
540
  3
DIMASSOC
350
563
  3
HIDETEXT
350
564
  3
MSLTSCALE
350
56B
  3
XCLIPFRAME
350
519
  0
XRECORD
  5
568
102
{ACAD_REACTORS
330
9
102
}
330
9
100
AcDbXrecord
280
     1
  1
DWGPROPS COOKIE
  2

  3

  4

  6

  7

  8
sg-d03
  9

300
=
301
=
302
=
303
=
304
=
305
=
306
=
307
=
308
=
309
=
 40
0.0
 41
2457547.05098537
 42
2457863.294613403
  1

 90
        0
  0
XRECORD
  5
56A
102
{ACAD_REACTORS
330
569
102
}
330
569
100
AcDbXrecord
280
     1
102
VTR_0.000_0.000_1.000_1.000_GRIDDISPLAY
 70
     3
102
VTR_0.000_0.000_1.000_1.000_GRIDMAJOR
 70
     5
102
VTR_0.000_0.000_1.000_1.000_DEFAULTLIGHTING
280
     1
102
VTR_0.000_0.000_1.000_1.000_DEFAULTLIGHTINGTYPE
 70
     1
102
VTR_0.000_0.000_1.000_1.000_BRIGHTNESS
141
0.0
102
VTR_0.000_0.000_1.000_1.000_CONTRAST
142
0.0
  0
DICTIONARY
  5
4
102
{ACAD_REACTORS
330
3
102
}
330
3
100
AcDbDictionary
281
     1
  0
XRECORD
  5
21
102
{ACAD_REACTORS
330
20
102
}
330
20
100
AcDbXrecord
280
     1
290
     1
  0
XRECORD
  5
D3
102
{ACAD_REACTORS
330
D2
102
}
330
D2
100
AcDbXrecord
280
     1
290
     1
  0
XRECORD
  5
6
102
{ACAD_REACTORS
330
5
102
}
330
5
100
AcDbXrecord
280
     1
290
     1
  0
XRECORD
  5
63
102
{ACAD_REACTORS
330
62
102
}
330
62
100
AcDbXrecord
280
     1
290
     1
  0
XRECORD
  5
68
102
{ACAD_REACTORS
330
67
102
}
330
67
100
AcDbXrecord
280
     1
290
     1
  0
XRECORD
  5
5A
102
{ACAD_REACTORS
330
59
102
}
330
59
100
AcDbXrecord
280
     1
290
     1
  0
SORTENTSTABLE
  5
1D
102
{ACAD_REACTORS
330
1C
102
}
330
1C
100
AcDbSortentsTable
330
1B
331
0
  5
53E
331
0
  5
4DC
331
0
  5
4DB
331
0
  5
4DA
331
0
  5
4D9
331
0
  5
4D8
331
0
  5
4D7
331
60
  5
4D6
331
64
  5
4D5
331
65
  5
4D4
331
6A
  5
4D3
331
0
  5
4D2
331
0
  5
4D1
331
0
  5
4D0
331
0
  5
4CF
331
0
  5
4CE
331
0
  5
4CD
331
0
  5
4CC
331
0
  5
4CB
331
0
  5
4CA
331
0
  5
4C9
331
0
  5
4C8
331
0
  5
4C7
331
0
  5
4C6
331
0
  5
4C5
331
0
  5
4C4
331
0
  5
4C3
331
0
  5
4C2
331
0
  5
4C1
331
0
  5
4C0
331
0
  5
4BF
331
0
  5
4BE
331
0
  5
4BD
331
0
  5
4BC
331
0
  5
4BB
331
0
  5
4BA
331
0
  5
4B9
331
0
  5
4B8
331
0
  5
4B7
331
0
  5
4B6
331
0
  5
4B5
331
0
  5
4B4
331
0
  5
4B3
331
0
  5
4B2
331
0
  5
4B1
331
0
  5
4B0
331
0
  5
4AF
331
0
  5
4AE
331
0
  5
4AD
331
0
  5
4AC
331
0
  5
4AB
331
0
  5
4AA
331
0
  5
4A9
331
0
  5
4A8
331
0
  5
4A7
331
0
  5
4A6
331
0
  5
4A5
331
0
  5
4A4
331
0
  5
4A3
331
0
  5
4A2
331
0
  5
4A1
331
0
  5
4A0
331
0
  5
49F
331
0
  5
49E
331
0
  5
49D
331
0
  5
49C
331
0
  5
49B
331
0
  5
49A
331
0
  5
499
331
0
  5
498
331
0
  5
497
331
0
  5
496
331
0
  5
495
331
0
  5
494
331
0
  5
493
331
0
  5
492
331
0
  5
491
331
0
  5
490
331
0
  5
48F
331
0
  5
48E
331
0
  5
48D
331
0
  5
48C
331
0
  5
48B
331
0
  5
48A
331
0
  5
489
331
0
  5
488
331
0
  5
487
331
0
  5
486
331
0
  5
485
331
0
  5
484
331
0
  5
483
331
0
  5
482
331
0
  5
481
331
0
  5
480
331
0
  5
47F
331
0
  5
47E
331
0
  5
47D
331
0
  5
47C
331
0
  5
47B
331
0
  5
47A
331
0
  5
479
331
0
  5
478
331
0
  5
477
331
0
  5
476
331
0
  5
475
331
0
  5
474
331
0
  5
473
331
0
  5
472
331
0
  5
471
331
0
  5
470
331
0
  5
46F
331
0
  5
46E
331
0
  5
46D
331
0
  5
46C
331
0
  5
46B
331
0
  5
46A
331
0
  5
469
331
0
  5
468
331
0
  5
467
331
0
  5
466
331
0
  5
465
331
0
  5
464
331
0
  5
463
331
0
  5
462
331
0
  5
461
331
0
  5
460
331
0
  5
45F
331
0
  5
45E
331
0
  5
45D
331
0
  5
45C
331
0
  5
45B
331
0
  5
45A
331
0
  5
459
331
0
  5
458
331
0
  5
457
331
0
  5
456
331
0
  5
455
331
0
  5
454
331
0
  5
453
331
0
  5
452
331
0
  5
451
331
0
  5
450
331
0
  5
44F
331
0
  5
44E
331
0
  5
44D
331
0
  5
44C
331
0
  5
44B
331
0
  5
44A
331
0
  5
449
331
0
  5
448
331
0
  5
447
331
0
  5
446
331
0
  5
445
331
0
  5
444
331
0
  5
443
331
0
  5
442
331
0
  5
441
331
0
  5
440
331
0
  5
43F
331
0
  5
43E
331
0
  5
43D
331
0
  5
43C
331
0
  5
43B
331
0
  5
43A
331
0
  5
439
331
0
  5
438
331
0
  5
437
331
0
  5
436
331
0
  5
435
331
0
  5
434
331
0
  5
433
331
0
  5
432
331
0
  5
431
331
0
  5
430
331
0
  5
42F
331
0
  5
42E
331
0
  5
42D
331
0
  5
42C
331
0
  5
42B
331
0
  5
42A
331
0
  5
429
331
0
  5
428
331
0
  5
427
331
0
  5
426
331
0
  5
425
331
0
  5
424
331
0
  5
423
331
0
  5
422
331
0
  5
421
331
0
  5
420
331
0
  5
41F
331
0
  5
41E
331
0
  5
41D
331
0
  5
41C
331
0
  5
41B
331
0
  5
41A
331
0
  5
419
331
0
  5
418
331
0
  5
417
331
0
  5
416
331
0
  5
415
331
0
  5
414
331
0
  5
413
331
0
  5
412
331
0
  5
411
331
0
  5
410
331
0
  5
40F
331
0
  5
40E
331
0
  5
40D
331
0
  5
40C
331
0
  5
40B
331
0
  5
40A
331
0
  5
409
331
0
  5
408
331
0
  5
407
331
0
  5
406
331
0
  5
405
331
0
  5
404
331
0
  5
403
331
0
  5
402
331
0
  5
401
331
0
  5
400
331
0
  5
3FF
331
0
  5
3FE
331
0
  5
3FD
331
0
  5
3FC
331
0
  5
3FB
331
0
  5
3FA
331
0
  5
3F9
331
0
  5
3F8
331
0
  5
3F7
331
0
  5
3F6
331
0
  5
3F5
331
0
  5
3F4
331
0
  5
3F3
331
0
  5
3F2
331
0
  5
3F1
331
0
  5
3F0
331
0
  5
3EF
331
0
  5
3EE
331
0
  5
3ED
331
0
  5
3EC
331
0
  5
3EB
331
0
  5
3EA
331
0
  5
3E9
331
0
  5
3E8
331
0
  5
3E7
331
0
  5
3E6
331
0
  5
3E5
331
0
  5
3E4
331
0
  5
3E3
331
0
  5
3E2
331
0
  5
3E1
331
0
  5
3E0
331
0
  5
3DF
331
0
  5
3DE
331
0
  5
3DD
331
0
  5
3DC
331
0
  5
3DB
331
0
  5
3DA
331
0
  5
3D9
331
0
  5
3D8
331
0
  5
3D7
331
0
  5
3D6
331
0
  5
3D5
331
0
  5
3D4
331
0
  5
3D3
331
0
  5
3D2
331
0
  5
3D1
331
0
  5
3D0
331
0
  5
3CF
331
0
  5
3CE
331
0
  5
3CD
331
0
  5
3CC
331
0
  5
3CB
331
0
  5
3CA
331
0
  5
3C9
331
0
  5
3C8
331
0
  5
3C7
331
0
  5
3C6
331
0
  5
3C5
331
0
  5
3C4
331
0
  5
3C3
331
0
  5
3C2
331
0
  5
3C1
331
0
  5
3C0
331
0
  5
3BF
331
0
  5
3BE
331
0
  5
3BD
331
0
  5
3BC
331
0
  5
3BB
331
0
  5
3BA
331
0
  5
3B9
331
0
  5
3B8
331
0
  5
3B7
331
0
  5
3B6
331
0
  5
3B5
331
0
  5
3B4
331
0
  5
3B3
331
0
  5
3B2
331
0
  5
3B1
331
0
  5
3B0
331
0
  5
3AF
331
0
  5
3AE
331
0
  5
3AD
331
0
  5
3AC
331
0
  5
3AB
331
0
  5
3AA
331
0
  5
3A9
331
0
  5
3A8
331
0
  5
3A7
331
0
  5
3A6
331
0
  5
3A5
331
0
  5
3A4
331
0
  5
3A3
331
0
  5
3A2
331
0
  5
3A1
331
0
  5
3A0
331
0
  5
39F
331
0
  5
39E
331
0
  5
39D
331
0
  5
39C
331
1A6
  5
39B
331
0
  5
39A
331
1A8
  5
399
331
1A9
  5
398
331
1AA
  5
397
331
1AB
  5
396
331
1AC
  5
395
331
1AD
  5
394
331
1AE
  5
393
331
1AF
  5
392
331
1B0
  5
391
331
1B1
  5
390
331
1B2
  5
38F
331
1B3
  5
38E
331
1B4
  5
38D
331
1B5
  5
38C
331
1B6
  5
38B
331
1B7
  5
38A
331
1B8
  5
389
331
1B9
  5
388
331
1BA
  5
387
331
1BB
  5
386
331
1BC
  5
385
331
1BD
  5
384
331
1BE
  5
383
331
1BF
  5
382
331
1C0
  5
381
331
1C1
  5
380
331
1C2
  5
37F
331
1C3
  5
37E
331
1C4
  5
37D
331
1C5
  5
37C
331
1C6
  5
37B
331
1C7
  5
37A
331
1C8
  5
379
331
1C9
  5
378
331
0
  5
377
331
0
  5
376
331
0
  5
375
331
0
  5
374
331
1CE
  5
373
331
1CF
  5
372
331
1D0
  5
371
331
0
  5
370
331
0
  5
36F
331
0
  5
36E
331
0
  5
36D
331
1D5
  5
36C
331
0
  5
36B
331
0
  5
36A
331
0
  5
369
331
0
  5
368
331
0
  5
367
331
0
  5
366
331
0
  5
365
331
1DD
  5
364
331
1DE
  5
363
331
1DF
  5
362
331
1E0
  5
361
331
1E1
  5
360
331
1E2
  5
35F
331
1E3
  5
35E
331
1E4
  5
35D
331
1E5
  5
35C
331
1E6
  5
35B
331
1E7
  5
35A
331
1E8
  5
359
331
1E9
  5
358
331
1EA
  5
357
331
1EB
  5
356
331
1EC
  5
355
331
1ED
  5
354
331
1EE
  5
353
331
1EF
  5
352
331
1F0
  5
351
331
1F1
  5
350
331
1F2
  5
34F
331
1F3
  5
34E
331
1F4
  5
34D
331
1F5
  5
34C
331
1F6
  5
34B
331
1F7
  5
34A
331
1F8
  5
349
331
1F9
  5
348
331
1FA
  5
347
331
1FB
  5
346
331
1FC
  5
345
331
1FD
  5
344
331
1FE
  5
343
331
1FF
  5
342
331
200
  5
341
331
201
  5
340
331
202
  5
33F
331
203
  5
33E
331
204
  5
33D
331
205
  5
33C
331
206
  5
33B
331
207
  5
33A
331
208
  5
339
331
209
  5
338
331
20A
  5
337
331
20B
  5
336
331
20C
  5
335
331
20D
  5
334
331
20E
  5
333
331
20F
  5
332
331
210
  5
331
331
211
  5
330
331
212
  5
32F
331
213
  5
32E
331
214
  5
32D
331
215
  5
32C
331
216
  5
32B
331
217
  5
32A
331
218
  5
329
331
219
  5
328
331
21A
  5
327
331
21B
  5
326
331
21C
  5
325
331
21D
  5
324
331
21E
  5
323
331
21F
  5
322
331
220
  5
321
331
221
  5
320
331
222
  5
31F
331
223
  5
31E
331
224
  5
31D
331
225
  5
31C
331
226
  5
31B
331
227
  5
31A
331
0
  5
319
331
0
  5
318
331
22A
  5
317
331
22B
  5
316
331
22C
  5
315
331
22D
  5
314
331
22E
  5
313
331
22F
  5
312
331
0
  5
311
331
0
  5
310
331
0
  5
30F
331
0
  5
30E
331
234
  5
30D
331
235
  5
30C
331
236
  5
30B
331
237
  5
30A
331
238
  5
309
331
239
  5
308
331
23A
  5
307
331
23B
  5
306
331
23C
  5
305
331
23D
  5
304
331
23E
  5
303
331
23F
  5
302
331
240
  5
301
331
241
  5
300
331
242
  5
2FF
331
243
  5
2FE
331
244
  5
2FD
331
0
  5
2FC
331
246
  5
2FB
331
247
  5
2FA
331
0
  5
2F9
331
0
  5
2F8
331
0
  5
2F7
331
0
  5
2F6
331
0
  5
2F5
331
0
  5
2F4
331
0
  5
2F3
331
0
  5
2F2
331
0
  5
2F1
331
0
  5
2F0
331
0
  5
2EF
331
0
  5
2EE
331
0
  5
2ED
331
255
  5
2EC
331
256
  5
2EB
331
257
  5
2EA
331
258
  5
2E9
331
0
  5
2E8
331
0
  5
2E7
331
0
  5
2E6
331
0
  5
2E5
331
0
  5
2E4
331
0
  5
2E3
331
0
  5
2E2
331
0
  5
2E1
331
0
  5
2E0
331
0
  5
2DF
331
0
  5
2DE
331
0
  5
2DD
331
265
  5
2DC
331
0
  5
2DB
331
267
  5
2DA
331
268
  5
2D9
331
269
  5
2D8
331
0
  5
2D7
331
26B
  5
2D6
331
26C
  5
2D5
331
0
  5
2D4
331
26E
  5
2D3
331
26F
  5
2D2
331
270
  5
2D1
331
271
  5
2D0
331
0
  5
2CF
331
273
  5
2CE
331
0
  5
2CD
331
0
  5
2CC
331
276
  5
2CB
331
277
  5
2CA
331
278
  5
2C9
331
279
  5
2C8
331
27A
  5
2C7
331
27B
  5
2C6
331
27C
  5
2C5
331
27D
  5
2C4
331
27E
  5
2C3
331
27F
  5
2C2
331
280
  5
2C1
331
0
  5
2C0
331
0
  5
2BF
331
283
  5
2BE
331
284
  5
2BD
331
285
  5
2BC
331
286
  5
2BB
331
287
  5
2BA
331
288
  5
2B9
331
289
  5
2B8
331
28A
  5
2B7
331
28B
  5
2B6
331
28C
  5
2B5
331
28D
  5
2B4
331
28E
  5
2B3
331
28F
  5
2B2
331
290
  5
2B1
331
291
  5
2B0
331
292
  5
2AF
331
293
  5
2AE
331
294
  5
2AD
331
295
  5
2AC
331
296
  5
2AB
331
297
  5
2AA
331
298
  5
2A9
331
299
  5
2A8
331
29A
  5
2A7
331
29B
  5
2A6
331
29C
  5
2A5
331
29D
  5
2A4
331
29E
  5
2A3
331
29F
  5
2A2
331
2A0
  5
2A1
331
2A1
  5
2A0
331
2A2
  5
29F
331
2A3
  5
29E
331
2A4
  5
29D
331
2A5
  5
29C
331
2A6
  5
29B
331
2A7
  5
29A
331
2A8
  5
299
331
2A9
  5
298
331
2AA
  5
297
331
2AB
  5
296
331
2AC
  5
295
331
2AD
  5
294
331
2AE
  5
293
331
2AF
  5
292
331
2B0
  5
291
331
2B1
  5
290
331
2B2
  5
28F
331
2B3
  5
28E
331
2B4
  5
28D
331
2B5
  5
28C
331
2B6
  5
28B
331
2B7
  5
28A
331
2B8
  5
289
331
2B9
  5
288
331
2BA
  5
287
331
2BB
  5
286
331
2BC
  5
285
331
2BD
  5
284
331
2BE
  5
283
331
2BF
  5
282
331
2C0
  5
281
331
2C1
  5
280
331
2C2
  5
27F
331
2C3
  5
27E
331
2C4
  5
27D
331
2C5
  5
27C
331
2C6
  5
27B
331
2C7
  5
27A
331
2C8
  5
279
331
2C9
  5
278
331
2CA
  5
277
331
2CB
  5
276
331
2CC
  5
275
331
2CD
  5
274
331
2CE
  5
273
331
2CF
  5
272
331
2D0
  5
271
331
2D1
  5
270
331
2D2
  5
26F
331
2D3
  5
26E
331
2D4
  5
26D
331
2D5
  5
26C
331
2D6
  5
26B
331
2D7
  5
26A
331
2D8
  5
269
331
2D9
  5
268
331
2DA
  5
267
331
2DB
  5
266
331
2DC
  5
265
331
2DD
  5
264
331
2DE
  5
263
331
2DF
  5
262
331
2E0
  5
261
331
2E1
  5
260
331
2E2
  5
25F
331
2E3
  5
25E
331
2E4
  5
25D
331
2E5
  5
25C
331
2E6
  5
25B
331
2E7
  5
25A
331
2E8
  5
259
331
2E9
  5
258
331
2EA
  5
257
331
2EB
  5
256
331
2EC
  5
255
331
2ED
  5
254
331
2EE
  5
253
331
2EF
  5
252
331
2F0
  5
251
331
2F1
  5
250
331
2F2
  5
24F
331
2F3
  5
24E
331
2F4
  5
24D
331
2F5
  5
24C
331
2F6
  5
24B
331
2F7
  5
24A
331
2F8
  5
249
331
2F9
  5
248
331
2FA
  5
247
331
2FB
  5
246
331
2FC
  5
245
331
2FD
  5
244
331
2FE
  5
243
331
2FF
  5
242
331
300
  5
241
331
301
  5
240
331
302
  5
23F
331
303
  5
23E
331
304
  5
23D
331
305
  5
23C
331
306
  5
23B
331
307
  5
23A
331
308
  5
239
331
309
  5
238
331
30A
  5
237
331
30B
  5
236
331
30C
  5
235
331
30D
  5
234
331
30E
  5
233
331
30F
  5
232
331
310
  5
231
331
311
  5
230
331
312
  5
22F
331
313
  5
22E
331
314
  5
22D
331
315
  5
22C
331
316
  5
22B
331
317
  5
22A
331
318
  5
229
331
319
  5
228
331
31A
  5
227
331
31B
  5
226
331
0
  5
225
331
0
  5
224
331
0
  5
223
331
31F
  5
222
331
320
  5
221
331
321
  5
220
331
322
  5
21F
331
323
  5
21E
331
324
  5
21D
331
325
  5
21C
331
326
  5
21B
331
327
  5
21A
331
328
  5
219
331
329
  5
218
331
32A
  5
217
331
32B
  5
216
331
0
  5
215
331
32D
  5
214
331
32E
  5
213
331
32F
  5
212
331
330
  5
211
331
331
  5
210
331
332
  5
20F
331
333
  5
20E
331
334
  5
20D
331
335
  5
20C
331
336
  5
20B
331
337
  5
20A
331
338
  5
209
331
339
  5
208
331
33A
  5
207
331
33B
  5
206
331
33C
  5
205
331
33D
  5
204
331
33E
  5
203
331
33F
  5
202
331
340
  5
201
331
341
  5
200
331
342
  5
1FF
331
343
  5
1FE
331
344
  5
1FD
331
345
  5
1FC
331
346
  5
1FB
331
347
  5
1FA
331
348
  5
1F9
331
349
  5
1F8
331
34A
  5
1F7
331
0
  5
1F6
331
34C
  5
1F5
331
34D
  5
1F4
331
34E
  5
1F3
331
34F
  5
1F2
331
350
  5
1F1
331
351
  5
1F0
331
352
  5
1EF
331
353
  5
1EE
331
354
  5
1ED
331
355
  5
1EC
331
356
  5
1EB
331
357
  5
1EA
331
358
  5
1E9
331
359
  5
1E8
331
35A
  5
1E7
331
35B
  5
1E6
331
35C
  5
1E5
331
0
  5
1E4
331
0
  5
1E3
331
0
  5
1E2
331
0
  5
1E1
331
0
  5
1E0
331
362
  5
1DF
331
363
  5
1DE
331
364
  5
1DD
331
365
  5
1DC
331
366
  5
1DB
331
367
  5
1DA
331
368
  5
1D9
331
369
  5
1D8
331
36A
  5
1D7
331
36B
  5
1D6
331
36C
  5
1D5
331
36D
  5
1D4
331
36E
  5
1D3
331
36F
  5
1D2
331
370
  5
1D1
331
371
  5
1D0
331
372
  5
1CF
331
373
  5
1CE
331
374
  5
1CD
331
375
  5
1CC
331
376
  5
1CB
331
377
  5
1CA
331
378
  5
1C9
331
379
  5
1C8
331
37A
  5
1C7
331
37B
  5
1C6
331
37C
  5
1C5
331
37D
  5
1C4
331
37E
  5
1C3
331
37F
  5
1C2
331
380
  5
1C1
331
381
  5
1C0
331
382
  5
1BF
331
383
  5
1BE
331
384
  5
1BD
331
385
  5
1BC
331
386
  5
1BB
331
387
  5
1BA
331
388
  5
1B9
331
389
  5
1B8
331
38A
  5
1B7
331
38B
  5
1B6
331
38C
  5
1B5
331
38D
  5
1B4
331
38E
  5
1B3
331
38F
  5
1B2
331
390
  5
1B1
331
391
  5
1B0
331
392
  5
1AF
331
393
  5
1AE
331
394
  5
1AD
331
395
  5
1AC
331
396
  5
1AB
331
397
  5
1AA
331
398
  5
1A9
331
399
  5
1A8
331
39A
  5
1A7
331
0
  5
1A6
331
39C
  5
1A5
331
39D
  5
1A4
331
39E
  5
1A3
331
39F
  5
1A2
331
0
  5
1A1
331
3A1
  5
1A0
331
3A2
  5
19F
331
3A3
  5
19E
331
3A4
  5
19D
331
3A5
  5
19C
331
3A6
  5
19B
331
3A7
  5
19A
331
3A8
  5
199
331
3A9
  5
198
331
3AA
  5
197
331
3AB
  5
196
331
3AC
  5
195
331
3AD
  5
194
331
3AE
  5
193
331
3AF
  5
192
331
3B0
  5
191
331
3B1
  5
190
331
3B2
  5
18F
331
3B3
  5
18E
331
3B4
  5
18D
331
3B5
  5
18C
331
3B6
  5
18B
331
3B7
  5
18A
331
3B8
  5
189
331
3B9
  5
188
331
3BA
  5
187
331
3BB
  5
186
331
3BC
  5
185
331
3BD
  5
184
331
3BE
  5
183
331
3BF
  5
182
331
3C0
  5
181
331
3C1
  5
180
331
3C2
  5
17F
331
3C3
  5
17E
331
3C4
  5
17D
331
3C5
  5
17C
331
3C6
  5
17B
331
3C7
  5
17A
331
3C8
  5
179
331
3C9
  5
178
331
3CA
  5
177
331
3CB
  5
176
331
3CC
  5
175
331
3CD
  5
174
331
3CE
  5
173
331
3CF
  5
172
331
3D0
  5
171
331
3D1
  5
170
331
3D2
  5
16F
331
3D3
  5
16E
331
3D4
  5
16D
331
3D5
  5
16C
331
3D6
  5
16B
331
3D7
  5
16A
331
3D8
  5
169
331
0
  5
168
331
0
  5
167
331
0
  5
166
331
3DC
  5
165
331
3DD
  5
164
331
3DE
  5
163
331
0
  5
162
331
0
  5
161
331
3E1
  5
160
331
3E2
  5
15F
331
3E3
  5
15E
331
3E4
  5
15D
331
3E5
  5
15C
331
3E6
  5
15B
331
3E7
  5
15A
331
3E8
  5
159
331
3E9
  5
158
331
3EA
  5
157
331
0
  5
156
331
0
  5
155
331
0
  5
154
331
3EE
  5
153
331
3EF
  5
152
331
3F0
  5
151
331
3F1
  5
150
331
0
  5
14F
331
3F3
  5
14E
331
3F4
  5
14D
331
3F5
  5
14C
331
3F6
  5
14B
331
3F7
  5
14A
331
3F8
  5
149
331
3F9
  5
148
331
3FA
  5
147
331
3FB
  5
146
331
3FC
  5
145
331
3FD
  5
144
331
3FE
  5
143
331
3FF
  5
142
331
400
  5
141
331
401
  5
140
331
402
  5
13F
331
403
  5
13E
331
404
  5
13D
331
405
  5
13C
331
406
  5
13B
331
407
  5
13A
331
408
  5
139
331
409
  5
138
331
40A
  5
137
331
40B
  5
136
331
40C
  5
135
331
0
  5
134
331
0
  5
133
331
40F
  5
132
331
0
  5
131
331
0
  5
130
331
0
  5
12F
331
0
  5
12E
331
0
  5
12D
331
0
  5
12C
331
0
  5
12B
331
417
  5
12A
331
418
  5
129
331
419
  5
128
331
41A
  5
127
331
41B
  5
126
331
41C
  5
125
331
0
  5
124
331
41E
  5
123
331
41F
  5
122
331
420
  5
121
331
421
  5
120
331
422
  5
11F
331
423
  5
11E
331
424
  5
11D
331
425
  5
11C
331
426
  5
11B
331
427
  5
11A
331
428
  5
119
331
429
  5
118
331
42A
  5
117
331
42B
  5
116
331
42C
  5
115
331
42D
  5
114
331
42E
  5
113
331
42F
  5
112
331
430
  5
111
331
431
  5
110
331
432
  5
10F
331
433
  5
10E
331
434
  5
10D
331
435
  5
10C
331
436
  5
10B
331
437
  5
10A
331
438
  5
109
331
439
  5
108
331
43A
  5
107
331
43B
  5
106
331
43C
  5
105
331
43D
  5
104
331
43E
  5
103
331
43F
  5
102
331
440
  5
101
331
441
  5
100
331
442
  5
FF
331
443
  5
FE
331
444
  5
FD
331
445
  5
FC
331
446
  5
FB
331
447
  5
FA
331
448
  5
F9
331
449
  5
F8
331
44A
  5
F7
331
44B
  5
F6
331
44C
  5
F5
331
44D
  5
F4
331
44E
  5
F3
331
44F
  5
F2
331
450
  5
F1
331
451
  5
F0
331
452
  5
EF
331
453
  5
EE
331
454
  5
ED
331
455
  5
EC
331
456
  5
EB
331
457
  5
EA
331
458
  5
E9
331
459
  5
E8
331
45A
  5
E7
331
45B
  5
E6
331
45C
  5
E5
331
45D
  5
E4
331
45E
  5
E3
331
45F
  5
E2
331
460
  5
E1
331
461
  5
E0
331
462
  5
DF
331
0
  5
DE
331
464
  5
DD
331
465
  5
DC
331
466
  5
DB
331
467
  5
DA
331
468
  5
D9
331
469
  5
D8
331
46A
  5
D7
331
46B
  5
D6
331
46C
  5
D5
331
0
  5
D4
331
0
  5
D0
331
0
  5
CF
331
0
  5
CE
331
471
  5
CD
331
472
  5
CC
331
473
  5
CB
331
474
  5
CA
331
475
  5
C8
331
476
  5
C7
331
477
  5
C5
331
478
  5
C4
331
479
  5
C3
331
47A
  5
C2
331
47B
  5
C1
331
47C
  5
C0
331
47D
  5
BF
331
47E
  5
BE
331
0
  5
BD
331
0
  5
BC
331
0
  5
BB
331
0
  5
BA
331
0
  5
B9
331
0
  5
B8
331
485
  5
B7
331
486
  5
B6
331
487
  5
B5
331
0
  5
B4
331
0
  5
B3
331
0
  5
B2
331
48B
  5
B1
331
48C
  5
B0
331
48D
  5
AF
331
48E
  5
AE
331
48F
  5
AD
331
490
  5
AC
331
491
  5
AB
331
492
  5
AA
331
493
  5
A9
331
0
  5
A8
331
0
  5
A7
331
0
  5
A6
331
497
  5
A5
331
0
  5
A4
331
0
  5
A3
331
0
  5
A2
331
0
  5
A1
331
0
  5
A0
331
0
  5
9F
331
0
  5
9E
331
0
  5
9D
331
0
  5
9C
331
0
  5
9B
331
0
  5
9A
331
0
  5
99
331
0
  5
98
331
0
  5
97
331
0
  5
96
331
0
  5
95
331
0
  5
94
331
0
  5
93
331
0
  5
92
331
0
  5
91
331
0
  5
90
331
0
  5
8F
331
0
  5
8E
331
0
  5
8D
331
0
  5
8C
331
0
  5
8B
331
0
  5
8A
331
0
  5
89
331
0
  5
88
331
4B5
  5
87
331
4B6
  5
86
331
4B7
  5
85
331
4B8
  5
84
331
4B9
  5
83
331
4BA
  5
82
331
4BB
  5
81
331
4BC
  5
80
331
4BD
  5
7F
331
4BE
  5
7E
331
4BF
  5
7D
331
4C0
  5
7C
331
4C1
  5
7B
331
4C2
  5
7A
331
4C3
  5
79
331
4C4
  5
78
331
4C5
  5
77
331
4C6
  5
76
331
4C7
  5
75
331
4C8
  5
74
331
4C9
  5
73
331
4CA
  5
72
331
4CB
  5
71
331
4CC
  5
70
331
4CD
  5
6F
331
4CE
  5
6E
331
4CF
  5
6D
331
4D0
  5
6C
331
4D1
  5
6B
331
4D2
  5
6A
331
4D3
  5
65
331
4D4
  5
64
331
0
  5
60
331
0
  5
5F
331
0
  5
5E
331
4D8
  5
5D
331
4D9
  5
5C
331
4DA
  5
5B
331
4DB
  5
57
331
4DC
  5
4DD
331
4DD
  5
4DE
331
4DE
  5
4DF
331
4DF
  5
4E0
331
4E0
  5
4E1
331
4E1
  5
4E2
331
4E2
  5
4E3
331
0
  5
4E4
331
0
  5
4E5
331
0
  5
4E6
331
0
  5
4E7
331
0
  5
4E8
331
0
  5
4E9
331
0
  5
4EA
331
0
  5
4EB
331
0
  5
4EC
331
0
  5
4ED
331
0
  5
4EE
331
0
  5
4EF
331
0
  5
4F0
331
0
  5
4F1
331
0
  5
4F2
331
0
  5
4F3
331
0
  5
4F4
331
0
  5
4F5
331
0
  5
4F6
331
0
  5
4F7
331
0
  5
4F8
331
0
  5
4F9
331
0
  5
4FA
331
0
  5
4FB
331
0
  5
4FC
331
0
  5
4FD
331
0
  5
4FE
331
0
  5
4FF
331
0
  5
500
331
0
  5
501
331
0
  5
502
331
0
  5
503
331
0
  5
504
331
0
  5
505
331
505
  5
506
331
506
  5
507
331
507
  5
509
331
0
  5
50B
331
509
  5
50C
331
50A
  5
50D
331
50B
  5
50E
331
50C
  5
50F
331
50D
  5
510
331
50E
  5
511
331
50F
  5
512
331
0
  5
513
331
511
  5
514
331
0
  5
535
331
513
  5
536
331
514
  5
537
331
0
  5
538
331
0
  5
53B
331
0
  5
53C
331
0
  5
53D
331
53B
  5
C6
  0
LAYOUT
  5
23
102
{ACAD_REACTORS
330
24
102
}
330
24
100
AcDbPlotSettings
  1

  2
Bullzip PDF Printer
  4
A4
  6

 40
0.0
 41
0.0
 42
0.0
 43
0.0
 44
209.9
 45
297.1
 46
3.32223053892217
 47
0.0
 48
238.9813021345261
 49
1583.395380080175
140
984.5448152746412
141
2093.459041015852
142
1.0
143
2.509469919690727
 70
 11956
 72
     1
 73
     3
 74
     4
  7
monochrome.ctb
 75
     0
147
0.3984905306708129
148
-238.9813021345261
149
-1583.395380080175
100
AcDbLayout
  1
Model
 70
     0
 71
     0
 10
0.0
 20
0.0
 11
12.0
 21
9.0
 12
0.0
 22
0.0
 32
0.0
 14
398.9279425318878
 24
108.1649635792578
 34
0.0
 15
1770.854125341111
 25
1396.602002151945
 35
0.0
146
0.0
 13
0.0
 23
0.0
 33
0.0
 16
1.0
 26
0.0
 36
0.0
 17
0.0
 27
1.0
 37
0.0
 76
     0
330
1B
331
30
1001
ACAD_PSEXT
1000
Bullzip PDF Printer
1000
Bullzip PDF Printer
1000
BULLZIP
1000
Bullzip PDF Printer 10.1.0.1871
1070
     0
  0
LAYOUT
  5
28
102
{ACAD_REACTORS
330
24
102
}
330
24
100
AcDbPlotSettings
  1

  2
SR-LP8300F
  4

  6

 40
0.0
 41
0.0
 42
0.0
 43
0.0
 44
0.0
 45
0.0
 46
0.0
 47
0.0
 48
0.0
 49
0.0
140
0.0
141
0.0
142
1.0
143
1.0
 70
   688
 72
     0
 73
     0
 74
     5
  7
monochrome.ctb
 75
    16
147
1.0
148
0.0
149
0.0
100
AcDbLayout
  1
ﾚｲｱｳﾄ1
 70
     0
 71
     1
 10
0.0
 20
0.0
 11
12.0
 21
9.0
 12
0.0
 22
0.0
 32
0.0
 14
1000000000000000E+20
 24
1000000000000000E+20
 34
1000000000000000E+20
 15
-1000000000000000E+20
 25
-1000000000000000E+20
 35
-1000000000000000E+20
146
0.0
 13
0.0
 23
0.0
 33
0.0
 16
1.0
 26
0.0
 36
0.0
 17
0.0
 27
1.0
 37
0.0
 76
     0
330
25
  0
MATERIAL
  5
56
102
{ACAD_REACTORS
330
B
102
}
102
{ACAD_XDICTIONARY
360
570
102
}
330
B
100
AcDbMaterial
  1
ByBlock
 72
     0
 73
     2
 43
0.0208333333333333
 43
0.0
 43
0.0
 43
0.0
 43
0.0
 43
0.0208333333333333
 43
0.0
 43
0.0
 43
0.0
 43
0.0
 43
1.0
 43
0.0
 43
0.0
 43
0.0
 43
0.0
 43
1.0
 77
     0
 78
     2
 47
0.0208333333333333
 47
0.0
 47
0.0
 47
0.0
 47
0.0
 47
0.0208333333333333
 47
0.0
 47
0.0
 47
0.0
 47
0.0
 47
1.0
 47
0.0
 47
0.0
 47
0.0
 47
0.0
 47
1.0
171
     0
172
     2
 49
0.0208333333333333
 49
0.0
 49
0.0
 49
0.0
 49
0.0
 49
0.0208333333333333
 49
0.0
 49
0.0
 49
0.0
 49
0.0
 49
1.0
 49
0.0
 49
0.0
 49
0.0
 49
0.0
 49
1.0
175
     0
176
     2
142
0.0208333333333333
142
0.0
142
0.0
142
0.0
142
0.0
142
0.0208333333333333
142
0.0
142
0.0
142
0.0
142
0.0
142
1.0
142
0.0
142
0.0
142
0.0
142
0.0
142
1.0
179
     0
270
     2
144
0.0208333333333333
144
0.0
144
0.0
144
0.0
144
0.0
144
0.0208333333333333
144
0.0
144
0.0
144
0.0
144
0.0
144
1.0
144
0.0
144
0.0
144
0.0
144
0.0
144
1.0
274
     2
147
0.0208333333333333
147
0.0
147
0.0
147
0.0
147
0.0
147
0.0208333333333333
147
0.0
147
0.0
147
0.0
147
0.0
147
1.0
147
0.0
147
0.0
147
0.0
147
0.0
147
1.0
  0
MATERIAL
  5
14
102
{ACAD_REACTORS
330
B
102
}
102
{ACAD_XDICTIONARY
360
56C
102
}
330
B
100
AcDbMaterial
  1
ByLayer
 72
     0
 73
     2
 43
0.0208333333333333
 43
0.0
 43
0.0
 43
0.0
 43
0.0
 43
0.0208333333333333
 43
0.0
 43
0.0
 43
0.0
 43
0.0
 43
1.0
 43
0.0
 43
0.0
 43
0.0
 43
0.0
 43
1.0
 77
     0
 78
     2
 47
0.0208333333333333
 47
0.0
 47
0.0
 47
0.0
 47
0.0
 47
0.0208333333333333
 47
0.0
 47
0.0
 47
0.0
 47
0.0
 47
1.0
 47
0.0
 47
0.0
 47
0.0
 47
0.0
 47
1.0
171
     0
172
     2
 49
0.0208333333333333
 49
0.0
 49
0.0
 49
0.0
 49
0.0
 49
0.0208333333333333
 49
0.0
 49
0.0
 49
0.0
 49
0.0
 49
1.0
 49
0.0
 49
0.0
 49
0.0
 49
0.0
 49
1.0
175
     0
176
     2
142
0.0208333333333333
142
0.0
142
0.0
142
0.0
142
0.0
142
0.0208333333333333
142
0.0
142
0.0
142
0.0
142
0.0
142
1.0
142
0.0
142
0.0
142
0.0
142
0.0
142
1.0
179
     0
270
     2
144
0.0208333333333333
144
0.0
144
0.0
144
0.0
144
0.0
144
0.0208333333333333
144
0.0
144
0.0
144
0.0
144
0.0
144
1.0
144
0.0
144
0.0
144
0.0
144
0.0
144
1.0
274
     2
147
0.0208333333333333
147
0.0
147
0.0
147
0.0
147
0.0
147
0.0208333333333333
147
0.0
147
0.0
147
0.0
147
0.0
147
1.0
147
0.0
147
0.0
147
0.0
147
0.0
147
1.0
  0
MATERIAL
  5
A
102
{ACAD_REACTORS
330
B
102
}
102
{ACAD_XDICTIONARY
360
56E
102
}
330
B
100
AcDbMaterial
  1
Global
 72
     0
 73
     2
 43
0.0208333333333333
 43
0.0
 43
0.0
 43
0.0
 43
0.0
 43
0.0208333333333333
 43
0.0
 43
0.0
 43
0.0
 43
0.0
 43
1.0
 43
0.0
 43
0.0
 43
0.0
 43
0.0
 43
1.0
 77
     0
 78
     2
 47
0.0208333333333333
 47
0.0
 47
0.0
 47
0.0
 47
0.0
 47
0.0208333333333333
 47
0.0
 47
0.0
 47
0.0
 47
0.0
 47
1.0
 47
0.0
 47
0.0
 47
0.0
 47
0.0
 47
1.0
171
     0
172
     2
 49
0.0208333333333333
 49
0.0
 49
0.0
 49
0.0
 49
0.0
 49
0.0208333333333333
 49
0.0
 49
0.0
 49
0.0
 49
0.0
 49
1.0
 49
0.0
 49
0.0
 49
0.0
 49
0.0
 49
1.0
175
     0
176
     2
142
0.0208333333333333
142
0.0
142
0.0
142
0.0
142
0.0
142
0.0208333333333333
142
0.0
142
0.0
142
0.0
142
0.0
142
1.0
142
0.0
142
0.0
142
0.0
142
0.0
142
1.0
179
     0
270
     2
144
0.0208333333333333
144
0.0
144
0.0
144
0.0
144
0.0
144
0.0208333333333333
144
0.0
144
0.0
144
0.0
144
0.0
144
1.0
144
0.0
144
0.0
144
0.0
144
0.0
144
1.0
274
     2
147
0.0208333333333333
147
0.0
147
0.0
147
0.0
147
0.0
147
0.0208333333333333
147
0.0
147
0.0
147
0.0
147
0.0
147
1.0
147
0.0
147
0.0
147
0.0
147
0.0
147
1.0
1001
ACAD
1070
    -1
1070
     3
1070
     0
1000

1071
        0
  0
MLEADERSTYLE
  5
539
102
{ACAD_REACTORS
330
518
102
}
102
{ACAD_XDICTIONARY
360
5A2
102
}
330
518
100
AcDbMLeaderStyle
170
     2
171
     1
172
     0
 90
        2
 40
0.0
 41
0.0
173
     1
 91
-1056964608
340
11
 92
       -2
290
     1
 42
0.09
291
     1
 43
0.36
  3
Standard
341
0
 44
0.18
300

342
12
174
     1
178
     6
175
     1
176
     0
 93
-1056964608
 45
0.18
292
     0
297
     0
 46
0.18
343
0
 94
-1056964608
 47
1.0
 49
1.0
140
1.0
293
     1
141
0.0
294
     1
177
     0
142
1.0
295
     0
296
     0
143
0.125
1001
ACAD_MLEADERVER
1070
     2
  0
MLINESTYLE
  5
18
102
{ACAD_REACTORS
330
19
102
}
330
19
100
AcDbMlineStyle
  2
STANDARD
 70
     0
  3

 62
     0
 51
90.0
 52
90.0
 71
     2
 49
0.5
 62
   256
  6
BYLAYER
 49
-0.5
 62
   256
  6
BYLAYER
  0
ACDBPLACEHOLDER
  5
7
102
{ACAD_REACTORS
330
8
102
}
330
8
  0
SCALE
  5
55
102
{ACAD_REACTORS
330
33
102
}
330
33
100
AcDbScale
 70
     0
300
1:1
140
1.0
141
1.0
290
     1
  0
VISUALSTYLE
  5
520
102
{ACAD_REACTORS
330
2F
102
}
102
{ACAD_XDICTIONARY
360
57A
102
}
330
2F
100
AcDbVisualStyle
  2
2dWireframe
 70
     4
 71
     0
 72
     2
 73
     0
 90
        0
 40
0.6
 41
30.0
 62
     5
 63
     7
 74
     1
 91
        4
 64
     7
 65
   257
 75
     1
175
     1
 42
1.0
 92
        0
 66
   257
 43
1.0
 76
     1
 77
     6
 78
     2
 67
     7
 79
     5
170
     0
171
     0
290
     0
174
     0
 93
        1
 44
0.0
173
     0
291
     0
 45
0.0
1001
ACAD
1000
AcDbSavedByObjectVersion
1070
     0
  0
VISUALSTYLE
  5
523
102
{ACAD_REACTORS
330
2F
102
}
102
{ACAD_XDICTIONARY
360
580
102
}
330
2F
100
AcDbVisualStyle
  2
Basic
 70
     7
 71
     1
 72
     0
 73
     1
 90
        0
 40
0.6
 41
30.0
 62
     5
 63
     7
 74
     0
 91
        4
 64
     7
 65
   257
 75
     1
175
     1
 42
1.0
 92
        8
 66
     7
 43
1.0
 76
     1
 77
     6
 78
     2
 67
     7
 79
     5
170
     0
171
     0
290
     0
174
     0
 93
        1
 44
0.0
173
     0
291
     1
 45
0.0
1001
ACAD
1000
AcDbSavedByObjectVersion
1070
     0
  0
VISUALSTYLE
  5
527
102
{ACAD_REACTORS
330
2F
102
}
102
{ACAD_XDICTIONARY
360
588
102
}
330
2F
100
AcDbVisualStyle
  2
Brighten
 70
    12
 71
     2
 72
     2
 73
     0
 90
        0
 40
0.6
 41
30.0
 62
     5
 63
     7
 74
     1
 91
        4
 64
     7
 65
   257
 75
     1
175
     1
 42
1.0
 92
        8
 66
     7
 43
1.0
 76
     1
 77
     6
 78
     2
 67
     7
 79
     5
170
     0
171
     0
290
     0
174
     0
 93
        1
 44
50.0
173
     0
291
     1
 45
0.0
1001
ACAD
1000
AcDbSavedByObjectVersion
1070
     0
  0
VISUALSTYLE
  5
52B
102
{ACAD_REACTORS
330
2F
102
}
102
{ACAD_XDICTIONARY
360
590
102
}
330
2F
100
AcDbVisualStyle
  2
ColorChange
 70
    16
 71
     2
 72
     2
 73
     3
 90
        0
 40
0.6
 41
30.0
 62
     5
 63
     8
 74
     1
 91
        4
 64
     7
 65
   257
 75
     1
175
     1
 42
1.0
 92
        8
 66
     8
 43
1.0
 76
     1
 77
     6
 78
     2
 67
     7
 79
     5
170
     0
171
     0
290
     0
174
     0
 93
        1
 44
0.0
173
     0
291
     1
 45
0.0
1001
ACAD
1000
AcDbSavedByObjectVersion
1070
     0
  0
VISUALSTYLE
  5
525
102
{ACAD_REACTORS
330
2F
102
}
102
{ACAD_XDICTIONARY
360
584
102
}
330
2F
100
AcDbVisualStyle
  2
Conceptual
 70
     9
 71
     3
 72
     2
 73
     0
 90
        0
 40
0.6
 41
30.0
 62
     5
 63
     7
 74
     2
 91
        2
 64
     7
 65
   257
 75
     1
175
     1
 42
40.0
 92
        8
 66
     7
 43
1.0
 76
     1
 77
     6
 78
     2
 67
     7
 79
     3
170
     0
171
     0
290
     0
174
     0
 93
        1
 44
0.0
173
     0
291
     0
 45
0.0
1001
ACAD
1000
AcDbSavedByObjectVersion
1070
     0
  0
VISUALSTYLE
  5
526
102
{ACAD_REACTORS
330
2F
102
}
102
{ACAD_XDICTIONARY
360
586
102
}
330
2F
100
AcDbVisualStyle
  2
Dim
 70
    11
 71
     2
 72
     2
 73
     0
 90
        0
 40
0.6
 41
30.0
 62
     5
 63
     7
 74
     1
 91
        4
 64
     7
 65
   257
 75
     1
175
     1
 42
1.0
 92
        8
 66
     7
 43
1.0
 76
     1
 77
     6
 78
     2
 67
     7
 79
     5
170
     0
171
     0
290
     0
174
     0
 93
        1
 44
-50.0
173
     0
291
     1
 45
0.0
1001
ACAD
1000
AcDbSavedByObjectVersion
1070
     0
  0
VISUALSTYLE
  5
52E
102
{ACAD_REACTORS
330
2F
102
}
102
{ACAD_XDICTIONARY
360
596
102
}
330
2F
100
AcDbVisualStyle
  2
EdgeColorOff
 70
    22
 71
     2
 72
     2
 73
     0
 90
        0
 40
0.6
 41
30.0
 62
     5
 63
     7
 74
     1
 91
        4
 64
     7
 65
   257
 75
     1
175
     1
 42
1.0
 92
        8
 66
     7
 43
1.0
 76
     1
 77
     6
 78
     2
 67
     7
 79
     5
170
     0
171
     0
290
     0
174
     0
 93
        1
 44
0.0
173
     0
291
     1
 45
0.0
1001
ACAD
1000
AcDbSavedByObjectVersion
1070
     0
  0
VISUALSTYLE
  5
52A
102
{ACAD_REACTORS
330
2F
102
}
102
{ACAD_XDICTIONARY
360
58E
102
}
330
2F
100
AcDbVisualStyle
  2
Facepattern
 70
    15
 71
     2
 72
     2
 73
     0
 90
        0
 40
0.6
 41
30.0
 62
     5
 63
     7
 74
     1
 91
        4
 64
     7
 65
   257
 75
     1
175
     1
 42
1.0
 92
        8
 66
     7
 43
1.0
 76
     1
 77
     6
 78
     2
 67
     7
 79
     5
170
     0
171
     0
290
     0
174
     0
 93
        1
 44
0.0
173
     0
291
     1
 45
0.0
1001
ACAD
1000
AcDbSavedByObjectVersion
1070
     0
  0
VISUALSTYLE
  5
51C
102
{ACAD_REACTORS
330
2F
102
}
102
{ACAD_XDICTIONARY
360
572
102
}
330
2F
100
AcDbVisualStyle
  2
Flat
 70
     0
 71
     2
 72
     1
 73
     1
 90
        2
 40
0.6
 41
30.0
 62
     5
 63
     7
 74
     0
 91
        4
 64
     7
 65
   257
 75
     1
175
     1
 42
1.0
 92
        8
 66
     7
 43
1.0
 76
     1
 77
     6
 78
     2
 67
     7
 79
     5
170
     0
171
     0
290
     0
174
     0
 93
       13
 44
0.0
173
     0
291
     1
 45
0.0
1001
ACAD
1000
AcDbSavedByObjectVersion
1070
     0
  0
VISUALSTYLE
  5
51D
102
{ACAD_REACTORS
330
2F
102
}
102
{ACAD_XDICTIONARY
360
574
102
}
330
2F
100
AcDbVisualStyle
  2
FlatWithEdges
 70
     1
 71
     2
 72
     1
 73
     1
 90
        2
 40
0.6
 41
30.0
 62
     5
 63
     7
 74
     1
 91
        4
 64
     7
 65
   257
 75
     1
175
     1
 42
1.0
 92
        0
 66
   257
 43
1.0
 76
     1
 77
     6
 78
     2
 67
     7
 79
     5
170
     0
171
     0
290
     0
174
     0
 93
       13
 44
0.0
173
     0
291
     1
 45
0.0
1001
ACAD
1000
AcDbSavedByObjectVersion
1070
     0
  0
VISUALSTYLE
  5
51E
102
{ACAD_REACTORS
330
2F
102
}
102
{ACAD_XDICTIONARY
360
576
102
}
330
2F
100
AcDbVisualStyle
  2
Gouraud
 70
     2
 71
     2
 72
     2
 73
     1
 90
        2
 40
0.6
 41
30.0
 62
     5
 63
     7
 74
     0
 91
        4
 64
     7
 65
   257
 75
     1
175
     1
 42
1.0
 92
        0
 66
     7
 43
1.0
 76
     1
 77
     6
 78
     2
 67
     7
 79
     5
170
     0
171
     0
290
     0
174
     0
 93
       13
 44
0.0
173
     0
291
     1
 45
0.0
1001
ACAD
1000
AcDbSavedByObjectVersion
1070
     0
  0
VISUALSTYLE
  5
51F
102
{ACAD_REACTORS
330
2F
102
}
102
{ACAD_XDICTIONARY
360
578
102
}
330
2F
100
AcDbVisualStyle
  2
GouraudWithEdges
 70
     3
 71
     2
 72
     2
 73
     1
 90
        2
 40
0.6
 41
30.0
 62
     5
 63
     7
 74
     1
 91
        4
 64
     7
 65
   257
 75
     1
175
     1
 42
1.0
 92
        0
 66
   257
 43
1.0
 76
     1
 77
     6
 78
     2
 67
     7
 79
     5
170
     0
171
     0
290
     0
174
     0
 93
       13
 44
0.0
173
     0
291
     1
 45
0.0
1001
ACAD
1000
AcDbSavedByObjectVersion
1070
     0
  0
VISUALSTYLE
  5
522
102
{ACAD_REACTORS
330
2F
102
}
102
{ACAD_XDICTIONARY
360
57E
102
}
330
2F
100
AcDbVisualStyle
  2
Hidden
 70
     6
 71
     1
 72
     2
 73
     2
 90
        0
 40
0.6
 41
30.0
 62
     5
 63
     7
 74
     2
 91
        2
 64
     7
 65
   257
 75
     2
175
     1
 42
40.0
 92
        0
 66
   257
 43
1.0
 76
     1
 77
     6
 78
     2
 67
     7
 79
     3
170
     0
171
     0
290
     0
174
     0
 93
        1
 44
0.0
173
     0
291
     0
 45
0.0
1001
ACAD
1000
AcDbSavedByObjectVersion
1070
     0
  0
VISUALSTYLE
  5
52C
102
{ACAD_REACTORS
330
2F
102
}
102
{ACAD_XDICTIONARY
360
592
102
}
330
2F
100
AcDbVisualStyle
  2
JitterOff
 70
    20
 71
     2
 72
     2
 73
     0
 90
        0
 40
0.6
 41
30.0
 62
     5
 63
     7
 74
     1
 91
        4
 64
     7
 65
   257
 75
     1
175
     1
 42
1.0
 92
       10
 66
     7
 43
1.0
 76
     1
 77
     6
 78
     2
 67
     7
 79
     5
170
     0
171
     0
290
     0
174
     0
 93
        1
 44
0.0
173
     0
291
     1
 45
0.0
1001
ACAD
1000
AcDbSavedByObjectVersion
1070
     0
  0
VISUALSTYLE
  5
529
102
{ACAD_REACTORS
330
2F
102
}
102
{ACAD_XDICTIONARY
360
58C
102
}
330
2F
100
AcDbVisualStyle
  2
Linepattern
 70
    14
 71
     2
 72
     2
 73
     0
 90
        0
 40
0.6
 41
30.0
 62
     5
 63
     7
 74
     1
 91
        4
 64
     7
 65
   257
 75
     7
175
     7
 42
1.0
 92
        8
 66
     7
 43
1.0
 76
     1
 77
     6
 78
     2
 67
     7
 79
     5
170
     0
171
     0
290
     0
174
     0
 93
        1
 44
0.0
173
     0
291
     1
 45
0.0
1001
ACAD
1000
AcDbSavedByObjectVersion
1070
     0
  0
VISUALSTYLE
  5
52D
102
{ACAD_REACTORS
330
2F
102
}
102
{ACAD_XDICTIONARY
360
594
102
}
330
2F
100
AcDbVisualStyle
  2
OverhangOff
 70
    21
 71
     2
 72
     2
 73
     0
 90
        0
 40
0.6
 41
30.0
 62
     5
 63
     7
 74
     1
 91
        4
 64
     7
 65
   257
 75
     1
175
     1
 42
1.0
 92
        9
 66
     7
 43
1.0
 76
     1
 77
     6
 78
     2
 67
     7
 79
     5
170
     0
171
     0
290
     0
174
     0
 93
        1
 44
0.0
173
     0
291
     1
 45
0.0
1001
ACAD
1000
AcDbSavedByObjectVersion
1070
     0
  0
VISUALSTYLE
  5
524
102
{ACAD_REACTORS
330
2F
102
}
102
{ACAD_XDICTIONARY
360
582
102
}
330
2F
100
AcDbVisualStyle
  2
Realistic
 70
     8
 71
     2
 72
     3
 73
     0
 90
        2
 40
0.6
 41
30.0
 62
     5
 63
     7
 74
     0
 91
        0
 64
     7
 65
   257
 75
     1
175
     1
 42
1.0
 92
        8
 66
   257
 43
1.0
 76
     1
 77
     6
 78
     2
 67
     7
 79
     3
170
     0
171
     0
290
     0
174
     0
 93
       13
 44
0.0
173
     0
291
     0
 45
0.0
1001
ACAD
1000
AcDbSavedByObjectVersion
1070
     0
  0
VISUALSTYLE
  5
533
102
{ACAD_REACTORS
330
2F
102
}
102
{ACAD_XDICTIONARY
360
5A0
102
}
330
2F
100
AcDbVisualStyle
  2
Shaded
 70
    27
 71
     2
 72
     2
 73
     1
 90
        2
 40
0.6
 41
30.0
 62
     5
 63
     7
 74
     0
 91
        4
 64
     7
 65
   257
 75
     1
175
     1
 42
1.0
 92
        8
 66
   257
 43
1.0
 76
     1
 77
     6
 78
     2
 67
   251
 79
     3
170
     0
171
     0
290
     0
174
     0
 93
        5
 44
0.0
173
     0
291
     0
 45
0.0
1001
ACAD
1000
AcDbSavedByObjectVersion
1070
     0
  0
VISUALSTYLE
  5
532
102
{ACAD_REACTORS
330
2F
102
}
102
{ACAD_XDICTIONARY
360
59E
102
}
330
2F
100
AcDbVisualStyle
  2
Shaded with edges
 70
    26
 71
     2
 72
     2
 73
     1
 90
        2
 40
0.6
 41
30.0
 62
     5
 63
     7
 74
     1
 91
       10
 64
     7
 65
   257
 75
     2
175
     1
 42
1.0
 92
        8
 66
   257
 43
1.0
 76
     1
 77
     6
 78
     2
 67
     7
 79
     3
170
     0
171
     0
290
     0
174
     0
 93
        5
 44
0.0
173
     0
291
     0
 45
0.0
1001
ACAD
1000
AcDbSavedByObjectVersion
1070
     0
  0
VISUALSTYLE
  5
52F
102
{ACAD_REACTORS
330
2F
102
}
102
{ACAD_XDICTIONARY
360
598
102
}
330
2F
100
AcDbVisualStyle
  2
Shades of Gray
 70
    23
 71
     2
 72
     2
 73
     3
 90
        0
 40
0.6
 41
30.0
 62
     5
 63
     7
 74
     2
 91
        2
 64
     7
 65
     7
 75
     1
175
     1
 42
40.0
 92
        8
 66
     7
 43
1.0
 76
     1
 77
     6
 78
     2
 67
     7
 79
     3
170
     0
171
     0
290
     0
174
     0
 93
        1
 44
0.0
173
     0
291
     0
 45
0.0
1001
ACAD
1000
AcDbSavedByObjectVersion
1070
     0
  0
VISUALSTYLE
  5
530
102
{ACAD_REACTORS
330
2F
102
}
102
{ACAD_XDICTIONARY
360
59A
102
}
330
2F
100
AcDbVisualStyle
  2
Sketchy
 70
    24
 71
     1
 72
     2
 73
     2
 90
        0
 40
0.6
 41
30.0
 62
     5
 63
     7
 74
     2
 91
        2
 64
     7
 65
     7
 75
     1
175
     1
 42
40.0
 92
       11
 66
     7
 43
1.0
 76
     1
 77
     6
 78
     2
 67
     7
 79
     6
170
     0
171
     0
290
     0
174
     0
 93
        1
 44
0.0
173
     0
291
     0
 45
0.0
1001
ACAD
1000
AcDbSavedByObjectVersion
1070
     0
  0
VISUALSTYLE
  5
528
102
{ACAD_REACTORS
330
2F
102
}
102
{ACAD_XDICTIONARY
360
58A
102
}
330
2F
100
AcDbVisualStyle
  2
Thicken
 70
    13
 71
     2
 72
     2
 73
     0
 90
        0
 40
0.6
 41
30.0
 62
     5
 63
     7
 74
     1
 91
        4
 64
     7
 65
   257
 75
     1
175
     1
 42
1.0
 92
       12
 66
     7
 43
1.0
 76
     1
 77
     6
 78
     2
 67
     7
 79
     5
170
     0
171
     0
290
     0
174
     0
 93
        1
 44
0.0
173
     0
291
     1
 45
0.0
1001
ACAD
1000
AcDbSavedByObjectVersion
1070
     0
  0
VISUALSTYLE
  5
521
102
{ACAD_REACTORS
330
2F
102
}
102
{ACAD_XDICTIONARY
360
57C
102
}
330
2F
100
AcDbVisualStyle
  2
Wireframe
 70
     5
 71
     0
 72
     2
 73
     0
 90
        0
 40
0.6
 41
30.0
 62
     5
 63
     7
 74
     1
 91
        4
 64
     7
 65
   257
 75
     1
175
     1
 42
1.0
 92
        0
 66
   257
 43
1.0
 76
     1
 77
     6
 78
     2
 67
     7
 79
     5
170
     0
171
     0
290
     0
174
     0
 93
        1
 44
0.0
173
     0
291
     0
 45
0.0
1001
ACAD
1000
AcDbSavedByObjectVersion
1070
     0
  0
VISUALSTYLE
  5
531
102
{ACAD_REACTORS
330
2F
102
}
102
{ACAD_XDICTIONARY
360
59C
102
}
330
2F
100
AcDbVisualStyle
  2
X-Ray
 70
    25
 71
     2
 72
     2
 73
     1
 90
        1
 40
0.5
 41
30.0
 62
     5
 63
     7
 74
     1
 91
        0
 64
     7
 65
   257
 75
     1
175
     1
 42
1.0
 92
        8
 66
     7
 43
1.0
 76
     1
 77
     6
 78
     2
 67
     7
 79
     3
170
     0
171
     0
290
     0
174
     0
 93
       13
 44
0.0
173
     0
291
     0
 45
0.0
1001
ACAD
1000
AcDbSavedByObjectVersion
1070
     0
  0
XRECORD
  5
566
102
{ACAD_REACTORS
330
565
102
}
330
565
100
AcDbXrecord
280
     1
340
2E
  0
XRECORD
  5
567
102
{ACAD_REACTORS
330
565
102
}
330
565
100
AcDbXrecord
280
     1
340
B
  0
DICTIONARYVAR
  5
516
102
{ACAD_REACTORS
330
515
102
}
330
515
100
DictionaryVariables
280
     0
  1
1:1
  0
DICTIONARYVAR
  5
540
102
{ACAD_REACTORS
330
515
102
}
330
515
100
DictionaryVariables
280
     0
  1
Standard
  0
DICTIONARYVAR
  5
563
102
{ACAD_REACTORS
330
515
102
}
330
515
100
DictionaryVariables
280
     0
  1
0
  0
DICTIONARYVAR
  5
564
102
{ACAD_REACTORS
330
515
102
}
330
515
100
DictionaryVariables
280
     0
  1
1
  0
DICTIONARYVAR
  5
56B
102
{ACAD_REACTORS
330
515
102
}
330
515
100
DictionaryVariables
280
     0
  1
1
  0
DICTIONARYVAR
  5
519
102
{ACAD_REACTORS
330
515
102
}
330
515
100
DictionaryVariables
280
     0
  1
0
  0
DICTIONARY
  5
570
330
56
100
AcDbDictionary
280
     1
281
     1
  3
ACAD_XREC_ROUNDTRIP
360
571
  0
DICTIONARY
  5
56C
330
14
100
AcDbDictionary
280
     1
281
     1
  3
ACAD_XREC_ROUNDTRIP
360
56D
  0
DICTIONARY
  5
56E
330
A
100
AcDbDictionary
280
     1
281
     1
  3
ACAD_XREC_ROUNDTRIP
360
56F
  0
DICTIONARY
  5
5A2
330
539
100
AcDbDictionary
280
     1
281
     1
  3
ACAD_XREC_ROUNDTRIP
360
5A3
  0
DICTIONARY
  5
57A
330
520
100
AcDbDictionary
280
     1
281
     1
  3
ACAD_XREC_ROUNDTRIP
360
57B
  0
DICTIONARY
  5
580
330
523
100
AcDbDictionary
280
     1
281
     1
  3
ACAD_XREC_ROUNDTRIP
360
581
  0
DICTIONARY
  5
588
330
527
100
AcDbDictionary
280
     1
281
     1
  3
ACAD_XREC_ROUNDTRIP
360
589
  0
DICTIONARY
  5
590
330
52B
100
AcDbDictionary
280
     1
281
     1
  3
ACAD_XREC_ROUNDTRIP
360
591
  0
DICTIONARY
  5
584
330
525
100
AcDbDictionary
280
     1
281
     1
  3
ACAD_XREC_ROUNDTRIP
360
585
  0
DICTIONARY
  5
586
330
526
100
AcDbDictionary
280
     1
281
     1
  3
ACAD_XREC_ROUNDTRIP
360
587
  0
DICTIONARY
  5
596
330
52E
100
AcDbDictionary
280
     1
281
     1
  3
ACAD_XREC_ROUNDTRIP
360
597
  0
DICTIONARY
  5
58E
330
52A
100
AcDbDictionary
280
     1
281
     1
  3
ACAD_XREC_ROUNDTRIP
360
58F
  0
DICTIONARY
  5
572
330
51C
100
AcDbDictionary
280
     1
281
     1
  3
ACAD_XREC_ROUNDTRIP
360
573
  0
DICTIONARY
  5
574
330
51D
100
AcDbDictionary
280
     1
281
     1
  3
ACAD_XREC_ROUNDTRIP
360
575
  0
DICTIONARY
  5
576
330
51E
100
AcDbDictionary
280
     1
281
     1
  3
ACAD_XREC_ROUNDTRIP
360
577
  0
DICTIONARY
  5
578
330
51F
100
AcDbDictionary
280
     1
281
     1
  3
ACAD_XREC_ROUNDTRIP
360
579
  0
DICTIONARY
  5
57E
330
522
100
AcDbDictionary
280
     1
281
     1
  3
ACAD_XREC_ROUNDTRIP
360
57F
  0
DICTIONARY
  5
592
330
52C
100
AcDbDictionary
280
     1
281
     1
  3
ACAD_XREC_ROUNDTRIP
360
593
  0
DICTIONARY
  5
58C
330
529
100
AcDbDictionary
280
     1
281
     1
  3
ACAD_XREC_ROUNDTRIP
360
58D
  0
DICTIONARY
  5
594
330
52D
100
AcDbDictionary
280
     1
281
     1
  3
ACAD_XREC_ROUNDTRIP
360
595
  0
DICTIONARY
  5
582
330
524
100
AcDbDictionary
280
     1
281
     1
  3
ACAD_XREC_ROUNDTRIP
360
583
  0
DICTIONARY
  5
5A0
330
533
100
AcDbDictionary
280
     1
281
     1
  3
ACAD_XREC_ROUNDTRIP
360
5A1
  0
DICTIONARY
  5
59E
330
532
100
AcDbDictionary
280
     1
281
     1
  3
ACAD_XREC_ROUNDTRIP
360
59F
  0
DICTIONARY
  5
598
330
52F
100
AcDbDictionary
280
     1
281
     1
  3
ACAD_XREC_ROUNDTRIP
360
599
  0
DICTIONARY
  5
59A
330
530
100
AcDbDictionary
280
     1
281
     1
  3
ACAD_XREC_ROUNDTRIP
360
59B
  0
DICTIONARY
  5
58A
330
528
100
AcDbDictionary
280
     1
281
     1
  3
ACAD_XREC_ROUNDTRIP
360
58B
  0
DICTIONARY
  5
57C
330
521
100
AcDbDictionary
280
     1
281
     1
  3
ACAD_XREC_ROUNDTRIP
360
57D
  0
DICTIONARY
  5
59C
330
531
100
AcDbDictionary
280
     1
281
     1
  3
ACAD_XREC_ROUNDTRIP
360
59D
  0
XRECORD
  5
571
102
{ACAD_REACTORS
330
570
102
}
330
570
100
AcDbXrecord
280
     1
102
MATERIAL
148
0.0
149
0.0
149
0.0
 93
        0
 94
      127
282
     0
 72
     0
 77
     0
171
     0
175
     0
179
     0
273
     0
  0
XRECORD
  5
56D
102
{ACAD_REACTORS
330
56C
102
}
330
56C
100
AcDbXrecord
280
     1
102
MATERIAL
148
0.0
149
0.0
149
0.0
 93
        0
 94
      127
282
     0
 72
     0
 77
     0
171
     0
175
     0
179
     0
273
     0
  0
XRECORD
  5
56F
102
{ACAD_REACTORS
330
56E
102
}
330
56E
100
AcDbXrecord
280
     1
102
MATERIAL
148
0.0
149
0.0
149
0.0
 93
        0
 94
      127
282
     0
 72
     0
 77
     0
171
     0
175
     0
179
     0
273
     0
  0
XRECORD
  5
5A3
102
{ACAD_REACTORS
330
5A2
102
}
330
5A2
100
AcDbXrecord
280
     1
102
ACAD_ROUNDTRIP_2010_MLEADER_STYLE
  0
XRECORD
  5
57B
102
{ACAD_REACTORS
330
57A
102
}
330
57A
100
AcDbXrecord
280
     1
102
RTVSPropertyOp0
 70
     1
102
RTVSPropertyOp1
 70
     1
102
RTVSPropertyOp2
 70
     1
102
RTVSPropertyOp3
 70
     1
102
RTVSPropertyOp4
 70
     1
102
RTVSPropertyOp5
 70
     1
102
RTVSPropertyOp6
 70
     1
102
RTVSPropertyOp7
 70
     1
102
RTVSPropertyOp8
 70
     1
102
RTVSPropertyOp9
 70
     1
102
RTVSPropertyOp10
 70
     1
102
RTVSPropertyOp11
 70
     1
102
RTVSPropertyOp12
 70
     1
102
RTVSPropertyOp13
 70
     1
102
RTVSPropertyOp14
 70
     1
102
RTVSPropertyOp15
 70
     1
102
RTVSPropertyOp16
 70
     1
102
RTVSPropertyOp17
 70
     1
102
RTVSPropertyOp18
 70
     1
102
RTVSPropertyOp19
 70
     1
102
RTVSPropertyOp20
 70
     1
102
RTVSPropertyOp21
 70
     1
102
RTVSPropertyOp22
 70
     1
102
RTVSPropertyOp23
 70
     1
102
RTVSPropertyOp24
 70
     1
102
RTVSPropertyOp25
 70
     1
102
RTVSPropertyOp26
 70
     1
102
RTVSPropertyOp27
 70
     1
102
RTVSPropertyOp28
 70
     1
102
RTVSPropertyOp29
 70
     1
102
RTVSPropertyOp30
 70
     1
102
RTVSPropertyOp31
 70
     1
102
RTVSPropertyOp32
 70
     1
102
RTVSPropertyOp33
 70
     1
102
RTVSPropertyOp34
 70
     1
102
RTVSPropertyOp35
 70
     1
102
RTVSPropertyOp36
 70
     1
102
RTVSPropertyOp37
 70
     1
102
RTVSPropertyOp38
 70
     1
102
RTVSPropertyOp39
 70
     1
102
RTVSPropertyOp40
 70
     1
102
RTVSPropertyOp41
 70
     1
102
RTVSPropertyOp42
 70
     1
102
RTVSPropertyOp43
 70
     1
102
RTVSPropertyOp44
 70
     1
102
RTVSPropertyOp45
 70
     1
102
RTVSPropertyOp46
 70
     1
102
RTVSPropertyOp47
 70
     1
102
RTVSPropertyOp48
 70
     1
102
RTVSPropertyOp49
 70
     1
102
RTVSPropertyOp50
 70
     1
102
RTVSPropertyOp51
 70
     0
102
RTVSPropertyOp52
 70
     0
102
RTVSPropertyOp53
 70
     1
102
RTVSPropertyOp54
 70
     1
102
RTVSPropertyOp55
 70
     1
102
RTVSPropertyOp56
 70
     1
102
RTVSPropertyOp57
 70
     1
102
RTVSPost2010Prop28
280
     1
102
RTVSPost2010PropOp28
 70
     1
102
RTVSPost2010Prop29
280
     1
102
RTVSPost2010PropOp29
 70
     1
102
RTVSPost2010Prop30
280
     0
102
RTVSPost2010PropOp30
 70
     1
102
RTVSPost2010Prop31
280
     0
102
RTVSPost2010PropOp31
 70
     1
102
RTVSPost2010Prop32
280
     0
102
RTVSPost2010PropOp32
 70
     1
102
RTVSPost2010Prop33
280
     0
102
RTVSPost2010PropOp33
 70
     1
102
RTVSPost2010Prop34
280
     0
102
RTVSPost2010PropOp34
 70
     1
102
RTVSPost2010Prop35
280
     0
102
RTVSPost2010PropOp35
 70
     1
102
RTVSPost2010Prop36
280
     0
102
RTVSPost2010PropOp36
 70
     1
102
RTVSPost2010Prop37
 90
       50
102
RTVSPost2010PropOp37
 70
     1
102
RTVSPost2010Prop38
140
0.0
102
RTVSPost2010PropOp38
 70
     1
102
RTVSPost2010Prop39
140
1.0
102
RTVSPost2010PropOp39
 70
     1
102
RTVSPost2010Prop40
 90
        0
102
RTVSPost2010PropOp40
 70
     1
102
RTVSPost2010Prop41ColorIndex
 90
       18
102
RTVSPost2010Prop41ColorRGB
 90
        0
102
RTVSPost2010PropOp41
 70
     1
102
RTVSPost2010Prop42
 90
       50
102
RTVSPost2010PropOp42
 70
     1
102
RTVSPost2010Prop43
 90
        3
102
RTVSPost2010PropOp43
 70
     1
102
RTVSPost2010Prop44ColorIndex
 90
        5
102
RTVSPost2010Prop44ColorRGB
 90
      255
102
RTVSPost2010PropOp44
 70
     1
102
RTVSPost2010Prop45
280
     0
102
RTVSPost2010PropOp45
 70
     1
102
RTVSPost2010Prop46
 90
       50
102
RTVSPost2010PropOp46
 70
     1
102
RTVSPost2010Prop47
 90
       50
102
RTVSPost2010PropOp47
 70
     1
102
RTVSPost2010Prop48
 90
       50
102
RTVSPost2010PropOp48
 70
     1
102
RTVSPost2010Prop49
280
     0
102
RTVSPost2010PropOp49
 70
     1
102
RTVSPost2010Prop50
 90
       50
102
RTVSPost2010PropOp50
 70
     1
102
RTVSPost2010Prop51ColorIndex
 90
      256
102
RTVSPost2010Prop51ColorRGB
 90
-16777216
102
RTVSPost2010PropOp51
 70
     0
102
RTVSPost2010Prop52
140
1.0
102
RTVSPost2010PropOp52
 70
     0
102
RTVSPost2010Prop53
 90
        2
102
RTVSPost2010PropOp53
 70
     1
102
RTVSPost2010Prop54
  1
strokes_ogs.tif
102
RTVSPost2010PropOp54
 70
     1
102
RTVSPost2010Prop55
280
     0
102
RTVSPost2010PropOp55
 70
     1
102
RTVSPost2010Prop56
140
1.0
102
RTVSPost2010PropOp56
 70
     1
102
RTVSPost2010Prop57
140
1.0
102
RTVSPost2010PropOp57
 70
     1
  0
XRECORD
  5
581
102
{ACAD_REACTORS
330
580
102
}
330
580
100
AcDbXrecord
280
     1
102
RTVSPropertyOp0
 70
     1
102
RTVSPropertyOp1
 70
     1
102
RTVSPropertyOp2
 70
     1
102
RTVSPropertyOp3
 70
     1
102
RTVSPropertyOp4
 70
     1
102
RTVSPropertyOp5
 70
     1
102
RTVSPropertyOp6
 70
     1
102
RTVSPropertyOp7
 70
     1
102
RTVSPropertyOp8
 70
     1
102
RTVSPropertyOp9
 70
     1
102
RTVSPropertyOp10
 70
     1
102
RTVSPropertyOp11
 70
     1
102
RTVSPropertyOp12
 70
     1
102
RTVSPropertyOp13
 70
     1
102
RTVSPropertyOp14
 70
     1
102
RTVSPropertyOp15
 70
     1
102
RTVSPropertyOp16
 70
     1
102
RTVSPropertyOp17
 70
     1
102
RTVSPropertyOp18
 70
     1
102
RTVSPropertyOp19
 70
     1
102
RTVSPropertyOp20
 70
     1
102
RTVSPropertyOp21
 70
     1
102
RTVSPropertyOp22
 70
     1
102
RTVSPropertyOp23
 70
     1
102
RTVSPropertyOp24
 70
     1
102
RTVSPropertyOp25
 70
     1
102
RTVSPropertyOp26
 70
     1
102
RTVSPropertyOp27
 70
     1
102
RTVSPropertyOp28
 70
     1
102
RTVSPropertyOp29
 70
     1
102
RTVSPropertyOp30
 70
     1
102
RTVSPropertyOp31
 70
     1
102
RTVSPropertyOp32
 70
     1
102
RTVSPropertyOp33
 70
     1
102
RTVSPropertyOp34
 70
     1
102
RTVSPropertyOp35
 70
     1
102
RTVSPropertyOp36
 70
     1
102
RTVSPropertyOp37
 70
     1
102
RTVSPropertyOp38
 70
     1
102
RTVSPropertyOp39
 70
     1
102
RTVSPropertyOp40
 70
     1
102
RTVSPropertyOp41
 70
     1
102
RTVSPropertyOp42
 70
     1
102
RTVSPropertyOp43
 70
     1
102
RTVSPropertyOp44
 70
     1
102
RTVSPropertyOp45
 70
     1
102
RTVSPropertyOp46
 70
     1
102
RTVSPropertyOp47
 70
     1
102
RTVSPropertyOp48
 70
     1
102
RTVSPropertyOp49
 70
     1
102
RTVSPropertyOp50
 70
     1
102
RTVSPropertyOp51
 70
     0
102
RTVSPropertyOp52
 70
     0
102
RTVSPropertyOp53
 70
     1
102
RTVSPropertyOp54
 70
     1
102
RTVSPropertyOp55
 70
     1
102
RTVSPropertyOp56
 70
     1
102
RTVSPropertyOp57
 70
     1
102
RTVSPost2010Prop28
280
     0
102
RTVSPost2010PropOp28
 70
     1
102
RTVSPost2010Prop29
280
     1
102
RTVSPost2010PropOp29
 70
     1
102
RTVSPost2010Prop30
280
     1
102
RTVSPost2010PropOp30
 70
     1
102
RTVSPost2010Prop31
280
     0
102
RTVSPost2010PropOp31
 70
     1
102
RTVSPost2010Prop32
280
     0
102
RTVSPost2010PropOp32
 70
     1
102
RTVSPost2010Prop33
280
     0
102
RTVSPost2010PropOp33
 70
     1
102
RTVSPost2010Prop34
280
     0
102
RTVSPost2010PropOp34
 70
     1
102
RTVSPost2010Prop35
280
     0
102
RTVSPost2010PropOp35
 70
     1
102
RTVSPost2010Prop36
280
     0
102
RTVSPost2010PropOp36
 70
     1
102
RTVSPost2010Prop37
 90
       50
102
RTVSPost2010PropOp37
 70
     1
102
RTVSPost2010Prop38
140
0.0
102
RTVSPost2010PropOp38
 70
     1
102
RTVSPost2010Prop39
140
1.0
102
RTVSPost2010PropOp39
 70
     1
102
RTVSPost2010Prop40
 90
        0
102
RTVSPost2010PropOp40
 70
     1
102
RTVSPost2010Prop41ColorIndex
 90
       18
102
RTVSPost2010Prop41ColorRGB
 90
        0
102
RTVSPost2010PropOp41
 70
     1
102
RTVSPost2010Prop42
 90
       50
102
RTVSPost2010PropOp42
 70
     1
102
RTVSPost2010Prop43
 90
        3
102
RTVSPost2010PropOp43
 70
     1
102
RTVSPost2010Prop44ColorIndex
 90
        5
102
RTVSPost2010Prop44ColorRGB
 90
      255
102
RTVSPost2010PropOp44
 70
     1
102
RTVSPost2010Prop45
280
     0
102
RTVSPost2010PropOp45
 70
     1
102
RTVSPost2010Prop46
 90
       50
102
RTVSPost2010PropOp46
 70
     1
102
RTVSPost2010Prop47
 90
       50
102
RTVSPost2010PropOp47
 70
     1
102
RTVSPost2010Prop48
 90
       50
102
RTVSPost2010PropOp48
 70
     1
102
RTVSPost2010Prop49
280
     0
102
RTVSPost2010PropOp49
 70
     1
102
RTVSPost2010Prop50
 90
       50
102
RTVSPost2010PropOp50
 70
     1
102
RTVSPost2010Prop51ColorIndex
 90
      256
102
RTVSPost2010Prop51ColorRGB
 90
-16777216
102
RTVSPost2010PropOp51
 70
     0
102
RTVSPost2010Prop52
140
1.0
102
RTVSPost2010PropOp52
 70
     0
102
RTVSPost2010Prop53
 90
        2
102
RTVSPost2010PropOp53
 70
     1
102
RTVSPost2010Prop54
  1
strokes_ogs.tif
102
RTVSPost2010PropOp54
 70
     1
102
RTVSPost2010Prop55
280
     0
102
RTVSPost2010PropOp55
 70
     1
102
RTVSPost2010Prop56
140
1.0
102
RTVSPost2010PropOp56
 70
     1
102
RTVSPost2010Prop57
140
1.0
102
RTVSPost2010PropOp57
 70
     1
  0
XRECORD
  5
589
102
{ACAD_REACTORS
330
588
102
}
330
588
100
AcDbXrecord
280
     1
102
RTVSPropertyOp0
 70
     1
102
RTVSPropertyOp1
 70
     1
102
RTVSPropertyOp2
 70
     1
102
RTVSPropertyOp3
 70
     1
102
RTVSPropertyOp4
 70
     1
102
RTVSPropertyOp5
 70
     1
102
RTVSPropertyOp6
 70
     1
102
RTVSPropertyOp7
 70
     1
102
RTVSPropertyOp8
 70
     1
102
RTVSPropertyOp9
 70
     1
102
RTVSPropertyOp10
 70
     1
102
RTVSPropertyOp11
 70
     1
102
RTVSPropertyOp12
 70
     1
102
RTVSPropertyOp13
 70
     1
102
RTVSPropertyOp14
 70
     1
102
RTVSPropertyOp15
 70
     1
102
RTVSPropertyOp16
 70
     1
102
RTVSPropertyOp17
 70
     1
102
RTVSPropertyOp18
 70
     1
102
RTVSPropertyOp19
 70
     1
102
RTVSPropertyOp20
 70
     1
102
RTVSPropertyOp21
 70
     1
102
RTVSPropertyOp22
 70
     1
102
RTVSPropertyOp23
 70
     1
102
RTVSPropertyOp24
 70
     1
102
RTVSPropertyOp25
 70
     1
102
RTVSPropertyOp26
 70
     1
102
RTVSPropertyOp27
 70
     1
102
RTVSPropertyOp28
 70
     1
102
RTVSPropertyOp29
 70
     1
102
RTVSPropertyOp30
 70
     1
102
RTVSPropertyOp31
 70
     1
102
RTVSPropertyOp32
 70
     1
102
RTVSPropertyOp33
 70
     1
102
RTVSPropertyOp34
 70
     1
102
RTVSPropertyOp35
 70
     1
102
RTVSPropertyOp36
 70
     1
102
RTVSPropertyOp37
 70
     1
102
RTVSPropertyOp38
 70
     1
102
RTVSPropertyOp39
 70
     1
102
RTVSPropertyOp40
 70
     1
102
RTVSPropertyOp41
 70
     1
102
RTVSPropertyOp42
 70
     1
102
RTVSPropertyOp43
 70
     1
102
RTVSPropertyOp44
 70
     1
102
RTVSPropertyOp45
 70
     1
102
RTVSPropertyOp46
 70
     1
102
RTVSPropertyOp47
 70
     1
102
RTVSPropertyOp48
 70
     1
102
RTVSPropertyOp49
 70
     1
102
RTVSPropertyOp50
 70
     1
102
RTVSPropertyOp51
 70
     0
102
RTVSPropertyOp52
 70
     0
102
RTVSPropertyOp53
 70
     1
102
RTVSPropertyOp54
 70
     1
102
RTVSPropertyOp55
 70
     1
102
RTVSPropertyOp56
 70
     1
102
RTVSPropertyOp57
 70
     1
102
RTVSPost2010Prop28
280
     0
102
RTVSPost2010PropOp28
 70
     1
102
RTVSPost2010Prop29
280
     1
102
RTVSPost2010PropOp29
 70
     1
102
RTVSPost2010Prop30
280
     1
102
RTVSPost2010PropOp30
 70
     1
102
RTVSPost2010Prop31
280
     0
102
RTVSPost2010PropOp31
 70
     1
102
RTVSPost2010Prop32
280
     0
102
RTVSPost2010PropOp32
 70
     1
102
RTVSPost2010Prop33
280
     0
102
RTVSPost2010PropOp33
 70
     1
102
RTVSPost2010Prop34
280
     0
102
RTVSPost2010PropOp34
 70
     1
102
RTVSPost2010Prop35
280
     0
102
RTVSPost2010PropOp35
 70
     1
102
RTVSPost2010Prop36
280
     0
102
RTVSPost2010PropOp36
 70
     1
102
RTVSPost2010Prop37
 90
       50
102
RTVSPost2010PropOp37
 70
     1
102
RTVSPost2010Prop38
140
0.0
102
RTVSPost2010PropOp38
 70
     1
102
RTVSPost2010Prop39
140
1.0
102
RTVSPost2010PropOp39
 70
     1
102
RTVSPost2010Prop40
 90
        0
102
RTVSPost2010PropOp40
 70
     1
102
RTVSPost2010Prop41ColorIndex
 90
       18
102
RTVSPost2010Prop41ColorRGB
 90
        0
102
RTVSPost2010PropOp41
 70
     1
102
RTVSPost2010Prop42
 90
       50
102
RTVSPost2010PropOp42
 70
     1
102
RTVSPost2010Prop43
 90
        3
102
RTVSPost2010PropOp43
 70
     1
102
RTVSPost2010Prop44ColorIndex
 90
        5
102
RTVSPost2010Prop44ColorRGB
 90
      255
102
RTVSPost2010PropOp44
 70
     1
102
RTVSPost2010Prop45
280
     0
102
RTVSPost2010PropOp45
 70
     1
102
RTVSPost2010Prop46
 90
       50
102
RTVSPost2010PropOp46
 70
     1
102
RTVSPost2010Prop47
 90
       50
102
RTVSPost2010PropOp47
 70
     1
102
RTVSPost2010Prop48
 90
       50
102
RTVSPost2010PropOp48
 70
     1
102
RTVSPost2010Prop49
280
     0
102
RTVSPost2010PropOp49
 70
     1
102
RTVSPost2010Prop50
 90
       50
102
RTVSPost2010PropOp50
 70
     1
102
RTVSPost2010Prop51ColorIndex
 90
      256
102
RTVSPost2010Prop51ColorRGB
 90
-16777216
102
RTVSPost2010PropOp51
 70
     0
102
RTVSPost2010Prop52
140
1.0
102
RTVSPost2010PropOp52
 70
     0
102
RTVSPost2010Prop53
 90
        2
102
RTVSPost2010PropOp53
 70
     1
102
RTVSPost2010Prop54
  1
strokes_ogs.tif
102
RTVSPost2010PropOp54
 70
     1
102
RTVSPost2010Prop55
280
     0
102
RTVSPost2010PropOp55
 70
     1
102
RTVSPost2010Prop56
140
1.0
102
RTVSPost2010PropOp56
 70
     1
102
RTVSPost2010Prop57
140
1.0
102
RTVSPost2010PropOp57
 70
     1
  0
XRECORD
  5
591
102
{ACAD_REACTORS
330
590
102
}
330
590
100
AcDbXrecord
280
     1
102
RTVSPropertyOp0
 70
     1
102
RTVSPropertyOp1
 70
     1
102
RTVSPropertyOp2
 70
     1
102
RTVSPropertyOp3
 70
     1
102
RTVSPropertyOp4
 70
     1
102
RTVSPropertyOp5
 70
     1
102
RTVSPropertyOp6
 70
     1
102
RTVSPropertyOp7
 70
     1
102
RTVSPropertyOp8
 70
     1
102
RTVSPropertyOp9
 70
     1
102
RTVSPropertyOp10
 70
     1
102
RTVSPropertyOp11
 70
     1
102
RTVSPropertyOp12
 70
     1
102
RTVSPropertyOp13
 70
     1
102
RTVSPropertyOp14
 70
     1
102
RTVSPropertyOp15
 70
     1
102
RTVSPropertyOp16
 70
     1
102
RTVSPropertyOp17
 70
     1
102
RTVSPropertyOp18
 70
     1
102
RTVSPropertyOp19
 70
     1
102
RTVSPropertyOp20
 70
     1
102
RTVSPropertyOp21
 70
     1
102
RTVSPropertyOp22
 70
     1
102
RTVSPropertyOp23
 70
     1
102
RTVSPropertyOp24
 70
     1
102
RTVSPropertyOp25
 70
     1
102
RTVSPropertyOp26
 70
     1
102
RTVSPropertyOp27
 70
     1
102
RTVSPropertyOp28
 70
     1
102
RTVSPropertyOp29
 70
     1
102
RTVSPropertyOp30
 70
     1
102
RTVSPropertyOp31
 70
     1
102
RTVSPropertyOp32
 70
     1
102
RTVSPropertyOp33
 70
     1
102
RTVSPropertyOp34
 70
     1
102
RTVSPropertyOp35
 70
     1
102
RTVSPropertyOp36
 70
     1
102
RTVSPropertyOp37
 70
     1
102
RTVSPropertyOp38
 70
     1
102
RTVSPropertyOp39
 70
     1
102
RTVSPropertyOp40
 70
     1
102
RTVSPropertyOp41
 70
     1
102
RTVSPropertyOp42
 70
     1
102
RTVSPropertyOp43
 70
     1
102
RTVSPropertyOp44
 70
     1
102
RTVSPropertyOp45
 70
     1
102
RTVSPropertyOp46
 70
     1
102
RTVSPropertyOp47
 70
     1
102
RTVSPropertyOp48
 70
     1
102
RTVSPropertyOp49
 70
     1
102
RTVSPropertyOp50
 70
     1
102
RTVSPropertyOp51
 70
     0
102
RTVSPropertyOp52
 70
     0
102
RTVSPropertyOp53
 70
     1
102
RTVSPropertyOp54
 70
     1
102
RTVSPropertyOp55
 70
     1
102
RTVSPropertyOp56
 70
     1
102
RTVSPropertyOp57
 70
     1
102
RTVSPost2010Prop28
280
     0
102
RTVSPost2010PropOp28
 70
     1
102
RTVSPost2010Prop29
280
     1
102
RTVSPost2010PropOp29
 70
     1
102
RTVSPost2010Prop30
280
     1
102
RTVSPost2010PropOp30
 70
     1
102
RTVSPost2010Prop31
280
     0
102
RTVSPost2010PropOp31
 70
     1
102
RTVSPost2010Prop32
280
     0
102
RTVSPost2010PropOp32
 70
     1
102
RTVSPost2010Prop33
280
     0
102
RTVSPost2010PropOp33
 70
     1
102
RTVSPost2010Prop34
280
     0
102
RTVSPost2010PropOp34
 70
     1
102
RTVSPost2010Prop35
280
     0
102
RTVSPost2010PropOp35
 70
     1
102
RTVSPost2010Prop36
280
     0
102
RTVSPost2010PropOp36
 70
     1
102
RTVSPost2010Prop37
 90
       50
102
RTVSPost2010PropOp37
 70
     1
102
RTVSPost2010Prop38
140
0.0
102
RTVSPost2010PropOp38
 70
     1
102
RTVSPost2010Prop39
140
1.0
102
RTVSPost2010PropOp39
 70
     1
102
RTVSPost2010Prop40
 90
        0
102
RTVSPost2010PropOp40
 70
     1
102
RTVSPost2010Prop41ColorIndex
 90
       18
102
RTVSPost2010Prop41ColorRGB
 90
        0
102
RTVSPost2010PropOp41
 70
     1
102
RTVSPost2010Prop42
 90
       50
102
RTVSPost2010PropOp42
 70
     1
102
RTVSPost2010Prop43
 90
        3
102
RTVSPost2010PropOp43
 70
     1
102
RTVSPost2010Prop44ColorIndex
 90
        5
102
RTVSPost2010Prop44ColorRGB
 90
      255
102
RTVSPost2010PropOp44
 70
     1
102
RTVSPost2010Prop45
280
     0
102
RTVSPost2010PropOp45
 70
     1
102
RTVSPost2010Prop46
 90
       50
102
RTVSPost2010PropOp46
 70
     1
102
RTVSPost2010Prop47
 90
       50
102
RTVSPost2010PropOp47
 70
     1
102
RTVSPost2010Prop48
 90
       50
102
RTVSPost2010PropOp48
 70
     1
102
RTVSPost2010Prop49
280
     0
102
RTVSPost2010PropOp49
 70
     1
102
RTVSPost2010Prop50
 90
       50
102
RTVSPost2010PropOp50
 70
     1
102
RTVSPost2010Prop51ColorIndex
 90
      256
102
RTVSPost2010Prop51ColorRGB
 90
-16777216
102
RTVSPost2010PropOp51
 70
     0
102
RTVSPost2010Prop52
140
1.0
102
RTVSPost2010PropOp52
 70
     0
102
RTVSPost2010Prop53
 90
        2
102
RTVSPost2010PropOp53
 70
     1
102
RTVSPost2010Prop54
  1
strokes_ogs.tif
102
RTVSPost2010PropOp54
 70
     1
102
RTVSPost2010Prop55
280
     0
102
RTVSPost2010PropOp55
 70
     1
102
RTVSPost2010Prop56
140
1.0
102
RTVSPost2010PropOp56
 70
     1
102
RTVSPost2010Prop57
140
1.0
102
RTVSPost2010PropOp57
 70
     1
  0
XRECORD
  5
585
102
{ACAD_REACTORS
330
584
102
}
330
584
100
AcDbXrecord
280
     1
102
RTVSPropertyOp0
 70
     1
102
RTVSPropertyOp1
 70
     1
102
RTVSPropertyOp2
 70
     1
102
RTVSPropertyOp3
 70
     1
102
RTVSPropertyOp4
 70
     1
102
RTVSPropertyOp5
 70
     1
102
RTVSPropertyOp6
 70
     1
102
RTVSPropertyOp7
 70
     1
102
RTVSPropertyOp8
 70
     1
102
RTVSPropertyOp9
 70
     1
102
RTVSPropertyOp10
 70
     1
102
RTVSPropertyOp11
 70
     1
102
RTVSPropertyOp12
 70
     1
102
RTVSPropertyOp13
 70
     1
102
RTVSPropertyOp14
 70
     1
102
RTVSPropertyOp15
 70
     1
102
RTVSPropertyOp16
 70
     1
102
RTVSPropertyOp17
 70
     1
102
RTVSPropertyOp18
 70
     1
102
RTVSPropertyOp19
 70
     1
102
RTVSPropertyOp20
 70
     1
102
RTVSPropertyOp21
 70
     1
102
RTVSPropertyOp22
 70
     1
102
RTVSPropertyOp23
 70
     1
102
RTVSPropertyOp24
 70
     1
102
RTVSPropertyOp25
 70
     1
102
RTVSPropertyOp26
 70
     1
102
RTVSPropertyOp27
 70
     1
102
RTVSPropertyOp28
 70
     1
102
RTVSPropertyOp29
 70
     1
102
RTVSPropertyOp30
 70
     1
102
RTVSPropertyOp31
 70
     1
102
RTVSPropertyOp32
 70
     1
102
RTVSPropertyOp33
 70
     1
102
RTVSPropertyOp34
 70
     1
102
RTVSPropertyOp35
 70
     1
102
RTVSPropertyOp36
 70
     1
102
RTVSPropertyOp37
 70
     1
102
RTVSPropertyOp38
 70
     1
102
RTVSPropertyOp39
 70
     1
102
RTVSPropertyOp40
 70
     1
102
RTVSPropertyOp41
 70
     1
102
RTVSPropertyOp42
 70
     1
102
RTVSPropertyOp43
 70
     1
102
RTVSPropertyOp44
 70
     1
102
RTVSPropertyOp45
 70
     1
102
RTVSPropertyOp46
 70
     1
102
RTVSPropertyOp47
 70
     1
102
RTVSPropertyOp48
 70
     1
102
RTVSPropertyOp49
 70
     1
102
RTVSPropertyOp50
 70
     1
102
RTVSPropertyOp51
 70
     0
102
RTVSPropertyOp52
 70
     0
102
RTVSPropertyOp53
 70
     1
102
RTVSPropertyOp54
 70
     1
102
RTVSPropertyOp55
 70
     1
102
RTVSPropertyOp56
 70
     1
102
RTVSPropertyOp57
 70
     1
102
RTVSPost2010Prop28
280
     0
102
RTVSPost2010PropOp28
 70
     1
102
RTVSPost2010Prop29
280
     1
102
RTVSPost2010PropOp29
 70
     1
102
RTVSPost2010Prop30
280
     1
102
RTVSPost2010PropOp30
 70
     1
102
RTVSPost2010Prop31
280
     0
102
RTVSPost2010PropOp31
 70
     1
102
RTVSPost2010Prop32
280
     0
102
RTVSPost2010PropOp32
 70
     1
102
RTVSPost2010Prop33
280
     0
102
RTVSPost2010PropOp33
 70
     1
102
RTVSPost2010Prop34
280
     0
102
RTVSPost2010PropOp34
 70
     1
102
RTVSPost2010Prop35
280
     0
102
RTVSPost2010PropOp35
 70
     1
102
RTVSPost2010Prop36
280
     0
102
RTVSPost2010PropOp36
 70
     1
102
RTVSPost2010Prop37
 90
       50
102
RTVSPost2010PropOp37
 70
     1
102
RTVSPost2010Prop38
140
0.0
102
RTVSPost2010PropOp38
 70
     1
102
RTVSPost2010Prop39
140
1.0
102
RTVSPost2010PropOp39
 70
     1
102
RTVSPost2010Prop40
 90
        0
102
RTVSPost2010PropOp40
 70
     1
102
RTVSPost2010Prop41ColorIndex
 90
       18
102
RTVSPost2010Prop41ColorRGB
 90
        0
102
RTVSPost2010PropOp41
 70
     1
102
RTVSPost2010Prop42
 90
       50
102
RTVSPost2010PropOp42
 70
     1
102
RTVSPost2010Prop43
 90
        3
102
RTVSPost2010PropOp43
 70
     1
102
RTVSPost2010Prop44ColorIndex
 90
        5
102
RTVSPost2010Prop44ColorRGB
 90
      255
102
RTVSPost2010PropOp44
 70
     1
102
RTVSPost2010Prop45
280
     0
102
RTVSPost2010PropOp45
 70
     1
102
RTVSPost2010Prop46
 90
       50
102
RTVSPost2010PropOp46
 70
     1
102
RTVSPost2010Prop47
 90
       50
102
RTVSPost2010PropOp47
 70
     1
102
RTVSPost2010Prop48
 90
       50
102
RTVSPost2010PropOp48
 70
     1
102
RTVSPost2010Prop49
280
     0
102
RTVSPost2010PropOp49
 70
     1
102
RTVSPost2010Prop50
 90
       50
102
RTVSPost2010PropOp50
 70
     1
102
RTVSPost2010Prop51ColorIndex
 90
      256
102
RTVSPost2010Prop51ColorRGB
 90
-16777216
102
RTVSPost2010PropOp51
 70
     0
102
RTVSPost2010Prop52
140
1.0
102
RTVSPost2010PropOp52
 70
     0
102
RTVSPost2010Prop53
 90
        2
102
RTVSPost2010PropOp53
 70
     1
102
RTVSPost2010Prop54
  1
strokes_ogs.tif
102
RTVSPost2010PropOp54
 70
     1
102
RTVSPost2010Prop55
280
     0
102
RTVSPost2010PropOp55
 70
     1
102
RTVSPost2010Prop56
140
1.0
102
RTVSPost2010PropOp56
 70
     1
102
RTVSPost2010Prop57
140
1.0
102
RTVSPost2010PropOp57
 70
     1
  0
XRECORD
  5
587
102
{ACAD_REACTORS
330
586
102
}
330
586
100
AcDbXrecord
280
     1
102
RTVSPropertyOp0
 70
     1
102
RTVSPropertyOp1
 70
     1
102
RTVSPropertyOp2
 70
     1
102
RTVSPropertyOp3
 70
     1
102
RTVSPropertyOp4
 70
     1
102
RTVSPropertyOp5
 70
     1
102
RTVSPropertyOp6
 70
     1
102
RTVSPropertyOp7
 70
     1
102
RTVSPropertyOp8
 70
     1
102
RTVSPropertyOp9
 70
     1
102
RTVSPropertyOp10
 70
     1
102
RTVSPropertyOp11
 70
     1
102
RTVSPropertyOp12
 70
     1
102
RTVSPropertyOp13
 70
     1
102
RTVSPropertyOp14
 70
     1
102
RTVSPropertyOp15
 70
     1
102
RTVSPropertyOp16
 70
     1
102
RTVSPropertyOp17
 70
     1
102
RTVSPropertyOp18
 70
     1
102
RTVSPropertyOp19
 70
     1
102
RTVSPropertyOp20
 70
     1
102
RTVSPropertyOp21
 70
     1
102
RTVSPropertyOp22
 70
     1
102
RTVSPropertyOp23
 70
     1
102
RTVSPropertyOp24
 70
     1
102
RTVSPropertyOp25
 70
     1
102
RTVSPropertyOp26
 70
     1
102
RTVSPropertyOp27
 70
     1
102
RTVSPropertyOp28
 70
     1
102
RTVSPropertyOp29
 70
     1
102
RTVSPropertyOp30
 70
     1
102
RTVSPropertyOp31
 70
     1
102
RTVSPropertyOp32
 70
     1
102
RTVSPropertyOp33
 70
     1
102
RTVSPropertyOp34
 70
     1
102
RTVSPropertyOp35
 70
     1
102
RTVSPropertyOp36
 70
     1
102
RTVSPropertyOp37
 70
     1
102
RTVSPropertyOp38
 70
     1
102
RTVSPropertyOp39
 70
     1
102
RTVSPropertyOp40
 70
     1
102
RTVSPropertyOp41
 70
     1
102
RTVSPropertyOp42
 70
     1
102
RTVSPropertyOp43
 70
     1
102
RTVSPropertyOp44
 70
     1
102
RTVSPropertyOp45
 70
     1
102
RTVSPropertyOp46
 70
     1
102
RTVSPropertyOp47
 70
     1
102
RTVSPropertyOp48
 70
     1
102
RTVSPropertyOp49
 70
     1
102
RTVSPropertyOp50
 70
     1
102
RTVSPropertyOp51
 70
     0
102
RTVSPropertyOp52
 70
     0
102
RTVSPropertyOp53
 70
     1
102
RTVSPropertyOp54
 70
     1
102
RTVSPropertyOp55
 70
     1
102
RTVSPropertyOp56
 70
     1
102
RTVSPropertyOp57
 70
     1
102
RTVSPost2010Prop28
280
     0
102
RTVSPost2010PropOp28
 70
     1
102
RTVSPost2010Prop29
280
     1
102
RTVSPost2010PropOp29
 70
     1
102
RTVSPost2010Prop30
280
     1
102
RTVSPost2010PropOp30
 70
     1
102
RTVSPost2010Prop31
280
     0
102
RTVSPost2010PropOp31
 70
     1
102
RTVSPost2010Prop32
280
     0
102
RTVSPost2010PropOp32
 70
     1
102
RTVSPost2010Prop33
280
     0
102
RTVSPost2010PropOp33
 70
     1
102
RTVSPost2010Prop34
280
     0
102
RTVSPost2010PropOp34
 70
     1
102
RTVSPost2010Prop35
280
     0
102
RTVSPost2010PropOp35
 70
     1
102
RTVSPost2010Prop36
280
     0
102
RTVSPost2010PropOp36
 70
     1
102
RTVSPost2010Prop37
 90
       50
102
RTVSPost2010PropOp37
 70
     1
102
RTVSPost2010Prop38
140
0.0
102
RTVSPost2010PropOp38
 70
     1
102
RTVSPost2010Prop39
140
1.0
102
RTVSPost2010PropOp39
 70
     1
102
RTVSPost2010Prop40
 90
        0
102
RTVSPost2010PropOp40
 70
     1
102
RTVSPost2010Prop41ColorIndex
 90
       18
102
RTVSPost2010Prop41ColorRGB
 90
        0
102
RTVSPost2010PropOp41
 70
     1
102
RTVSPost2010Prop42
 90
       50
102
RTVSPost2010PropOp42
 70
     1
102
RTVSPost2010Prop43
 90
        3
102
RTVSPost2010PropOp43
 70
     1
102
RTVSPost2010Prop44ColorIndex
 90
        5
102
RTVSPost2010Prop44ColorRGB
 90
      255
102
RTVSPost2010PropOp44
 70
     1
102
RTVSPost2010Prop45
280
     0
102
RTVSPost2010PropOp45
 70
     1
102
RTVSPost2010Prop46
 90
       50
102
RTVSPost2010PropOp46
 70
     1
102
RTVSPost2010Prop47
 90
       50
102
RTVSPost2010PropOp47
 70
     1
102
RTVSPost2010Prop48
 90
       50
102
RTVSPost2010PropOp48
 70
     1
102
RTVSPost2010Prop49
280
     0
102
RTVSPost2010PropOp49
 70
     1
102
RTVSPost2010Prop50
 90
       50
102
RTVSPost2010PropOp50
 70
     1
102
RTVSPost2010Prop51ColorIndex
 90
      256
102
RTVSPost2010Prop51ColorRGB
 90
-16777216
102
RTVSPost2010PropOp51
 70
     0
102
RTVSPost2010Prop52
140
1.0
102
RTVSPost2010PropOp52
 70
     0
102
RTVSPost2010Prop53
 90
        2
102
RTVSPost2010PropOp53
 70
     1
102
RTVSPost2010Prop54
  1
strokes_ogs.tif
102
RTVSPost2010PropOp54
 70
     1
102
RTVSPost2010Prop55
280
     0
102
RTVSPost2010PropOp55
 70
     1
102
RTVSPost2010Prop56
140
1.0
102
RTVSPost2010PropOp56
 70
     1
102
RTVSPost2010Prop57
140
1.0
102
RTVSPost2010PropOp57
 70
     1
  0
XRECORD
  5
597
102
{ACAD_REACTORS
330
596
102
}
330
596
100
AcDbXrecord
280
     1
102
RTVSPropertyOp0
 70
     0
102
RTVSPropertyOp1
 70
     0
102
RTVSPropertyOp2
 70
     0
102
RTVSPropertyOp3
 70
     0
102
RTVSPropertyOp4
 70
     0
102
RTVSPropertyOp5
 70
     0
102
RTVSPropertyOp6
 70
     0
102
RTVSPropertyOp7
 70
     0
102
RTVSPropertyOp8
 70
     0
102
RTVSPropertyOp9
 70
     0
102
RTVSPropertyOp10
 70
     0
102
RTVSPropertyOp11
 70
     0
102
RTVSPropertyOp12
 70
     0
102
RTVSPropertyOp13
 70
     0
102
RTVSPropertyOp14
 70
     0
102
RTVSPropertyOp15
 70
     0
102
RTVSPropertyOp16
 70
     0
102
RTVSPropertyOp17
 70
     0
102
RTVSPropertyOp18
 70
     0
102
RTVSPropertyOp19
 70
     0
102
RTVSPropertyOp20
 70
     0
102
RTVSPropertyOp21
 70
     0
102
RTVSPropertyOp22
 70
     0
102
RTVSPropertyOp23
 70
     0
102
RTVSPropertyOp24
 70
     0
102
RTVSPropertyOp25
 70
     0
102
RTVSPropertyOp26
 70
     0
102
RTVSPropertyOp27
 70
     0
102
RTVSPropertyOp28
 70
     1
102
RTVSPropertyOp29
 70
     1
102
RTVSPropertyOp30
 70
     1
102
RTVSPropertyOp31
 70
     1
102
RTVSPropertyOp32
 70
     1
102
RTVSPropertyOp33
 70
     1
102
RTVSPropertyOp34
 70
     1
102
RTVSPropertyOp35
 70
     1
102
RTVSPropertyOp36
 70
     1
102
RTVSPropertyOp37
 70
     1
102
RTVSPropertyOp38
 70
     1
102
RTVSPropertyOp39
 70
     1
102
RTVSPropertyOp40
 70
     1
102
RTVSPropertyOp41
 70
     1
102
RTVSPropertyOp42
 70
     1
102
RTVSPropertyOp43
 70
     1
102
RTVSPropertyOp44
 70
     1
102
RTVSPropertyOp45
 70
     1
102
RTVSPropertyOp46
 70
     1
102
RTVSPropertyOp47
 70
     1
102
RTVSPropertyOp48
 70
     1
102
RTVSPropertyOp49
 70
     1
102
RTVSPropertyOp50
 70
     1
102
RTVSPropertyOp51
 70
     0
102
RTVSPropertyOp52
 70
     0
102
RTVSPropertyOp53
 70
     1
102
RTVSPropertyOp54
 70
     1
102
RTVSPropertyOp55
 70
     1
102
RTVSPropertyOp56
 70
     1
102
RTVSPropertyOp57
 70
     1
102
RTVSPost2010Prop28
280
     0
102
RTVSPost2010PropOp28
 70
     1
102
RTVSPost2010Prop29
280
     1
102
RTVSPost2010PropOp29
 70
     1
102
RTVSPost2010Prop30
280
     1
102
RTVSPost2010PropOp30
 70
     1
102
RTVSPost2010Prop31
280
     0
102
RTVSPost2010PropOp31
 70
     1
102
RTVSPost2010Prop32
280
     0
102
RTVSPost2010PropOp32
 70
     1
102
RTVSPost2010Prop33
280
     0
102
RTVSPost2010PropOp33
 70
     1
102
RTVSPost2010Prop34
280
     0
102
RTVSPost2010PropOp34
 70
     1
102
RTVSPost2010Prop35
280
     0
102
RTVSPost2010PropOp35
 70
     1
102
RTVSPost2010Prop36
280
     0
102
RTVSPost2010PropOp36
 70
     1
102
RTVSPost2010Prop37
 90
       50
102
RTVSPost2010PropOp37
 70
     1
102
RTVSPost2010Prop38
140
0.0
102
RTVSPost2010PropOp38
 70
     1
102
RTVSPost2010Prop39
140
1.0
102
RTVSPost2010PropOp39
 70
     1
102
RTVSPost2010Prop40
 90
        0
102
RTVSPost2010PropOp40
 70
     1
102
RTVSPost2010Prop41ColorIndex
 90
       18
102
RTVSPost2010Prop41ColorRGB
 90
        0
102
RTVSPost2010PropOp41
 70
     1
102
RTVSPost2010Prop42
 90
       50
102
RTVSPost2010PropOp42
 70
     1
102
RTVSPost2010Prop43
 90
        3
102
RTVSPost2010PropOp43
 70
     1
102
RTVSPost2010Prop44ColorIndex
 90
        5
102
RTVSPost2010Prop44ColorRGB
 90
      255
102
RTVSPost2010PropOp44
 70
     1
102
RTVSPost2010Prop45
280
     0
102
RTVSPost2010PropOp45
 70
     1
102
RTVSPost2010Prop46
 90
       50
102
RTVSPost2010PropOp46
 70
     1
102
RTVSPost2010Prop47
 90
       50
102
RTVSPost2010PropOp47
 70
     1
102
RTVSPost2010Prop48
 90
       50
102
RTVSPost2010PropOp48
 70
     1
102
RTVSPost2010Prop49
280
     0
102
RTVSPost2010PropOp49
 70
     1
102
RTVSPost2010Prop50
 90
       50
102
RTVSPost2010PropOp50
 70
     1
102
RTVSPost2010Prop51ColorIndex
 90
      256
102
RTVSPost2010Prop51ColorRGB
 90
-16777216
102
RTVSPost2010PropOp51
 70
     0
102
RTVSPost2010Prop52
140
1.0
102
RTVSPost2010PropOp52
 70
     0
102
RTVSPost2010Prop53
 90
        2
102
RTVSPost2010PropOp53
 70
     1
102
RTVSPost2010Prop54
  1
strokes_ogs.tif
102
RTVSPost2010PropOp54
 70
     1
102
RTVSPost2010Prop55
280
     0
102
RTVSPost2010PropOp55
 70
     1
102
RTVSPost2010Prop56
140
1.0
102
RTVSPost2010PropOp56
 70
     1
102
RTVSPost2010Prop57
140
1.0
102
RTVSPost2010PropOp57
 70
     1
  0
XRECORD
  5
58F
102
{ACAD_REACTORS
330
58E
102
}
330
58E
100
AcDbXrecord
280
     1
102
RTVSPropertyOp0
 70
     1
102
RTVSPropertyOp1
 70
     1
102
RTVSPropertyOp2
 70
     1
102
RTVSPropertyOp3
 70
     1
102
RTVSPropertyOp4
 70
     1
102
RTVSPropertyOp5
 70
     1
102
RTVSPropertyOp6
 70
     1
102
RTVSPropertyOp7
 70
     1
102
RTVSPropertyOp8
 70
     1
102
RTVSPropertyOp9
 70
     1
102
RTVSPropertyOp10
 70
     1
102
RTVSPropertyOp11
 70
     1
102
RTVSPropertyOp12
 70
     1
102
RTVSPropertyOp13
 70
     1
102
RTVSPropertyOp14
 70
     1
102
RTVSPropertyOp15
 70
     1
102
RTVSPropertyOp16
 70
     1
102
RTVSPropertyOp17
 70
     1
102
RTVSPropertyOp18
 70
     1
102
RTVSPropertyOp19
 70
     1
102
RTVSPropertyOp20
 70
     1
102
RTVSPropertyOp21
 70
     1
102
RTVSPropertyOp22
 70
     1
102
RTVSPropertyOp23
 70
     1
102
RTVSPropertyOp24
 70
     1
102
RTVSPropertyOp25
 70
     1
102
RTVSPropertyOp26
 70
     1
102
RTVSPropertyOp27
 70
     1
102
RTVSPropertyOp28
 70
     1
102
RTVSPropertyOp29
 70
     1
102
RTVSPropertyOp30
 70
     1
102
RTVSPropertyOp31
 70
     1
102
RTVSPropertyOp32
 70
     1
102
RTVSPropertyOp33
 70
     1
102
RTVSPropertyOp34
 70
     1
102
RTVSPropertyOp35
 70
     1
102
RTVSPropertyOp36
 70
     1
102
RTVSPropertyOp37
 70
     1
102
RTVSPropertyOp38
 70
     1
102
RTVSPropertyOp39
 70
     1
102
RTVSPropertyOp40
 70
     1
102
RTVSPropertyOp41
 70
     1
102
RTVSPropertyOp42
 70
     1
102
RTVSPropertyOp43
 70
     1
102
RTVSPropertyOp44
 70
     1
102
RTVSPropertyOp45
 70
     1
102
RTVSPropertyOp46
 70
     1
102
RTVSPropertyOp47
 70
     1
102
RTVSPropertyOp48
 70
     1
102
RTVSPropertyOp49
 70
     1
102
RTVSPropertyOp50
 70
     1
102
RTVSPropertyOp51
 70
     0
102
RTVSPropertyOp52
 70
     0
102
RTVSPropertyOp53
 70
     1
102
RTVSPropertyOp54
 70
     1
102
RTVSPropertyOp55
 70
     1
102
RTVSPropertyOp56
 70
     1
102
RTVSPropertyOp57
 70
     1
102
RTVSPost2010Prop28
280
     0
102
RTVSPost2010PropOp28
 70
     1
102
RTVSPost2010Prop29
280
     1
102
RTVSPost2010PropOp29
 70
     1
102
RTVSPost2010Prop30
280
     1
102
RTVSPost2010PropOp30
 70
     1
102
RTVSPost2010Prop31
280
     0
102
RTVSPost2010PropOp31
 70
     1
102
RTVSPost2010Prop32
280
     0
102
RTVSPost2010PropOp32
 70
     1
102
RTVSPost2010Prop33
280
     0
102
RTVSPost2010PropOp33
 70
     1
102
RTVSPost2010Prop34
280
     0
102
RTVSPost2010PropOp34
 70
     1
102
RTVSPost2010Prop35
280
     0
102
RTVSPost2010PropOp35
 70
     1
102
RTVSPost2010Prop36
280
     0
102
RTVSPost2010PropOp36
 70
     1
102
RTVSPost2010Prop37
 90
       50
102
RTVSPost2010PropOp37
 70
     1
102
RTVSPost2010Prop38
140
0.0
102
RTVSPost2010PropOp38
 70
     1
102
RTVSPost2010Prop39
140
1.0
102
RTVSPost2010PropOp39
 70
     1
102
RTVSPost2010Prop40
 90
        0
102
RTVSPost2010PropOp40
 70
     1
102
RTVSPost2010Prop41ColorIndex
 90
       18
102
RTVSPost2010Prop41ColorRGB
 90
        0
102
RTVSPost2010PropOp41
 70
     1
102
RTVSPost2010Prop42
 90
       50
102
RTVSPost2010PropOp42
 70
     1
102
RTVSPost2010Prop43
 90
        3
102
RTVSPost2010PropOp43
 70
     1
102
RTVSPost2010Prop44ColorIndex
 90
        5
102
RTVSPost2010Prop44ColorRGB
 90
      255
102
RTVSPost2010PropOp44
 70
     1
102
RTVSPost2010Prop45
280
     0
102
RTVSPost2010PropOp45
 70
     1
102
RTVSPost2010Prop46
 90
       50
102
RTVSPost2010PropOp46
 70
     1
102
RTVSPost2010Prop47
 90
       50
102
RTVSPost2010PropOp47
 70
     1
102
RTVSPost2010Prop48
 90
       50
102
RTVSPost2010PropOp48
 70
     1
102
RTVSPost2010Prop49
280
     0
102
RTVSPost2010PropOp49
 70
     1
102
RTVSPost2010Prop50
 90
       50
102
RTVSPost2010PropOp50
 70
     1
102
RTVSPost2010Prop51ColorIndex
 90
      256
102
RTVSPost2010Prop51ColorRGB
 90
-16777216
102
RTVSPost2010PropOp51
 70
     0
102
RTVSPost2010Prop52
140
1.0
102
RTVSPost2010PropOp52
 70
     0
102
RTVSPost2010Prop53
 90
        2
102
RTVSPost2010PropOp53
 70
     1
102
RTVSPost2010Prop54
  1
strokes_ogs.tif
102
RTVSPost2010PropOp54
 70
     1
102
RTVSPost2010Prop55
280
     0
102
RTVSPost2010PropOp55
 70
     1
102
RTVSPost2010Prop56
140
1.0
102
RTVSPost2010PropOp56
 70
     1
102
RTVSPost2010Prop57
140
1.0
102
RTVSPost2010PropOp57
 70
     1
  0
XRECORD
  5
573
102
{ACAD_REACTORS
330
572
102
}
330
572
100
AcDbXrecord
280
     1
102
RTVSPropertyOp0
 70
     1
102
RTVSPropertyOp1
 70
     1
102
RTVSPropertyOp2
 70
     1
102
RTVSPropertyOp3
 70
     1
102
RTVSPropertyOp4
 70
     1
102
RTVSPropertyOp5
 70
     1
102
RTVSPropertyOp6
 70
     1
102
RTVSPropertyOp7
 70
     1
102
RTVSPropertyOp8
 70
     1
102
RTVSPropertyOp9
 70
     1
102
RTVSPropertyOp10
 70
     1
102
RTVSPropertyOp11
 70
     1
102
RTVSPropertyOp12
 70
     1
102
RTVSPropertyOp13
 70
     1
102
RTVSPropertyOp14
 70
     1
102
RTVSPropertyOp15
 70
     1
102
RTVSPropertyOp16
 70
     1
102
RTVSPropertyOp17
 70
     1
102
RTVSPropertyOp18
 70
     1
102
RTVSPropertyOp19
 70
     1
102
RTVSPropertyOp20
 70
     1
102
RTVSPropertyOp21
 70
     1
102
RTVSPropertyOp22
 70
     1
102
RTVSPropertyOp23
 70
     1
102
RTVSPropertyOp24
 70
     1
102
RTVSPropertyOp25
 70
     1
102
RTVSPropertyOp26
 70
     1
102
RTVSPropertyOp27
 70
     1
102
RTVSPropertyOp28
 70
     1
102
RTVSPropertyOp29
 70
     1
102
RTVSPropertyOp30
 70
     1
102
RTVSPropertyOp31
 70
     1
102
RTVSPropertyOp32
 70
     1
102
RTVSPropertyOp33
 70
     1
102
RTVSPropertyOp34
 70
     1
102
RTVSPropertyOp35
 70
     1
102
RTVSPropertyOp36
 70
     1
102
RTVSPropertyOp37
 70
     1
102
RTVSPropertyOp38
 70
     1
102
RTVSPropertyOp39
 70
     1
102
RTVSPropertyOp40
 70
     1
102
RTVSPropertyOp41
 70
     1
102
RTVSPropertyOp42
 70
     1
102
RTVSPropertyOp43
 70
     1
102
RTVSPropertyOp44
 70
     1
102
RTVSPropertyOp45
 70
     1
102
RTVSPropertyOp46
 70
     1
102
RTVSPropertyOp47
 70
     1
102
RTVSPropertyOp48
 70
     1
102
RTVSPropertyOp49
 70
     1
102
RTVSPropertyOp50
 70
     1
102
RTVSPropertyOp51
 70
     0
102
RTVSPropertyOp52
 70
     0
102
RTVSPropertyOp53
 70
     1
102
RTVSPropertyOp54
 70
     1
102
RTVSPropertyOp55
 70
     1
102
RTVSPropertyOp56
 70
     1
102
RTVSPropertyOp57
 70
     1
102
RTVSPost2010Prop28
280
     0
102
RTVSPost2010PropOp28
 70
     1
102
RTVSPost2010Prop29
280
     1
102
RTVSPost2010PropOp29
 70
     1
102
RTVSPost2010Prop30
280
     1
102
RTVSPost2010PropOp30
 70
     1
102
RTVSPost2010Prop31
280
     0
102
RTVSPost2010PropOp31
 70
     1
102
RTVSPost2010Prop32
280
     0
102
RTVSPost2010PropOp32
 70
     1
102
RTVSPost2010Prop33
280
     0
102
RTVSPost2010PropOp33
 70
     1
102
RTVSPost2010Prop34
280
     0
102
RTVSPost2010PropOp34
 70
     1
102
RTVSPost2010Prop35
280
     0
102
RTVSPost2010PropOp35
 70
     1
102
RTVSPost2010Prop36
280
     0
102
RTVSPost2010PropOp36
 70
     1
102
RTVSPost2010Prop37
 90
       50
102
RTVSPost2010PropOp37
 70
     1
102
RTVSPost2010Prop38
140
0.0
102
RTVSPost2010PropOp38
 70
     1
102
RTVSPost2010Prop39
140
1.0
102
RTVSPost2010PropOp39
 70
     1
102
RTVSPost2010Prop40
 90
        0
102
RTVSPost2010PropOp40
 70
     1
102
RTVSPost2010Prop41ColorIndex
 90
       18
102
RTVSPost2010Prop41ColorRGB
 90
        0
102
RTVSPost2010PropOp41
 70
     1
102
RTVSPost2010Prop42
 90
       50
102
RTVSPost2010PropOp42
 70
     1
102
RTVSPost2010Prop43
 90
        3
102
RTVSPost2010PropOp43
 70
     1
102
RTVSPost2010Prop44ColorIndex
 90
        5
102
RTVSPost2010Prop44ColorRGB
 90
      255
102
RTVSPost2010PropOp44
 70
     1
102
RTVSPost2010Prop45
280
     0
102
RTVSPost2010PropOp45
 70
     1
102
RTVSPost2010Prop46
 90
       50
102
RTVSPost2010PropOp46
 70
     1
102
RTVSPost2010Prop47
 90
       50
102
RTVSPost2010PropOp47
 70
     1
102
RTVSPost2010Prop48
 90
       50
102
RTVSPost2010PropOp48
 70
     1
102
RTVSPost2010Prop49
280
     0
102
RTVSPost2010PropOp49
 70
     1
102
RTVSPost2010Prop50
 90
       50
102
RTVSPost2010PropOp50
 70
     1
102
RTVSPost2010Prop51ColorIndex
 90
      256
102
RTVSPost2010Prop51ColorRGB
 90
-16777216
102
RTVSPost2010PropOp51
 70
     0
102
RTVSPost2010Prop52
140
1.0
102
RTVSPost2010PropOp52
 70
     0
102
RTVSPost2010Prop53
 90
        2
102
RTVSPost2010PropOp53
 70
     1
102
RTVSPost2010Prop54
  1
strokes_ogs.tif
102
RTVSPost2010PropOp54
 70
     1
102
RTVSPost2010Prop55
280
     0
102
RTVSPost2010PropOp55
 70
     1
102
RTVSPost2010Prop56
140
1.0
102
RTVSPost2010PropOp56
 70
     1
102
RTVSPost2010Prop57
140
1.0
102
RTVSPost2010PropOp57
 70
     1
  0
XRECORD
  5
575
102
{ACAD_REACTORS
330
574
102
}
330
574
100
AcDbXrecord
280
     1
102
RTVSPropertyOp0
 70
     1
102
RTVSPropertyOp1
 70
     1
102
RTVSPropertyOp2
 70
     1
102
RTVSPropertyOp3
 70
     1
102
RTVSPropertyOp4
 70
     1
102
RTVSPropertyOp5
 70
     1
102
RTVSPropertyOp6
 70
     1
102
RTVSPropertyOp7
 70
     1
102
RTVSPropertyOp8
 70
     1
102
RTVSPropertyOp9
 70
     1
102
RTVSPropertyOp10
 70
     1
102
RTVSPropertyOp11
 70
     1
102
RTVSPropertyOp12
 70
     1
102
RTVSPropertyOp13
 70
     1
102
RTVSPropertyOp14
 70
     1
102
RTVSPropertyOp15
 70
     1
102
RTVSPropertyOp16
 70
     1
102
RTVSPropertyOp17
 70
     1
102
RTVSPropertyOp18
 70
     1
102
RTVSPropertyOp19
 70
     1
102
RTVSPropertyOp20
 70
     1
102
RTVSPropertyOp21
 70
     1
102
RTVSPropertyOp22
 70
     1
102
RTVSPropertyOp23
 70
     1
102
RTVSPropertyOp24
 70
     1
102
RTVSPropertyOp25
 70
     1
102
RTVSPropertyOp26
 70
     1
102
RTVSPropertyOp27
 70
     1
102
RTVSPropertyOp28
 70
     1
102
RTVSPropertyOp29
 70
     1
102
RTVSPropertyOp30
 70
     1
102
RTVSPropertyOp31
 70
     1
102
RTVSPropertyOp32
 70
     1
102
RTVSPropertyOp33
 70
     1
102
RTVSPropertyOp34
 70
     1
102
RTVSPropertyOp35
 70
     1
102
RTVSPropertyOp36
 70
     1
102
RTVSPropertyOp37
 70
     1
102
RTVSPropertyOp38
 70
     1
102
RTVSPropertyOp39
 70
     1
102
RTVSPropertyOp40
 70
     1
102
RTVSPropertyOp41
 70
     1
102
RTVSPropertyOp42
 70
     1
102
RTVSPropertyOp43
 70
     1
102
RTVSPropertyOp44
 70
     1
102
RTVSPropertyOp45
 70
     1
102
RTVSPropertyOp46
 70
     1
102
RTVSPropertyOp47
 70
     1
102
RTVSPropertyOp48
 70
     1
102
RTVSPropertyOp49
 70
     1
102
RTVSPropertyOp50
 70
     1
102
RTVSPropertyOp51
 70
     0
102
RTVSPropertyOp52
 70
     0
102
RTVSPropertyOp53
 70
     1
102
RTVSPropertyOp54
 70
     1
102
RTVSPropertyOp55
 70
     1
102
RTVSPropertyOp56
 70
     1
102
RTVSPropertyOp57
 70
     1
102
RTVSPost2010Prop28
280
     0
102
RTVSPost2010PropOp28
 70
     1
102
RTVSPost2010Prop29
280
     1
102
RTVSPost2010PropOp29
 70
     1
102
RTVSPost2010Prop30
280
     1
102
RTVSPost2010PropOp30
 70
     1
102
RTVSPost2010Prop31
280
     0
102
RTVSPost2010PropOp31
 70
     1
102
RTVSPost2010Prop32
280
     0
102
RTVSPost2010PropOp32
 70
     1
102
RTVSPost2010Prop33
280
     0
102
RTVSPost2010PropOp33
 70
     1
102
RTVSPost2010Prop34
280
     0
102
RTVSPost2010PropOp34
 70
     1
102
RTVSPost2010Prop35
280
     0
102
RTVSPost2010PropOp35
 70
     1
102
RTVSPost2010Prop36
280
     0
102
RTVSPost2010PropOp36
 70
     1
102
RTVSPost2010Prop37
 90
       50
102
RTVSPost2010PropOp37
 70
     1
102
RTVSPost2010Prop38
140
0.0
102
RTVSPost2010PropOp38
 70
     1
102
RTVSPost2010Prop39
140
1.0
102
RTVSPost2010PropOp39
 70
     1
102
RTVSPost2010Prop40
 90
        0
102
RTVSPost2010PropOp40
 70
     1
102
RTVSPost2010Prop41ColorIndex
 90
       18
102
RTVSPost2010Prop41ColorRGB
 90
        0
102
RTVSPost2010PropOp41
 70
     1
102
RTVSPost2010Prop42
 90
       50
102
RTVSPost2010PropOp42
 70
     1
102
RTVSPost2010Prop43
 90
        3
102
RTVSPost2010PropOp43
 70
     1
102
RTVSPost2010Prop44ColorIndex
 90
        5
102
RTVSPost2010Prop44ColorRGB
 90
      255
102
RTVSPost2010PropOp44
 70
     1
102
RTVSPost2010Prop45
280
     0
102
RTVSPost2010PropOp45
 70
     1
102
RTVSPost2010Prop46
 90
       50
102
RTVSPost2010PropOp46
 70
     1
102
RTVSPost2010Prop47
 90
       50
102
RTVSPost2010PropOp47
 70
     1
102
RTVSPost2010Prop48
 90
       50
102
RTVSPost2010PropOp48
 70
     1
102
RTVSPost2010Prop49
280
     0
102
RTVSPost2010PropOp49
 70
     1
102
RTVSPost2010Prop50
 90
       50
102
RTVSPost2010PropOp50
 70
     1
102
RTVSPost2010Prop51ColorIndex
 90
      256
102
RTVSPost2010Prop51ColorRGB
 90
-16777216
102
RTVSPost2010PropOp51
 70
     0
102
RTVSPost2010Prop52
140
1.0
102
RTVSPost2010PropOp52
 70
     0
102
RTVSPost2010Prop53
 90
        2
102
RTVSPost2010PropOp53
 70
     1
102
RTVSPost2010Prop54
  1
strokes_ogs.tif
102
RTVSPost2010PropOp54
 70
     1
102
RTVSPost2010Prop55
280
     0
102
RTVSPost2010PropOp55
 70
     1
102
RTVSPost2010Prop56
140
1.0
102
RTVSPost2010PropOp56
 70
     1
102
RTVSPost2010Prop57
140
1.0
102
RTVSPost2010PropOp57
 70
     1
  0
XRECORD
  5
577
102
{ACAD_REACTORS
330
576
102
}
330
576
100
AcDbXrecord
280
     1
102
RTVSPropertyOp0
 70
     1
102
RTVSPropertyOp1
 70
     1
102
RTVSPropertyOp2
 70
     1
102
RTVSPropertyOp3
 70
     1
102
RTVSPropertyOp4
 70
     1
102
RTVSPropertyOp5
 70
     1
102
RTVSPropertyOp6
 70
     1
102
RTVSPropertyOp7
 70
     1
102
RTVSPropertyOp8
 70
     1
102
RTVSPropertyOp9
 70
     1
102
RTVSPropertyOp10
 70
     1
102
RTVSPropertyOp11
 70
     1
102
RTVSPropertyOp12
 70
     1
102
RTVSPropertyOp13
 70
     1
102
RTVSPropertyOp14
 70
     1
102
RTVSPropertyOp15
 70
     1
102
RTVSPropertyOp16
 70
     1
102
RTVSPropertyOp17
 70
     1
102
RTVSPropertyOp18
 70
     1
102
RTVSPropertyOp19
 70
     1
102
RTVSPropertyOp20
 70
     1
102
RTVSPropertyOp21
 70
     1
102
RTVSPropertyOp22
 70
     1
102
RTVSPropertyOp23
 70
     1
102
RTVSPropertyOp24
 70
     1
102
RTVSPropertyOp25
 70
     1
102
RTVSPropertyOp26
 70
     1
102
RTVSPropertyOp27
 70
     1
102
RTVSPropertyOp28
 70
     1
102
RTVSPropertyOp29
 70
     1
102
RTVSPropertyOp30
 70
     1
102
RTVSPropertyOp31
 70
     1
102
RTVSPropertyOp32
 70
     1
102
RTVSPropertyOp33
 70
     1
102
RTVSPropertyOp34
 70
     1
102
RTVSPropertyOp35
 70
     1
102
RTVSPropertyOp36
 70
     1
102
RTVSPropertyOp37
 70
     1
102
RTVSPropertyOp38
 70
     1
102
RTVSPropertyOp39
 70
     1
102
RTVSPropertyOp40
 70
     1
102
RTVSPropertyOp41
 70
     1
102
RTVSPropertyOp42
 70
     1
102
RTVSPropertyOp43
 70
     1
102
RTVSPropertyOp44
 70
     1
102
RTVSPropertyOp45
 70
     1
102
RTVSPropertyOp46
 70
     1
102
RTVSPropertyOp47
 70
     1
102
RTVSPropertyOp48
 70
     1
102
RTVSPropertyOp49
 70
     1
102
RTVSPropertyOp50
 70
     1
102
RTVSPropertyOp51
 70
     0
102
RTVSPropertyOp52
 70
     0
102
RTVSPropertyOp53
 70
     1
102
RTVSPropertyOp54
 70
     1
102
RTVSPropertyOp55
 70
     1
102
RTVSPropertyOp56
 70
     1
102
RTVSPropertyOp57
 70
     1
102
RTVSPost2010Prop28
280
     0
102
RTVSPost2010PropOp28
 70
     1
102
RTVSPost2010Prop29
280
     1
102
RTVSPost2010PropOp29
 70
     1
102
RTVSPost2010Prop30
280
     1
102
RTVSPost2010PropOp30
 70
     1
102
RTVSPost2010Prop31
280
     0
102
RTVSPost2010PropOp31
 70
     1
102
RTVSPost2010Prop32
280
     0
102
RTVSPost2010PropOp32
 70
     1
102
RTVSPost2010Prop33
280
     0
102
RTVSPost2010PropOp33
 70
     1
102
RTVSPost2010Prop34
280
     0
102
RTVSPost2010PropOp34
 70
     1
102
RTVSPost2010Prop35
280
     0
102
RTVSPost2010PropOp35
 70
     1
102
RTVSPost2010Prop36
280
     0
102
RTVSPost2010PropOp36
 70
     1
102
RTVSPost2010Prop37
 90
       50
102
RTVSPost2010PropOp37
 70
     1
102
RTVSPost2010Prop38
140
0.0
102
RTVSPost2010PropOp38
 70
     1
102
RTVSPost2010Prop39
140
1.0
102
RTVSPost2010PropOp39
 70
     1
102
RTVSPost2010Prop40
 90
        0
102
RTVSPost2010PropOp40
 70
     1
102
RTVSPost2010Prop41ColorIndex
 90
       18
102
RTVSPost2010Prop41ColorRGB
 90
        0
102
RTVSPost2010PropOp41
 70
     1
102
RTVSPost2010Prop42
 90
       50
102
RTVSPost2010PropOp42
 70
     1
102
RTVSPost2010Prop43
 90
        3
102
RTVSPost2010PropOp43
 70
     1
102
RTVSPost2010Prop44ColorIndex
 90
        5
102
RTVSPost2010Prop44ColorRGB
 90
      255
102
RTVSPost2010PropOp44
 70
     1
102
RTVSPost2010Prop45
280
     0
102
RTVSPost2010PropOp45
 70
     1
102
RTVSPost2010Prop46
 90
       50
102
RTVSPost2010PropOp46
 70
     1
102
RTVSPost2010Prop47
 90
       50
102
RTVSPost2010PropOp47
 70
     1
102
RTVSPost2010Prop48
 90
       50
102
RTVSPost2010PropOp48
 70
     1
102
RTVSPost2010Prop49
280
     0
102
RTVSPost2010PropOp49
 70
     1
102
RTVSPost2010Prop50
 90
       50
102
RTVSPost2010PropOp50
 70
     1
102
RTVSPost2010Prop51ColorIndex
 90
      256
102
RTVSPost2010Prop51ColorRGB
 90
-16777216
102
RTVSPost2010PropOp51
 70
     0
102
RTVSPost2010Prop52
140
1.0
102
RTVSPost2010PropOp52
 70
     0
102
RTVSPost2010Prop53
 90
        2
102
RTVSPost2010PropOp53
 70
     1
102
RTVSPost2010Prop54
  1
strokes_ogs.tif
102
RTVSPost2010PropOp54
 70
     1
102
RTVSPost2010Prop55
280
     0
102
RTVSPost2010PropOp55
 70
     1
102
RTVSPost2010Prop56
140
1.0
102
RTVSPost2010PropOp56
 70
     1
102
RTVSPost2010Prop57
140
1.0
102
RTVSPost2010PropOp57
 70
     1
  0
XRECORD
  5
579
102
{ACAD_REACTORS
330
578
102
}
330
578
100
AcDbXrecord
280
     1
102
RTVSPropertyOp0
 70
     1
102
RTVSPropertyOp1
 70
     1
102
RTVSPropertyOp2
 70
     1
102
RTVSPropertyOp3
 70
     1
102
RTVSPropertyOp4
 70
     1
102
RTVSPropertyOp5
 70
     1
102
RTVSPropertyOp6
 70
     1
102
RTVSPropertyOp7
 70
     1
102
RTVSPropertyOp8
 70
     1
102
RTVSPropertyOp9
 70
     1
102
RTVSPropertyOp10
 70
     1
102
RTVSPropertyOp11
 70
     1
102
RTVSPropertyOp12
 70
     1
102
RTVSPropertyOp13
 70
     1
102
RTVSPropertyOp14
 70
     1
102
RTVSPropertyOp15
 70
     1
102
RTVSPropertyOp16
 70
     1
102
RTVSPropertyOp17
 70
     1
102
RTVSPropertyOp18
 70
     1
102
RTVSPropertyOp19
 70
     1
102
RTVSPropertyOp20
 70
     1
102
RTVSPropertyOp21
 70
     1
102
RTVSPropertyOp22
 70
     1
102
RTVSPropertyOp23
 70
     1
102
RTVSPropertyOp24
 70
     1
102
RTVSPropertyOp25
 70
     1
102
RTVSPropertyOp26
 70
     1
102
RTVSPropertyOp27
 70
     1
102
RTVSPropertyOp28
 70
     1
102
RTVSPropertyOp29
 70
     1
102
RTVSPropertyOp30
 70
     1
102
RTVSPropertyOp31
 70
     1
102
RTVSPropertyOp32
 70
     1
102
RTVSPropertyOp33
 70
     1
102
RTVSPropertyOp34
 70
     1
102
RTVSPropertyOp35
 70
     1
102
RTVSPropertyOp36
 70
     1
102
RTVSPropertyOp37
 70
     1
102
RTVSPropertyOp38
 70
     1
102
RTVSPropertyOp39
 70
     1
102
RTVSPropertyOp40
 70
     1
102
RTVSPropertyOp41
 70
     1
102
RTVSPropertyOp42
 70
     1
102
RTVSPropertyOp43
 70
     1
102
RTVSPropertyOp44
 70
     1
102
RTVSPropertyOp45
 70
     1
102
RTVSPropertyOp46
 70
     1
102
RTVSPropertyOp47
 70
     1
102
RTVSPropertyOp48
 70
     1
102
RTVSPropertyOp49
 70
     1
102
RTVSPropertyOp50
 70
     1
102
RTVSPropertyOp51
 70
     0
102
RTVSPropertyOp52
 70
     0
102
RTVSPropertyOp53
 70
     1
102
RTVSPropertyOp54
 70
     1
102
RTVSPropertyOp55
 70
     1
102
RTVSPropertyOp56
 70
     1
102
RTVSPropertyOp57
 70
     1
102
RTVSPost2010Prop28
280
     0
102
RTVSPost2010PropOp28
 70
     1
102
RTVSPost2010Prop29
280
     1
102
RTVSPost2010PropOp29
 70
     1
102
RTVSPost2010Prop30
280
     1
102
RTVSPost2010PropOp30
 70
     1
102
RTVSPost2010Prop31
280
     0
102
RTVSPost2010PropOp31
 70
     1
102
RTVSPost2010Prop32
280
     0
102
RTVSPost2010PropOp32
 70
     1
102
RTVSPost2010Prop33
280
     0
102
RTVSPost2010PropOp33
 70
     1
102
RTVSPost2010Prop34
280
     0
102
RTVSPost2010PropOp34
 70
     1
102
RTVSPost2010Prop35
280
     0
102
RTVSPost2010PropOp35
 70
     1
102
RTVSPost2010Prop36
280
     0
102
RTVSPost2010PropOp36
 70
     1
102
RTVSPost2010Prop37
 90
       50
102
RTVSPost2010PropOp37
 70
     1
102
RTVSPost2010Prop38
140
0.0
102
RTVSPost2010PropOp38
 70
     1
102
RTVSPost2010Prop39
140
1.0
102
RTVSPost2010PropOp39
 70
     1
102
RTVSPost2010Prop40
 90
        0
102
RTVSPost2010PropOp40
 70
     1
102
RTVSPost2010Prop41ColorIndex
 90
       18
102
RTVSPost2010Prop41ColorRGB
 90
        0
102
RTVSPost2010PropOp41
 70
     1
102
RTVSPost2010Prop42
 90
       50
102
RTVSPost2010PropOp42
 70
     1
102
RTVSPost2010Prop43
 90
        3
102
RTVSPost2010PropOp43
 70
     1
102
RTVSPost2010Prop44ColorIndex
 90
        5
102
RTVSPost2010Prop44ColorRGB
 90
      255
102
RTVSPost2010PropOp44
 70
     1
102
RTVSPost2010Prop45
280
     0
102
RTVSPost2010PropOp45
 70
     1
102
RTVSPost2010Prop46
 90
       50
102
RTVSPost2010PropOp46
 70
     1
102
RTVSPost2010Prop47
 90
       50
102
RTVSPost2010PropOp47
 70
     1
102
RTVSPost2010Prop48
 90
       50
102
RTVSPost2010PropOp48
 70
     1
102
RTVSPost2010Prop49
280
     0
102
RTVSPost2010PropOp49
 70
     1
102
RTVSPost2010Prop50
 90
       50
102
RTVSPost2010PropOp50
 70
     1
102
RTVSPost2010Prop51ColorIndex
 90
      256
102
RTVSPost2010Prop51ColorRGB
 90
-16777216
102
RTVSPost2010PropOp51
 70
     0
102
RTVSPost2010Prop52
140
1.0
102
RTVSPost2010PropOp52
 70
     0
102
RTVSPost2010Prop53
 90
        2
102
RTVSPost2010PropOp53
 70
     1
102
RTVSPost2010Prop54
  1
strokes_ogs.tif
102
RTVSPost2010PropOp54
 70
     1
102
RTVSPost2010Prop55
280
     0
102
RTVSPost2010PropOp55
 70
     1
102
RTVSPost2010Prop56
140
1.0
102
RTVSPost2010PropOp56
 70
     1
102
RTVSPost2010Prop57
140
1.0
102
RTVSPost2010PropOp57
 70
     1
  0
XRECORD
  5
57F
102
{ACAD_REACTORS
330
57E
102
}
330
57E
100
AcDbXrecord
280
     1
102
RTVSPropertyOp0
 70
     1
102
RTVSPropertyOp1
 70
     1
102
RTVSPropertyOp2
 70
     1
102
RTVSPropertyOp3
 70
     1
102
RTVSPropertyOp4
 70
     1
102
RTVSPropertyOp5
 70
     1
102
RTVSPropertyOp6
 70
     1
102
RTVSPropertyOp7
 70
     1
102
RTVSPropertyOp8
 70
     1
102
RTVSPropertyOp9
 70
     1
102
RTVSPropertyOp10
 70
     1
102
RTVSPropertyOp11
 70
     1
102
RTVSPropertyOp12
 70
     1
102
RTVSPropertyOp13
 70
     1
102
RTVSPropertyOp14
 70
     1
102
RTVSPropertyOp15
 70
     1
102
RTVSPropertyOp16
 70
     1
102
RTVSPropertyOp17
 70
     1
102
RTVSPropertyOp18
 70
     1
102
RTVSPropertyOp19
 70
     1
102
RTVSPropertyOp20
 70
     1
102
RTVSPropertyOp21
 70
     1
102
RTVSPropertyOp22
 70
     1
102
RTVSPropertyOp23
 70
     1
102
RTVSPropertyOp24
 70
     1
102
RTVSPropertyOp25
 70
     1
102
RTVSPropertyOp26
 70
     1
102
RTVSPropertyOp27
 70
     1
102
RTVSPropertyOp28
 70
     1
102
RTVSPropertyOp29
 70
     1
102
RTVSPropertyOp30
 70
     1
102
RTVSPropertyOp31
 70
     1
102
RTVSPropertyOp32
 70
     1
102
RTVSPropertyOp33
 70
     1
102
RTVSPropertyOp34
 70
     1
102
RTVSPropertyOp35
 70
     1
102
RTVSPropertyOp36
 70
     1
102
RTVSPropertyOp37
 70
     1
102
RTVSPropertyOp38
 70
     1
102
RTVSPropertyOp39
 70
     1
102
RTVSPropertyOp40
 70
     1
102
RTVSPropertyOp41
 70
     1
102
RTVSPropertyOp42
 70
     1
102
RTVSPropertyOp43
 70
     1
102
RTVSPropertyOp44
 70
     1
102
RTVSPropertyOp45
 70
     1
102
RTVSPropertyOp46
 70
     1
102
RTVSPropertyOp47
 70
     1
102
RTVSPropertyOp48
 70
     1
102
RTVSPropertyOp49
 70
     1
102
RTVSPropertyOp50
 70
     1
102
RTVSPropertyOp51
 70
     0
102
RTVSPropertyOp52
 70
     0
102
RTVSPropertyOp53
 70
     1
102
RTVSPropertyOp54
 70
     1
102
RTVSPropertyOp55
 70
     1
102
RTVSPropertyOp56
 70
     1
102
RTVSPropertyOp57
 70
     1
102
RTVSPost2010Prop28
280
     0
102
RTVSPost2010PropOp28
 70
     1
102
RTVSPost2010Prop29
280
     1
102
RTVSPost2010PropOp29
 70
     1
102
RTVSPost2010Prop30
280
     1
102
RTVSPost2010PropOp30
 70
     1
102
RTVSPost2010Prop31
280
     0
102
RTVSPost2010PropOp31
 70
     1
102
RTVSPost2010Prop32
280
     0
102
RTVSPost2010PropOp32
 70
     1
102
RTVSPost2010Prop33
280
     0
102
RTVSPost2010PropOp33
 70
     1
102
RTVSPost2010Prop34
280
     0
102
RTVSPost2010PropOp34
 70
     1
102
RTVSPost2010Prop35
280
     0
102
RTVSPost2010PropOp35
 70
     1
102
RTVSPost2010Prop36
280
     0
102
RTVSPost2010PropOp36
 70
     1
102
RTVSPost2010Prop37
 90
       50
102
RTVSPost2010PropOp37
 70
     1
102
RTVSPost2010Prop38
140
0.0
102
RTVSPost2010PropOp38
 70
     1
102
RTVSPost2010Prop39
140
1.0
102
RTVSPost2010PropOp39
 70
     1
102
RTVSPost2010Prop40
 90
        0
102
RTVSPost2010PropOp40
 70
     1
102
RTVSPost2010Prop41ColorIndex
 90
       18
102
RTVSPost2010Prop41ColorRGB
 90
        0
102
RTVSPost2010PropOp41
 70
     1
102
RTVSPost2010Prop42
 90
       50
102
RTVSPost2010PropOp42
 70
     1
102
RTVSPost2010Prop43
 90
        3
102
RTVSPost2010PropOp43
 70
     1
102
RTVSPost2010Prop44ColorIndex
 90
        5
102
RTVSPost2010Prop44ColorRGB
 90
      255
102
RTVSPost2010PropOp44
 70
     1
102
RTVSPost2010Prop45
280
     0
102
RTVSPost2010PropOp45
 70
     1
102
RTVSPost2010Prop46
 90
       50
102
RTVSPost2010PropOp46
 70
     1
102
RTVSPost2010Prop47
 90
       50
102
RTVSPost2010PropOp47
 70
     1
102
RTVSPost2010Prop48
 90
       50
102
RTVSPost2010PropOp48
 70
     1
102
RTVSPost2010Prop49
280
     0
102
RTVSPost2010PropOp49
 70
     1
102
RTVSPost2010Prop50
 90
       50
102
RTVSPost2010PropOp50
 70
     1
102
RTVSPost2010Prop51ColorIndex
 90
      256
102
RTVSPost2010Prop51ColorRGB
 90
-16777216
102
RTVSPost2010PropOp51
 70
     0
102
RTVSPost2010Prop52
140
1.0
102
RTVSPost2010PropOp52
 70
     0
102
RTVSPost2010Prop53
 90
        2
102
RTVSPost2010PropOp53
 70
     1
102
RTVSPost2010Prop54
  1
strokes_ogs.tif
102
RTVSPost2010PropOp54
 70
     1
102
RTVSPost2010Prop55
280
     0
102
RTVSPost2010PropOp55
 70
     1
102
RTVSPost2010Prop56
140
1.0
102
RTVSPost2010PropOp56
 70
     1
102
RTVSPost2010Prop57
140
1.0
102
RTVSPost2010PropOp57
 70
     1
  0
XRECORD
  5
593
102
{ACAD_REACTORS
330
592
102
}
330
592
100
AcDbXrecord
280
     1
102
RTVSPropertyOp0
 70
     0
102
RTVSPropertyOp1
 70
     0
102
RTVSPropertyOp2
 70
     0
102
RTVSPropertyOp3
 70
     0
102
RTVSPropertyOp4
 70
     0
102
RTVSPropertyOp5
 70
     0
102
RTVSPropertyOp6
 70
     0
102
RTVSPropertyOp7
 70
     0
102
RTVSPropertyOp8
 70
     0
102
RTVSPropertyOp9
 70
     0
102
RTVSPropertyOp10
 70
     0
102
RTVSPropertyOp11
 70
     0
102
RTVSPropertyOp12
 70
     0
102
RTVSPropertyOp13
 70
     0
102
RTVSPropertyOp14
 70
     0
102
RTVSPropertyOp15
 70
     0
102
RTVSPropertyOp16
 70
     0
102
RTVSPropertyOp17
 70
     0
102
RTVSPropertyOp18
 70
     0
102
RTVSPropertyOp19
 70
     0
102
RTVSPropertyOp20
 70
     0
102
RTVSPropertyOp21
 70
     0
102
RTVSPropertyOp22
 70
     0
102
RTVSPropertyOp23
 70
     0
102
RTVSPropertyOp24
 70
     0
102
RTVSPropertyOp25
 70
     0
102
RTVSPropertyOp26
 70
     0
102
RTVSPropertyOp27
 70
     0
102
RTVSPropertyOp28
 70
     1
102
RTVSPropertyOp29
 70
     1
102
RTVSPropertyOp30
 70
     1
102
RTVSPropertyOp31
 70
     1
102
RTVSPropertyOp32
 70
     1
102
RTVSPropertyOp33
 70
     1
102
RTVSPropertyOp34
 70
     1
102
RTVSPropertyOp35
 70
     1
102
RTVSPropertyOp36
 70
     1
102
RTVSPropertyOp37
 70
     1
102
RTVSPropertyOp38
 70
     1
102
RTVSPropertyOp39
 70
     1
102
RTVSPropertyOp40
 70
     1
102
RTVSPropertyOp41
 70
     1
102
RTVSPropertyOp42
 70
     1
102
RTVSPropertyOp43
 70
     1
102
RTVSPropertyOp44
 70
     1
102
RTVSPropertyOp45
 70
     1
102
RTVSPropertyOp46
 70
     1
102
RTVSPropertyOp47
 70
     1
102
RTVSPropertyOp48
 70
     1
102
RTVSPropertyOp49
 70
     1
102
RTVSPropertyOp50
 70
     1
102
RTVSPropertyOp51
 70
     0
102
RTVSPropertyOp52
 70
     0
102
RTVSPropertyOp53
 70
     1
102
RTVSPropertyOp54
 70
     1
102
RTVSPropertyOp55
 70
     1
102
RTVSPropertyOp56
 70
     1
102
RTVSPropertyOp57
 70
     1
102
RTVSPost2010Prop28
280
     0
102
RTVSPost2010PropOp28
 70
     1
102
RTVSPost2010Prop29
280
     1
102
RTVSPost2010PropOp29
 70
     1
102
RTVSPost2010Prop30
280
     1
102
RTVSPost2010PropOp30
 70
     1
102
RTVSPost2010Prop31
280
     0
102
RTVSPost2010PropOp31
 70
     1
102
RTVSPost2010Prop32
280
     0
102
RTVSPost2010PropOp32
 70
     1
102
RTVSPost2010Prop33
280
     0
102
RTVSPost2010PropOp33
 70
     1
102
RTVSPost2010Prop34
280
     0
102
RTVSPost2010PropOp34
 70
     1
102
RTVSPost2010Prop35
280
     0
102
RTVSPost2010PropOp35
 70
     1
102
RTVSPost2010Prop36
280
     0
102
RTVSPost2010PropOp36
 70
     1
102
RTVSPost2010Prop37
 90
       50
102
RTVSPost2010PropOp37
 70
     1
102
RTVSPost2010Prop38
140
0.0
102
RTVSPost2010PropOp38
 70
     1
102
RTVSPost2010Prop39
140
1.0
102
RTVSPost2010PropOp39
 70
     1
102
RTVSPost2010Prop40
 90
        0
102
RTVSPost2010PropOp40
 70
     1
102
RTVSPost2010Prop41ColorIndex
 90
       18
102
RTVSPost2010Prop41ColorRGB
 90
        0
102
RTVSPost2010PropOp41
 70
     1
102
RTVSPost2010Prop42
 90
       50
102
RTVSPost2010PropOp42
 70
     1
102
RTVSPost2010Prop43
 90
        3
102
RTVSPost2010PropOp43
 70
     1
102
RTVSPost2010Prop44ColorIndex
 90
        5
102
RTVSPost2010Prop44ColorRGB
 90
      255
102
RTVSPost2010PropOp44
 70
     1
102
RTVSPost2010Prop45
280
     0
102
RTVSPost2010PropOp45
 70
     1
102
RTVSPost2010Prop46
 90
       50
102
RTVSPost2010PropOp46
 70
     1
102
RTVSPost2010Prop47
 90
       50
102
RTVSPost2010PropOp47
 70
     1
102
RTVSPost2010Prop48
 90
       50
102
RTVSPost2010PropOp48
 70
     1
102
RTVSPost2010Prop49
280
     0
102
RTVSPost2010PropOp49
 70
     1
102
RTVSPost2010Prop50
 90
       50
102
RTVSPost2010PropOp50
 70
     1
102
RTVSPost2010Prop51ColorIndex
 90
      256
102
RTVSPost2010Prop51ColorRGB
 90
-16777216
102
RTVSPost2010PropOp51
 70
     0
102
RTVSPost2010Prop52
140
1.0
102
RTVSPost2010PropOp52
 70
     0
102
RTVSPost2010Prop53
 90
        2
102
RTVSPost2010PropOp53
 70
     1
102
RTVSPost2010Prop54
  1
strokes_ogs.tif
102
RTVSPost2010PropOp54
 70
     1
102
RTVSPost2010Prop55
280
     0
102
RTVSPost2010PropOp55
 70
     1
102
RTVSPost2010Prop56
140
1.0
102
RTVSPost2010PropOp56
 70
     1
102
RTVSPost2010Prop57
140
1.0
102
RTVSPost2010PropOp57
 70
     1
  0
XRECORD
  5
58D
102
{ACAD_REACTORS
330
58C
102
}
330
58C
100
AcDbXrecord
280
     1
102
RTVSPropertyOp0
 70
     1
102
RTVSPropertyOp1
 70
     1
102
RTVSPropertyOp2
 70
     1
102
RTVSPropertyOp3
 70
     1
102
RTVSPropertyOp4
 70
     1
102
RTVSPropertyOp5
 70
     1
102
RTVSPropertyOp6
 70
     1
102
RTVSPropertyOp7
 70
     1
102
RTVSPropertyOp8
 70
     1
102
RTVSPropertyOp9
 70
     1
102
RTVSPropertyOp10
 70
     1
102
RTVSPropertyOp11
 70
     1
102
RTVSPropertyOp12
 70
     1
102
RTVSPropertyOp13
 70
     1
102
RTVSPropertyOp14
 70
     1
102
RTVSPropertyOp15
 70
     1
102
RTVSPropertyOp16
 70
     1
102
RTVSPropertyOp17
 70
     1
102
RTVSPropertyOp18
 70
     1
102
RTVSPropertyOp19
 70
     1
102
RTVSPropertyOp20
 70
     1
102
RTVSPropertyOp21
 70
     1
102
RTVSPropertyOp22
 70
     1
102
RTVSPropertyOp23
 70
     1
102
RTVSPropertyOp24
 70
     1
102
RTVSPropertyOp25
 70
     1
102
RTVSPropertyOp26
 70
     1
102
RTVSPropertyOp27
 70
     1
102
RTVSPropertyOp28
 70
     1
102
RTVSPropertyOp29
 70
     1
102
RTVSPropertyOp30
 70
     1
102
RTVSPropertyOp31
 70
     1
102
RTVSPropertyOp32
 70
     1
102
RTVSPropertyOp33
 70
     1
102
RTVSPropertyOp34
 70
     1
102
RTVSPropertyOp35
 70
     1
102
RTVSPropertyOp36
 70
     1
102
RTVSPropertyOp37
 70
     1
102
RTVSPropertyOp38
 70
     1
102
RTVSPropertyOp39
 70
     1
102
RTVSPropertyOp40
 70
     1
102
RTVSPropertyOp41
 70
     1
102
RTVSPropertyOp42
 70
     1
102
RTVSPropertyOp43
 70
     1
102
RTVSPropertyOp44
 70
     1
102
RTVSPropertyOp45
 70
     1
102
RTVSPropertyOp46
 70
     1
102
RTVSPropertyOp47
 70
     1
102
RTVSPropertyOp48
 70
     1
102
RTVSPropertyOp49
 70
     1
102
RTVSPropertyOp50
 70
     1
102
RTVSPropertyOp51
 70
     0
102
RTVSPropertyOp52
 70
     0
102
RTVSPropertyOp53
 70
     1
102
RTVSPropertyOp54
 70
     1
102
RTVSPropertyOp55
 70
     1
102
RTVSPropertyOp56
 70
     1
102
RTVSPropertyOp57
 70
     1
102
RTVSPost2010Prop28
280
     0
102
RTVSPost2010PropOp28
 70
     1
102
RTVSPost2010Prop29
280
     1
102
RTVSPost2010PropOp29
 70
     1
102
RTVSPost2010Prop30
280
     1
102
RTVSPost2010PropOp30
 70
     1
102
RTVSPost2010Prop31
280
     0
102
RTVSPost2010PropOp31
 70
     1
102
RTVSPost2010Prop32
280
     0
102
RTVSPost2010PropOp32
 70
     1
102
RTVSPost2010Prop33
280
     0
102
RTVSPost2010PropOp33
 70
     1
102
RTVSPost2010Prop34
280
     0
102
RTVSPost2010PropOp34
 70
     1
102
RTVSPost2010Prop35
280
     0
102
RTVSPost2010PropOp35
 70
     1
102
RTVSPost2010Prop36
280
     0
102
RTVSPost2010PropOp36
 70
     1
102
RTVSPost2010Prop37
 90
       50
102
RTVSPost2010PropOp37
 70
     1
102
RTVSPost2010Prop38
140
0.0
102
RTVSPost2010PropOp38
 70
     1
102
RTVSPost2010Prop39
140
1.0
102
RTVSPost2010PropOp39
 70
     1
102
RTVSPost2010Prop40
 90
        0
102
RTVSPost2010PropOp40
 70
     1
102
RTVSPost2010Prop41ColorIndex
 90
       18
102
RTVSPost2010Prop41ColorRGB
 90
        0
102
RTVSPost2010PropOp41
 70
     1
102
RTVSPost2010Prop42
 90
       50
102
RTVSPost2010PropOp42
 70
     1
102
RTVSPost2010Prop43
 90
        3
102
RTVSPost2010PropOp43
 70
     1
102
RTVSPost2010Prop44ColorIndex
 90
        5
102
RTVSPost2010Prop44ColorRGB
 90
      255
102
RTVSPost2010PropOp44
 70
     1
102
RTVSPost2010Prop45
280
     0
102
RTVSPost2010PropOp45
 70
     1
102
RTVSPost2010Prop46
 90
       50
102
RTVSPost2010PropOp46
 70
     1
102
RTVSPost2010Prop47
 90
       50
102
RTVSPost2010PropOp47
 70
     1
102
RTVSPost2010Prop48
 90
       50
102
RTVSPost2010PropOp48
 70
     1
102
RTVSPost2010Prop49
280
     0
102
RTVSPost2010PropOp49
 70
     1
102
RTVSPost2010Prop50
 90
       50
102
RTVSPost2010PropOp50
 70
     1
102
RTVSPost2010Prop51ColorIndex
 90
      256
102
RTVSPost2010Prop51ColorRGB
 90
-16777216
102
RTVSPost2010PropOp51
 70
     0
102
RTVSPost2010Prop52
140
1.0
102
RTVSPost2010PropOp52
 70
     0
102
RTVSPost2010Prop53
 90
        2
102
RTVSPost2010PropOp53
 70
     1
102
RTVSPost2010Prop54
  1
strokes_ogs.tif
102
RTVSPost2010PropOp54
 70
     1
102
RTVSPost2010Prop55
280
     0
102
RTVSPost2010PropOp55
 70
     1
102
RTVSPost2010Prop56
140
1.0
102
RTVSPost2010PropOp56
 70
     1
102
RTVSPost2010Prop57
140
1.0
102
RTVSPost2010PropOp57
 70
     1
  0
XRECORD
  5
595
102
{ACAD_REACTORS
330
594
102
}
330
594
100
AcDbXrecord
280
     1
102
RTVSPropertyOp0
 70
     0
102
RTVSPropertyOp1
 70
     0
102
RTVSPropertyOp2
 70
     0
102
RTVSPropertyOp3
 70
     0
102
RTVSPropertyOp4
 70
     0
102
RTVSPropertyOp5
 70
     0
102
RTVSPropertyOp6
 70
     0
102
RTVSPropertyOp7
 70
     0
102
RTVSPropertyOp8
 70
     0
102
RTVSPropertyOp9
 70
     0
102
RTVSPropertyOp10
 70
     0
102
RTVSPropertyOp11
 70
     0
102
RTVSPropertyOp12
 70
     0
102
RTVSPropertyOp13
 70
     0
102
RTVSPropertyOp14
 70
     0
102
RTVSPropertyOp15
 70
     0
102
RTVSPropertyOp16
 70
     0
102
RTVSPropertyOp17
 70
     0
102
RTVSPropertyOp18
 70
     0
102
RTVSPropertyOp19
 70
     0
102
RTVSPropertyOp20
 70
     0
102
RTVSPropertyOp21
 70
     0
102
RTVSPropertyOp22
 70
     0
102
RTVSPropertyOp23
 70
     0
102
RTVSPropertyOp24
 70
     0
102
RTVSPropertyOp25
 70
     0
102
RTVSPropertyOp26
 70
     0
102
RTVSPropertyOp27
 70
     0
102
RTVSPropertyOp28
 70
     1
102
RTVSPropertyOp29
 70
     1
102
RTVSPropertyOp30
 70
     1
102
RTVSPropertyOp31
 70
     1
102
RTVSPropertyOp32
 70
     1
102
RTVSPropertyOp33
 70
     1
102
RTVSPropertyOp34
 70
     1
102
RTVSPropertyOp35
 70
     1
102
RTVSPropertyOp36
 70
     1
102
RTVSPropertyOp37
 70
     1
102
RTVSPropertyOp38
 70
     1
102
RTVSPropertyOp39
 70
     1
102
RTVSPropertyOp40
 70
     1
102
RTVSPropertyOp41
 70
     1
102
RTVSPropertyOp42
 70
     1
102
RTVSPropertyOp43
 70
     1
102
RTVSPropertyOp44
 70
     1
102
RTVSPropertyOp45
 70
     1
102
RTVSPropertyOp46
 70
     1
102
RTVSPropertyOp47
 70
     1
102
RTVSPropertyOp48
 70
     1
102
RTVSPropertyOp49
 70
     1
102
RTVSPropertyOp50
 70
     1
102
RTVSPropertyOp51
 70
     0
102
RTVSPropertyOp52
 70
     0
102
RTVSPropertyOp53
 70
     1
102
RTVSPropertyOp54
 70
     1
102
RTVSPropertyOp55
 70
     1
102
RTVSPropertyOp56
 70
     1
102
RTVSPropertyOp57
 70
     1
102
RTVSPost2010Prop28
280
     0
102
RTVSPost2010PropOp28
 70
     1
102
RTVSPost2010Prop29
280
     1
102
RTVSPost2010PropOp29
 70
     1
102
RTVSPost2010Prop30
280
     1
102
RTVSPost2010PropOp30
 70
     1
102
RTVSPost2010Prop31
280
     0
102
RTVSPost2010PropOp31
 70
     1
102
RTVSPost2010Prop32
280
     0
102
RTVSPost2010PropOp32
 70
     1
102
RTVSPost2010Prop33
280
     0
102
RTVSPost2010PropOp33
 70
     1
102
RTVSPost2010Prop34
280
     0
102
RTVSPost2010PropOp34
 70
     1
102
RTVSPost2010Prop35
280
     0
102
RTVSPost2010PropOp35
 70
     1
102
RTVSPost2010Prop36
280
     0
102
RTVSPost2010PropOp36
 70
     1
102
RTVSPost2010Prop37
 90
       50
102
RTVSPost2010PropOp37
 70
     1
102
RTVSPost2010Prop38
140
0.0
102
RTVSPost2010PropOp38
 70
     1
102
RTVSPost2010Prop39
140
1.0
102
RTVSPost2010PropOp39
 70
     1
102
RTVSPost2010Prop40
 90
        0
102
RTVSPost2010PropOp40
 70
     1
102
RTVSPost2010Prop41ColorIndex
 90
       18
102
RTVSPost2010Prop41ColorRGB
 90
        0
102
RTVSPost2010PropOp41
 70
     1
102
RTVSPost2010Prop42
 90
       50
102
RTVSPost2010PropOp42
 70
     1
102
RTVSPost2010Prop43
 90
        3
102
RTVSPost2010PropOp43
 70
     1
102
RTVSPost2010Prop44ColorIndex
 90
        5
102
RTVSPost2010Prop44ColorRGB
 90
      255
102
RTVSPost2010PropOp44
 70
     1
102
RTVSPost2010Prop45
280
     0
102
RTVSPost2010PropOp45
 70
     1
102
RTVSPost2010Prop46
 90
       50
102
RTVSPost2010PropOp46
 70
     1
102
RTVSPost2010Prop47
 90
       50
102
RTVSPost2010PropOp47
 70
     1
102
RTVSPost2010Prop48
 90
       50
102
RTVSPost2010PropOp48
 70
     1
102
RTVSPost2010Prop49
280
     0
102
RTVSPost2010PropOp49
 70
     1
102
RTVSPost2010Prop50
 90
       50
102
RTVSPost2010PropOp50
 70
     1
102
RTVSPost2010Prop51ColorIndex
 90
      256
102
RTVSPost2010Prop51ColorRGB
 90
-16777216
102
RTVSPost2010PropOp51
 70
     0
102
RTVSPost2010Prop52
140
1.0
102
RTVSPost2010PropOp52
 70
     0
102
RTVSPost2010Prop53
 90
        2
102
RTVSPost2010PropOp53
 70
     1
102
RTVSPost2010Prop54
  1
strokes_ogs.tif
102
RTVSPost2010PropOp54
 70
     1
102
RTVSPost2010Prop55
280
     0
102
RTVSPost2010PropOp55
 70
     1
102
RTVSPost2010Prop56
140
1.0
102
RTVSPost2010PropOp56
 70
     1
102
RTVSPost2010Prop57
140
1.0
102
RTVSPost2010PropOp57
 70
     1
  0
XRECORD
  5
583
102
{ACAD_REACTORS
330
582
102
}
330
582
100
AcDbXrecord
280
     1
102
RTVSPropertyOp0
 70
     1
102
RTVSPropertyOp1
 70
     1
102
RTVSPropertyOp2
 70
     1
102
RTVSPropertyOp3
 70
     1
102
RTVSPropertyOp4
 70
     1
102
RTVSPropertyOp5
 70
     1
102
RTVSPropertyOp6
 70
     1
102
RTVSPropertyOp7
 70
     1
102
RTVSPropertyOp8
 70
     1
102
RTVSPropertyOp9
 70
     1
102
RTVSPropertyOp10
 70
     1
102
RTVSPropertyOp11
 70
     1
102
RTVSPropertyOp12
 70
     1
102
RTVSPropertyOp13
 70
     1
102
RTVSPropertyOp14
 70
     1
102
RTVSPropertyOp15
 70
     1
102
RTVSPropertyOp16
 70
     1
102
RTVSPropertyOp17
 70
     1
102
RTVSPropertyOp18
 70
     1
102
RTVSPropertyOp19
 70
     1
102
RTVSPropertyOp20
 70
     1
102
RTVSPropertyOp21
 70
     1
102
RTVSPropertyOp22
 70
     1
102
RTVSPropertyOp23
 70
     1
102
RTVSPropertyOp24
 70
     1
102
RTVSPropertyOp25
 70
     1
102
RTVSPropertyOp26
 70
     1
102
RTVSPropertyOp27
 70
     1
102
RTVSPropertyOp28
 70
     1
102
RTVSPropertyOp29
 70
     1
102
RTVSPropertyOp30
 70
     1
102
RTVSPropertyOp31
 70
     1
102
RTVSPropertyOp32
 70
     1
102
RTVSPropertyOp33
 70
     1
102
RTVSPropertyOp34
 70
     1
102
RTVSPropertyOp35
 70
     1
102
RTVSPropertyOp36
 70
     1
102
RTVSPropertyOp37
 70
     1
102
RTVSPropertyOp38
 70
     1
102
RTVSPropertyOp39
 70
     1
102
RTVSPropertyOp40
 70
     1
102
RTVSPropertyOp41
 70
     1
102
RTVSPropertyOp42
 70
     1
102
RTVSPropertyOp43
 70
     1
102
RTVSPropertyOp44
 70
     1
102
RTVSPropertyOp45
 70
     1
102
RTVSPropertyOp46
 70
     1
102
RTVSPropertyOp47
 70
     1
102
RTVSPropertyOp48
 70
     1
102
RTVSPropertyOp49
 70
     1
102
RTVSPropertyOp50
 70
     1
102
RTVSPropertyOp51
 70
     0
102
RTVSPropertyOp52
 70
     0
102
RTVSPropertyOp53
 70
     1
102
RTVSPropertyOp54
 70
     1
102
RTVSPropertyOp55
 70
     1
102
RTVSPropertyOp56
 70
     1
102
RTVSPropertyOp57
 70
     1
102
RTVSPost2010Prop28
280
     0
102
RTVSPost2010PropOp28
 70
     1
102
RTVSPost2010Prop29
280
     1
102
RTVSPost2010PropOp29
 70
     1
102
RTVSPost2010Prop30
280
     1
102
RTVSPost2010PropOp30
 70
     1
102
RTVSPost2010Prop31
280
     0
102
RTVSPost2010PropOp31
 70
     1
102
RTVSPost2010Prop32
280
     0
102
RTVSPost2010PropOp32
 70
     1
102
RTVSPost2010Prop33
280
     0
102
RTVSPost2010PropOp33
 70
     1
102
RTVSPost2010Prop34
280
     0
102
RTVSPost2010PropOp34
 70
     1
102
RTVSPost2010Prop35
280
     0
102
RTVSPost2010PropOp35
 70
     1
102
RTVSPost2010Prop36
280
     0
102
RTVSPost2010PropOp36
 70
     1
102
RTVSPost2010Prop37
 90
       50
102
RTVSPost2010PropOp37
 70
     1
102
RTVSPost2010Prop38
140
0.0
102
RTVSPost2010PropOp38
 70
     1
102
RTVSPost2010Prop39
140
1.0
102
RTVSPost2010PropOp39
 70
     1
102
RTVSPost2010Prop40
 90
        0
102
RTVSPost2010PropOp40
 70
     1
102
RTVSPost2010Prop41ColorIndex
 90
       18
102
RTVSPost2010Prop41ColorRGB
 90
        0
102
RTVSPost2010PropOp41
 70
     1
102
RTVSPost2010Prop42
 90
       50
102
RTVSPost2010PropOp42
 70
     1
102
RTVSPost2010Prop43
 90
        3
102
RTVSPost2010PropOp43
 70
     1
102
RTVSPost2010Prop44ColorIndex
 90
        5
102
RTVSPost2010Prop44ColorRGB
 90
      255
102
RTVSPost2010PropOp44
 70
     1
102
RTVSPost2010Prop45
280
     0
102
RTVSPost2010PropOp45
 70
     1
102
RTVSPost2010Prop46
 90
       50
102
RTVSPost2010PropOp46
 70
     1
102
RTVSPost2010Prop47
 90
       50
102
RTVSPost2010PropOp47
 70
     1
102
RTVSPost2010Prop48
 90
       50
102
RTVSPost2010PropOp48
 70
     1
102
RTVSPost2010Prop49
280
     0
102
RTVSPost2010PropOp49
 70
     1
102
RTVSPost2010Prop50
 90
       50
102
RTVSPost2010PropOp50
 70
     1
102
RTVSPost2010Prop51ColorIndex
 90
      256
102
RTVSPost2010Prop51ColorRGB
 90
-16777216
102
RTVSPost2010PropOp51
 70
     0
102
RTVSPost2010Prop52
140
1.0
102
RTVSPost2010PropOp52
 70
     0
102
RTVSPost2010Prop53
 90
        2
102
RTVSPost2010PropOp53
 70
     1
102
RTVSPost2010Prop54
  1
strokes_ogs.tif
102
RTVSPost2010PropOp54
 70
     1
102
RTVSPost2010Prop55
280
     0
102
RTVSPost2010PropOp55
 70
     1
102
RTVSPost2010Prop56
140
1.0
102
RTVSPost2010PropOp56
 70
     1
102
RTVSPost2010Prop57
140
1.0
102
RTVSPost2010PropOp57
 70
     1
  0
XRECORD
  5
5A1
102
{ACAD_REACTORS
330
5A0
102
}
330
5A0
100
AcDbXrecord
280
     1
102
RTVSPropertyOp0
 70
     1
102
RTVSPropertyOp1
 70
     1
102
RTVSPropertyOp2
 70
     1
102
RTVSPropertyOp3
 70
     1
102
RTVSPropertyOp4
 70
     1
102
RTVSPropertyOp5
 70
     1
102
RTVSPropertyOp6
 70
     1
102
RTVSPropertyOp7
 70
     1
102
RTVSPropertyOp8
 70
     1
102
RTVSPropertyOp9
 70
     1
102
RTVSPropertyOp10
 70
     1
102
RTVSPropertyOp11
 70
     1
102
RTVSPropertyOp12
 70
     1
102
RTVSPropertyOp13
 70
     1
102
RTVSPropertyOp14
 70
     1
102
RTVSPropertyOp15
 70
     1
102
RTVSPropertyOp16
 70
     1
102
RTVSPropertyOp17
 70
     1
102
RTVSPropertyOp18
 70
     1
102
RTVSPropertyOp19
 70
     1
102
RTVSPropertyOp20
 70
     1
102
RTVSPropertyOp21
 70
     1
102
RTVSPropertyOp22
 70
     1
102
RTVSPropertyOp23
 70
     1
102
RTVSPropertyOp24
 70
     1
102
RTVSPropertyOp25
 70
     1
102
RTVSPropertyOp26
 70
     1
102
RTVSPropertyOp27
 70
     1
102
RTVSPropertyOp28
 70
     1
102
RTVSPropertyOp29
 70
     1
102
RTVSPropertyOp30
 70
     1
102
RTVSPropertyOp31
 70
     1
102
RTVSPropertyOp32
 70
     1
102
RTVSPropertyOp33
 70
     1
102
RTVSPropertyOp34
 70
     1
102
RTVSPropertyOp35
 70
     1
102
RTVSPropertyOp36
 70
     1
102
RTVSPropertyOp37
 70
     1
102
RTVSPropertyOp38
 70
     1
102
RTVSPropertyOp39
 70
     1
102
RTVSPropertyOp40
 70
     1
102
RTVSPropertyOp41
 70
     1
102
RTVSPropertyOp42
 70
     1
102
RTVSPropertyOp43
 70
     1
102
RTVSPropertyOp44
 70
     1
102
RTVSPropertyOp45
 70
     1
102
RTVSPropertyOp46
 70
     1
102
RTVSPropertyOp47
 70
     1
102
RTVSPropertyOp48
 70
     1
102
RTVSPropertyOp49
 70
     1
102
RTVSPropertyOp50
 70
     1
102
RTVSPropertyOp51
 70
     0
102
RTVSPropertyOp52
 70
     0
102
RTVSPropertyOp53
 70
     1
102
RTVSPropertyOp54
 70
     1
102
RTVSPropertyOp55
 70
     1
102
RTVSPropertyOp56
 70
     1
102
RTVSPropertyOp57
 70
     1
102
RTVSPost2010Prop28
280
     0
102
RTVSPost2010PropOp28
 70
     1
102
RTVSPost2010Prop29
280
     1
102
RTVSPost2010PropOp29
 70
     1
102
RTVSPost2010Prop30
280
     1
102
RTVSPost2010PropOp30
 70
     1
102
RTVSPost2010Prop31
280
     0
102
RTVSPost2010PropOp31
 70
     1
102
RTVSPost2010Prop32
280
     0
102
RTVSPost2010PropOp32
 70
     1
102
RTVSPost2010Prop33
280
     0
102
RTVSPost2010PropOp33
 70
     1
102
RTVSPost2010Prop34
280
     0
102
RTVSPost2010PropOp34
 70
     1
102
RTVSPost2010Prop35
280
     0
102
RTVSPost2010PropOp35
 70
     1
102
RTVSPost2010Prop36
280
     0
102
RTVSPost2010PropOp36
 70
     1
102
RTVSPost2010Prop37
 90
       50
102
RTVSPost2010PropOp37
 70
     1
102
RTVSPost2010Prop38
140
0.0
102
RTVSPost2010PropOp38
 70
     1
102
RTVSPost2010Prop39
140
1.0
102
RTVSPost2010PropOp39
 70
     1
102
RTVSPost2010Prop40
 90
        0
102
RTVSPost2010PropOp40
 70
     1
102
RTVSPost2010Prop41ColorIndex
 90
       18
102
RTVSPost2010Prop41ColorRGB
 90
        0
102
RTVSPost2010PropOp41
 70
     1
102
RTVSPost2010Prop42
 90
       50
102
RTVSPost2010PropOp42
 70
     1
102
RTVSPost2010Prop43
 90
        3
102
RTVSPost2010PropOp43
 70
     1
102
RTVSPost2010Prop44ColorIndex
 90
        5
102
RTVSPost2010Prop44ColorRGB
 90
      255
102
RTVSPost2010PropOp44
 70
     1
102
RTVSPost2010Prop45
280
     0
102
RTVSPost2010PropOp45
 70
     1
102
RTVSPost2010Prop46
 90
       50
102
RTVSPost2010PropOp46
 70
     1
102
RTVSPost2010Prop47
 90
       50
102
RTVSPost2010PropOp47
 70
     1
102
RTVSPost2010Prop48
 90
       50
102
RTVSPost2010PropOp48
 70
     1
102
RTVSPost2010Prop49
280
     0
102
RTVSPost2010PropOp49
 70
     1
102
RTVSPost2010Prop50
 90
       50
102
RTVSPost2010PropOp50
 70
     1
102
RTVSPost2010Prop51ColorIndex
 90
      256
102
RTVSPost2010Prop51ColorRGB
 90
-16777216
102
RTVSPost2010PropOp51
 70
     0
102
RTVSPost2010Prop52
140
1.0
102
RTVSPost2010PropOp52
 70
     0
102
RTVSPost2010Prop53
 90
        2
102
RTVSPost2010PropOp53
 70
     1
102
RTVSPost2010Prop54
  1
strokes_ogs.tif
102
RTVSPost2010PropOp54
 70
     1
102
RTVSPost2010Prop55
280
     0
102
RTVSPost2010PropOp55
 70
     1
102
RTVSPost2010Prop56
140
1.0
102
RTVSPost2010PropOp56
 70
     1
102
RTVSPost2010Prop57
140
1.0
102
RTVSPost2010PropOp57
 70
     1
  0
XRECORD
  5
59F
102
{ACAD_REACTORS
330
59E
102
}
330
59E
100
AcDbXrecord
280
     1
102
RTVSPropertyOp0
 70
     1
102
RTVSPropertyOp1
 70
     1
102
RTVSPropertyOp2
 70
     1
102
RTVSPropertyOp3
 70
     1
102
RTVSPropertyOp4
 70
     1
102
RTVSPropertyOp5
 70
     1
102
RTVSPropertyOp6
 70
     1
102
RTVSPropertyOp7
 70
     1
102
RTVSPropertyOp8
 70
     1
102
RTVSPropertyOp9
 70
     1
102
RTVSPropertyOp10
 70
     1
102
RTVSPropertyOp11
 70
     1
102
RTVSPropertyOp12
 70
     1
102
RTVSPropertyOp13
 70
     1
102
RTVSPropertyOp14
 70
     1
102
RTVSPropertyOp15
 70
     1
102
RTVSPropertyOp16
 70
     1
102
RTVSPropertyOp17
 70
     1
102
RTVSPropertyOp18
 70
     1
102
RTVSPropertyOp19
 70
     1
102
RTVSPropertyOp20
 70
     1
102
RTVSPropertyOp21
 70
     1
102
RTVSPropertyOp22
 70
     1
102
RTVSPropertyOp23
 70
     1
102
RTVSPropertyOp24
 70
     1
102
RTVSPropertyOp25
 70
     1
102
RTVSPropertyOp26
 70
     1
102
RTVSPropertyOp27
 70
     1
102
RTVSPropertyOp28
 70
     1
102
RTVSPropertyOp29
 70
     1
102
RTVSPropertyOp30
 70
     1
102
RTVSPropertyOp31
 70
     1
102
RTVSPropertyOp32
 70
     1
102
RTVSPropertyOp33
 70
     1
102
RTVSPropertyOp34
 70
     1
102
RTVSPropertyOp35
 70
     1
102
RTVSPropertyOp36
 70
     1
102
RTVSPropertyOp37
 70
     1
102
RTVSPropertyOp38
 70
     1
102
RTVSPropertyOp39
 70
     1
102
RTVSPropertyOp40
 70
     1
102
RTVSPropertyOp41
 70
     1
102
RTVSPropertyOp42
 70
     1
102
RTVSPropertyOp43
 70
     1
102
RTVSPropertyOp44
 70
     1
102
RTVSPropertyOp45
 70
     1
102
RTVSPropertyOp46
 70
     1
102
RTVSPropertyOp47
 70
     1
102
RTVSPropertyOp48
 70
     1
102
RTVSPropertyOp49
 70
     1
102
RTVSPropertyOp50
 70
     1
102
RTVSPropertyOp51
 70
     0
102
RTVSPropertyOp52
 70
     0
102
RTVSPropertyOp53
 70
     1
102
RTVSPropertyOp54
 70
     1
102
RTVSPropertyOp55
 70
     1
102
RTVSPropertyOp56
 70
     1
102
RTVSPropertyOp57
 70
     1
102
RTVSPost2010Prop28
280
     0
102
RTVSPost2010PropOp28
 70
     1
102
RTVSPost2010Prop29
280
     1
102
RTVSPost2010PropOp29
 70
     1
102
RTVSPost2010Prop30
280
     1
102
RTVSPost2010PropOp30
 70
     1
102
RTVSPost2010Prop31
280
     0
102
RTVSPost2010PropOp31
 70
     1
102
RTVSPost2010Prop32
280
     0
102
RTVSPost2010PropOp32
 70
     1
102
RTVSPost2010Prop33
280
     0
102
RTVSPost2010PropOp33
 70
     1
102
RTVSPost2010Prop34
280
     0
102
RTVSPost2010PropOp34
 70
     1
102
RTVSPost2010Prop35
280
     0
102
RTVSPost2010PropOp35
 70
     1
102
RTVSPost2010Prop36
280
     0
102
RTVSPost2010PropOp36
 70
     1
102
RTVSPost2010Prop37
 90
       50
102
RTVSPost2010PropOp37
 70
     1
102
RTVSPost2010Prop38
140
0.0
102
RTVSPost2010PropOp38
 70
     1
102
RTVSPost2010Prop39
140
1.0
102
RTVSPost2010PropOp39
 70
     1
102
RTVSPost2010Prop40
 90
        0
102
RTVSPost2010PropOp40
 70
     1
102
RTVSPost2010Prop41ColorIndex
 90
       18
102
RTVSPost2010Prop41ColorRGB
 90
        0
102
RTVSPost2010PropOp41
 70
     1
102
RTVSPost2010Prop42
 90
       50
102
RTVSPost2010PropOp42
 70
     1
102
RTVSPost2010Prop43
 90
        3
102
RTVSPost2010PropOp43
 70
     1
102
RTVSPost2010Prop44ColorIndex
 90
        5
102
RTVSPost2010Prop44ColorRGB
 90
      255
102
RTVSPost2010PropOp44
 70
     1
102
RTVSPost2010Prop45
280
     0
102
RTVSPost2010PropOp45
 70
     1
102
RTVSPost2010Prop46
 90
       50
102
RTVSPost2010PropOp46
 70
     1
102
RTVSPost2010Prop47
 90
       50
102
RTVSPost2010PropOp47
 70
     1
102
RTVSPost2010Prop48
 90
       50
102
RTVSPost2010PropOp48
 70
     1
102
RTVSPost2010Prop49
280
     0
102
RTVSPost2010PropOp49
 70
     1
102
RTVSPost2010Prop50
 90
       50
102
RTVSPost2010PropOp50
 70
     1
102
RTVSPost2010Prop51ColorIndex
 90
      256
102
RTVSPost2010Prop51ColorRGB
 90
-16777216
102
RTVSPost2010PropOp51
 70
     0
102
RTVSPost2010Prop52
140
1.0
102
RTVSPost2010PropOp52
 70
     0
102
RTVSPost2010Prop53
 90
        2
102
RTVSPost2010PropOp53
 70
     1
102
RTVSPost2010Prop54
  1
strokes_ogs.tif
102
RTVSPost2010PropOp54
 70
     1
102
RTVSPost2010Prop55
280
     0
102
RTVSPost2010PropOp55
 70
     1
102
RTVSPost2010Prop56
140
1.0
102
RTVSPost2010PropOp56
 70
     1
102
RTVSPost2010Prop57
140
1.0
102
RTVSPost2010PropOp57
 70
     1
  0
XRECORD
  5
599
102
{ACAD_REACTORS
330
598
102
}
330
598
100
AcDbXrecord
280
     1
102
RTVSPropertyOp0
 70
     1
102
RTVSPropertyOp1
 70
     1
102
RTVSPropertyOp2
 70
     1
102
RTVSPropertyOp3
 70
     1
102
RTVSPropertyOp4
 70
     1
102
RTVSPropertyOp5
 70
     1
102
RTVSPropertyOp6
 70
     1
102
RTVSPropertyOp7
 70
     1
102
RTVSPropertyOp8
 70
     1
102
RTVSPropertyOp9
 70
     1
102
RTVSPropertyOp10
 70
     1
102
RTVSPropertyOp11
 70
     1
102
RTVSPropertyOp12
 70
     1
102
RTVSPropertyOp13
 70
     1
102
RTVSPropertyOp14
 70
     1
102
RTVSPropertyOp15
 70
     1
102
RTVSPropertyOp16
 70
     1
102
RTVSPropertyOp17
 70
     1
102
RTVSPropertyOp18
 70
     1
102
RTVSPropertyOp19
 70
     1
102
RTVSPropertyOp20
 70
     1
102
RTVSPropertyOp21
 70
     1
102
RTVSPropertyOp22
 70
     1
102
RTVSPropertyOp23
 70
     1
102
RTVSPropertyOp24
 70
     1
102
RTVSPropertyOp25
 70
     1
102
RTVSPropertyOp26
 70
     1
102
RTVSPropertyOp27
 70
     1
102
RTVSPropertyOp28
 70
     1
102
RTVSPropertyOp29
 70
     1
102
RTVSPropertyOp30
 70
     1
102
RTVSPropertyOp31
 70
     1
102
RTVSPropertyOp32
 70
     1
102
RTVSPropertyOp33
 70
     1
102
RTVSPropertyOp34
 70
     1
102
RTVSPropertyOp35
 70
     1
102
RTVSPropertyOp36
 70
     1
102
RTVSPropertyOp37
 70
     1
102
RTVSPropertyOp38
 70
     1
102
RTVSPropertyOp39
 70
     1
102
RTVSPropertyOp40
 70
     1
102
RTVSPropertyOp41
 70
     1
102
RTVSPropertyOp42
 70
     1
102
RTVSPropertyOp43
 70
     1
102
RTVSPropertyOp44
 70
     1
102
RTVSPropertyOp45
 70
     1
102
RTVSPropertyOp46
 70
     1
102
RTVSPropertyOp47
 70
     1
102
RTVSPropertyOp48
 70
     1
102
RTVSPropertyOp49
 70
     1
102
RTVSPropertyOp50
 70
     1
102
RTVSPropertyOp51
 70
     0
102
RTVSPropertyOp52
 70
     0
102
RTVSPropertyOp53
 70
     1
102
RTVSPropertyOp54
 70
     1
102
RTVSPropertyOp55
 70
     1
102
RTVSPropertyOp56
 70
     1
102
RTVSPropertyOp57
 70
     1
102
RTVSPost2010Prop28
280
     0
102
RTVSPost2010PropOp28
 70
     1
102
RTVSPost2010Prop29
280
     1
102
RTVSPost2010PropOp29
 70
     1
102
RTVSPost2010Prop30
280
     1
102
RTVSPost2010PropOp30
 70
     1
102
RTVSPost2010Prop31
280
     0
102
RTVSPost2010PropOp31
 70
     1
102
RTVSPost2010Prop32
280
     0
102
RTVSPost2010PropOp32
 70
     1
102
RTVSPost2010Prop33
280
     0
102
RTVSPost2010PropOp33
 70
     1
102
RTVSPost2010Prop34
280
     0
102
RTVSPost2010PropOp34
 70
     1
102
RTVSPost2010Prop35
280
     0
102
RTVSPost2010PropOp35
 70
     1
102
RTVSPost2010Prop36
280
     0
102
RTVSPost2010PropOp36
 70
     1
102
RTVSPost2010Prop37
 90
       50
102
RTVSPost2010PropOp37
 70
     1
102
RTVSPost2010Prop38
140
0.0
102
RTVSPost2010PropOp38
 70
     1
102
RTVSPost2010Prop39
140
1.0
102
RTVSPost2010PropOp39
 70
     1
102
RTVSPost2010Prop40
 90
        0
102
RTVSPost2010PropOp40
 70
     1
102
RTVSPost2010Prop41ColorIndex
 90
       18
102
RTVSPost2010Prop41ColorRGB
 90
        0
102
RTVSPost2010PropOp41
 70
     1
102
RTVSPost2010Prop42
 90
       50
102
RTVSPost2010PropOp42
 70
     1
102
RTVSPost2010Prop43
 90
        3
102
RTVSPost2010PropOp43
 70
     1
102
RTVSPost2010Prop44ColorIndex
 90
        5
102
RTVSPost2010Prop44ColorRGB
 90
      255
102
RTVSPost2010PropOp44
 70
     1
102
RTVSPost2010Prop45
280
     0
102
RTVSPost2010PropOp45
 70
     1
102
RTVSPost2010Prop46
 90
       50
102
RTVSPost2010PropOp46
 70
     1
102
RTVSPost2010Prop47
 90
       50
102
RTVSPost2010PropOp47
 70
     1
102
RTVSPost2010Prop48
 90
       50
102
RTVSPost2010PropOp48
 70
     1
102
RTVSPost2010Prop49
280
     0
102
RTVSPost2010PropOp49
 70
     1
102
RTVSPost2010Prop50
 90
       50
102
RTVSPost2010PropOp50
 70
     1
102
RTVSPost2010Prop51ColorIndex
 90
      256
102
RTVSPost2010Prop51ColorRGB
 90
-16777216
102
RTVSPost2010PropOp51
 70
     0
102
RTVSPost2010Prop52
140
1.0
102
RTVSPost2010PropOp52
 70
     0
102
RTVSPost2010Prop53
 90
        2
102
RTVSPost2010PropOp53
 70
     1
102
RTVSPost2010Prop54
  1
strokes_ogs.tif
102
RTVSPost2010PropOp54
 70
     1
102
RTVSPost2010Prop55
280
     0
102
RTVSPost2010PropOp55
 70
     1
102
RTVSPost2010Prop56
140
1.0
102
RTVSPost2010PropOp56
 70
     1
102
RTVSPost2010Prop57
140
1.0
102
RTVSPost2010PropOp57
 70
     1
  0
XRECORD
  5
59B
102
{ACAD_REACTORS
330
59A
102
}
330
59A
100
AcDbXrecord
280
     1
102
RTVSPropertyOp0
 70
     1
102
RTVSPropertyOp1
 70
     1
102
RTVSPropertyOp2
 70
     1
102
RTVSPropertyOp3
 70
     1
102
RTVSPropertyOp4
 70
     1
102
RTVSPropertyOp5
 70
     1
102
RTVSPropertyOp6
 70
     1
102
RTVSPropertyOp7
 70
     1
102
RTVSPropertyOp8
 70
     1
102
RTVSPropertyOp9
 70
     1
102
RTVSPropertyOp10
 70
     1
102
RTVSPropertyOp11
 70
     1
102
RTVSPropertyOp12
 70
     1
102
RTVSPropertyOp13
 70
     1
102
RTVSPropertyOp14
 70
     1
102
RTVSPropertyOp15
 70
     1
102
RTVSPropertyOp16
 70
     1
102
RTVSPropertyOp17
 70
     1
102
RTVSPropertyOp18
 70
     1
102
RTVSPropertyOp19
 70
     1
102
RTVSPropertyOp20
 70
     1
102
RTVSPropertyOp21
 70
     1
102
RTVSPropertyOp22
 70
     1
102
RTVSPropertyOp23
 70
     1
102
RTVSPropertyOp24
 70
     1
102
RTVSPropertyOp25
 70
     1
102
RTVSPropertyOp26
 70
     1
102
RTVSPropertyOp27
 70
     1
102
RTVSPropertyOp28
 70
     1
102
RTVSPropertyOp29
 70
     1
102
RTVSPropertyOp30
 70
     1
102
RTVSPropertyOp31
 70
     1
102
RTVSPropertyOp32
 70
     1
102
RTVSPropertyOp33
 70
     1
102
RTVSPropertyOp34
 70
     1
102
RTVSPropertyOp35
 70
     1
102
RTVSPropertyOp36
 70
     1
102
RTVSPropertyOp37
 70
     1
102
RTVSPropertyOp38
 70
     1
102
RTVSPropertyOp39
 70
     1
102
RTVSPropertyOp40
 70
     1
102
RTVSPropertyOp41
 70
     1
102
RTVSPropertyOp42
 70
     1
102
RTVSPropertyOp43
 70
     1
102
RTVSPropertyOp44
 70
     1
102
RTVSPropertyOp45
 70
     1
102
RTVSPropertyOp46
 70
     1
102
RTVSPropertyOp47
 70
     1
102
RTVSPropertyOp48
 70
     1
102
RTVSPropertyOp49
 70
     1
102
RTVSPropertyOp50
 70
     1
102
RTVSPropertyOp51
 70
     0
102
RTVSPropertyOp52
 70
     0
102
RTVSPropertyOp53
 70
     1
102
RTVSPropertyOp54
 70
     1
102
RTVSPropertyOp55
 70
     1
102
RTVSPropertyOp56
 70
     1
102
RTVSPropertyOp57
 70
     1
102
RTVSPost2010Prop28
280
     0
102
RTVSPost2010PropOp28
 70
     1
102
RTVSPost2010Prop29
280
     1
102
RTVSPost2010PropOp29
 70
     1
102
RTVSPost2010Prop30
280
     1
102
RTVSPost2010PropOp30
 70
     1
102
RTVSPost2010Prop31
280
     0
102
RTVSPost2010PropOp31
 70
     1
102
RTVSPost2010Prop32
280
     0
102
RTVSPost2010PropOp32
 70
     1
102
RTVSPost2010Prop33
280
     0
102
RTVSPost2010PropOp33
 70
     1
102
RTVSPost2010Prop34
280
     0
102
RTVSPost2010PropOp34
 70
     1
102
RTVSPost2010Prop35
280
     0
102
RTVSPost2010PropOp35
 70
     1
102
RTVSPost2010Prop36
280
     0
102
RTVSPost2010PropOp36
 70
     1
102
RTVSPost2010Prop37
 90
       50
102
RTVSPost2010PropOp37
 70
     1
102
RTVSPost2010Prop38
140
0.0
102
RTVSPost2010PropOp38
 70
     1
102
RTVSPost2010Prop39
140
1.0
102
RTVSPost2010PropOp39
 70
     1
102
RTVSPost2010Prop40
 90
        0
102
RTVSPost2010PropOp40
 70
     1
102
RTVSPost2010Prop41ColorIndex
 90
       18
102
RTVSPost2010Prop41ColorRGB
 90
        0
102
RTVSPost2010PropOp41
 70
     1
102
RTVSPost2010Prop42
 90
       50
102
RTVSPost2010PropOp42
 70
     1
102
RTVSPost2010Prop43
 90
        3
102
RTVSPost2010PropOp43
 70
     1
102
RTVSPost2010Prop44ColorIndex
 90
        5
102
RTVSPost2010Prop44ColorRGB
 90
      255
102
RTVSPost2010PropOp44
 70
     1
102
RTVSPost2010Prop45
280
     0
102
RTVSPost2010PropOp45
 70
     1
102
RTVSPost2010Prop46
 90
       50
102
RTVSPost2010PropOp46
 70
     1
102
RTVSPost2010Prop47
 90
       50
102
RTVSPost2010PropOp47
 70
     1
102
RTVSPost2010Prop48
 90
       50
102
RTVSPost2010PropOp48
 70
     1
102
RTVSPost2010Prop49
280
     0
102
RTVSPost2010PropOp49
 70
     1
102
RTVSPost2010Prop50
 90
       50
102
RTVSPost2010PropOp50
 70
     1
102
RTVSPost2010Prop51ColorIndex
 90
      256
102
RTVSPost2010Prop51ColorRGB
 90
-16777216
102
RTVSPost2010PropOp51
 70
     0
102
RTVSPost2010Prop52
140
1.0
102
RTVSPost2010PropOp52
 70
     0
102
RTVSPost2010Prop53
 90
        2
102
RTVSPost2010PropOp53
 70
     1
102
RTVSPost2010Prop54
  1
strokes_ogs.tif
102
RTVSPost2010PropOp54
 70
     1
102
RTVSPost2010Prop55
280
     0
102
RTVSPost2010PropOp55
 70
     1
102
RTVSPost2010Prop56
140
1.0
102
RTVSPost2010PropOp56
 70
     1
102
RTVSPost2010Prop57
140
1.0
102
RTVSPost2010PropOp57
 70
     1
  0
XRECORD
  5
58B
102
{ACAD_REACTORS
330
58A
102
}
330
58A
100
AcDbXrecord
280
     1
102
RTVSPropertyOp0
 70
     1
102
RTVSPropertyOp1
 70
     1
102
RTVSPropertyOp2
 70
     1
102
RTVSPropertyOp3
 70
     1
102
RTVSPropertyOp4
 70
     1
102
RTVSPropertyOp5
 70
     1
102
RTVSPropertyOp6
 70
     1
102
RTVSPropertyOp7
 70
     1
102
RTVSPropertyOp8
 70
     1
102
RTVSPropertyOp9
 70
     1
102
RTVSPropertyOp10
 70
     1
102
RTVSPropertyOp11
 70
     1
102
RTVSPropertyOp12
 70
     1
102
RTVSPropertyOp13
 70
     1
102
RTVSPropertyOp14
 70
     1
102
RTVSPropertyOp15
 70
     1
102
RTVSPropertyOp16
 70
     1
102
RTVSPropertyOp17
 70
     1
102
RTVSPropertyOp18
 70
     1
102
RTVSPropertyOp19
 70
     1
102
RTVSPropertyOp20
 70
     1
102
RTVSPropertyOp21
 70
     1
102
RTVSPropertyOp22
 70
     1
102
RTVSPropertyOp23
 70
     1
102
RTVSPropertyOp24
 70
     1
102
RTVSPropertyOp25
 70
     1
102
RTVSPropertyOp26
 70
     1
102
RTVSPropertyOp27
 70
     1
102
RTVSPropertyOp28
 70
     1
102
RTVSPropertyOp29
 70
     1
102
RTVSPropertyOp30
 70
     1
102
RTVSPropertyOp31
 70
     1
102
RTVSPropertyOp32
 70
     1
102
RTVSPropertyOp33
 70
     1
102
RTVSPropertyOp34
 70
     1
102
RTVSPropertyOp35
 70
     1
102
RTVSPropertyOp36
 70
     1
102
RTVSPropertyOp37
 70
     1
102
RTVSPropertyOp38
 70
     1
102
RTVSPropertyOp39
 70
     1
102
RTVSPropertyOp40
 70
     1
102
RTVSPropertyOp41
 70
     1
102
RTVSPropertyOp42
 70
     1
102
RTVSPropertyOp43
 70
     1
102
RTVSPropertyOp44
 70
     1
102
RTVSPropertyOp45
 70
     1
102
RTVSPropertyOp46
 70
     1
102
RTVSPropertyOp47
 70
     1
102
RTVSPropertyOp48
 70
     1
102
RTVSPropertyOp49
 70
     1
102
RTVSPropertyOp50
 70
     1
102
RTVSPropertyOp51
 70
     0
102
RTVSPropertyOp52
 70
     0
102
RTVSPropertyOp53
 70
     1
102
RTVSPropertyOp54
 70
     1
102
RTVSPropertyOp55
 70
     1
102
RTVSPropertyOp56
 70
     1
102
RTVSPropertyOp57
 70
     1
102
RTVSPost2010Prop28
280
     0
102
RTVSPost2010PropOp28
 70
     1
102
RTVSPost2010Prop29
280
     1
102
RTVSPost2010PropOp29
 70
     1
102
RTVSPost2010Prop30
280
     1
102
RTVSPost2010PropOp30
 70
     1
102
RTVSPost2010Prop31
280
     0
102
RTVSPost2010PropOp31
 70
     1
102
RTVSPost2010Prop32
280
     0
102
RTVSPost2010PropOp32
 70
     1
102
RTVSPost2010Prop33
280
     0
102
RTVSPost2010PropOp33
 70
     1
102
RTVSPost2010Prop34
280
     0
102
RTVSPost2010PropOp34
 70
     1
102
RTVSPost2010Prop35
280
     0
102
RTVSPost2010PropOp35
 70
     1
102
RTVSPost2010Prop36
280
     0
102
RTVSPost2010PropOp36
 70
     1
102
RTVSPost2010Prop37
 90
       50
102
RTVSPost2010PropOp37
 70
     1
102
RTVSPost2010Prop38
140
0.0
102
RTVSPost2010PropOp38
 70
     1
102
RTVSPost2010Prop39
140
1.0
102
RTVSPost2010PropOp39
 70
     1
102
RTVSPost2010Prop40
 90
        0
102
RTVSPost2010PropOp40
 70
     1
102
RTVSPost2010Prop41ColorIndex
 90
       18
102
RTVSPost2010Prop41ColorRGB
 90
        0
102
RTVSPost2010PropOp41
 70
     1
102
RTVSPost2010Prop42
 90
       50
102
RTVSPost2010PropOp42
 70
     1
102
RTVSPost2010Prop43
 90
        3
102
RTVSPost2010PropOp43
 70
     1
102
RTVSPost2010Prop44ColorIndex
 90
        5
102
RTVSPost2010Prop44ColorRGB
 90
      255
102
RTVSPost2010PropOp44
 70
     1
102
RTVSPost2010Prop45
280
     0
102
RTVSPost2010PropOp45
 70
     1
102
RTVSPost2010Prop46
 90
       50
102
RTVSPost2010PropOp46
 70
     1
102
RTVSPost2010Prop47
 90
       50
102
RTVSPost2010PropOp47
 70
     1
102
RTVSPost2010Prop48
 90
       50
102
RTVSPost2010PropOp48
 70
     1
102
RTVSPost2010Prop49
280
     0
102
RTVSPost2010PropOp49
 70
     1
102
RTVSPost2010Prop50
 90
       50
102
RTVSPost2010PropOp50
 70
     1
102
RTVSPost2010Prop51ColorIndex
 90
      256
102
RTVSPost2010Prop51ColorRGB
 90
-16777216
102
RTVSPost2010PropOp51
 70
     0
102
RTVSPost2010Prop52
140
1.0
102
RTVSPost2010PropOp52
 70
     0
102
RTVSPost2010Prop53
 90
        2
102
RTVSPost2010PropOp53
 70
     1
102
RTVSPost2010Prop54
  1
strokes_ogs.tif
102
RTVSPost2010PropOp54
 70
     1
102
RTVSPost2010Prop55
280
     0
102
RTVSPost2010PropOp55
 70
     1
102
RTVSPost2010Prop56
140
1.0
102
RTVSPost2010PropOp56
 70
     1
102
RTVSPost2010Prop57
140
1.0
102
RTVSPost2010PropOp57
 70
     1
  0
XRECORD
  5
57D
102
{ACAD_REACTORS
330
57C
102
}
330
57C
100
AcDbXrecord
280
     1
102
RTVSPropertyOp0
 70
     1
102
RTVSPropertyOp1
 70
     1
102
RTVSPropertyOp2
 70
     1
102
RTVSPropertyOp3
 70
     1
102
RTVSPropertyOp4
 70
     1
102
RTVSPropertyOp5
 70
     1
102
RTVSPropertyOp6
 70
     1
102
RTVSPropertyOp7
 70
     1
102
RTVSPropertyOp8
 70
     1
102
RTVSPropertyOp9
 70
     1
102
RTVSPropertyOp10
 70
     1
102
RTVSPropertyOp11
 70
     1
102
RTVSPropertyOp12
 70
     1
102
RTVSPropertyOp13
 70
     1
102
RTVSPropertyOp14
 70
     1
102
RTVSPropertyOp15
 70
     1
102
RTVSPropertyOp16
 70
     1
102
RTVSPropertyOp17
 70
     1
102
RTVSPropertyOp18
 70
     1
102
RTVSPropertyOp19
 70
     1
102
RTVSPropertyOp20
 70
     1
102
RTVSPropertyOp21
 70
     1
102
RTVSPropertyOp22
 70
     1
102
RTVSPropertyOp23
 70
     1
102
RTVSPropertyOp24
 70
     1
102
RTVSPropertyOp25
 70
     1
102
RTVSPropertyOp26
 70
     1
102
RTVSPropertyOp27
 70
     1
102
RTVSPropertyOp28
 70
     1
102
RTVSPropertyOp29
 70
     1
102
RTVSPropertyOp30
 70
     1
102
RTVSPropertyOp31
 70
     1
102
RTVSPropertyOp32
 70
     1
102
RTVSPropertyOp33
 70
     1
102
RTVSPropertyOp34
 70
     1
102
RTVSPropertyOp35
 70
     1
102
RTVSPropertyOp36
 70
     1
102
RTVSPropertyOp37
 70
     1
102
RTVSPropertyOp38
 70
     1
102
RTVSPropertyOp39
 70
     1
102
RTVSPropertyOp40
 70
     1
102
RTVSPropertyOp41
 70
     1
102
RTVSPropertyOp42
 70
     1
102
RTVSPropertyOp43
 70
     1
102
RTVSPropertyOp44
 70
     1
102
RTVSPropertyOp45
 70
     1
102
RTVSPropertyOp46
 70
     1
102
RTVSPropertyOp47
 70
     1
102
RTVSPropertyOp48
 70
     1
102
RTVSPropertyOp49
 70
     1
102
RTVSPropertyOp50
 70
     1
102
RTVSPropertyOp51
 70
     0
102
RTVSPropertyOp52
 70
     0
102
RTVSPropertyOp53
 70
     1
102
RTVSPropertyOp54
 70
     1
102
RTVSPropertyOp55
 70
     1
102
RTVSPropertyOp56
 70
     1
102
RTVSPropertyOp57
 70
     1
102
RTVSPost2010Prop28
280
     0
102
RTVSPost2010PropOp28
 70
     1
102
RTVSPost2010Prop29
280
     1
102
RTVSPost2010PropOp29
 70
     1
102
RTVSPost2010Prop30
280
     1
102
RTVSPost2010PropOp30
 70
     1
102
RTVSPost2010Prop31
280
     0
102
RTVSPost2010PropOp31
 70
     1
102
RTVSPost2010Prop32
280
     0
102
RTVSPost2010PropOp32
 70
     1
102
RTVSPost2010Prop33
280
     0
102
RTVSPost2010PropOp33
 70
     1
102
RTVSPost2010Prop34
280
     0
102
RTVSPost2010PropOp34
 70
     1
102
RTVSPost2010Prop35
280
     0
102
RTVSPost2010PropOp35
 70
     1
102
RTVSPost2010Prop36
280
     0
102
RTVSPost2010PropOp36
 70
     1
102
RTVSPost2010Prop37
 90
       50
102
RTVSPost2010PropOp37
 70
     1
102
RTVSPost2010Prop38
140
0.0
102
RTVSPost2010PropOp38
 70
     1
102
RTVSPost2010Prop39
140
1.0
102
RTVSPost2010PropOp39
 70
     1
102
RTVSPost2010Prop40
 90
        0
102
RTVSPost2010PropOp40
 70
     1
102
RTVSPost2010Prop41ColorIndex
 90
       18
102
RTVSPost2010Prop41ColorRGB
 90
        0
102
RTVSPost2010PropOp41
 70
     1
102
RTVSPost2010Prop42
 90
       50
102
RTVSPost2010PropOp42
 70
     1
102
RTVSPost2010Prop43
 90
        3
102
RTVSPost2010PropOp43
 70
     1
102
RTVSPost2010Prop44ColorIndex
 90
        5
102
RTVSPost2010Prop44ColorRGB
 90
      255
102
RTVSPost2010PropOp44
 70
     1
102
RTVSPost2010Prop45
280
     0
102
RTVSPost2010PropOp45
 70
     1
102
RTVSPost2010Prop46
 90
       50
102
RTVSPost2010PropOp46
 70
     1
102
RTVSPost2010Prop47
 90
       50
102
RTVSPost2010PropOp47
 70
     1
102
RTVSPost2010Prop48
 90
       50
102
RTVSPost2010PropOp48
 70
     1
102
RTVSPost2010Prop49
280
     0
102
RTVSPost2010PropOp49
 70
     1
102
RTVSPost2010Prop50
 90
       50
102
RTVSPost2010PropOp50
 70
     1
102
RTVSPost2010Prop51ColorIndex
 90
      256
102
RTVSPost2010Prop51ColorRGB
 90
-16777216
102
RTVSPost2010PropOp51
 70
     0
102
RTVSPost2010Prop52
140
1.0
102
RTVSPost2010PropOp52
 70
     0
102
RTVSPost2010Prop53
 90
        2
102
RTVSPost2010PropOp53
 70
     1
102
RTVSPost2010Prop54
  1
strokes_ogs.tif
102
RTVSPost2010PropOp54
 70
     1
102
RTVSPost2010Prop55
280
     0
102
RTVSPost2010PropOp55
 70
     1
102
RTVSPost2010Prop56
140
1.0
102
RTVSPost2010PropOp56
 70
     1
102
RTVSPost2010Prop57
140
1.0
102
RTVSPost2010PropOp57
 70
     1
  0
XRECORD
  5
59D
102
{ACAD_REACTORS
330
59C
102
}
330
59C
100
AcDbXrecord
280
     1
102
RTVSPropertyOp0
 70
     1
102
RTVSPropertyOp1
 70
     1
102
RTVSPropertyOp2
 70
     1
102
RTVSPropertyOp3
 70
     1
102
RTVSPropertyOp4
 70
     1
102
RTVSPropertyOp5
 70
     1
102
RTVSPropertyOp6
 70
     1
102
RTVSPropertyOp7
 70
     1
102
RTVSPropertyOp8
 70
     1
102
RTVSPropertyOp9
 70
     1
102
RTVSPropertyOp10
 70
     1
102
RTVSPropertyOp11
 70
     1
102
RTVSPropertyOp12
 70
     1
102
RTVSPropertyOp13
 70
     1
102
RTVSPropertyOp14
 70
     1
102
RTVSPropertyOp15
 70
     1
102
RTVSPropertyOp16
 70
     1
102
RTVSPropertyOp17
 70
     1
102
RTVSPropertyOp18
 70
     1
102
RTVSPropertyOp19
 70
     1
102
RTVSPropertyOp20
 70
     1
102
RTVSPropertyOp21
 70
     1
102
RTVSPropertyOp22
 70
     1
102
RTVSPropertyOp23
 70
     1
102
RTVSPropertyOp24
 70
     1
102
RTVSPropertyOp25
 70
     1
102
RTVSPropertyOp26
 70
     1
102
RTVSPropertyOp27
 70
     1
102
RTVSPropertyOp28
 70
     1
102
RTVSPropertyOp29
 70
     1
102
RTVSPropertyOp30
 70
     1
102
RTVSPropertyOp31
 70
     1
102
RTVSPropertyOp32
 70
     1
102
RTVSPropertyOp33
 70
     1
102
RTVSPropertyOp34
 70
     1
102
RTVSPropertyOp35
 70
     1
102
RTVSPropertyOp36
 70
     1
102
RTVSPropertyOp37
 70
     1
102
RTVSPropertyOp38
 70
     1
102
RTVSPropertyOp39
 70
     1
102
RTVSPropertyOp40
 70
     1
102
RTVSPropertyOp41
 70
     1
102
RTVSPropertyOp42
 70
     1
102
RTVSPropertyOp43
 70
     1
102
RTVSPropertyOp44
 70
     1
102
RTVSPropertyOp45
 70
     1
102
RTVSPropertyOp46
 70
     1
102
RTVSPropertyOp47
 70
     1
102
RTVSPropertyOp48
 70
     1
102
RTVSPropertyOp49
 70
     1
102
RTVSPropertyOp50
 70
     1
102
RTVSPropertyOp51
 70
     0
102
RTVSPropertyOp52
 70
     0
102
RTVSPropertyOp53
 70
     1
102
RTVSPropertyOp54
 70
     1
102
RTVSPropertyOp55
 70
     1
102
RTVSPropertyOp56
 70
     1
102
RTVSPropertyOp57
 70
     1
102
RTVSPost2010Prop28
280
     0
102
RTVSPost2010PropOp28
 70
     1
102
RTVSPost2010Prop29
280
     1
102
RTVSPost2010PropOp29
 70
     1
102
RTVSPost2010Prop30
280
     1
102
RTVSPost2010PropOp30
 70
     1
102
RTVSPost2010Prop31
280
     0
102
RTVSPost2010PropOp31
 70
     1
102
RTVSPost2010Prop32
280
     0
102
RTVSPost2010PropOp32
 70
     1
102
RTVSPost2010Prop33
280
     0
102
RTVSPost2010PropOp33
 70
     1
102
RTVSPost2010Prop34
280
     0
102
RTVSPost2010PropOp34
 70
     1
102
RTVSPost2010Prop35
280
     0
102
RTVSPost2010PropOp35
 70
     1
102
RTVSPost2010Prop36
280
     0
102
RTVSPost2010PropOp36
 70
     1
102
RTVSPost2010Prop37
 90
       50
102
RTVSPost2010PropOp37
 70
     1
102
RTVSPost2010Prop38
140
0.0
102
RTVSPost2010PropOp38
 70
     1
102
RTVSPost2010Prop39
140
1.0
102
RTVSPost2010PropOp39
 70
     1
102
RTVSPost2010Prop40
 90
        0
102
RTVSPost2010PropOp40
 70
     1
102
RTVSPost2010Prop41ColorIndex
 90
       18
102
RTVSPost2010Prop41ColorRGB
 90
        0
102
RTVSPost2010PropOp41
 70
     1
102
RTVSPost2010Prop42
 90
       50
102
RTVSPost2010PropOp42
 70
     1
102
RTVSPost2010Prop43
 90
        3
102
RTVSPost2010PropOp43
 70
     1
102
RTVSPost2010Prop44ColorIndex
 90
        5
102
RTVSPost2010Prop44ColorRGB
 90
      255
102
RTVSPost2010PropOp44
 70
     1
102
RTVSPost2010Prop45
280
     0
102
RTVSPost2010PropOp45
 70
     1
102
RTVSPost2010Prop46
 90
       50
102
RTVSPost2010PropOp46
 70
     1
102
RTVSPost2010Prop47
 90
       50
102
RTVSPost2010PropOp47
 70
     1
102
RTVSPost2010Prop48
 90
       50
102
RTVSPost2010PropOp48
 70
     1
102
RTVSPost2010Prop49
280
     0
102
RTVSPost2010PropOp49
 70
     1
102
RTVSPost2010Prop50
 90
       50
102
RTVSPost2010PropOp50
 70
     1
102
RTVSPost2010Prop51ColorIndex
 90
      256
102
RTVSPost2010Prop51ColorRGB
 90
-16777216
102
RTVSPost2010PropOp51
 70
     0
102
RTVSPost2010Prop52
140
1.0
102
RTVSPost2010PropOp52
 70
     0
102
RTVSPost2010Prop53
 90
        2
102
RTVSPost2010PropOp53
 70
     1
102
RTVSPost2010Prop54
  1
strokes_ogs.tif
102
RTVSPost2010PropOp54
 70
     1
102
RTVSPost2010Prop55
280
     0
102
RTVSPost2010PropOp55
 70
     1
102
RTVSPost2010Prop56
140
1.0
102
RTVSPost2010PropOp56
 70
     1
102
RTVSPost2010Prop57
140
1.0
102
RTVSPost2010PropOp57
 70
     1
  0
ENDSEC
  0
SECTION
  2
THUMBNAILIMAGE
 90
    16364
310
28000000B4000000550000000100080000000000C43B000000000000000000000001000000010000FFFFFF000000FF0000FFFF0000FF0000FFFF0000FF000000FF00FF000000000080808000C0C0C0000000FF007F7FFF000000A5005252A50000007F003F3F7F0000004C0026264C000000260013132600003FFF007F9FFF
310
000029A5005267A500001F7F003F4F7F0000134C00262F4C000009260013172600007FFF007FBFFF000052A500527CA500003F7F003F5F7F0000264C0026394C0000132600131C260000BFFF007FDFFF00007CA5005291A500005F7F003F6F7F0000394C0026424C00001C26001321260000FFFF007FFFFF0000A5A50052A5
310
A500007F7F003F7F7F00004C4C00264C4C00002626001326260000FFBF007FFFDF0000A57C0052A59100007F5F003F7F6F00004C3900264C420000261C001326210000FF7F007FFFBF0000A5520052A57C00007F3F003F7F5F00004C2600264C39000026130013261C0000FF3F007FFF9F0000A5290052A56700007F1F003F
310
7F4F00004C1300264C2F00002609001326170000FF00007FFF7F0000A5000052A55200007F00003F7F3F00004C0000264C260000260000132613003FFF00009FFF7F0029A5000067A552001F7F00004F7F3F00134C00002F4C260009260000172613007FFF0000BFFF7F0052A500007CA552003F7F00005F7F3F00264C0000
310
394C2600132600001C261300BFFF0000DFFF7F007CA5000091A552005F7F00006F7F3F00394C0000424C26001C26000021261300FFFF0000FFFF7F00A5A50000A5A552007F7F00007F7F3F004C4C00004C4C26002626000026261300FFBF0000FFDF7F00A57C0000A59152007F5F00007F6F3F004C3900004C422600261C00
310
0026211300FF7F0000FFBF7F00A5520000A57C52007F3F00007F5F3F004C2600004C39260026130000261C1300FF3F0000FF9F7F00A5290000A56752007F1F00007F4F3F004C1300004C2F26002609000026171300FF000000FF7F7F00A5000000A55252007F0000007F3F3F004C0000004C2626002600000026131300FF00
310
3F00FF7F9F00A5002900A55267007F001F007F3F4F004C0013004C262F002600090026131700FF007F00FF7FBF00A5005200A5527C007F003F007F3F5F004C0026004C2639002600130026131C00FF00BF00FF7FDF00A5007C00A55291007F005F007F3F6F004C0039004C26420026001C0026132100FF00FF00FF7FFF00A5
310
00A500A552A5007F007F007F3F7F004C004C004C264C002600260026132600BF00FF00DF7FFF007C00A5009152A5005F007F006F3F7F0039004C0042264C001C002600211326007F00FF00BF7FFF005200A5007C52A5003F007F005F3F7F0026004C0039264C00130026001C1326003F00FF009F7FFF002900A5006752A500
310
1F007F004F3F7F0013004C002F264C000900260017132600000000002D2D2D005B5B5B0089898900B7B7B700B3B3B30000000000000000000000000000000000000000000000000000000000000000000000000000000000000000000000000000000000000000000000000000000000000000000000000000000000000000
310
00000000000000000000000000000000000000000000000000000000000000000000000000000000000000000000000000000000000000000000000000000000000000000000000000000000000000000000000000000000000000000000000000000000000000000000000000000000000000000000000000000000000000
310
00000000000000000000000000000000000000000000000000000000000000000000000000000000000000000000000000000000000000000000000000000000000000000000000000000000000000000000000000000000000000000000000000000000000000000000000000000000000000000000000000000000000000
310
00000000000000000000000000000000000000000000000000000000000000000000000000000000000000000000000000000000000000000000000000000000000000000000000000000000000000000000000002020200020200000000000000000000000000000000000000000000000000000000000000000000000000
310
00000000000000000000000000000000000000000000000000000000000000000000000000000000000000000000000000000000000000000000000000000000000000000000000000000000000000000000000000000000000000000000000000000000000000000000000001000000000000000000000000000001000000
310
00000000000000000000020202020202000000000000000000000100000000000100000000000001000000000000000000000000000000000000000000000000000000000000000000000000000000000000000000000000000000000000000000000000000000000000000000000000000000000000000000000000000000
310
00000000000000000000000000000000000000000000000000000000000000030303030303030300000001000000030303010303030300000000000000000000000000000000000000000000000003010303030303030303030303030103000000000000000000000000000000000000000000000000000000000000000000
310
00000000000000000000000000000000000000000000000000000000000000000000000000000000000000000000000000000000000000000000000000000000000000000000000000000000000000000000000003000001000003030303030103030303030301030000030000000000000000000000000000000000000000
310
00000000030100000000000100000000000001030000000000000000000000000000000000000000000000000000000000000000000000000000000000000000000000000000000000000000000000000000000000000000000000000000000000000000000000000000000000000000000000000000000000000000000000
310
00000000000000000000030000010000000300000301030003000303010300000300000000000000000000000000000000000000000000000003010000000000010000000000000103000000000000000000000000000000000000000000000000000000000000000000000000000000000000000000000000000000000000
310
00000000000000000000000000000000000000000000000000000000000000000000000000000000000000000000000000000000000000000000000000030303030303030303030001040103000303030301030303030300000000000000000000000000000000000000000000000301030303030303030303030303010300
310
00000000000000000000000000000000000000000000000000000000000000000000000000000000000000000000000000000000000000000000000000000000000000000000000000000000000000000000000000000000000000000000000000000000000000000000000000000000000003030300000100000303000003
310
01030003030000010000030303030000000000000000000000000000000000000000000000010003030301010101030303000100000000000000000000000000000000000000000000000000000000000000000000000000000000000000000000000000000000000000000000000000000000000000000000000000000000
310
00000000000000000000000000000000000000000000000000000000000000000000000000000001030301000000000003030000030103000303000000000001010101000000000000000000000000000000000000000000000003000303030001000003030300030000000000000000000000000000000000000000000000
310
00000000000000000000000000000000000000000000000000000000000000000000000000000000000000000000000000000000000000000000000000000000000000000000000000000000000000000000000000000000000000000003030300000000000303000003010300030300000000000303030300000000000000
310
00000000000000000000000000000000000303010103030303010103030000000000000000000000000000000000000000000000000000000000000000000000000000000000000000000000000000000000000000000000000000000000000000000000000000000000000000000000000000000000000000000000000000
310
00000000000000000000000000000000000000030303030303030303030001030103000303030303030303030303030303030303000000000000000000000000000000000000030100030303030303000103000000000000000000000000000000000000000000000000000000000000000000000000000000000000000000
310
00000000000000000000000000000000000000000000000000000000000000000000000000000000000000000000000000000000000000000000000000000000000000000000000001010101010101010101010303010303010101010101010101010101010101010101000000000000000000000000000000000103010103
310
03010103030101030000000000000000000000000000000000000000000000000000000000000000000000000000000000000000000000000000000000000000000000000000000000000000000000000000000000000000000000000000000000000000000000000000000000000000000000000000000000000000000303
310
03030303030303030300030100000303030303030303030303030303030303000000000000000000000000000000000000030100000303030300000103000000000000000000000000000000000000000000000000000000000000000000000000000000000000000000000000000000000000000000000000000000000000
310
00000000000000000000000000000000000000000000000000000000000000000000000000000000000000000000000000000003030300000000030003030303030303030003030000000303030303030303030300000000000000000000000000000000000003010301030303030301010303000000000000000000000000
310
00000000000000000000000000000000000000000000000000000000000000000000000000000000000000000000000000000000000000000000000000000000000000000000000000000000000000000000000000000000000000000000000000000000000000010303030000030300030003000001000300030300030000
310
01030101000000000000000000000000000000000000000000000000030303030001000003030303030000000000000000000000000000000000000000000000000000000000000000000000000000000000000000000000000000000000000000000000000000000000000000000000000000000000000000000000000000
310
00000000000000000000000000000000000000000000000000000000000003030300030003030000030000010003000000030303000003030300000000000000000000000000000000000000000000000303030301010101010103030303000000000000000000000000000000000000000000000000000000000000000000
310
00000000000000000000000000000000000000000000000000000000000000000000000000000000000000000000000000000000000000000000000000000000000000000000000000000000000000000000000303000300030000000003000001000300000000030003000303000000000000000000000000000000000000
310
00000000000003030300000303030300000303030000000000000000000000000000000000000000000000000000000000000000000000000000000000000000000000000000000000000000000000000000000000000000000000000000000000000000000000000000000000000000000000000000000000000000000000
310
00000000000000000000030300030000000000030000010000030000000003000303000000000000000000000000000000000000000000000000000303030000000100000000030303000000000000000000000000000000000000000000000000000000000000000000000000000000000000000000000000000000000000
310
00000000000000000000000000000000000000000000000000000000000000000000000000000000000000000000000000000000000000000000000000000003030003000000000003000001000003000000000003030300000000000000000000000000000000000000000000000003000303000000010000000003030003
310
00000000000000000000000000000000000000000000000000000000000000000000000000000000000000000000000000000000000000000000000000000000000000000000000000000000000000000000000000000000000000000000000000000000000000000000000000000000000000000303030000000000030303
310
03010303030300000000030003000000000000000000000000000000000000000000000003030003030000000100000000030300030300000000000000000000000000000000000000000000000000000000000000000000000000000000000000000000000000000000000000000000000000000000000000000000000000
310
00000000000000000000000000000000000000000000000000000000000000000000000000000000000003000300000303030300000001000003030303000003030300000000000000000000000000000000000000000000000303030303000000010000000003030303030000000000000000000000000000010000000000
310
00000000000000000000000000000000000000000000000000000000000000000000000000000000000000000000000000000000000000000000000000000000000000000000000000000000000000000000000000000000000000000000000300030303000000030000000100000003000003030303030300000000000000
310
00000000000000000000000000000003030003030000000100000000030300030303030303030303030000000000030103000000000000000000000000000000000000000000000000000000000000000000000000000000000000000000000000000000000000000000000000000000000000000000000000000000000000
310
00000000000000000000000000000000000000000003000300000000030300000001000000030000000000030303000000000000000000000000000000000000000000000303000303000000010000000003030303030300000000000003000000000300010300000000000000000000000000000000000000000000000000
310
00000000000000000000000000000000000000000000000000000000000000000000000000000000000000000000000000000000000000000000000000000000000000000000000000010303010101010101010101010101010101010101010103030300000000000000000000000000000000000000000001030301010101
310
01010101010101010303030303010101010101030100000103010101030100000000000000000000000000000000000000000000000000000000000000000000000000000000000000000000000000000000000000000000000000000000000000000000000000000000000000000000000000000000000000000000000000
310
03000300000000030300000001000000030000000000030303000000000000000000000000000000000000000000000303000303000000010000000003030303030300000000000003000000000300010303000000000000000000000000000000000000000000000000000000000000000000000000000000000000000000
310
00000000000000000000000000000000000000000000000000000000000000000000000000000000000000000000000000000000000300030000000000030000000100000003000000000003030300000000000000000000000000000000000000000000030303030300000001000000000303030303030303030303030300
310
00000003030303000000000000000000000000000000000000000000000000000000000000000000000000000000000000000000000000000000000000000000000000000000000000000000000000000000000000000000000000000000000000000000000000000000030003030303030303000000010000030303030303
310
03030303000000000000000000000000000000000000000000000303000303000000010000000003030003030000000000000000000000000000010000000000000000000000000000000000000000000000000000000000000000000000000000000000000000000000000000000000000000000000000000000000000000
310
00000000000000000000000000000000000000000000000000000000000000000303030000000000030303030103030303000000000300030000000000000000000000000000000000000000000000030300030300000001000000000303000303000000000000000000000000000000000000000000000000000000000000
310
00000000000000000000000000000000000000000000000000000000000000000000000000000000000000000000000000000000000000000000000000000000000000000000000000000000000000000000000000030300030000000003030303010303030300000000030003000000000000000000000000000000000000
310
00000000000003000303000000010000000003030003000000000000000000000000000000000000000000000000000000000000000000000000000000000000000000000000000000000000000000000000000000000000000000000000000000000000000000000000000000000000000000000000000000000000000000
310
00000000000000000000000303000300000000030303030103030303000000030003030000000000000000000000000000000000000000000000000003030300000001000000000303030000000000000000000000000000000000000000000000000000000000000000000000000000000000000000000000000000000000
310
00000000000000000000000000000000000000000000000000000000000000000000000000000000000000000000000000000000000000000000000000000000030003000300000003030303010303030300000300030003000000000000000000000000000000000000000000000000000303030000000100000000030303
310
00000000000000000000000000000000000000000000000000000000000000000000000000000000000000000000000000000000000000000000000000000000000000000000000000000000000000000000000000000000000000000000000000000000000000000000000000000000000000000003000003000303000303
310
00030103030303030303000300030000000000000000000000000000000000000000000000000003030300000001000000000303030000000000000000000000000000000000000000000000000000000000000000000000000000000000000000000000000000000000000000000000000000000000000000000000000000
310
00000000000000000000000000000000000000000000000000000000000000000000000000000000000000000300000303000303030303010303030300000303000003000000000000000000000000000000000000000000000000000003030000000100000000030303000000000000000000000000000000000000000000
310
00000000000000000000000000000000000000000000000000000000000000000000000000000000000000000000000000000000000000000000000000000000000000000000000000000000000000000000000000000000000000000000000000030000000103000303030303030303000003000000030000000000000000
310
00000000000000000000000000000000000000030300000001000000010103030000000000000000000000000000000000000000000000000000000000000000000000000000000000000000000000000000000000000000000000000000000000000000000000000000000000000000000000000000000000000000000000
310
00000000000000000000000000000000000000000000000303030301000303000000010000030303030303030300000000000000000000000000000000000000000000000000000003030000000100000000030300000000000000000000000000000000000000000000000000000000000000000000000000000000000000
310
00000000000000000000000000000000000000000000000000000000000000000000000000000000000000000000000000000000000000000000000000000000000000000000000000000000000000030103030303030303030303030300000000000000000000000000000000000000000000000000000000000000000303
310
03030303030303030303000000000000000000000000000000000000000000000000000000000000000000000000000000000000000000000000000000000000000000000000000000000000000000000000000000000000000000000000000000000000000000000000000000000000000000000000000000000000000000
310
00000000000301030000000303010300000000000000000000000000000000000000000000000000000000000000000000000000000000030303030000000000000000000000000000000000000000000000000000000000000000000000000000000000000000000000000000000000000000000000000000000000000000
310
00000000000000000000000000000000000000000000000000000000000000000000000000000000000000000000000000000000000000000000000000000001030301030300000000000000000000000000000000000000000000000000000000000000000000000000000000010100000000000000000000000000000000
310
00000000000000000000000000000000000000000000000000000000000000000000000000000000000000000000000000000000000000000000000000000000000000000000000000000000000000000000000000000000000000000000000000000000000000000000000000000000000000000003030103000000000000
310
00000000000000000000000000000000000000000000000000000000000000000000000303000000000000000000000000000000000000000000000000000000000000000000000000000000000000000000000000000000000000000000000000000000000000000000000000000000000000000000000000000000000000
310
00000000000000000000000000000000000000000000000000000000000000000000000000000000000000000301030000000000000000000000000000000000000000000000000000000000000000000000000000000000030300000000000000000000000000000000000000000000000000000000000000000000000000
310
00000000000000000000000000000000000000000000000000000000000000000000000000000000000000000000000000000000000000000000000000000000000000000000000000000000000000000000000000000000000000000000000000000100000000000000000000000000000000000000000000000000000000
310
00000000000000000000000000000000000000000000000000000000000000000000000000000000000000000000000000000000000000000000000000000000000000000000000000000000000000000000000000000000000000000000000000000000000000000000000000000000000000000000000000000000000000
310
00000000000000000000000000000000000000000000000000000000000000000000000000000000000000000000000000000000000000000000000000000000000000000000000000000000000000000000000000000000000000000000000000000000000000000000000000000000000000000000000000000000000000
310
00000000000000000000000000000000000000000000000000000000000000000000000000000000000000000000000000000000000000000000000000000000000000000000000000000000000000000000000000000000000000000000000000000000000000000000000000000000000000000000000000000000000000
310
00000000000000000000000000000000000000000000000000000000000000000000000000000000000000000000000000000000000000000000000000000000000000000000000000000000000000000000000000000000000000000000000000000000000000000000000000000000000000000000000000000000000000
310
00000000000000000000000000000000000000000000000000000000000000000000000000000000000000000000000000000000000000000000000000000000000000000000000000000000000000000000000000000000000000000000000000000000000000000000000000000000000000000000000000000000000000
310
00000000000000000000000000000000000000000000000000000000000000000000000000000000000000000000000000000000000000000000000000000000000000000000000000000000000000000000000000000000000000000000000000000000000000000000000000000000000000000000000000000000000000
310
00000000000000000000000000000000000000000000000000000000000000000000000000000000000000000000000000000000000000000000000000000000000000000000000000000000000000000000000000000000000000000000000000000000000000000000000000000000000000000000000000000000000000
310
00000000000000000000000000000000000000000000000000000000000000000000000000000000000000000000000000000000000000000000000000000000000000000000000000000000000000000000000000000000000000000000000000000000000000000000000000000000000000000000000000000000000000
310
00000000000000000000000000000000000000000000000000000000000000000000000000000000000000000000000000000000000000000000000000000000000000000000000000000000000000000000000000000000000000000000000000000000000000000000000000000000000000000000000000000000000000
310
00000000000000000000000000000000000000000000000000000000000000000000000000000000000000000000000000000000000000000000000000000000000000000000000000000000000000000000000000000000000000000000000000000000000000000000000000000000000000000000000000000000000000
310
00000000000000000000000000000000000000000000000000000000000000000000000000000000000000000000000000000000000000000000000000000000000000000000000000000000000000000000000000000000000000000000000000000000000000000000000000000000000000000000000000000000000000
310
00000000000000000000000000000000000000000000000000000000000000000000000000000000000000000000000000000000000000000000000000000000000000000000000000000000000000000000000000000000000000000000000000000000000000000000000000000000000000000000000000000000000000
310
00000000000000000000000000000000000000000000000000000000000000000000000000000000000000000000000000000000000000000000000000000000000000000000000000000000000000000000000000000000000000000000000000000000000000000000000000000000000000000000000000000000000000
310
00000000000000000000000000000000000000000000000000000000000000000000000000000000000000000000000000000000000000000000000000000000000000000000000000000000000000000000000000000000000000000000000000000000000000000000000000000000000000000000000000000000000000
310
00000000000000000000000000000000000000000000000000000000000000000000000000000000000000000000000000000000000000000000000000000000000000000000000000000000000000000000000000000000000000000000000000000000000000000000000000000000000000000000000000000000000000
310
00000000000000000000000000000000000000000000000000000000000000000000000000000000000000000000000000000000000000000000000000000000000000000000000000000000000000000000000000000000000000000000000000000000000000000000000000000000000000000000000000000000000000
310
00000000000000000000000000000000000000000000000000000000000000000000000000000000000000000000000000000000000000000000000000000000000000000000000000000000000000000000000000000000000000000000000000000000000000000000000000000000000000000000000000000000000000
310
00000000000000000000000000000000000000000000000000000000000000000000000000000000000000000000000000000000000000000000000000000000000000000000000000000000000000000000000000000000000000000000000000000000000000000000000000000000000000000000000000000000000000
310
00000000000000000000000000000000000000000000000000000000000000000000000000000000000000000000000000000000000000000000000000000000000000000000000000000000000000000000000000000000000000000000000000000000000000000000000000000000000000000000000000000000000000
310
00000000000000000000000000000000000000000000000000000000000000000000000000000000000000000000000000000000000000000000000000000000000000000000000000000303030303030303030000000000000000000000000000000000000000000000000000000000000000000000000000000000000000
310
00000000000000000000000000000000000000000000000000000000000000000000000000000000000000000000000000000000000000000000000000000000000000000000000000000000000000000000000000000000000000000000000000000000000000000000000000000000000000000000000003030301030303
310
03030303030303030303030303030303000000000000000000000000000000000000000000000000000000000000000000000000000000000000000000000000000000000000000000000000000000000000000000000000000000000000000000000000000000000000000000000000000000000000000000000000000000
310
00000000000000000000000000000000000000000000000000000000000000000000000000000000000000000000030000030303000303030303030303030003030300000300000000000000000000000000000000000000000000000000000000000000000000000000000000000000000000000000000000000000000000
310
00000000000000000000000000000000000000000000000000000000000000000000000000000000000000000000000000000000000000000000000000000000000000000000000000000000000000000000000000000000000000000000000000000303030101010103030303030303030303010101010103030000000000
310
00000000000000000000000000000000000000000000000000000000000000000000000000000000000000000000000000000000000000000000000000000000000000000000000000000000000000000000000000000000000000000000000000000000000000000000000000000000000000000000000000000000000000
310
00000000000000000000000000000000000000000000000303030303010303030303030301030303030303010303030303000000000000000000000000000000000000000000000000000000000000000000000000000000000000000000000000000000000000000000000000000000000000000000000000000000000000
310
00000000000000000000000000000000000000000000000000000000000000000000000000000000000000000000000000000000000000000000000000000000000000000000000000000000030300000000000000000000000100000000000000000000000303000000000000000000000000000000000000000000000000
310
00000000000000000000000000000000000000000000000000000000000000000000000000000000000000000000000000000000000000000000000000000000000000000000000000000000000000000000000000000000000000000000000000000000000000000000000000000000000000000000000000000000000000
310
00010301010000000000000000000001000000000000000000010103030000000000000000000000000000000000000000000000000000000000000000000000000000000000000000000000000000000000000000000000000000000000000000000000000000000000000000000000000000000000000000000000000000
310
00000000000000000000000000000000000000000000000000000000000000000000000000000000000000000000000000000000000000030300000000010300000000000100000000000000000000000303030303030303000000000000000000000000000000000000000000000000000000000000000000000000000000
310
00000000000000000000000000000000000000000000000000000000000000000000000000000000000000000000000000000000000000000000000000000000000000000000000000000000000000000000000000000000000000000000000000000000000000000000000003030000000301030000000303030300000000
310
00000000000003030303030303030000000000000000000000000000000000000000000000000000000000000000000000000000000000000000000000000000000000000000000000000000000000000000000000000000000000000000000000000000000000000000000000000000000000000000000000000000000000
310
00000000000000000000000000000000000000000000000000000000000000000000030301010103010303010103030303030101010101010101010303030303030303000000000000000000000000000000000000000000000000000000000000000000000000000000000000000000000000000000000000000000000000
310
00000000000000000000000000000000000000000000000000000000000000000000000000000000000000000000000000000000000000000000000000000000000000000000000000000000000000000000000000000003030000000301030000000003030000000000000000000000030303030303030300000000000000
310
00000000000000000000000000000000000000000000000000000000000000000000000000000000000000000000000000000000000000000000000000000000000000000000000000000000000000000000000000000000000000000000000000000000000000000000000000000000000000000000000000000000000000
310
00000000000000000000000000030300000000010000000000000100000000000000000000000303000000000000000000000000000000000000000000000000000000000000000000000000000000000000000000000000000000000000000000000000000000000000000000000000000000000000000000000000000000
310
00000000000000000000000000000000000000000000000000000000000000000000000000000000000000000000000000000000000000000000000000000000000103010100000000000000000000010000000000000000000101030300000000000000000000000000000000000000000000000000000000000000000000
310
00000000000000000000000000000000000000000000000000000000000000000000000000000000000000000000000000000000000000000000000000000000000000000000000000000000000000000000000000000000000000000000000000000000000000000000000000000000000000000000000303010303010301
310
03030303030103030303010301030303030300000000000000000000000000000000000000000000000000000000000000000000000000000000000000000000000000000000000000000000000000000000000000000000000000000000000000000000000000000000000000000000000000000000000000000000000000
310
00000000000000000000000000000000000000000000000000000000000000000000000000000000000000000003030303030103030303030303010303030303030103030303030000000000000000000000000000000000000000000000000000000000000000000000000000000000000000000000000000000000000000
310
00000000000000000000000000000000000000000000000000000000000000000000000000000000000000000000000000000000000000000000000000000000000000000000000000000000000000000000000000000000000000000000000000000003030301010103030003000303030300000303010301030300000000
310
00000000000000000000000000000000000000000000000000000000000000000000000000000000000000000000000000000000000000000000000000000000000000000000000000000000000000000000000000000000000000000000000000000000000000000000000000000000000000000000000000000000000000
310
00000000000000000000000000000000000000000000000000000303030103030303030303030303030303000100000003000000000000000000000000000000000000000000000000000000000000000000000000000000000000000000000000000000000000000000000000000000000000000000000000000000000000
310
00000000000000000000000000000000000000000000000000000000000000000000000000000000000000000000000000000000000000000000000000000000000000000000000000000000000000030303030303030303030303030303030303030303030300000000000000000000000000000000000000000000000000
310
00000000000000000000000000000000000000000000000000000000000000000000000000000000000000000000000000000000000000000000000000000000000000000000000000000000000000000000000000000000000000000000000000000000000000000000000000000000000000000000000000000000000000
310
00000000000000000000000000000303030303000000000000000000000000000000000000000000000000000000000000000000000000000000000000000000000000000000000000000000000000000000000000000000000000000000000000000000000000000000000000000000000000000000000000000000000000
310
00000000000000000000000000000000000000000000000000000000000000000000000000000000000000000000000000000000000000000000000000000000000000030303000300000000000000000000000000000000000000000000000000000000000000000000000000000000000000000000000000000000000000
310
00000000000000000000000000000000000000000000000000000000000000000000000000000000000000000000000000000000000000000000000000000000000000000000000000000000000000000000000000000000000000000000000000000000000000000000000000000000000000000000000003030300030000
310
00000000000000000000000000000000000000000000000000000000000000000000000000000000000000000000000000000000000000000000000000000000000000000000000000000000000000000000000000000000000000000000000000000000000000000000000000000000000000000000000000000000000000
310
00000000000000000000000000000000000000000000000000000000000000000000000000000000000000000000030303000300000000000000000000000000000000000000000000000000000000000000000000000000000000000000000000000000000000000000000000000000000000000000000000000000000000
310
00000000000000000000000000000000000000000000000000000000000000000000000000000000000000000000000000000000000000000000000000000000000000000000000000000000000000000000000000000000000000000000000000000003030300030000000000000000000000000000000000000000000000
310
00000000000000000000000000000000000000000000000000000000000000000000000000000000000000000000000000000000000000000000000000000000000000000000000000000000000000000000000000000000000000000000000000000000000000000000000000000000000000000000000000000000000000
310
00000000000000000000000000000000000000000000000000030303000300000000000000000000000000000000000000000000000000000000000000000000000000000000000000000000000000000000000000000000000000000000000000000000000000000000000000000000000000000000000000000000000000
310
00000000000000000000000000000000000000000000000000000000000000000000000000000000000000000000000000000000000000000000000000000000000000000000000000000000000003030300030000000000000000000000000000000000000000000000000000000000000000000000000000000000000000
310
00000000000000000000000000000000000000000000000000000000000000000000000000000000000000000000000000000000000000000000000000000000000000000000000000000000000000000000000000000000000000000000000000000000000000000000000000000000000000000000000000000000000000
310
00000000030303030300000000000000000000000000000000000000000000000000000000000000000000000000000000000000000000000000000000000000000000000000000000000000000000000000000000000000000000000000000000000000000000000000000000000000000000000000000000000000000000
310
00000000000000000000000000000000000000000000000000000000000000000000000000000000000000000000000000000000000000000000000100000000000000000000000000000000000000000000000000000000000000000000000000000000000000000000000000000000000000000000000000000000000000
310
00000000000000000000000000000000000000000000000000000000000000000000000000000000000000000000000000000000000000000000000000000000000000000000000000000000000000000000000000000000000000000000000000000000000000000000000000000000000000000000000000000000000000
310
00000000000000000000000000000000000000000000000000000000000000000000000000000000000000000000000000000000000000000000000000000000000000000000000000000000000000000000000000000000000000000000000000000000000000000000000000000000000000000000000000000000000000
310
00000000000000000000000000000000000000000000000000000000000000000000000000000000000000000000000000000000000000000000000000000000000000000000000000000000000000000000000000000000000000000000000000000000000000000000000000000000000000000000000000000000000000
310
00000000000000000000000000000000000000000000000000000000000000000000000000000000000000000000000000000000000000000000000000000000000000000000000000000000000000000000000000000000000000000000000000000000000000000000000000000000000000000000000000000000000000
310
000000000000000000000000000000000000000000000000000000000000000000000000000000000000000000000000000000000000000000000000000000000000000000000000000000000000000000000000000000000000000000000000000000000000000000000000
  0
ENDSEC
  0
EOF
