  0
SECTION
  2
HEADER
  9
$ACADVER
  1
AC1015
  9
$ACADMAINTVER
 70
     6
  9
$DWGCODEPAGE
  3
ANSI_932
  9
$INSBASE
 10
1905.738197872821
 20
969.5359103223391
 30
0.0
  9
$EXTMIN
 10
218.5498930484409
 20
29.53680335489889
 30
0.0
  9
$EXTMAX
 10
1245.256799605059
 20
1076.295901430067
 30
0.0
  9
$LIMMIN
 10
0.0
 20
0.0
  9
$LIMMAX
 10
816.5000000000001
 20
565.0
  9
$ORTHOMODE
 70
     1
  9
$REGENMODE
 70
     1
  9
$FILLMODE
 70
     1
  9
$QTEXTMODE
 70
     0
  9
$MIRRTEXT
 70
     1
  9
$LTSCALE
 40
5.0
  9
$ATTMODE
 70
     1
  9
$TEXTSIZE
 40
12.0
  9
$TRACEWID
 40
0.05
  9
$TEXTSTYLE
  7
KANJI
  9
$CLAYER
  8
2
  9
$CELTYPE
  6
BYLAYER
  9
$CECOLOR
 62
   256
  9
$CELTSCALE
 40
1.0
  9
$DISPSILH
 70
     0
  9
$DIMSCALE
 40
4.0
  9
$DIMASZ
 40
2.0
  9
$DIMEXO
 40
0.5
  9
$DIMDLI
 40
0.0
  9
$DIMRND
 40
0.0
  9
$DIMDLE
 40
0.0
  9
$DIMEXE
 40
1.0
  9
$DIMTP
 40
0.0
  9
$DIMTM
 40
0.0
  9
$DIMTXT
 40
3.0
  9
$DIMCEN
 40
0.09
  9
$DIMTSZ
 40
0.0
  9
$DIMTOL
 70
     0
  9
$DIMLIM
 70
     0
  9
$DIMTIH
 70
     0
  9
$DIMTOH
 70
     0
  9
$DIMSE1
 70
     0
  9
$DIMSE2
 70
     0
  9
$DIMTAD
 70
     0
  9
$DIMZIN
 70
     8
  9
$DIMBLK
  1

  9
$DIMASO
 70
     0
  9
$DIMSHO
 70
     0
  9
$DIMPOST
  1

  9
$DIMAPOST
  1

  9
$DIMALT
 70
     0
  9
$DIMALTD
 70
     2
  9
$DIMALTF
 40
25.4
  9
$DIMLFAC
 40
1.0
  9
$DIMTOFL
 70
     1
  9
$DIMTVP
 40
1.0
  9
$DIMTIX
 70
     1
  9
$DIMSOXD
 70
     1
  9
$DIMSAH
 70
     0
  9
$DIMBLK1
  1

  9
$DIMBLK2
  1

  9
$DIMSTYLE
  2
STANDARD
  9
$DIMCLRD
 70
   256
  9
$DIMCLRE
 70
   256
  9
$DIMCLRT
 70
   256
  9
$DIMTFAC
 40
1.0
  9
$DIMGAP
 40
0.09
  9
$DIMJUST
 70
     0
  9
$DIMSD1
 70
     0
  9
$DIMSD2
 70
     0
  9
$DIMTOLJ
 70
     1
  9
$DIMTZIN
 70
     0
  9
$DIMALTZ
 70
     0
  9
$DIMALTTZ
 70
     0
  9
$DIMUPT
 70
     0
  9
$DIMDEC
 70
     1
  9
$DIMTDEC
 70
     4
  9
$DIMALTU
 70
     2
  9
$DIMALTTD
 70
     2
  9
$DIMTXSTY
  7
STANDARD
  9
$DIMAUNIT
 70
     0
  9
$DIMADEC
 70
     0
  9
$DIMALTRND
 40
0.0
  9
$DIMAZIN
 70
     0
  9
$DIMDSEP
 70
    46
  9
$DIMATFIT
 70
     3
  9
$DIMFRAC
 70
     0
  9
$DIMLDRBLK
  1

  9
$DIMLUNIT
 70
     2
  9
$DIMLWD
 70
    -2
  9
$DIMLWE
 70
    -2
  9
$DIMTMOVE
 70
     0
  9
$LUNITS
 70
     2
  9
$LUPREC
 70
     3
  9
$SKETCHINC
 40
0.1
  9
$FILLETRAD
 40
1.0
  9
$AUNITS
 70
     0
  9
$AUPREC
 70
     3
  9
$MENU
  1
C:\R13\WIN\SUPPORT\ACADFULL
  9
$ELEVATION
 40
0.0
  9
$PELEVATION
 40
0.0
  9
$THICKNESS
 40
0.0
  9
$LIMCHECK
 70
     0
  9
$CHAMFERA
 40
0.0
  9
$CHAMFERB
 40
0.0
  9
$CHAMFERC
 40
0.0
  9
$CHAMFERD
 40
0.0
  9
$SKPOLY
 70
     0
  9
$TDCREATE
 40
2457436.681340868
  9
$TDUCREATE
 40
2457436.306340868
  9
$TDUPDATE
 40
2457870.594293981
  9
$TDUUPDATE
 40
2457870.219293981
  9
$TDINDWG
 40
0.0127419329
  9
$TDUSRTIMER
 40
0.0127414583
  9
$USRTIMER
 70
     1
  9
$ANGBASE
 50
0.0
  9
$ANGDIR
 70
     0
  9
$PDMODE
 70
     0
  9
$PDSIZE
 40
0.0
  9
$PLINEWID
 40
0.0
  9
$SPLFRAME
 70
     0
  9
$SPLINETYPE
 70
     6
  9
$SPLINESEGS
 70
     8
  9
$HANDSEED
  5
5CB
  9
$SURFTAB1
 70
     6
  9
$SURFTAB2
 70
     6
  9
$SURFTYPE
 70
     6
  9
$SURFU
 70
     6
  9
$SURFV
 70
     6
  9
$UCSBASE
  2

  9
$UCSNAME
  2

  9
$UCSORG
 10
0.0
 20
0.0
 30
0.0
  9
$UCSXDIR
 10
1.0
 20
0.0
 30
0.0
  9
$UCSYDIR
 10
0.0
 20
1.0
 30
0.0
  9
$UCSORTHOREF
  2

  9
$UCSORTHOVIEW
 70
     0
  9
$UCSORGTOP
 10
0.0
 20
0.0
 30
0.0
  9
$UCSORGBOTTOM
 10
0.0
 20
0.0
 30
0.0
  9
$UCSORGLEFT
 10
0.0
 20
0.0
 30
0.0
  9
$UCSORGRIGHT
 10
0.0
 20
0.0
 30
0.0
  9
$UCSORGFRONT
 10
0.0
 20
0.0
 30
0.0
  9
$UCSORGBACK
 10
0.0
 20
0.0
 30
0.0
  9
$PUCSBASE
  2

  9
$PUCSNAME
  2

  9
$PUCSORG
 10
0.0
 20
0.0
 30
0.0
  9
$PUCSXDIR
 10
1.0
 20
0.0
 30
0.0
  9
$PUCSYDIR
 10
0.0
 20
1.0
 30
0.0
  9
$PUCSORTHOREF
  2

  9
$PUCSORTHOVIEW
 70
     0
  9
$PUCSORGTOP
 10
0.0
 20
0.0
 30
0.0
  9
$PUCSORGBOTTOM
 10
0.0
 20
0.0
 30
0.0
  9
$PUCSORGLEFT
 10
0.0
 20
0.0
 30
0.0
  9
$PUCSORGRIGHT
 10
0.0
 20
0.0
 30
0.0
  9
$PUCSORGFRONT
 10
0.0
 20
0.0
 30
0.0
  9
$PUCSORGBACK
 10
0.0
 20
0.0
 30
0.0
  9
$USERI1
 70
     0
  9
$USERI2
 70
     0
  9
$USERI3
 70
     0
  9
$USERI4
 70
     0
  9
$USERI5
 70
     0
  9
$USERR1
 40
0.0
  9
$USERR2
 40
0.0
  9
$USERR3
 40
0.0
  9
$USERR4
 40
2448925.372986111
  9
$USERR5
 40
0.04166667
  9
$WORLDVIEW
 70
     1
  9
$SHADEDGE
 70
     3
  9
$SHADEDIF
 70
    70
  9
$TILEMODE
 70
     1
  9
$MAXACTVP
 70
    16
  9
$PINSBASE
 10
0.0
 20
0.0
 30
0.0
  9
$PLIMCHECK
 70
     0
  9
$PEXTMIN
 10
1.000000000000000E+20
 20
1.000000000000000E+20
 30
1.000000000000000E+20
  9
$PEXTMAX
 10
-1.000000000000000E+20
 20
-1.000000000000000E+20
 30
-1.000000000000000E+20
  9
$PLIMMIN
 10
0.0
 20
0.0
  9
$PLIMMAX
 10
12.0
 20
9.0
  9
$UNITMODE
 70
     0
  9
$VISRETAIN
 70
     0
  9
$PLINEGEN
 70
     0
  9
$PSLTSCALE
 70
     0
  9
$TREEDEPTH
 70
  3020
  9
$CMLSTYLE
  2
STANDARD
  9
$CMLJUST
 70
     0
  9
$CMLSCALE
 40
1.0
  9
$PROXYGRAPHICS
 70
     1
  9
$MEASUREMENT
 70
     0
  9
$CELWEIGHT
370
    -1
  9
$ENDCAPS
280
     0
  9
$JOINSTYLE
280
     0
  9
$LWDISPLAY
290
     0
  9
$INSUNITS
 70
     0
  9
$HYPERLINKBASE
  1

  9
$STYLESHEET
  1
monochrome.ctb
  9
$XEDIT
290
     1
  9
$CEPSNTYPE
380
     0
  9
$PSTYLEMODE
290
     1
  9
$FINGERPRINTGUID
  2
{D8475D3F-E0A7-475F-AD62-F094CB25D397}
  9
$VERSIONGUID
  2
{2A901EA2-771C-4BBF-8618-5DB7689DCBDF}
  9
$EXTNAMES
290
     1
  9
$PSVPSCALE
 40
0.0
  9
$OLESTARTUP
290
     0
  0
ENDSEC
  0
SECTION
  2
CLASSES
  0
CLASS
  1
LWPOLYLINE
  2
AcDbPolyline
  3
AutoCAD 2000
 90
        0
280
     0
281
     1
  0
CLASS
  1
ACDBDICTIONARYWDFLT
  2
AcDbDictionaryWithDefault
  3
ObjectDBX Classes
 90
        0
280
     0
281
     0
  0
CLASS
  1
ACDBPLACEHOLDER
  2
AcDbPlaceHolder
  3
ObjectDBX Classes
 90
        0
280
     0
281
     0
  0
CLASS
  1
LAYOUT
  2
AcDbLayout
  3
ObjectDBX Classes
 90
        0
280
     0
281
     0
  0
CLASS
  1
DICTIONARYVAR
  2
AcDbDictionaryVar
  3
ObjectDBX Classes
 90
        0
280
     0
281
     0
  0
CLASS
  1
DUMMY
  2
AcDbLongTransaction
  3
DUMMY
 90
        0
280
     0
281
     0
  0
CLASS
  1
LWPOLYLINE
  2
AcDbPolyline
  3
AutoCAD 2000
 90
        0
280
     0
281
     1
  0
CLASS
  1
HATCH
  2
AcDbHatch
  3
AutoCAD 2000
 90
        0
280
     0
281
     1
  0
CLASS
  1
XRECORD
  2
AcDbXrecord
  3
AutoCAD 2000
 90
        0
280
     0
281
     0
  0
CLASS
  1
DUMMY
  2
AcDbLongTransaction
  3
DUMMY
 90
        0
280
     0
281
     0
  0
CLASS
  1
LWPOLYLINE
  2
AcDbPolyline
  3
AutoCAD 2000
 90
        0
280
     0
281
     1
  0
CLASS
  1
HATCH
  2
AcDbHatch
  3
AutoCAD 2000
 90
        0
280
     0
281
     1
  0
CLASS
  1
XRECORD
  2
AcDbXrecord
  3
AutoCAD 2000
 90
        0
280
     0
281
     0
  0
CLASS
  1
DUMMY
  2
AcDbLongTransaction
  3
DUMMY
 90
        0
280
     0
281
     0
  0
CLASS
  1
LWPOLYLINE
  2
AcDbPolyline
  3
AutoCAD 2000
 90
        0
280
     0
281
     1
  0
CLASS
  1
HATCH
  2
AcDbHatch
  3
AutoCAD 2000
 90
        0
280
     0
281
     1
  0
CLASS
  1
XRECORD
  2
AcDbXrecord
  3
AutoCAD 2000
 90
        0
280
     0
281
     0
  0
CLASS
  1
DUMMY
  2
AcDbLongTransaction
  3
DUMMY
 90
        0
280
     0
281
     0
  0
CLASS
  1
LWPOLYLINE
  2
AcDbPolyline
  3
AutoCAD 2000
 90
        0
280
     0
281
     1
  0
CLASS
  1
HATCH
  2
AcDbHatch
  3
AutoCAD 2000
 90
        0
280
     0
281
     1
  0
CLASS
  1
XRECORD
  2
AcDbXrecord
  3
AutoCAD 2000
 90
        0
280
     0
281
     0
  0
CLASS
  1
MATERIAL
  2
AcDbMaterial
  3
ObjectDBX Classes
 90
     1153
280
     0
281
     0
  0
CLASS
  1
VISUALSTYLE
  2
AcDbVisualStyle
  3
ObjectDBX Classes
 90
     4095
280
     0
281
     0
  0
CLASS
  1
TABLESTYLE
  2
AcDbTableStyle
  3
ObjectDBX Classes
 90
     4095
280
     0
281
     0
  0
CLASS
  1
SCALE
  2
AcDbScale
  3
ObjectDBX Classes
 90
     1153
280
     0
281
     0
  0
CLASS
  1
MLEADERSTYLE
  2
AcDbMLeaderStyle
  3
ACDB_MLEADERSTYLE_CLASS
 90
     4095
280
     0
281
     0
  0
CLASS
  1
ACDBSECTIONVIEWSTYLE
  2
AcDbSectionViewStyle
  3
ObjectDBX Classes
 90
     1025
280
     0
281
     0
  0
CLASS
  1
ACDBDETAILVIEWSTYLE
  2
AcDbDetailViewStyle
  3
ObjectDBX Classes
 90
     1025
280
     0
281
     0
  0
CLASS
  1
SORTENTSTABLE
  2
AcDbSortentsTable
  3
ObjectDBX Classes
 90
        0
280
     0
281
     0
  0
ENDSEC
  0
SECTION
  2
TABLES
  0
TABLE
  2
VPORT
  5
2C
102
{ACAD_XDICTIONARY
360
58F
102
}
330
0
100
AcDbSymbolTable
 70
     1
  0
VPORT
  5
2D
330
2C
100
AcDbSymbolTableRecord
100
AcDbViewportTableRecord
  2
*Active
 70
     0
 10
0.0
 20
0.0
 11
1.0
 21
1.0
 12
1438.030052657733
 22
561.9421026664786
 13
0.0
 23
0.0
 14
1.0
 24
1.0
 15
50.0
 25
50.0
 16
0.0
 26
0.0
 36
1.0
 17
0.0
 27
0.0
 37
0.0
 40
1415.35623183803
 41
2.174107142857143
 42
50.0
 43
0.0
 44
0.0
 50
0.0
 51
0.0
 71
     0
 72
  5000
 73
     1
 74
     0
 75
     0
 76
     0
 77
     0
 78
     0
281
     0
 65
     1
110
0.0
120
0.0
130
0.0
111
1.0
121
0.0
131
0.0
112
0.0
122
1.0
132
0.0
 79
     0
146
0.0
1001
ACAD_NAV_VCDISPLAY
1070
     3
  0
ENDTAB
  0
TABLE
  2
LTYPE
  5
27
330
0
100
AcDbSymbolTable
 70
     2
  0
LTYPE
  5
28
330
27
100
AcDbSymbolTableRecord
100
AcDbLinetypeTableRecord
  2
BYBLOCK
 70
     0
  3

 72
    65
 73
     0
 40
0.0
  0
LTYPE
  5
29
330
27
100
AcDbSymbolTableRecord
100
AcDbLinetypeTableRecord
  2
BYLAYER
 70
     0
  3

 72
    65
 73
     0
 40
0.0
  0
LTYPE
  5
16
330
27
100
AcDbSymbolTableRecord
100
AcDbLinetypeTableRecord
  2
CONTINUOUS
 70
     0
  3
Solid line
 72
    65
 73
     0
 40
0.0
  0
LTYPE
  5
71
330
27
100
AcDbSymbolTableRecord
100
AcDbLinetypeTableRecord
  2
CENTER
 70
     0
  3
____ _ ____ _ ____ _ ____ _ ____ _ ____ _ ____
 72
    65
 73
     4
 40
2.0
 49
1.25
 74
     0
 49
-0.25
 74
     0
 49
0.25
 74
     0
 49
-0.25
 74
     0
  0
ENDTAB
  0
TABLE
  2
LAYER
  5
21
102
{ACAD_XDICTIONARY
360
22
102
}
330
0
100
AcDbSymbolTable
 70
     8
  0
LAYER
  5
7
102
{ACAD_XDICTIONARY
360
8
102
}
330
21
100
AcDbSymbolTableRecord
100
AcDbLayerTableRecord
  2
0
 70
     0
 62
     7
  6
CONTINUOUS
370
    -3
390
A
  0
LAYER
  5
382
102
{ACAD_XDICTIONARY
360
383
102
}
330
21
100
AcDbSymbolTableRecord
100
AcDbLayerTableRecord
  2
1
 70
     0
 62
     9
  6
CONTINUOUS
370
    -3
390
A
  0
LAYER
  5
4D
102
{ACAD_XDICTIONARY
360
4E
102
}
330
21
100
AcDbSymbolTableRecord
100
AcDbLayerTableRecord
  2
2
 70
     0
 62
     4
  6
CONTINUOUS
370
    -3
390
A
  0
LAYER
  5
69
102
{ACAD_XDICTIONARY
360
6A
102
}
330
21
100
AcDbSymbolTableRecord
100
AcDbLayerTableRecord
  2
4
 70
     0
 62
     3
  6
CONTINUOUS
370
    -3
390
A
  0
LAYER
  5
6E
102
{ACAD_XDICTIONARY
360
6F
102
}
330
21
100
AcDbSymbolTableRecord
100
AcDbLayerTableRecord
  2
L-CENTER
 70
     0
 62
     1
  6
CENTER
370
    -3
390
A
  0
LAYER
  5
78
102
{ACAD_XDICTIONARY
360
79
102
}
330
21
100
AcDbSymbolTableRecord
100
AcDbLayerTableRecord
  2
3
 70
     0
 62
     2
  6
CONTINUOUS
370
    -3
390
A
  0
LAYER
  5
37B
330
21
100
AcDbSymbolTableRecord
100
AcDbLayerTableRecord
  2
5
 70
     0
 62
     6
  6
CONTINUOUS
370
    -3
390
A
  0
LAYER
  5
556
330
21
100
AcDbSymbolTableRecord
100
AcDbLayerTableRecord
  2
Defpoints
 70
     0
 62
     7
  6
CONTINUOUS
290
     0
370
    -3
390
A
  0
ENDTAB
  0
TABLE
  2
STYLE
  5
24
330
0
100
AcDbSymbolTable
 70
     2
  0
STYLE
  5
25
330
24
100
AcDbSymbolTableRecord
100
AcDbTextStyleTableRecord
  2
STANDARD
 70
     0
 40
0.0
 41
1.0
 50
0.0
 71
     0
 42
7.2
  3
TXT
  4

  0
STYLE
  5
50
330
24
100
AcDbSymbolTableRecord
100
AcDbTextStyleTableRecord
  2
KANJI
 70
     0
 40
0.0
 41
1.0
 50
0.0
 71
     0
 42
12.0
  3
TXT
  4
BIGFONT
  0
ENDTAB
  0
TABLE
  2
VIEW
  5
2A
330
0
100
AcDbSymbolTable
 70
     0
  0
ENDTAB
  0
TABLE
  2
UCS
  5
2B
330
0
100
AcDbSymbolTable
 70
     0
  0
ENDTAB
  0
TABLE
  2
APPID
  5
31
330
0
100
AcDbSymbolTable
 70
     5
  0
APPID
  5
32
330
31
100
AcDbSymbolTableRecord
100
AcDbRegAppTableRecord
  2
ACAD
 70
     0
  0
APPID
  5
30
330
31
100
AcDbSymbolTableRecord
100
AcDbRegAppTableRecord
  2
ACAD_NAV_VCDISPLAY
 70
     0
  0
APPID
  5
1A
330
31
100
AcDbSymbolTableRecord
100
AcDbRegAppTableRecord
  2
ACAD_PSEXT
 70
     0
  0
APPID
  5
4EF
330
31
100
AcDbSymbolTableRecord
100
AcDbRegAppTableRecord
  2
ACAD_EXEMPT_FROM_CAD_STANDARDS
 70
     0
  0
APPID
  5
54F
330
31
100
AcDbSymbolTableRecord
100
AcDbRegAppTableRecord
  2
ACAD_MLEADERVER
 70
     0
  0
ENDTAB
  0
TABLE
  2
DIMSTYLE
  5
33
330
0
100
AcDbSymbolTable
 70
     1
100
AcDbDimStyleTable
  0
DIMSTYLE
105
34
330
33
100
AcDbSymbolTableRecord
100
AcDbDimStyleTableRecord
  2
STANDARD
 70
     0
178
     0
340
25
  0
ENDTAB
  0
TABLE
  2
BLOCK_RECORD
  5
1
330
0
100
AcDbSymbolTable
 70
     0
  0
BLOCK_RECORD
  5
2
102
{ACAD_XDICTIONARY
360
3
102
}
330
1
100
AcDbSymbolTableRecord
100
AcDbBlockTableRecord
  2
*MODEL_SPACE
340
18
  0
BLOCK_RECORD
  5
1B
330
1
100
AcDbSymbolTableRecord
100
AcDbBlockTableRecord
  2
*PAPER_SPACE
340
20
  0
ENDTAB
  0
ENDSEC
  0
SECTION
  2
BLOCKS
  0
BLOCK
  5
6
330
2
100
AcDbEntity
  8
0
100
AcDbBlockBegin
  2
*MODEL_SPACE
 70
     0
 10
0.0
 20
0.0
 30
0.0
  3
*MODEL_SPACE
  1

  0
ENDBLK
  5
17
330
2
100
AcDbEntity
  8
0
100
AcDbBlockEnd
  0
BLOCK
  5
1E
330
1B
100
AcDbEntity
 67
     1
  8
0
100
AcDbBlockBegin
  2
*PAPER_SPACE
 70
     0
 10
0.0
 20
0.0
 30
0.0
  3
*PAPER_SPACE
  1

  0
ENDBLK
  5
1F
330
1B
100
AcDbEntity
 67
     1
  8
0
100
AcDbBlockEnd
  0
ENDSEC
  0
SECTION
  2
ENTITIES
  0
ARC
  5
68
330
2
100
AcDbEntity
  8
4
100
AcDbCircle
 10
425.7721172651314
 20
392.1668312906149
 30
0.0
 40
5.0
100
AcDbArc
 50
350.599023122249
 51
50.18086187565682
  0
ARC
  5
6C
330
2
100
AcDbEntity
  8
4
100
AcDbCircle
 10
532.5794430322512
 20
392.1668312906149
 30
0.0
 40
5.0
100
AcDbArc
 50
129.8191381243432
 51
189.400976877751
  0
LINE
  5
6D
330
2
100
AcDbEntity
  8
L-CENTER
 48
4.0
100
AcDbLine
 10
479.1757801486913
 20
563.0814139825675
 30
0.0
 11
479.1757801486913
 21
85.16087867898068
 31
0.0
  0
ARC
  5
72
330
2
100
AcDbEntity
  8
4
100
AcDbCircle
 10
-65.82446385130868
 20
342.3472819825679
 30
0.0
 40
700.000056
100
AcDbArc
 50
0.000060001520809
 51
11.58713399999986
  0
ARC
  5
73
330
2
100
AcDbEntity
  8
4
100
AcDbCircle
 10
1024.176024148691
 20
342.3472819825679
 30
0.0
 40
700.000005
100
AcDbArc
 50
168.413497000005
 51
180.0004599994228
  0
ARC
  5
74
330
2
100
AcDbEntity
  8
4
100
AcDbCircle
 10
479.1757801486914
 20
342.3475279825675
 30
0.0
 40
132.499947
100
AcDbArc
 50
280.5249249999999
 51
259.4764600000017
  0
ARC
  5
75
330
2
100
AcDbEntity
  8
4
100
AcDbCircle
 10
479.1757801486914
 20
342.3475279825675
 30
0.0
 40
152.000052
100
AcDbArc
 50
278.272
 51
261.7292070000005
  0
LINE
  5
7F
330
2
100
AcDbEntity
  8
4
100
AcDbLine
 10
230.1757801486912
 20
210.3475279825675
 30
0.0
 11
309.1757821486912
 21
210.3475279825675
 31
0.0
  0
LINE
  5
80
330
2
100
AcDbEntity
  8
4
100
AcDbLine
 10
230.1757801486912
 20
178.3475269825676
 30
0.0
 11
309.1757821486912
 21
178.3475269825676
 31
0.0
  0
LINE
  5
81
330
2
100
AcDbEntity
  8
4
100
AcDbLine
 10
304.1757811486912
 20
213.8475259825677
 30
0.0
 11
229.1757811486912
 21
213.8475259825677
 31
0.0
  0
LINE
  5
82
330
2
100
AcDbEntity
  8
L-CENTER
 48
4.0
100
AcDbLine
 10
734.5824458180621
 20
194.3475259825677
 30
0.0
 11
223.7691144793207
 21
194.3475259825677
 31
0.0
  0
LINE
  5
A4
330
2
100
AcDbEntity
  8
4
100
AcDbLine
 10
229.1757811486912
 20
213.8475259825677
 30
0.0
 11
229.1757811486912
 21
179.3475259825677
 31
0.0
  0
LINE
  5
A5
330
2
100
AcDbEntity
  8
4
100
AcDbLine
 10
230.1757801486912
 20
178.3475269825676
 30
0.0
 11
230.1757801486912
 21
210.3475279825675
 31
0.0
  0
LINE
  5
A6
330
2
100
AcDbEntity
  8
4
100
AcDbLine
 10
230.1757801486912
 20
178.3475269825676
 30
0.0
 11
229.1757811486912
 21
179.3475259825677
 31
0.0
  0
LINE
  5
A7
330
2
100
AcDbEntity
  8
4
100
AcDbLine
 10
230.1757801486912
 20
210.3475279825675
 30
0.0
 11
229.1757811486912
 21
209.3475259825677
 31
0.0
  0
ARC
  5
D2
330
2
100
AcDbEntity
  8
4
100
AcDbCircle
 10
534.4082011486914
 20
379.4698399825679
 30
0.0
 40
5.000078999999999
100
AcDbArc
 50
186.9917609999985
 51
264.9550109999994
  0
ARC
  5
D3
330
2
100
AcDbEntity
  8
4
100
AcDbCircle
 10
534.4082011486914
 20
305.2252129825679
 30
0.0
 40
5.000078999999999
100
AcDbArc
 50
95.04498900000061
 51
173.0082280000064
  0
ARC
  5
D4
330
2
100
AcDbEntity
  8
4
100
AcDbCircle
 10
531.1757791486914
 20
187.2733069825676
 30
0.0
 40
2.999958
100
AcDbArc
 50
0.0
 51
94.24242600000095
  0
ARC
  5
D5
330
2
100
AcDbEntity
  8
4
100
AcDbCircle
 10
479.1757801486914
 20
888.3475279825675
 30
0.0
 40
700.000035
100
AcDbArc
 50
271.7405029999999
 51
281.2495910000021
  0
LINE
  5
D6
330
2
100
AcDbEntity
  8
4
100
AcDbLine
 10
479.1757801486914
 20
96.3475279825675
 30
0.0
 11
534.1757791486914
 21
96.3475279825675
 31
0.0
  0
LINE
  5
D7
330
2
100
AcDbEntity
  8
L-CENTER
 48
4.0
100
AcDbLine
 10
646.174263368106
 20
342.3475279825675
 30
0.0
 11
312.1772969292765
 21
342.3475279825675
 31
0.0
  0
LINE
  5
D8
330
2
100
AcDbEntity
  8
4
100
AcDbLine
 10
496.6757791486914
 20
116.3475259825677
 30
0.0
 11
496.6757791486914
 21
181.0152499825676
 31
0.0
  0
LINE
  5
D9
330
2
100
AcDbEntity
  8
4
100
AcDbLine
 10
341.0776351486913
 20
152.8143229825678
 30
0.0
 11
329.4941161486914
 21
113.4301189825678
 31
0.0
  0
LINE
  5
DA
330
2
100
AcDbEntity
  8
4
100
AcDbLine
 10
328.1757781486914
 20
259.3475269825676
 30
0.0
 11
328.1757781486914
 21
129.3475279825675
 31
0.0
  0
LINE
  5
DB
330
2
100
AcDbEntity
  8
4
100
AcDbLine
 10
414.1757791486914
 20
188.6439139825675
 30
0.0
 11
414.1757791486914
 21
119.3475259825677
 31
0.0
  0
LINE
  5
DC
330
2
100
AcDbEntity
  8
4
100
AcDbLine
 10
424.1757781486914
 20
187.2733069825676
 30
0.0
 11
424.1757781486914
 21
96.3475279825675
 31
0.0
  0
LINE
  5
DD
330
2
100
AcDbEntity
  8
4
100
AcDbLine
 10
461.6757781486914
 20
116.3475259825677
 30
0.0
 11
461.6757781486914
 21
181.0152499825676
 31
0.0
  0
LINE
  5
DE
330
2
100
AcDbEntity
  8
4
100
AcDbLine
 10
414.1757791486914
 20
84.3475279825675
 30
0.0
 11
329.1757801486914
 21
84.3475279825675
 31
0.0
  0
LINE
  5
DF
330
2
100
AcDbEntity
  8
4
100
AcDbLine
 10
409.1757781486914
 20
114.3475279825675
 30
0.0
 11
331.1757781486914
 21
114.3475279825675
 31
0.0
  0
LINE
  5
E2
330
2
100
AcDbEntity
  8
4
100
AcDbLine
 10
329.1757801486914
 20
112.3475269825676
 30
0.0
 11
329.1757801486914
 21
84.3475279825675
 31
0.0
  0
ARC
  5
E3
330
2
100
AcDbEntity
  8
4
100
AcDbCircle
 10
331.5026821486914
 20
127.3475269825676
 30
0.0
 40
2.00001
100
AcDbArc
 50
343.6070389999979
 51
90.0
  0
LINE
  5
E4
330
2
100
AcDbEntity
  8
4
100
AcDbLine
 10
331.5026821486914
 20
129.3475279825675
 30
0.0
 11
328.1757781486914
 21
129.3475279825675
 31
0.0
  0
ARC
  5
E5
330
2
100
AcDbEntity
  8
4
100
AcDbCircle
 10
331.1757781486914
 20
112.3475269825676
 30
0.0
 40
2.000001
100
AcDbArc
 50
90.0
 51
179.9930079999866
  0
LINE
  5
E8
330
2
100
AcDbEntity
  8
L-CENTER
 48
4.0
100
AcDbLine
 10
384.1757791486914
 20
72.3475279825675
 30
0.0
 11
384.1757791486914
 21
126.3475279825675
 31
0.0
  0
LINE
  5
ED
330
2
100
AcDbEntity
  8
L-CENTER
 48
4.0
100
AcDbLine
 10
458.0459640361783
 20
116.3475259825677
 30
0.0
 11
500.3055962612042
 21
116.3475259825677
 31
0.0
  0
ARC
  5
EE
330
2
100
AcDbEntity
  8
4
100
AcDbCircle
 10
479.1757801486914
 20
116.3475259825677
 30
0.0
 40
17.499999
100
AcDbArc
 50
180.0007960005103
 51
0.0
  0
LINE
  5
EF
330
2
100
AcDbEntity
  8
4
100
AcDbLine
 10
479.1757801486914
 20
96.3475279825675
 30
0.0
 11
424.1757781486914
 21
96.3475279825675
 31
0.0
  0
LINE
  5
F0
330
2
100
AcDbEntity
  8
4
100
AcDbLine
 10
424.1757781486914
 20
96.3475279825675
 30
0.0
 11
414.1757791486914
 21
84.3475279825675
 31
0.0
  0
ARC
  5
F1
330
2
100
AcDbEntity
  8
4
100
AcDbCircle
 10
409.1757781486914
 20
119.3475259825677
 30
0.0
 40
5.000000999999999
100
AcDbArc
 50
270.0008710000001
 51
0.0
  0
CIRCLE
  5
F2
330
2
100
AcDbEntity
  8
2
100
AcDbCircle
 10
479.1757801486914
 20
116.3475259825677
 30
0.0
 40
6.999999000000001
  0
LINE
  5
F3
330
2
100
AcDbEntity
  8
2
100
AcDbLine
 10
484.2379561486914
 20
119.2701769825676
 30
0.0
 11
479.1757801486914
 21
122.1928249825678
 31
0.0
  0
LINE
  5
F4
330
2
100
AcDbEntity
  8
2
100
AcDbLine
 10
484.2379561486914
 20
113.4248779825675
 30
0.0
 11
484.2379561486914
 21
119.2701769825676
 31
0.0
  0
LINE
  5
F5
330
2
100
AcDbEntity
  8
2
100
AcDbLine
 10
474.1136011486914
 20
119.2701769825676
 30
0.0
 11
474.1136011486914
 21
113.4248779825675
 31
0.0
  0
LINE
  5
F6
330
2
100
AcDbEntity
  8
2
100
AcDbLine
 10
479.1757801486914
 20
122.1928249825678
 30
0.0
 11
474.1136011486914
 21
119.2701769825676
 31
0.0
  0
LINE
  5
F7
330
2
100
AcDbEntity
  8
2
100
AcDbLine
 10
479.1757801486914
 20
110.5022269825677
 30
0.0
 11
484.2379561486914
 21
113.4248779825675
 31
0.0
  0
LINE
  5
F8
330
2
100
AcDbEntity
  8
2
100
AcDbLine
 10
474.1136011486914
 20
113.4248779825675
 30
0.0
 11
479.1757801486914
 21
110.5022269825677
 31
0.0
  0
LINE
  5
F9
330
2
100
AcDbEntity
  8
4
100
AcDbLine
 10
424.3830541486914
 20
374.4891289825678
 30
0.0
 11
355.9619131486915
 21
368.4486019825677
 31
0.0
  0
LINE
  5
FA
330
2
100
AcDbEntity
  8
4
100
AcDbLine
 10
424.3830541486914
 20
310.2059239825676
 30
0.0
 11
355.9619131486915
 21
316.2464539825673
 31
0.0
  0
ARC
  5
FB
330
2
100
AcDbEntity
  8
4
100
AcDbCircle
 10
479.1757801486914
 20
888.3475279825675
 30
0.0
 40
700.000014
100
AcDbArc
 50
258.7516629999986
 51
268.260756
  0
ARC
  5
FE
330
2
100
AcDbEntity
  8
4
100
AcDbCircle
 10
974.1757801486914
 20
342.3475279825675
 30
0.0
 40
650.000001
100
AcDbArc
 50
180.0005169999509
 51
192.1404899999982
  0
ARC
  5
FF
330
2
100
AcDbEntity
  8
4
100
AcDbCircle
 10
343.6010731486914
 20
206.6990899825678
 30
0.0
 40
5.000049000000001
100
AcDbArc
 50
192.1400800000005
 51
258.7518609999977
  0
LINE
  5
100
330
2
100
AcDbEntity
  8
4
100
AcDbLine
 10
309.1757821486912
 20
174.3475279825675
 30
0.0
 11
309.1757821486912
 21
213.8475259825677
 31
0.0
  0
LINE
  5
101
330
2
100
AcDbEntity
  8
4
100
AcDbLine
 10
327.1757791486914
 20
154.3475269825676
 30
0.0
 11
327.1757791486914
 21
234.3475279825675
 31
0.0
  0
LINE
  5
102
330
2
100
AcDbEntity
  8
4
100
AcDbLine
 10
309.1757821486912
 20
174.3475279825675
 30
0.0
 11
327.1757821486912
 21
174.3475279825675
 31
0.0
  0
LINE
  5
103
330
2
100
AcDbEntity
  8
4
100
AcDbLine
 10
327.1757791486914
 20
154.3475269825676
 30
0.0
 11
328.1757781486914
 21
154.3475269825676
 31
0.0
  0
LINE
  5
104
330
2
100
AcDbEntity
  8
4
100
AcDbLine
 10
327.1757821486912
 20
213.8475259825677
 30
0.0
 11
309.1757821486912
 21
213.8475259825677
 31
0.0
  0
LINE
  5
105
330
2
100
AcDbEntity
  8
4
100
AcDbLine
 10
304.1757811486912
 20
213.8475259825677
 30
0.0
 11
304.1757811486912
 21
210.3475279825675
 31
0.0
  0
LINE
  5
106
330
2
100
AcDbEntity
  8
4
100
AcDbLine
 10
329.4968251486914
 20
259.3475269825676
 30
0.0
 11
328.1757781486914
 21
259.3475269825676
 31
0.0
  0
LINE
  5
107
330
2
100
AcDbEntity
  8
4
100
AcDbLine
 10
328.1757781486914
 20
234.3475279825675
 30
0.0
 11
327.1757791486914
 21
234.3475279825675
 31
0.0
  0
ARC
  5
108
330
2
100
AcDbEntity
  8
4
100
AcDbCircle
 10
355.5222151486914
 20
311.2657399825675
 30
0.0
 40
5.00004
100
AcDbArc
 50
84.95484000000053
 51
194.1079959999956
  0
ARC
  5
109
330
2
100
AcDbEntity
  8
4
100
AcDbCircle
 10
355.5222151486914
 20
373.4293129825678
 30
0.0
 40
5.000049000000001
100
AcDbArc
 50
165.8920459999991
 51
275.0458560000002
  0
LINE
  5
10A
330
2
100
AcDbEntity
  8
4
100
AcDbLine
 10
511.3173811486913
 20
287.5545589825674
 30
0.0
 11
505.2768541486914
 21
219.1334149825675
 31
0.0
  0
LINE
  5
10B
330
2
100
AcDbEntity
  8
4
100
AcDbLine
 10
447.0341761486914
 20
287.5545589825674
 30
0.0
 11
453.0747061486914
 21
219.1334149825675
 31
0.0
  0
ARC
  5
10C
330
2
100
AcDbEntity
  8
4
100
AcDbCircle
 10
479.1757801486914
 20
194.3475259825677
 30
0.0
 40
22.000044
100
AcDbArc
 50
186.3125260000034
 51
353.6887370000064
  0
ARC
  5
10D
330
2
100
AcDbEntity
  8
4
100
AcDbCircle
 10
479.1757801486914
 20
194.3475259825677
 30
0.0
 40
30.000015
100
AcDbArc
 50
358.0650600000008
 51
181.9358679999998
  0
CIRCLE
  5
10E
330
2
100
AcDbEntity
  8
4
100
AcDbCircle
 10
479.1757801486914
 20
194.3475259825677
 30
0.0
 40
15.0
  0
LINE
  5
10F
330
2
100
AcDbEntity
  8
4
100
AcDbLine
 10
466.1853001486915
 20
186.8475259825677
 30
0.0
 11
479.1757801486914
 21
179.3475259825677
 31
0.0
  0
LINE
  5
110
330
2
100
AcDbEntity
  8
4
100
AcDbLine
 10
479.1757801486914
 20
209.3475259825677
 30
0.0
 11
466.1853001486915
 21
201.8475259825677
 31
0.0
  0
LINE
  5
111
330
2
100
AcDbEntity
  8
4
100
AcDbLine
 10
466.1853001486915
 20
186.8475259825677
 30
0.0
 11
466.1853001486915
 21
201.8475259825677
 31
0.0
  0
ARC
  5
112
330
2
100
AcDbEntity
  8
4
100
AcDbCircle
 10
411.1757791486914
 20
188.6439139825675
 30
0.0
 40
2.999958
100
AcDbArc
 50
0.0
 51
84.44744700000041
  0
ARC
  5
113
330
2
100
AcDbEntity
  8
4
100
AcDbCircle
 10
427.1757781486914
 20
187.2733069825676
 30
0.0
 40
2.999958
100
AcDbArc
 50
85.75757399999905
 51
180.0
  0
ARC
  5
114
330
2
100
AcDbEntity
  8
4
100
AcDbCircle
 10
448.0939921486914
 20
218.6937169825674
 30
0.0
 40
5.000007
100
AcDbArc
 50
255.8918309999999
 51
5.04498899999516
  0
LINE
  5
115
330
2
100
AcDbEntity
  8
4
100
AcDbLine
 10
492.1660141486914
 20
186.8475259825677
 30
0.0
 11
492.1660141486914
 21
201.8475259825677
 31
0.0
  0
LINE
  5
116
330
2
100
AcDbEntity
  8
4
100
AcDbLine
 10
479.1757801486914
 20
179.3475259825677
 30
0.0
 11
492.1660141486914
 21
186.8475259825677
 31
0.0
  0
LINE
  5
117
330
2
100
AcDbEntity
  8
4
100
AcDbLine
 10
492.1660141486914
 20
201.8475259825677
 30
0.0
 11
479.1757801486914
 21
209.3475259825677
 31
0.0
  0
ARC
  5
118
330
2
100
AcDbEntity
  8
4
100
AcDbCircle
 10
510.2575651486914
 20
218.6937169825674
 30
0.0
 40
5.000007
100
AcDbArc
 50
174.9550110000048
 51
284.108169
  0
CIRCLE
  5
119
330
2
100
AcDbEntity
  8
4
100
AcDbCircle
 10
479.1757801486914
 20
342.3475279825675
 30
0.0
 40
36.0
  0
ARC
  5
11A
330
2
100
AcDbEntity
  8
4
100
AcDbCircle
 10
479.1757801486914
 20
342.3475279825675
 30
0.0
 40
23.999949
100
AcDbArc
 50
104.4775436226252
 51
75.52242400000029
  0
ARC
  5
11B
330
2
100
AcDbEntity
  8
4
100
AcDbCircle
 10
479.1757801486914
 20
589.8475279825675
 30
0.0
 40
297.499998
100
AcDbArc
 50
261.4602819999994
 51
278.5411920000013
  0
ARC
  5
11C
330
2
100
AcDbEntity
  8
4
100
AcDbCircle
 10
479.1757801486914
 20
589.8475279825675
 30
0.0
 40
300.00003
100
AcDbArc
 50
261.104724999999
 51
278.8967360000015
  0
ARC
  5
11D
330
2
100
AcDbEntity
  8
4
100
AcDbCircle
 10
479.1757801486914
 20
94.8475279825675
 30
0.0
 40
297.499962
100
AcDbArc
 50
81.45971300000073
 51
98.54057599999935
  0
ARC
  5
11E
330
2
100
AcDbEntity
  8
4
100
AcDbCircle
 10
479.1757801486914
 20
94.8475279825675
 30
0.0
 40
299.999943
100
AcDbArc
 50
81.10425299999852
 51
98.89627100000111
  0
ARC
  5
11F
330
2
100
AcDbEntity
  8
4
100
AcDbCircle
 10
726.6757801486914
 20
342.3472819825679
 30
0.0
 40
297.49992
100
AcDbArc
 50
171.4603300000015
 51
188.540528000001
  0
ARC
  5
120
330
2
100
AcDbEntity
  8
4
100
AcDbCircle
 10
726.6757801486914
 20
342.3472819825679
 30
0.0
 40
300.000036
100
AcDbArc
 50
170.5955822518946
 51
188.8962159999974
  0
ARC
  5
121
330
2
100
AcDbEntity
  8
4
100
AcDbCircle
 10
435.4411591486914
 20
298.6129069825679
 30
0.0
 40
3.000048
100
AcDbArc
 50
188.5363080000029
 51
261.459084000001
  0
ARC
  5
122
330
2
100
AcDbEntity
  8
4
100
AcDbCircle
 10
433.2482881486914
 20
296.4200359825677
 30
0.0
 40
2.999946
100
AcDbArc
 50
188.8950720000028
 51
261.1049499999982
  0
ARC
  5
123
330
2
100
AcDbEntity
  8
4
100
AcDbCircle
 10
423.9433561486915
 20
305.2252129825679
 30
0.0
 40
5.000078999999999
100
AcDbArc
 50
6.99177199999362
 51
84.95482900000084
  0
ARC
  5
124
330
2
100
AcDbEntity
  8
4
100
AcDbCircle
 10
442.0534651486914
 20
287.1148609825677
 30
0.0
 40
5.000076
100
AcDbArc
 50
5.044989999993915
 51
83.00823799999948
  0
ARC
  5
125
330
2
100
AcDbEntity
  8
4
100
AcDbCircle
 10
435.4414051486914
 20
386.0821459825679
 30
0.0
 40
3.000048
100
AcDbArc
 50
98.54091599999903
 51
171.4637109999986
  0
ARC
  5
126
330
2
100
AcDbEntity
  8
4
100
AcDbCircle
 10
433.2482881486914
 20
388.2750169825676
 30
0.0
 40
2.999946
100
AcDbArc
 50
98.89505300000005
 51
171.1049469999987
  0
ARC
  5
127
330
2
100
AcDbEntity
  8
4
100
AcDbCircle
 10
423.9433561486915
 20
379.4698399825679
 30
0.0
 40
5.000082
100
AcDbArc
 50
275.0458680000009
 51
353.0082390000015
  0
ARC
  5
128
330
2
100
AcDbEntity
  8
4
100
AcDbCircle
 10
231.6757801486914
 20
342.3472819825679
 30
0.0
 40
300.000003
100
AcDbArc
 50
351.1054319999959
 51
9.400976877751049
  0
ARC
  5
129
330
2
100
AcDbEntity
  8
4
100
AcDbCircle
 10
231.6757801486914
 20
342.3472819825679
 30
0.0
 40
297.499992
100
AcDbArc
 50
351.4609019999982
 51
8.540334999994784
  0
ARC
  5
12A
330
2
100
AcDbEntity
  8
4
100
AcDbCircle
 10
522.9103981486915
 20
298.6129069825679
 30
0.0
 40
3.000048
100
AcDbArc
 50
278.5409160000001
 51
351.463691999997
  0
ARC
  5
12B
330
2
100
AcDbEntity
  8
4
100
AcDbCircle
 10
516.2980921486914
 20
287.1148609825677
 30
0.0
 40
5.000076
100
AcDbArc
 50
96.99176200000052
 51
174.9550100000061
  0
ARC
  5
12C
330
2
100
AcDbEntity
  8
4
100
AcDbCircle
 10
525.1032691486914
 20
296.4200359825677
 30
0.0
 40
2.999946
100
AcDbArc
 50
278.8950500000018
 51
351.1049279999972
  0
LINE
  5
12D
330
2
100
AcDbEntity
  8
4
100
AcDbLine
 10
485.1757801486914
 20
361.8475279825675
 30
0.0
 11
485.1757801486914
 21
369.8475289825674
 31
0.0
  0
LINE
  5
12E
330
2
100
AcDbEntity
  8
4
100
AcDbLine
 10
473.1757801486914
 20
361.8475279825675
 30
0.0
 11
473.1757801486914
 21
369.8475289825674
 31
0.0
  0
LINE
  5
12F
330
2
100
AcDbEntity
  8
4
100
AcDbLine
 10
473.1757801486914
 20
361.8475279825675
 30
0.0
 11
485.1757801486914
 21
361.8475279825675
 31
0.0
  0
LINE
  5
130
330
2
100
AcDbEntity
  8
4
100
AcDbLine
 10
485.1757801486914
 20
369.8475289825674
 30
0.0
 11
473.1757801486914
 21
369.8475289825674
 31
0.0
  0
ARC
  5
131
330
2
100
AcDbEntity
  8
4
100
AcDbCircle
 10
522.9101551486914
 20
386.0821459825679
 30
0.0
 40
3.000048
100
AcDbArc
 50
8.536289000001423
 51
81.4590839999999
  0
ARC
  5
132
330
2
100
AcDbEntity
  8
4
100
AcDbCircle
 10
525.1032691486914
 20
388.2750169825676
 30
0.0
 40
2.999946
100
AcDbArc
 50
8.89505300000115
 51
81.10494699999889
  0
LINE
  5
133
330
2
100
AcDbEntity
  8
4
100
AcDbLine
 10
617.2739251486913
 20
152.8143229825678
 30
0.0
 11
628.8574441486915
 21
113.4301189825678
 31
0.0
  0
LINE
  5
134
330
2
100
AcDbEntity
  8
4
100
AcDbLine
 10
630.1757791486914
 20
259.3475269825676
 30
0.0
 11
630.1757791486914
 21
129.3475279825675
 31
0.0
  0
LINE
  5
135
330
2
100
AcDbEntity
  8
4
100
AcDbLine
 10
534.1757791486914
 20
187.2733069825676
 30
0.0
 11
534.1757791486914
 21
96.3475279825675
 31
0.0
  0
LINE
  5
136
330
2
100
AcDbEntity
  8
4
100
AcDbLine
 10
544.1757781486914
 20
188.6439139825675
 30
0.0
 11
544.1757781486914
 21
119.3475259825677
 31
0.0
  0
TEXT
  5
137
330
2
100
AcDbEntity
  8
3
100
AcDbText
 10
782.7619639520937
 20
29.53680335489889
 30
0.0
 40
11.99999999999999
  1
LA6-08
  7
KANJI
 72
     1
 11
815.7619639520937
 21
29.53680335489889
 31
0.0
100
AcDbText
  0
LINE
  5
13D
330
2
100
AcDbEntity
  8
4
100
AcDbLine
 10
549.1757791486914
 20
114.3475279825675
 30
0.0
 11
627.1757791486914
 21
114.3475279825675
 31
0.0
  0
LINE
  5
13E
330
2
100
AcDbEntity
  8
4
100
AcDbLine
 10
544.1757781486914
 20
84.3475279825675
 30
0.0
 11
629.1757801486914
 21
84.3475279825675
 31
0.0
  0
LWPOLYLINE
  5
142
330
2
100
AcDbEntity
  8
4
100
AcDbPolyline
 90
       29
 70
     0
 43
0.0
 10
554.5858141486914
 20
114.3475279825675
 10
554.9370301486914
 20
113.7554059825675
 10
555.2758861486914
 20
113.1633109825675
 10
555.5932591486915
 20
112.5712669825675
 10
556.3253371486913
 20
110.7956179825678
 10
556.4656261486914
 20
110.2039699825677
 10
556.5388531486914
 20
109.6124689825679
 10
556.5359011486914
 20
109.0211359825676
 10
556.4312521486913
 20
108.3379579825678
 10
556.2322201486913
 20
107.6550829825678
 10
555.9583591486914
 20
106.9725559825679
 10
554.8832941486914
 20
104.9275759825678
 10
553.8385501486914
 20
102.8875039825675
 10
553.5882721486914
 20
102.2087959825676
 10
553.4195641486914
 20
101.5308289825675
 10
553.3519711486914
 20
100.8536479825675
 10
553.4266291486914
 20
100.0100869825678
 10
553.6524691486914
 20
99.16725498256756
 10
553.9929631486914
 20
98.3245789825678
 10
555.3369661486914
 20
95.79178098256762
 10
555.7706881486914
 20
94.94401698256752
 10
556.1363791486914
 20
94.09355298256787
 10
556.3974961486914
 20
93.2398159825675
 10
556.5399781486914
 20
91.80273498256747
 10
556.3530451486913
 20
90.35668098256747
 10
555.9025801486914
 20
88.90344198256753
 10
555.2544661486913
 20
87.44481798256766
 10
554.4745891486914
 20
85.98260298256764
 10
553.6288291486915
 20
84.51859398256784
  0
LINE
  5
143
330
2
100
AcDbEntity
  8
4
100
AcDbLine
 10
534.1757791486914
 20
96.3475279825675
 30
0.0
 11
544.1757781486914
 21
84.3475279825675
 31
0.0
  0
ARC
  5
144
330
2
100
AcDbEntity
  8
4
100
AcDbCircle
 10
549.1757791486914
 20
119.3475259825677
 30
0.0
 40
5.000000999999999
100
AcDbArc
 50
180.0
 51
270.0
  0
LINE
  5
145
330
2
100
AcDbEntity
  8
4
100
AcDbLine
 10
584.1757801486914
 20
84.3475279825675
 30
0.0
 11
584.1757801486914
 21
114.3475279825675
 31
0.0
  0
LINE
  5
146
330
2
100
AcDbEntity
  8
4
100
AcDbLine
 10
564.1757791486914
 20
84.3475279825675
 30
0.0
 11
564.1757791486914
 21
114.3475279825675
 31
0.0
  0
LINE
  5
147
330
2
100
AcDbEntity
  8
L-CENTER
 48
4.0
100
AcDbLine
 10
574.1757781486914
 20
72.3475279825675
 30
0.0
 11
574.1757781486914
 21
126.3475279825675
 31
0.0
  0
LINE
  5
149
330
2
100
AcDbEntity
  8
4
100
AcDbLine
 10
626.8488751486914
 20
129.3475279825675
 30
0.0
 11
630.1757791486914
 21
129.3475279825675
 31
0.0
  0
ARC
  5
14A
330
2
100
AcDbEntity
  8
4
100
AcDbCircle
 10
627.1757791486914
 20
112.3475269825676
 30
0.0
 40
2.000001
100
AcDbArc
 50
0.0
 51
90.0
  0
ARC
  5
14B
330
2
100
AcDbEntity
  8
4
100
AcDbCircle
 10
626.8488751486914
 20
127.3475269825676
 30
0.0
 40
2.000004
100
AcDbArc
 50
90.0
 51
196.3930909999995
  0
LINE
  5
14C
330
2
100
AcDbEntity
  8
4
100
AcDbLine
 10
629.1757801486914
 20
112.3477699825676
 30
0.0
 11
629.1757801486914
 21
84.3475279825675
 31
0.0
  0
LINE
  5
152
330
2
100
AcDbEntity
  8
4
100
AcDbLine
 10
654.1757791486914
 20
213.8475259825677
 30
0.0
 11
729.1757791486914
 21
213.8475259825677
 31
0.0
  0
LINE
  5
153
330
2
100
AcDbEntity
  8
4
100
AcDbLine
 10
728.1757801486914
 20
178.3475269825676
 30
0.0
 11
649.1757781486914
 21
178.3475269825676
 31
0.0
  0
LINE
  5
154
330
2
100
AcDbEntity
  8
4
100
AcDbLine
 10
728.1757801486914
 20
210.3475279825675
 30
0.0
 11
649.1757781486914
 21
210.3475279825675
 31
0.0
  0
ARC
  5
157
330
2
100
AcDbEntity
  8
4
100
AcDbCircle
 10
-15.8242198513085
 20
342.3475279825675
 30
0.0
 40
650.0000130000001
100
AcDbArc
 50
347.8607210000034
 51
0.0
  0
ARC
  5
158
330
2
100
AcDbEntity
  8
4
100
AcDbCircle
 10
547.1757781486914
 20
188.6439139825675
 30
0.0
 40
2.999958
100
AcDbArc
 50
95.55283799999913
 51
180.0
  0
LINE
  5
159
330
2
100
AcDbEntity
  8
4
100
AcDbLine
 10
649.1757781486914
 20
174.3475279825675
 30
0.0
 11
649.1757781486914
 21
213.8475259825677
 31
0.0
  0
LINE
  5
15A
330
2
100
AcDbEntity
  8
4
100
AcDbLine
 10
631.1757781486914
 20
154.3475269825676
 30
0.0
 11
631.1757781486914
 21
234.3475279825675
 31
0.0
  0
LINE
  5
15B
330
2
100
AcDbEntity
  8
4
100
AcDbLine
 10
631.1757781486914
 20
154.3475269825676
 30
0.0
 11
630.1757791486914
 21
154.3475269825676
 31
0.0
  0
LINE
  5
15C
330
2
100
AcDbEntity
  8
4
100
AcDbLine
 10
649.1757781486914
 20
174.3475279825675
 30
0.0
 11
631.1757781486914
 21
174.3475279825675
 31
0.0
  0
ARC
  5
15D
330
2
100
AcDbEntity
  8
4
100
AcDbCircle
 10
614.7504871486914
 20
206.6990899825678
 30
0.0
 40
5.000052
100
AcDbArc
 50
281.2484869999996
 51
347.8599199999996
  0
LINE
  5
15E
330
2
100
AcDbEntity
  8
4
100
AcDbLine
 10
631.1757781486914
 20
213.8475259825677
 30
0.0
 11
649.1757781486914
 21
213.8475259825677
 31
0.0
  0
LINE
  5
15F
330
2
100
AcDbEntity
  8
4
100
AcDbLine
 10
654.1757791486914
 20
213.8475259825677
 30
0.0
 11
654.1757791486914
 21
210.3475279825675
 31
0.0
  0
LINE
  5
160
330
2
100
AcDbEntity
  8
4
100
AcDbLine
 10
628.8547351486914
 20
259.3475269825676
 30
0.0
 11
630.1757791486914
 21
259.3475269825676
 31
0.0
  0
LINE
  5
161
330
2
100
AcDbEntity
  8
4
100
AcDbLine
 10
631.1757781486914
 20
234.3475279825675
 30
0.0
 11
630.1757791486914
 21
234.3475279825675
 31
0.0
  0
LINE
  5
162
330
2
100
AcDbEntity
  8
4
100
AcDbLine
 10
533.9685031486914
 20
374.4891289825678
 30
0.0
 11
602.3896471486914
 21
368.4486019825677
 31
0.0
  0
LINE
  5
163
330
2
100
AcDbEntity
  8
4
100
AcDbLine
 10
533.9685031486914
 20
310.2059239825676
 30
0.0
 11
602.3896471486914
 21
316.2464539825673
 31
0.0
  0
ARC
  5
164
330
2
100
AcDbEntity
  8
4
100
AcDbCircle
 10
602.8293421486915
 20
311.2657399825675
 30
0.0
 40
5.000010000000001
100
AcDbArc
 50
345.891834000005
 51
95.04498900000073
  0
ARC
  5
165
330
2
100
AcDbEntity
  8
4
100
AcDbCircle
 10
602.8293421486915
 20
373.4293129825678
 30
0.0
 40
5.000010000000001
100
AcDbArc
 50
264.9550109999993
 51
14.108165999995
  0
LINE
  5
168
330
2
100
AcDbEntity
  8
4
100
AcDbLine
 10
729.1757791486914
 20
213.8475259825677
 30
0.0
 11
729.1757791486914
 21
179.3475259825677
 31
0.0
  0
LINE
  5
169
330
2
100
AcDbEntity
  8
4
100
AcDbLine
 10
728.1757801486914
 20
178.3475269825676
 30
0.0
 11
728.1757801486914
 21
210.3475279825675
 31
0.0
  0
LINE
  5
16B
330
2
100
AcDbEntity
  8
4
100
AcDbLine
 10
728.1757801486914
 20
178.3475269825676
 30
0.0
 11
729.1757791486914
 21
179.3475259825677
 31
0.0
  0
LINE
  5
16D
330
2
100
AcDbEntity
  8
4
100
AcDbLine
 10
728.1757801486914
 20
210.3475279825675
 30
0.0
 11
729.1757791486914
 21
209.3475259825677
 31
0.0
  0
LINE
  5
170
330
2
100
AcDbEntity
  8
4
100
AcDbLine
 10
299.1757801486908
 20
971.2959014300669
 30
0.0
 11
229.1757801486908
 21
971.2959014300669
 31
0.0
  0
LINE
  5
171
330
2
100
AcDbEntity
  8
4
100
AcDbLine
 10
299.1757801486908
 20
961.2959014300669
 30
0.0
 11
229.1757801486908
 21
961.2959014300669
 31
0.0
  0
LINE
  5
172
330
2
100
AcDbEntity
  8
4
100
AcDbLine
 10
308.1757801486908
 20
982.2959014300669
 30
0.0
 11
230.1757801486908
 21
982.2959014300669
 31
0.0
  0
LINE
  5
173
330
2
100
AcDbEntity
  8
4
100
AcDbLine
 10
308.1757801486908
 20
950.2959014300669
 30
0.0
 11
230.1757801486908
 21
950.2959014300669
 31
0.0
  0
LINE
  5
174
330
2
100
AcDbEntity
  8
L-CENTER
 48
4.0
100
AcDbLine
 10
218.5498930484409
 20
966.2959014300669
 30
0.0
 11
740.9648842149825
 21
966.2959014300669
 31
0.0
  0
LINE
  5
17A
330
2
100
AcDbEntity
  8
4
100
AcDbLine
 10
230.1757801486908
 20
982.2959014300669
 30
0.0
 11
230.1757801486908
 21
971.2959014300669
 31
0.0
  0
LINE
  5
17B
330
2
100
AcDbEntity
  8
4
100
AcDbLine
 10
229.1757801486908
 20
981.2959014300669
 30
0.0
 11
229.1757801486908
 21
951.2959014300669
 31
0.0
  0
LINE
  5
17C
330
2
100
AcDbEntity
  8
4
100
AcDbLine
 10
230.1757801486908
 20
961.2959014300669
 30
0.0
 11
230.1757801486908
 21
950.2959014300669
 31
0.0
  0
LINE
  5
17D
330
2
100
AcDbEntity
  8
4
100
AcDbLine
 10
229.1757801486908
 20
951.2959014300669
 30
0.0
 11
230.1757801486908
 21
950.2959014300669
 31
0.0
  0
LINE
  5
17E
330
2
100
AcDbEntity
  8
4
100
AcDbLine
 10
230.1757801486908
 20
982.2959014300669
 30
0.0
 11
229.1757801486908
 21
981.2959014300669
 31
0.0
  0
LINE
  5
17F
330
2
100
AcDbEntity
  8
4
100
AcDbLine
 10
531.1757801486908
 20
884.7959014300669
 30
0.0
 11
531.1757801486908
 21
878.2959014300669
 31
0.0
  0
LINE
  5
180
330
2
100
AcDbEntity
  8
4
100
AcDbLine
 10
427.1757801486908
 20
884.7959014300674
 30
0.0
 11
427.1757801486908
 21
878.2959014300669
 31
0.0
  0
LINE
  5
181
330
2
100
AcDbEntity
  8
4
100
AcDbLine
 10
595.6757801486926
 20
886.2959014300669
 30
0.0
 11
531.6757801486908
 21
878.2959014300674
 31
0.0
  0
LINE
  5
182
330
2
100
AcDbEntity
  8
4
100
AcDbLine
 10
362.675780148689
 20
886.2959014300669
 30
0.0
 11
426.6757801486908
 21
878.2959014300674
 31
0.0
  0
LINE
  5
183
330
2
100
AcDbEntity
  8
4
100
AcDbLine
 10
329.1757801486917
 20
886.2959014300669
 30
0.0
 11
329.1757801486917
 21
864.2959014300669
 31
0.0
  0
LINE
  5
184
330
2
100
AcDbEntity
  8
4
100
AcDbLine
 10
629.1757801486908
 20
886.2959014300669
 30
0.0
 11
629.1757801486908
 21
864.2959014300669
 31
0.0
  0
LINE
  5
185
330
2
100
AcDbEntity
  8
L-CENTER
 48
4.0
100
AcDbLine
 10
574.1757801486908
 20
902.5924318602302
 30
0.0
 11
574.1757801486908
 21
870.1752753382249
 31
0.0
  0
ARC
  5
186
330
2
100
AcDbEntity
  8
4
100
AcDbCircle
 10
574.1757801486908
 20
886.2959014300669
 30
0.0
 40
10.0
100
AcDbArc
 50
202.5915026457004
 51
351.6585300520947
  0
LINE
  5
187
330
2
100
AcDbEntity
  8
L-CENTER
 48
4.0
100
AcDbLine
 10
479.1757801486908
 20
1072.065296205293
 30
0.0
 11
479.1757801486908
 21
737.6764235788006
 31
0.0
  0
LINE
  5
188
330
2
100
AcDbEntity
  8
L-CENTER
 48
4.0
100
AcDbLine
 10
384.1757801486917
 20
902.5924318602302
 30
0.0
 11
384.1757801486917
 21
870.1752753382249
 31
0.0
  0
ARC
  5
189
330
2
100
AcDbEntity
  8
4
100
AcDbCircle
 10
384.1757801486917
 20
886.2959014300669
 30
0.0
 40
10.0
100
AcDbArc
 50
188.3414699479053
 51
337.4084973542998
  0
ARC
  5
18B
330
2
100
AcDbEntity
  8
4
100
AcDbCircle
 10
479.1757801486914
 20
-199.6524730174324
 30
0.0
 40
700.000002
100
AcDbArc
 50
78.72923900000077
 51
101.2708339999984
  0
LINE
  5
18C
330
2
100
AcDbEntity
  8
4
100
AcDbLine
 10
370.1757781486914
 20
500.3475269825676
 30
0.0
 11
408.1757791486914
 21
500.3475269825676
 31
0.0
  0
ARC
  5
18D
330
2
100
AcDbEntity
  8
4
100
AcDbCircle
 10
343.3398421486914
 20
481.9439629825679
 30
0.0
 40
4.999983
100
AcDbArc
 50
101.2689629999992
 51
168.4144949999944
  0
LINE
  5
18E
330
2
100
AcDbEntity
  8
4
100
AcDbLine
 10
373.1755351486914
 20
500.3475269825676
 30
0.0
 11
405.1755361486914
 21
500.3475269825676
 31
0.0
  0
LINE
  5
18F
330
2
100
AcDbEntity
  8
4
100
AcDbLine
 10
370.1757781486914
 20
500.3475269825676
 30
0.0
 11
370.1757781486914
 21
493.5162289825676
 31
0.0
  0
ARC
  5
190
330
2
100
AcDbEntity
  8
4
100
AcDbCircle
 10
368.1757801486914
 20
493.5162289825676
 30
0.0
 40
2.000013
100
AcDbArc
 50
279.0993959999979
 51
0.0
  0
LINE
  5
191
330
2
100
AcDbEntity
  8
L-CENTER
 48
4.0
100
AcDbLine
 10
389.1757801486914
 20
486.5460209825678
 30
0.0
 11
389.1757801486914
 21
516.0226829825674
 31
0.0
  0
LINE
  5
192
330
2
100
AcDbEntity
  8
4
100
AcDbLine
 10
376.6757791486914
 20
507.8475269825676
 30
0.0
 11
401.6757811486914
 21
507.8475269825676
 31
0.0
  0
LINE
  5
193
330
2
100
AcDbEntity
  8
4
100
AcDbLine
 10
376.6757791486914
 20
503.8475279825675
 30
0.0
 11
401.6757811486914
 21
503.8475279825675
 31
0.0
  0
LINE
  5
194
330
2
100
AcDbEntity
  8
4
100
AcDbLine
 10
376.6757791486914
 20
501.8475269825676
 30
0.0
 11
401.6757811486914
 21
501.8475269825676
 31
0.0
  0
LINE
  5
195
330
2
100
AcDbEntity
  8
4
100
AcDbLine
 10
377.6757811486914
 20
500.3475269825676
 30
0.0
 11
377.6757811486914
 21
501.8475269825676
 31
0.0
  0
LINE
  5
196
330
2
100
AcDbEntity
  8
4
100
AcDbLine
 10
376.6757791486914
 20
501.8475269825676
 30
0.0
 11
376.6757791486914
 21
507.8475269825676
 31
0.0
  0
LINE
  5
197
330
2
100
AcDbEntity
  8
4
100
AcDbLine
 10
382.9257811486914
 20
503.8475279825675
 30
0.0
 11
382.9257811486914
 21
507.8475269825676
 31
0.0
  0
LINE
  5
198
330
2
100
AcDbEntity
  8
4
100
AcDbLine
 10
400.6757791486914
 20
500.3475269825676
 30
0.0
 11
400.6757791486914
 21
501.8475269825676
 31
0.0
  0
LINE
  5
199
330
2
100
AcDbEntity
  8
4
100
AcDbLine
 10
395.4257791486914
 20
503.8475279825675
 30
0.0
 11
395.4257791486914
 21
507.8475269825676
 31
0.0
  0
LINE
  5
19A
330
2
100
AcDbEntity
  8
4
100
AcDbLine
 10
401.6757811486914
 20
501.8475269825676
 30
0.0
 11
401.6757811486914
 21
507.8475269825676
 31
0.0
  0
ARC
  5
19C
330
2
100
AcDbEntity
  8
4
100
AcDbCircle
 10
479.1757801486914
 20
528.3475279825675
 30
0.0
 40
25.000017
100
AcDbArc
 50
301.7714650000016
 51
240.0000000000047
  0
CIRCLE
  5
19D
330
2
100
AcDbEntity
  8
4
100
AcDbCircle
 10
479.1757801486914
 20
528.3475279825675
 30
0.0
 40
15.0
  0
ARC
  5
19E
330
2
100
AcDbEntity
  8
4
100
AcDbCircle
 10
468.9188410543164
 20
409.347527982568
 30
0.0
 40
1.5
100
AcDbArc
 50
270.0
 51
341.5915198295815
  0
LINE
  5
19F
330
2
100
AcDbEntity
  8
4
100
AcDbLine
 10
469.8917310080799
 20
432.7113314201224
 30
0.0
 11
464.1417310080799
 21
409.7113314201224
 31
0.0
  0
LINE
  5
1A0
330
2
100
AcDbEntity
  8
4
100
AcDbLine
 10
432.1757801486913
 20
446.847527982568
 30
0.0
 11
526.1757801486913
 21
446.847527982568
 31
0.0
  0
LINE
  5
1A1
330
2
100
AcDbEntity
  8
4
100
AcDbLine
 10
499.1757781486914
 20
502.3475269825676
 30
0.0
 11
459.1757791486914
 21
502.3475269825676
 31
0.0
  0
LINE
  5
1A2
330
2
100
AcDbEntity
  8
4
100
AcDbLine
 10
466.6757791486914
 20
511.3475269825676
 30
0.0
 11
479.1757801486914
 21
513.3475279825675
 31
0.0
  0
LINE
  5
1A3
330
2
100
AcDbEntity
  8
4
100
AcDbLine
 10
491.6757781486914
 20
511.3475269825676
 30
0.0
 11
466.6757791486914
 21
511.3475269825676
 31
0.0
  0
LINE
  5
1A4
330
2
100
AcDbEntity
  8
4
100
AcDbLine
 10
453.0746165353863
 20
465.5612494744355
 30
0.0
 11
451.8250807424494
 21
451.4078133866337
 31
0.0
  0
LINE
  5
1A5
330
2
100
AcDbEntity
  8
4
100
AcDbLine
 10
427.1757801486913
 20
441.847527982568
 30
0.0
 11
427.1757801486913
 21
399.847527982568
 31
0.0
  0
ARC
  5
1A6
330
2
100
AcDbEntity
  8
4
100
AcDbCircle
 10
432.175780148687
 20
399.8475279825675
 30
0.0
 40
5.0
100
AcDbArc
 50
180.0
 51
230.1808618756569
  0
ARC
  5
1A7
330
2
100
AcDbEntity
  8
4
100
AcDbCircle
 10
432.1757801486913
 20
441.847527982568
 30
0.0
 40
5.0
100
AcDbArc
 50
90.0
 51
180.0
  0
LINE
  5
1A8
330
2
100
AcDbEntity
  8
4
100
AcDbLine
 10
446.6757801486922
 20
432.3475279825675
 30
0.0
 11
446.6757801486922
 21
415.847527982568
 31
0.0
  0
LINE
  5
1A9
330
2
100
AcDbEntity
  8
4
100
AcDbLine
 10
440.1757801486913
 20
432.3475279825675
 30
0.0
 11
440.1757801486913
 21
409.347527982568
 31
0.0
  0
LINE
  5
1AA
330
2
100
AcDbEntity
  8
4
100
AcDbLine
 10
448.1757801486922
 20
414.347527982568
 30
0.0
 11
457.6757801486913
 21
414.347527982568
 31
0.0
  0
LINE
  5
1AB
330
2
100
AcDbEntity
  8
4
100
AcDbLine
 10
441.6757801486913
 20
407.847527982568
 30
0.0
 11
457.6757801486913
 21
407.847527982568
 31
0.0
  0
ARC
  5
1AC
330
2
100
AcDbEntity
  8
4
100
AcDbCircle
 10
441.6757801486913
 20
409.347527982568
 30
0.0
 40
1.5
100
AcDbArc
 50
180.0
 51
270.0
  0
ARC
  5
1AD
330
2
100
AcDbEntity
  8
4
100
AcDbCircle
 10
448.1757801486922
 20
415.847527982568
 30
0.0
 40
1.5
100
AcDbArc
 50
180.0
 51
270.0
  0
ARC
  5
1AE
330
2
100
AcDbEntity
  8
4
100
AcDbCircle
 10
457.6757801486913
 20
412.847527982568
 30
0.0
 40
1.5
100
AcDbArc
 50
0.0
 51
90.0
  0
LINE
  5
1AF
330
2
100
AcDbEntity
  8
4
100
AcDbLine
 10
459.1757801486913
 20
412.847527982568
 30
0.0
 11
459.1757801486913
 21
409.347527982568
 31
0.0
  0
ARC
  5
1B0
330
2
100
AcDbEntity
  8
4
100
AcDbCircle
 10
457.6757801486913
 20
409.347527982568
 30
0.0
 40
1.5
100
AcDbArc
 50
270.0
 51
0.0
  0
ARC
  5
1B1
330
2
100
AcDbEntity
  8
4
100
AcDbCircle
 10
465.5969447582978
 20
409.347527982568
 30
0.0
 40
1.5
100
AcDbArc
 50
165.9637565320799
 51
270.0000000000021
  0
LINE
  5
1B2
330
2
100
AcDbEntity
  8
4
100
AcDbLine
 10
465.5969447582978
 20
407.847527982568
 30
0.0
 11
468.9188410543164
 21
407.8475279825684
 31
0.0
  0
ARC
  5
1B3
330
2
100
AcDbEntity
  8
4
100
AcDbCircle
 10
446.8444531641092
 20
451.8475279825675
 30
0.0
 40
5.0
100
AcDbArc
 50
270.0
 51
354.9547242606494
  0
ARC
  5
1B4
330
2
100
AcDbEntity
  8
4
100
AcDbCircle
 10
445.1757801486922
 20
432.3475279825675
 30
0.0
 40
1.5
100
AcDbArc
 50
0.0
 51
90.0
  0
ARC
  5
1B5
330
2
100
AcDbEntity
  8
4
100
AcDbCircle
 10
441.6757801486913
 20
432.3475279825675
 30
0.0
 40
1.5
100
AcDbArc
 50
90.0
 51
180.0
  0
LINE
  5
1B6
330
2
100
AcDbEntity
  8
4
100
AcDbLine
 10
441.6757801486913
 20
433.8475279825675
 30
0.0
 11
445.1757801486922
 21
433.8475279825675
 31
0.0
  0
ARC
  5
1B7
330
2
100
AcDbEntity
  8
4
100
AcDbCircle
 10
410.1757801486914
 20
498.9483559825676
 30
0.0
 40
1.999959
100
AcDbArc
 50
180.0
 51
275.6400239999981
  0
LINE
  5
1B8
330
2
100
AcDbEntity
  8
4
100
AcDbLine
 10
408.1757791486914
 20
500.3475269825676
 30
0.0
 11
408.1757791486914
 21
498.9483559825676
 31
0.0
  0
ARC
  5
1B9
330
2
100
AcDbEntity
  8
4
100
AcDbCircle
 10
448.0939889570461
 20
466.0009640703693
 30
0.0
 40
5.0
100
AcDbArc
 50
354.9547242606494
 51
104.1096734023412
  0
ARC
  5
1BA
330
2
100
AcDbEntity
  8
4
100
AcDbCircle
 10
465.2758771486913
 20
505.9031899825677
 30
0.0
 40
1.399914
100
AcDbArc
 50
0.0
 51
58.23081799999778
  0
ARC
  5
1BB
330
2
100
AcDbEntity
  8
4
100
AcDbCircle
 10
457.1757781486914
 20
502.0027999825675
 30
0.0
 40
2.000004
100
AcDbArc
 50
271.7977710000002
 51
0.0
  0
LINE
  5
1BC
330
2
100
AcDbEntity
  8
4
100
AcDbLine
 10
459.1757791486914
 20
502.3475269825676
 30
0.0
 11
459.1757791486914
 21
502.0027999825675
 31
0.0
  0
LINE
  5
1BD
330
2
100
AcDbEntity
  8
4
100
AcDbLine
 10
466.6757791486914
 20
502.3475269825676
 30
0.0
 11
466.6757791486914
 21
511.3475269825676
 31
0.0
  0
LINE
  5
1BE
330
2
100
AcDbEntity
  8
4
100
AcDbLine
 10
505.2769437619964
 20
465.5612494744355
 30
0.0
 11
506.5264795549333
 21
451.4078133866337
 31
0.0
  0
ARC
  5
1BF
330
2
100
AcDbEntity
  8
4
100
AcDbCircle
 10
506.9553031804437
 20
415.847527982568
 30
0.0
 40
8.0
100
AcDbArc
 50
149.0362434679243
 51
270.0
  0
LINE
  5
1C0
330
2
100
AcDbEntity
  8
4
100
AcDbLine
 10
507.9888263285759
 20
433.1192716157088
 30
0.0
 11
500.0953597747432
 21
419.963494025988
 31
0.0
  0
LINE
  5
1C1
330
2
100
AcDbEntity
  8
4
100
AcDbLine
 10
476.9598292893022
 20
432.7113314201224
 30
0.0
 11
482.7098292893022
 21
409.7113314201229
 31
0.0
  0
ARC
  5
1C2
330
2
100
AcDbEntity
  8
4
100
AcDbCircle
 10
481.2546155390844
 20
409.347527982568
 30
0.0
 40
1.5
100
AcDbArc
 50
270.0
 51
14.03624346793333
  0
ARC
  5
1C3
330
2
100
AcDbEntity
  8
4
100
AcDbCircle
 10
477.9327192430662
 20
409.347527982568
 30
0.0
 40
1.5
100
AcDbArc
 50
198.4084801704178
 51
270.0
  0
ARC
  5
1C4
330
2
100
AcDbEntity
  8
4
100
AcDbCircle
 10
473.4257801486913
 20
407.847527982568
 30
0.0
 40
3.25
100
AcDbArc
 50
18.40848017041806
 51
161.591519829582
  0
LINE
  5
1C5
330
2
100
AcDbEntity
  8
4
100
AcDbLine
 10
477.9327192430662
 20
407.8475279825684
 30
0.0
 11
481.2546155390844
 21
407.847527982568
 31
0.0
  0
ARC
  5
1C6
330
2
100
AcDbEntity
  8
4
100
AcDbCircle
 10
492.6757801486913
 20
422.597527982568
 30
0.0
 40
1.5
100
AcDbArc
 50
0.0
 51
90.0
  0
LINE
  5
1C7
330
2
100
AcDbEntity
  8
4
100
AcDbLine
 10
489.1757801486913
 20
424.097527982568
 30
0.0
 11
492.6757801486913
 21
424.097527982568
 31
0.0
  0
ARC
  5
1C8
330
2
100
AcDbEntity
  8
4
100
AcDbCircle
 10
489.1757801486913
 20
422.597527982568
 30
0.0
 40
1.5
100
AcDbArc
 50
90.0
 51
180.0
  0
ARC
  5
1C9
330
2
100
AcDbEntity
  8
4
100
AcDbCircle
 10
492.6757801486922
 20
419.097527982568
 30
0.0
 40
1.5
100
AcDbArc
 50
270.0
 51
0.0
  0
LINE
  5
1CA
330
2
100
AcDbEntity
  8
4
100
AcDbLine
 10
489.1757801486922
 20
417.597527982568
 30
0.0
 11
492.6757801486922
 21
417.597527982568
 31
0.0
  0
ARC
  5
1CB
330
2
100
AcDbEntity
  8
4
100
AcDbCircle
 10
489.1757801486922
 20
419.097527982568
 30
0.0
 40
1.5
100
AcDbArc
 50
180.0
 51
270.0
  0
LINE
  5
1CC
330
2
100
AcDbEntity
  8
4
100
AcDbLine
 10
487.6757801486913
 20
422.597527982568
 30
0.0
 11
487.6757801486922
 21
419.097527982568
 31
0.0
  0
LINE
  5
1CD
330
2
100
AcDbEntity
  8
4
100
AcDbLine
 10
494.1757801486913
 20
422.597527982568
 30
0.0
 11
494.1757801486922
 21
419.097527982568
 31
0.0
  0
ARC
  5
1CE
330
2
100
AcDbEntity
  8
4
100
AcDbCircle
 10
475.5046155390844
 20
432.347527982568
 30
0.0
 40
1.5
100
AcDbArc
 50
14.03624346792016
 51
90.0
  0
ARC
  5
1CF
330
2
100
AcDbEntity
  8
4
100
AcDbCircle
 10
471.3469447582977
 20
432.347527982568
 30
0.0
 40
1.5
100
AcDbArc
 50
90.0
 51
165.9637565320799
  0
LINE
  5
1D0
330
2
100
AcDbEntity
  8
4
100
AcDbLine
 10
471.3469447582977
 20
433.847527982568
 30
0.0
 11
475.5046155390844
 21
433.847527982568
 31
0.0
  0
LINE
  5
1D1
330
2
100
AcDbEntity
  8
4
100
AcDbLine
 10
514.6429714321059
 20
431.5757843494262
 30
0.0
 11
512.2611944726652
 21
427.6061560836915
 31
0.0
  0
LINE
  5
1D2
330
2
100
AcDbEntity
  8
4
100
AcDbLine
 10
531.1757801486913
 20
441.847527982568
 30
0.0
 11
531.1757801486913
 21
399.847527982568
 31
0.0
  0
ARC
  5
1D3
330
2
100
AcDbEntity
  8
4
100
AcDbCircle
 10
510.1757801486913
 20
415.847527982568
 30
0.0
 40
8.0
100
AcDbArc
 50
270.0
 51
0.0
  0
ARC
  5
1D4
330
2
100
AcDbEntity
  8
4
100
AcDbCircle
 10
510.1757801486913
 20
416.097527982568
 30
0.0
 40
8.0
100
AcDbArc
 50
0.0
 51
64.94773430816562
  0
ARC
  5
1D5
330
2
100
AcDbEntity
  8
4
100
AcDbCircle
 10
514.8336732498021
 20
426.0626688174088
 30
0.0
 40
3.0
100
AcDbArc
 50
149.0362434679242
 51
244.9477343081644
  0
LINE
  5
1D6
330
2
100
AcDbEntity
  8
4
100
AcDbLine
 10
506.9553031804437
 20
407.847527982568
 30
0.0
 11
510.1757801486913
 21
407.847527982568
 31
0.0
  0
ARC
  5
1D7
330
2
100
AcDbEntity
  8
4
100
AcDbCircle
 10
526.1757801486957
 20
399.8475279825675
 30
0.0
 40
5.0
100
AcDbArc
 50
309.8191381243432
 51
0.0
  0
ARC
  5
1D8
330
2
100
AcDbEntity
  8
4
100
AcDbCircle
 10
513.356732043537
 20
432.3475279825675
 30
0.0
 40
1.5
100
AcDbArc
 50
329.0362434679242
 51
90.0
  0
ARC
  5
1D9
330
2
100
AcDbEntity
  8
4
100
AcDbCircle
 10
509.2750657171448
 20
432.3475279825675
 30
0.0
 40
1.5
100
AcDbArc
 50
90.0
 51
149.0362434679242
  0
LINE
  5
1DA
330
2
100
AcDbEntity
  8
4
100
AcDbLine
 10
509.2750657171448
 20
433.8475279825675
 30
0.0
 11
513.356732043537
 21
433.8475279825675
 31
0.0
  0
ARC
  5
1DB
330
2
100
AcDbEntity
  8
4
100
AcDbCircle
 10
511.5071071332735
 20
451.8475279825675
 30
0.0
 40
5.0
100
AcDbArc
 50
185.0452757393506
 51
270.0
  0
ARC
  5
1DC
330
2
100
AcDbEntity
  8
4
100
AcDbCircle
 10
526.1757801486913
 20
441.847527982568
 30
0.0
 40
5.0
100
AcDbArc
 50
0.0
 51
90.0
  0
ARC
  5
1DD
330
2
100
AcDbEntity
  8
4
100
AcDbCircle
 10
501.1757791486914
 20
502.0027999825675
 30
0.0
 40
2.000004
100
AcDbArc
 50
180.0
 51
268.2022289999998
  0
LINE
  5
1DE
330
2
100
AcDbEntity
  8
4
100
AcDbLine
 10
479.1757801486914
 20
513.3475279825675
 30
0.0
 11
491.6757781486914
 21
511.3475269825676
 31
0.0
  0
ARC
  5
1DF
330
2
100
AcDbEntity
  8
4
100
AcDbCircle
 10
493.0759261486915
 20
505.9031899825677
 30
0.0
 40
1.399914
100
AcDbArc
 50
121.7691820000022
 51
180.0
  0
LINE
  5
1E0
330
2
100
AcDbEntity
  8
4
100
AcDbLine
 10
499.1757781486914
 20
502.3475269825676
 30
0.0
 11
499.1757781486914
 21
502.0027999825675
 31
0.0
  0
LINE
  5
1E1
330
2
100
AcDbEntity
  8
4
100
AcDbLine
 10
491.6757781486914
 20
502.3475269825676
 30
0.0
 11
491.6757781486914
 21
511.3475269825676
 31
0.0
  0
ARC
  5
1E2
330
2
100
AcDbEntity
  8
4
100
AcDbCircle
 10
510.2575713403367
 20
466.0009640703693
 30
0.0
 40
5.0
100
AcDbArc
 50
75.89032659765878
 51
185.0452757393506
  0
LINE
  5
1E3
330
2
100
AcDbEntity
  8
L-CENTER
 48
4.0
100
AcDbLine
 10
513.9096661486914
 20
528.3475279825675
 30
0.0
 11
444.4418941486914
 21
528.3475279825675
 31
0.0
  0
LINE
  5
1E8
330
2
100
AcDbEntity
  8
4
100
AcDbLine
 10
337.1757801486917
 20
856.2959014300669
 30
0.0
 11
416.1757801486917
 21
856.2959014300669
 31
0.0
  0
ARC
  5
1E9
330
2
100
AcDbEntity
  8
4
100
AcDbCircle
 10
337.1757801486917
 20
864.2959014300669
 30
0.0
 40
8.0
100
AcDbArc
 50
180.0
 51
270.0
  0
LINE
  5
1EA
330
2
100
AcDbEntity
  8
4
100
AcDbLine
 10
473.1757801486908
 20
746.2959014300669
 30
0.0
 11
473.1757801486908
 21
830.2959014300674
 31
0.0
  0
LINE
  5
1EB
330
2
100
AcDbEntity
  8
4
100
AcDbLine
 10
455.1757801486908
 20
845.2959014300674
 30
0.0
 11
455.1757801486908
 21
747.2959014300669
 31
0.0
  0
LINE
  5
1EC
330
2
100
AcDbEntity
  8
4
100
AcDbLine
 10
485.1757801486908
 20
746.2959014300669
 30
0.0
 11
485.1757801486908
 21
830.2959014300674
 31
0.0
  0
LINE
  5
1ED
330
2
100
AcDbEntity
  8
4
100
AcDbLine
 10
503.1757801486908
 20
845.2959014300674
 30
0.0
 11
503.1757801486908
 21
747.2959014300669
 31
0.0
  0
LINE
  5
1EE
330
2
100
AcDbEntity
  8
4
100
AcDbLine
 10
455.1757801486908
 20
747.2959014300669
 30
0.0
 11
473.1757801486908
 21
747.2959014300678
 31
0.0
  0
LINE
  5
1EF
330
2
100
AcDbEntity
  8
4
100
AcDbLine
 10
456.1757801486908
 20
746.2959014300669
 30
0.0
 11
502.1757801486908
 21
746.2959014300669
 31
0.0
  0
LINE
  5
1F1
330
2
100
AcDbEntity
  8
4
100
AcDbLine
 10
455.1757801486908
 20
747.2959014300669
 30
0.0
 11
456.1757801486908
 21
746.2959014300669
 31
0.0
  0
LINE
  5
1F2
330
2
100
AcDbEntity
  8
4
100
AcDbLine
 10
485.1757801486908
 20
747.2959014300678
 30
0.0
 11
503.1757801486908
 21
747.2959014300669
 31
0.0
  0
LINE
  5
1F3
330
2
100
AcDbEntity
  8
4
100
AcDbLine
 10
503.1757801486908
 20
747.2959014300669
 30
0.0
 11
502.1757801486908
 21
746.2959014300669
 31
0.0
  0
LINE
  5
1F4
330
2
100
AcDbEntity
  8
4
100
AcDbLine
 10
454.1757801486908
 20
846.2959014300674
 30
0.0
 11
504.1757801486908
 21
846.2959014300674
 31
0.0
  0
LINE
  5
1F5
330
2
100
AcDbEntity
  8
4
100
AcDbLine
 10
443.1757801486908
 20
867.2959014300665
 30
0.0
 11
515.1757801486908
 21
867.2959014300665
 31
0.0
  0
LINE
  5
1F6
330
2
100
AcDbEntity
  8
4
100
AcDbLine
 10
531.6757801486908
 20
878.2959014300669
 30
0.0
 11
426.6757801486908
 21
878.2959014300674
 31
0.0
  0
LINE
  5
1F7
330
2
100
AcDbEntity
  8
4
100
AcDbLine
 10
429.1757801486908
 20
868.2959014300669
 30
0.0
 11
529.1757801486908
 21
868.2959014300669
 31
0.0
  0
ARC
  5
1F8
330
2
100
AcDbEntity
  8
4
100
AcDbCircle
 10
416.1757801486917
 20
864.2959014300669
 30
0.0
 40
8.0
100
AcDbArc
 50
270.0
 51
0.0
  0
LINE
  5
1F9
330
2
100
AcDbEntity
  8
4
100
AcDbLine
 10
426.6757801486908
 20
878.2959014300669
 30
0.0
 11
429.1757801486908
 21
868.2959014300669
 31
0.0
  0
LINE
  5
1FA
330
2
100
AcDbEntity
  8
4
100
AcDbLine
 10
424.1757801486917
 20
878.6084014300674
 30
0.0
 11
424.1757801486917
 21
864.2959014300669
 31
0.0
  0
LINE
  5
1FB
330
2
100
AcDbEntity
  8
4
100
AcDbLine
 10
454.1757801486908
 20
867.295901430066
 30
0.0
 11
454.1757801486908
 21
846.2959014300674
 31
0.0
  0
LINE
  5
1FC
330
2
100
AcDbEntity
  8
4
100
AcDbLine
 10
454.1757801486908
 20
846.2959014300674
 30
0.0
 11
454.1757801486908
 21
846.2959014300674
 31
0.0
  0
ARC
  5
1FD
330
2
100
AcDbEntity
  8
4
100
AcDbCircle
 10
454.1757801486908
 20
845.2959014300674
 30
0.0
 40
1.0
100
AcDbArc
 50
0.0
 51
90.0
  0
LINE
  5
1FE
330
2
100
AcDbEntity
  8
4
100
AcDbLine
 10
443.1757801486908
 20
867.2959014300665
 30
0.0
 11
443.1757801486908
 21
868.2959014300669
 31
0.0
  0
ARC
  5
1FF
330
2
100
AcDbEntity
  8
4
100
AcDbCircle
 10
479.1757801486908
 20
830.2959014300674
 30
0.0
 40
6.000000000000028
100
AcDbArc
 50
0.0
 51
180.0
  0
LINE
  5
200
330
2
100
AcDbEntity
  8
4
100
AcDbLine
 10
504.1757801486908
 20
867.295901430066
 30
0.0
 11
504.1757801486908
 21
846.2959014300674
 31
0.0
  0
LINE
  5
201
330
2
100
AcDbEntity
  8
4
100
AcDbLine
 10
504.1757801486908
 20
846.2959014300674
 30
0.0
 11
504.1757801486908
 21
846.2959014300674
 31
0.0
  0
ARC
  5
202
330
2
100
AcDbEntity
  8
4
100
AcDbCircle
 10
504.1757801486908
 20
845.2959014300674
 30
0.0
 40
1.0
100
AcDbArc
 50
90.0
 51
180.0
  0
LINE
  5
203
330
2
100
AcDbEntity
  8
4
100
AcDbLine
 10
515.1757801486908
 20
867.2959014300669
 30
0.0
 11
515.1757801486908
 21
868.2959014300669
 31
0.0
  0
LINE
  5
204
330
2
100
AcDbEntity
  8
4
100
AcDbLine
 10
531.6757801486908
 20
878.2959014300669
 30
0.0
 11
529.1757801486908
 21
868.2959014300669
 31
0.0
  0
ARC
  5
206
330
2
100
AcDbEntity
  8
4
100
AcDbCircle
 10
615.0117181486914
 20
481.9439629825679
 30
0.0
 40
5.000010000000001
100
AcDbArc
 50
11.58536699999581
 51
78.73122800000051
  0
LINE
  5
209
330
2
100
AcDbEntity
  8
4
100
AcDbLine
 10
621.1757801486908
 20
856.2959014300669
 30
0.0
 11
542.1757801486908
 21
856.2959014300669
 31
0.0
  0
LINE
  5
20A
330
2
100
AcDbEntity
  8
4
100
AcDbLine
 10
534.1757801486908
 20
878.6084014300669
 30
0.0
 11
534.1757801486908
 21
864.2959014300669
 31
0.0
  0
ARC
  5
20B
330
2
100
AcDbEntity
  8
4
100
AcDbCircle
 10
542.1757801486908
 20
864.2959014300669
 30
0.0
 40
8.0
100
AcDbArc
 50
180.0
 51
270.0
  0
ARC
  5
20C
330
2
100
AcDbEntity
  8
4
100
AcDbCircle
 10
621.1757801486908
 20
864.2959014300669
 30
0.0
 40
8.0
100
AcDbArc
 50
270.0
 51
0.0
  0
LINE
  5
20E
330
2
100
AcDbEntity
  8
4
100
AcDbLine
 10
543.6757801486899
 20
1053.39845493606
 30
0.0
 11
531.2480419160181
 21
1054.649044946895
 31
0.0
  0
LINE
  5
20F
330
2
100
AcDbEntity
  8
4
100
AcDbLine
 10
327.1757801486917
 20
1034.595901430067
 30
0.0
 11
631.1757801486908
 21
1034.595901430067
 31
0.0
  0
LINE
  5
210
330
2
100
AcDbEntity
  8
4
100
AcDbLine
 10
630.1757801486908
 20
1048.595901430067
 30
0.0
 11
328.1757801486908
 21
1048.595901430067
 31
0.0
  0
LINE
  5
211
330
2
100
AcDbEntity
  8
4
100
AcDbLine
 10
324.1757801486908
 20
900.2959014300669
 30
0.0
 11
634.1757801486908
 21
900.2959014300669
 31
0.0
  0
LINE
  5
212
330
2
100
AcDbEntity
  8
4
100
AcDbLine
 10
327.1757801486908
 20
886.2959014300669
 30
0.0
 11
631.1757801486908
 21
886.2959014300669
 31
0.0
  0
LINE
  5
213
330
2
100
AcDbEntity
  8
4
100
AcDbLine
 10
324.1757801486908
 20
1032.295901430067
 30
0.0
 11
634.1757801486908
 21
1032.295901430067
 31
0.0
  0
LINE
  5
214
330
2
100
AcDbEntity
  8
4
100
AcDbLine
 10
327.1757801486908
 20
1034.295901430067
 30
0.0
 11
631.1757801486908
 21
1034.295901430067
 31
0.0
  0
LINE
  5
219
330
2
100
AcDbEntity
  8
4
100
AcDbLine
 10
414.6757801486926
 20
1058.595901430067
 30
0.0
 11
401.6757801486926
 21
1058.595901430067
 31
0.0
  0
LINE
  5
21A
330
2
100
AcDbEntity
  8
4
100
AcDbLine
 10
415.4257801486926
 20
1050.595901430067
 30
0.0
 11
400.9257801486926
 21
1050.595901430067
 31
0.0
  0
CIRCLE
  5
21B
330
2
100
AcDbEntity
  8
4
100
AcDbCircle
 10
389.1757801486908
 20
966.2959014300669
 30
0.0
 40
19.0
  0
LINE
  5
21C
330
2
100
AcDbEntity
  8
4
100
AcDbLine
 10
337.1757801486917
 20
1076.295901430067
 30
0.0
 11
416.1757801486917
 21
1076.295901430067
 31
0.0
  0
LINE
  5
21D
330
2
100
AcDbEntity
  8
4
100
AcDbLine
 10
324.1757801486908
 20
1032.295901430067
 30
0.0
 11
324.1757801486908
 21
900.2959014300669
 31
0.0
  0
LINE
  5
21E
330
2
100
AcDbEntity
  8
4
100
AcDbLine
 10
309.1757801486908
 20
986.2959014300669
 30
0.0
 11
309.1757801486908
 21
946.2959014300669
 31
0.0
  0
LINE
  5
21F
330
2
100
AcDbEntity
  8
4
100
AcDbLine
 10
324.1757801486908
 20
946.2959014300669
 30
0.0
 11
309.1757801486908
 21
946.2959014300669
 31
0.0
  0
LINE
  5
220
330
2
100
AcDbEntity
  8
4
100
AcDbLine
 10
327.1757801486908
 20
900.2959014300669
 30
0.0
 11
327.1757801486908
 21
886.2959014300669
 31
0.0
  0
LINE
  5
221
330
2
100
AcDbEntity
  8
4
100
AcDbLine
 10
324.1757801486908
 20
986.2959014300669
 30
0.0
 11
309.1757801486908
 21
986.2959014300669
 31
0.0
  0
ARC
  5
222
330
2
100
AcDbEntity
  8
4
100
AcDbCircle
 10
308.1757801486908
 20
949.2959014300669
 30
0.0
 40
1.0
100
AcDbArc
 50
0.0
 51
90.0
  0
LINE
  5
223
330
2
100
AcDbEntity
  8
4
100
AcDbLine
 10
304.1757801486908
 20
966.2959014300669
 30
0.0
 11
304.1757801486908
 21
966.2959014300669
 31
0.0
  0
ARC
  5
224
330
2
100
AcDbEntity
  8
4
100
AcDbCircle
 10
299.1757801486908
 20
966.2959014300669
 30
0.0
 40
5.0
100
AcDbArc
 50
270.0
 51
0.0
  0
ARC
  5
225
330
2
100
AcDbEntity
  8
4
100
AcDbCircle
 10
299.1757801486908
 20
966.2959014300669
 30
0.0
 40
5.0
100
AcDbArc
 50
0.0
 51
90.0
  0
ARC
  5
226
330
2
100
AcDbEntity
  8
4
100
AcDbCircle
 10
308.1757801486908
 20
983.2959014300669
 30
0.0
 40
1.0
100
AcDbArc
 50
270.0
 51
0.0
  0
LINE
  5
227
330
2
100
AcDbEntity
  8
L-CENTER
 48
4.0
100
AcDbLine
 10
389.1757801486908
 20
987.7517070748655
 30
0.0
 11
389.1757801486908
 21
944.4099174070299
 31
0.0
  0
LINE
  5
228
330
2
100
AcDbEntity
  8
L-CENTER
 48
4.0
100
AcDbLine
 10
365.1447064980364
 20
886.2959014300669
 30
0.0
 11
401.3905630676106
 21
886.2959014300669
 31
0.0
  0
LWPOLYLINE
  5
229
330
2
100
AcDbEntity
  8
4
100
AcDbPolyline
 90
        6
 70
     1
 43
0.0
 10
401.6757801486908
 20
966.2959014300669
 10
395.4257801486908
 20
977.1212189773725
 10
382.9257801486908
 20
977.1212189773725
 10
376.6757801486908
 20
966.2959014300669
 10
382.9257801486908
 20
955.4705838827614
 10
395.4257801486908
 20
955.4705838827614
  0
CIRCLE
  5
22A
330
2
100
AcDbEntity
  8
4
100
AcDbCircle
 10
389.1757801486908
 20
966.2959014300669
 30
0.0
 40
12.5
  0
LINE
  5
22B
330
2
100
AcDbEntity
  8
4
100
AcDbLine
 10
344.4257801486926
 20
1050.595901430067
 30
0.0
 11
329.9257801486926
 21
1050.595901430067
 31
0.0
  0
LINE
  5
22C
330
2
100
AcDbEntity
  8
4
100
AcDbLine
 10
343.6757801486926
 20
1058.595901430067
 30
0.0
 11
330.6757801486926
 21
1058.595901430067
 31
0.0
  0
LINE
  5
22D
330
2
100
AcDbEntity
  8
L-CENTER
 48
4.0
100
AcDbLine
 10
337.1757801486917
 20
1063.450664161302
 30
0.0
 11
337.1757801486917
 21
1027.194435430067
 31
0.0
  0
LINE
  5
22E
330
2
100
AcDbEntity
  8
4
100
AcDbLine
 10
327.1757801486908
 20
1047.595901430067
 30
0.0
 11
327.1757801486908
 21
1034.595901430067
 31
0.0
  0
LINE
  5
22F
330
2
100
AcDbEntity
  8
4
100
AcDbLine
 10
327.1757801486908
 20
1034.295901430067
 30
0.0
 11
327.1757801486908
 21
1032.295901430067
 31
0.0
  0
LINE
  5
230
330
2
100
AcDbEntity
  8
4
100
AcDbLine
 10
329.9257801486926
 20
1050.595901430067
 30
0.0
 11
329.9257801486926
 21
1048.595901430067
 31
0.0
  0
LINE
  5
231
330
2
100
AcDbEntity
  8
4
100
AcDbLine
 10
330.6757801486926
 20
1058.595901430067
 30
0.0
 11
330.6757801486926
 21
1050.595901430067
 31
0.0
  0
ARC
  5
232
330
2
100
AcDbEntity
  8
4
100
AcDbCircle
 10
328.1757801486908
 20
1047.595901430067
 30
0.0
 40
1.0
100
AcDbArc
 50
90.0
 51
180.0
  0
ARC
  5
233
330
2
100
AcDbEntity
  8
4
100
AcDbCircle
 10
337.1757801486917
 20
1068.295901430067
 30
0.0
 40
8.0
100
AcDbArc
 50
90.0
 51
180.0
  0
LINE
  5
234
330
2
100
AcDbEntity
  8
4
100
AcDbLine
 10
329.1757801486917
 20
1068.295901430067
 30
0.0
 11
329.1757801486917
 21
1048.595901430067
 31
0.0
  0
LINE
  5
235
330
2
100
AcDbEntity
  8
4
100
AcDbLine
 10
361.1757801486908
 20
1052.595901430067
 30
0.0
 11
398.1757801486908
 21
1052.595901430067
 31
0.0
  0
LINE
  5
236
330
2
100
AcDbEntity
  8
4
100
AcDbLine
 10
366.9504046828831
 20
1048.595901430067
 30
0.0
 11
401.6757801486926
 21
1052.090278835431
 31
0.0
  0
LINE
  5
237
330
2
100
AcDbEntity
  8
L-CENTER
 48
4.0
100
AcDbLine
 10
365.1447064980364
 20
1046.295901430067
 30
0.0
 11
401.3905630676106
 21
1046.295901430067
 31
0.0
  0
LINE
  5
238
330
2
100
AcDbEntity
  8
4
100
AcDbLine
 10
344.4257801486926
 20
1050.595901430067
 30
0.0
 11
344.4257801486926
 21
1048.595901430067
 31
0.0
  0
LINE
  5
239
330
2
100
AcDbEntity
  8
4
100
AcDbLine
 10
343.6757801486926
 20
1058.595901430067
 30
0.0
 11
343.6757801486926
 21
1050.595901430067
 31
0.0
  0
LINE
  5
23A
330
2
100
AcDbEntity
  8
4
100
AcDbLine
 10
360.1757801486908
 20
1051.595901430067
 30
0.0
 11
360.1757801486908
 21
1048.818599613585
 31
0.0
  0
ARC
  5
23B
330
2
100
AcDbEntity
  8
4
100
AcDbCircle
 10
361.1757801486908
 20
1051.595901430067
 30
0.0
 40
1.0
100
AcDbArc
 50
90.0
 51
180.0
  0
ARC
  5
23C
330
2
100
AcDbEntity
  8
4
100
AcDbCircle
 10
359.1757801486908
 20
1048.818599613585
 30
0.0
 40
1.0
100
AcDbArc
 50
347.1324401033268
 51
0.0
  0
LINE
  5
23D
330
2
100
AcDbEntity
  8
L-CENTER
 48
4.0
100
AcDbLine
 10
384.1757801486917
 20
1066.203733536397
 30
0.0
 11
384.1757801486917
 21
1027.303141281328
 31
0.0
  0
ARC
  5
23E
330
2
100
AcDbEntity
  8
4
100
AcDbCircle
 10
384.1757801486917
 20
1046.295901430067
 30
0.0
 40
10.0
100
AcDbArc
 50
39.05012253616155
 51
140.9498774638384
  0
LINE
  5
23F
330
2
100
AcDbEntity
  8
4
100
AcDbLine
 10
401.6757801486926
 20
1058.595901430067
 30
0.0
 11
401.6757801486926
 21
1050.595901430067
 31
0.0
  0
LINE
  5
240
330
2
100
AcDbEntity
  8
4
100
AcDbLine
 10
400.9257801486926
 20
1050.595901430067
 30
0.0
 11
400.9257801486926
 21
1048.595901430067
 31
0.0
  0
LINE
  5
241
330
2
100
AcDbEntity
  8
4
100
AcDbLine
 10
398.1757801486908
 20
1052.595901430067
 30
0.0
 11
398.1757801486908
 21
1051.73807757757
 31
0.0
  0
LINE
  5
242
330
2
100
AcDbEntity
  8
4
100
AcDbLine
 10
531.1757801486908
 20
884.7959014300669
 30
0.0
 11
427.1757801486908
 21
884.7959014300669
 31
0.0
  0
ARC
  5
243
330
2
100
AcDbEntity
  8
4
100
AcDbCircle
 10
479.1757801486908
 20
966.2959014300669
 30
0.0
 40
20.0
100
AcDbArc
 50
194.4775121859299
 51
345.5224878140701
  0
ARC
  5
244
330
2
100
AcDbEntity
  8
4
100
AcDbCircle
 10
479.1757801486908
 20
966.2959014300669
 30
0.0
 40
12.5
100
AcDbArc
 50
203.5781784782074
 51
336.4218215217925
  0
ARC
  5
245
330
2
100
AcDbEntity
  8
4
100
AcDbCircle
 10
479.1757801486908
 20
966.2959014300669
 30
0.0
 40
12.5
100
AcDbArc
 50
23.57817847820744
 51
156.4218215217926
  0
LINE
  5
246
330
2
100
AcDbEntity
  8
4
100
AcDbLine
 10
459.1757801486908
 20
961.2959014300669
 30
0.0
 11
499.1757801486908
 21
961.2959014300669
 31
0.0
  0
LINE
  5
247
330
2
100
AcDbEntity
  8
4
100
AcDbLine
 10
459.1757801486908
 20
971.2959014300669
 30
0.0
 11
499.1757801486908
 21
971.2959014300669
 31
0.0
  0
ARC
  5
248
330
2
100
AcDbEntity
  8
4
100
AcDbCircle
 10
479.1757801486908
 20
966.2959014300669
 30
0.0
 40
20.0
100
AcDbArc
 50
14.47751218592994
 51
165.5224878140701
  0
ARC
  5
249
330
2
100
AcDbEntity
  8
4
100
AcDbCircle
 10
459.1757801486908
 20
966.2959014300669
 30
0.0
 40
5.0
100
AcDbArc
 50
90.0
 51
270.0
  0
ARC
  5
24A
330
2
100
AcDbEntity
  8
4
100
AcDbCircle
 10
499.1757801486908
 20
966.2959014300669
 30
0.0
 40
5.0
100
AcDbArc
 50
270.0
 51
90.0
  0
ARC
  5
24B
330
2
100
AcDbEntity
  8
4
100
AcDbCircle
 10
479.1757801486908
 20
966.2959014300669
 30
0.0
 40
11.0
100
AcDbArc
 50
207.0356917894148
 51
332.964308210585
  0
ARC
  5
24C
330
2
100
AcDbEntity
  8
4
100
AcDbCircle
 10
479.1757801486908
 20
966.2959014300669
 30
0.0
 40
11.0
100
AcDbArc
 50
27.03569178941487
 51
152.9643082105852
  0
LINE
  5
24E
330
2
100
AcDbEntity
  8
4
100
AcDbLine
 10
429.9889177047023
 20
1064.595901430067
 30
0.0
 11
528.3626425926802
 21
1064.595901430067
 31
0.0
  0
LINE
  5
24F
330
2
100
AcDbEntity
  8
4
100
AcDbLine
 10
443.1757801486908
 20
1065.595901430067
 30
0.0
 11
515.1757801486908
 21
1065.595901430067
 31
0.0
  0
LINE
  5
250
330
2
100
AcDbEntity
  8
4
100
AcDbLine
 10
429.9889177047023
 20
1052.595901430067
 30
0.0
 11
528.3626425926802
 21
1052.595901430067
 31
0.0
  0
LINE
  5
252
330
2
100
AcDbEntity
  8
L-CENTER
 48
4.0
100
AcDbLine
 10
408.1757801486917
 20
1063.450664161302
 30
0.0
 11
408.1757801486917
 21
1027.194435430067
 31
0.0
  0
LINE
  5
253
330
2
100
AcDbEntity
  8
4
100
AcDbLine
 10
414.6757801486926
 20
1053.39845493606
 30
0.0
 11
427.1035183813635
 21
1054.649044946896
 31
0.0
  0
ARC
  5
254
330
2
100
AcDbEntity
  8
4
100
AcDbCircle
 10
416.1757801486917
 20
1068.295901430067
 30
0.0
 40
8.0
100
AcDbArc
 50
0.0
 51
90.0
  0
LINE
  5
255
330
2
100
AcDbEntity
  8
4
100
AcDbLine
 10
414.6757801486926
 20
1058.595901430067
 30
0.0
 11
414.6757801486926
 21
1050.595901430067
 31
0.0
  0
LINE
  5
256
330
2
100
AcDbEntity
  8
4
100
AcDbLine
 10
415.4257801486926
 20
1050.595901430067
 30
0.0
 11
415.4257801486926
 21
1048.595901430067
 31
0.0
  0
LINE
  5
257
330
2
100
AcDbEntity
  8
4
100
AcDbLine
 10
427.1035183813635
 20
1054.649044946896
 30
0.0
 11
429.0099372849643
 21
1063.799855684179
 31
0.0
  0
ARC
  5
258
330
2
100
AcDbEntity
  8
4
100
AcDbCircle
 10
429.9889177047023
 20
1063.595901430067
 30
0.0
 40
1.0
100
AcDbArc
 50
90.0
 51
168.2317110679804
  0
LINE
  5
259
330
2
100
AcDbEntity
  8
4
100
AcDbLine
 10
424.1757801486917
 20
1068.295901430067
 30
0.0
 11
424.1757801486917
 21
1054.354429778828
 31
0.0
  0
LINE
  5
25A
330
2
100
AcDbEntity
  8
4
100
AcDbLine
 10
443.1757801486908
 20
1065.595901430067
 30
0.0
 11
443.1757801486908
 21
1064.595901430067
 31
0.0
  0
LINE
  5
25E
330
2
100
AcDbEntity
  8
4
100
AcDbLine
 10
515.1757801486908
 20
1065.595901430067
 30
0.0
 11
515.1757801486908
 21
1064.595901430067
 31
0.0
  0
ARC
  5
25F
330
2
100
AcDbEntity
  8
4
100
AcDbCircle
 10
528.3626425926802
 20
1063.595901430067
 30
0.0
 40
1.0
100
AcDbArc
 50
11.76828893201957
 51
90.0
  0
LINE
  5
260
330
2
100
AcDbEntity
  8
4
100
AcDbLine
 10
531.248041916019
 20
1054.649044946896
 30
0.0
 11
529.3416230124174
 21
1063.799855684179
 31
0.0
  0
ARC
  5
269
330
2
100
AcDbEntity
  8
4
100
AcDbCircle
 10
659.1757801486908
 20
966.2959014300669
 30
0.0
 40
5.0
100
AcDbArc
 50
180.0
 51
270.0
  0
ARC
  5
26A
330
2
100
AcDbEntity
  8
4
100
AcDbCircle
 10
659.1757801486908
 20
966.2959014300669
 30
0.0
 40
5.0
100
AcDbArc
 50
90.0
 51
180.0
  0
LINE
  5
26B
330
2
100
AcDbEntity
  8
4
100
AcDbLine
 10
650.1757801486908
 20
982.2959014300669
 30
0.0
 11
728.1757801486908
 21
982.2959014300669
 31
0.0
  0
LINE
  5
26C
330
2
100
AcDbEntity
  8
4
100
AcDbLine
 10
650.1757801486908
 20
950.2959014300669
 30
0.0
 11
728.1757801486908
 21
950.2959014300669
 31
0.0
  0
LINE
  5
26D
330
2
100
AcDbEntity
  8
4
100
AcDbLine
 10
634.1757801486908
 20
1032.295901430067
 30
0.0
 11
634.1757801486908
 21
900.2959014300669
 31
0.0
  0
LINE
  5
26E
330
2
100
AcDbEntity
  8
L-CENTER
 48
4.0
100
AcDbLine
 10
593.2068537993462
 20
886.2959014300669
 30
0.0
 11
556.960997229771
 21
886.2959014300669
 31
0.0
  0
LINE
  5
26F
330
2
100
AcDbEntity
  8
4
100
AcDbLine
 10
649.1757801486908
 20
986.2959014300669
 30
0.0
 11
649.1757801486908
 21
946.2959014300669
 31
0.0
  0
LINE
  5
270
330
2
100
AcDbEntity
  8
4
100
AcDbLine
 10
631.1757801486908
 20
900.2959014300674
 30
0.0
 11
631.1757801486908
 21
886.2959014300669
 31
0.0
  0
LINE
  5
271
330
2
100
AcDbEntity
  8
4
100
AcDbLine
 10
634.1757801486908
 20
946.2959014300669
 30
0.0
 11
649.1757801486908
 21
946.2959014300669
 31
0.0
  0
ARC
  5
272
330
2
100
AcDbEntity
  8
4
100
AcDbCircle
 10
650.1757801486908
 20
949.2959014300669
 30
0.0
 40
1.0
100
AcDbArc
 50
90.0
 51
180.0
  0
LINE
  5
273
330
2
100
AcDbEntity
  8
4
100
AcDbLine
 10
654.1757801486908
 20
966.2959014300669
 30
0.0
 11
654.1757801486908
 21
966.2959014300669
 31
0.0
  0
LINE
  5
274
330
2
100
AcDbEntity
  8
4
100
AcDbLine
 10
634.1757801486908
 20
986.2959014300669
 30
0.0
 11
649.1757801486908
 21
986.2959014300669
 31
0.0
  0
ARC
  5
275
330
2
100
AcDbEntity
  8
4
100
AcDbCircle
 10
650.1757801486908
 20
983.2959014300669
 30
0.0
 40
1.0
100
AcDbArc
 50
180.0
 51
270.0
  0
LINE
  5
276
330
2
100
AcDbEntity
  8
4
100
AcDbLine
 10
621.1757801486908
 20
1076.295901430067
 30
0.0
 11
542.1757801486908
 21
1076.295901430067
 31
0.0
  0
LINE
  5
277
330
2
100
AcDbEntity
  8
4
100
AcDbLine
 10
591.4011556145003
 20
1048.595901430067
 30
0.0
 11
556.6757801486899
 21
1052.090278835431
 31
0.0
  0
LINE
  5
278
330
2
100
AcDbEntity
  8
L-CENTER
 48
4.0
100
AcDbLine
 10
593.2068537993462
 20
1046.295901430067
 30
0.0
 11
556.960997229771
 21
1046.295901430067
 31
0.0
  0
LINE
  5
279
330
2
100
AcDbEntity
  8
L-CENTER
 48
4.0
100
AcDbLine
 10
550.1757801486899
 20
1063.450664161302
 30
0.0
 11
550.1757801486899
 21
1027.194435430067
 31
0.0
  0
LINE
  5
27A
330
2
100
AcDbEntity
  8
4
100
AcDbLine
 10
542.9257801486899
 20
1050.595901430067
 30
0.0
 11
557.4257801486899
 21
1050.595901430067
 31
0.0
  0
LINE
  5
27B
330
2
100
AcDbEntity
  8
4
100
AcDbLine
 10
543.6757801486899
 20
1058.595901430067
 30
0.0
 11
556.6757801486899
 21
1058.595901430067
 31
0.0
  0
LINE
  5
27C
330
2
100
AcDbEntity
  8
4
100
AcDbLine
 10
542.9257801486899
 20
1050.595901430067
 30
0.0
 11
542.9257801486899
 21
1048.595901430067
 31
0.0
  0
LINE
  5
27D
330
2
100
AcDbEntity
  8
4
100
AcDbLine
 10
543.6757801486899
 20
1058.595901430067
 30
0.0
 11
543.6757801486899
 21
1050.595901430067
 31
0.0
  0
ARC
  5
27E
330
2
100
AcDbEntity
  8
4
100
AcDbCircle
 10
542.1757801486908
 20
1068.295901430067
 30
0.0
 40
8.0
100
AcDbArc
 50
90.0
 51
180.0
  0
LINE
  5
27F
330
2
100
AcDbEntity
  8
4
100
AcDbLine
 10
534.1757801486908
 20
1068.295901430067
 30
0.0
 11
534.1757801486908
 21
1054.354429778828
 31
0.0
  0
LINE
  5
280
330
2
100
AcDbEntity
  8
4
100
AcDbLine
 10
557.4257801486899
 20
1050.595901430067
 30
0.0
 11
557.4257801486899
 21
1048.595901430067
 31
0.0
  0
LINE
  5
281
330
2
100
AcDbEntity
  8
4
100
AcDbLine
 10
556.6757801486899
 20
1058.595901430067
 30
0.0
 11
556.6757801486899
 21
1050.595901430067
 31
0.0
  0
LINE
  5
282
330
2
100
AcDbEntity
  8
L-CENTER
 48
4.0
100
AcDbLine
 10
574.1757801486908
 20
1066.203733536397
 30
0.0
 11
574.1757801486908
 21
1027.303141281328
 31
0.0
  0
ARC
  5
283
330
2
100
AcDbEntity
  8
4
100
AcDbCircle
 10
574.1757801486908
 20
1046.295901430067
 30
0.0
 40
10.0
100
AcDbArc
 50
17.91385170805941
 51
150.5936098723464
  0
LINE
  5
284
330
2
100
AcDbEntity
  8
4
100
AcDbLine
 10
613.9257801486899
 20
1050.595901430067
 30
0.0
 11
628.4257801486899
 21
1050.595901430067
 31
0.0
  0
LINE
  5
285
330
2
100
AcDbEntity
  8
4
100
AcDbLine
 10
614.6757801486899
 20
1058.595901430067
 30
0.0
 11
627.6757801486899
 21
1058.595901430067
 31
0.0
  0
ARC
  5
286
330
2
100
AcDbEntity
  8
4
100
AcDbCircle
 10
621.1757801486908
 20
1068.295901430067
 30
0.0
 40
8.0
100
AcDbArc
 50
0.0
 51
90.0
  0
LINE
  5
287
330
2
100
AcDbEntity
  8
L-CENTER
 48
4.0
100
AcDbLine
 10
621.1757801486899
 20
1063.450664161302
 30
0.0
 11
621.1757801486899
 21
1027.194435430067
 31
0.0
  0
LINE
  5
288
330
2
100
AcDbEntity
  8
4
100
AcDbLine
 10
613.9257801486899
 20
1050.595901430067
 30
0.0
 11
613.9257801486899
 21
1048.595901430067
 31
0.0
  0
LINE
  5
289
330
2
100
AcDbEntity
  8
4
100
AcDbLine
 10
614.6757801486899
 20
1058.595901430067
 30
0.0
 11
614.6757801486899
 21
1050.595901430067
 31
0.0
  0
LINE
  5
28A
330
2
100
AcDbEntity
  8
4
100
AcDbLine
 10
631.1757801486908
 20
1047.595901430067
 30
0.0
 11
631.1757801486908
 21
1034.595901430067
 31
0.0
  0
LINE
  5
28B
330
2
100
AcDbEntity
  8
4
100
AcDbLine
 10
631.1757801486908
 20
1034.295901430067
 30
0.0
 11
631.1757801486908
 21
1032.295901430066
 31
0.0
  0
LINE
  5
28C
330
2
100
AcDbEntity
  8
4
100
AcDbLine
 10
628.4257801486899
 20
1050.595901430067
 30
0.0
 11
628.4257801486899
 21
1048.595901430067
 31
0.0
  0
LINE
  5
28D
330
2
100
AcDbEntity
  8
4
100
AcDbLine
 10
627.6757801486899
 20
1058.595901430067
 30
0.0
 11
627.6757801486899
 21
1050.595901430067
 31
0.0
  0
ARC
  5
28E
330
2
100
AcDbEntity
  8
4
100
AcDbCircle
 10
630.1757801486908
 20
1047.595901430067
 30
0.0
 40
1.0
100
AcDbArc
 50
0.0
 51
90.0
  0
LINE
  5
28F
330
2
100
AcDbEntity
  8
4
100
AcDbLine
 10
629.1757801486908
 20
1068.295901430067
 30
0.0
 11
629.1757801486908
 21
1048.595901430067
 31
0.0
  0
LINE
  5
290
330
2
100
AcDbEntity
  8
4
100
AcDbLine
 10
659.1757801486908
 20
971.2959014300669
 30
0.0
 11
729.1757801486908
 21
971.2959014300669
 31
0.0
  0
LINE
  5
291
330
2
100
AcDbEntity
  8
4
100
AcDbLine
 10
659.1757801486908
 20
961.2959014300669
 30
0.0
 11
729.1757801486908
 21
961.2959014300669
 31
0.0
  0
LINE
  5
292
330
2
100
AcDbEntity
  8
4
100
AcDbLine
 10
729.1757801486908
 20
981.2959014300669
 30
0.0
 11
729.1757801486908
 21
951.2959014300669
 31
0.0
  0
LINE
  5
293
330
2
100
AcDbEntity
  8
4
100
AcDbLine
 10
728.1757801486908
 20
982.2959014300669
 30
0.0
 11
728.1757801486908
 21
971.2959014300669
 31
0.0
  0
LINE
  5
294
330
2
100
AcDbEntity
  8
4
100
AcDbLine
 10
728.1757801486908
 20
961.2959014300669
 30
0.0
 11
728.1757801486908
 21
950.2959014300669
 31
0.0
  0
LINE
  5
295
330
2
100
AcDbEntity
  8
4
100
AcDbLine
 10
729.1757801486908
 20
951.2959014300669
 30
0.0
 11
728.1757801486908
 21
950.2959014300669
 31
0.0
  0
LINE
  5
296
330
2
100
AcDbEntity
  8
4
100
AcDbLine
 10
728.1757801486908
 20
982.2959014300669
 30
0.0
 11
729.1757801486908
 21
981.2959014300669
 31
0.0
  0
LINE
  5
29B
330
2
100
AcDbEntity
  8
4
100
AcDbLine
 10
1047.256797605059
 20
445.847527982568
 30
0.0
 11
1047.256799605058
 21
289.8475279825675
 31
0.0
  0
LINE
  5
29C
330
2
100
AcDbEntity
  8
4
100
AcDbLine
 10
1222.556699605058
 20
394.8475279825675
 30
0.0
 11
1218.605041371337
 21
458.0731139825675
 31
0.0
  0
LINE
  5
29D
330
2
100
AcDbEntity
  8
4
100
AcDbLine
 10
1055.256797605059
 20
474.8475259825677
 30
0.0
 11
1047.256799605058
 21
394.8475279825675
 31
0.0
  0
LINE
  5
29E
330
2
100
AcDbEntity
  8
L-CENTER
 48
4.0
100
AcDbLine
 10
1135.256798605059
 20
558.6601574461097
 30
0.0
 11
1135.256798605059
 21
66.41857098256742
 31
0.0
  0
LINE
  5
29F
330
2
100
AcDbEntity
  8
4
100
AcDbLine
 10
1217.556701605059
 20
493.3475269825676
 30
0.0
 11
1217.556701605059
 21
191.3475259825677
 31
0.0
  0
LINE
  5
2A0
330
2
100
AcDbEntity
  8
4
100
AcDbLine
 10
1203.256799605058
 20
494.3475259825677
 30
0.0
 11
1203.256799605058
 21
190.3475269825676
 31
0.0
  0
LINE
  5
2A1
330
2
100
AcDbEntity
  8
4
100
AcDbLine
 10
1201.256798605059
 20
497.2291189825678
 30
0.0
 11
1201.256798605059
 21
186.1505898282885
 31
0.0
  0
LINE
  5
2A2
330
2
100
AcDbEntity
  8
4
100
AcDbLine
 10
1069.256798605059
 20
497.2291189825678
 30
0.0
 11
1069.256798605059
 21
186.1505898282899
 31
0.0
  0
LINE
  5
2A3
330
2
100
AcDbEntity
  8
4
100
AcDbLine
 10
1055.256797605059
 20
494.3475259825677
 30
0.0
 11
1055.256797605059
 21
190.3475269825676
 31
0.0
  0
LINE
  5
2A6
330
2
100
AcDbEntity
  8
L-CENTER
 48
4.0
100
AcDbLine
 10
1057.744857930783
 20
194.3475259825677
 30
0.0
 11
1212.768739279334
 21
194.3475259825677
 31
0.0
  0
ARC
  5
2A7
330
2
100
AcDbEntity
  8
4
100
AcDbCircle
 10
1190.256797605059
 20
119.3475259825677
 30
0.0
 40
5.000000999999999
100
AcDbArc
 50
180.0
 51
270.0
  0
CIRCLE
  5
2A8
330
2
100
AcDbEntity
  8
4
100
AcDbCircle
 10
1135.256798605059
 20
194.3475259825677
 30
0.0
 40
65.000001
  0
CIRCLE
  5
2A9
330
2
100
AcDbEntity
  8
4
100
AcDbCircle
 10
1135.256798605059
 20
194.3475259825677
 30
0.0
 40
65.000001
  0
LINE
  5
2AA
330
2
100
AcDbEntity
  8
4
100
AcDbLine
 10
1025.256797605059
 20
84.3475279825675
 30
0.0
 11
1245.256799605058
 21
84.3475279825675
 31
0.0
  0
LINE
  5
2AB
330
2
100
AcDbEntity
  8
L-CENTER
 48
4.0
100
AcDbLine
 10
1240.25360113186
 20
342.3475279825675
 30
0.0
 11
907.1924797254551
 21
342.3475279825675
 31
0.0
  0
LINE
  5
2AE
330
2
100
AcDbEntity
  8
4
100
AcDbLine
 10
916.2567986050585
 20
318.3475279825675
 30
0.0
 11
1015.256798605059
 21
318.3475279825675
 31
0.0
  0
LINE
  5
2AF
330
2
100
AcDbEntity
  8
4
100
AcDbLine
 10
1005.256799605058
 20
369.8475259825677
 30
0.0
 11
915.2567996050584
 21
369.8475259825677
 31
0.0
  0
LINE
  5
2B0
330
2
100
AcDbEntity
  8
4
100
AcDbLine
 10
916.2567986050585
 20
366.3475279825675
 30
0.0
 11
1015.256798605059
 21
366.3475279825675
 31
0.0
  0
LINE
  5
2C3
330
2
100
AcDbEntity
  8
4
100
AcDbLine
 10
916.2567986050585
 20
366.3475279825675
 30
0.0
 11
916.2567986050585
 21
318.3475279825675
 31
0.0
  0
LINE
  5
2C4
330
2
100
AcDbEntity
  8
4
100
AcDbLine
 10
915.2567996050584
 20
319.3475269825676
 30
0.0
 11
915.2567996050584
 21
369.8475259825677
 31
0.0
  0
LINE
  5
2C5
330
2
100
AcDbEntity
  8
4
100
AcDbLine
 10
916.2567986050585
 20
318.3475279825675
 30
0.0
 11
915.2567996050584
 21
319.3475269825676
 31
0.0
  0
LINE
  5
2C8
330
2
100
AcDbEntity
  8
4
100
AcDbLine
 10
916.2567986050585
 20
366.3475279825675
 30
0.0
 11
915.2567996050584
 21
365.3475259825677
 31
0.0
  0
LINE
  5
2C9
330
2
100
AcDbEntity
  8
4
100
AcDbLine
 10
1070.315682352036
 20
191.58138249182
 30
0.0
 11
1055.729790836291
 21
116.773403938118
 31
0.0
  0
LINE
  5
2CA
330
2
100
AcDbEntity
  8
4
100
AcDbLine
 10
1185.256799605058
 20
119.3475259825677
 30
0.0
 11
1185.256799605058
 21
152.8143229825678
 31
0.0
  0
LINE
  5
2CB
330
2
100
AcDbEntity
  8
4
100
AcDbLine
 10
1085.256797605059
 20
119.3475259825677
 30
0.0
 11
1085.256797605059
 21
152.8143229825678
 31
0.0
  0
LINE
  5
2CD
330
2
100
AcDbEntity
  8
4
100
AcDbLine
 10
1080.256799605058
 20
114.3475279825675
 30
0.0
 11
1027.256798605059
 21
114.3475279825675
 31
0.0
  0
LINE
  5
2D1
330
2
100
AcDbEntity
  8
4
100
AcDbLine
 10
1025.256797605059
 20
112.3475269825676
 30
0.0
 11
1025.256797605059
 21
84.3475279825675
 31
0.0
  0
ARC
  5
2D2
330
2
100
AcDbEntity
  8
4
100
AcDbCircle
 10
1027.256798605059
 20
112.3475269825676
 30
0.0
 40
2.000001
100
AcDbArc
 50
90.0
 51
180.0
  0
LINE
  5
2D3
330
2
100
AcDbEntity
  8
L-CENTER
 48
4.0
100
AcDbLine
 10
1055.256797605059
 20
126.3475279825675
 30
0.0
 11
1055.256797605059
 21
72.3475279825675
 31
0.0
  0
ARC
  5
2D4
330
2
100
AcDbEntity
  8
4
100
AcDbCircle
 10
1052.78523927823
 20
117.3475259825677
 30
0.0
 40
3.0
100
AcDbArc
 50
270.0
 51
348.9670190039345
  0
ARC
  5
2D7
330
2
100
AcDbEntity
  8
4
100
AcDbCircle
 10
1080.256799605058
 20
119.3475259825677
 30
0.0
 40
5.000000999999999
100
AcDbArc
 50
270.0
 51
0.0
  0
LINE
  5
2D8
330
2
100
AcDbEntity
  8
4
100
AcDbLine
 10
1069.256798605059
 20
190.3475269825676
 30
0.0
 11
1055.256797605059
 21
190.3475269825676
 31
0.0
  0
LINE
  5
2D9
330
2
100
AcDbEntity
  8
4
100
AcDbLine
 10
1055.256797605059
 20
209.8475269825676
 30
0.0
 11
1047.256799605058
 21
289.8475279825675
 31
0.0
  0
LINE
  5
2DA
330
2
100
AcDbEntity
  8
4
100
AcDbLine
 10
1015.256798605059
 20
367.3475269825676
 30
0.0
 11
1015.256798605059
 21
317.3475259825677
 31
0.0
  0
LINE
  5
2DB
330
2
100
AcDbEntity
  8
4
100
AcDbLine
 10
1035.956897605059
 20
378.3475279825675
 30
0.0
 11
1035.956897605059
 21
306.3475279825675
 31
0.0
  0
LINE
  5
2DC
330
2
100
AcDbEntity
  8
4
100
AcDbLine
 10
1037.256797605059
 20
292.3475269825676
 30
0.0
 11
1037.256797605059
 21
392.3475259825677
 31
0.0
  0
LINE
  5
2DD
330
2
100
AcDbEntity
  8
4
100
AcDbLine
 10
1035.956897605059
 20
317.3475259825677
 30
0.0
 11
1015.256798605059
 21
317.3475259825677
 31
0.0
  0
LINE
  5
2DE
330
2
100
AcDbEntity
  8
4
100
AcDbLine
 10
1047.256799605058
 20
289.8475279825675
 30
0.0
 11
1037.256797605059
 21
292.3475269825676
 31
0.0
  0
LINE
  5
2DF
330
2
100
AcDbEntity
  8
4
100
AcDbLine
 10
1035.956897605059
 20
306.3475279825675
 30
0.0
 11
1036.956896605058
 21
306.3475279825675
 31
0.0
  0
LINE
  5
2E0
330
2
100
AcDbEntity
  8
4
100
AcDbLine
 10
1054.856894605059
 20
317.3475259825677
 30
0.0
 11
1047.256799605058
 21
306.7073899825677
 31
0.0
  0
LINE
  5
2E1
330
2
100
AcDbEntity
  8
4
100
AcDbLine
 10
1015.256798605059
 20
367.3475269825676
 30
0.0
 11
1035.956897605059
 21
367.3475269825676
 31
0.0
  0
LINE
  5
2E2
330
2
100
AcDbEntity
  8
4
100
AcDbLine
 10
1005.256799605058
 20
369.8475259825677
 30
0.0
 11
1005.256799605058
 21
366.3475279825675
 31
0.0
  0
LINE
  5
2E3
330
2
100
AcDbEntity
  8
4
100
AcDbLine
 10
1047.256799605058
 20
394.8475279825675
 30
0.0
 11
1037.256797605059
 21
392.3475259825677
 31
0.0
  0
LINE
  5
2E4
330
2
100
AcDbEntity
  8
4
100
AcDbLine
 10
1035.956897605059
 20
378.3475279825675
 30
0.0
 11
1036.956896605058
 21
378.3475279825675
 31
0.0
  0
LINE
  5
2E5
330
2
100
AcDbEntity
  8
4
100
AcDbLine
 10
1054.856894605059
 20
367.3475269825676
 30
0.0
 11
1047.256799605058
 21
377.9876629825676
 31
0.0
  0
ARC
  5
2E6
330
2
100
AcDbEntity
  8
4
100
AcDbCircle
 10
1135.256798605059
 20
194.3475259825677
 30
0.0
 40
16.000083
100
AcDbArc
 50
108.2107389999983
 51
71.79009400000012
  0
CIRCLE
  5
2E7
330
2
100
AcDbEntity
  8
4
100
AcDbCircle
 10
1135.256798605059
 20
194.3475259825677
 30
0.0
 40
39.999999
  0
LINE
  5
2E8
330
2
100
AcDbEntity
  8
4
100
AcDbLine
 10
1140.256799605058
 20
205.7269219825675
 30
0.0
 11
1140.256799605058
 21
213.8475259825677
 31
0.0
  0
LINE
  5
2E9
330
2
100
AcDbEntity
  8
4
100
AcDbLine
 10
1130.256797605059
 20
205.8475279825675
 30
0.0
 11
1130.256797605059
 21
213.8475259825677
 31
0.0
  0
LINE
  5
2EA
330
2
100
AcDbEntity
  8
4
100
AcDbLine
 10
1130.256797605059
 20
205.8475279825675
 30
0.0
 11
1140.256799605058
 21
205.8475279825675
 31
0.0
  0
LINE
  5
2EB
330
2
100
AcDbEntity
  8
4
100
AcDbLine
 10
1130.256797605059
 20
213.8475259825677
 30
0.0
 11
1140.256799605058
 21
213.8475259825677
 31
0.0
  0
LINE
  5
2EC
330
2
100
AcDbEntity
  8
4
100
AcDbLine
 10
1200.197914858081
 20
191.5813824918182
 30
0.0
 11
1214.783806373826
 21
116.773403938118
 31
0.0
  0
LINE
  5
2F1
330
2
100
AcDbEntity
  8
4
100
AcDbLine
 10
1190.256797605059
 20
114.3475279825675
 30
0.0
 11
1243.256798605059
 21
114.3475279825675
 31
0.0
  0
LINE
  5
2F2
330
2
100
AcDbEntity
  8
L-CENTER
 48
4.0
100
AcDbLine
 10
1215.256799605058
 20
126.3475279825675
 30
0.0
 11
1215.256799605058
 21
72.3475279825675
 31
0.0
  0
ARC
  5
2F3
330
2
100
AcDbEntity
  8
4
100
AcDbCircle
 10
1217.728357931887
 20
117.3475259825677
 30
0.0
 40
3.0
100
AcDbArc
 50
191.0329809960655
 51
270.0
  0
LINE
  5
2F4
330
2
100
AcDbEntity
  8
4
100
AcDbLine
 10
1245.256799605058
 20
112.3475269825676
 30
0.0
 11
1245.256799605058
 21
84.3475279825675
 31
0.0
  0
ARC
  5
2F5
330
2
100
AcDbEntity
  8
4
100
AcDbCircle
 10
1243.256798605059
 20
112.3475269825676
 30
0.0
 40
2.000001
100
AcDbArc
 50
0.0
 51
90.0
  0
LINE
  5
2F9
330
2
100
AcDbEntity
  8
4
100
AcDbLine
 10
1218.605041371337
 20
226.6219419825675
 30
0.0
 11
1222.556699605058
 21
289.8475279825675
 31
0.0
  0
LINE
  5
2FA
330
2
100
AcDbEntity
  8
4
100
AcDbLine
 10
1216.556699605058
 20
190.3475269825676
 30
0.0
 11
1201.256798605059
 21
190.3475269825676
 31
0.0
  0
LINE
  5
2FB
330
2
100
AcDbEntity
  8
4
100
AcDbLine
 10
1203.256799605058
 20
190.3475269825676
 30
0.0
 11
1201.256798605059
 21
190.3475269825676
 31
0.0
  0
ARC
  5
2FC
330
2
100
AcDbEntity
  8
4
100
AcDbCircle
 10
1216.556699605058
 20
191.3475259825677
 30
0.0
 40
0.999999
100
AcDbArc
 50
270.0
 51
0.0
  0
LINE
  5
2FD
330
2
100
AcDbEntity
  8
L-CENTER
 48
4.0
100
AcDbLine
 10
1233.179178915002
 20
219.3719419825675
 30
0.0
 11
1196.155235605059
 21
219.3719419825675
 31
0.0
  0
LINE
  5
2FE
330
2
100
AcDbEntity
  8
4
100
AcDbLine
 10
1227.556701605059
 20
212.8719419825675
 30
0.0
 11
1219.556701605059
 21
212.8719419825675
 31
0.0
  0
LINE
  5
2FF
330
2
100
AcDbEntity
  8
4
100
AcDbLine
 10
1227.556701605059
 20
225.8719419825675
 30
0.0
 11
1219.556701605059
 21
225.8719419825675
 31
0.0
  0
LINE
  5
300
330
2
100
AcDbEntity
  8
4
100
AcDbLine
 10
1219.556701605059
 20
212.1219419825675
 30
0.0
 11
1217.556701605059
 21
212.1219419825675
 31
0.0
  0
LINE
  5
301
330
2
100
AcDbEntity
  8
4
100
AcDbLine
 10
1219.556701605059
 20
226.6219419825675
 30
0.0
 11
1217.556701605059
 21
226.6219419825675
 31
0.0
  0
LINE
  5
302
330
2
100
AcDbEntity
  8
4
100
AcDbLine
 10
1219.556701605059
 20
212.1219419825675
 30
0.0
 11
1219.556701605059
 21
226.6219419825675
 31
0.0
  0
LINE
  5
303
330
2
100
AcDbEntity
  8
4
100
AcDbLine
 10
1217.556701605059
 20
209.8475269825676
 30
0.0
 11
1217.683166605058
 21
211.8719419825679
 31
0.0
  0
LINE
  5
304
330
2
100
AcDbEntity
  8
4
100
AcDbLine
 10
1217.683166605058
 20
211.8719419825679
 30
0.0
 11
1217.556701605059
 21
209.8475269825676
 31
0.0
  0
LINE
  5
305
330
2
100
AcDbEntity
  8
4
100
AcDbLine
 10
1227.556701605059
 20
212.8719419825675
 30
0.0
 11
1227.556701605059
 21
225.8719419825675
 31
0.0
  0
LINE
  5
308
330
2
100
AcDbEntity
  8
4
100
AcDbLine
 10
1222.556699605058
 20
335.8475279825675
 30
0.0
 11
1222.556699605058
 21
289.8475279825675
 31
0.0
  0
LINE
  5
309
330
2
100
AcDbEntity
  8
4
100
AcDbLine
 10
1234.556699605058
 20
378.3475279825675
 30
0.0
 11
1234.556699605058
 21
306.3475279825675
 31
0.0
  0
LINE
  5
30A
330
2
100
AcDbEntity
  8
4
100
AcDbLine
 10
1233.556700605059
 20
391.5491869825678
 30
0.0
 11
1233.556700605059
 21
293.1458659825676
 31
0.0
  0
LINE
  5
30B
330
2
100
AcDbEntity
  8
4
100
AcDbLine
 10
1217.556701605059
 20
317.3475259825677
 30
0.0
 11
1222.556699605058
 21
310.3475269825676
 31
0.0
  0
ARC
  5
30C
330
2
100
AcDbEntity
  8
4
100
AcDbCircle
 10
1232.556701605059
 20
293.1458659825676
 30
0.0
 40
0.99999
100
AcDbArc
 50
282.8079989999935
 51
0.0
  0
LINE
  5
30D
330
2
100
AcDbEntity
  8
4
100
AcDbLine
 10
1232.778380605059
 20
292.1705239825674
 30
0.0
 11
1222.556699605058
 21
289.8475279825675
 31
0.0
  0
LINE
  5
30E
330
2
100
AcDbEntity
  8
4
100
AcDbLine
 10
1234.556699605058
 20
306.3475279825675
 30
0.0
 11
1233.556700605059
 21
306.3475279825675
 31
0.0
  0
LINE
  5
30F
330
2
100
AcDbEntity
  8
4
100
AcDbLine
 10
1227.556701605059
 20
348.8475279825675
 30
0.0
 11
1219.556701605059
 21
348.8475279825675
 31
0.0
  0
LINE
  5
310
330
2
100
AcDbEntity
  8
4
100
AcDbLine
 10
1227.556701605059
 20
335.8475279825675
 30
0.0
 11
1219.556701605059
 21
335.8475279825675
 31
0.0
  0
LINE
  5
311
330
2
100
AcDbEntity
  8
4
100
AcDbLine
 10
1217.556701605059
 20
367.3475269825676
 30
0.0
 11
1222.556699605058
 21
374.3475259825677
 31
0.0
  0
LINE
  5
312
330
2
100
AcDbEntity
  8
4
100
AcDbLine
 10
1219.556701605059
 20
349.5975279825675
 30
0.0
 11
1217.556701605059
 21
349.5975279825675
 31
0.0
  0
LINE
  5
313
330
2
100
AcDbEntity
  8
4
100
AcDbLine
 10
1219.556701605059
 20
335.0975279825675
 30
0.0
 11
1217.556701605059
 21
335.0975279825675
 31
0.0
  0
LINE
  5
314
330
2
100
AcDbEntity
  8
4
100
AcDbLine
 10
1219.556701605059
 20
349.5975279825675
 30
0.0
 11
1219.556701605059
 21
335.0975279825675
 31
0.0
  0
LINE
  5
315
330
2
100
AcDbEntity
  8
4
100
AcDbLine
 10
1222.556699605058
 20
348.8475279825675
 30
0.0
 11
1222.556699605058
 21
394.8475279825675
 31
0.0
  0
LINE
  5
316
330
2
100
AcDbEntity
  8
4
100
AcDbLine
 10
1227.556701605059
 20
348.8475279825675
 30
0.0
 11
1227.556701605059
 21
335.8475279825675
 31
0.0
  0
ARC
  5
317
330
2
100
AcDbEntity
  8
4
100
AcDbCircle
 10
1232.556701605059
 20
391.5491869825678
 30
0.0
 40
0.99999
100
AcDbArc
 50
0.0
 51
77.19200100000644
  0
LINE
  5
318
330
2
100
AcDbEntity
  8
4
100
AcDbLine
 10
1232.778380605059
 20
392.5245289825675
 30
0.0
 11
1222.556699605058
 21
394.8475279825675
 31
0.0
  0
LINE
  5
319
330
2
100
AcDbEntity
  8
4
100
AcDbLine
 10
1234.556699605058
 20
378.3475279825675
 30
0.0
 11
1233.556700605059
 21
378.3475279825675
 31
0.0
  0
ARC
  5
325
330
2
100
AcDbEntity
  8
4
100
AcDbCircle
 10
1135.256798605059
 20
-199.6524730174324
 30
0.0
 40
699.999963
100
AcDbArc
 50
84.58977200000108
 51
95.41081399999969
  0
LINE
  5
32D
330
2
100
AcDbEntity
  8
4
100
AcDbLine
 10
1069.256798605059
 20
494.3475259825677
 30
0.0
 11
1055.256797605059
 21
494.3475259825677
 31
0.0
  0
ARC
  5
330
330
2
100
AcDbEntity
  8
4
100
AcDbCircle
 10
1048.256797605059
 20
445.847527982568
 30
0.0
 40
1.0
100
AcDbArc
 50
90.0
 51
180.0
  0
LINE
  5
331
330
2
100
AcDbEntity
  8
4
100
AcDbLine
 10
1048.256797605059
 20
446.847527982568
 30
0.0
 11
1052.456798435059
 21
446.8475279825684
 31
0.0
  0
LINE
  5
333
330
2
100
AcDbEntity
  8
4
100
AcDbLine
 10
1130.256797605059
 20
505.9036789825677
 30
0.0
 11
1130.256797605059
 21
548.3475259825677
 31
0.0
  0
LINE
  5
334
330
2
100
AcDbEntity
  8
4
100
AcDbLine
 10
1140.256799605058
 20
505.9036789825677
 30
0.0
 11
1140.256799605058
 21
548.3475259825677
 31
0.0
  0
LINE
  5
335
330
2
100
AcDbEntity
  8
4
100
AcDbLine
 10
1122.756797605059
 20
511.3475269825676
 30
0.0
 11
1130.256797605059
 21
511.3475269825676
 31
0.0
  0
LINE
  5
336
330
2
100
AcDbEntity
  8
4
100
AcDbLine
 10
1130.256797605059
 20
512.5474789825676
 30
0.0
 11
1122.756797605059
 21
511.3475269825676
 31
0.0
  0
LINE
  5
337
330
2
100
AcDbEntity
  8
4
100
AcDbLine
 10
1151.256797605059
 20
502.3475269825676
 30
0.0
 11
1119.256799605058
 21
502.3475269825676
 31
0.0
  0
LINE
  5
338
330
2
100
AcDbEntity
  8
4
100
AcDbLine
 10
1122.756797605059
 20
502.3475269825676
 30
0.0
 11
1147.756799605058
 21
502.3475269825676
 31
0.0
  0
LINE
  5
339
330
2
100
AcDbEntity
  8
4
100
AcDbLine
 10
1115.256797605059
 20
502.3475269825676
 30
0.0
 11
1155.256799605058
 21
502.3475269825676
 31
0.0
  0
LINE
  5
33A
330
2
100
AcDbEntity
  8
4
100
AcDbLine
 10
1120.534385605059
 20
509.8475279825675
 30
0.0
 11
1122.756797605059
 21
509.8475279825675
 31
0.0
  0
LINE
  5
33B
330
2
100
AcDbEntity
  8
4
100
AcDbLine
 10
1120.534385605059
 20
505.8475259825677
 30
0.0
 11
1120.534385605059
 21
509.8475279825675
 31
0.0
  0
LINE
  5
33C
330
2
100
AcDbEntity
  8
4
100
AcDbLine
 10
1118.256797605059
 20
505.8475259825677
 30
0.0
 11
1122.756797605059
 21
505.8475259825677
 31
0.0
  0
LINE
  5
33D
330
2
100
AcDbEntity
  8
4
100
AcDbLine
 10
1119.256799605059
 20
502.3475269825676
 30
0.0
 11
1119.256799605058
 21
502.8475259825677
 31
0.0
  0
ARC
  5
33E
330
2
100
AcDbEntity
  8
4
100
AcDbCircle
 10
1113.256799605058
 20
502.0027999825675
 30
0.0
 40
2.000004
100
AcDbArc
 50
271.7977710000035
 51
0.0
  0
LINE
  5
33F
330
2
100
AcDbEntity
  8
4
100
AcDbLine
 10
1115.256797605059
 20
502.3475269825676
 30
0.0
 11
1115.256797605059
 21
502.0027999825675
 31
0.0
  0
LINE
  5
340
330
2
100
AcDbEntity
  8
4
100
AcDbLine
 10
1118.256797605059
 20
502.8475259825677
 30
0.0
 11
1122.756797605059
 21
502.8475259825677
 31
0.0
  0
LINE
  5
341
330
2
100
AcDbEntity
  8
4
100
AcDbLine
 10
1118.256797605059
 20
505.8475259825677
 30
0.0
 11
1118.256797605059
 21
502.8475259825677
 31
0.0
  0
LINE
  5
342
330
2
100
AcDbEntity
  8
4
100
AcDbLine
 10
1122.756797605059
 20
502.3475269825676
 30
0.0
 11
1122.756797605059
 21
511.3475269825676
 31
0.0
  0
LINE
  5
343
330
2
100
AcDbEntity
  8
4
100
AcDbLine
 10
1140.256799605058
 20
512.5474789825676
 30
0.0
 11
1147.756799605058
 21
511.3475269825676
 31
0.0
  0
LINE
  5
344
330
2
100
AcDbEntity
  8
4
100
AcDbLine
 10
1140.256799605058
 20
511.3475269825676
 30
0.0
 11
1147.756799605058
 21
511.3475269825676
 31
0.0
  0
LINE
  5
345
330
2
100
AcDbEntity
  8
4
100
AcDbLine
 10
1147.756799605058
 20
505.8475259825677
 30
0.0
 11
1152.256799605058
 21
505.8475259825677
 31
0.0
  0
LINE
  5
346
330
2
100
AcDbEntity
  8
4
100
AcDbLine
 10
1149.979211605058
 20
505.8475259825677
 30
0.0
 11
1149.979211605058
 21
509.8475279825675
 31
0.0
  0
LINE
  5
347
330
2
100
AcDbEntity
  8
4
100
AcDbLine
 10
1147.756799605058
 20
509.8475279825675
 30
0.0
 11
1149.979211605058
 21
509.8475279825675
 31
0.0
  0
ARC
  5
348
330
2
100
AcDbEntity
  8
4
100
AcDbCircle
 10
1157.256797605059
 20
502.0027999825675
 30
0.0
 40
2.000004
100
AcDbArc
 50
180.0
 51
268.2021999999978
  0
LINE
  5
349
330
2
100
AcDbEntity
  8
4
100
AcDbLine
 10
1155.256799605058
 20
502.3475269825676
 30
0.0
 11
1155.256799605058
 21
502.0027999825675
 31
0.0
  0
LINE
  5
34A
330
2
100
AcDbEntity
  8
4
100
AcDbLine
 10
1151.256797605059
 20
502.3475269825676
 30
0.0
 11
1151.256797605059
 21
502.8475259825677
 31
0.0
  0
LINE
  5
34B
330
2
100
AcDbEntity
  8
4
100
AcDbLine
 10
1147.756799605058
 20
502.8475259825677
 30
0.0
 11
1152.256799605058
 21
502.8475259825677
 31
0.0
  0
LINE
  5
34C
330
2
100
AcDbEntity
  8
4
100
AcDbLine
 10
1152.256799605058
 20
502.8475259825677
 30
0.0
 11
1152.256799605058
 21
505.8475259825677
 31
0.0
  0
LINE
  5
34D
330
2
100
AcDbEntity
  8
4
100
AcDbLine
 10
1147.756799605058
 20
502.3475269825676
 30
0.0
 11
1147.756799605058
 21
511.3475269825676
 31
0.0
  0
LINE
  5
34E
330
2
100
AcDbEntity
  8
L-CENTER
 48
4.0
100
AcDbLine
 10
1143.082970605059
 20
528.3475279825675
 30
0.0
 11
1126.100303605059
 21
528.3475279825675
 31
0.0
  0
ARC
  5
350
330
2
100
AcDbEntity
  8
4
100
AcDbCircle
 10
1135.256798605059
 20
548.3475259825677
 30
0.0
 40
5.000000999999999
100
AcDbArc
 50
0.0
 51
180.0
  0
LINE
  5
358
330
2
100
AcDbEntity
  8
4
100
AcDbLine
 10
1227.556701605059
 20
471.8231139825675
 30
0.0
 11
1227.556701605059
 21
458.8231139825675
 31
0.0
  0
LINE
  5
359
330
2
100
AcDbEntity
  8
4
100
AcDbLine
 10
1219.556701605059
 20
472.5731139825675
 30
0.0
 11
1219.556701605059
 21
458.0731139825675
 31
0.0
  0
LINE
  5
35A
330
2
100
AcDbEntity
  8
4
100
AcDbLine
 10
1227.556701605059
 20
458.8231139825675
 30
0.0
 11
1219.556701605059
 21
458.8231139825675
 31
0.0
  0
LINE
  5
35B
330
2
100
AcDbEntity
  8
4
100
AcDbLine
 10
1219.556701605059
 20
458.0731139825675
 30
0.0
 11
1217.556701605059
 21
458.0731139825675
 31
0.0
  0
LINE
  5
35C
330
2
100
AcDbEntity
  8
4
100
AcDbLine
 10
1227.556701605059
 20
471.8231139825675
 30
0.0
 11
1219.556701605059
 21
471.8231139825675
 31
0.0
  0
LINE
  5
35D
330
2
100
AcDbEntity
  8
L-CENTER
 48
4.0
100
AcDbLine
 10
1233.179178915002
 20
465.3231139825675
 30
0.0
 11
1196.155235605059
 21
465.3231139825675
 31
0.0
  0
ARC
  5
35E
330
2
100
AcDbEntity
  8
4
100
AcDbCircle
 10
1216.556699605058
 20
493.3475269825676
 30
0.0
 40
0.999999
100
AcDbArc
 50
0.0
 51
90.0
  0
LINE
  5
35F
330
2
100
AcDbEntity
  8
4
100
AcDbLine
 10
1219.556701605059
 20
472.5731139825675
 30
0.0
 11
1217.556701605059
 21
472.573113982568
 31
0.0
  0
LINE
  5
360
330
2
100
AcDbEntity
  8
4
100
AcDbLine
 10
1216.556699605058
 20
494.3475259825677
 30
0.0
 11
1201.256798605059
 21
494.3475259825677
 31
0.0
  0
LINE
  5
361
330
2
100
AcDbEntity
  8
4
100
AcDbLine
 10
1203.256799605058
 20
494.3475259825677
 30
0.0
 11
1201.256798605059
 21
494.3475259825677
 31
0.0
  0
CIRCLE
  5
552
330
2
100
AcDbEntity
  8
4
100
AcDbCircle
 10
479.1757801486914
 20
116.3475259825677
 30
0.0
 40
7.999999000000001
  0
ENDSEC
  0
SECTION
  2
OBJECTS
  0
DICTIONARY
  5
C
330
0
100
AcDbDictionary
281
     1
  3
ACAD_CIP_PREVIOUS_PRODUCT_INFO
350
4DD
  3
ACAD_COLOR
350
49
  3
ACAD_DETAILVIEWSTYLE
350
4D7
  3
ACAD_GROUP
350
36
  3
ACAD_LAYOUT
350
19
  3
ACAD_MATERIAL
350
E
  3
ACAD_MLEADERSTYLE
350
4C
  3
ACAD_MLINESTYLE
350
37
  3
ACAD_PLOTSETTINGS
350
38
  3
ACAD_PLOTSTYLENAME
350
B
  3
ACAD_SCALELIST
350
4A
  3
ACAD_SECTIONVIEWSTYLE
350
4D5
  3
ACAD_TABLESTYLE
350
4B
  3
ACAD_VISUALSTYLE
350
2F
  3
ACDBHEADERROUNDTRIPXREC
350
58B
  3
AcDbVariableDictionary
350
4B4
  3
DWGPROPS
350
58E
  0
DICTIONARY
  5
58F
330
2C
100
AcDbDictionary
280
     1
281
     1
  3
ACAD_XREC_ROUNDTRIP
360
590
  0
DICTIONARY
  5
22
330
21
100
AcDbDictionary
280
     1
281
     1
  3
ACAD_LAYERSTATES
360
23
  0
DICTIONARY
  5
8
330
7
100
AcDbDictionary
280
     1
281
     1
  3
ADSK_XREC_LAYER_RECONCILED
360
9
  0
DICTIONARY
  5
383
330
382
100
AcDbDictionary
280
     1
281
     1
  3
ADSK_XREC_LAYER_RECONCILED
360
384
  0
DICTIONARY
  5
4E
330
4D
100
AcDbDictionary
280
     1
281
     1
  3
ADSK_XREC_LAYER_RECONCILED
360
4F
  0
DICTIONARY
  5
6A
330
69
100
AcDbDictionary
280
     1
281
     1
  3
ADSK_XREC_LAYER_RECONCILED
360
6B
  0
DICTIONARY
  5
6F
330
6E
100
AcDbDictionary
280
     1
281
     1
  3
ADSK_XREC_LAYER_RECONCILED
360
70
  0
DICTIONARY
  5
79
330
78
100
AcDbDictionary
280
     1
281
     1
  3
ADSK_XREC_LAYER_RECONCILED
360
7A
  0
DICTIONARY
  5
3
330
2
100
AcDbDictionary
280
     1
281
     1
  3
ACAD_SORTENTS
360
4B2
  0
XRECORD
  5
4DD
102
{ACAD_REACTORS
330
C
102
}
330
C
100
AcDbXrecord
280
     1
300
ACD
300
2014
300
ACD_F_S
  0
DICTIONARY
  5
49
102
{ACAD_REACTORS
330
C
102
}
330
C
100
AcDbDictionary
281
     1
  0
DICTIONARY
  5
4D7
102
{ACAD_REACTORS
330
C
102
}
330
C
100
AcDbDictionary
281
     1
  3
Imperial24
350
4D8
  0
DICTIONARY
  5
36
102
{ACAD_REACTORS
330
C
102
}
330
C
100
AcDbDictionary
281
     1
  0
DICTIONARY
  5
19
102
{ACAD_REACTORS
330
C
102
}
330
C
100
AcDbDictionary
281
     1
  3
Model
350
18
  3
ﾚｲｱｳﾄ1
350
20
  0
DICTIONARY
  5
E
102
{ACAD_REACTORS
330
C
102
}
330
C
100
AcDbDictionary
281
     1
  3
ByBlock
350
41
  3
ByLayer
350
39
  3
Global
350
D
  0
DICTIONARY
  5
4C
102
{ACAD_REACTORS
330
C
102
}
330
C
100
AcDbDictionary
281
     1
  3
Standard
350
4D4
  0
DICTIONARY
  5
37
102
{ACAD_REACTORS
330
C
102
}
330
C
100
AcDbDictionary
281
     1
  3
STANDARD
350
51
  0
DICTIONARY
  5
38
102
{ACAD_REACTORS
330
C
102
}
330
C
100
AcDbDictionary
281
     1
  0
ACDBDICTIONARYWDFLT
  5
B
102
{ACAD_REACTORS
330
C
102
}
330
C
100
AcDbDictionary
281
     1
  3
Normal
350
A
100
AcDbDictionaryWithDefault
340
A
  0
DICTIONARY
  5
4A
102
{ACAD_REACTORS
330
C
102
}
330
C
100
AcDbDictionary
281
     1
  3
A0
350
55
  3
A1
350
56
  3
A2
350
57
  3
A3
350
58
  3
A4
350
59
  3
A5
350
5A
  3
A6
350
5B
  3
A7
350
5C
  3
A8
350
5D
  3
A9
350
5E
  3
B0
350
5F
  3
B1
350
60
  3
B2
350
61
  3
B3
350
62
  3
B4
350
63
  3
B5
350
64
  3
B6
350
65
  0
DICTIONARY
  5
4D5
102
{ACAD_REACTORS
330
C
102
}
330
C
100
AcDbDictionary
281
     1
  3
Imperial24
350
4D6
  0
DICTIONARY
  5
4B
102
{ACAD_REACTORS
330
C
102
}
330
C
100
AcDbDictionary
281
     1
  3
Standard
350
52
  0
DICTIONARY
  5
2F
102
{ACAD_REACTORS
330
C
102
}
330
C
100
AcDbDictionary
281
     1
  3
2dWireframe
350
2E
  3
Basic
350
4C3
  3
Brighten
350
4C7
  3
ColorChange
350
4CB
  3
Conceptual
350
4C5
  3
Dim
350
4C6
  3
EdgeColorOff
350
4D3
  3
Facepattern
350
4CA
  3
Flat
350
4BF
  3
FlatWithEdges
350
4C0
  3
Gouraud
350
4C1
  3
GouraudWithEdges
350
4C2
  3
Hidden
350
4C4
  3
JitterOff
350
4D1
  3
Linepattern
350
4C9
  3
OverhangOff
350
4D2
  3
Realistic
350
53
  3
Shaded
350
4D0
  3
Shaded with edges
350
4CF
  3
Shades of Gray
350
4CC
  3
Sketchy
350
4CD
  3
Thicken
350
4C8
  3
Wireframe
350
54
  3
X-Ray
350
4CE
  0
DICTIONARY
  5
58B
102
{ACAD_REACTORS
330
C
102
}
330
C
100
AcDbDictionary
281
     1
  3
COLORDICT
350
58C
  3
MATERIALDICT
350
58D
  0
DICTIONARY
  5
4B4
102
{ACAD_REACTORS
330
C
102
}
330
C
100
AcDbDictionary
281
     1
  3
CANNOSCALE
350
4BA
  3
CMLEADERSTYLE
350
4B6
  3
CTABLESTYLE
350
4B5
  3
CVIEWDETAILSTYLE
350
4B7
  3
CVIEWSECTIONSTYLE
350
4B8
  3
DIMASSOC
350
589
  3
HIDETEXT
350
58A
  3
LAYEREVAL
350
4BC
  3
LAYERNOTIFY
350
4BD
  3
LIGHTINGUNITS
350
4BB
  3
MSLTSCALE
350
4B9
  3
XCLIPFRAME
350
550
  0
XRECORD
  5
58E
102
{ACAD_REACTORS
330
C
102
}
330
C
100
AcDbXrecord
280
     1
  1
DWGPROPS COOKIE
  2

  3

  4

  6

  7

  8
sg-d04
  9

300
=
301
=
302
=
303
=
304
=
305
=
306
=
307
=
308
=
309
=
 40
0.0
 41
2457436.306340868
 42
2457870.219293981
  1

 90
        0
  0
XRECORD
  5
590
102
{ACAD_REACTORS
330
58F
102
}
330
58F
100
AcDbXrecord
280
     1
102
VTR_0.000_0.000_1.000_1.000_VISUALSTYLE
340
2E
102
VTR_0.000_0.000_1.000_1.000_GRIDDISPLAY
 70
     3
102
VTR_0.000_0.000_1.000_1.000_GRIDMAJOR
 70
     5
102
VTR_0.000_0.000_1.000_1.000_DEFAULTLIGHTING
280
     1
102
VTR_0.000_0.000_1.000_1.000_DEFAULTLIGHTINGTYPE
 70
     1
102
VTR_0.000_0.000_1.000_1.000_BRIGHTNESS
141
0.0
102
VTR_0.000_0.000_1.000_1.000_CONTRAST
142
0.0
  0
DICTIONARY
  5
23
102
{ACAD_REACTORS
330
22
102
}
330
22
100
AcDbDictionary
281
     1
  0
XRECORD
  5
9
102
{ACAD_REACTORS
330
8
102
}
330
8
100
AcDbXrecord
280
     1
290
     1
  0
XRECORD
  5
384
102
{ACAD_REACTORS
330
383
102
}
330
383
100
AcDbXrecord
280
     1
290
     1
  0
XRECORD
  5
4F
102
{ACAD_REACTORS
330
4E
102
}
330
4E
100
AcDbXrecord
280
     1
290
     1
  0
XRECORD
  5
6B
102
{ACAD_REACTORS
330
6A
102
}
330
6A
100
AcDbXrecord
280
     1
290
     1
  0
XRECORD
  5
70
102
{ACAD_REACTORS
330
6F
102
}
330
6F
100
AcDbXrecord
280
     1
290
     1
  0
XRECORD
  5
7A
102
{ACAD_REACTORS
330
79
102
}
330
79
100
AcDbXrecord
280
     1
290
     1
  0
SORTENTSTABLE
  5
4B2
102
{ACAD_REACTORS
330
3
102
}
330
3
100
AcDbSortentsTable
330
2
331
0
  5
554
331
DF
  5
E0
331
E2
  5
E4
331
E3
  5
E5
331
E4
  5
E6
331
E5
  5
E7
331
E8
  5
EA
331
ED
  5
EF
331
EE
  5
F0
331
EF
  5
F1
331
F0
  5
F2
331
F1
  5
F3
331
F2
  5
F4
331
F3
  5
F6
331
F4
  5
F7
331
F5
  5
F8
331
F6
  5
F9
331
F7
  5
FA
331
F8
  5
FB
331
F9
  5
FC
331
FA
  5
FD
331
FB
  5
FE
331
FE
  5
101
331
FF
  5
102
331
100
  5
103
331
101
  5
104
331
102
  5
105
331
103
  5
106
331
104
  5
107
331
105
  5
108
331
106
  5
109
331
107
  5
10A
331
108
  5
10B
331
109
  5
10C
331
10A
  5
10D
331
10B
  5
10E
331
10C
  5
10F
331
10D
  5
110
331
10E
  5
111
331
10F
  5
112
331
110
  5
113
331
111
  5
114
331
112
  5
115
331
113
  5
116
331
114
  5
117
331
115
  5
118
331
116
  5
119
331
117
  5
11A
331
118
  5
11B
331
119
  5
11C
331
11A
  5
11D
331
11B
  5
11E
331
11C
  5
11F
331
11D
  5
120
331
11E
  5
121
331
11F
  5
122
331
120
  5
123
331
121
  5
124
331
122
  5
125
331
123
  5
126
331
124
  5
127
331
125
  5
128
331
126
  5
129
331
127
  5
12A
331
128
  5
12B
331
129
  5
12C
331
12A
  5
12D
331
12B
  5
12E
331
12C
  5
12F
331
12D
  5
130
331
12E
  5
131
331
12F
  5
132
331
130
  5
133
331
131
  5
134
331
132
  5
135
331
133
  5
136
331
134
  5
137
331
135
  5
138
331
136
  5
139
331
137
  5
13A
331
13D
  5
140
331
13E
  5
141
331
142
  5
145
331
143
  5
146
331
144
  5
147
331
145
  5
148
331
146
  5
149
331
147
  5
14A
331
149
  5
14C
331
14A
  5
14D
331
14B
  5
14E
331
14C
  5
14F
331
152
  5
155
331
153
  5
156
331
154
  5
157
331
157
  5
15A
331
158
  5
15B
331
159
  5
15C
331
15A
  5
15D
331
15B
  5
15E
331
15C
  5
15F
331
15D
  5
160
331
15E
  5
161
331
15F
  5
162
331
160
  5
163
331
161
  5
164
331
162
  5
165
331
163
  5
166
331
164
  5
167
331
165
  5
168
331
168
  5
16B
331
169
  5
16C
331
16B
  5
16E
331
16D
  5
170
331
170
  5
173
331
171
  5
174
331
172
  5
175
331
173
  5
176
331
174
  5
177
331
17A
  5
17D
331
17B
  5
17E
331
17C
  5
17F
331
17D
  5
180
331
17E
  5
181
331
17F
  5
182
331
180
  5
183
331
181
  5
184
331
182
  5
185
331
183
  5
186
331
184
  5
187
331
185
  5
188
331
186
  5
189
331
187
  5
18A
331
188
  5
18B
331
189
  5
18C
331
18B
  5
18E
331
18C
  5
18F
331
18D
  5
190
331
18E
  5
191
331
18F
  5
192
331
190
  5
193
331
191
  5
194
331
192
  5
195
331
193
  5
196
331
194
  5
197
331
195
  5
198
331
196
  5
199
331
197
  5
19A
331
198
  5
19B
331
199
  5
19C
331
19A
  5
19D
331
19C
  5
19F
331
19D
  5
1A0
331
19E
  5
1A1
331
19F
  5
1A2
331
1A0
  5
1A3
331
1A1
  5
1A4
331
1A2
  5
1A5
331
1A3
  5
1A6
331
1A4
  5
1A7
331
1A5
  5
1A8
331
1A6
  5
1A9
331
1A7
  5
1AA
331
1A8
  5
1AB
331
1A9
  5
1AC
331
1AA
  5
1AD
331
1AB
  5
1AE
331
1AC
  5
1AF
331
1AD
  5
1B0
331
1AE
  5
1B1
331
1AF
  5
1B2
331
1B0
  5
1B3
331
1B1
  5
1B4
331
1B2
  5
1B5
331
1B3
  5
1B6
331
1B4
  5
1B7
331
1B5
  5
1B8
331
1B6
  5
1B9
331
1B7
  5
1BA
331
1B8
  5
1BB
331
1B9
  5
1BC
331
1BA
  5
1BD
331
1BB
  5
1BE
331
1BC
  5
1BF
331
1BD
  5
1C0
331
1BE
  5
1C1
331
1BF
  5
1C2
331
1C0
  5
1C3
331
1C1
  5
1C4
331
1C2
  5
1C5
331
1C3
  5
1C6
331
1C4
  5
1C7
331
1C5
  5
1C8
331
1C6
  5
1C9
331
1C7
  5
1CA
331
1C8
  5
1CB
331
1C9
  5
1CC
331
1CA
  5
1CD
331
1CB
  5
1CE
331
1CC
  5
1CF
331
1CD
  5
1D0
331
1CE
  5
1D1
331
1CF
  5
1D2
331
1D0
  5
1D3
331
1D1
  5
1D4
331
1D2
  5
1D5
331
1D3
  5
1D6
331
1D4
  5
1D7
331
1D5
  5
1D8
331
1D6
  5
1D9
331
1D7
  5
1DA
331
1D8
  5
1DB
331
1D9
  5
1DC
331
1DA
  5
1DD
331
1DB
  5
1DE
331
1DC
  5
1DF
331
1DD
  5
1E0
331
1DE
  5
1E1
331
1DF
  5
1E2
331
1E0
  5
1E3
331
1E1
  5
1E4
331
1E2
  5
1E5
331
1E3
  5
1E6
331
1E8
  5
1EB
331
1E9
  5
1EC
331
1EA
  5
1ED
331
1EB
  5
1EE
331
1EC
  5
1EF
331
1ED
  5
1F0
331
1EE
  5
1F1
331
1EF
  5
1F2
331
1F1
  5
1F4
331
1F2
  5
1F5
331
1F3
  5
1F6
331
1F4
  5
1F7
331
1F5
  5
1F8
331
1F6
  5
1F9
331
1F7
  5
1FA
331
1F8
  5
1FB
331
1F9
  5
1FC
331
1FA
  5
1FD
331
1FB
  5
1FE
331
1FC
  5
1FF
331
1FD
  5
200
331
1FE
  5
201
331
1FF
  5
202
331
200
  5
203
331
201
  5
204
331
202
  5
205
331
203
  5
206
331
204
  5
207
331
206
  5
209
331
209
  5
20C
331
20A
  5
20D
331
20B
  5
20E
331
20C
  5
20F
331
20E
  5
211
331
20F
  5
212
331
210
  5
213
331
211
  5
214
331
212
  5
215
331
213
  5
216
331
214
  5
217
331
219
  5
21C
331
21A
  5
21D
331
21B
  5
21E
331
21C
  5
21F
331
21D
  5
220
331
21E
  5
221
331
21F
  5
222
331
220
  5
223
331
221
  5
224
331
222
  5
225
331
223
  5
226
331
224
  5
227
331
225
  5
228
331
226
  5
229
331
227
  5
22A
331
228
  5
22B
331
229
  5
22C
331
22A
  5
22D
331
22B
  5
22E
331
22C
  5
22F
331
22D
  5
230
331
22E
  5
231
331
22F
  5
232
331
230
  5
233
331
231
  5
234
331
232
  5
235
331
233
  5
236
331
234
  5
237
331
235
  5
238
331
236
  5
239
331
237
  5
23A
331
238
  5
23B
331
239
  5
23C
331
23A
  5
23D
331
23B
  5
23E
331
23C
  5
23F
331
23D
  5
240
331
23E
  5
241
331
23F
  5
242
331
240
  5
243
331
241
  5
244
331
242
  5
245
331
243
  5
246
331
244
  5
247
331
245
  5
248
331
246
  5
249
331
247
  5
24A
331
248
  5
24B
331
249
  5
24C
331
24A
  5
24D
331
24B
  5
24E
331
24C
  5
24F
331
24E
  5
251
331
24F
  5
252
331
250
  5
253
331
252
  5
255
331
253
  5
256
331
254
  5
257
331
255
  5
258
331
256
  5
259
331
257
  5
25A
331
258
  5
25B
331
259
  5
25C
331
25A
  5
25D
331
25E
  5
261
331
25F
  5
262
331
260
  5
263
331
269
  5
26C
331
26A
  5
26D
331
26B
  5
26E
331
26C
  5
26F
331
26D
  5
270
331
26E
  5
271
331
26F
  5
272
331
270
  5
273
331
271
  5
274
331
272
  5
275
331
273
  5
276
331
274
  5
277
331
275
  5
278
331
276
  5
279
331
277
  5
27A
331
278
  5
27B
331
279
  5
27C
331
27A
  5
27D
331
27B
  5
27E
331
27C
  5
27F
331
27D
  5
280
331
27E
  5
281
331
27F
  5
282
331
280
  5
283
331
281
  5
284
331
282
  5
285
331
283
  5
286
331
284
  5
287
331
285
  5
288
331
286
  5
289
331
287
  5
28A
331
288
  5
28B
331
289
  5
28C
331
28A
  5
28D
331
28B
  5
28E
331
28C
  5
28F
331
28D
  5
290
331
28E
  5
291
331
28F
  5
292
331
290
  5
293
331
291
  5
294
331
292
  5
295
331
293
  5
296
331
294
  5
297
331
295
  5
298
331
296
  5
299
331
29B
  5
29E
331
29C
  5
29F
331
29D
  5
2A0
331
29E
  5
2A1
331
29F
  5
2A2
331
2A0
  5
2A3
331
2A1
  5
2A4
331
2A2
  5
2A5
331
2A3
  5
2A6
331
2A6
  5
2A9
331
2A7
  5
2AA
331
2A8
  5
2AB
331
2A9
  5
2AC
331
2AA
  5
2AD
331
2AB
  5
2AE
331
2AE
  5
2B1
331
2AF
  5
2B2
331
2B0
  5
2B3
331
2C3
  5
2C6
331
2C4
  5
2C7
331
2C5
  5
2C8
331
2C8
  5
2CB
331
2C9
  5
2CC
331
2CA
  5
2CD
331
2CB
  5
2CE
331
2CD
  5
2D0
331
2D1
  5
2D4
331
2D2
  5
2D5
331
2D3
  5
2D6
331
2D4
  5
2D7
331
2D7
  5
2DA
331
2D8
  5
2DB
331
2D9
  5
2DC
331
2DA
  5
2DD
331
2DB
  5
2DE
331
2DC
  5
2DF
331
2DD
  5
2E0
331
2DE
  5
2E1
331
2DF
  5
2E2
331
2E0
  5
2E3
331
2E1
  5
2E4
331
2E2
  5
2E5
331
2E3
  5
2E6
331
2E4
  5
2E7
331
2E5
  5
2E8
331
2E6
  5
2E9
331
2E7
  5
2EA
331
2E8
  5
2EB
331
2E9
  5
2EC
331
2EA
  5
2ED
331
2EB
  5
2EE
331
2EC
  5
2EF
331
2F1
  5
2F4
331
2F2
  5
2F5
331
2F3
  5
2F6
331
2F4
  5
2F7
331
2F5
  5
2F8
331
2F9
  5
2FC
331
2FA
  5
2FD
331
2FB
  5
2FE
331
2FC
  5
2FF
331
2FD
  5
300
331
2FE
  5
301
331
2FF
  5
302
331
300
  5
303
331
301
  5
304
331
302
  5
305
331
303
  5
306
331
304
  5
307
331
305
  5
308
331
308
  5
30B
331
309
  5
30C
331
30A
  5
30D
331
30B
  5
30E
331
30C
  5
30F
331
30D
  5
310
331
30E
  5
311
331
30F
  5
312
331
310
  5
313
331
311
  5
314
331
312
  5
315
331
313
  5
316
331
314
  5
317
331
315
  5
318
331
316
  5
319
331
317
  5
31A
331
318
  5
31B
331
319
  5
31C
331
325
  5
328
331
32D
  5
330
331
330
  5
333
331
331
  5
334
331
333
  5
336
331
334
  5
337
331
335
  5
338
331
336
  5
339
331
337
  5
33A
331
338
  5
33B
331
339
  5
33C
331
33A
  5
33D
331
33B
  5
33E
331
33C
  5
33F
331
33D
  5
340
331
33E
  5
341
331
33F
  5
342
331
340
  5
343
331
341
  5
344
331
342
  5
345
331
343
  5
346
331
344
  5
347
331
345
  5
348
331
346
  5
349
331
347
  5
34A
331
348
  5
34B
331
349
  5
34C
331
34A
  5
34D
331
34B
  5
34E
331
34C
  5
34F
331
34D
  5
350
331
34E
  5
351
331
350
  5
353
331
358
  5
35B
331
359
  5
35C
331
35A
  5
35D
331
35B
  5
35E
331
35C
  5
35F
331
35D
  5
360
331
35E
  5
361
331
35F
  5
362
331
360
  5
363
331
361
  5
364
331
552
  5
F5
  0
ACDBDETAILVIEWSTYLE
  5
4D8
102
{ACAD_REACTORS
330
4D7
102
}
102
{ACAD_XDICTIONARY
360
4E7
102
}
330
4D7
100
AcDbModelDocViewStyle
 70
     0
  3
Imperial24
290
     0
100
AcDbDetailViewStyle
 70
     0
 71
     0
 90
        3
 71
     1
340
25
 40
0.24
340
0
 40
0.24
300

 40
0.36
280
     3
 71
     2
340
16
 90
       25
 71
     3
340
25
 40
0.24
 90
        1
 40
0.75
 90
        1
300
%<\AcVar ViewType \f "%tc1">% %<\AcVar ViewDetailId>%\PSCALE %<\AcVar ViewScale \f "%sn">%
 71
     4
340
16
 90
       25
340
16
 90
       25
280
     0
  0
LAYOUT
  5
18
102
{ACAD_REACTORS
330
19
102
}
330
19
100
AcDbPlotSettings
  1

  2
Bullzip PDF Printer.pc3
  4
A3
  6

 40
0.2
 41
0.0
 42
0.0
 43
0.0
 44
420.2
 45
297.1
 46
25.0
 47
12.0
 48
91.99999981333332
 49
10.0
140
1619.999996313334
141
1099.999997456667
142
1.0
143
4.0
 70
 11936
 72
     1
 73
     0
 74
     4
  7
monochrome.ctb
 75
    18
147
0.25
148
-91.99999981333332
149
-10.0
100
AcDbLayout
  1
Model
 70
     0
 71
     0
 10
0.0
 20
0.0
 11
12.0
 21
9.0
 12
0.0
 22
0.0
 32
0.0
 14
218.5498930484409
 24
29.53680335489889
 34
0.0
 15
1245.256799605059
 25
1076.295901430067
 35
0.0
146
0.0
 13
0.0
 23
0.0
 33
0.0
 16
1.0
 26
0.0
 36
0.0
 17
0.0
 27
1.0
 37
0.0
 76
     0
330
2
331
2D
1001
ACAD_PSEXT
1000
Bullzip PDF Printer.pc3
1000
Bullzip PDF Printer
1000
BULLZIP
1000
Bullzip PDF Printer 10.1.0.1871
1070
     0
  0
LAYOUT
  5
20
102
{ACAD_REACTORS
330
19
102
}
330
19
100
AcDbPlotSettings
  1

  2
SR-LP8300F
  4

  6

 40
0.0
 41
0.0
 42
0.0
 43
0.0
 44
0.0
 45
0.0
 46
0.0
 47
0.0
 48
0.0
 49
0.0
140
0.0
141
0.0
142
1.0
143
1.0
 70
   688
 72
     0
 73
     0
 74
     5
  7
monochrome.ctb
 75
    16
147
1.0
148
0.0
149
0.0
100
AcDbLayout
  1
ﾚｲｱｳﾄ1
 70
     0
 71
     1
 10
0.0
 20
0.0
 11
12.0
 21
9.0
 12
0.0
 22
0.0
 32
0.0
 14
1.000000000000000E+20
 24
1.000000000000000E+20
 34
1.000000000000000E+20
 15
-1.000000000000000E+20
 25
-1.000000000000000E+20
 35
-1.000000000000000E+20
146
0.0
 13
0.0
 23
0.0
 33
0.0
 16
1.0
 26
0.0
 36
0.0
 17
0.0
 27
1.0
 37
0.0
 76
     0
330
1B
  0
MATERIAL
  5
41
102
{ACAD_REACTORS
330
E
102
}
102
{ACAD_XDICTIONARY
360
592
102
}
330
E
100
AcDbMaterial
  1
ByBlock
 72
     0
 73
     2
 43
0.0208333333333333
 43
0.0
 43
0.0
 43
0.0
 43
0.0
 43
0.0208333333333333
 43
0.0
 43
0.0
 43
0.0
 43
0.0
 43
1.0
 43
0.0
 43
0.0
 43
0.0
 43
0.0
 43
1.0
 77
     0
 78
     2
 47
0.0208333333333333
 47
0.0
 47
0.0
 47
0.0
 47
0.0
 47
0.0208333333333333
 47
0.0
 47
0.0
 47
0.0
 47
0.0
 47
1.0
 47
0.0
 47
0.0
 47
0.0
 47
0.0
 47
1.0
171
     0
172
     2
 49
0.0208333333333333
 49
0.0
 49
0.0
 49
0.0
 49
0.0
 49
0.0208333333333333
 49
0.0
 49
0.0
 49
0.0
 49
0.0
 49
1.0
 49
0.0
 49
0.0
 49
0.0
 49
0.0
 49
1.0
175
     0
176
     2
142
0.0208333333333333
142
0.0
142
0.0
142
0.0
142
0.0
142
0.0208333333333333
142
0.0
142
0.0
142
0.0
142
0.0
142
1.0
142
0.0
142
0.0
142
0.0
142
0.0
142
1.0
179
     0
270
     2
144
0.0208333333333333
144
0.0
144
0.0
144
0.0
144
0.0
144
0.0208333333333333
144
0.0
144
0.0
144
0.0
144
0.0
144
1.0
144
0.0
144
0.0
144
0.0
144
0.0
144
1.0
274
     2
147
0.0208333333333333
147
0.0
147
0.0
147
0.0
147
0.0
147
0.0208333333333333
147
0.0
147
0.0
147
0.0
147
0.0
147
1.0
147
0.0
147
0.0
147
0.0
147
0.0
147
1.0
  0
MATERIAL
  5
39
102
{ACAD_REACTORS
330
E
102
}
102
{ACAD_XDICTIONARY
360
594
102
}
330
E
100
AcDbMaterial
  1
ByLayer
 72
     0
 73
     2
 43
0.0208333333333333
 43
0.0
 43
0.0
 43
0.0
 43
0.0
 43
0.0208333333333333
 43
0.0
 43
0.0
 43
0.0
 43
0.0
 43
1.0
 43
0.0
 43
0.0
 43
0.0
 43
0.0
 43
1.0
 77
     0
 78
     2
 47
0.0208333333333333
 47
0.0
 47
0.0
 47
0.0
 47
0.0
 47
0.0208333333333333
 47
0.0
 47
0.0
 47
0.0
 47
0.0
 47
1.0
 47
0.0
 47
0.0
 47
0.0
 47
0.0
 47
1.0
171
     0
172
     2
 49
0.0208333333333333
 49
0.0
 49
0.0
 49
0.0
 49
0.0
 49
0.0208333333333333
 49
0.0
 49
0.0
 49
0.0
 49
0.0
 49
1.0
 49
0.0
 49
0.0
 49
0.0
 49
0.0
 49
1.0
175
     0
176
     2
142
0.0208333333333333
142
0.0
142
0.0
142
0.0
142
0.0
142
0.0208333333333333
142
0.0
142
0.0
142
0.0
142
0.0
142
1.0
142
0.0
142
0.0
142
0.0
142
0.0
142
1.0
179
     0
270
     2
144
0.0208333333333333
144
0.0
144
0.0
144
0.0
144
0.0
144
0.0208333333333333
144
0.0
144
0.0
144
0.0
144
0.0
144
1.0
144
0.0
144
0.0
144
0.0
144
0.0
144
1.0
274
     2
147
0.0208333333333333
147
0.0
147
0.0
147
0.0
147
0.0
147
0.0208333333333333
147
0.0
147
0.0
147
0.0
147
0.0
147
1.0
147
0.0
147
0.0
147
0.0
147
0.0
147
1.0
  0
MATERIAL
  5
D
102
{ACAD_REACTORS
330
E
102
}
102
{ACAD_XDICTIONARY
360
596
102
}
330
E
100
AcDbMaterial
  1
Global
 72
     0
 73
     2
 43
0.0208333333333333
 43
0.0
 43
0.0
 43
0.0
 43
0.0
 43
0.0208333333333333
 43
0.0
 43
0.0
 43
0.0
 43
0.0
 43
1.0
 43
0.0
 43
0.0
 43
0.0
 43
0.0
 43
1.0
 77
     0
 78
     2
 47
0.0208333333333333
 47
0.0
 47
0.0
 47
0.0
 47
0.0
 47
0.0208333333333333
 47
0.0
 47
0.0
 47
0.0
 47
0.0
 47
1.0
 47
0.0
 47
0.0
 47
0.0
 47
0.0
 47
1.0
171
     0
172
     2
 49
0.0208333333333333
 49
0.0
 49
0.0
 49
0.0
 49
0.0
 49
0.0208333333333333
 49
0.0
 49
0.0
 49
0.0
 49
0.0
 49
1.0
 49
0.0
 49
0.0
 49
0.0
 49
0.0
 49
1.0
175
     0
176
     2
142
0.0208333333333333
142
0.0
142
0.0
142
0.0
142
0.0
142
0.0208333333333333
142
0.0
142
0.0
142
0.0
142
0.0
142
1.0
142
0.0
142
0.0
142
0.0
142
0.0
142
1.0
179
     0
270
     2
144
0.0208333333333333
144
0.0
144
0.0
144
0.0
144
0.0
144
0.0208333333333333
144
0.0
144
0.0
144
0.0
144
0.0
144
1.0
144
0.0
144
0.0
144
0.0
144
0.0
144
1.0
274
     2
147
0.0208333333333333
147
0.0
147
0.0
147
0.0
147
0.0
147
0.0208333333333333
147
0.0
147
0.0
147
0.0
147
0.0
147
1.0
147
0.0
147
0.0
147
0.0
147
0.0
147
1.0
1001
ACAD
1070
    -1
1070
     3
1070
     0
1000

1071
        0
  0
MLEADERSTYLE
  5
4D4
102
{ACAD_REACTORS
330
4C
102
}
102
{ACAD_XDICTIONARY
360
598
102
}
330
4C
100
AcDbMLeaderStyle
170
     2
171
     1
172
     0
 90
        2
 40
0.0
 41
0.0
173
     1
 91
-1056964608
340
28
 92
       -2
290
     1
 42
0.09
291
     1
 43
0.36
  3
Standard
341
0
 44
0.18
300

342
25
174
     1
178
     6
175
     1
176
     0
 93
-1056964608
 45
0.18
292
     0
297
     0
 46
0.18
343
0
 94
-1056964608
 47
1.0
 49
1.0
140
1.0
293
     1
141
0.0
294
     1
177
     0
142
1.0
295
     1
296
     0
143
0.125
1001
ACAD_MLEADERVER
1070
     2
  0
MLINESTYLE
  5
51
102
{ACAD_REACTORS
330
37
102
}
330
37
100
AcDbMlineStyle
  2
STANDARD
 70
     0
  3

 62
     0
 51
90.0
 52
90.0
 71
     2
 49
0.5
 62
   256
  6
BYLAYER
 49
-0.5
 62
   256
  6
BYLAYER
  0
ACDBPLACEHOLDER
  5
A
102
{ACAD_REACTORS
330
B
102
}
330
B
  0
SCALE
  5
55
102
{ACAD_REACTORS
330
4A
102
}
330
4A
100
AcDbScale
 70
     0
300
1:1
140
1.0
141
1.0
290
     1
  0
SCALE
  5
56
102
{ACAD_REACTORS
330
4A
102
}
330
4A
100
AcDbScale
 70
     0
300
1/128" = 1'-0"
140
0.0078125
141
12.0
290
     0
  0
SCALE
  5
57
102
{ACAD_REACTORS
330
4A
102
}
330
4A
100
AcDbScale
 70
     0
300
1/64" = 1'-0"
140
0.015625
141
12.0
290
     0
  0
SCALE
  5
58
102
{ACAD_REACTORS
330
4A
102
}
330
4A
100
AcDbScale
 70
     0
300
1/32" = 1'-0"
140
0.03125
141
12.0
290
     0
  0
SCALE
  5
59
102
{ACAD_REACTORS
330
4A
102
}
330
4A
100
AcDbScale
 70
     0
300
1/16" = 1'-0"
140
0.0625
141
12.0
290
     0
  0
SCALE
  5
5A
102
{ACAD_REACTORS
330
4A
102
}
330
4A
100
AcDbScale
 70
     0
300
3/32" = 1'-0"
140
0.09375
141
12.0
290
     0
  0
SCALE
  5
5B
102
{ACAD_REACTORS
330
4A
102
}
330
4A
100
AcDbScale
 70
     0
300
1/8" = 1'-0"
140
0.125
141
12.0
290
     0
  0
SCALE
  5
5C
102
{ACAD_REACTORS
330
4A
102
}
330
4A
100
AcDbScale
 70
     0
300
3/16" = 1'-0"
140
0.1875
141
12.0
290
     0
  0
SCALE
  5
5D
102
{ACAD_REACTORS
330
4A
102
}
330
4A
100
AcDbScale
 70
     0
300
1/4" = 1'-0"
140
0.25
141
12.0
290
     0
  0
SCALE
  5
5E
102
{ACAD_REACTORS
330
4A
102
}
330
4A
100
AcDbScale
 70
     0
300
3/8" = 1'-0"
140
0.375
141
12.0
290
     0
  0
SCALE
  5
5F
102
{ACAD_REACTORS
330
4A
102
}
330
4A
100
AcDbScale
 70
     0
300
1/2" = 1'-0"
140
0.5
141
12.0
290
     0
  0
SCALE
  5
60
102
{ACAD_REACTORS
330
4A
102
}
330
4A
100
AcDbScale
 70
     0
300
3/4" = 1'-0"
140
0.75
141
12.0
290
     0
  0
SCALE
  5
61
102
{ACAD_REACTORS
330
4A
102
}
330
4A
100
AcDbScale
 70
     0
300
1" = 1'-0"
140
1.0
141
12.0
290
     0
  0
SCALE
  5
62
102
{ACAD_REACTORS
330
4A
102
}
330
4A
100
AcDbScale
 70
     0
300
1-1/2" = 1'-0"
140
1.5
141
12.0
290
     0
  0
SCALE
  5
63
102
{ACAD_REACTORS
330
4A
102
}
330
4A
100
AcDbScale
 70
     0
300
3" = 1'-0"
140
3.0
141
12.0
290
     0
  0
SCALE
  5
64
102
{ACAD_REACTORS
330
4A
102
}
330
4A
100
AcDbScale
 70
     0
300
6" = 1'-0"
140
6.0
141
12.0
290
     0
  0
SCALE
  5
65
102
{ACAD_REACTORS
330
4A
102
}
330
4A
100
AcDbScale
 70
     0
300
1'-0" = 1'-0"
140
12.0
141
12.0
290
     0
  0
ACDBSECTIONVIEWSTYLE
  5
4D6
102
{ACAD_REACTORS
330
4D5
102
}
102
{ACAD_XDICTIONARY
360
4E5
102
}
330
4D5
100
AcDbModelDocViewStyle
 70
     0
  3
Imperial24
290
     0
100
AcDbSectionViewStyle
 70
     0
 71
     0
 90
       78
 71
     1
340
25
 40
0.24
340
0
340
0
 40
0.24
300
I, O, Q, S, X, Z
 40
0.48
 90
        3
 40
0.18
 90
        1
 71
     2
340
16
 90
       25
340
16
 90
       50
 40
0.24
 40
0.0
 40
0.24
 71
     3
340
25
 40
0.24
 90
        1
 40
0.75
 90
        1
300
%<\AcVar ViewType \f "%tc1">% %<\AcVar ViewSectionStartId>%-%<\AcVar ViewSectionEndId>%\PSCALE %<\AcVar ViewScale \f "%sn">%
 71
     4
300
ANSI31
 40
1.0
 90
        0
290
     0
290
     0
 90
        6
 40
0.0
 40
1.570796326794897
 40
0.2617993877991494
 40
1.308996938995747
 40
-0.2617993877991494
 40
1.832595714594046
  0
TABLESTYLE
  5
52
102
{ACAD_REACTORS
330
4B
102
}
330
4B
100
AcDbTableStyle
  3
Standard
 70
     0
 71
     0
 40
0.06
 41
0.06
280
     0
281
     0
  7
STANDARD
140
0.18
170
     2
 62
     0
 63
   257
283
     0
274
    -2
284
     1
 64
     0
275
    -2
285
     1
 65
     0
276
    -2
286
     1
 66
     0
277
    -2
287
     1
 67
     0
278
    -2
288
     1
 68
     0
279
    -2
289
     1
 69
     0
  7
STANDARD
140
0.25
170
     5
 62
     0
 63
   257
283
     0
274
    -2
284
     1
 64
     0
275
    -2
285
     1
 65
     0
276
    -2
286
     1
 66
     0
277
    -2
287
     1
 67
     0
278
    -2
288
     1
 68
     0
279
    -2
289
     1
 69
     0
  7
STANDARD
140
0.18
170
     5
 62
     0
 63
   257
283
     0
274
    -2
284
     1
 64
     0
275
    -2
285
     1
 65
     0
276
    -2
286
     1
 66
     0
277
    -2
287
     1
 67
     0
278
    -2
288
     1
 68
     0
279
    -2
289
     1
 69
     0
  0
VISUALSTYLE
  5
2E
102
{ACAD_REACTORS
330
2F
102
}
102
{ACAD_XDICTIONARY
360
59B
102
}
330
2F
100
AcDbVisualStyle
  2
2dWireframe
 70
     4
 71
     0
 72
     2
 73
     0
 90
        0
 40
0.6
 41
30.0
 62
     5
 63
     7
 74
     1
 91
        4
 64
     7
 65
   257
 75
     1
175
     1
 42
1.0
 92
        0
 66
   257
 43
1.0
 76
     1
 77
     6
 78
     2
 67
     7
 79
     5
170
     0
171
     0
290
     0
174
     0
 93
        1
 44
0.0
173
     0
291
     0
 45
0.0
1001
ACAD
1000
AcDbSavedByObjectVersion
1070
     0
  0
VISUALSTYLE
  5
4C3
102
{ACAD_REACTORS
330
2F
102
}
102
{ACAD_XDICTIONARY
360
59D
102
}
330
2F
100
AcDbVisualStyle
  2
Basic
 70
     7
 71
     1
 72
     0
 73
     1
 90
        0
 40
0.6
 41
30.0
 62
     5
 63
     7
 74
     0
 91
        4
 64
     7
 65
   257
 75
     1
175
     1
 42
1.0
 92
        8
 66
     7
 43
1.0
 76
     1
 77
     6
 78
     2
 67
     7
 79
     5
170
     0
171
     0
290
     0
174
     0
 93
        1
 44
0.0
173
     0
291
     1
 45
0.0
1001
ACAD
1000
AcDbSavedByObjectVersion
1070
     0
  0
VISUALSTYLE
  5
4C7
102
{ACAD_REACTORS
330
2F
102
}
102
{ACAD_XDICTIONARY
360
59F
102
}
330
2F
100
AcDbVisualStyle
  2
Brighten
 70
    12
 71
     2
 72
     2
 73
     0
 90
        0
 40
0.6
 41
30.0
 62
     5
 63
     7
 74
     1
 91
        4
 64
     7
 65
   257
 75
     1
175
     1
 42
1.0
 92
        8
 66
     7
 43
1.0
 76
     1
 77
     6
 78
     2
 67
     7
 79
     5
170
     0
171
     0
290
     0
174
     0
 93
        1
 44
50.0
173
     0
291
     1
 45
0.0
1001
ACAD
1000
AcDbSavedByObjectVersion
1070
     0
  0
VISUALSTYLE
  5
4CB
102
{ACAD_REACTORS
330
2F
102
}
102
{ACAD_XDICTIONARY
360
5A1
102
}
330
2F
100
AcDbVisualStyle
  2
ColorChange
 70
    16
 71
     2
 72
     2
 73
     3
 90
        0
 40
0.6
 41
30.0
 62
     5
 63
     8
 74
     1
 91
        4
 64
     7
 65
   257
 75
     1
175
     1
 42
1.0
 92
        8
 66
     8
 43
1.0
 76
     1
 77
     6
 78
     2
 67
     7
 79
     5
170
     0
171
     0
290
     0
174
     0
 93
        1
 44
0.0
173
     0
291
     1
 45
0.0
1001
ACAD
1000
AcDbSavedByObjectVersion
1070
     0
  0
VISUALSTYLE
  5
4C5
102
{ACAD_REACTORS
330
2F
102
}
102
{ACAD_XDICTIONARY
360
5A3
102
}
330
2F
100
AcDbVisualStyle
  2
Conceptual
 70
     9
 71
     3
 72
     2
 73
     0
 90
        0
 40
0.6
 41
30.0
 62
     5
 63
     7
 74
     2
 91
        2
 64
     7
 65
   257
 75
     1
175
     1
 42
179.0
 92
        8
 66
     7
 43
1.0
 76
     1
 77
     6
 78
     2
 67
     7
 79
     3
170
     0
171
     0
290
     0
174
     0
 93
        1
 44
0.0
173
     0
291
     0
 45
0.0
1001
ACAD
1000
AcDbSavedByObjectVersion
1070
     0
  0
VISUALSTYLE
  5
4C6
102
{ACAD_REACTORS
330
2F
102
}
102
{ACAD_XDICTIONARY
360
5A5
102
}
330
2F
100
AcDbVisualStyle
  2
Dim
 70
    11
 71
     2
 72
     2
 73
     0
 90
        0
 40
0.6
 41
30.0
 62
     5
 63
     7
 74
     1
 91
        4
 64
     7
 65
   257
 75
     1
175
     1
 42
1.0
 92
        8
 66
     7
 43
1.0
 76
     1
 77
     6
 78
     2
 67
     7
 79
     5
170
     0
171
     0
290
     0
174
     0
 93
        1
 44
-50.0
173
     0
291
     1
 45
0.0
1001
ACAD
1000
AcDbSavedByObjectVersion
1070
     0
  0
VISUALSTYLE
  5
4D3
102
{ACAD_REACTORS
330
2F
102
}
102
{ACAD_XDICTIONARY
360
5A7
102
}
330
2F
100
AcDbVisualStyle
  2
EdgeColorOff
 70
    22
 71
     2
 72
     2
 73
     0
 90
        0
 40
0.6
 41
30.0
 62
     5
 63
     7
 74
     1
 91
        4
 64
     7
 65
   257
 75
     1
175
     1
 42
1.0
 92
        8
 66
     7
 43
1.0
 76
     1
 77
     6
 78
     2
 67
     7
 79
     5
170
     0
171
     0
290
     0
174
     0
 93
        1
 44
0.0
173
     0
291
     1
 45
0.0
1001
ACAD
1000
AcDbSavedByObjectVersion
1070
     0
  0
VISUALSTYLE
  5
4CA
102
{ACAD_REACTORS
330
2F
102
}
102
{ACAD_XDICTIONARY
360
5A9
102
}
330
2F
100
AcDbVisualStyle
  2
Facepattern
 70
    15
 71
     2
 72
     2
 73
     0
 90
        0
 40
0.6
 41
30.0
 62
     5
 63
     7
 74
     1
 91
        4
 64
     7
 65
   257
 75
     1
175
     1
 42
1.0
 92
        8
 66
     7
 43
1.0
 76
     1
 77
     6
 78
     2
 67
     7
 79
     5
170
     0
171
     0
290
     0
174
     0
 93
        1
 44
0.0
173
     0
291
     1
 45
0.0
1001
ACAD
1000
AcDbSavedByObjectVersion
1070
     0
  0
VISUALSTYLE
  5
4BF
102
{ACAD_REACTORS
330
2F
102
}
102
{ACAD_XDICTIONARY
360
5AB
102
}
330
2F
100
AcDbVisualStyle
  2
Flat
 70
     0
 71
     2
 72
     1
 73
     1
 90
        2
 40
0.6
 41
30.0
 62
     5
 63
     7
 74
     0
 91
        0
 64
     7
 65
   257
 75
     1
175
     1
 42
1.0
 92
        8
 66
     7
 43
1.0
 76
     1
 77
     6
 78
     2
 67
     7
 79
     5
170
     0
171
     0
290
     0
174
     0
 93
       13
 44
0.0
173
     0
291
     1
 45
0.0
1001
ACAD
1000
AcDbSavedByObjectVersion
1070
     0
  0
VISUALSTYLE
  5
4C0
102
{ACAD_REACTORS
330
2F
102
}
102
{ACAD_XDICTIONARY
360
5AD
102
}
330
2F
100
AcDbVisualStyle
  2
FlatWithEdges
 70
     1
 71
     2
 72
     1
 73
     1
 90
        2
 40
0.6
 41
30.0
 62
     5
 63
     7
 74
     1
 91
        0
 64
     7
 65
   257
 75
     1
175
     1
 42
1.0
 92
        0
 66
   257
 43
1.0
 76
     1
 77
     6
 78
     2
 67
     7
 79
     5
170
     0
171
     0
290
     0
174
     0
 93
       13
 44
0.0
173
     0
291
     1
 45
0.0
1001
ACAD
1000
AcDbSavedByObjectVersion
1070
     0
  0
VISUALSTYLE
  5
4C1
102
{ACAD_REACTORS
330
2F
102
}
102
{ACAD_XDICTIONARY
360
5AF
102
}
330
2F
100
AcDbVisualStyle
  2
Gouraud
 70
     2
 71
     2
 72
     2
 73
     1
 90
        2
 40
0.6
 41
30.0
 62
     5
 63
     7
 74
     0
 91
        0
 64
     7
 65
   257
 75
     1
175
     1
 42
1.0
 92
        0
 66
     7
 43
1.0
 76
     1
 77
     6
 78
     2
 67
     7
 79
     5
170
     0
171
     0
290
     0
174
     0
 93
       13
 44
0.0
173
     0
291
     1
 45
0.0
1001
ACAD
1000
AcDbSavedByObjectVersion
1070
     0
  0
VISUALSTYLE
  5
4C2
102
{ACAD_REACTORS
330
2F
102
}
102
{ACAD_XDICTIONARY
360
5B1
102
}
330
2F
100
AcDbVisualStyle
  2
GouraudWithEdges
 70
     3
 71
     2
 72
     2
 73
     1
 90
        2
 40
0.6
 41
30.0
 62
     5
 63
     7
 74
     1
 91
        0
 64
     7
 65
   257
 75
     1
175
     1
 42
1.0
 92
        0
 66
   257
 43
1.0
 76
     1
 77
     6
 78
     2
 67
     7
 79
     5
170
     0
171
     0
290
     0
174
     0
 93
       13
 44
0.0
173
     0
291
     1
 45
0.0
1001
ACAD
1000
AcDbSavedByObjectVersion
1070
     0
  0
VISUALSTYLE
  5
4C4
102
{ACAD_REACTORS
330
2F
102
}
102
{ACAD_XDICTIONARY
360
5B3
102
}
330
2F
100
AcDbVisualStyle
  2
Hidden
 70
     6
 71
     1
 72
     2
 73
     2
 90
        0
 40
0.6
 41
30.0
 62
     5
 63
     7
 74
     2
 91
        2
 64
     7
 65
   257
 75
     2
175
     1
 42
40.0
 92
        0
 66
   257
 43
1.0
 76
     1
 77
     6
 78
     2
 67
     7
 79
     3
170
     0
171
     0
290
     0
174
     0
 93
        1
 44
0.0
173
     0
291
     0
 45
0.0
1001
ACAD
1000
AcDbSavedByObjectVersion
1070
     0
  0
VISUALSTYLE
  5
4D1
102
{ACAD_REACTORS
330
2F
102
}
102
{ACAD_XDICTIONARY
360
5B5
102
}
330
2F
100
AcDbVisualStyle
  2
JitterOff
 70
    20
 71
     2
 72
     2
 73
     0
 90
        0
 40
0.6
 41
30.0
 62
     5
 63
     7
 74
     1
 91
        4
 64
     7
 65
   257
 75
     1
175
     1
 42
1.0
 92
       10
 66
     7
 43
1.0
 76
     1
 77
     6
 78
     2
 67
     7
 79
     5
170
     0
171
     0
290
     0
174
     0
 93
        1
 44
0.0
173
     0
291
     1
 45
0.0
1001
ACAD
1000
AcDbSavedByObjectVersion
1070
     0
  0
VISUALSTYLE
  5
4C9
102
{ACAD_REACTORS
330
2F
102
}
102
{ACAD_XDICTIONARY
360
5B7
102
}
330
2F
100
AcDbVisualStyle
  2
Linepattern
 70
    14
 71
     2
 72
     2
 73
     0
 90
        0
 40
0.6
 41
30.0
 62
     5
 63
     7
 74
     1
 91
        4
 64
     7
 65
   257
 75
     7
175
     7
 42
1.0
 92
        8
 66
     7
 43
1.0
 76
     1
 77
     6
 78
     2
 67
     7
 79
     5
170
     0
171
     0
290
     0
174
     0
 93
        1
 44
0.0
173
     0
291
     1
 45
0.0
1001
ACAD
1000
AcDbSavedByObjectVersion
1070
     0
  0
VISUALSTYLE
  5
4D2
102
{ACAD_REACTORS
330
2F
102
}
102
{ACAD_XDICTIONARY
360
5B9
102
}
330
2F
100
AcDbVisualStyle
  2
OverhangOff
 70
    21
 71
     2
 72
     2
 73
     0
 90
        0
 40
0.6
 41
30.0
 62
     5
 63
     7
 74
     1
 91
        4
 64
     7
 65
   257
 75
     1
175
     1
 42
1.0
 92
        9
 66
     7
 43
1.0
 76
     1
 77
     6
 78
     2
 67
     7
 79
     5
170
     0
171
     0
290
     0
174
     0
 93
        1
 44
0.0
173
     0
291
     1
 45
0.0
1001
ACAD
1000
AcDbSavedByObjectVersion
1070
     0
  0
VISUALSTYLE
  5
53
102
{ACAD_REACTORS
330
2F
102
}
102
{ACAD_XDICTIONARY
360
5BB
102
}
330
2F
100
AcDbVisualStyle
  2
Realistic
 70
     8
 71
     2
 72
     3
 73
     0
 90
        2
 40
0.6
 41
30.0
 62
     5
 63
     7
 74
     0
 91
        0
 64
     7
 65
   257
 75
     1
175
     1
 42
1.0
 92
        8
 66
   257
 43
1.0
 76
     1
 77
     6
 78
     2
 67
     7
 79
     3
170
     0
171
     0
290
     0
174
     0
 93
       13
 44
0.0
173
     0
291
     0
 45
0.0
1001
ACAD
1000
AcDbSavedByObjectVersion
1070
     0
  0
VISUALSTYLE
  5
4D0
102
{ACAD_REACTORS
330
2F
102
}
102
{ACAD_XDICTIONARY
360
5BD
102
}
330
2F
100
AcDbVisualStyle
  2
Shaded
 70
    27
 71
     2
 72
     2
 73
     1
 90
        2
 40
0.6
 41
30.0
 62
     5
 63
     7
 74
     0
 91
        4
 64
     7
 65
   257
 75
     1
175
     1
 42
1.0
 92
        8
 66
   257
 43
1.0
 76
     1
 77
     6
 78
     2
 67
     8
 79
     3
170
     0
171
     0
290
     0
174
     0
 93
        5
 44
0.0
173
     0
291
     0
 45
0.0
1001
ACAD
1000
AcDbSavedByObjectVersion
1070
     0
  0
VISUALSTYLE
  5
4CF
102
{ACAD_REACTORS
330
2F
102
}
102
{ACAD_XDICTIONARY
360
5BF
102
}
330
2F
100
AcDbVisualStyle
  2
Shaded with edges
 70
    26
 71
     2
 72
     2
 73
     1
 90
        2
 40
0.6
 41
30.0
 62
     5
 63
     7
 74
     1
 91
       10
 64
     7
 65
   257
 75
     2
175
     1
 42
1.0
 92
        8
 66
   257
 43
1.0
 76
     1
 77
     6
 78
     2
 67
     7
 79
     3
170
     0
171
     0
290
     0
174
     0
 93
        5
 44
0.0
173
     0
291
     0
 45
0.0
1001
ACAD
1000
AcDbSavedByObjectVersion
1070
     0
  0
VISUALSTYLE
  5
4CC
102
{ACAD_REACTORS
330
2F
102
}
102
{ACAD_XDICTIONARY
360
5C1
102
}
330
2F
100
AcDbVisualStyle
  2
Shades of Gray
 70
    23
 71
     2
 72
     2
 73
     3
 90
        0
 40
0.6
 41
30.0
 62
     5
 63
     7
 74
     2
 91
        2
 64
     7
 65
     7
 75
     1
175
     1
 42
40.0
 92
        8
 66
     7
 43
1.0
 76
     1
 77
     6
 78
     2
 67
     7
 79
     3
170
     0
171
     0
290
     0
174
     0
 93
        1
 44
0.0
173
     0
291
     0
 45
0.0
1001
ACAD
1000
AcDbSavedByObjectVersion
1070
     0
  0
VISUALSTYLE
  5
4CD
102
{ACAD_REACTORS
330
2F
102
}
102
{ACAD_XDICTIONARY
360
5C3
102
}
330
2F
100
AcDbVisualStyle
  2
Sketchy
 70
    24
 71
     1
 72
     2
 73
     2
 90
        0
 40
0.6
 41
30.0
 62
     5
 63
     7
 74
     2
 91
        2
 64
     7
 65
     7
 75
     1
175
     1
 42
40.0
 92
       11
 66
     7
 43
1.0
 76
     1
 77
     6
 78
     2
 67
     7
 79
     6
170
     0
171
     0
290
     0
174
     0
 93
        1
 44
0.0
173
     0
291
     0
 45
0.0
1001
ACAD
1000
AcDbSavedByObjectVersion
1070
     0
  0
VISUALSTYLE
  5
4C8
102
{ACAD_REACTORS
330
2F
102
}
102
{ACAD_XDICTIONARY
360
5C5
102
}
330
2F
100
AcDbVisualStyle
  2
Thicken
 70
    13
 71
     2
 72
     2
 73
     0
 90
        0
 40
0.6
 41
30.0
 62
     5
 63
     7
 74
     1
 91
        4
 64
     7
 65
   257
 75
     1
175
     1
 42
1.0
 92
       12
 66
     7
 43
1.0
 76
     1
 77
     6
 78
     2
 67
     7
 79
     5
170
     0
171
     0
290
     0
174
     0
 93
        1
 44
0.0
173
     0
291
     1
 45
0.0
1001
ACAD
1000
AcDbSavedByObjectVersion
1070
     0
  0
VISUALSTYLE
  5
54
102
{ACAD_REACTORS
330
2F
102
}
102
{ACAD_XDICTIONARY
360
5C7
102
}
330
2F
100
AcDbVisualStyle
  2
Wireframe
 70
     5
 71
     0
 72
     2
 73
     0
 90
        0
 40
0.6
 41
30.0
 62
     5
 63
     7
 74
     1
 91
        4
 64
     7
 65
   257
 75
     1
175
     1
 42
1.0
 92
        0
 66
   257
 43
1.0
 76
     1
 77
     6
 78
     2
 67
     7
 79
     3
170
     0
171
     0
290
     0
174
     0
 93
        1
 44
0.0
173
     0
291
     0
 45
0.0
1001
ACAD
1000
AcDbSavedByObjectVersion
1070
     0
  0
VISUALSTYLE
  5
4CE
102
{ACAD_REACTORS
330
2F
102
}
102
{ACAD_XDICTIONARY
360
5C9
102
}
330
2F
100
AcDbVisualStyle
  2
X-Ray
 70
    25
 71
     2
 72
     2
 73
     1
 90
        1
 40
0.5
 41
30.0
 62
     5
 63
     7
 74
     1
 91
        0
 64
     7
 65
   257
 75
     1
175
     1
 42
1.0
 92
        8
 66
     7
 43
1.0
 76
     1
 77
     6
 78
     2
 67
     7
 79
     3
170
     0
171
     0
290
     0
174
     0
 93
       13
 44
0.0
173
     0
291
     0
 45
0.0
1001
ACAD
1000
AcDbSavedByObjectVersion
1070
     0
  0
XRECORD
  5
58C
102
{ACAD_REACTORS
330
58B
102
}
330
58B
100
AcDbXrecord
280
     1
340
49
  0
XRECORD
  5
58D
102
{ACAD_REACTORS
330
58B
102
}
330
58B
100
AcDbXrecord
280
     1
340
E
  0
DICTIONARYVAR
  5
4BA
102
{ACAD_REACTORS
330
4B4
102
}
330
4B4
100
DictionaryVariables
280
     0
  1
1:1
  0
DICTIONARYVAR
  5
4B6
102
{ACAD_REACTORS
330
4B4
102
}
330
4B4
100
DictionaryVariables
280
     0
  1
Standard
  0
DICTIONARYVAR
  5
4B5
102
{ACAD_REACTORS
330
4B4
102
}
330
4B4
100
DictionaryVariables
280
     0
  1
Standard
  0
DICTIONARYVAR
  5
4B7
102
{ACAD_REACTORS
330
4B4
102
}
330
4B4
100
DictionaryVariables
280
     0
  1
Imperial24
  0
DICTIONARYVAR
  5
4B8
102
{ACAD_REACTORS
330
4B4
102
}
330
4B4
100
DictionaryVariables
280
     0
  1
Imperial24
  0
DICTIONARYVAR
  5
589
102
{ACAD_REACTORS
330
4B4
102
}
330
4B4
100
DictionaryVariables
280
     0
  1
0
  0
DICTIONARYVAR
  5
58A
102
{ACAD_REACTORS
330
4B4
102
}
330
4B4
100
DictionaryVariables
280
     0
  1
1
  0
DICTIONARYVAR
  5
4BC
102
{ACAD_REACTORS
330
4B4
102
}
330
4B4
100
DictionaryVariables
280
     0
  1
1
  0
DICTIONARYVAR
  5
4BD
102
{ACAD_REACTORS
330
4B4
102
}
330
4B4
100
DictionaryVariables
280
     0
  1
15
  0
DICTIONARYVAR
  5
4BB
102
{ACAD_REACTORS
330
4B4
102
}
330
4B4
100
DictionaryVariables
280
     0
  1
0
  0
DICTIONARYVAR
  5
4B9
102
{ACAD_REACTORS
330
4B4
102
}
330
4B4
100
DictionaryVariables
280
     0
  1
0
  0
DICTIONARYVAR
  5
550
102
{ACAD_REACTORS
330
4B4
102
}
330
4B4
100
DictionaryVariables
280
     0
  1
0
  0
DICTIONARY
  5
4E7
330
4D8
100
AcDbDictionary
280
     1
281
     1
  3
ACAD_XREC_ROUNDTRIP
360
591
  0
DICTIONARY
  5
592
330
41
100
AcDbDictionary
280
     1
281
     1
  3
ACAD_XREC_ROUNDTRIP
360
593
  0
DICTIONARY
  5
594
330
39
100
AcDbDictionary
280
     1
281
     1
  3
ACAD_XREC_ROUNDTRIP
360
595
  0
DICTIONARY
  5
596
330
D
100
AcDbDictionary
280
     1
281
     1
  3
ACAD_XREC_ROUNDTRIP
360
597
  0
DICTIONARY
  5
598
330
4D4
100
AcDbDictionary
280
     1
281
     1
  3
ACAD_XREC_ROUNDTRIP
360
599
  0
DICTIONARY
  5
4E5
330
4D6
100
AcDbDictionary
280
     1
281
     1
  3
ACAD_XREC_ROUNDTRIP
360
59A
  0
DICTIONARY
  5
59B
330
2E
100
AcDbDictionary
280
     1
281
     1
  3
ACAD_XREC_ROUNDTRIP
360
59C
  0
DICTIONARY
  5
59D
330
4C3
100
AcDbDictionary
280
     1
281
     1
  3
ACAD_XREC_ROUNDTRIP
360
59E
  0
DICTIONARY
  5
59F
330
4C7
100
AcDbDictionary
280
     1
281
     1
  3
ACAD_XREC_ROUNDTRIP
360
5A0
  0
DICTIONARY
  5
5A1
330
4CB
100
AcDbDictionary
280
     1
281
     1
  3
ACAD_XREC_ROUNDTRIP
360
5A2
  0
DICTIONARY
  5
5A3
330
4C5
100
AcDbDictionary
280
     1
281
     1
  3
ACAD_XREC_ROUNDTRIP
360
5A4
  0
DICTIONARY
  5
5A5
330
4C6
100
AcDbDictionary
280
     1
281
     1
  3
ACAD_XREC_ROUNDTRIP
360
5A6
  0
DICTIONARY
  5
5A7
330
4D3
100
AcDbDictionary
280
     1
281
     1
  3
ACAD_XREC_ROUNDTRIP
360
5A8
  0
DICTIONARY
  5
5A9
330
4CA
100
AcDbDictionary
280
     1
281
     1
  3
ACAD_XREC_ROUNDTRIP
360
5AA
  0
DICTIONARY
  5
5AB
330
4BF
100
AcDbDictionary
280
     1
281
     1
  3
ACAD_XREC_ROUNDTRIP
360
5AC
  0
DICTIONARY
  5
5AD
330
4C0
100
AcDbDictionary
280
     1
281
     1
  3
ACAD_XREC_ROUNDTRIP
360
5AE
  0
DICTIONARY
  5
5AF
330
4C1
100
AcDbDictionary
280
     1
281
     1
  3
ACAD_XREC_ROUNDTRIP
360
5B0
  0
DICTIONARY
  5
5B1
330
4C2
100
AcDbDictionary
280
     1
281
     1
  3
ACAD_XREC_ROUNDTRIP
360
5B2
  0
DICTIONARY
  5
5B3
330
4C4
100
AcDbDictionary
280
     1
281
     1
  3
ACAD_XREC_ROUNDTRIP
360
5B4
  0
DICTIONARY
  5
5B5
330
4D1
100
AcDbDictionary
280
     1
281
     1
  3
ACAD_XREC_ROUNDTRIP
360
5B6
  0
DICTIONARY
  5
5B7
330
4C9
100
AcDbDictionary
280
     1
281
     1
  3
ACAD_XREC_ROUNDTRIP
360
5B8
  0
DICTIONARY
  5
5B9
330
4D2
100
AcDbDictionary
280
     1
281
     1
  3
ACAD_XREC_ROUNDTRIP
360
5BA
  0
DICTIONARY
  5
5BB
330
53
100
AcDbDictionary
280
     1
281
     1
  3
ACAD_XREC_ROUNDTRIP
360
5BC
  0
DICTIONARY
  5
5BD
330
4D0
100
AcDbDictionary
280
     1
281
     1
  3
ACAD_XREC_ROUNDTRIP
360
5BE
  0
DICTIONARY
  5
5BF
330
4CF
100
AcDbDictionary
280
     1
281
     1
  3
ACAD_XREC_ROUNDTRIP
360
5C0
  0
DICTIONARY
  5
5C1
330
4CC
100
AcDbDictionary
280
     1
281
     1
  3
ACAD_XREC_ROUNDTRIP
360
5C2
  0
DICTIONARY
  5
5C3
330
4CD
100
AcDbDictionary
280
     1
281
     1
  3
ACAD_XREC_ROUNDTRIP
360
5C4
  0
DICTIONARY
  5
5C5
330
4C8
100
AcDbDictionary
280
     1
281
     1
  3
ACAD_XREC_ROUNDTRIP
360
5C6
  0
DICTIONARY
  5
5C7
330
54
100
AcDbDictionary
280
     1
281
     1
  3
ACAD_XREC_ROUNDTRIP
360
5C8
  0
DICTIONARY
  5
5C9
330
4CE
100
AcDbDictionary
280
     1
281
     1
  3
ACAD_XREC_ROUNDTRIP
360
5CA
  0
XRECORD
  5
591
102
{ACAD_REACTORS
330
4E7
102
}
330
4E7
100
AcDbXrecord
280
     1
102
DISPLAYNAME
  1
Imperial24
102
FLAGS
 90
        0
  0
XRECORD
  5
593
102
{ACAD_REACTORS
330
592
102
}
330
592
100
AcDbXrecord
280
     1
102
MATERIAL
148
0.0
149
0.0
149
0.0
 93
        0
 94
      127
282
     0
 72
     0
 77
     0
171
     0
175
     0
179
     0
273
     0
  0
XRECORD
  5
595
102
{ACAD_REACTORS
330
594
102
}
330
594
100
AcDbXrecord
280
     1
102
MATERIAL
148
0.0
149
0.0
149
0.0
 93
        0
 94
      127
282
     0
 72
     0
 77
     0
171
     0
175
     0
179
     0
273
     0
  0
XRECORD
  5
597
102
{ACAD_REACTORS
330
596
102
}
330
596
100
AcDbXrecord
280
     1
102
MATERIAL
148
0.0
149
0.0
149
0.0
 93
        0
 94
      127
282
     0
 72
     0
 77
     0
171
     0
175
     0
179
     0
273
     0
  0
XRECORD
  5
599
102
{ACAD_REACTORS
330
598
102
}
330
598
100
AcDbXrecord
280
     1
102
ACAD_ROUNDTRIP_2012_MLEADER_STYLE
298
     1
  0
XRECORD
  5
59A
102
{ACAD_REACTORS
330
4E5
102
}
330
4E5
100
AcDbXrecord
280
     1
102
DISPLAYNAME
  1
Imperial24
102
FLAGS
 90
        0
  0
XRECORD
  5
59C
102
{ACAD_REACTORS
330
59B
102
}
330
59B
100
AcDbXrecord
280
     1
102
RTVSPropertyOp0
 70
     1
102
RTVSPropertyOp1
 70
     1
102
RTVSPropertyOp2
 70
     1
102
RTVSPropertyOp3
 70
     1
102
RTVSPropertyOp4
 70
     1
102
RTVSPropertyOp5
 70
     1
102
RTVSPropertyOp6
 70
     1
102
RTVSPropertyOp7
 70
     1
102
RTVSPropertyOp8
 70
     1
102
RTVSPropertyOp9
 70
     1
102
RTVSPropertyOp10
 70
     1
102
RTVSPropertyOp11
 70
     1
102
RTVSPropertyOp12
 70
     1
102
RTVSPropertyOp13
 70
     1
102
RTVSPropertyOp14
 70
     1
102
RTVSPropertyOp15
 70
     1
102
RTVSPropertyOp16
 70
     1
102
RTVSPropertyOp17
 70
     1
102
RTVSPropertyOp18
 70
     1
102
RTVSPropertyOp19
 70
     1
102
RTVSPropertyOp20
 70
     1
102
RTVSPropertyOp21
 70
     1
102
RTVSPropertyOp22
 70
     1
102
RTVSPropertyOp23
 70
     1
102
RTVSPropertyOp24
 70
     1
102
RTVSPropertyOp25
 70
     1
102
RTVSPropertyOp26
 70
     1
102
RTVSPropertyOp27
 70
     1
102
RTVSPropertyOp28
 70
     1
102
RTVSPropertyOp29
 70
     1
102
RTVSPropertyOp30
 70
     1
102
RTVSPropertyOp31
 70
     1
102
RTVSPropertyOp32
 70
     1
102
RTVSPropertyOp33
 70
     1
102
RTVSPropertyOp34
 70
     1
102
RTVSPropertyOp35
 70
     1
102
RTVSPropertyOp36
 70
     1
102
RTVSPropertyOp37
 70
     1
102
RTVSPropertyOp38
 70
     1
102
RTVSPropertyOp39
 70
     1
102
RTVSPropertyOp40
 70
     1
102
RTVSPropertyOp41
 70
     1
102
RTVSPropertyOp42
 70
     1
102
RTVSPropertyOp43
 70
     1
102
RTVSPropertyOp44
 70
     1
102
RTVSPropertyOp45
 70
     1
102
RTVSPropertyOp46
 70
     1
102
RTVSPropertyOp47
 70
     1
102
RTVSPropertyOp48
 70
     1
102
RTVSPropertyOp49
 70
     1
102
RTVSPropertyOp50
 70
     1
102
RTVSPropertyOp51
 70
     0
102
RTVSPropertyOp52
 70
     0
102
RTVSPropertyOp53
 70
     1
102
RTVSPropertyOp54
 70
     1
102
RTVSPropertyOp55
 70
     1
102
RTVSPropertyOp56
 70
     1
102
RTVSPropertyOp57
 70
     1
102
RTVSPost2010Prop28
280
     1
102
RTVSPost2010PropOp28
 70
     1
102
RTVSPost2010Prop29
280
     1
102
RTVSPost2010PropOp29
 70
     1
102
RTVSPost2010Prop30
280
     0
102
RTVSPost2010PropOp30
 70
     1
102
RTVSPost2010Prop31
280
     0
102
RTVSPost2010PropOp31
 70
     1
102
RTVSPost2010Prop32
280
     0
102
RTVSPost2010PropOp32
 70
     1
102
RTVSPost2010Prop33
280
     0
102
RTVSPost2010PropOp33
 70
     1
102
RTVSPost2010Prop34
280
     0
102
RTVSPost2010PropOp34
 70
     1
102
RTVSPost2010Prop35
280
     0
102
RTVSPost2010PropOp35
 70
     1
102
RTVSPost2010Prop36
280
     0
102
RTVSPost2010PropOp36
 70
     1
102
RTVSPost2010Prop37
 90
       50
102
RTVSPost2010PropOp37
 70
     1
102
RTVSPost2010Prop38
140
0.0
102
RTVSPost2010PropOp38
 70
     1
102
RTVSPost2010Prop39
140
1.0
102
RTVSPost2010PropOp39
 70
     1
102
RTVSPost2010Prop40
 90
        0
102
RTVSPost2010PropOp40
 70
     1
102
RTVSPost2010Prop41ColorIndex
 90
       18
102
RTVSPost2010Prop41ColorRGB
 90
        0
102
RTVSPost2010PropOp41
 70
     1
102
RTVSPost2010Prop42
 90
       50
102
RTVSPost2010PropOp42
 70
     1
102
RTVSPost2010Prop43
 90
        3
102
RTVSPost2010PropOp43
 70
     1
102
RTVSPost2010Prop44ColorIndex
 90
        5
102
RTVSPost2010Prop44ColorRGB
 90
      255
102
RTVSPost2010PropOp44
 70
     1
102
RTVSPost2010Prop45
280
     0
102
RTVSPost2010PropOp45
 70
     1
102
RTVSPost2010Prop46
 90
       50
102
RTVSPost2010PropOp46
 70
     1
102
RTVSPost2010Prop47
 90
       50
102
RTVSPost2010PropOp47
 70
     1
102
RTVSPost2010Prop48
 90
       50
102
RTVSPost2010PropOp48
 70
     1
102
RTVSPost2010Prop49
280
     0
102
RTVSPost2010PropOp49
 70
     1
102
RTVSPost2010Prop50
 90
       50
102
RTVSPost2010PropOp50
 70
     1
102
RTVSPost2010Prop51ColorIndex
 90
      256
102
RTVSPost2010Prop51ColorRGB
 90
-16777216
102
RTVSPost2010PropOp51
 70
     0
102
RTVSPost2010Prop52
140
1.0
102
RTVSPost2010PropOp52
 70
     0
102
RTVSPost2010Prop53
 90
        2
102
RTVSPost2010PropOp53
 70
     1
102
RTVSPost2010Prop54
  1
strokes_ogs.tif
102
RTVSPost2010PropOp54
 70
     1
102
RTVSPost2010Prop55
280
     0
102
RTVSPost2010PropOp55
 70
     1
102
RTVSPost2010Prop56
140
1.0
102
RTVSPost2010PropOp56
 70
     1
102
RTVSPost2010Prop57
140
1.0
102
RTVSPost2010PropOp57
 70
     1
  0
XRECORD
  5
59E
102
{ACAD_REACTORS
330
59D
102
}
330
59D
100
AcDbXrecord
280
     1
102
RTVSPropertyOp0
 70
     1
102
RTVSPropertyOp1
 70
     1
102
RTVSPropertyOp2
 70
     1
102
RTVSPropertyOp3
 70
     1
102
RTVSPropertyOp4
 70
     1
102
RTVSPropertyOp5
 70
     1
102
RTVSPropertyOp6
 70
     1
102
RTVSPropertyOp7
 70
     1
102
RTVSPropertyOp8
 70
     1
102
RTVSPropertyOp9
 70
     1
102
RTVSPropertyOp10
 70
     1
102
RTVSPropertyOp11
 70
     1
102
RTVSPropertyOp12
 70
     1
102
RTVSPropertyOp13
 70
     1
102
RTVSPropertyOp14
 70
     1
102
RTVSPropertyOp15
 70
     1
102
RTVSPropertyOp16
 70
     1
102
RTVSPropertyOp17
 70
     1
102
RTVSPropertyOp18
 70
     1
102
RTVSPropertyOp19
 70
     1
102
RTVSPropertyOp20
 70
     1
102
RTVSPropertyOp21
 70
     1
102
RTVSPropertyOp22
 70
     1
102
RTVSPropertyOp23
 70
     1
102
RTVSPropertyOp24
 70
     1
102
RTVSPropertyOp25
 70
     1
102
RTVSPropertyOp26
 70
     1
102
RTVSPropertyOp27
 70
     1
102
RTVSPropertyOp28
 70
     1
102
RTVSPropertyOp29
 70
     1
102
RTVSPropertyOp30
 70
     1
102
RTVSPropertyOp31
 70
     1
102
RTVSPropertyOp32
 70
     1
102
RTVSPropertyOp33
 70
     1
102
RTVSPropertyOp34
 70
     1
102
RTVSPropertyOp35
 70
     1
102
RTVSPropertyOp36
 70
     1
102
RTVSPropertyOp37
 70
     1
102
RTVSPropertyOp38
 70
     1
102
RTVSPropertyOp39
 70
     1
102
RTVSPropertyOp40
 70
     1
102
RTVSPropertyOp41
 70
     1
102
RTVSPropertyOp42
 70
     1
102
RTVSPropertyOp43
 70
     1
102
RTVSPropertyOp44
 70
     1
102
RTVSPropertyOp45
 70
     1
102
RTVSPropertyOp46
 70
     1
102
RTVSPropertyOp47
 70
     1
102
RTVSPropertyOp48
 70
     1
102
RTVSPropertyOp49
 70
     1
102
RTVSPropertyOp50
 70
     1
102
RTVSPropertyOp51
 70
     0
102
RTVSPropertyOp52
 70
     0
102
RTVSPropertyOp53
 70
     1
102
RTVSPropertyOp54
 70
     1
102
RTVSPropertyOp55
 70
     1
102
RTVSPropertyOp56
 70
     1
102
RTVSPropertyOp57
 70
     1
102
RTVSPost2010Prop28
280
     0
102
RTVSPost2010PropOp28
 70
     1
102
RTVSPost2010Prop29
280
     1
102
RTVSPost2010PropOp29
 70
     1
102
RTVSPost2010Prop30
280
     1
102
RTVSPost2010PropOp30
 70
     1
102
RTVSPost2010Prop31
280
     0
102
RTVSPost2010PropOp31
 70
     1
102
RTVSPost2010Prop32
280
     0
102
RTVSPost2010PropOp32
 70
     1
102
RTVSPost2010Prop33
280
     0
102
RTVSPost2010PropOp33
 70
     1
102
RTVSPost2010Prop34
280
     0
102
RTVSPost2010PropOp34
 70
     1
102
RTVSPost2010Prop35
280
     0
102
RTVSPost2010PropOp35
 70
     1
102
RTVSPost2010Prop36
280
     0
102
RTVSPost2010PropOp36
 70
     1
102
RTVSPost2010Prop37
 90
       50
102
RTVSPost2010PropOp37
 70
     1
102
RTVSPost2010Prop38
140
0.0
102
RTVSPost2010PropOp38
 70
     1
102
RTVSPost2010Prop39
140
1.0
102
RTVSPost2010PropOp39
 70
     1
102
RTVSPost2010Prop40
 90
        0
102
RTVSPost2010PropOp40
 70
     1
102
RTVSPost2010Prop41ColorIndex
 90
       18
102
RTVSPost2010Prop41ColorRGB
 90
        0
102
RTVSPost2010PropOp41
 70
     1
102
RTVSPost2010Prop42
 90
       50
102
RTVSPost2010PropOp42
 70
     1
102
RTVSPost2010Prop43
 90
        3
102
RTVSPost2010PropOp43
 70
     1
102
RTVSPost2010Prop44ColorIndex
 90
        5
102
RTVSPost2010Prop44ColorRGB
 90
      255
102
RTVSPost2010PropOp44
 70
     1
102
RTVSPost2010Prop45
280
     0
102
RTVSPost2010PropOp45
 70
     1
102
RTVSPost2010Prop46
 90
       50
102
RTVSPost2010PropOp46
 70
     1
102
RTVSPost2010Prop47
 90
       50
102
RTVSPost2010PropOp47
 70
     1
102
RTVSPost2010Prop48
 90
       50
102
RTVSPost2010PropOp48
 70
     1
102
RTVSPost2010Prop49
280
     0
102
RTVSPost2010PropOp49
 70
     1
102
RTVSPost2010Prop50
 90
       50
102
RTVSPost2010PropOp50
 70
     1
102
RTVSPost2010Prop51ColorIndex
 90
      256
102
RTVSPost2010Prop51ColorRGB
 90
-16777216
102
RTVSPost2010PropOp51
 70
     0
102
RTVSPost2010Prop52
140
1.0
102
RTVSPost2010PropOp52
 70
     0
102
RTVSPost2010Prop53
 90
        2
102
RTVSPost2010PropOp53
 70
     1
102
RTVSPost2010Prop54
  1
strokes_ogs.tif
102
RTVSPost2010PropOp54
 70
     1
102
RTVSPost2010Prop55
280
     0
102
RTVSPost2010PropOp55
 70
     1
102
RTVSPost2010Prop56
140
1.0
102
RTVSPost2010PropOp56
 70
     1
102
RTVSPost2010Prop57
140
1.0
102
RTVSPost2010PropOp57
 70
     1
  0
XRECORD
  5
5A0
102
{ACAD_REACTORS
330
59F
102
}
330
59F
100
AcDbXrecord
280
     1
102
RTVSPropertyOp0
 70
     1
102
RTVSPropertyOp1
 70
     1
102
RTVSPropertyOp2
 70
     1
102
RTVSPropertyOp3
 70
     1
102
RTVSPropertyOp4
 70
     1
102
RTVSPropertyOp5
 70
     1
102
RTVSPropertyOp6
 70
     1
102
RTVSPropertyOp7
 70
     1
102
RTVSPropertyOp8
 70
     1
102
RTVSPropertyOp9
 70
     1
102
RTVSPropertyOp10
 70
     1
102
RTVSPropertyOp11
 70
     1
102
RTVSPropertyOp12
 70
     1
102
RTVSPropertyOp13
 70
     1
102
RTVSPropertyOp14
 70
     1
102
RTVSPropertyOp15
 70
     1
102
RTVSPropertyOp16
 70
     1
102
RTVSPropertyOp17
 70
     1
102
RTVSPropertyOp18
 70
     1
102
RTVSPropertyOp19
 70
     1
102
RTVSPropertyOp20
 70
     1
102
RTVSPropertyOp21
 70
     1
102
RTVSPropertyOp22
 70
     1
102
RTVSPropertyOp23
 70
     1
102
RTVSPropertyOp24
 70
     1
102
RTVSPropertyOp25
 70
     1
102
RTVSPropertyOp26
 70
     1
102
RTVSPropertyOp27
 70
     1
102
RTVSPropertyOp28
 70
     1
102
RTVSPropertyOp29
 70
     1
102
RTVSPropertyOp30
 70
     1
102
RTVSPropertyOp31
 70
     1
102
RTVSPropertyOp32
 70
     1
102
RTVSPropertyOp33
 70
     1
102
RTVSPropertyOp34
 70
     1
102
RTVSPropertyOp35
 70
     1
102
RTVSPropertyOp36
 70
     1
102
RTVSPropertyOp37
 70
     1
102
RTVSPropertyOp38
 70
     1
102
RTVSPropertyOp39
 70
     1
102
RTVSPropertyOp40
 70
     1
102
RTVSPropertyOp41
 70
     1
102
RTVSPropertyOp42
 70
     1
102
RTVSPropertyOp43
 70
     1
102
RTVSPropertyOp44
 70
     1
102
RTVSPropertyOp45
 70
     1
102
RTVSPropertyOp46
 70
     1
102
RTVSPropertyOp47
 70
     1
102
RTVSPropertyOp48
 70
     1
102
RTVSPropertyOp49
 70
     1
102
RTVSPropertyOp50
 70
     1
102
RTVSPropertyOp51
 70
     0
102
RTVSPropertyOp52
 70
     0
102
RTVSPropertyOp53
 70
     1
102
RTVSPropertyOp54
 70
     1
102
RTVSPropertyOp55
 70
     1
102
RTVSPropertyOp56
 70
     1
102
RTVSPropertyOp57
 70
     1
102
RTVSPost2010Prop28
280
     0
102
RTVSPost2010PropOp28
 70
     1
102
RTVSPost2010Prop29
280
     1
102
RTVSPost2010PropOp29
 70
     1
102
RTVSPost2010Prop30
280
     1
102
RTVSPost2010PropOp30
 70
     1
102
RTVSPost2010Prop31
280
     0
102
RTVSPost2010PropOp31
 70
     1
102
RTVSPost2010Prop32
280
     0
102
RTVSPost2010PropOp32
 70
     1
102
RTVSPost2010Prop33
280
     0
102
RTVSPost2010PropOp33
 70
     1
102
RTVSPost2010Prop34
280
     0
102
RTVSPost2010PropOp34
 70
     1
102
RTVSPost2010Prop35
280
     0
102
RTVSPost2010PropOp35
 70
     1
102
RTVSPost2010Prop36
280
     0
102
RTVSPost2010PropOp36
 70
     1
102
RTVSPost2010Prop37
 90
       50
102
RTVSPost2010PropOp37
 70
     1
102
RTVSPost2010Prop38
140
0.0
102
RTVSPost2010PropOp38
 70
     1
102
RTVSPost2010Prop39
140
1.0
102
RTVSPost2010PropOp39
 70
     1
102
RTVSPost2010Prop40
 90
        0
102
RTVSPost2010PropOp40
 70
     1
102
RTVSPost2010Prop41ColorIndex
 90
       18
102
RTVSPost2010Prop41ColorRGB
 90
        0
102
RTVSPost2010PropOp41
 70
     1
102
RTVSPost2010Prop42
 90
       50
102
RTVSPost2010PropOp42
 70
     1
102
RTVSPost2010Prop43
 90
        3
102
RTVSPost2010PropOp43
 70
     1
102
RTVSPost2010Prop44ColorIndex
 90
        5
102
RTVSPost2010Prop44ColorRGB
 90
      255
102
RTVSPost2010PropOp44
 70
     1
102
RTVSPost2010Prop45
280
     0
102
RTVSPost2010PropOp45
 70
     1
102
RTVSPost2010Prop46
 90
       50
102
RTVSPost2010PropOp46
 70
     1
102
RTVSPost2010Prop47
 90
       50
102
RTVSPost2010PropOp47
 70
     1
102
RTVSPost2010Prop48
 90
       50
102
RTVSPost2010PropOp48
 70
     1
102
RTVSPost2010Prop49
280
     0
102
RTVSPost2010PropOp49
 70
     1
102
RTVSPost2010Prop50
 90
       50
102
RTVSPost2010PropOp50
 70
     1
102
RTVSPost2010Prop51ColorIndex
 90
      256
102
RTVSPost2010Prop51ColorRGB
 90
-16777216
102
RTVSPost2010PropOp51
 70
     0
102
RTVSPost2010Prop52
140
1.0
102
RTVSPost2010PropOp52
 70
     0
102
RTVSPost2010Prop53
 90
        2
102
RTVSPost2010PropOp53
 70
     1
102
RTVSPost2010Prop54
  1
strokes_ogs.tif
102
RTVSPost2010PropOp54
 70
     1
102
RTVSPost2010Prop55
280
     0
102
RTVSPost2010PropOp55
 70
     1
102
RTVSPost2010Prop56
140
1.0
102
RTVSPost2010PropOp56
 70
     1
102
RTVSPost2010Prop57
140
1.0
102
RTVSPost2010PropOp57
 70
     1
  0
XRECORD
  5
5A2
102
{ACAD_REACTORS
330
5A1
102
}
330
5A1
100
AcDbXrecord
280
     1
102
RTVSPropertyOp0
 70
     1
102
RTVSPropertyOp1
 70
     1
102
RTVSPropertyOp2
 70
     1
102
RTVSPropertyOp3
 70
     1
102
RTVSPropertyOp4
 70
     1
102
RTVSPropertyOp5
 70
     1
102
RTVSPropertyOp6
 70
     1
102
RTVSPropertyOp7
 70
     1
102
RTVSPropertyOp8
 70
     1
102
RTVSPropertyOp9
 70
     1
102
RTVSPropertyOp10
 70
     1
102
RTVSPropertyOp11
 70
     1
102
RTVSPropertyOp12
 70
     1
102
RTVSPropertyOp13
 70
     1
102
RTVSPropertyOp14
 70
     1
102
RTVSPropertyOp15
 70
     1
102
RTVSPropertyOp16
 70
     1
102
RTVSPropertyOp17
 70
     1
102
RTVSPropertyOp18
 70
     1
102
RTVSPropertyOp19
 70
     1
102
RTVSPropertyOp20
 70
     1
102
RTVSPropertyOp21
 70
     1
102
RTVSPropertyOp22
 70
     1
102
RTVSPropertyOp23
 70
     1
102
RTVSPropertyOp24
 70
     1
102
RTVSPropertyOp25
 70
     1
102
RTVSPropertyOp26
 70
     1
102
RTVSPropertyOp27
 70
     1
102
RTVSPropertyOp28
 70
     1
102
RTVSPropertyOp29
 70
     1
102
RTVSPropertyOp30
 70
     1
102
RTVSPropertyOp31
 70
     1
102
RTVSPropertyOp32
 70
     1
102
RTVSPropertyOp33
 70
     1
102
RTVSPropertyOp34
 70
     1
102
RTVSPropertyOp35
 70
     1
102
RTVSPropertyOp36
 70
     1
102
RTVSPropertyOp37
 70
     1
102
RTVSPropertyOp38
 70
     1
102
RTVSPropertyOp39
 70
     1
102
RTVSPropertyOp40
 70
     1
102
RTVSPropertyOp41
 70
     1
102
RTVSPropertyOp42
 70
     1
102
RTVSPropertyOp43
 70
     1
102
RTVSPropertyOp44
 70
     1
102
RTVSPropertyOp45
 70
     1
102
RTVSPropertyOp46
 70
     1
102
RTVSPropertyOp47
 70
     1
102
RTVSPropertyOp48
 70
     1
102
RTVSPropertyOp49
 70
     1
102
RTVSPropertyOp50
 70
     1
102
RTVSPropertyOp51
 70
     0
102
RTVSPropertyOp52
 70
     0
102
RTVSPropertyOp53
 70
     1
102
RTVSPropertyOp54
 70
     1
102
RTVSPropertyOp55
 70
     1
102
RTVSPropertyOp56
 70
     1
102
RTVSPropertyOp57
 70
     1
102
RTVSPost2010Prop28
280
     0
102
RTVSPost2010PropOp28
 70
     1
102
RTVSPost2010Prop29
280
     1
102
RTVSPost2010PropOp29
 70
     1
102
RTVSPost2010Prop30
280
     1
102
RTVSPost2010PropOp30
 70
     1
102
RTVSPost2010Prop31
280
     0
102
RTVSPost2010PropOp31
 70
     1
102
RTVSPost2010Prop32
280
     0
102
RTVSPost2010PropOp32
 70
     1
102
RTVSPost2010Prop33
280
     0
102
RTVSPost2010PropOp33
 70
     1
102
RTVSPost2010Prop34
280
     0
102
RTVSPost2010PropOp34
 70
     1
102
RTVSPost2010Prop35
280
     0
102
RTVSPost2010PropOp35
 70
     1
102
RTVSPost2010Prop36
280
     0
102
RTVSPost2010PropOp36
 70
     1
102
RTVSPost2010Prop37
 90
       50
102
RTVSPost2010PropOp37
 70
     1
102
RTVSPost2010Prop38
140
0.0
102
RTVSPost2010PropOp38
 70
     1
102
RTVSPost2010Prop39
140
1.0
102
RTVSPost2010PropOp39
 70
     1
102
RTVSPost2010Prop40
 90
        0
102
RTVSPost2010PropOp40
 70
     1
102
RTVSPost2010Prop41ColorIndex
 90
       18
102
RTVSPost2010Prop41ColorRGB
 90
        0
102
RTVSPost2010PropOp41
 70
     1
102
RTVSPost2010Prop42
 90
       50
102
RTVSPost2010PropOp42
 70
     1
102
RTVSPost2010Prop43
 90
        3
102
RTVSPost2010PropOp43
 70
     1
102
RTVSPost2010Prop44ColorIndex
 90
        5
102
RTVSPost2010Prop44ColorRGB
 90
      255
102
RTVSPost2010PropOp44
 70
     1
102
RTVSPost2010Prop45
280
     0
102
RTVSPost2010PropOp45
 70
     1
102
RTVSPost2010Prop46
 90
       50
102
RTVSPost2010PropOp46
 70
     1
102
RTVSPost2010Prop47
 90
       50
102
RTVSPost2010PropOp47
 70
     1
102
RTVSPost2010Prop48
 90
       50
102
RTVSPost2010PropOp48
 70
     1
102
RTVSPost2010Prop49
280
     0
102
RTVSPost2010PropOp49
 70
     1
102
RTVSPost2010Prop50
 90
       50
102
RTVSPost2010PropOp50
 70
     1
102
RTVSPost2010Prop51ColorIndex
 90
      256
102
RTVSPost2010Prop51ColorRGB
 90
-16777216
102
RTVSPost2010PropOp51
 70
     0
102
RTVSPost2010Prop52
140
1.0
102
RTVSPost2010PropOp52
 70
     0
102
RTVSPost2010Prop53
 90
        2
102
RTVSPost2010PropOp53
 70
     1
102
RTVSPost2010Prop54
  1
strokes_ogs.tif
102
RTVSPost2010PropOp54
 70
     1
102
RTVSPost2010Prop55
280
     0
102
RTVSPost2010PropOp55
 70
     1
102
RTVSPost2010Prop56
140
1.0
102
RTVSPost2010PropOp56
 70
     1
102
RTVSPost2010Prop57
140
1.0
102
RTVSPost2010PropOp57
 70
     1
  0
XRECORD
  5
5A4
102
{ACAD_REACTORS
330
5A3
102
}
330
5A3
100
AcDbXrecord
280
     1
102
RTVSPropertyOp0
 70
     1
102
RTVSPropertyOp1
 70
     1
102
RTVSPropertyOp2
 70
     1
102
RTVSPropertyOp3
 70
     1
102
RTVSPropertyOp4
 70
     1
102
RTVSPropertyOp5
 70
     1
102
RTVSPropertyOp6
 70
     1
102
RTVSPropertyOp7
 70
     1
102
RTVSPropertyOp8
 70
     1
102
RTVSPropertyOp9
 70
     1
102
RTVSPropertyOp10
 70
     1
102
RTVSPropertyOp11
 70
     1
102
RTVSPropertyOp12
 70
     1
102
RTVSPropertyOp13
 70
     1
102
RTVSPropertyOp14
 70
     1
102
RTVSPropertyOp15
 70
     1
102
RTVSPropertyOp16
 70
     1
102
RTVSPropertyOp17
 70
     1
102
RTVSPropertyOp18
 70
     1
102
RTVSPropertyOp19
 70
     1
102
RTVSPropertyOp20
 70
     1
102
RTVSPropertyOp21
 70
     1
102
RTVSPropertyOp22
 70
     1
102
RTVSPropertyOp23
 70
     1
102
RTVSPropertyOp24
 70
     1
102
RTVSPropertyOp25
 70
     1
102
RTVSPropertyOp26
 70
     1
102
RTVSPropertyOp27
 70
     1
102
RTVSPropertyOp28
 70
     1
102
RTVSPropertyOp29
 70
     1
102
RTVSPropertyOp30
 70
     1
102
RTVSPropertyOp31
 70
     1
102
RTVSPropertyOp32
 70
     1
102
RTVSPropertyOp33
 70
     1
102
RTVSPropertyOp34
 70
     1
102
RTVSPropertyOp35
 70
     1
102
RTVSPropertyOp36
 70
     1
102
RTVSPropertyOp37
 70
     1
102
RTVSPropertyOp38
 70
     1
102
RTVSPropertyOp39
 70
     1
102
RTVSPropertyOp40
 70
     1
102
RTVSPropertyOp41
 70
     1
102
RTVSPropertyOp42
 70
     1
102
RTVSPropertyOp43
 70
     1
102
RTVSPropertyOp44
 70
     1
102
RTVSPropertyOp45
 70
     1
102
RTVSPropertyOp46
 70
     1
102
RTVSPropertyOp47
 70
     1
102
RTVSPropertyOp48
 70
     1
102
RTVSPropertyOp49
 70
     1
102
RTVSPropertyOp50
 70
     1
102
RTVSPropertyOp51
 70
     0
102
RTVSPropertyOp52
 70
     0
102
RTVSPropertyOp53
 70
     1
102
RTVSPropertyOp54
 70
     1
102
RTVSPropertyOp55
 70
     1
102
RTVSPropertyOp56
 70
     1
102
RTVSPropertyOp57
 70
     1
102
RTVSPost2010Prop28
280
     0
102
RTVSPost2010PropOp28
 70
     1
102
RTVSPost2010Prop29
280
     1
102
RTVSPost2010PropOp29
 70
     1
102
RTVSPost2010Prop30
280
     1
102
RTVSPost2010PropOp30
 70
     1
102
RTVSPost2010Prop31
280
     0
102
RTVSPost2010PropOp31
 70
     1
102
RTVSPost2010Prop32
280
     0
102
RTVSPost2010PropOp32
 70
     1
102
RTVSPost2010Prop33
280
     0
102
RTVSPost2010PropOp33
 70
     1
102
RTVSPost2010Prop34
280
     0
102
RTVSPost2010PropOp34
 70
     1
102
RTVSPost2010Prop35
280
     0
102
RTVSPost2010PropOp35
 70
     1
102
RTVSPost2010Prop36
280
     0
102
RTVSPost2010PropOp36
 70
     1
102
RTVSPost2010Prop37
 90
       50
102
RTVSPost2010PropOp37
 70
     1
102
RTVSPost2010Prop38
140
0.0
102
RTVSPost2010PropOp38
 70
     1
102
RTVSPost2010Prop39
140
1.0
102
RTVSPost2010PropOp39
 70
     1
102
RTVSPost2010Prop40
 90
        0
102
RTVSPost2010PropOp40
 70
     1
102
RTVSPost2010Prop41ColorIndex
 90
       18
102
RTVSPost2010Prop41ColorRGB
 90
        0
102
RTVSPost2010PropOp41
 70
     1
102
RTVSPost2010Prop42
 90
       50
102
RTVSPost2010PropOp42
 70
     1
102
RTVSPost2010Prop43
 90
        3
102
RTVSPost2010PropOp43
 70
     1
102
RTVSPost2010Prop44ColorIndex
 90
        5
102
RTVSPost2010Prop44ColorRGB
 90
      255
102
RTVSPost2010PropOp44
 70
     1
102
RTVSPost2010Prop45
280
     0
102
RTVSPost2010PropOp45
 70
     1
102
RTVSPost2010Prop46
 90
       50
102
RTVSPost2010PropOp46
 70
     1
102
RTVSPost2010Prop47
 90
       50
102
RTVSPost2010PropOp47
 70
     1
102
RTVSPost2010Prop48
 90
       50
102
RTVSPost2010PropOp48
 70
     1
102
RTVSPost2010Prop49
280
     0
102
RTVSPost2010PropOp49
 70
     1
102
RTVSPost2010Prop50
 90
       50
102
RTVSPost2010PropOp50
 70
     1
102
RTVSPost2010Prop51ColorIndex
 90
      256
102
RTVSPost2010Prop51ColorRGB
 90
-16777216
102
RTVSPost2010PropOp51
 70
     0
102
RTVSPost2010Prop52
140
1.0
102
RTVSPost2010PropOp52
 70
     0
102
RTVSPost2010Prop53
 90
        2
102
RTVSPost2010PropOp53
 70
     1
102
RTVSPost2010Prop54
  1
strokes_ogs.tif
102
RTVSPost2010PropOp54
 70
     1
102
RTVSPost2010Prop55
280
     0
102
RTVSPost2010PropOp55
 70
     1
102
RTVSPost2010Prop56
140
1.0
102
RTVSPost2010PropOp56
 70
     1
102
RTVSPost2010Prop57
140
1.0
102
RTVSPost2010PropOp57
 70
     1
  0
XRECORD
  5
5A6
102
{ACAD_REACTORS
330
5A5
102
}
330
5A5
100
AcDbXrecord
280
     1
102
RTVSPropertyOp0
 70
     1
102
RTVSPropertyOp1
 70
     1
102
RTVSPropertyOp2
 70
     1
102
RTVSPropertyOp3
 70
     1
102
RTVSPropertyOp4
 70
     1
102
RTVSPropertyOp5
 70
     1
102
RTVSPropertyOp6
 70
     1
102
RTVSPropertyOp7
 70
     1
102
RTVSPropertyOp8
 70
     1
102
RTVSPropertyOp9
 70
     1
102
RTVSPropertyOp10
 70
     1
102
RTVSPropertyOp11
 70
     1
102
RTVSPropertyOp12
 70
     1
102
RTVSPropertyOp13
 70
     1
102
RTVSPropertyOp14
 70
     1
102
RTVSPropertyOp15
 70
     1
102
RTVSPropertyOp16
 70
     1
102
RTVSPropertyOp17
 70
     1
102
RTVSPropertyOp18
 70
     1
102
RTVSPropertyOp19
 70
     1
102
RTVSPropertyOp20
 70
     1
102
RTVSPropertyOp21
 70
     1
102
RTVSPropertyOp22
 70
     1
102
RTVSPropertyOp23
 70
     1
102
RTVSPropertyOp24
 70
     1
102
RTVSPropertyOp25
 70
     1
102
RTVSPropertyOp26
 70
     1
102
RTVSPropertyOp27
 70
     1
102
RTVSPropertyOp28
 70
     1
102
RTVSPropertyOp29
 70
     1
102
RTVSPropertyOp30
 70
     1
102
RTVSPropertyOp31
 70
     1
102
RTVSPropertyOp32
 70
     1
102
RTVSPropertyOp33
 70
     1
102
RTVSPropertyOp34
 70
     1
102
RTVSPropertyOp35
 70
     1
102
RTVSPropertyOp36
 70
     1
102
RTVSPropertyOp37
 70
     1
102
RTVSPropertyOp38
 70
     1
102
RTVSPropertyOp39
 70
     1
102
RTVSPropertyOp40
 70
     1
102
RTVSPropertyOp41
 70
     1
102
RTVSPropertyOp42
 70
     1
102
RTVSPropertyOp43
 70
     1
102
RTVSPropertyOp44
 70
     1
102
RTVSPropertyOp45
 70
     1
102
RTVSPropertyOp46
 70
     1
102
RTVSPropertyOp47
 70
     1
102
RTVSPropertyOp48
 70
     1
102
RTVSPropertyOp49
 70
     1
102
RTVSPropertyOp50
 70
     1
102
RTVSPropertyOp51
 70
     0
102
RTVSPropertyOp52
 70
     0
102
RTVSPropertyOp53
 70
     1
102
RTVSPropertyOp54
 70
     1
102
RTVSPropertyOp55
 70
     1
102
RTVSPropertyOp56
 70
     1
102
RTVSPropertyOp57
 70
     1
102
RTVSPost2010Prop28
280
     0
102
RTVSPost2010PropOp28
 70
     1
102
RTVSPost2010Prop29
280
     1
102
RTVSPost2010PropOp29
 70
     1
102
RTVSPost2010Prop30
280
     1
102
RTVSPost2010PropOp30
 70
     1
102
RTVSPost2010Prop31
280
     0
102
RTVSPost2010PropOp31
 70
     1
102
RTVSPost2010Prop32
280
     0
102
RTVSPost2010PropOp32
 70
     1
102
RTVSPost2010Prop33
280
     0
102
RTVSPost2010PropOp33
 70
     1
102
RTVSPost2010Prop34
280
     0
102
RTVSPost2010PropOp34
 70
     1
102
RTVSPost2010Prop35
280
     0
102
RTVSPost2010PropOp35
 70
     1
102
RTVSPost2010Prop36
280
     0
102
RTVSPost2010PropOp36
 70
     1
102
RTVSPost2010Prop37
 90
       50
102
RTVSPost2010PropOp37
 70
     1
102
RTVSPost2010Prop38
140
0.0
102
RTVSPost2010PropOp38
 70
     1
102
RTVSPost2010Prop39
140
1.0
102
RTVSPost2010PropOp39
 70
     1
102
RTVSPost2010Prop40
 90
        0
102
RTVSPost2010PropOp40
 70
     1
102
RTVSPost2010Prop41ColorIndex
 90
       18
102
RTVSPost2010Prop41ColorRGB
 90
        0
102
RTVSPost2010PropOp41
 70
     1
102
RTVSPost2010Prop42
 90
       50
102
RTVSPost2010PropOp42
 70
     1
102
RTVSPost2010Prop43
 90
        3
102
RTVSPost2010PropOp43
 70
     1
102
RTVSPost2010Prop44ColorIndex
 90
        5
102
RTVSPost2010Prop44ColorRGB
 90
      255
102
RTVSPost2010PropOp44
 70
     1
102
RTVSPost2010Prop45
280
     0
102
RTVSPost2010PropOp45
 70
     1
102
RTVSPost2010Prop46
 90
       50
102
RTVSPost2010PropOp46
 70
     1
102
RTVSPost2010Prop47
 90
       50
102
RTVSPost2010PropOp47
 70
     1
102
RTVSPost2010Prop48
 90
       50
102
RTVSPost2010PropOp48
 70
     1
102
RTVSPost2010Prop49
280
     0
102
RTVSPost2010PropOp49
 70
     1
102
RTVSPost2010Prop50
 90
       50
102
RTVSPost2010PropOp50
 70
     1
102
RTVSPost2010Prop51ColorIndex
 90
      256
102
RTVSPost2010Prop51ColorRGB
 90
-16777216
102
RTVSPost2010PropOp51
 70
     0
102
RTVSPost2010Prop52
140
1.0
102
RTVSPost2010PropOp52
 70
     0
102
RTVSPost2010Prop53
 90
        2
102
RTVSPost2010PropOp53
 70
     1
102
RTVSPost2010Prop54
  1
strokes_ogs.tif
102
RTVSPost2010PropOp54
 70
     1
102
RTVSPost2010Prop55
280
     0
102
RTVSPost2010PropOp55
 70
     1
102
RTVSPost2010Prop56
140
1.0
102
RTVSPost2010PropOp56
 70
     1
102
RTVSPost2010Prop57
140
1.0
102
RTVSPost2010PropOp57
 70
     1
  0
XRECORD
  5
5A8
102
{ACAD_REACTORS
330
5A7
102
}
330
5A7
100
AcDbXrecord
280
     1
102
RTVSPropertyOp0
 70
     0
102
RTVSPropertyOp1
 70
     0
102
RTVSPropertyOp2
 70
     0
102
RTVSPropertyOp3
 70
     0
102
RTVSPropertyOp4
 70
     0
102
RTVSPropertyOp5
 70
     0
102
RTVSPropertyOp6
 70
     0
102
RTVSPropertyOp7
 70
     0
102
RTVSPropertyOp8
 70
     0
102
RTVSPropertyOp9
 70
     0
102
RTVSPropertyOp10
 70
     0
102
RTVSPropertyOp11
 70
     0
102
RTVSPropertyOp12
 70
     0
102
RTVSPropertyOp13
 70
     0
102
RTVSPropertyOp14
 70
     2
102
RTVSPropertyOp15
 70
     0
102
RTVSPropertyOp16
 70
     0
102
RTVSPropertyOp17
 70
     0
102
RTVSPropertyOp18
 70
     0
102
RTVSPropertyOp19
 70
     0
102
RTVSPropertyOp20
 70
     0
102
RTVSPropertyOp21
 70
     0
102
RTVSPropertyOp22
 70
     0
102
RTVSPropertyOp23
 70
     0
102
RTVSPropertyOp24
 70
     0
102
RTVSPropertyOp25
 70
     0
102
RTVSPropertyOp26
 70
     0
102
RTVSPropertyOp27
 70
     0
102
RTVSPropertyOp28
 70
     0
102
RTVSPropertyOp29
 70
     0
102
RTVSPropertyOp30
 70
     0
102
RTVSPropertyOp31
 70
     0
102
RTVSPropertyOp32
 70
     0
102
RTVSPropertyOp33
 70
     0
102
RTVSPropertyOp34
 70
     0
102
RTVSPropertyOp35
 70
     0
102
RTVSPropertyOp36
 70
     0
102
RTVSPropertyOp37
 70
     0
102
RTVSPropertyOp38
 70
     0
102
RTVSPropertyOp39
 70
     0
102
RTVSPropertyOp40
 70
     0
102
RTVSPropertyOp41
 70
     0
102
RTVSPropertyOp42
 70
     0
102
RTVSPropertyOp43
 70
     0
102
RTVSPropertyOp44
 70
     0
102
RTVSPropertyOp45
 70
     0
102
RTVSPropertyOp46
 70
     0
102
RTVSPropertyOp47
 70
     0
102
RTVSPropertyOp48
 70
     0
102
RTVSPropertyOp49
 70
     0
102
RTVSPropertyOp50
 70
     0
102
RTVSPropertyOp51
 70
     0
102
RTVSPropertyOp52
 70
     0
102
RTVSPropertyOp53
 70
     0
102
RTVSPropertyOp54
 70
     0
102
RTVSPropertyOp55
 70
     0
102
RTVSPropertyOp56
 70
     0
102
RTVSPropertyOp57
 70
     0
102
RTVSPost2010Prop28
280
     0
102
RTVSPost2010PropOp28
 70
     0
102
RTVSPost2010Prop29
280
     1
102
RTVSPost2010PropOp29
 70
     0
102
RTVSPost2010Prop30
280
     1
102
RTVSPost2010PropOp30
 70
     0
102
RTVSPost2010Prop31
280
     0
102
RTVSPost2010PropOp31
 70
     0
102
RTVSPost2010Prop32
280
     0
102
RTVSPost2010PropOp32
 70
     0
102
RTVSPost2010Prop33
280
     0
102
RTVSPost2010PropOp33
 70
     0
102
RTVSPost2010Prop34
280
     0
102
RTVSPost2010PropOp34
 70
     0
102
RTVSPost2010Prop35
280
     0
102
RTVSPost2010PropOp35
 70
     0
102
RTVSPost2010Prop36
280
     0
102
RTVSPost2010PropOp36
 70
     0
102
RTVSPost2010Prop37
 90
       50
102
RTVSPost2010PropOp37
 70
     0
102
RTVSPost2010Prop38
140
0.0
102
RTVSPost2010PropOp38
 70
     0
102
RTVSPost2010Prop39
140
1.0
102
RTVSPost2010PropOp39
 70
     0
102
RTVSPost2010Prop40
 90
        0
102
RTVSPost2010PropOp40
 70
     0
102
RTVSPost2010Prop41ColorIndex
 90
       18
102
RTVSPost2010Prop41ColorRGB
 90
        0
102
RTVSPost2010PropOp41
 70
     0
102
RTVSPost2010Prop42
 90
       50
102
RTVSPost2010PropOp42
 70
     0
102
RTVSPost2010Prop43
 90
        3
102
RTVSPost2010PropOp43
 70
     0
102
RTVSPost2010Prop44ColorIndex
 90
        5
102
RTVSPost2010Prop44ColorRGB
 90
      255
102
RTVSPost2010PropOp44
 70
     0
102
RTVSPost2010Prop45
280
     0
102
RTVSPost2010PropOp45
 70
     0
102
RTVSPost2010Prop46
 90
       50
102
RTVSPost2010PropOp46
 70
     0
102
RTVSPost2010Prop47
 90
       50
102
RTVSPost2010PropOp47
 70
     0
102
RTVSPost2010Prop48
 90
       50
102
RTVSPost2010PropOp48
 70
     0
102
RTVSPost2010Prop49
280
     0
102
RTVSPost2010PropOp49
 70
     0
102
RTVSPost2010Prop50
 90
       50
102
RTVSPost2010PropOp50
 70
     0
102
RTVSPost2010Prop51ColorIndex
 90
      256
102
RTVSPost2010Prop51ColorRGB
 90
-16777216
102
RTVSPost2010PropOp51
 70
     0
102
RTVSPost2010Prop52
140
1.0
102
RTVSPost2010PropOp52
 70
     0
102
RTVSPost2010Prop53
 90
        2
102
RTVSPost2010PropOp53
 70
     0
102
RTVSPost2010Prop54
  1
strokes_ogs.tif
102
RTVSPost2010PropOp54
 70
     0
102
RTVSPost2010Prop55
280
     0
102
RTVSPost2010PropOp55
 70
     0
102
RTVSPost2010Prop56
140
1.0
102
RTVSPost2010PropOp56
 70
     0
102
RTVSPost2010Prop57
140
1.0
102
RTVSPost2010PropOp57
 70
     0
  0
XRECORD
  5
5AA
102
{ACAD_REACTORS
330
5A9
102
}
330
5A9
100
AcDbXrecord
280
     1
102
RTVSPropertyOp0
 70
     1
102
RTVSPropertyOp1
 70
     1
102
RTVSPropertyOp2
 70
     1
102
RTVSPropertyOp3
 70
     1
102
RTVSPropertyOp4
 70
     1
102
RTVSPropertyOp5
 70
     1
102
RTVSPropertyOp6
 70
     1
102
RTVSPropertyOp7
 70
     1
102
RTVSPropertyOp8
 70
     1
102
RTVSPropertyOp9
 70
     1
102
RTVSPropertyOp10
 70
     1
102
RTVSPropertyOp11
 70
     1
102
RTVSPropertyOp12
 70
     1
102
RTVSPropertyOp13
 70
     1
102
RTVSPropertyOp14
 70
     1
102
RTVSPropertyOp15
 70
     1
102
RTVSPropertyOp16
 70
     1
102
RTVSPropertyOp17
 70
     1
102
RTVSPropertyOp18
 70
     1
102
RTVSPropertyOp19
 70
     1
102
RTVSPropertyOp20
 70
     1
102
RTVSPropertyOp21
 70
     1
102
RTVSPropertyOp22
 70
     1
102
RTVSPropertyOp23
 70
     1
102
RTVSPropertyOp24
 70
     1
102
RTVSPropertyOp25
 70
     1
102
RTVSPropertyOp26
 70
     1
102
RTVSPropertyOp27
 70
     1
102
RTVSPropertyOp28
 70
     1
102
RTVSPropertyOp29
 70
     1
102
RTVSPropertyOp30
 70
     1
102
RTVSPropertyOp31
 70
     1
102
RTVSPropertyOp32
 70
     1
102
RTVSPropertyOp33
 70
     1
102
RTVSPropertyOp34
 70
     1
102
RTVSPropertyOp35
 70
     1
102
RTVSPropertyOp36
 70
     1
102
RTVSPropertyOp37
 70
     1
102
RTVSPropertyOp38
 70
     1
102
RTVSPropertyOp39
 70
     1
102
RTVSPropertyOp40
 70
     1
102
RTVSPropertyOp41
 70
     1
102
RTVSPropertyOp42
 70
     1
102
RTVSPropertyOp43
 70
     1
102
RTVSPropertyOp44
 70
     1
102
RTVSPropertyOp45
 70
     1
102
RTVSPropertyOp46
 70
     1
102
RTVSPropertyOp47
 70
     1
102
RTVSPropertyOp48
 70
     1
102
RTVSPropertyOp49
 70
     1
102
RTVSPropertyOp50
 70
     1
102
RTVSPropertyOp51
 70
     0
102
RTVSPropertyOp52
 70
     0
102
RTVSPropertyOp53
 70
     1
102
RTVSPropertyOp54
 70
     1
102
RTVSPropertyOp55
 70
     1
102
RTVSPropertyOp56
 70
     1
102
RTVSPropertyOp57
 70
     1
102
RTVSPost2010Prop28
280
     0
102
RTVSPost2010PropOp28
 70
     1
102
RTVSPost2010Prop29
280
     1
102
RTVSPost2010PropOp29
 70
     1
102
RTVSPost2010Prop30
280
     1
102
RTVSPost2010PropOp30
 70
     1
102
RTVSPost2010Prop31
280
     0
102
RTVSPost2010PropOp31
 70
     1
102
RTVSPost2010Prop32
280
     0
102
RTVSPost2010PropOp32
 70
     1
102
RTVSPost2010Prop33
280
     0
102
RTVSPost2010PropOp33
 70
     1
102
RTVSPost2010Prop34
280
     0
102
RTVSPost2010PropOp34
 70
     1
102
RTVSPost2010Prop35
280
     0
102
RTVSPost2010PropOp35
 70
     1
102
RTVSPost2010Prop36
280
     0
102
RTVSPost2010PropOp36
 70
     1
102
RTVSPost2010Prop37
 90
       50
102
RTVSPost2010PropOp37
 70
     1
102
RTVSPost2010Prop38
140
0.0
102
RTVSPost2010PropOp38
 70
     1
102
RTVSPost2010Prop39
140
1.0
102
RTVSPost2010PropOp39
 70
     1
102
RTVSPost2010Prop40
 90
        0
102
RTVSPost2010PropOp40
 70
     1
102
RTVSPost2010Prop41ColorIndex
 90
       18
102
RTVSPost2010Prop41ColorRGB
 90
        0
102
RTVSPost2010PropOp41
 70
     1
102
RTVSPost2010Prop42
 90
       50
102
RTVSPost2010PropOp42
 70
     1
102
RTVSPost2010Prop43
 90
        3
102
RTVSPost2010PropOp43
 70
     1
102
RTVSPost2010Prop44ColorIndex
 90
        5
102
RTVSPost2010Prop44ColorRGB
 90
      255
102
RTVSPost2010PropOp44
 70
     1
102
RTVSPost2010Prop45
280
     0
102
RTVSPost2010PropOp45
 70
     1
102
RTVSPost2010Prop46
 90
       50
102
RTVSPost2010PropOp46
 70
     1
102
RTVSPost2010Prop47
 90
       50
102
RTVSPost2010PropOp47
 70
     1
102
RTVSPost2010Prop48
 90
       50
102
RTVSPost2010PropOp48
 70
     1
102
RTVSPost2010Prop49
280
     0
102
RTVSPost2010PropOp49
 70
     1
102
RTVSPost2010Prop50
 90
       50
102
RTVSPost2010PropOp50
 70
     1
102
RTVSPost2010Prop51ColorIndex
 90
      256
102
RTVSPost2010Prop51ColorRGB
 90
-16777216
102
RTVSPost2010PropOp51
 70
     0
102
RTVSPost2010Prop52
140
1.0
102
RTVSPost2010PropOp52
 70
     0
102
RTVSPost2010Prop53
 90
        2
102
RTVSPost2010PropOp53
 70
     1
102
RTVSPost2010Prop54
  1
strokes_ogs.tif
102
RTVSPost2010PropOp54
 70
     1
102
RTVSPost2010Prop55
280
     0
102
RTVSPost2010PropOp55
 70
     1
102
RTVSPost2010Prop56
140
1.0
102
RTVSPost2010PropOp56
 70
     1
102
RTVSPost2010Prop57
140
1.0
102
RTVSPost2010PropOp57
 70
     1
  0
XRECORD
  5
5AC
102
{ACAD_REACTORS
330
5AB
102
}
330
5AB
100
AcDbXrecord
280
     1
102
RTVSPropertyOp0
 70
     1
102
RTVSPropertyOp1
 70
     1
102
RTVSPropertyOp2
 70
     1
102
RTVSPropertyOp3
 70
     1
102
RTVSPropertyOp4
 70
     1
102
RTVSPropertyOp5
 70
     1
102
RTVSPropertyOp6
 70
     1
102
RTVSPropertyOp7
 70
     1
102
RTVSPropertyOp8
 70
     1
102
RTVSPropertyOp9
 70
     1
102
RTVSPropertyOp10
 70
     1
102
RTVSPropertyOp11
 70
     1
102
RTVSPropertyOp12
 70
     1
102
RTVSPropertyOp13
 70
     1
102
RTVSPropertyOp14
 70
     1
102
RTVSPropertyOp15
 70
     1
102
RTVSPropertyOp16
 70
     1
102
RTVSPropertyOp17
 70
     1
102
RTVSPropertyOp18
 70
     1
102
RTVSPropertyOp19
 70
     1
102
RTVSPropertyOp20
 70
     1
102
RTVSPropertyOp21
 70
     1
102
RTVSPropertyOp22
 70
     1
102
RTVSPropertyOp23
 70
     1
102
RTVSPropertyOp24
 70
     1
102
RTVSPropertyOp25
 70
     1
102
RTVSPropertyOp26
 70
     1
102
RTVSPropertyOp27
 70
     1
102
RTVSPropertyOp28
 70
     1
102
RTVSPropertyOp29
 70
     1
102
RTVSPropertyOp30
 70
     1
102
RTVSPropertyOp31
 70
     1
102
RTVSPropertyOp32
 70
     1
102
RTVSPropertyOp33
 70
     1
102
RTVSPropertyOp34
 70
     1
102
RTVSPropertyOp35
 70
     1
102
RTVSPropertyOp36
 70
     1
102
RTVSPropertyOp37
 70
     1
102
RTVSPropertyOp38
 70
     1
102
RTVSPropertyOp39
 70
     1
102
RTVSPropertyOp40
 70
     1
102
RTVSPropertyOp41
 70
     1
102
RTVSPropertyOp42
 70
     1
102
RTVSPropertyOp43
 70
     1
102
RTVSPropertyOp44
 70
     1
102
RTVSPropertyOp45
 70
     1
102
RTVSPropertyOp46
 70
     1
102
RTVSPropertyOp47
 70
     1
102
RTVSPropertyOp48
 70
     1
102
RTVSPropertyOp49
 70
     1
102
RTVSPropertyOp50
 70
     1
102
RTVSPropertyOp51
 70
     0
102
RTVSPropertyOp52
 70
     0
102
RTVSPropertyOp53
 70
     1
102
RTVSPropertyOp54
 70
     1
102
RTVSPropertyOp55
 70
     1
102
RTVSPropertyOp56
 70
     1
102
RTVSPropertyOp57
 70
     1
102
RTVSPost2010Prop28
280
     0
102
RTVSPost2010PropOp28
 70
     1
102
RTVSPost2010Prop29
280
     1
102
RTVSPost2010PropOp29
 70
     1
102
RTVSPost2010Prop30
280
     1
102
RTVSPost2010PropOp30
 70
     1
102
RTVSPost2010Prop31
280
     0
102
RTVSPost2010PropOp31
 70
     1
102
RTVSPost2010Prop32
280
     0
102
RTVSPost2010PropOp32
 70
     1
102
RTVSPost2010Prop33
280
     0
102
RTVSPost2010PropOp33
 70
     1
102
RTVSPost2010Prop34
280
     0
102
RTVSPost2010PropOp34
 70
     1
102
RTVSPost2010Prop35
280
     0
102
RTVSPost2010PropOp35
 70
     1
102
RTVSPost2010Prop36
280
     0
102
RTVSPost2010PropOp36
 70
     1
102
RTVSPost2010Prop37
 90
       50
102
RTVSPost2010PropOp37
 70
     1
102
RTVSPost2010Prop38
140
0.0
102
RTVSPost2010PropOp38
 70
     1
102
RTVSPost2010Prop39
140
1.0
102
RTVSPost2010PropOp39
 70
     1
102
RTVSPost2010Prop40
 90
        0
102
RTVSPost2010PropOp40
 70
     1
102
RTVSPost2010Prop41ColorIndex
 90
       18
102
RTVSPost2010Prop41ColorRGB
 90
        0
102
RTVSPost2010PropOp41
 70
     1
102
RTVSPost2010Prop42
 90
       50
102
RTVSPost2010PropOp42
 70
     1
102
RTVSPost2010Prop43
 90
        3
102
RTVSPost2010PropOp43
 70
     1
102
RTVSPost2010Prop44ColorIndex
 90
        5
102
RTVSPost2010Prop44ColorRGB
 90
      255
102
RTVSPost2010PropOp44
 70
     1
102
RTVSPost2010Prop45
280
     0
102
RTVSPost2010PropOp45
 70
     1
102
RTVSPost2010Prop46
 90
       50
102
RTVSPost2010PropOp46
 70
     1
102
RTVSPost2010Prop47
 90
       50
102
RTVSPost2010PropOp47
 70
     1
102
RTVSPost2010Prop48
 90
       50
102
RTVSPost2010PropOp48
 70
     1
102
RTVSPost2010Prop49
280
     0
102
RTVSPost2010PropOp49
 70
     1
102
RTVSPost2010Prop50
 90
       50
102
RTVSPost2010PropOp50
 70
     1
102
RTVSPost2010Prop51ColorIndex
 90
      256
102
RTVSPost2010Prop51ColorRGB
 90
-16777216
102
RTVSPost2010PropOp51
 70
     0
102
RTVSPost2010Prop52
140
1.0
102
RTVSPost2010PropOp52
 70
     0
102
RTVSPost2010Prop53
 90
        2
102
RTVSPost2010PropOp53
 70
     1
102
RTVSPost2010Prop54
  1
strokes_ogs.tif
102
RTVSPost2010PropOp54
 70
     1
102
RTVSPost2010Prop55
280
     0
102
RTVSPost2010PropOp55
 70
     1
102
RTVSPost2010Prop56
140
1.0
102
RTVSPost2010PropOp56
 70
     1
102
RTVSPost2010Prop57
140
1.0
102
RTVSPost2010PropOp57
 70
     1
  0
XRECORD
  5
5AE
102
{ACAD_REACTORS
330
5AD
102
}
330
5AD
100
AcDbXrecord
280
     1
102
RTVSPropertyOp0
 70
     1
102
RTVSPropertyOp1
 70
     1
102
RTVSPropertyOp2
 70
     1
102
RTVSPropertyOp3
 70
     1
102
RTVSPropertyOp4
 70
     1
102
RTVSPropertyOp5
 70
     1
102
RTVSPropertyOp6
 70
     1
102
RTVSPropertyOp7
 70
     1
102
RTVSPropertyOp8
 70
     1
102
RTVSPropertyOp9
 70
     1
102
RTVSPropertyOp10
 70
     1
102
RTVSPropertyOp11
 70
     1
102
RTVSPropertyOp12
 70
     1
102
RTVSPropertyOp13
 70
     1
102
RTVSPropertyOp14
 70
     1
102
RTVSPropertyOp15
 70
     1
102
RTVSPropertyOp16
 70
     1
102
RTVSPropertyOp17
 70
     1
102
RTVSPropertyOp18
 70
     1
102
RTVSPropertyOp19
 70
     1
102
RTVSPropertyOp20
 70
     1
102
RTVSPropertyOp21
 70
     1
102
RTVSPropertyOp22
 70
     1
102
RTVSPropertyOp23
 70
     1
102
RTVSPropertyOp24
 70
     1
102
RTVSPropertyOp25
 70
     1
102
RTVSPropertyOp26
 70
     1
102
RTVSPropertyOp27
 70
     1
102
RTVSPropertyOp28
 70
     1
102
RTVSPropertyOp29
 70
     1
102
RTVSPropertyOp30
 70
     1
102
RTVSPropertyOp31
 70
     1
102
RTVSPropertyOp32
 70
     1
102
RTVSPropertyOp33
 70
     1
102
RTVSPropertyOp34
 70
     1
102
RTVSPropertyOp35
 70
     1
102
RTVSPropertyOp36
 70
     1
102
RTVSPropertyOp37
 70
     1
102
RTVSPropertyOp38
 70
     1
102
RTVSPropertyOp39
 70
     1
102
RTVSPropertyOp40
 70
     1
102
RTVSPropertyOp41
 70
     1
102
RTVSPropertyOp42
 70
     1
102
RTVSPropertyOp43
 70
     1
102
RTVSPropertyOp44
 70
     1
102
RTVSPropertyOp45
 70
     1
102
RTVSPropertyOp46
 70
     1
102
RTVSPropertyOp47
 70
     1
102
RTVSPropertyOp48
 70
     1
102
RTVSPropertyOp49
 70
     1
102
RTVSPropertyOp50
 70
     1
102
RTVSPropertyOp51
 70
     0
102
RTVSPropertyOp52
 70
     0
102
RTVSPropertyOp53
 70
     1
102
RTVSPropertyOp54
 70
     1
102
RTVSPropertyOp55
 70
     1
102
RTVSPropertyOp56
 70
     1
102
RTVSPropertyOp57
 70
     1
102
RTVSPost2010Prop28
280
     0
102
RTVSPost2010PropOp28
 70
     1
102
RTVSPost2010Prop29
280
     1
102
RTVSPost2010PropOp29
 70
     1
102
RTVSPost2010Prop30
280
     1
102
RTVSPost2010PropOp30
 70
     1
102
RTVSPost2010Prop31
280
     0
102
RTVSPost2010PropOp31
 70
     1
102
RTVSPost2010Prop32
280
     0
102
RTVSPost2010PropOp32
 70
     1
102
RTVSPost2010Prop33
280
     0
102
RTVSPost2010PropOp33
 70
     1
102
RTVSPost2010Prop34
280
     0
102
RTVSPost2010PropOp34
 70
     1
102
RTVSPost2010Prop35
280
     0
102
RTVSPost2010PropOp35
 70
     1
102
RTVSPost2010Prop36
280
     0
102
RTVSPost2010PropOp36
 70
     1
102
RTVSPost2010Prop37
 90
       50
102
RTVSPost2010PropOp37
 70
     1
102
RTVSPost2010Prop38
140
0.0
102
RTVSPost2010PropOp38
 70
     1
102
RTVSPost2010Prop39
140
1.0
102
RTVSPost2010PropOp39
 70
     1
102
RTVSPost2010Prop40
 90
        0
102
RTVSPost2010PropOp40
 70
     1
102
RTVSPost2010Prop41ColorIndex
 90
       18
102
RTVSPost2010Prop41ColorRGB
 90
        0
102
RTVSPost2010PropOp41
 70
     1
102
RTVSPost2010Prop42
 90
       50
102
RTVSPost2010PropOp42
 70
     1
102
RTVSPost2010Prop43
 90
        3
102
RTVSPost2010PropOp43
 70
     1
102
RTVSPost2010Prop44ColorIndex
 90
        5
102
RTVSPost2010Prop44ColorRGB
 90
      255
102
RTVSPost2010PropOp44
 70
     1
102
RTVSPost2010Prop45
280
     0
102
RTVSPost2010PropOp45
 70
     1
102
RTVSPost2010Prop46
 90
       50
102
RTVSPost2010PropOp46
 70
     1
102
RTVSPost2010Prop47
 90
       50
102
RTVSPost2010PropOp47
 70
     1
102
RTVSPost2010Prop48
 90
       50
102
RTVSPost2010PropOp48
 70
     1
102
RTVSPost2010Prop49
280
     0
102
RTVSPost2010PropOp49
 70
     1
102
RTVSPost2010Prop50
 90
       50
102
RTVSPost2010PropOp50
 70
     1
102
RTVSPost2010Prop51ColorIndex
 90
      256
102
RTVSPost2010Prop51ColorRGB
 90
-16777216
102
RTVSPost2010PropOp51
 70
     0
102
RTVSPost2010Prop52
140
1.0
102
RTVSPost2010PropOp52
 70
     0
102
RTVSPost2010Prop53
 90
        2
102
RTVSPost2010PropOp53
 70
     1
102
RTVSPost2010Prop54
  1
strokes_ogs.tif
102
RTVSPost2010PropOp54
 70
     1
102
RTVSPost2010Prop55
280
     0
102
RTVSPost2010PropOp55
 70
     1
102
RTVSPost2010Prop56
140
1.0
102
RTVSPost2010PropOp56
 70
     1
102
RTVSPost2010Prop57
140
1.0
102
RTVSPost2010PropOp57
 70
     1
  0
XRECORD
  5
5B0
102
{ACAD_REACTORS
330
5AF
102
}
330
5AF
100
AcDbXrecord
280
     1
102
RTVSPropertyOp0
 70
     1
102
RTVSPropertyOp1
 70
     1
102
RTVSPropertyOp2
 70
     1
102
RTVSPropertyOp3
 70
     1
102
RTVSPropertyOp4
 70
     1
102
RTVSPropertyOp5
 70
     1
102
RTVSPropertyOp6
 70
     1
102
RTVSPropertyOp7
 70
     1
102
RTVSPropertyOp8
 70
     1
102
RTVSPropertyOp9
 70
     1
102
RTVSPropertyOp10
 70
     1
102
RTVSPropertyOp11
 70
     1
102
RTVSPropertyOp12
 70
     1
102
RTVSPropertyOp13
 70
     1
102
RTVSPropertyOp14
 70
     1
102
RTVSPropertyOp15
 70
     1
102
RTVSPropertyOp16
 70
     1
102
RTVSPropertyOp17
 70
     1
102
RTVSPropertyOp18
 70
     1
102
RTVSPropertyOp19
 70
     1
102
RTVSPropertyOp20
 70
     1
102
RTVSPropertyOp21
 70
     1
102
RTVSPropertyOp22
 70
     1
102
RTVSPropertyOp23
 70
     1
102
RTVSPropertyOp24
 70
     1
102
RTVSPropertyOp25
 70
     1
102
RTVSPropertyOp26
 70
     1
102
RTVSPropertyOp27
 70
     1
102
RTVSPropertyOp28
 70
     1
102
RTVSPropertyOp29
 70
     1
102
RTVSPropertyOp30
 70
     1
102
RTVSPropertyOp31
 70
     1
102
RTVSPropertyOp32
 70
     1
102
RTVSPropertyOp33
 70
     1
102
RTVSPropertyOp34
 70
     1
102
RTVSPropertyOp35
 70
     1
102
RTVSPropertyOp36
 70
     1
102
RTVSPropertyOp37
 70
     1
102
RTVSPropertyOp38
 70
     1
102
RTVSPropertyOp39
 70
     1
102
RTVSPropertyOp40
 70
     1
102
RTVSPropertyOp41
 70
     1
102
RTVSPropertyOp42
 70
     1
102
RTVSPropertyOp43
 70
     1
102
RTVSPropertyOp44
 70
     1
102
RTVSPropertyOp45
 70
     1
102
RTVSPropertyOp46
 70
     1
102
RTVSPropertyOp47
 70
     1
102
RTVSPropertyOp48
 70
     1
102
RTVSPropertyOp49
 70
     1
102
RTVSPropertyOp50
 70
     1
102
RTVSPropertyOp51
 70
     0
102
RTVSPropertyOp52
 70
     0
102
RTVSPropertyOp53
 70
     1
102
RTVSPropertyOp54
 70
     1
102
RTVSPropertyOp55
 70
     1
102
RTVSPropertyOp56
 70
     1
102
RTVSPropertyOp57
 70
     1
102
RTVSPost2010Prop28
280
     0
102
RTVSPost2010PropOp28
 70
     1
102
RTVSPost2010Prop29
280
     1
102
RTVSPost2010PropOp29
 70
     1
102
RTVSPost2010Prop30
280
     1
102
RTVSPost2010PropOp30
 70
     1
102
RTVSPost2010Prop31
280
     0
102
RTVSPost2010PropOp31
 70
     1
102
RTVSPost2010Prop32
280
     0
102
RTVSPost2010PropOp32
 70
     1
102
RTVSPost2010Prop33
280
     0
102
RTVSPost2010PropOp33
 70
     1
102
RTVSPost2010Prop34
280
     0
102
RTVSPost2010PropOp34
 70
     1
102
RTVSPost2010Prop35
280
     0
102
RTVSPost2010PropOp35
 70
     1
102
RTVSPost2010Prop36
280
     0
102
RTVSPost2010PropOp36
 70
     1
102
RTVSPost2010Prop37
 90
       50
102
RTVSPost2010PropOp37
 70
     1
102
RTVSPost2010Prop38
140
0.0
102
RTVSPost2010PropOp38
 70
     1
102
RTVSPost2010Prop39
140
1.0
102
RTVSPost2010PropOp39
 70
     1
102
RTVSPost2010Prop40
 90
        0
102
RTVSPost2010PropOp40
 70
     1
102
RTVSPost2010Prop41ColorIndex
 90
       18
102
RTVSPost2010Prop41ColorRGB
 90
        0
102
RTVSPost2010PropOp41
 70
     1
102
RTVSPost2010Prop42
 90
       50
102
RTVSPost2010PropOp42
 70
     1
102
RTVSPost2010Prop43
 90
        3
102
RTVSPost2010PropOp43
 70
     1
102
RTVSPost2010Prop44ColorIndex
 90
        5
102
RTVSPost2010Prop44ColorRGB
 90
      255
102
RTVSPost2010PropOp44
 70
     1
102
RTVSPost2010Prop45
280
     0
102
RTVSPost2010PropOp45
 70
     1
102
RTVSPost2010Prop46
 90
       50
102
RTVSPost2010PropOp46
 70
     1
102
RTVSPost2010Prop47
 90
       50
102
RTVSPost2010PropOp47
 70
     1
102
RTVSPost2010Prop48
 90
       50
102
RTVSPost2010PropOp48
 70
     1
102
RTVSPost2010Prop49
280
     0
102
RTVSPost2010PropOp49
 70
     1
102
RTVSPost2010Prop50
 90
       50
102
RTVSPost2010PropOp50
 70
     1
102
RTVSPost2010Prop51ColorIndex
 90
      256
102
RTVSPost2010Prop51ColorRGB
 90
-16777216
102
RTVSPost2010PropOp51
 70
     0
102
RTVSPost2010Prop52
140
1.0
102
RTVSPost2010PropOp52
 70
     0
102
RTVSPost2010Prop53
 90
        2
102
RTVSPost2010PropOp53
 70
     1
102
RTVSPost2010Prop54
  1
strokes_ogs.tif
102
RTVSPost2010PropOp54
 70
     1
102
RTVSPost2010Prop55
280
     0
102
RTVSPost2010PropOp55
 70
     1
102
RTVSPost2010Prop56
140
1.0
102
RTVSPost2010PropOp56
 70
     1
102
RTVSPost2010Prop57
140
1.0
102
RTVSPost2010PropOp57
 70
     1
  0
XRECORD
  5
5B2
102
{ACAD_REACTORS
330
5B1
102
}
330
5B1
100
AcDbXrecord
280
     1
102
RTVSPropertyOp0
 70
     1
102
RTVSPropertyOp1
 70
     1
102
RTVSPropertyOp2
 70
     1
102
RTVSPropertyOp3
 70
     1
102
RTVSPropertyOp4
 70
     1
102
RTVSPropertyOp5
 70
     1
102
RTVSPropertyOp6
 70
     1
102
RTVSPropertyOp7
 70
     1
102
RTVSPropertyOp8
 70
     1
102
RTVSPropertyOp9
 70
     1
102
RTVSPropertyOp10
 70
     1
102
RTVSPropertyOp11
 70
     1
102
RTVSPropertyOp12
 70
     1
102
RTVSPropertyOp13
 70
     1
102
RTVSPropertyOp14
 70
     1
102
RTVSPropertyOp15
 70
     1
102
RTVSPropertyOp16
 70
     1
102
RTVSPropertyOp17
 70
     1
102
RTVSPropertyOp18
 70
     1
102
RTVSPropertyOp19
 70
     1
102
RTVSPropertyOp20
 70
     1
102
RTVSPropertyOp21
 70
     1
102
RTVSPropertyOp22
 70
     1
102
RTVSPropertyOp23
 70
     1
102
RTVSPropertyOp24
 70
     1
102
RTVSPropertyOp25
 70
     1
102
RTVSPropertyOp26
 70
     1
102
RTVSPropertyOp27
 70
     1
102
RTVSPropertyOp28
 70
     1
102
RTVSPropertyOp29
 70
     1
102
RTVSPropertyOp30
 70
     1
102
RTVSPropertyOp31
 70
     1
102
RTVSPropertyOp32
 70
     1
102
RTVSPropertyOp33
 70
     1
102
RTVSPropertyOp34
 70
     1
102
RTVSPropertyOp35
 70
     1
102
RTVSPropertyOp36
 70
     1
102
RTVSPropertyOp37
 70
     1
102
RTVSPropertyOp38
 70
     1
102
RTVSPropertyOp39
 70
     1
102
RTVSPropertyOp40
 70
     1
102
RTVSPropertyOp41
 70
     1
102
RTVSPropertyOp42
 70
     1
102
RTVSPropertyOp43
 70
     1
102
RTVSPropertyOp44
 70
     1
102
RTVSPropertyOp45
 70
     1
102
RTVSPropertyOp46
 70
     1
102
RTVSPropertyOp47
 70
     1
102
RTVSPropertyOp48
 70
     1
102
RTVSPropertyOp49
 70
     1
102
RTVSPropertyOp50
 70
     1
102
RTVSPropertyOp51
 70
     0
102
RTVSPropertyOp52
 70
     0
102
RTVSPropertyOp53
 70
     1
102
RTVSPropertyOp54
 70
     1
102
RTVSPropertyOp55
 70
     1
102
RTVSPropertyOp56
 70
     1
102
RTVSPropertyOp57
 70
     1
102
RTVSPost2010Prop28
280
     0
102
RTVSPost2010PropOp28
 70
     1
102
RTVSPost2010Prop29
280
     1
102
RTVSPost2010PropOp29
 70
     1
102
RTVSPost2010Prop30
280
     1
102
RTVSPost2010PropOp30
 70
     1
102
RTVSPost2010Prop31
280
     0
102
RTVSPost2010PropOp31
 70
     1
102
RTVSPost2010Prop32
280
     0
102
RTVSPost2010PropOp32
 70
     1
102
RTVSPost2010Prop33
280
     0
102
RTVSPost2010PropOp33
 70
     1
102
RTVSPost2010Prop34
280
     0
102
RTVSPost2010PropOp34
 70
     1
102
RTVSPost2010Prop35
280
     0
102
RTVSPost2010PropOp35
 70
     1
102
RTVSPost2010Prop36
280
     0
102
RTVSPost2010PropOp36
 70
     1
102
RTVSPost2010Prop37
 90
       50
102
RTVSPost2010PropOp37
 70
     1
102
RTVSPost2010Prop38
140
0.0
102
RTVSPost2010PropOp38
 70
     1
102
RTVSPost2010Prop39
140
1.0
102
RTVSPost2010PropOp39
 70
     1
102
RTVSPost2010Prop40
 90
        0
102
RTVSPost2010PropOp40
 70
     1
102
RTVSPost2010Prop41ColorIndex
 90
       18
102
RTVSPost2010Prop41ColorRGB
 90
        0
102
RTVSPost2010PropOp41
 70
     1
102
RTVSPost2010Prop42
 90
       50
102
RTVSPost2010PropOp42
 70
     1
102
RTVSPost2010Prop43
 90
        3
102
RTVSPost2010PropOp43
 70
     1
102
RTVSPost2010Prop44ColorIndex
 90
        5
102
RTVSPost2010Prop44ColorRGB
 90
      255
102
RTVSPost2010PropOp44
 70
     1
102
RTVSPost2010Prop45
280
     0
102
RTVSPost2010PropOp45
 70
     1
102
RTVSPost2010Prop46
 90
       50
102
RTVSPost2010PropOp46
 70
     1
102
RTVSPost2010Prop47
 90
       50
102
RTVSPost2010PropOp47
 70
     1
102
RTVSPost2010Prop48
 90
       50
102
RTVSPost2010PropOp48
 70
     1
102
RTVSPost2010Prop49
280
     0
102
RTVSPost2010PropOp49
 70
     1
102
RTVSPost2010Prop50
 90
       50
102
RTVSPost2010PropOp50
 70
     1
102
RTVSPost2010Prop51ColorIndex
 90
      256
102
RTVSPost2010Prop51ColorRGB
 90
-16777216
102
RTVSPost2010PropOp51
 70
     0
102
RTVSPost2010Prop52
140
1.0
102
RTVSPost2010PropOp52
 70
     0
102
RTVSPost2010Prop53
 90
        2
102
RTVSPost2010PropOp53
 70
     1
102
RTVSPost2010Prop54
  1
strokes_ogs.tif
102
RTVSPost2010PropOp54
 70
     1
102
RTVSPost2010Prop55
280
     0
102
RTVSPost2010PropOp55
 70
     1
102
RTVSPost2010Prop56
140
1.0
102
RTVSPost2010PropOp56
 70
     1
102
RTVSPost2010Prop57
140
1.0
102
RTVSPost2010PropOp57
 70
     1
  0
XRECORD
  5
5B4
102
{ACAD_REACTORS
330
5B3
102
}
330
5B3
100
AcDbXrecord
280
     1
102
RTVSPropertyOp0
 70
     1
102
RTVSPropertyOp1
 70
     1
102
RTVSPropertyOp2
 70
     1
102
RTVSPropertyOp3
 70
     1
102
RTVSPropertyOp4
 70
     1
102
RTVSPropertyOp5
 70
     1
102
RTVSPropertyOp6
 70
     1
102
RTVSPropertyOp7
 70
     1
102
RTVSPropertyOp8
 70
     1
102
RTVSPropertyOp9
 70
     1
102
RTVSPropertyOp10
 70
     1
102
RTVSPropertyOp11
 70
     1
102
RTVSPropertyOp12
 70
     1
102
RTVSPropertyOp13
 70
     1
102
RTVSPropertyOp14
 70
     1
102
RTVSPropertyOp15
 70
     1
102
RTVSPropertyOp16
 70
     1
102
RTVSPropertyOp17
 70
     1
102
RTVSPropertyOp18
 70
     1
102
RTVSPropertyOp19
 70
     1
102
RTVSPropertyOp20
 70
     1
102
RTVSPropertyOp21
 70
     1
102
RTVSPropertyOp22
 70
     1
102
RTVSPropertyOp23
 70
     1
102
RTVSPropertyOp24
 70
     1
102
RTVSPropertyOp25
 70
     1
102
RTVSPropertyOp26
 70
     1
102
RTVSPropertyOp27
 70
     1
102
RTVSPropertyOp28
 70
     1
102
RTVSPropertyOp29
 70
     1
102
RTVSPropertyOp30
 70
     1
102
RTVSPropertyOp31
 70
     1
102
RTVSPropertyOp32
 70
     1
102
RTVSPropertyOp33
 70
     1
102
RTVSPropertyOp34
 70
     1
102
RTVSPropertyOp35
 70
     1
102
RTVSPropertyOp36
 70
     1
102
RTVSPropertyOp37
 70
     1
102
RTVSPropertyOp38
 70
     1
102
RTVSPropertyOp39
 70
     1
102
RTVSPropertyOp40
 70
     1
102
RTVSPropertyOp41
 70
     1
102
RTVSPropertyOp42
 70
     1
102
RTVSPropertyOp43
 70
     1
102
RTVSPropertyOp44
 70
     1
102
RTVSPropertyOp45
 70
     1
102
RTVSPropertyOp46
 70
     1
102
RTVSPropertyOp47
 70
     1
102
RTVSPropertyOp48
 70
     1
102
RTVSPropertyOp49
 70
     1
102
RTVSPropertyOp50
 70
     1
102
RTVSPropertyOp51
 70
     0
102
RTVSPropertyOp52
 70
     0
102
RTVSPropertyOp53
 70
     1
102
RTVSPropertyOp54
 70
     1
102
RTVSPropertyOp55
 70
     1
102
RTVSPropertyOp56
 70
     1
102
RTVSPropertyOp57
 70
     1
102
RTVSPost2010Prop28
280
     0
102
RTVSPost2010PropOp28
 70
     1
102
RTVSPost2010Prop29
280
     1
102
RTVSPost2010PropOp29
 70
     1
102
RTVSPost2010Prop30
280
     1
102
RTVSPost2010PropOp30
 70
     1
102
RTVSPost2010Prop31
280
     0
102
RTVSPost2010PropOp31
 70
     1
102
RTVSPost2010Prop32
280
     0
102
RTVSPost2010PropOp32
 70
     1
102
RTVSPost2010Prop33
280
     0
102
RTVSPost2010PropOp33
 70
     1
102
RTVSPost2010Prop34
280
     0
102
RTVSPost2010PropOp34
 70
     1
102
RTVSPost2010Prop35
280
     0
102
RTVSPost2010PropOp35
 70
     1
102
RTVSPost2010Prop36
280
     0
102
RTVSPost2010PropOp36
 70
     1
102
RTVSPost2010Prop37
 90
       50
102
RTVSPost2010PropOp37
 70
     1
102
RTVSPost2010Prop38
140
0.0
102
RTVSPost2010PropOp38
 70
     1
102
RTVSPost2010Prop39
140
1.0
102
RTVSPost2010PropOp39
 70
     1
102
RTVSPost2010Prop40
 90
        0
102
RTVSPost2010PropOp40
 70
     1
102
RTVSPost2010Prop41ColorIndex
 90
       18
102
RTVSPost2010Prop41ColorRGB
 90
        0
102
RTVSPost2010PropOp41
 70
     1
102
RTVSPost2010Prop42
 90
       50
102
RTVSPost2010PropOp42
 70
     1
102
RTVSPost2010Prop43
 90
        3
102
RTVSPost2010PropOp43
 70
     1
102
RTVSPost2010Prop44ColorIndex
 90
        5
102
RTVSPost2010Prop44ColorRGB
 90
      255
102
RTVSPost2010PropOp44
 70
     1
102
RTVSPost2010Prop45
280
     0
102
RTVSPost2010PropOp45
 70
     1
102
RTVSPost2010Prop46
 90
       50
102
RTVSPost2010PropOp46
 70
     1
102
RTVSPost2010Prop47
 90
       50
102
RTVSPost2010PropOp47
 70
     1
102
RTVSPost2010Prop48
 90
       50
102
RTVSPost2010PropOp48
 70
     1
102
RTVSPost2010Prop49
280
     0
102
RTVSPost2010PropOp49
 70
     1
102
RTVSPost2010Prop50
 90
       50
102
RTVSPost2010PropOp50
 70
     1
102
RTVSPost2010Prop51ColorIndex
 90
      256
102
RTVSPost2010Prop51ColorRGB
 90
-16777216
102
RTVSPost2010PropOp51
 70
     0
102
RTVSPost2010Prop52
140
1.0
102
RTVSPost2010PropOp52
 70
     0
102
RTVSPost2010Prop53
 90
        2
102
RTVSPost2010PropOp53
 70
     1
102
RTVSPost2010Prop54
  1
strokes_ogs.tif
102
RTVSPost2010PropOp54
 70
     1
102
RTVSPost2010Prop55
280
     0
102
RTVSPost2010PropOp55
 70
     1
102
RTVSPost2010Prop56
140
1.0
102
RTVSPost2010PropOp56
 70
     1
102
RTVSPost2010Prop57
140
1.0
102
RTVSPost2010PropOp57
 70
     1
  0
XRECORD
  5
5B6
102
{ACAD_REACTORS
330
5B5
102
}
330
5B5
100
AcDbXrecord
280
     1
102
RTVSPropertyOp0
 70
     0
102
RTVSPropertyOp1
 70
     0
102
RTVSPropertyOp2
 70
     0
102
RTVSPropertyOp3
 70
     0
102
RTVSPropertyOp4
 70
     0
102
RTVSPropertyOp5
 70
     0
102
RTVSPropertyOp6
 70
     0
102
RTVSPropertyOp7
 70
     0
102
RTVSPropertyOp8
 70
     0
102
RTVSPropertyOp9
 70
     0
102
RTVSPropertyOp10
 70
     0
102
RTVSPropertyOp11
 70
     0
102
RTVSPropertyOp12
 70
     0
102
RTVSPropertyOp13
 70
     0
102
RTVSPropertyOp14
 70
     2
102
RTVSPropertyOp15
 70
     0
102
RTVSPropertyOp16
 70
     0
102
RTVSPropertyOp17
 70
     0
102
RTVSPropertyOp18
 70
     0
102
RTVSPropertyOp19
 70
     0
102
RTVSPropertyOp20
 70
     0
102
RTVSPropertyOp21
 70
     0
102
RTVSPropertyOp22
 70
     0
102
RTVSPropertyOp23
 70
     0
102
RTVSPropertyOp24
 70
     0
102
RTVSPropertyOp25
 70
     0
102
RTVSPropertyOp26
 70
     0
102
RTVSPropertyOp27
 70
     0
102
RTVSPropertyOp28
 70
     0
102
RTVSPropertyOp29
 70
     0
102
RTVSPropertyOp30
 70
     0
102
RTVSPropertyOp31
 70
     0
102
RTVSPropertyOp32
 70
     0
102
RTVSPropertyOp33
 70
     0
102
RTVSPropertyOp34
 70
     0
102
RTVSPropertyOp35
 70
     0
102
RTVSPropertyOp36
 70
     0
102
RTVSPropertyOp37
 70
     0
102
RTVSPropertyOp38
 70
     0
102
RTVSPropertyOp39
 70
     0
102
RTVSPropertyOp40
 70
     0
102
RTVSPropertyOp41
 70
     0
102
RTVSPropertyOp42
 70
     0
102
RTVSPropertyOp43
 70
     0
102
RTVSPropertyOp44
 70
     0
102
RTVSPropertyOp45
 70
     0
102
RTVSPropertyOp46
 70
     0
102
RTVSPropertyOp47
 70
     0
102
RTVSPropertyOp48
 70
     0
102
RTVSPropertyOp49
 70
     0
102
RTVSPropertyOp50
 70
     0
102
RTVSPropertyOp51
 70
     0
102
RTVSPropertyOp52
 70
     0
102
RTVSPropertyOp53
 70
     0
102
RTVSPropertyOp54
 70
     0
102
RTVSPropertyOp55
 70
     0
102
RTVSPropertyOp56
 70
     0
102
RTVSPropertyOp57
 70
     0
102
RTVSPost2010Prop28
280
     0
102
RTVSPost2010PropOp28
 70
     0
102
RTVSPost2010Prop29
280
     1
102
RTVSPost2010PropOp29
 70
     0
102
RTVSPost2010Prop30
280
     1
102
RTVSPost2010PropOp30
 70
     0
102
RTVSPost2010Prop31
280
     0
102
RTVSPost2010PropOp31
 70
     0
102
RTVSPost2010Prop32
280
     0
102
RTVSPost2010PropOp32
 70
     0
102
RTVSPost2010Prop33
280
     0
102
RTVSPost2010PropOp33
 70
     0
102
RTVSPost2010Prop34
280
     0
102
RTVSPost2010PropOp34
 70
     0
102
RTVSPost2010Prop35
280
     0
102
RTVSPost2010PropOp35
 70
     0
102
RTVSPost2010Prop36
280
     0
102
RTVSPost2010PropOp36
 70
     0
102
RTVSPost2010Prop37
 90
       50
102
RTVSPost2010PropOp37
 70
     0
102
RTVSPost2010Prop38
140
0.0
102
RTVSPost2010PropOp38
 70
     0
102
RTVSPost2010Prop39
140
1.0
102
RTVSPost2010PropOp39
 70
     0
102
RTVSPost2010Prop40
 90
        0
102
RTVSPost2010PropOp40
 70
     0
102
RTVSPost2010Prop41ColorIndex
 90
       18
102
RTVSPost2010Prop41ColorRGB
 90
        0
102
RTVSPost2010PropOp41
 70
     0
102
RTVSPost2010Prop42
 90
       50
102
RTVSPost2010PropOp42
 70
     0
102
RTVSPost2010Prop43
 90
        3
102
RTVSPost2010PropOp43
 70
     0
102
RTVSPost2010Prop44ColorIndex
 90
        5
102
RTVSPost2010Prop44ColorRGB
 90
      255
102
RTVSPost2010PropOp44
 70
     0
102
RTVSPost2010Prop45
280
     0
102
RTVSPost2010PropOp45
 70
     0
102
RTVSPost2010Prop46
 90
       50
102
RTVSPost2010PropOp46
 70
     0
102
RTVSPost2010Prop47
 90
       50
102
RTVSPost2010PropOp47
 70
     0
102
RTVSPost2010Prop48
 90
       50
102
RTVSPost2010PropOp48
 70
     0
102
RTVSPost2010Prop49
280
     0
102
RTVSPost2010PropOp49
 70
     0
102
RTVSPost2010Prop50
 90
       50
102
RTVSPost2010PropOp50
 70
     0
102
RTVSPost2010Prop51ColorIndex
 90
      256
102
RTVSPost2010Prop51ColorRGB
 90
-16777216
102
RTVSPost2010PropOp51
 70
     0
102
RTVSPost2010Prop52
140
1.0
102
RTVSPost2010PropOp52
 70
     0
102
RTVSPost2010Prop53
 90
        2
102
RTVSPost2010PropOp53
 70
     0
102
RTVSPost2010Prop54
  1
strokes_ogs.tif
102
RTVSPost2010PropOp54
 70
     0
102
RTVSPost2010Prop55
280
     0
102
RTVSPost2010PropOp55
 70
     0
102
RTVSPost2010Prop56
140
1.0
102
RTVSPost2010PropOp56
 70
     0
102
RTVSPost2010Prop57
140
1.0
102
RTVSPost2010PropOp57
 70
     0
  0
XRECORD
  5
5B8
102
{ACAD_REACTORS
330
5B7
102
}
330
5B7
100
AcDbXrecord
280
     1
102
RTVSPropertyOp0
 70
     1
102
RTVSPropertyOp1
 70
     1
102
RTVSPropertyOp2
 70
     1
102
RTVSPropertyOp3
 70
     1
102
RTVSPropertyOp4
 70
     1
102
RTVSPropertyOp5
 70
     1
102
RTVSPropertyOp6
 70
     1
102
RTVSPropertyOp7
 70
     1
102
RTVSPropertyOp8
 70
     1
102
RTVSPropertyOp9
 70
     1
102
RTVSPropertyOp10
 70
     1
102
RTVSPropertyOp11
 70
     1
102
RTVSPropertyOp12
 70
     1
102
RTVSPropertyOp13
 70
     1
102
RTVSPropertyOp14
 70
     1
102
RTVSPropertyOp15
 70
     1
102
RTVSPropertyOp16
 70
     1
102
RTVSPropertyOp17
 70
     1
102
RTVSPropertyOp18
 70
     1
102
RTVSPropertyOp19
 70
     1
102
RTVSPropertyOp20
 70
     1
102
RTVSPropertyOp21
 70
     1
102
RTVSPropertyOp22
 70
     1
102
RTVSPropertyOp23
 70
     1
102
RTVSPropertyOp24
 70
     1
102
RTVSPropertyOp25
 70
     1
102
RTVSPropertyOp26
 70
     1
102
RTVSPropertyOp27
 70
     1
102
RTVSPropertyOp28
 70
     1
102
RTVSPropertyOp29
 70
     1
102
RTVSPropertyOp30
 70
     1
102
RTVSPropertyOp31
 70
     1
102
RTVSPropertyOp32
 70
     1
102
RTVSPropertyOp33
 70
     1
102
RTVSPropertyOp34
 70
     1
102
RTVSPropertyOp35
 70
     1
102
RTVSPropertyOp36
 70
     1
102
RTVSPropertyOp37
 70
     1
102
RTVSPropertyOp38
 70
     1
102
RTVSPropertyOp39
 70
     1
102
RTVSPropertyOp40
 70
     1
102
RTVSPropertyOp41
 70
     1
102
RTVSPropertyOp42
 70
     1
102
RTVSPropertyOp43
 70
     1
102
RTVSPropertyOp44
 70
     1
102
RTVSPropertyOp45
 70
     1
102
RTVSPropertyOp46
 70
     1
102
RTVSPropertyOp47
 70
     1
102
RTVSPropertyOp48
 70
     1
102
RTVSPropertyOp49
 70
     1
102
RTVSPropertyOp50
 70
     1
102
RTVSPropertyOp51
 70
     0
102
RTVSPropertyOp52
 70
     0
102
RTVSPropertyOp53
 70
     1
102
RTVSPropertyOp54
 70
     1
102
RTVSPropertyOp55
 70
     1
102
RTVSPropertyOp56
 70
     1
102
RTVSPropertyOp57
 70
     1
102
RTVSPost2010Prop28
280
     0
102
RTVSPost2010PropOp28
 70
     1
102
RTVSPost2010Prop29
280
     1
102
RTVSPost2010PropOp29
 70
     1
102
RTVSPost2010Prop30
280
     1
102
RTVSPost2010PropOp30
 70
     1
102
RTVSPost2010Prop31
280
     0
102
RTVSPost2010PropOp31
 70
     1
102
RTVSPost2010Prop32
280
     0
102
RTVSPost2010PropOp32
 70
     1
102
RTVSPost2010Prop33
280
     0
102
RTVSPost2010PropOp33
 70
     1
102
RTVSPost2010Prop34
280
     0
102
RTVSPost2010PropOp34
 70
     1
102
RTVSPost2010Prop35
280
     0
102
RTVSPost2010PropOp35
 70
     1
102
RTVSPost2010Prop36
280
     0
102
RTVSPost2010PropOp36
 70
     1
102
RTVSPost2010Prop37
 90
       50
102
RTVSPost2010PropOp37
 70
     1
102
RTVSPost2010Prop38
140
0.0
102
RTVSPost2010PropOp38
 70
     1
102
RTVSPost2010Prop39
140
1.0
102
RTVSPost2010PropOp39
 70
     1
102
RTVSPost2010Prop40
 90
        0
102
RTVSPost2010PropOp40
 70
     1
102
RTVSPost2010Prop41ColorIndex
 90
       18
102
RTVSPost2010Prop41ColorRGB
 90
        0
102
RTVSPost2010PropOp41
 70
     1
102
RTVSPost2010Prop42
 90
       50
102
RTVSPost2010PropOp42
 70
     1
102
RTVSPost2010Prop43
 90
        3
102
RTVSPost2010PropOp43
 70
     1
102
RTVSPost2010Prop44ColorIndex
 90
        5
102
RTVSPost2010Prop44ColorRGB
 90
      255
102
RTVSPost2010PropOp44
 70
     1
102
RTVSPost2010Prop45
280
     0
102
RTVSPost2010PropOp45
 70
     1
102
RTVSPost2010Prop46
 90
       50
102
RTVSPost2010PropOp46
 70
     1
102
RTVSPost2010Prop47
 90
       50
102
RTVSPost2010PropOp47
 70
     1
102
RTVSPost2010Prop48
 90
       50
102
RTVSPost2010PropOp48
 70
     1
102
RTVSPost2010Prop49
280
     0
102
RTVSPost2010PropOp49
 70
     1
102
RTVSPost2010Prop50
 90
       50
102
RTVSPost2010PropOp50
 70
     1
102
RTVSPost2010Prop51ColorIndex
 90
      256
102
RTVSPost2010Prop51ColorRGB
 90
-16777216
102
RTVSPost2010PropOp51
 70
     0
102
RTVSPost2010Prop52
140
1.0
102
RTVSPost2010PropOp52
 70
     0
102
RTVSPost2010Prop53
 90
        2
102
RTVSPost2010PropOp53
 70
     1
102
RTVSPost2010Prop54
  1
strokes_ogs.tif
102
RTVSPost2010PropOp54
 70
     1
102
RTVSPost2010Prop55
280
     0
102
RTVSPost2010PropOp55
 70
     1
102
RTVSPost2010Prop56
140
1.0
102
RTVSPost2010PropOp56
 70
     1
102
RTVSPost2010Prop57
140
1.0
102
RTVSPost2010PropOp57
 70
     1
  0
XRECORD
  5
5BA
102
{ACAD_REACTORS
330
5B9
102
}
330
5B9
100
AcDbXrecord
280
     1
102
RTVSPropertyOp0
 70
     0
102
RTVSPropertyOp1
 70
     0
102
RTVSPropertyOp2
 70
     0
102
RTVSPropertyOp3
 70
     0
102
RTVSPropertyOp4
 70
     0
102
RTVSPropertyOp5
 70
     0
102
RTVSPropertyOp6
 70
     0
102
RTVSPropertyOp7
 70
     0
102
RTVSPropertyOp8
 70
     0
102
RTVSPropertyOp9
 70
     0
102
RTVSPropertyOp10
 70
     0
102
RTVSPropertyOp11
 70
     0
102
RTVSPropertyOp12
 70
     0
102
RTVSPropertyOp13
 70
     0
102
RTVSPropertyOp14
 70
     2
102
RTVSPropertyOp15
 70
     0
102
RTVSPropertyOp16
 70
     0
102
RTVSPropertyOp17
 70
     0
102
RTVSPropertyOp18
 70
     0
102
RTVSPropertyOp19
 70
     0
102
RTVSPropertyOp20
 70
     0
102
RTVSPropertyOp21
 70
     0
102
RTVSPropertyOp22
 70
     0
102
RTVSPropertyOp23
 70
     0
102
RTVSPropertyOp24
 70
     0
102
RTVSPropertyOp25
 70
     0
102
RTVSPropertyOp26
 70
     0
102
RTVSPropertyOp27
 70
     0
102
RTVSPropertyOp28
 70
     0
102
RTVSPropertyOp29
 70
     0
102
RTVSPropertyOp30
 70
     0
102
RTVSPropertyOp31
 70
     0
102
RTVSPropertyOp32
 70
     0
102
RTVSPropertyOp33
 70
     0
102
RTVSPropertyOp34
 70
     0
102
RTVSPropertyOp35
 70
     0
102
RTVSPropertyOp36
 70
     0
102
RTVSPropertyOp37
 70
     0
102
RTVSPropertyOp38
 70
     0
102
RTVSPropertyOp39
 70
     0
102
RTVSPropertyOp40
 70
     0
102
RTVSPropertyOp41
 70
     0
102
RTVSPropertyOp42
 70
     0
102
RTVSPropertyOp43
 70
     0
102
RTVSPropertyOp44
 70
     0
102
RTVSPropertyOp45
 70
     0
102
RTVSPropertyOp46
 70
     0
102
RTVSPropertyOp47
 70
     0
102
RTVSPropertyOp48
 70
     0
102
RTVSPropertyOp49
 70
     0
102
RTVSPropertyOp50
 70
     0
102
RTVSPropertyOp51
 70
     0
102
RTVSPropertyOp52
 70
     0
102
RTVSPropertyOp53
 70
     0
102
RTVSPropertyOp54
 70
     0
102
RTVSPropertyOp55
 70
     0
102
RTVSPropertyOp56
 70
     0
102
RTVSPropertyOp57
 70
     0
102
RTVSPost2010Prop28
280
     0
102
RTVSPost2010PropOp28
 70
     0
102
RTVSPost2010Prop29
280
     1
102
RTVSPost2010PropOp29
 70
     0
102
RTVSPost2010Prop30
280
     1
102
RTVSPost2010PropOp30
 70
     0
102
RTVSPost2010Prop31
280
     0
102
RTVSPost2010PropOp31
 70
     0
102
RTVSPost2010Prop32
280
     0
102
RTVSPost2010PropOp32
 70
     0
102
RTVSPost2010Prop33
280
     0
102
RTVSPost2010PropOp33
 70
     0
102
RTVSPost2010Prop34
280
     0
102
RTVSPost2010PropOp34
 70
     0
102
RTVSPost2010Prop35
280
     0
102
RTVSPost2010PropOp35
 70
     0
102
RTVSPost2010Prop36
280
     0
102
RTVSPost2010PropOp36
 70
     0
102
RTVSPost2010Prop37
 90
       50
102
RTVSPost2010PropOp37
 70
     0
102
RTVSPost2010Prop38
140
0.0
102
RTVSPost2010PropOp38
 70
     0
102
RTVSPost2010Prop39
140
1.0
102
RTVSPost2010PropOp39
 70
     0
102
RTVSPost2010Prop40
 90
        0
102
RTVSPost2010PropOp40
 70
     0
102
RTVSPost2010Prop41ColorIndex
 90
       18
102
RTVSPost2010Prop41ColorRGB
 90
        0
102
RTVSPost2010PropOp41
 70
     0
102
RTVSPost2010Prop42
 90
       50
102
RTVSPost2010PropOp42
 70
     0
102
RTVSPost2010Prop43
 90
        3
102
RTVSPost2010PropOp43
 70
     0
102
RTVSPost2010Prop44ColorIndex
 90
        5
102
RTVSPost2010Prop44ColorRGB
 90
      255
102
RTVSPost2010PropOp44
 70
     0
102
RTVSPost2010Prop45
280
     0
102
RTVSPost2010PropOp45
 70
     0
102
RTVSPost2010Prop46
 90
       50
102
RTVSPost2010PropOp46
 70
     0
102
RTVSPost2010Prop47
 90
       50
102
RTVSPost2010PropOp47
 70
     0
102
RTVSPost2010Prop48
 90
       50
102
RTVSPost2010PropOp48
 70
     0
102
RTVSPost2010Prop49
280
     0
102
RTVSPost2010PropOp49
 70
     0
102
RTVSPost2010Prop50
 90
       50
102
RTVSPost2010PropOp50
 70
     0
102
RTVSPost2010Prop51ColorIndex
 90
      256
102
RTVSPost2010Prop51ColorRGB
 90
-16777216
102
RTVSPost2010PropOp51
 70
     0
102
RTVSPost2010Prop52
140
1.0
102
RTVSPost2010PropOp52
 70
     0
102
RTVSPost2010Prop53
 90
        2
102
RTVSPost2010PropOp53
 70
     0
102
RTVSPost2010Prop54
  1
strokes_ogs.tif
102
RTVSPost2010PropOp54
 70
     0
102
RTVSPost2010Prop55
280
     0
102
RTVSPost2010PropOp55
 70
     0
102
RTVSPost2010Prop56
140
1.0
102
RTVSPost2010PropOp56
 70
     0
102
RTVSPost2010Prop57
140
1.0
102
RTVSPost2010PropOp57
 70
     0
  0
XRECORD
  5
5BC
102
{ACAD_REACTORS
330
5BB
102
}
330
5BB
100
AcDbXrecord
280
     1
102
RTVSPropertyOp0
 70
     1
102
RTVSPropertyOp1
 70
     1
102
RTVSPropertyOp2
 70
     1
102
RTVSPropertyOp3
 70
     1
102
RTVSPropertyOp4
 70
     1
102
RTVSPropertyOp5
 70
     1
102
RTVSPropertyOp6
 70
     1
102
RTVSPropertyOp7
 70
     1
102
RTVSPropertyOp8
 70
     1
102
RTVSPropertyOp9
 70
     1
102
RTVSPropertyOp10
 70
     1
102
RTVSPropertyOp11
 70
     1
102
RTVSPropertyOp12
 70
     1
102
RTVSPropertyOp13
 70
     1
102
RTVSPropertyOp14
 70
     1
102
RTVSPropertyOp15
 70
     1
102
RTVSPropertyOp16
 70
     1
102
RTVSPropertyOp17
 70
     1
102
RTVSPropertyOp18
 70
     1
102
RTVSPropertyOp19
 70
     1
102
RTVSPropertyOp20
 70
     1
102
RTVSPropertyOp21
 70
     1
102
RTVSPropertyOp22
 70
     1
102
RTVSPropertyOp23
 70
     1
102
RTVSPropertyOp24
 70
     1
102
RTVSPropertyOp25
 70
     1
102
RTVSPropertyOp26
 70
     1
102
RTVSPropertyOp27
 70
     1
102
RTVSPropertyOp28
 70
     1
102
RTVSPropertyOp29
 70
     1
102
RTVSPropertyOp30
 70
     1
102
RTVSPropertyOp31
 70
     1
102
RTVSPropertyOp32
 70
     1
102
RTVSPropertyOp33
 70
     1
102
RTVSPropertyOp34
 70
     1
102
RTVSPropertyOp35
 70
     1
102
RTVSPropertyOp36
 70
     1
102
RTVSPropertyOp37
 70
     1
102
RTVSPropertyOp38
 70
     1
102
RTVSPropertyOp39
 70
     1
102
RTVSPropertyOp40
 70
     1
102
RTVSPropertyOp41
 70
     1
102
RTVSPropertyOp42
 70
     1
102
RTVSPropertyOp43
 70
     1
102
RTVSPropertyOp44
 70
     1
102
RTVSPropertyOp45
 70
     1
102
RTVSPropertyOp46
 70
     1
102
RTVSPropertyOp47
 70
     1
102
RTVSPropertyOp48
 70
     1
102
RTVSPropertyOp49
 70
     1
102
RTVSPropertyOp50
 70
     1
102
RTVSPropertyOp51
 70
     0
102
RTVSPropertyOp52
 70
     0
102
RTVSPropertyOp53
 70
     1
102
RTVSPropertyOp54
 70
     1
102
RTVSPropertyOp55
 70
     1
102
RTVSPropertyOp56
 70
     1
102
RTVSPropertyOp57
 70
     1
102
RTVSPost2010Prop28
280
     0
102
RTVSPost2010PropOp28
 70
     1
102
RTVSPost2010Prop29
280
     1
102
RTVSPost2010PropOp29
 70
     1
102
RTVSPost2010Prop30
280
     1
102
RTVSPost2010PropOp30
 70
     1
102
RTVSPost2010Prop31
280
     0
102
RTVSPost2010PropOp31
 70
     1
102
RTVSPost2010Prop32
280
     0
102
RTVSPost2010PropOp32
 70
     1
102
RTVSPost2010Prop33
280
     0
102
RTVSPost2010PropOp33
 70
     1
102
RTVSPost2010Prop34
280
     0
102
RTVSPost2010PropOp34
 70
     1
102
RTVSPost2010Prop35
280
     0
102
RTVSPost2010PropOp35
 70
     1
102
RTVSPost2010Prop36
280
     0
102
RTVSPost2010PropOp36
 70
     1
102
RTVSPost2010Prop37
 90
       50
102
RTVSPost2010PropOp37
 70
     1
102
RTVSPost2010Prop38
140
0.0
102
RTVSPost2010PropOp38
 70
     1
102
RTVSPost2010Prop39
140
1.0
102
RTVSPost2010PropOp39
 70
     1
102
RTVSPost2010Prop40
 90
        0
102
RTVSPost2010PropOp40
 70
     1
102
RTVSPost2010Prop41ColorIndex
 90
       18
102
RTVSPost2010Prop41ColorRGB
 90
        0
102
RTVSPost2010PropOp41
 70
     1
102
RTVSPost2010Prop42
 90
       50
102
RTVSPost2010PropOp42
 70
     1
102
RTVSPost2010Prop43
 90
        3
102
RTVSPost2010PropOp43
 70
     1
102
RTVSPost2010Prop44ColorIndex
 90
        5
102
RTVSPost2010Prop44ColorRGB
 90
      255
102
RTVSPost2010PropOp44
 70
     1
102
RTVSPost2010Prop45
280
     0
102
RTVSPost2010PropOp45
 70
     1
102
RTVSPost2010Prop46
 90
       50
102
RTVSPost2010PropOp46
 70
     1
102
RTVSPost2010Prop47
 90
       50
102
RTVSPost2010PropOp47
 70
     1
102
RTVSPost2010Prop48
 90
       50
102
RTVSPost2010PropOp48
 70
     1
102
RTVSPost2010Prop49
280
     0
102
RTVSPost2010PropOp49
 70
     1
102
RTVSPost2010Prop50
 90
       50
102
RTVSPost2010PropOp50
 70
     1
102
RTVSPost2010Prop51ColorIndex
 90
      256
102
RTVSPost2010Prop51ColorRGB
 90
-16777216
102
RTVSPost2010PropOp51
 70
     0
102
RTVSPost2010Prop52
140
1.0
102
RTVSPost2010PropOp52
 70
     0
102
RTVSPost2010Prop53
 90
        2
102
RTVSPost2010PropOp53
 70
     1
102
RTVSPost2010Prop54
  1
strokes_ogs.tif
102
RTVSPost2010PropOp54
 70
     1
102
RTVSPost2010Prop55
280
     0
102
RTVSPost2010PropOp55
 70
     1
102
RTVSPost2010Prop56
140
1.0
102
RTVSPost2010PropOp56
 70
     1
102
RTVSPost2010Prop57
140
1.0
102
RTVSPost2010PropOp57
 70
     1
  0
XRECORD
  5
5BE
102
{ACAD_REACTORS
330
5BD
102
}
330
5BD
100
AcDbXrecord
280
     1
102
RTVSPropertyOp0
 70
     1
102
RTVSPropertyOp1
 70
     1
102
RTVSPropertyOp2
 70
     1
102
RTVSPropertyOp3
 70
     1
102
RTVSPropertyOp4
 70
     1
102
RTVSPropertyOp5
 70
     1
102
RTVSPropertyOp6
 70
     1
102
RTVSPropertyOp7
 70
     1
102
RTVSPropertyOp8
 70
     1
102
RTVSPropertyOp9
 70
     1
102
RTVSPropertyOp10
 70
     1
102
RTVSPropertyOp11
 70
     1
102
RTVSPropertyOp12
 70
     1
102
RTVSPropertyOp13
 70
     1
102
RTVSPropertyOp14
 70
     1
102
RTVSPropertyOp15
 70
     1
102
RTVSPropertyOp16
 70
     1
102
RTVSPropertyOp17
 70
     1
102
RTVSPropertyOp18
 70
     1
102
RTVSPropertyOp19
 70
     1
102
RTVSPropertyOp20
 70
     1
102
RTVSPropertyOp21
 70
     1
102
RTVSPropertyOp22
 70
     1
102
RTVSPropertyOp23
 70
     1
102
RTVSPropertyOp24
 70
     1
102
RTVSPropertyOp25
 70
     1
102
RTVSPropertyOp26
 70
     1
102
RTVSPropertyOp27
 70
     1
102
RTVSPropertyOp28
 70
     1
102
RTVSPropertyOp29
 70
     1
102
RTVSPropertyOp30
 70
     1
102
RTVSPropertyOp31
 70
     1
102
RTVSPropertyOp32
 70
     1
102
RTVSPropertyOp33
 70
     1
102
RTVSPropertyOp34
 70
     1
102
RTVSPropertyOp35
 70
     1
102
RTVSPropertyOp36
 70
     1
102
RTVSPropertyOp37
 70
     1
102
RTVSPropertyOp38
 70
     1
102
RTVSPropertyOp39
 70
     1
102
RTVSPropertyOp40
 70
     1
102
RTVSPropertyOp41
 70
     1
102
RTVSPropertyOp42
 70
     1
102
RTVSPropertyOp43
 70
     1
102
RTVSPropertyOp44
 70
     1
102
RTVSPropertyOp45
 70
     1
102
RTVSPropertyOp46
 70
     1
102
RTVSPropertyOp47
 70
     1
102
RTVSPropertyOp48
 70
     1
102
RTVSPropertyOp49
 70
     1
102
RTVSPropertyOp50
 70
     1
102
RTVSPropertyOp51
 70
     0
102
RTVSPropertyOp52
 70
     0
102
RTVSPropertyOp53
 70
     1
102
RTVSPropertyOp54
 70
     1
102
RTVSPropertyOp55
 70
     1
102
RTVSPropertyOp56
 70
     1
102
RTVSPropertyOp57
 70
     1
102
RTVSPost2010Prop28
280
     0
102
RTVSPost2010PropOp28
 70
     1
102
RTVSPost2010Prop29
280
     1
102
RTVSPost2010PropOp29
 70
     1
102
RTVSPost2010Prop30
280
     1
102
RTVSPost2010PropOp30
 70
     1
102
RTVSPost2010Prop31
280
     0
102
RTVSPost2010PropOp31
 70
     1
102
RTVSPost2010Prop32
280
     0
102
RTVSPost2010PropOp32
 70
     1
102
RTVSPost2010Prop33
280
     0
102
RTVSPost2010PropOp33
 70
     1
102
RTVSPost2010Prop34
280
     0
102
RTVSPost2010PropOp34
 70
     1
102
RTVSPost2010Prop35
280
     0
102
RTVSPost2010PropOp35
 70
     1
102
RTVSPost2010Prop36
280
     0
102
RTVSPost2010PropOp36
 70
     1
102
RTVSPost2010Prop37
 90
       50
102
RTVSPost2010PropOp37
 70
     1
102
RTVSPost2010Prop38
140
0.0
102
RTVSPost2010PropOp38
 70
     1
102
RTVSPost2010Prop39
140
1.0
102
RTVSPost2010PropOp39
 70
     1
102
RTVSPost2010Prop40
 90
        0
102
RTVSPost2010PropOp40
 70
     1
102
RTVSPost2010Prop41ColorIndex
 90
       18
102
RTVSPost2010Prop41ColorRGB
 90
        0
102
RTVSPost2010PropOp41
 70
     1
102
RTVSPost2010Prop42
 90
       50
102
RTVSPost2010PropOp42
 70
     1
102
RTVSPost2010Prop43
 90
        3
102
RTVSPost2010PropOp43
 70
     1
102
RTVSPost2010Prop44ColorIndex
 90
        5
102
RTVSPost2010Prop44ColorRGB
 90
      255
102
RTVSPost2010PropOp44
 70
     1
102
RTVSPost2010Prop45
280
     0
102
RTVSPost2010PropOp45
 70
     1
102
RTVSPost2010Prop46
 90
       50
102
RTVSPost2010PropOp46
 70
     1
102
RTVSPost2010Prop47
 90
       50
102
RTVSPost2010PropOp47
 70
     1
102
RTVSPost2010Prop48
 90
       50
102
RTVSPost2010PropOp48
 70
     1
102
RTVSPost2010Prop49
280
     0
102
RTVSPost2010PropOp49
 70
     1
102
RTVSPost2010Prop50
 90
       50
102
RTVSPost2010PropOp50
 70
     1
102
RTVSPost2010Prop51ColorIndex
 90
      256
102
RTVSPost2010Prop51ColorRGB
 90
-16777216
102
RTVSPost2010PropOp51
 70
     0
102
RTVSPost2010Prop52
140
1.0
102
RTVSPost2010PropOp52
 70
     0
102
RTVSPost2010Prop53
 90
        2
102
RTVSPost2010PropOp53
 70
     1
102
RTVSPost2010Prop54
  1
strokes_ogs.tif
102
RTVSPost2010PropOp54
 70
     1
102
RTVSPost2010Prop55
280
     0
102
RTVSPost2010PropOp55
 70
     1
102
RTVSPost2010Prop56
140
1.0
102
RTVSPost2010PropOp56
 70
     1
102
RTVSPost2010Prop57
140
1.0
102
RTVSPost2010PropOp57
 70
     1
  0
XRECORD
  5
5C0
102
{ACAD_REACTORS
330
5BF
102
}
330
5BF
100
AcDbXrecord
280
     1
102
RTVSPropertyOp0
 70
     1
102
RTVSPropertyOp1
 70
     1
102
RTVSPropertyOp2
 70
     1
102
RTVSPropertyOp3
 70
     1
102
RTVSPropertyOp4
 70
     1
102
RTVSPropertyOp5
 70
     1
102
RTVSPropertyOp6
 70
     1
102
RTVSPropertyOp7
 70
     1
102
RTVSPropertyOp8
 70
     1
102
RTVSPropertyOp9
 70
     1
102
RTVSPropertyOp10
 70
     1
102
RTVSPropertyOp11
 70
     1
102
RTVSPropertyOp12
 70
     1
102
RTVSPropertyOp13
 70
     1
102
RTVSPropertyOp14
 70
     1
102
RTVSPropertyOp15
 70
     1
102
RTVSPropertyOp16
 70
     1
102
RTVSPropertyOp17
 70
     1
102
RTVSPropertyOp18
 70
     1
102
RTVSPropertyOp19
 70
     1
102
RTVSPropertyOp20
 70
     1
102
RTVSPropertyOp21
 70
     1
102
RTVSPropertyOp22
 70
     1
102
RTVSPropertyOp23
 70
     1
102
RTVSPropertyOp24
 70
     1
102
RTVSPropertyOp25
 70
     1
102
RTVSPropertyOp26
 70
     1
102
RTVSPropertyOp27
 70
     1
102
RTVSPropertyOp28
 70
     1
102
RTVSPropertyOp29
 70
     1
102
RTVSPropertyOp30
 70
     1
102
RTVSPropertyOp31
 70
     1
102
RTVSPropertyOp32
 70
     1
102
RTVSPropertyOp33
 70
     1
102
RTVSPropertyOp34
 70
     1
102
RTVSPropertyOp35
 70
     1
102
RTVSPropertyOp36
 70
     1
102
RTVSPropertyOp37
 70
     1
102
RTVSPropertyOp38
 70
     1
102
RTVSPropertyOp39
 70
     1
102
RTVSPropertyOp40
 70
     1
102
RTVSPropertyOp41
 70
     1
102
RTVSPropertyOp42
 70
     1
102
RTVSPropertyOp43
 70
     1
102
RTVSPropertyOp44
 70
     1
102
RTVSPropertyOp45
 70
     1
102
RTVSPropertyOp46
 70
     1
102
RTVSPropertyOp47
 70
     1
102
RTVSPropertyOp48
 70
     1
102
RTVSPropertyOp49
 70
     1
102
RTVSPropertyOp50
 70
     1
102
RTVSPropertyOp51
 70
     0
102
RTVSPropertyOp52
 70
     0
102
RTVSPropertyOp53
 70
     1
102
RTVSPropertyOp54
 70
     1
102
RTVSPropertyOp55
 70
     1
102
RTVSPropertyOp56
 70
     1
102
RTVSPropertyOp57
 70
     1
102
RTVSPost2010Prop28
280
     0
102
RTVSPost2010PropOp28
 70
     1
102
RTVSPost2010Prop29
280
     1
102
RTVSPost2010PropOp29
 70
     1
102
RTVSPost2010Prop30
280
     1
102
RTVSPost2010PropOp30
 70
     1
102
RTVSPost2010Prop31
280
     0
102
RTVSPost2010PropOp31
 70
     1
102
RTVSPost2010Prop32
280
     0
102
RTVSPost2010PropOp32
 70
     1
102
RTVSPost2010Prop33
280
     0
102
RTVSPost2010PropOp33
 70
     1
102
RTVSPost2010Prop34
280
     0
102
RTVSPost2010PropOp34
 70
     1
102
RTVSPost2010Prop35
280
     0
102
RTVSPost2010PropOp35
 70
     1
102
RTVSPost2010Prop36
280
     0
102
RTVSPost2010PropOp36
 70
     1
102
RTVSPost2010Prop37
 90
       50
102
RTVSPost2010PropOp37
 70
     1
102
RTVSPost2010Prop38
140
0.0
102
RTVSPost2010PropOp38
 70
     1
102
RTVSPost2010Prop39
140
1.0
102
RTVSPost2010PropOp39
 70
     1
102
RTVSPost2010Prop40
 90
        0
102
RTVSPost2010PropOp40
 70
     1
102
RTVSPost2010Prop41ColorIndex
 90
       18
102
RTVSPost2010Prop41ColorRGB
 90
        0
102
RTVSPost2010PropOp41
 70
     1
102
RTVSPost2010Prop42
 90
       50
102
RTVSPost2010PropOp42
 70
     1
102
RTVSPost2010Prop43
 90
        3
102
RTVSPost2010PropOp43
 70
     1
102
RTVSPost2010Prop44ColorIndex
 90
        5
102
RTVSPost2010Prop44ColorRGB
 90
      255
102
RTVSPost2010PropOp44
 70
     1
102
RTVSPost2010Prop45
280
     0
102
RTVSPost2010PropOp45
 70
     1
102
RTVSPost2010Prop46
 90
       50
102
RTVSPost2010PropOp46
 70
     1
102
RTVSPost2010Prop47
 90
       50
102
RTVSPost2010PropOp47
 70
     1
102
RTVSPost2010Prop48
 90
       50
102
RTVSPost2010PropOp48
 70
     1
102
RTVSPost2010Prop49
280
     0
102
RTVSPost2010PropOp49
 70
     1
102
RTVSPost2010Prop50
 90
       50
102
RTVSPost2010PropOp50
 70
     1
102
RTVSPost2010Prop51ColorIndex
 90
      256
102
RTVSPost2010Prop51ColorRGB
 90
-16777216
102
RTVSPost2010PropOp51
 70
     0
102
RTVSPost2010Prop52
140
1.0
102
RTVSPost2010PropOp52
 70
     0
102
RTVSPost2010Prop53
 90
        2
102
RTVSPost2010PropOp53
 70
     1
102
RTVSPost2010Prop54
  1
strokes_ogs.tif
102
RTVSPost2010PropOp54
 70
     1
102
RTVSPost2010Prop55
280
     0
102
RTVSPost2010PropOp55
 70
     1
102
RTVSPost2010Prop56
140
1.0
102
RTVSPost2010PropOp56
 70
     1
102
RTVSPost2010Prop57
140
1.0
102
RTVSPost2010PropOp57
 70
     1
  0
XRECORD
  5
5C2
102
{ACAD_REACTORS
330
5C1
102
}
330
5C1
100
AcDbXrecord
280
     1
102
RTVSPropertyOp0
 70
     1
102
RTVSPropertyOp1
 70
     1
102
RTVSPropertyOp2
 70
     1
102
RTVSPropertyOp3
 70
     1
102
RTVSPropertyOp4
 70
     1
102
RTVSPropertyOp5
 70
     1
102
RTVSPropertyOp6
 70
     1
102
RTVSPropertyOp7
 70
     1
102
RTVSPropertyOp8
 70
     1
102
RTVSPropertyOp9
 70
     1
102
RTVSPropertyOp10
 70
     1
102
RTVSPropertyOp11
 70
     1
102
RTVSPropertyOp12
 70
     1
102
RTVSPropertyOp13
 70
     1
102
RTVSPropertyOp14
 70
     1
102
RTVSPropertyOp15
 70
     1
102
RTVSPropertyOp16
 70
     1
102
RTVSPropertyOp17
 70
     1
102
RTVSPropertyOp18
 70
     1
102
RTVSPropertyOp19
 70
     1
102
RTVSPropertyOp20
 70
     1
102
RTVSPropertyOp21
 70
     1
102
RTVSPropertyOp22
 70
     1
102
RTVSPropertyOp23
 70
     1
102
RTVSPropertyOp24
 70
     1
102
RTVSPropertyOp25
 70
     1
102
RTVSPropertyOp26
 70
     1
102
RTVSPropertyOp27
 70
     1
102
RTVSPropertyOp28
 70
     1
102
RTVSPropertyOp29
 70
     1
102
RTVSPropertyOp30
 70
     1
102
RTVSPropertyOp31
 70
     1
102
RTVSPropertyOp32
 70
     1
102
RTVSPropertyOp33
 70
     1
102
RTVSPropertyOp34
 70
     1
102
RTVSPropertyOp35
 70
     1
102
RTVSPropertyOp36
 70
     1
102
RTVSPropertyOp37
 70
     1
102
RTVSPropertyOp38
 70
     1
102
RTVSPropertyOp39
 70
     1
102
RTVSPropertyOp40
 70
     1
102
RTVSPropertyOp41
 70
     1
102
RTVSPropertyOp42
 70
     1
102
RTVSPropertyOp43
 70
     1
102
RTVSPropertyOp44
 70
     1
102
RTVSPropertyOp45
 70
     1
102
RTVSPropertyOp46
 70
     1
102
RTVSPropertyOp47
 70
     1
102
RTVSPropertyOp48
 70
     1
102
RTVSPropertyOp49
 70
     1
102
RTVSPropertyOp50
 70
     1
102
RTVSPropertyOp51
 70
     0
102
RTVSPropertyOp52
 70
     0
102
RTVSPropertyOp53
 70
     1
102
RTVSPropertyOp54
 70
     1
102
RTVSPropertyOp55
 70
     1
102
RTVSPropertyOp56
 70
     1
102
RTVSPropertyOp57
 70
     1
102
RTVSPost2010Prop28
280
     0
102
RTVSPost2010PropOp28
 70
     1
102
RTVSPost2010Prop29
280
     1
102
RTVSPost2010PropOp29
 70
     1
102
RTVSPost2010Prop30
280
     1
102
RTVSPost2010PropOp30
 70
     1
102
RTVSPost2010Prop31
280
     0
102
RTVSPost2010PropOp31
 70
     1
102
RTVSPost2010Prop32
280
     0
102
RTVSPost2010PropOp32
 70
     1
102
RTVSPost2010Prop33
280
     0
102
RTVSPost2010PropOp33
 70
     1
102
RTVSPost2010Prop34
280
     0
102
RTVSPost2010PropOp34
 70
     1
102
RTVSPost2010Prop35
280
     0
102
RTVSPost2010PropOp35
 70
     1
102
RTVSPost2010Prop36
280
     0
102
RTVSPost2010PropOp36
 70
     1
102
RTVSPost2010Prop37
 90
       50
102
RTVSPost2010PropOp37
 70
     1
102
RTVSPost2010Prop38
140
0.0
102
RTVSPost2010PropOp38
 70
     1
102
RTVSPost2010Prop39
140
1.0
102
RTVSPost2010PropOp39
 70
     1
102
RTVSPost2010Prop40
 90
        0
102
RTVSPost2010PropOp40
 70
     1
102
RTVSPost2010Prop41ColorIndex
 90
       18
102
RTVSPost2010Prop41ColorRGB
 90
        0
102
RTVSPost2010PropOp41
 70
     1
102
RTVSPost2010Prop42
 90
       50
102
RTVSPost2010PropOp42
 70
     1
102
RTVSPost2010Prop43
 90
        3
102
RTVSPost2010PropOp43
 70
     1
102
RTVSPost2010Prop44ColorIndex
 90
        5
102
RTVSPost2010Prop44ColorRGB
 90
      255
102
RTVSPost2010PropOp44
 70
     1
102
RTVSPost2010Prop45
280
     0
102
RTVSPost2010PropOp45
 70
     1
102
RTVSPost2010Prop46
 90
       50
102
RTVSPost2010PropOp46
 70
     1
102
RTVSPost2010Prop47
 90
       50
102
RTVSPost2010PropOp47
 70
     1
102
RTVSPost2010Prop48
 90
       50
102
RTVSPost2010PropOp48
 70
     1
102
RTVSPost2010Prop49
280
     0
102
RTVSPost2010PropOp49
 70
     1
102
RTVSPost2010Prop50
 90
       50
102
RTVSPost2010PropOp50
 70
     1
102
RTVSPost2010Prop51ColorIndex
 90
      256
102
RTVSPost2010Prop51ColorRGB
 90
-16777216
102
RTVSPost2010PropOp51
 70
     0
102
RTVSPost2010Prop52
140
1.0
102
RTVSPost2010PropOp52
 70
     0
102
RTVSPost2010Prop53
 90
        2
102
RTVSPost2010PropOp53
 70
     1
102
RTVSPost2010Prop54
  1
strokes_ogs.tif
102
RTVSPost2010PropOp54
 70
     1
102
RTVSPost2010Prop55
280
     0
102
RTVSPost2010PropOp55
 70
     1
102
RTVSPost2010Prop56
140
1.0
102
RTVSPost2010PropOp56
 70
     1
102
RTVSPost2010Prop57
140
1.0
102
RTVSPost2010PropOp57
 70
     1
  0
XRECORD
  5
5C4
102
{ACAD_REACTORS
330
5C3
102
}
330
5C3
100
AcDbXrecord
280
     1
102
RTVSPropertyOp0
 70
     1
102
RTVSPropertyOp1
 70
     1
102
RTVSPropertyOp2
 70
     1
102
RTVSPropertyOp3
 70
     1
102
RTVSPropertyOp4
 70
     1
102
RTVSPropertyOp5
 70
     1
102
RTVSPropertyOp6
 70
     1
102
RTVSPropertyOp7
 70
     1
102
RTVSPropertyOp8
 70
     1
102
RTVSPropertyOp9
 70
     1
102
RTVSPropertyOp10
 70
     1
102
RTVSPropertyOp11
 70
     1
102
RTVSPropertyOp12
 70
     1
102
RTVSPropertyOp13
 70
     1
102
RTVSPropertyOp14
 70
     1
102
RTVSPropertyOp15
 70
     1
102
RTVSPropertyOp16
 70
     1
102
RTVSPropertyOp17
 70
     1
102
RTVSPropertyOp18
 70
     1
102
RTVSPropertyOp19
 70
     1
102
RTVSPropertyOp20
 70
     1
102
RTVSPropertyOp21
 70
     1
102
RTVSPropertyOp22
 70
     1
102
RTVSPropertyOp23
 70
     1
102
RTVSPropertyOp24
 70
     1
102
RTVSPropertyOp25
 70
     1
102
RTVSPropertyOp26
 70
     1
102
RTVSPropertyOp27
 70
     1
102
RTVSPropertyOp28
 70
     1
102
RTVSPropertyOp29
 70
     1
102
RTVSPropertyOp30
 70
     1
102
RTVSPropertyOp31
 70
     1
102
RTVSPropertyOp32
 70
     1
102
RTVSPropertyOp33
 70
     1
102
RTVSPropertyOp34
 70
     1
102
RTVSPropertyOp35
 70
     1
102
RTVSPropertyOp36
 70
     1
102
RTVSPropertyOp37
 70
     1
102
RTVSPropertyOp38
 70
     1
102
RTVSPropertyOp39
 70
     1
102
RTVSPropertyOp40
 70
     1
102
RTVSPropertyOp41
 70
     1
102
RTVSPropertyOp42
 70
     1
102
RTVSPropertyOp43
 70
     1
102
RTVSPropertyOp44
 70
     1
102
RTVSPropertyOp45
 70
     1
102
RTVSPropertyOp46
 70
     1
102
RTVSPropertyOp47
 70
     1
102
RTVSPropertyOp48
 70
     1
102
RTVSPropertyOp49
 70
     1
102
RTVSPropertyOp50
 70
     1
102
RTVSPropertyOp51
 70
     0
102
RTVSPropertyOp52
 70
     0
102
RTVSPropertyOp53
 70
     1
102
RTVSPropertyOp54
 70
     1
102
RTVSPropertyOp55
 70
     1
102
RTVSPropertyOp56
 70
     1
102
RTVSPropertyOp57
 70
     1
102
RTVSPost2010Prop28
280
     0
102
RTVSPost2010PropOp28
 70
     1
102
RTVSPost2010Prop29
280
     1
102
RTVSPost2010PropOp29
 70
     1
102
RTVSPost2010Prop30
280
     1
102
RTVSPost2010PropOp30
 70
     1
102
RTVSPost2010Prop31
280
     0
102
RTVSPost2010PropOp31
 70
     1
102
RTVSPost2010Prop32
280
     0
102
RTVSPost2010PropOp32
 70
     1
102
RTVSPost2010Prop33
280
     0
102
RTVSPost2010PropOp33
 70
     1
102
RTVSPost2010Prop34
280
     0
102
RTVSPost2010PropOp34
 70
     1
102
RTVSPost2010Prop35
280
     0
102
RTVSPost2010PropOp35
 70
     1
102
RTVSPost2010Prop36
280
     0
102
RTVSPost2010PropOp36
 70
     1
102
RTVSPost2010Prop37
 90
       50
102
RTVSPost2010PropOp37
 70
     1
102
RTVSPost2010Prop38
140
0.0
102
RTVSPost2010PropOp38
 70
     1
102
RTVSPost2010Prop39
140
1.0
102
RTVSPost2010PropOp39
 70
     1
102
RTVSPost2010Prop40
 90
        0
102
RTVSPost2010PropOp40
 70
     1
102
RTVSPost2010Prop41ColorIndex
 90
       18
102
RTVSPost2010Prop41ColorRGB
 90
        0
102
RTVSPost2010PropOp41
 70
     1
102
RTVSPost2010Prop42
 90
       50
102
RTVSPost2010PropOp42
 70
     1
102
RTVSPost2010Prop43
 90
        3
102
RTVSPost2010PropOp43
 70
     1
102
RTVSPost2010Prop44ColorIndex
 90
        5
102
RTVSPost2010Prop44ColorRGB
 90
      255
102
RTVSPost2010PropOp44
 70
     1
102
RTVSPost2010Prop45
280
     0
102
RTVSPost2010PropOp45
 70
     1
102
RTVSPost2010Prop46
 90
       50
102
RTVSPost2010PropOp46
 70
     1
102
RTVSPost2010Prop47
 90
       50
102
RTVSPost2010PropOp47
 70
     1
102
RTVSPost2010Prop48
 90
       50
102
RTVSPost2010PropOp48
 70
     1
102
RTVSPost2010Prop49
280
     0
102
RTVSPost2010PropOp49
 70
     1
102
RTVSPost2010Prop50
 90
       50
102
RTVSPost2010PropOp50
 70
     1
102
RTVSPost2010Prop51ColorIndex
 90
      256
102
RTVSPost2010Prop51ColorRGB
 90
-16777216
102
RTVSPost2010PropOp51
 70
     0
102
RTVSPost2010Prop52
140
1.0
102
RTVSPost2010PropOp52
 70
     0
102
RTVSPost2010Prop53
 90
        2
102
RTVSPost2010PropOp53
 70
     1
102
RTVSPost2010Prop54
  1
strokes_ogs.tif
102
RTVSPost2010PropOp54
 70
     1
102
RTVSPost2010Prop55
280
     0
102
RTVSPost2010PropOp55
 70
     1
102
RTVSPost2010Prop56
140
1.0
102
RTVSPost2010PropOp56
 70
     1
102
RTVSPost2010Prop57
140
1.0
102
RTVSPost2010PropOp57
 70
     1
  0
XRECORD
  5
5C6
102
{ACAD_REACTORS
330
5C5
102
}
330
5C5
100
AcDbXrecord
280
     1
102
RTVSPropertyOp0
 70
     1
102
RTVSPropertyOp1
 70
     1
102
RTVSPropertyOp2
 70
     1
102
RTVSPropertyOp3
 70
     1
102
RTVSPropertyOp4
 70
     1
102
RTVSPropertyOp5
 70
     1
102
RTVSPropertyOp6
 70
     1
102
RTVSPropertyOp7
 70
     1
102
RTVSPropertyOp8
 70
     1
102
RTVSPropertyOp9
 70
     1
102
RTVSPropertyOp10
 70
     1
102
RTVSPropertyOp11
 70
     1
102
RTVSPropertyOp12
 70
     1
102
RTVSPropertyOp13
 70
     1
102
RTVSPropertyOp14
 70
     1
102
RTVSPropertyOp15
 70
     1
102
RTVSPropertyOp16
 70
     1
102
RTVSPropertyOp17
 70
     1
102
RTVSPropertyOp18
 70
     1
102
RTVSPropertyOp19
 70
     1
102
RTVSPropertyOp20
 70
     1
102
RTVSPropertyOp21
 70
     1
102
RTVSPropertyOp22
 70
     1
102
RTVSPropertyOp23
 70
     1
102
RTVSPropertyOp24
 70
     1
102
RTVSPropertyOp25
 70
     1
102
RTVSPropertyOp26
 70
     1
102
RTVSPropertyOp27
 70
     1
102
RTVSPropertyOp28
 70
     1
102
RTVSPropertyOp29
 70
     1
102
RTVSPropertyOp30
 70
     1
102
RTVSPropertyOp31
 70
     1
102
RTVSPropertyOp32
 70
     1
102
RTVSPropertyOp33
 70
     1
102
RTVSPropertyOp34
 70
     1
102
RTVSPropertyOp35
 70
     1
102
RTVSPropertyOp36
 70
     1
102
RTVSPropertyOp37
 70
     1
102
RTVSPropertyOp38
 70
     1
102
RTVSPropertyOp39
 70
     1
102
RTVSPropertyOp40
 70
     1
102
RTVSPropertyOp41
 70
     1
102
RTVSPropertyOp42
 70
     1
102
RTVSPropertyOp43
 70
     1
102
RTVSPropertyOp44
 70
     1
102
RTVSPropertyOp45
 70
     1
102
RTVSPropertyOp46
 70
     1
102
RTVSPropertyOp47
 70
     1
102
RTVSPropertyOp48
 70
     1
102
RTVSPropertyOp49
 70
     1
102
RTVSPropertyOp50
 70
     1
102
RTVSPropertyOp51
 70
     0
102
RTVSPropertyOp52
 70
     0
102
RTVSPropertyOp53
 70
     1
102
RTVSPropertyOp54
 70
     1
102
RTVSPropertyOp55
 70
     1
102
RTVSPropertyOp56
 70
     1
102
RTVSPropertyOp57
 70
     1
102
RTVSPost2010Prop28
280
     0
102
RTVSPost2010PropOp28
 70
     1
102
RTVSPost2010Prop29
280
     1
102
RTVSPost2010PropOp29
 70
     1
102
RTVSPost2010Prop30
280
     1
102
RTVSPost2010PropOp30
 70
     1
102
RTVSPost2010Prop31
280
     0
102
RTVSPost2010PropOp31
 70
     1
102
RTVSPost2010Prop32
280
     0
102
RTVSPost2010PropOp32
 70
     1
102
RTVSPost2010Prop33
280
     0
102
RTVSPost2010PropOp33
 70
     1
102
RTVSPost2010Prop34
280
     0
102
RTVSPost2010PropOp34
 70
     1
102
RTVSPost2010Prop35
280
     0
102
RTVSPost2010PropOp35
 70
     1
102
RTVSPost2010Prop36
280
     0
102
RTVSPost2010PropOp36
 70
     1
102
RTVSPost2010Prop37
 90
       50
102
RTVSPost2010PropOp37
 70
     1
102
RTVSPost2010Prop38
140
0.0
102
RTVSPost2010PropOp38
 70
     1
102
RTVSPost2010Prop39
140
1.0
102
RTVSPost2010PropOp39
 70
     1
102
RTVSPost2010Prop40
 90
        0
102
RTVSPost2010PropOp40
 70
     1
102
RTVSPost2010Prop41ColorIndex
 90
       18
102
RTVSPost2010Prop41ColorRGB
 90
        0
102
RTVSPost2010PropOp41
 70
     1
102
RTVSPost2010Prop42
 90
       50
102
RTVSPost2010PropOp42
 70
     1
102
RTVSPost2010Prop43
 90
        3
102
RTVSPost2010PropOp43
 70
     1
102
RTVSPost2010Prop44ColorIndex
 90
        5
102
RTVSPost2010Prop44ColorRGB
 90
      255
102
RTVSPost2010PropOp44
 70
     1
102
RTVSPost2010Prop45
280
     0
102
RTVSPost2010PropOp45
 70
     1
102
RTVSPost2010Prop46
 90
       50
102
RTVSPost2010PropOp46
 70
     1
102
RTVSPost2010Prop47
 90
       50
102
RTVSPost2010PropOp47
 70
     1
102
RTVSPost2010Prop48
 90
       50
102
RTVSPost2010PropOp48
 70
     1
102
RTVSPost2010Prop49
280
     0
102
RTVSPost2010PropOp49
 70
     1
102
RTVSPost2010Prop50
 90
       50
102
RTVSPost2010PropOp50
 70
     1
102
RTVSPost2010Prop51ColorIndex
 90
      256
102
RTVSPost2010Prop51ColorRGB
 90
-16777216
102
RTVSPost2010PropOp51
 70
     0
102
RTVSPost2010Prop52
140
1.0
102
RTVSPost2010PropOp52
 70
     0
102
RTVSPost2010Prop53
 90
        2
102
RTVSPost2010PropOp53
 70
     1
102
RTVSPost2010Prop54
  1
strokes_ogs.tif
102
RTVSPost2010PropOp54
 70
     1
102
RTVSPost2010Prop55
280
     0
102
RTVSPost2010PropOp55
 70
     1
102
RTVSPost2010Prop56
140
1.0
102
RTVSPost2010PropOp56
 70
     1
102
RTVSPost2010Prop57
140
1.0
102
RTVSPost2010PropOp57
 70
     1
  0
XRECORD
  5
5C8
102
{ACAD_REACTORS
330
5C7
102
}
330
5C7
100
AcDbXrecord
280
     1
102
RTVSPropertyOp0
 70
     1
102
RTVSPropertyOp1
 70
     1
102
RTVSPropertyOp2
 70
     1
102
RTVSPropertyOp3
 70
     1
102
RTVSPropertyOp4
 70
     1
102
RTVSPropertyOp5
 70
     1
102
RTVSPropertyOp6
 70
     1
102
RTVSPropertyOp7
 70
     1
102
RTVSPropertyOp8
 70
     1
102
RTVSPropertyOp9
 70
     1
102
RTVSPropertyOp10
 70
     1
102
RTVSPropertyOp11
 70
     1
102
RTVSPropertyOp12
 70
     1
102
RTVSPropertyOp13
 70
     1
102
RTVSPropertyOp14
 70
     1
102
RTVSPropertyOp15
 70
     1
102
RTVSPropertyOp16
 70
     1
102
RTVSPropertyOp17
 70
     1
102
RTVSPropertyOp18
 70
     1
102
RTVSPropertyOp19
 70
     1
102
RTVSPropertyOp20
 70
     1
102
RTVSPropertyOp21
 70
     1
102
RTVSPropertyOp22
 70
     1
102
RTVSPropertyOp23
 70
     1
102
RTVSPropertyOp24
 70
     1
102
RTVSPropertyOp25
 70
     1
102
RTVSPropertyOp26
 70
     1
102
RTVSPropertyOp27
 70
     1
102
RTVSPropertyOp28
 70
     1
102
RTVSPropertyOp29
 70
     1
102
RTVSPropertyOp30
 70
     1
102
RTVSPropertyOp31
 70
     1
102
RTVSPropertyOp32
 70
     1
102
RTVSPropertyOp33
 70
     1
102
RTVSPropertyOp34
 70
     1
102
RTVSPropertyOp35
 70
     1
102
RTVSPropertyOp36
 70
     1
102
RTVSPropertyOp37
 70
     1
102
RTVSPropertyOp38
 70
     1
102
RTVSPropertyOp39
 70
     1
102
RTVSPropertyOp40
 70
     1
102
RTVSPropertyOp41
 70
     1
102
RTVSPropertyOp42
 70
     1
102
RTVSPropertyOp43
 70
     1
102
RTVSPropertyOp44
 70
     1
102
RTVSPropertyOp45
 70
     1
102
RTVSPropertyOp46
 70
     1
102
RTVSPropertyOp47
 70
     1
102
RTVSPropertyOp48
 70
     1
102
RTVSPropertyOp49
 70
     1
102
RTVSPropertyOp50
 70
     1
102
RTVSPropertyOp51
 70
     0
102
RTVSPropertyOp52
 70
     0
102
RTVSPropertyOp53
 70
     1
102
RTVSPropertyOp54
 70
     1
102
RTVSPropertyOp55
 70
     1
102
RTVSPropertyOp56
 70
     1
102
RTVSPropertyOp57
 70
     1
102
RTVSPost2010Prop28
280
     0
102
RTVSPost2010PropOp28
 70
     1
102
RTVSPost2010Prop29
280
     1
102
RTVSPost2010PropOp29
 70
     1
102
RTVSPost2010Prop30
280
     1
102
RTVSPost2010PropOp30
 70
     1
102
RTVSPost2010Prop31
280
     0
102
RTVSPost2010PropOp31
 70
     1
102
RTVSPost2010Prop32
280
     0
102
RTVSPost2010PropOp32
 70
     1
102
RTVSPost2010Prop33
280
     0
102
RTVSPost2010PropOp33
 70
     1
102
RTVSPost2010Prop34
280
     0
102
RTVSPost2010PropOp34
 70
     1
102
RTVSPost2010Prop35
280
     0
102
RTVSPost2010PropOp35
 70
     1
102
RTVSPost2010Prop36
280
     0
102
RTVSPost2010PropOp36
 70
     1
102
RTVSPost2010Prop37
 90
       50
102
RTVSPost2010PropOp37
 70
     1
102
RTVSPost2010Prop38
140
0.0
102
RTVSPost2010PropOp38
 70
     1
102
RTVSPost2010Prop39
140
1.0
102
RTVSPost2010PropOp39
 70
     1
102
RTVSPost2010Prop40
 90
        0
102
RTVSPost2010PropOp40
 70
     1
102
RTVSPost2010Prop41ColorIndex
 90
       18
102
RTVSPost2010Prop41ColorRGB
 90
        0
102
RTVSPost2010PropOp41
 70
     1
102
RTVSPost2010Prop42
 90
       50
102
RTVSPost2010PropOp42
 70
     1
102
RTVSPost2010Prop43
 90
        3
102
RTVSPost2010PropOp43
 70
     1
102
RTVSPost2010Prop44ColorIndex
 90
        5
102
RTVSPost2010Prop44ColorRGB
 90
      255
102
RTVSPost2010PropOp44
 70
     1
102
RTVSPost2010Prop45
280
     0
102
RTVSPost2010PropOp45
 70
     1
102
RTVSPost2010Prop46
 90
       50
102
RTVSPost2010PropOp46
 70
     1
102
RTVSPost2010Prop47
 90
       50
102
RTVSPost2010PropOp47
 70
     1
102
RTVSPost2010Prop48
 90
       50
102
RTVSPost2010PropOp48
 70
     1
102
RTVSPost2010Prop49
280
     0
102
RTVSPost2010PropOp49
 70
     1
102
RTVSPost2010Prop50
 90
       50
102
RTVSPost2010PropOp50
 70
     1
102
RTVSPost2010Prop51ColorIndex
 90
      256
102
RTVSPost2010Prop51ColorRGB
 90
-16777216
102
RTVSPost2010PropOp51
 70
     0
102
RTVSPost2010Prop52
140
1.0
102
RTVSPost2010PropOp52
 70
     0
102
RTVSPost2010Prop53
 90
        2
102
RTVSPost2010PropOp53
 70
     1
102
RTVSPost2010Prop54
  1
strokes_ogs.tif
102
RTVSPost2010PropOp54
 70
     1
102
RTVSPost2010Prop55
280
     0
102
RTVSPost2010PropOp55
 70
     1
102
RTVSPost2010Prop56
140
1.0
102
RTVSPost2010PropOp56
 70
     1
102
RTVSPost2010Prop57
140
1.0
102
RTVSPost2010PropOp57
 70
     1
  0
XRECORD
  5
5CA
102
{ACAD_REACTORS
330
5C9
102
}
330
5C9
100
AcDbXrecord
280
     1
102
RTVSPropertyOp0
 70
     1
102
RTVSPropertyOp1
 70
     1
102
RTVSPropertyOp2
 70
     1
102
RTVSPropertyOp3
 70
     1
102
RTVSPropertyOp4
 70
     1
102
RTVSPropertyOp5
 70
     1
102
RTVSPropertyOp6
 70
     1
102
RTVSPropertyOp7
 70
     1
102
RTVSPropertyOp8
 70
     1
102
RTVSPropertyOp9
 70
     1
102
RTVSPropertyOp10
 70
     1
102
RTVSPropertyOp11
 70
     1
102
RTVSPropertyOp12
 70
     1
102
RTVSPropertyOp13
 70
     1
102
RTVSPropertyOp14
 70
     1
102
RTVSPropertyOp15
 70
     1
102
RTVSPropertyOp16
 70
     1
102
RTVSPropertyOp17
 70
     1
102
RTVSPropertyOp18
 70
     1
102
RTVSPropertyOp19
 70
     1
102
RTVSPropertyOp20
 70
     1
102
RTVSPropertyOp21
 70
     1
102
RTVSPropertyOp22
 70
     1
102
RTVSPropertyOp23
 70
     1
102
RTVSPropertyOp24
 70
     1
102
RTVSPropertyOp25
 70
     1
102
RTVSPropertyOp26
 70
     1
102
RTVSPropertyOp27
 70
     1
102
RTVSPropertyOp28
 70
     1
102
RTVSPropertyOp29
 70
     1
102
RTVSPropertyOp30
 70
     1
102
RTVSPropertyOp31
 70
     1
102
RTVSPropertyOp32
 70
     1
102
RTVSPropertyOp33
 70
     1
102
RTVSPropertyOp34
 70
     1
102
RTVSPropertyOp35
 70
     1
102
RTVSPropertyOp36
 70
     1
102
RTVSPropertyOp37
 70
     1
102
RTVSPropertyOp38
 70
     1
102
RTVSPropertyOp39
 70
     1
102
RTVSPropertyOp40
 70
     1
102
RTVSPropertyOp41
 70
     1
102
RTVSPropertyOp42
 70
     1
102
RTVSPropertyOp43
 70
     1
102
RTVSPropertyOp44
 70
     1
102
RTVSPropertyOp45
 70
     1
102
RTVSPropertyOp46
 70
     1
102
RTVSPropertyOp47
 70
     1
102
RTVSPropertyOp48
 70
     1
102
RTVSPropertyOp49
 70
     1
102
RTVSPropertyOp50
 70
     1
102
RTVSPropertyOp51
 70
     0
102
RTVSPropertyOp52
 70
     0
102
RTVSPropertyOp53
 70
     1
102
RTVSPropertyOp54
 70
     1
102
RTVSPropertyOp55
 70
     1
102
RTVSPropertyOp56
 70
     1
102
RTVSPropertyOp57
 70
     1
102
RTVSPost2010Prop28
280
     0
102
RTVSPost2010PropOp28
 70
     1
102
RTVSPost2010Prop29
280
     1
102
RTVSPost2010PropOp29
 70
     1
102
RTVSPost2010Prop30
280
     1
102
RTVSPost2010PropOp30
 70
     1
102
RTVSPost2010Prop31
280
     0
102
RTVSPost2010PropOp31
 70
     1
102
RTVSPost2010Prop32
280
     0
102
RTVSPost2010PropOp32
 70
     1
102
RTVSPost2010Prop33
280
     0
102
RTVSPost2010PropOp33
 70
     1
102
RTVSPost2010Prop34
280
     0
102
RTVSPost2010PropOp34
 70
     1
102
RTVSPost2010Prop35
280
     0
102
RTVSPost2010PropOp35
 70
     1
102
RTVSPost2010Prop36
280
     0
102
RTVSPost2010PropOp36
 70
     1
102
RTVSPost2010Prop37
 90
       50
102
RTVSPost2010PropOp37
 70
     1
102
RTVSPost2010Prop38
140
0.0
102
RTVSPost2010PropOp38
 70
     1
102
RTVSPost2010Prop39
140
1.0
102
RTVSPost2010PropOp39
 70
     1
102
RTVSPost2010Prop40
 90
        0
102
RTVSPost2010PropOp40
 70
     1
102
RTVSPost2010Prop41ColorIndex
 90
       18
102
RTVSPost2010Prop41ColorRGB
 90
        0
102
RTVSPost2010PropOp41
 70
     1
102
RTVSPost2010Prop42
 90
       50
102
RTVSPost2010PropOp42
 70
     1
102
RTVSPost2010Prop43
 90
        3
102
RTVSPost2010PropOp43
 70
     1
102
RTVSPost2010Prop44ColorIndex
 90
        5
102
RTVSPost2010Prop44ColorRGB
 90
      255
102
RTVSPost2010PropOp44
 70
     1
102
RTVSPost2010Prop45
280
     0
102
RTVSPost2010PropOp45
 70
     1
102
RTVSPost2010Prop46
 90
       50
102
RTVSPost2010PropOp46
 70
     1
102
RTVSPost2010Prop47
 90
       50
102
RTVSPost2010PropOp47
 70
     1
102
RTVSPost2010Prop48
 90
       50
102
RTVSPost2010PropOp48
 70
     1
102
RTVSPost2010Prop49
280
     0
102
RTVSPost2010PropOp49
 70
     1
102
RTVSPost2010Prop50
 90
       50
102
RTVSPost2010PropOp50
 70
     1
102
RTVSPost2010Prop51ColorIndex
 90
      256
102
RTVSPost2010Prop51ColorRGB
 90
-16777216
102
RTVSPost2010PropOp51
 70
     0
102
RTVSPost2010Prop52
140
1.0
102
RTVSPost2010PropOp52
 70
     0
102
RTVSPost2010Prop53
 90
        2
102
RTVSPost2010PropOp53
 70
     1
102
RTVSPost2010Prop54
  1
strokes_ogs.tif
102
RTVSPost2010PropOp54
 70
     1
102
RTVSPost2010Prop55
280
     0
102
RTVSPost2010PropOp55
 70
     1
102
RTVSPost2010Prop56
140
1.0
102
RTVSPost2010PropOp56
 70
     1
102
RTVSPost2010Prop57
140
1.0
102
RTVSPost2010PropOp57
 70
     1
  0
ENDSEC
  0
EOF
