  0
SECTION
  2
HEADER
  9
$ACADVER
  1
AC1015
  9
$ACADMAINTVER
 70
     6
  9
$DWGCODEPAGE
  3
ANSI_932
  9
$INSBASE
 10
1839.511602278633
 20
1187.364661490408
 30
0.0
  9
$EXTMIN
 10
95.14410615654128
 20
7.045256502443351
 30
0.0
  9
$EXTMAX
 10
1104.530280682763
 20
950.8367654889264
 30
0.0
  9
$LIMMIN
 10
0.0
 20
0.0
  9
$LIMMAX
 10
816.5000000000001
 20
565.0
  9
$ORTHOMODE
 70
     1
  9
$REGENMODE
 70
     1
  9
$FILLMODE
 70
     1
  9
$QTEXTMODE
 70
     0
  9
$MIRRTEXT
 70
     1
  9
$LTSCALE
 40
5.0
  9
$ATTMODE
 70
     1
  9
$TEXTSIZE
 40
9.0
  9
$TRACEWID
 40
0.05
  9
$TEXTSTYLE
  7
KANJI
  9
$CLAYER
  8
2
  9
$CELTYPE
  6
BYLAYER
  9
$CECOLOR
 62
   256
  9
$CELTSCALE
 40
1.0
  9
$DISPSILH
 70
     0
  9
$DIMSCALE
 40
3.0
  9
$DIMASZ
 40
2.0
  9
$DIMEXO
 40
0.5
  9
$DIMDLI
 40
0.0
  9
$DIMRND
 40
0.0
  9
$DIMDLE
 40
0.0
  9
$DIMEXE
 40
1.0
  9
$DIMTP
 40
0.0
  9
$DIMTM
 40
0.0
  9
$DIMTXT
 40
3.0
  9
$DIMCEN
 40
0.09
  9
$DIMTSZ
 40
0.0
  9
$DIMTOL
 70
     0
  9
$DIMLIM
 70
     0
  9
$DIMTIH
 70
     0
  9
$DIMTOH
 70
     0
  9
$DIMSE1
 70
     0
  9
$DIMSE2
 70
     0
  9
$DIMTAD
 70
     0
  9
$DIMZIN
 70
     8
  9
$DIMBLK
  1

  9
$DIMASO
 70
     0
  9
$DIMSHO
 70
     0
  9
$DIMPOST
  1

  9
$DIMAPOST
  1

  9
$DIMALT
 70
     0
  9
$DIMALTD
 70
     2
  9
$DIMALTF
 40
25.4
  9
$DIMLFAC
 40
1.0
  9
$DIMTOFL
 70
     1
  9
$DIMTVP
 40
1.0
  9
$DIMTIX
 70
     1
  9
$DIMSOXD
 70
     1
  9
$DIMSAH
 70
     0
  9
$DIMBLK1
  1

  9
$DIMBLK2
  1

  9
$DIMSTYLE
  2
STANDARD
  9
$DIMCLRD
 70
   256
  9
$DIMCLRE
 70
   256
  9
$DIMCLRT
 70
   256
  9
$DIMTFAC
 40
1.0
  9
$DIMGAP
 40
0.09
  9
$DIMJUST
 70
     0
  9
$DIMSD1
 70
     0
  9
$DIMSD2
 70
     0
  9
$DIMTOLJ
 70
     1
  9
$DIMTZIN
 70
     0
  9
$DIMALTZ
 70
     0
  9
$DIMALTTZ
 70
     0
  9
$DIMUPT
 70
     0
  9
$DIMDEC
 70
     1
  9
$DIMTDEC
 70
     4
  9
$DIMALTU
 70
     2
  9
$DIMALTTD
 70
     2
  9
$DIMTXSTY
  7
STANDARD
  9
$DIMAUNIT
 70
     0
  9
$DIMADEC
 70
     0
  9
$DIMALTRND
 40
0.0
  9
$DIMAZIN
 70
     0
  9
$DIMDSEP
 70
    46
  9
$DIMATFIT
 70
     3
  9
$DIMFRAC
 70
     0
  9
$DIMLDRBLK
  1

  9
$DIMLUNIT
 70
     2
  9
$DIMLWD
 70
    -2
  9
$DIMLWE
 70
    -2
  9
$DIMTMOVE
 70
     0
  9
$LUNITS
 70
     2
  9
$LUPREC
 70
     3
  9
$SKETCHINC
 40
0.1
  9
$FILLETRAD
 40
1.0
  9
$AUNITS
 70
     0
  9
$AUPREC
 70
     3
  9
$MENU
  1
C:\R13\WIN\SUPPORT\ACADFULL
  9
$ELEVATION
 40
0.0
  9
$PELEVATION
 40
0.0
  9
$THICKNESS
 40
0.0
  9
$LIMCHECK
 70
     0
  9
$CHAMFERA
 40
0.0
  9
$CHAMFERB
 40
0.0
  9
$CHAMFERC
 40
0.0
  9
$CHAMFERD
 40
0.0
  9
$SKPOLY
 70
     0
  9
$TDCREATE
 40
2457438.826695625
  9
$TDUCREATE
 40
2457438.451695625
  9
$TDUPDATE
 40
2457871.81592779
  9
$TDUUPDATE
 40
2457871.44092779
  9
$TDINDWG
 40
0.0113334144
  9
$TDUSRTIMER
 40
0.0113328704
  9
$USRTIMER
 70
     1
  9
$ANGBASE
 50
0.0
  9
$ANGDIR
 70
     0
  9
$PDMODE
 70
     0
  9
$PDSIZE
 40
0.0
  9
$PLINEWID
 40
0.0
  9
$SPLFRAME
 70
     0
  9
$SPLINETYPE
 70
     6
  9
$SPLINESEGS
 70
     8
  9
$HANDSEED
  5
4F4
  9
$SURFTAB1
 70
     6
  9
$SURFTAB2
 70
     6
  9
$SURFTYPE
 70
     6
  9
$SURFU
 70
     6
  9
$SURFV
 70
     6
  9
$UCSBASE
  2

  9
$UCSNAME
  2

  9
$UCSORG
 10
0.0
 20
0.0
 30
0.0
  9
$UCSXDIR
 10
1.0
 20
0.0
 30
0.0
  9
$UCSYDIR
 10
0.0
 20
1.0
 30
0.0
  9
$UCSORTHOREF
  2

  9
$UCSORTHOVIEW
 70
     0
  9
$UCSORGTOP
 10
0.0
 20
0.0
 30
0.0
  9
$UCSORGBOTTOM
 10
0.0
 20
0.0
 30
0.0
  9
$UCSORGLEFT
 10
0.0
 20
0.0
 30
0.0
  9
$UCSORGRIGHT
 10
0.0
 20
0.0
 30
0.0
  9
$UCSORGFRONT
 10
0.0
 20
0.0
 30
0.0
  9
$UCSORGBACK
 10
0.0
 20
0.0
 30
0.0
  9
$PUCSBASE
  2

  9
$PUCSNAME
  2

  9
$PUCSORG
 10
0.0
 20
0.0
 30
0.0
  9
$PUCSXDIR
 10
1.0
 20
0.0
 30
0.0
  9
$PUCSYDIR
 10
0.0
 20
1.0
 30
0.0
  9
$PUCSORTHOREF
  2

  9
$PUCSORTHOVIEW
 70
     0
  9
$PUCSORGTOP
 10
0.0
 20
0.0
 30
0.0
  9
$PUCSORGBOTTOM
 10
0.0
 20
0.0
 30
0.0
  9
$PUCSORGLEFT
 10
0.0
 20
0.0
 30
0.0
  9
$PUCSORGRIGHT
 10
0.0
 20
0.0
 30
0.0
  9
$PUCSORGFRONT
 10
0.0
 20
0.0
 30
0.0
  9
$PUCSORGBACK
 10
0.0
 20
0.0
 30
0.0
  9
$USERI1
 70
     0
  9
$USERI2
 70
     0
  9
$USERI3
 70
     0
  9
$USERI4
 70
     0
  9
$USERI5
 70
     0
  9
$USERR1
 40
0.0
  9
$USERR2
 40
0.0
  9
$USERR3
 40
0.0
  9
$USERR4
 40
2448925.372986111
  9
$USERR5
 40
0.04166667
  9
$WORLDVIEW
 70
     1
  9
$SHADEDGE
 70
     3
  9
$SHADEDIF
 70
    70
  9
$TILEMODE
 70
     1
  9
$MAXACTVP
 70
    16
  9
$PINSBASE
 10
0.0
 20
0.0
 30
0.0
  9
$PLIMCHECK
 70
     0
  9
$PEXTMIN
 10
1.000000000000000E+20
 20
1.000000000000000E+20
 30
1.000000000000000E+20
  9
$PEXTMAX
 10
-1.000000000000000E+20
 20
-1.000000000000000E+20
 30
-1.000000000000000E+20
  9
$PLIMMIN
 10
0.0
 20
0.0
  9
$PLIMMAX
 10
12.0
 20
9.0
  9
$UNITMODE
 70
     0
  9
$VISRETAIN
 70
     0
  9
$PLINEGEN
 70
     0
  9
$PSLTSCALE
 70
     0
  9
$TREEDEPTH
 70
  3020
  9
$CMLSTYLE
  2
STANDARD
  9
$CMLJUST
 70
     0
  9
$CMLSCALE
 40
1.0
  9
$PROXYGRAPHICS
 70
     1
  9
$MEASUREMENT
 70
     0
  9
$CELWEIGHT
370
    -1
  9
$ENDCAPS
280
     0
  9
$JOINSTYLE
280
     0
  9
$LWDISPLAY
290
     0
  9
$INSUNITS
 70
     0
  9
$HYPERLINKBASE
  1

  9
$STYLESHEET
  1

  9
$XEDIT
290
     1
  9
$CEPSNTYPE
380
     0
  9
$PSTYLEMODE
290
     1
  9
$FINGERPRINTGUID
  2
{3E3101BC-A858-4BAD-BC4E-AE39A5EB20E1}
  9
$VERSIONGUID
  2
{3AB7E9C5-E4C0-453A-8230-B3D4A8039594}
  9
$EXTNAMES
290
     1
  9
$PSVPSCALE
 40
0.0
  9
$OLESTARTUP
290
     0
  0
ENDSEC
  0
SECTION
  2
CLASSES
  0
CLASS
  1
ACDBDICTIONARYWDFLT
  2
AcDbDictionaryWithDefault
  3
ObjectDBX Classes
 90
        0
280
     0
281
     0
  0
CLASS
  1
MATERIAL
  2
AcDbMaterial
  3
ObjectDBX Classes
 90
     1153
280
     0
281
     0
  0
CLASS
  1
SORTENTSTABLE
  2
AcDbSortentsTable
  3
ObjectDBX Classes
 90
        0
280
     0
281
     0
  0
CLASS
  1
SCALE
  2
AcDbScale
  3
ObjectDBX Classes
 90
     1153
280
     0
281
     0
  0
CLASS
  1
DICTIONARYVAR
  2
AcDbDictionaryVar
  3
ObjectDBX Classes
 90
        0
280
     0
281
     0
  0
CLASS
  1
VISUALSTYLE
  2
AcDbVisualStyle
  3
ObjectDBX Classes
 90
     4095
280
     0
281
     0
  0
CLASS
  1
MLEADERSTYLE
  2
AcDbMLeaderStyle
  3
ACDB_MLEADERSTYLE_CLASS
 90
     4095
280
     0
281
     0
  0
CLASS
  1
TABLESTYLE
  2
AcDbTableStyle
  3
ObjectDBX Classes
 90
     4095
280
     0
281
     0
  0
CLASS
  1
ACDBPLACEHOLDER
  2
AcDbPlaceHolder
  3
ObjectDBX Classes
 90
        0
280
     0
281
     0
  0
CLASS
  1
LAYOUT
  2
AcDbLayout
  3
ObjectDBX Classes
 90
        0
280
     0
281
     0
  0
ENDSEC
  0
SECTION
  2
TABLES
  0
TABLE
  2
VPORT
  5
2A
102
{ACAD_XDICTIONARY
360
4B9
102
}
330
0
100
AcDbSymbolTable
 70
     1
  0
VPORT
  5
2F
330
2A
100
AcDbSymbolTableRecord
100
AcDbViewportTableRecord
  2
*ACTIVE
 70
     0
 10
0.0
 20
0.0
 11
1.0
 21
1.0
 12
1044.548241306127
 22
432.9530333548433
 13
0.0
 23
0.0
 14
1.0
 24
1.0
 15
50.0
 25
50.0
 16
0.0
 26
0.0
 36
1.0
 17
0.0
 27
0.0
 37
0.0
 40
1082.161460342719
 41
2.177611940298507
 42
50.0
 43
0.0
 44
0.0
 50
0.0
 51
0.0
 71
     0
 72
  5000
 73
     1
 74
     0
 75
     0
 76
     0
 77
     0
 78
     0
281
     0
 65
     1
110
0.0
120
0.0
130
0.0
111
1.0
121
0.0
131
0.0
112
0.0
122
1.0
132
0.0
 79
     0
146
0.0
1001
ACAD_NAV_VCDISPLAY
1070
     3
  0
ENDTAB
  0
TABLE
  2
LTYPE
  5
D
330
0
100
AcDbSymbolTable
 70
     2
  0
LTYPE
  5
E
330
D
100
AcDbSymbolTableRecord
100
AcDbLinetypeTableRecord
  2
BYBLOCK
 70
     0
  3

 72
    65
 73
     0
 40
0.0
  0
LTYPE
  5
F
330
D
100
AcDbSymbolTableRecord
100
AcDbLinetypeTableRecord
  2
BYLAYER
 70
     0
  3

 72
    65
 73
     0
 40
0.0
  0
LTYPE
  5
C
330
D
100
AcDbSymbolTableRecord
100
AcDbLinetypeTableRecord
  2
CONTINUOUS
 70
     0
  3
Solid line
 72
    65
 73
     0
 40
0.0
  0
LTYPE
  5
E6
330
D
100
AcDbSymbolTableRecord
100
AcDbLinetypeTableRecord
  2
CENTER
 70
     0
  3
____ _ ____ _ ____ _ ____ _ ____ _ ____ _ ____
 72
    65
 73
     4
 40
2.0
 49
1.25
 74
     0
 49
-0.25
 74
     0
 49
0.25
 74
     0
 49
-0.25
 74
     0
  0
ENDTAB
  0
TABLE
  2
LAYER
  5
2
330
0
100
AcDbSymbolTable
 70
     7
  0
LAYER
  5
1D
102
{ACAD_XDICTIONARY
360
1E
102
}
330
2
100
AcDbSymbolTableRecord
100
AcDbLayerTableRecord
  2
0
 70
     0
 62
     7
  6
CONTINUOUS
370
    -3
390
5
  0
LAYER
  5
1C1
102
{ACAD_XDICTIONARY
360
1C2
102
}
330
2
100
AcDbSymbolTableRecord
100
AcDbLayerTableRecord
  2
1
 70
     0
 62
     9
  6
CONTINUOUS
370
    -3
390
5
  0
LAYER
  5
1
102
{ACAD_XDICTIONARY
360
3
102
}
330
2
100
AcDbSymbolTableRecord
100
AcDbLayerTableRecord
  2
2
 70
     0
 62
     4
  6
CONTINUOUS
370
    -3
390
5
  0
LAYER
  5
73
102
{ACAD_XDICTIONARY
360
74
102
}
330
2
100
AcDbSymbolTableRecord
100
AcDbLayerTableRecord
  2
4
 70
     0
 62
     3
  6
CONTINUOUS
370
    -3
390
5
  0
LAYER
  5
E3
102
{ACAD_XDICTIONARY
360
E4
102
}
330
2
100
AcDbSymbolTableRecord
100
AcDbLayerTableRecord
  2
L-CENTER
 70
     0
 62
     1
  6
CENTER
370
    -3
390
5
  0
LAYER
  5
5B
102
{ACAD_XDICTIONARY
360
5C
102
}
330
2
100
AcDbSymbolTableRecord
100
AcDbLayerTableRecord
  2
3
 70
     0
 62
     2
  6
CONTINUOUS
370
    -3
390
5
  0
LAYER
  5
1BB
330
2
100
AcDbSymbolTableRecord
100
AcDbLayerTableRecord
  2
5
 70
     0
 62
     6
  6
CONTINUOUS
370
    -3
390
5
  0
ENDTAB
  0
TABLE
  2
STYLE
  5
11
330
0
100
AcDbSymbolTable
 70
     2
  0
STYLE
  5
15
330
11
100
AcDbSymbolTableRecord
100
AcDbTextStyleTableRecord
  2
STANDARD
 70
     0
 40
0.0
 41
1.0
 50
0.0
 71
     0
 42
5.4
  3
TXT
  4

  0
STYLE
  5
10
330
11
100
AcDbSymbolTableRecord
100
AcDbTextStyleTableRecord
  2
KANJI
 70
     0
 40
0.0
 41
1.0
 50
0.0
 71
     0
 42
9.0
  3
TXT
  4
BIGFONT
  0
ENDTAB
  0
TABLE
  2
VIEW
  5
28
330
0
100
AcDbSymbolTable
 70
     0
  0
ENDTAB
  0
TABLE
  2
UCS
  5
29
330
0
100
AcDbSymbolTable
 70
     0
  0
ENDTAB
  0
TABLE
  2
APPID
  5
B
330
0
100
AcDbSymbolTable
 70
     4
  0
APPID
  5
A
330
B
100
AcDbSymbolTableRecord
100
AcDbRegAppTableRecord
  2
ACAD
 70
     0
  0
APPID
  5
30
330
B
100
AcDbSymbolTableRecord
100
AcDbRegAppTableRecord
  2
ACAD_NAV_VCDISPLAY
 70
     0
  0
APPID
  5
23
330
B
100
AcDbSymbolTableRecord
100
AcDbRegAppTableRecord
  2
ACAD_PSEXT
 70
     0
  0
APPID
  5
4A2
330
B
100
AcDbSymbolTableRecord
100
AcDbRegAppTableRecord
  2
ACAD_MLEADERVER
 70
     0
  0
ENDTAB
  0
TABLE
  2
DIMSTYLE
  5
14
330
0
100
AcDbSymbolTable
 70
     1
100
AcDbDimStyleTable
  0
DIMSTYLE
105
13
330
14
100
AcDbSymbolTableRecord
100
AcDbDimStyleTableRecord
  2
STANDARD
 70
     0
178
     0
340
15
  0
ENDTAB
  0
TABLE
  2
BLOCK_RECORD
  5
18
330
0
100
AcDbSymbolTable
 70
     0
  0
BLOCK_RECORD
  5
19
102
{ACAD_XDICTIONARY
360
1A
102
}
330
18
100
AcDbSymbolTableRecord
100
AcDbBlockTableRecord
  2
*MODEL_SPACE
340
21
  0
BLOCK_RECORD
  5
24
330
18
100
AcDbSymbolTableRecord
100
AcDbBlockTableRecord
  2
*PAPER_SPACE
340
27
  0
ENDTAB
  0
ENDSEC
  0
SECTION
  2
BLOCKS
  0
BLOCK
  5
1C
330
19
100
AcDbEntity
  8
0
100
AcDbBlockBegin
  2
*MODEL_SPACE
 70
     0
 10
0.0
 20
0.0
 30
0.0
  3
*MODEL_SPACE
  1

  0
ENDBLK
  5
20
330
19
100
AcDbEntity
  8
0
100
AcDbBlockEnd
  0
BLOCK
  5
25
330
24
100
AcDbEntity
 67
     1
  8
0
100
AcDbBlockBegin
  2
*PAPER_SPACE
 70
     0
 10
0.0
 20
0.0
 30
0.0
  3
*PAPER_SPACE
  1

  0
ENDBLK
  5
26
330
24
100
AcDbEntity
 67
     1
  8
0
100
AcDbBlockEnd
  0
ENDSEC
  0
SECTION
  2
ENTITIES
  0
ARC
  5
72
330
19
100
AcDbEntity
  8
4
100
AcDbCircle
 10
403.8003057860922
 20
261.1141991457662
 30
0.0
 40
19.0
100
AcDbArc
 50
105.2575232904556
 51
74.74247670954361
  0
LINE
  5
76
330
19
100
AcDbEntity
  8
4
100
AcDbLine
 10
408.8003057860922
 20
283.6141991457662
 30
0.0
 11
408.8003057860922
 21
275.6141991457662
 31
0.0
  0
LINE
  5
77
330
19
100
AcDbEntity
  8
4
100
AcDbLine
 10
398.8003057860924
 20
283.6141991457662
 30
0.0
 11
398.8003057860926
 21
275.6141991457662
 31
0.0
  0
LINE
  5
78
330
19
100
AcDbEntity
  8
4
100
AcDbLine
 10
398.8003057860926
 20
275.6141991457662
 30
0.0
 11
408.8003057860922
 21
275.6141991457662
 31
0.0
  0
LINE
  5
79
330
19
100
AcDbEntity
  8
4
100
AcDbLine
 10
398.8003057860924
 20
283.6141991457662
 30
0.0
 11
408.8003057860922
 21
283.6141991457662
 31
0.0
  0
CIRCLE
  5
7A
330
19
100
AcDbEntity
  8
4
100
AcDbCircle
 10
403.8003057860922
 20
261.1141991457662
 30
0.0
 40
31.0
  0
LINE
  5
90
330
19
100
AcDbEntity
  8
4
100
AcDbLine
 10
740.2521918264006
 20
280.1141991457662
 30
0.0
 11
739.2521918264006
 21
279.1141991457662
 31
0.0
  0
LINE
  5
91
330
19
100
AcDbEntity
  8
4
100
AcDbLine
 10
832.2521918264007
 20
281.1141991457662
 30
0.0
 11
814.2521918264001
 21
281.1141991457662
 31
0.0
  0
LINE
  5
92
330
19
100
AcDbEntity
  8
4
100
AcDbLine
 10
833.2521918264006
 20
292.1141991457662
 30
0.0
 11
832.2521918264006
 21
292.1141991457662
 31
0.0
  0
LINE
  5
93
330
19
100
AcDbEntity
  8
4
100
AcDbLine
 10
809.252191826401
 20
280.1141991457662
 30
0.0
 11
809.252191826401
 21
283.6141991457662
 31
0.0
  0
LINE
  5
94
330
19
100
AcDbEntity
  8
4
100
AcDbLine
 10
809.252191826401
 20
283.6141991457662
 30
0.0
 11
739.2521918264006
 21
283.6141991457662
 31
0.0
  0
LINE
  5
95
330
19
100
AcDbEntity
  8
4
100
AcDbLine
 10
814.2521918264001
 20
280.1141991457662
 30
0.0
 11
740.2521918264006
 21
280.1141991457662
 31
0.0
  0
LINE
  5
96
330
19
100
AcDbEntity
  8
4
100
AcDbLine
 10
739.2521918264006
 20
243.1141991457662
 30
0.0
 11
740.2521918264006
 21
242.1141991457662
 31
0.0
  0
LINE
  5
97
330
19
100
AcDbEntity
  8
4
100
AcDbLine
 10
832.2521918264009
 20
241.1141991457662
 30
0.0
 11
814.2521918264001
 21
241.1141991457662
 31
0.0
  0
LINE
  5
98
330
19
100
AcDbEntity
  8
4
100
AcDbLine
 10
833.2521918264006
 20
230.1141991457662
 30
0.0
 11
832.252191826401
 21
230.1141991457662
 31
0.0
  0
LINE
  5
99
330
19
100
AcDbEntity
  8
4
100
AcDbLine
 10
814.2521918264001
 20
242.1141991457662
 30
0.0
 11
740.2521918264006
 21
242.1141991457662
 31
0.0
  0
LINE
  5
9A
330
19
100
AcDbEntity
  8
4
100
AcDbLine
 10
832.252191826401
 20
230.1141991457662
 30
0.0
 11
832.2521918264006
 21
292.1141991457662
 31
0.0
  0
LINE
  5
9B
330
19
100
AcDbEntity
  8
4
100
AcDbLine
 10
814.252191826401
 20
241.1141991457662
 30
0.0
 11
814.252191826401
 21
281.1141991457662
 31
0.0
  0
LINE
  5
9C
330
19
100
AcDbEntity
  8
4
100
AcDbLine
 10
739.2521918264006
 20
243.1141991457662
 30
0.0
 11
739.2521918264003
 21
283.6141991457662
 31
0.0
  0
LINE
  5
9D
330
19
100
AcDbEntity
  8
4
100
AcDbLine
 10
740.2521918264006
 20
280.1141991457662
 30
0.0
 11
740.2521918264006
 21
242.1141991457662
 31
0.0
  0
LINE
  5
9E
330
19
100
AcDbEntity
  8
4
100
AcDbLine
 10
408.8003057860922
 20
587.4978015524401
 30
0.0
 11
422.8003057860922
 21
587.4978015524401
 31
0.0
  0
LINE
  5
9F
330
19
100
AcDbEntity
  8
4
100
AcDbLine
 10
421.8003057860922
 20
586.4978015524401
 30
0.0
 11
422.8003057860922
 21
587.4978015524401
 31
0.0
  0
LINE
  5
A0
330
19
100
AcDbEntity
  8
4
100
AcDbLine
 10
384.8003057860922
 20
587.4978015524401
 30
0.0
 11
398.8003057860922
 21
587.4978015524401
 31
0.0
  0
LINE
  5
A1
330
19
100
AcDbEntity
  8
4
100
AcDbLine
 10
384.8003057860922
 20
587.4978015524401
 30
0.0
 11
385.8003057860922
 21
586.4978015524401
 31
0.0
  0
LINE
  5
A2
330
19
100
AcDbEntity
  8
4
100
AcDbLine
 10
385.8003057860922
 20
586.4978015524401
 30
0.0
 11
421.8003057860922
 21
586.4978015524401
 31
0.0
  0
LINE
  5
A3
330
19
100
AcDbEntity
  8
4
100
AcDbLine
 10
403.8003057860922
 20
656.4978015524401
 30
0.0
 11
403.8003057860922
 21
656.4978015524401
 31
0.0
  0
ARC
  5
A4
330
19
100
AcDbEntity
  8
4
100
AcDbCircle
 10
403.8003057860923
 20
651.4978015524401
 30
0.0
 40
5.0
100
AcDbArc
 50
0.0
 51
90.0
  0
ARC
  5
A5
330
19
100
AcDbEntity
  8
4
100
AcDbCircle
 10
423.8003057860923
 20
660.4978015524401
 30
0.0
 40
1.0
100
AcDbArc
 50
90.0
 51
180.0
  0
ARC
  5
A6
330
19
100
AcDbEntity
  8
4
100
AcDbCircle
 10
383.8003057860923
 20
660.4978015524401
 30
0.0
 40
1.0
100
AcDbArc
 50
0.0
 51
90.0
  0
LINE
  5
A7
330
19
100
AcDbEntity
  8
4
100
AcDbLine
 10
383.8003057860922
 20
661.4978015524401
 30
0.0
 11
423.8003057860922
 21
661.4978015524401
 31
0.0
  0
ARC
  5
A8
330
19
100
AcDbEntity
  8
4
100
AcDbCircle
 10
403.8003057860923
 20
651.4978015524401
 30
0.0
 40
5.0
100
AcDbArc
 50
90.0
 51
180.0
  0
LINE
  5
A9
330
19
100
AcDbEntity
  8
4
100
AcDbLine
 10
434.8003057860921
 20
679.4978015524401
 30
0.0
 11
434.8003057860919
 21
680.4978015524401
 31
0.0
  0
LINE
  5
AA
330
19
100
AcDbEntity
  8
4
100
AcDbLine
 10
372.8003057860921
 20
679.4978015524401
 30
0.0
 11
372.8003057860921
 21
680.4978015524401
 31
0.0
  0
LINE
  5
AB
330
19
100
AcDbEntity
  8
4
100
AcDbLine
 10
434.8003057860919
 20
679.4978015524401
 30
0.0
 11
372.8003057860921
 21
679.4978015524401
 31
0.0
  0
LINE
  5
AC
330
19
100
AcDbEntity
  8
4
100
AcDbLine
 10
383.8003057860922
 20
679.4978015524401
 30
0.0
 11
383.8003057860922
 21
661.4978015524401
 31
0.0
  0
LINE
  5
AD
330
19
100
AcDbEntity
  8
4
100
AcDbLine
 10
423.8003057860922
 20
679.4978015524401
 30
0.0
 11
423.8003057860922
 21
661.4978015524401
 31
0.0
  0
LINE
  5
AE
330
19
100
AcDbEntity
  8
4
100
AcDbLine
 10
408.8003057860922
 20
651.4978015524401
 30
0.0
 11
408.8003057860922
 21
586.4978015524401
 31
0.0
  0
LINE
  5
AF
330
19
100
AcDbEntity
  8
4
100
AcDbLine
 10
398.8003057860922
 20
651.4978015524401
 30
0.0
 11
398.8003057860922
 21
586.4978015524401
 31
0.0
  0
LINE
  5
B0
330
19
100
AcDbEntity
  8
4
100
AcDbLine
 10
384.8003057860922
 20
660.4978015524401
 30
0.0
 11
384.8003057860922
 21
587.4978015524401
 31
0.0
  0
LINE
  5
B1
330
19
100
AcDbEntity
  8
4
100
AcDbLine
 10
422.8003057860922
 20
660.4978015524401
 30
0.0
 11
422.8003057860922
 21
587.4978015524401
 31
0.0
  0
LINE
  5
BD
330
19
100
AcDbEntity
  8
4
100
AcDbLine
 10
193.8003057860922
 20
154.6141991457661
 30
0.0
 11
193.8003057860922
 21
125.6141991457662
 31
0.0
  0
LINE
  5
BF
330
19
100
AcDbEntity
  8
4
100
AcDbLine
 10
194.8003057860922
 20
151.6141991457662
 30
0.0
 11
193.8003057860922
 21
150.6141991457662
 31
0.0
  0
LINE
  5
C0
330
19
100
AcDbEntity
  8
4
100
AcDbLine
 10
274.8003057860924
 20
155.6141991457662
 30
0.0
 11
253.8003057860922
 21
155.6141991457662
 31
0.0
  0
LINE
  5
C1
330
19
100
AcDbEntity
  8
4
100
AcDbLine
 10
248.8003057860922
 20
154.6141991457662
 30
0.0
 11
248.8003057860924
 21
151.6141991457662
 31
0.0
  0
LINE
  5
C2
330
19
100
AcDbEntity
  8
4
100
AcDbLine
 10
253.8003057860922
 20
151.6141991457662
 30
0.0
 11
194.8003057860922
 21
151.6141991457662
 31
0.0
  0
LINE
  5
C3
330
19
100
AcDbEntity
  8
4
100
AcDbLine
 10
248.8003057860922
 20
154.6141991457662
 30
0.0
 11
193.8003057860922
 21
154.6141991457662
 31
0.0
  0
LINE
  5
C4
330
19
100
AcDbEntity
  8
4
100
AcDbLine
 10
274.8003057860924
 20
120.6141991457662
 30
0.0
 11
253.8003057860922
 21
120.6141991457662
 31
0.0
  0
LINE
  5
C5
330
19
100
AcDbEntity
  8
4
100
AcDbLine
 10
253.8003057860922
 20
124.6141991457661
 30
0.0
 11
194.8003057860922
 21
124.6141991457662
 31
0.0
  0
LINE
  5
C6
330
19
100
AcDbEntity
  8
4
100
AcDbLine
 10
253.8003057860924
 20
155.6141991457661
 30
0.0
 11
253.8003057860924
 21
120.6141991457661
 31
0.0
  0
LINE
  5
C7
330
19
100
AcDbEntity
  8
4
100
AcDbLine
 10
193.8003057860922
 20
125.6141991457662
 30
0.0
 11
194.8003057860922
 21
124.6141991457662
 31
0.0
  0
LINE
  5
C8
330
19
100
AcDbEntity
  8
4
100
AcDbLine
 10
194.8003057860922
 20
151.6141991457662
 30
0.0
 11
194.8003057860922
 21
124.6141991457662
 31
0.0
  0
LINE
  5
CA
330
19
100
AcDbEntity
  8
4
100
AcDbLine
 10
194.8003057860922
 20
779.99780155244
 30
0.0
 11
193.8003057860922
 21
778.99780155244
 31
0.0
  0
LINE
  5
CB
330
19
100
AcDbEntity
  8
4
100
AcDbLine
 10
194.8003057860922
 20
779.99780155244
 30
0.0
 11
194.8003057860922
 21
769.99780155244
 31
0.0
  0
LINE
  5
CC
330
19
100
AcDbEntity
  8
4
100
AcDbLine
 10
273.8003057860922
 20
783.99780155244
 30
0.0
 11
253.8003057860922
 21
783.99780155244
 31
0.0
  0
ARC
  5
CD
330
19
100
AcDbEntity
  8
4
100
AcDbCircle
 10
252.8003057860922
 20
780.99780155244
 30
0.0
 40
1.0
100
AcDbArc
 50
270.0
 51
0.0
  0
LINE
  5
CE
330
19
100
AcDbEntity
  8
4
100
AcDbLine
 10
245.3003057860922
 20
769.99780155244
 30
0.0
 11
193.8003057860922
 21
769.99780155244
 31
0.0
  0
LINE
  5
CF
330
19
100
AcDbEntity
  8
4
100
AcDbLine
 10
252.8003057860922
 20
779.99780155244
 30
0.0
 11
194.8003057860922
 21
779.99780155244
 31
0.0
  0
LINE
  5
D0
330
19
100
AcDbEntity
  8
4
100
AcDbLine
 10
194.8003057860922
 20
752.99780155244
 30
0.0
 11
193.8003057860922
 21
753.99780155244
 31
0.0
  0
LINE
  5
D1
330
19
100
AcDbEntity
  8
4
100
AcDbLine
 10
194.8003057860922
 20
762.99780155244
 30
0.0
 11
194.8003057860922
 21
752.9978015524405
 31
0.0
  0
LINE
  5
D2
330
19
100
AcDbEntity
  8
4
100
AcDbLine
 10
273.8003057860922
 20
748.99780155244
 30
0.0
 11
253.8003057860922
 21
748.99780155244
 31
0.0
  0
ARC
  5
D3
330
19
100
AcDbEntity
  8
4
100
AcDbCircle
 10
252.8003057860922
 20
751.99780155244
 30
0.0
 40
1.0
100
AcDbArc
 50
0.0
 51
90.0
  0
LINE
  5
D4
330
19
100
AcDbEntity
  8
4
100
AcDbLine
 10
252.8003057860922
 20
752.99780155244
 30
0.0
 11
194.8003057860922
 21
752.99780155244
 31
0.0
  0
LINE
  5
D5
330
19
100
AcDbEntity
  8
4
100
AcDbLine
 10
245.3003057860922
 20
762.99780155244
 30
0.0
 11
193.8003057860922
 21
762.99780155244
 31
0.0
  0
LINE
  5
D6
330
19
100
AcDbEntity
  8
4
100
AcDbLine
 10
253.8003057860922
 20
783.99780155244
 30
0.0
 11
253.8003057860922
 21
748.99780155244
 31
0.0
  0
LINE
  5
D7
330
19
100
AcDbEntity
  8
4
100
AcDbLine
 10
193.8003057860922
 20
778.99780155244
 30
0.0
 11
193.8003057860922
 21
753.99780155244
 31
0.0
  0
ARC
  5
D8
330
19
100
AcDbEntity
  8
4
100
AcDbCircle
 10
245.3003057860922
 20
766.49780155244
 30
0.0
 40
3.5
100
AcDbArc
 50
270.0
 51
90.0
  0
ARC
  5
127
330
19
100
AcDbEntity
  8
4
100
AcDbCircle
 10
403.8003057860922
 20
-38.88580085423382
 30
0.0
 40
430.0
100
AcDbArc
 50
74.94273554507615
 51
105.0572644549238
  0
LINE
  5
128
330
19
100
AcDbEntity
  8
4
100
AcDbLine
 10
304.2192711341308
 20
283.4631096758289
 30
0.0
 11
353.2237029295932
 21
287.6224201630137
 31
0.0
  0
LINE
  5
12B
330
19
100
AcDbEntity
  8
4
100
AcDbLine
 10
286.5406740291035
 20
109.8122557495965
 30
0.0
 11
342.3697864116039
 21
109.8122557495965
 31
0.0
  0
ARC
  5
12C
330
19
100
AcDbEntity
  8
4
100
AcDbCircle
 10
403.8003057860922
 20
561.114199145766
 30
0.0
 40
430.0
100
AcDbArc
 50
254.9427355450761
 51
267.7720167040899
  0
LINE
  5
12D
330
19
100
AcDbEntity
  8
4
100
AcDbLine
 10
304.2192711341306
 20
238.7652886157032
 30
0.0
 11
353.2237029295932
 21
234.6059781285185
 31
0.0
  0
LINE
  5
12E
330
19
100
AcDbEntity
  8
4
100
AcDbLine
 10
282.0721818550705
 20
78.11419914576618
 30
0.0
 11
352.8003057860922
 21
78.11419914576618
 31
0.0
  0
LINE
  5
12F
330
19
100
AcDbEntity
  8
4
100
AcDbLine
 10
345.7299382691162
 20
48.11419914576618
 30
0.0
 11
280.8003057860922
 21
48.11419914576618
 31
0.0
  0
ARC
  5
130
330
19
100
AcDbEntity
  8
4
100
AcDbCircle
 10
403.8003057860922
 20
261.1141991457662
 30
0.0
 40
128.0
100
AcDbArc
 50
277.9021441181848
 51
262.0978558818151
  0
ARC
  5
131
330
19
100
AcDbEntity
  8
4
100
AcDbCircle
 10
403.8003057860922
 20
261.1141991457662
 30
0.0
 40
106.0
100
AcDbArc
 50
277.0114116271595
 51
262.9885883728406
  0
LINE
  5
132
330
19
100
AcDbEntity
  8
L-CENTER
 48
3.0
100
AcDbLine
 10
537.6584248226249
 20
138.1141991457662
 30
0.0
 11
189.3748690321968
 21
138.1141991457662
 31
0.0
  0
LINE
  5
133
330
19
100
AcDbEntity
  8
L-CENTER
 48
3.0
100
AcDbLine
 10
543.8003057860922
 20
261.1141991457662
 30
0.0
 11
263.8003057860922
 21
261.1141991457662
 31
0.0
  0
ARC
  5
134
330
19
100
AcDbEntity
  8
4
100
AcDbCircle
 10
275.8003057860922
 20
188.1141991457662
 30
0.0
 40
2.0
100
AcDbArc
 50
270.0
 51
329.6461908323774
  0
LINE
  5
135
330
19
100
AcDbEntity
  8
4
100
AcDbLine
 10
274.6038172115905
 20
234.8392263519174
 30
0.0
 11
284.0684445926258
 21
80.23640832155172
 31
0.0
  0
ARC
  5
136
330
19
100
AcDbEntity
  8
4
100
AcDbCircle
 10
703.8003057860919
 20
261.114199145766
 30
0.0
 40
430.0
100
AcDbArc
 50
164.9427355450761
 51
195.0572644549239
  0
LINE
  5
137
330
19
100
AcDbEntity
  8
4
100
AcDbLine
 10
280.8003057860922
 20
77.11419914576618
 30
0.0
 11
280.8003057860922
 21
48.11419914576618
 31
0.0
  0
LINE
  5
138
330
19
100
AcDbEntity
  8
L-CENTER
 48
3.0
100
AcDbLine
 10
318.8003057860922
 20
38.11419914576618
 30
0.0
 11
318.8003057860922
 21
88.11419914576618
 31
0.0
  0
LINE
  5
13A
330
19
100
AcDbEntity
  8
4
100
AcDbLine
 10
274.8003057860922
 20
174.1141991457662
 30
0.0
 11
274.8003057860922
 21
102.1141991457662
 31
0.0
  0
LINE
  5
13B
330
19
100
AcDbEntity
  8
4
100
AcDbLine
 10
275.8003057860922
 20
186.1141991457662
 30
0.0
 11
275.8003057860922
 21
90.11419914576595
 31
0.0
  0
LINE
  5
13C
330
19
100
AcDbEntity
  8
4
100
AcDbLine
 10
275.8003057860922
 20
90.11419914576595
 30
0.0
 11
280.6417768403503
 21
90.11419914576618
 31
0.0
  0
ARC
  5
13D
330
19
100
AcDbEntity
  8
4
100
AcDbCircle
 10
280.6417768403503
 20
87.11419914576618
 30
0.0
 40
3.0
100
AcDbArc
 50
3.503217340862814
 51
90.0
  0
ARC
  5
13E
330
19
100
AcDbEntity
  8
4
100
AcDbCircle
 10
282.0721818550705
 20
80.11419914576618
 30
0.0
 40
2.0
100
AcDbArc
 50
270.0
 51
3.503217340862606
  0
ARC
  5
13F
330
19
100
AcDbEntity
  8
4
100
AcDbCircle
 10
281.8003057860922
 20
77.11419914576618
 30
0.0
 40
1.0
100
AcDbArc
 50
90.0
 51
180.0
  0
LINE
  5
140
330
19
100
AcDbEntity
  8
4
100
AcDbLine
 10
282.0721818550705
 20
78.11419914576618
 30
0.0
 11
281.8003057860922
 21
78.11419914576618
 31
0.0
  0
LINE
  5
141
330
19
100
AcDbEntity
  8
4
100
AcDbLine
 10
275.8003057860922
 20
102.114199145766
 30
0.0
 11
274.8003057860922
 21
102.1141991457662
 31
0.0
  0
ARC
  5
142
330
19
100
AcDbEntity
  8
4
100
AcDbCircle
 10
293.3919725860962
 20
150.7058659457705
 30
0.0
 40
5.0
100
AcDbArc
 50
195.0572644549256
 51
254.942735545077
  0
LINE
  5
143
330
19
100
AcDbEntity
  8
4
100
AcDbLine
 10
275.8003057860922
 20
174.1141991457662
 30
0.0
 11
274.8003057860922
 21
174.1141991457662
 31
0.0
  0
ARC
  5
144
330
19
100
AcDbEntity
  8
4
100
AcDbCircle
 10
703.8003057860922
 20
261.114199145766
 30
0.0
 40
430.0
100
AcDbArc
 50
164.9427355450761
 51
183.5032173408624
  0
ARC
  5
145
330
19
100
AcDbEntity
  8
4
100
AcDbCircle
 10
303.9655547442721
 20
235.7760365364168
 30
0.0
 40
3.0
100
AcDbArc
 50
85.14857887214049
 51
194.2410316353826
  0
ARC
  5
146
330
19
100
AcDbEntity
  8
4
100
AcDbCircle
 10
303.9655547442724
 20
286.4523617551151
 30
0.0
 40
3.0
100
AcDbArc
 50
165.7589683646174
 51
274.8514211278595
  0
ARC
  5
147
330
19
100
AcDbEntity
  8
4
100
AcDbCircle
 10
293.3919725860965
 20
371.5225323457619
 30
0.0
 40
5.0
100
AcDbArc
 50
105.057264454925
 51
164.942735545075
  0
LINE
  5
148
330
19
100
AcDbEntity
  8
4
100
AcDbLine
 10
986.5521918264008
 20
170.2132090467571
 30
0.0
 11
993.9426818021839
 21
214.8488415737654
 31
0.0
  0
LINE
  5
149
330
19
100
AcDbEntity
  8
4
100
AcDbLine
 10
986.5521918264008
 20
179.3959556944928
 30
0.0
 11
992.350355982669
 21
214.414570895716
 31
0.0
  0
LINE
  5
14A
330
19
100
AcDbEntity
  8
4
100
AcDbLine
 10
968.2521918264006
 20
261.1141991457662
 30
0.0
 11
968.2521918264006
 21
138.1141991457662
 31
0.0
  0
LINE
  5
14B
330
19
100
AcDbEntity
  8
4
100
AcDbLine
 10
870.2521918264006
 20
261.1141991457662
 30
0.0
 11
870.2521918264006
 21
138.1141991457662
 31
0.0
  0
LINE
  5
14C
330
19
100
AcDbEntity
  8
4
100
AcDbLine
 10
869.2521918264006
 20
391.1141991457662
 30
0.0
 11
869.2521918264006
 21
133.1141991457662
 31
0.0
  0
LINE
  5
14D
330
19
100
AcDbEntity
  8
L-CENTER
 48
3.0
100
AcDbLine
 10
919.2521918264006
 20
403.7478965921696
 30
0.0
 11
919.2521918264005
 21
41.917785336316
 31
0.0
  0
LINE
  5
14E
330
19
100
AcDbEntity
  8
4
100
AcDbLine
 10
986.5521918264003
 20
134.1141991457662
 30
0.0
 11
986.5521918264003
 21
388.1141991457662
 31
0.0
  0
LINE
  5
14F
330
19
100
AcDbEntity
  8
4
100
AcDbLine
 10
969.2521918264006
 20
391.1141991457662
 30
0.0
 11
969.252191826401
 21
131.1141991457662
 31
0.0
  0
LINE
  5
150
330
19
100
AcDbEntity
  8
4
100
AcDbLine
 10
975.2521918264006
 20
133.1141991457662
 30
0.0
 11
975.2521918264006
 21
389.1141991457662
 31
0.0
  0
CIRCLE
  5
15B
330
19
100
AcDbEntity
  8
4
100
AcDbCircle
 10
403.8003057860922
 20
78.11419914576618
 30
0.0
 40
5.5
  0
CIRCLE
  5
15C
330
19
100
AcDbEntity
  8
2
100
AcDbCircle
 10
403.8003057860922
 20
78.11419914576618
 30
0.0
 40
6.577999999999975
  0
LINE
  5
15D
330
19
100
AcDbEntity
  8
2
 48
3.0
100
AcDbLine
 10
403.8003057860924
 20
81.57830076090386
 30
0.0
 11
400.8003057860922
 21
79.84624995333485
 31
0.0
  0
LINE
  5
15E
330
19
100
AcDbEntity
  8
2
 48
3.0
100
AcDbLine
 10
406.8003057860922
 20
76.38214833819723
 30
0.0
 11
403.8003057860922
 21
74.65009753062833
 31
0.0
  0
LINE
  5
28F
330
19
100
AcDbEntity
  8
4
100
AcDbLine
 10
408.8003057860922
 20
945.49780155244
 30
0.0
 11
422.8003057860922
 21
945.49780155244
 31
0.0
  0
LINE
  5
290
330
19
100
AcDbEntity
  8
4
100
AcDbLine
 10
421.8003057860922
 20
946.49780155244
 30
0.0
 11
422.8003057860922
 21
945.49780155244
 31
0.0
  0
LINE
  5
291
330
19
100
AcDbEntity
  8
4
100
AcDbLine
 10
384.8003057860922
 20
945.49780155244
 30
0.0
 11
398.8003057860922
 21
945.49780155244
 31
0.0
  0
LINE
  5
292
330
19
100
AcDbEntity
  8
4
100
AcDbLine
 10
384.8003057860922
 20
945.49780155244
 30
0.0
 11
385.8003057860922
 21
946.49780155244
 31
0.0
  0
LINE
  5
293
330
19
100
AcDbEntity
  8
4
100
AcDbLine
 10
385.8003057860922
 20
946.49780155244
 30
0.0
 11
421.8003057860922
 21
946.49780155244
 31
0.0
  0
LINE
  5
294
330
19
100
AcDbEntity
  8
4
100
AcDbLine
 10
526.8003057860922
 20
856.49780155244
 30
0.0
 11
526.8003057860924
 21
843.7978015524402
 31
0.0
  0
ARC
  5
295
330
19
100
AcDbEntity
  8
4
100
AcDbCircle
 10
530.8003057860922
 20
832.7978015524402
 30
0.0
 40
1.0
100
AcDbArc
 50
0.0
 51
90.0
  0
LINE
  5
296
330
19
100
AcDbEntity
  8
4
100
AcDbLine
 10
530.3003057860931
 20
843.7978015524402
 30
0.0
 11
517.3003057860931
 21
843.7978015524402
 31
0.0
  0
LINE
  5
297
330
19
100
AcDbEntity
  8
4
100
AcDbLine
 10
531.0503057860931
 20
835.7978015524402
 30
0.0
 11
516.5503057860931
 21
835.7978015524402
 31
0.0
  0
LINE
  5
298
330
19
100
AcDbEntity
  8
4
100
AcDbLine
 10
517.3003057860931
 20
835.7978015524402
 30
0.0
 11
517.3003057860931
 21
843.7978015524402
 31
0.0
  0
LINE
  5
299
330
19
100
AcDbEntity
  8
4
100
AcDbLine
 10
516.5503057860931
 20
833.7978015524402
 30
0.0
 11
516.5503057860931
 21
835.7978015524402
 31
0.0
  0
LINE
  5
29A
330
19
100
AcDbEntity
  8
4
100
AcDbLine
 10
530.3003057860931
 20
835.7978015524402
 30
0.0
 11
530.3003057860931
 21
843.7978015524402
 31
0.0
  0
LINE
  5
29B
330
19
100
AcDbEntity
  8
4
100
AcDbLine
 10
531.0503057860931
 20
833.7978015524402
 30
0.0
 11
531.0503057860931
 21
835.7978015524402
 31
0.0
  0
ARC
  5
29C
330
19
100
AcDbEntity
  8
4
100
AcDbCircle
 10
521.8003057860922
 20
856.49780155244
 30
0.0
 40
5.0
100
AcDbArc
 50
0.0
 51
90.0
  0
LINE
  5
29D
330
19
100
AcDbEntity
  8
4
100
AcDbLine
 10
403.8003057860922
 20
876.49780155244
 30
0.0
 11
403.8003057860922
 21
876.49780155244
 31
0.0
  0
ARC
  5
29E
330
19
100
AcDbEntity
  8
4
100
AcDbCircle
 10
403.8003057860923
 20
881.49780155244
 30
0.0
 40
5.0
100
AcDbArc
 50
270.0
 51
0.0
  0
ARC
  5
29F
330
19
100
AcDbEntity
  8
4
100
AcDbCircle
 10
423.8003057860923
 20
872.49780155244
 30
0.0
 40
1.0
100
AcDbArc
 50
180.0
 51
270.0
  0
ARC
  5
2A0
330
19
100
AcDbEntity
  8
4
100
AcDbCircle
 10
383.8003057860923
 20
872.49780155244
 30
0.0
 40
1.0
100
AcDbArc
 50
270.0
 51
0.0
  0
LINE
  5
2A1
330
19
100
AcDbEntity
  8
4
100
AcDbLine
 10
383.8003057860922
 20
871.49780155244
 30
0.0
 11
423.8003057860922
 21
871.49780155244
 31
0.0
  0
ARC
  5
2A2
330
19
100
AcDbEntity
  8
4
100
AcDbCircle
 10
403.8003057860923
 20
881.49780155244
 30
0.0
 40
5.0
100
AcDbArc
 50
180.0
 51
270.0
  0
LINE
  5
2A3
330
19
100
AcDbEntity
  8
4
100
AcDbLine
 10
452.8003057860922
 20
856.49780155244
 30
0.0
 11
452.8003057860922
 21
840.7355064704732
 31
0.0
  0
LINE
  5
2A4
330
19
100
AcDbEntity
  8
4
100
AcDbLine
 10
446.0012737663308
 20
851.6609189582321
 30
0.0
 11
448.4628353530009
 21
842.6351931404413
 31
0.0
  0
LINE
  5
2A5
330
19
100
AcDbEntity
  8
4
100
AcDbLine
 10
430.8003057860922
 20
841.3978015524401
 30
0.0
 11
427.0379295484685
 21
833.7978015524402
 31
0.0
  0
LINE
  5
2A6
330
19
100
AcDbEntity
  8
4
100
AcDbLine
 10
434.8003057860921
 20
853.3978015524401
 30
0.0
 11
434.8003057860919
 21
852.3978015524401
 31
0.0
  0
ARC
  5
2A7
330
19
100
AcDbEntity
  8
4
100
AcDbCircle
 10
445.036509945093
 20
851.3978015524401
 30
0.0
 40
1.0
100
AcDbArc
 50
15.25511870304778
 51
90.0
  0
LINE
  5
2A8
330
19
100
AcDbEntity
  8
4
100
AcDbLine
 10
457.3003057860931
 20
839.9904245032596
 30
0.0
 11
450.0656633580929
 21
841.1882915282238
 31
0.0
  0
LINE
  5
2A9
330
19
100
AcDbEntity
  8
4
100
AcDbLine
 10
470.3003057860931
 20
843.7978015524402
 30
0.0
 11
457.3003057860931
 21
843.7978015524402
 31
0.0
  0
LINE
  5
2AA
330
19
100
AcDbEntity
  8
4
100
AcDbLine
 10
471.0503057860931
 20
835.7978015524402
 30
0.0
 11
456.5503057860931
 21
835.7978015524402
 31
0.0
  0
LINE
  5
2AB
330
19
100
AcDbEntity
  8
4
100
AcDbLine
 10
457.3003057860931
 20
835.7978015524402
 30
0.0
 11
457.3003057860931
 21
843.7978015524402
 31
0.0
  0
LINE
  5
2AC
330
19
100
AcDbEntity
  8
4
100
AcDbLine
 10
456.5503057860931
 20
833.7978015524402
 30
0.0
 11
456.5503057860931
 21
835.7978015524402
 31
0.0
  0
LINE
  5
2AD
330
19
100
AcDbEntity
  8
4
100
AcDbLine
 10
470.3003057860931
 20
835.7978015524402
 30
0.0
 11
470.3003057860931
 21
843.7978015524402
 31
0.0
  0
LINE
  5
2AE
330
19
100
AcDbEntity
  8
4
100
AcDbLine
 10
471.0503057860931
 20
833.7978015524402
 30
0.0
 11
471.0503057860931
 21
835.7978015524402
 31
0.0
  0
ARC
  5
2AF
330
19
100
AcDbEntity
  8
4
100
AcDbCircle
 10
450.3923629954763
 20
843.1614279520252
 30
0.0
 40
2.0
100
AcDbArc
 50
195.2551187030482
 51
260.5986145193453
  0
LINE
  5
2B0
330
19
100
AcDbEntity
  8
4
100
AcDbLine
 10
354.8003057860926
 20
856.49780155244
 30
0.0
 11
354.8003057860926
 21
840.7355064704727
 31
0.0
  0
LINE
  5
2B1
330
19
100
AcDbEntity
  8
4
100
AcDbLine
 10
376.8003057860922
 20
841.3978015524401
 30
0.0
 11
380.5626820237159
 21
833.7978015524402
 31
0.0
  0
LINE
  5
2B2
330
19
100
AcDbEntity
  8
4
100
AcDbLine
 10
361.5993378058536
 20
851.6609189582321
 30
0.0
 11
359.1377762191833
 21
842.6351931404413
 31
0.0
  0
ARC
  5
2B3
330
19
100
AcDbEntity
  8
4
100
AcDbCircle
 10
357.208248576708
 20
843.1614279520252
 30
0.0
 40
2.0
100
AcDbArc
 50
279.4013854806547
 51
344.7448812969518
  0
ARC
  5
2B4
330
19
100
AcDbEntity
  8
4
100
AcDbCircle
 10
362.5641016270913
 20
851.3978015524401
 30
0.0
 40
1.0
100
AcDbArc
 50
90.0
 51
164.7448812969522
  0
LINE
  5
2B5
330
19
100
AcDbEntity
  8
4
100
AcDbLine
 10
372.8003057860921
 20
853.3978015524401
 30
0.0
 11
372.8003057860921
 21
852.3978015524401
 31
0.0
  0
LINE
  5
2B6
330
19
100
AcDbEntity
  8
4
100
AcDbLine
 10
350.3003057860913
 20
839.9904245032592
 30
0.0
 11
357.5349482140916
 21
841.1882915282238
 31
0.0
  0
LINE
  5
2B7
330
19
100
AcDbEntity
  8
4
100
AcDbLine
 10
350.3003057860913
 20
843.7978015524402
 30
0.0
 11
337.3003057860913
 21
843.7978015524402
 31
0.0
  0
LINE
  5
2B8
330
19
100
AcDbEntity
  8
4
100
AcDbLine
 10
351.0503057860913
 20
835.7978015524402
 30
0.0
 11
336.5503057860913
 21
835.7978015524402
 31
0.0
  0
LINE
  5
2B9
330
19
100
AcDbEntity
  8
4
100
AcDbLine
 10
337.3003057860913
 20
835.7978015524402
 30
0.0
 11
337.3003057860913
 21
843.7978015524402
 31
0.0
  0
LINE
  5
2BA
330
19
100
AcDbEntity
  8
4
100
AcDbLine
 10
336.5503057860913
 20
833.7978015524402
 30
0.0
 11
336.5503057860913
 21
835.7978015524402
 31
0.0
  0
LINE
  5
2BB
330
19
100
AcDbEntity
  8
4
100
AcDbLine
 10
350.3003057860913
 20
835.7978015524402
 30
0.0
 11
350.3003057860913
 21
843.7978015524402
 31
0.0
  0
LINE
  5
2BC
330
19
100
AcDbEntity
  8
4
100
AcDbLine
 10
351.0503057860913
 20
833.7978015524402
 30
0.0
 11
351.0503057860913
 21
835.7978015524402
 31
0.0
  0
LINE
  5
2BD
330
19
100
AcDbEntity
  8
4
100
AcDbLine
 10
445.036509945093
 20
841.3978015524401
 30
0.0
 11
362.5641016270913
 21
841.3978015524401
 31
0.0
  0
LINE
  5
2BE
330
19
100
AcDbEntity
  8
4
100
AcDbLine
 10
434.8003057860919
 20
853.3978015524401
 30
0.0
 11
372.8003057860921
 21
853.3978015524401
 31
0.0
  0
LINE
  5
2BF
330
19
100
AcDbEntity
  8
4
100
AcDbLine
 10
445.036509945093
 20
852.3978015524401
 30
0.0
 11
362.5641016270913
 21
852.3978015524401
 31
0.0
  0
ARC
  5
2C0
330
19
100
AcDbEntity
  8
4
100
AcDbCircle
 10
349.8003057860926
 20
856.49780155244
 30
0.0
 40
5.0
100
AcDbArc
 50
0.0
 51
90.0
  0
ARC
  5
2C1
330
19
100
AcDbEntity
  8
4
100
AcDbCircle
 10
457.8003057860922
 20
856.49780155244
 30
0.0
 40
5.0
100
AcDbArc
 50
90.0
 51
180.0
  0
LINE
  5
2C2
330
19
100
AcDbEntity
  8
4
100
AcDbLine
 10
383.8003057860922
 20
853.3978015524401
 30
0.0
 11
383.8003057860922
 21
871.49780155244
 31
0.0
  0
LINE
  5
2C3
330
19
100
AcDbEntity
  8
4
100
AcDbLine
 10
423.8003057860922
 20
853.3978015524401
 30
0.0
 11
423.8003057860922
 21
871.49780155244
 31
0.0
  0
LINE
  5
2C4
330
19
100
AcDbEntity
  8
4
100
AcDbLine
 10
521.8003057860922
 20
861.49780155244
 30
0.0
 11
457.8003057860922
 21
861.49780155244
 31
0.0
  0
ARC
  5
2C5
330
19
100
AcDbEntity
  8
4
100
AcDbCircle
 10
488.8003057860922
 20
831.49780155244
 30
0.0
 40
9.0
100
AcDbArc
 50
14.80650691189571
 51
149.5459547618771
  0
LINE
  5
2C6
330
19
100
AcDbEntity
  8
L-CENTER
 48
3.0
100
AcDbLine
 10
503.9203057860921
 20
831.49780155244
 30
0.0
 11
473.6803057860923
 21
831.49780155244
 31
0.0
  0
LINE
  5
2C7
330
19
100
AcDbEntity
  8
4
100
AcDbLine
 10
494.7012958851005
 20
833.7978015524402
 30
0.0
 11
470.3003057860931
 21
837.8379654868666
 31
0.0
  0
LINE
  5
2C8
330
19
100
AcDbEntity
  8
4
100
AcDbLine
 10
408.8003057860922
 20
881.49780155244
 30
0.0
 11
408.8003057860922
 21
946.49780155244
 31
0.0
  0
LINE
  5
2C9
330
19
100
AcDbEntity
  8
4
100
AcDbLine
 10
398.8003057860922
 20
881.49780155244
 30
0.0
 11
398.8003057860922
 21
946.49780155244
 31
0.0
  0
LINE
  5
2CA
330
19
100
AcDbEntity
  8
4
100
AcDbLine
 10
384.8003057860922
 20
872.49780155244
 30
0.0
 11
384.8003057860922
 21
945.49780155244
 31
0.0
  0
LINE
  5
2CB
330
19
100
AcDbEntity
  8
4
100
AcDbLine
 10
422.8003057860922
 20
872.49780155244
 30
0.0
 11
422.8003057860922
 21
945.49780155244
 31
0.0
  0
LINE
  5
2CC
330
19
100
AcDbEntity
  8
4
100
AcDbLine
 10
531.8003057860924
 20
822.4978015524405
 30
0.0
 11
531.8003057860924
 21
816.49780155244
 31
0.0
  0
LINE
  5
2CD
330
19
100
AcDbEntity
  8
4
100
AcDbLine
 10
531.8003057860924
 20
716.4978015524403
 30
0.0
 11
531.8003057860923
 21
707.4978015524401
 31
0.0
  0
LINE
  5
2CE
330
19
100
AcDbEntity
  8
4
100
AcDbLine
 10
533.8003057860922
 20
816.49780155244
 30
0.0
 11
533.8003057860922
 21
716.4978015524403
 31
0.0
  0
CIRCLE
  5
2CF
330
19
100
AcDbEntity
  8
4
100
AcDbCircle
 10
403.8003057860922
 20
766.49780155244
 30
0.0
 40
19.0
  0
CIRCLE
  5
2D0
330
19
100
AcDbEntity
  8
4
100
AcDbCircle
 10
403.8003057860922
 20
766.49780155244
 30
0.0
 40
12.5
  0
LWPOLYLINE
  5
2D1
330
19
100
AcDbEntity
  8
4
100
AcDbPolyline
 90
        6
 70
     1
 43
0.0
 10
416.3003057860922
 20
766.49780155244
 10
410.0503057860922
 20
777.3231190997456
 10
397.5503057860922
 20
777.3231190997456
 10
391.3003057860922
 20
766.49780155244
 10
397.5503057860922
 20
755.6724840051345
 10
410.0503057860922
 20
755.6724840051345
  0
LINE
  5
2D2
330
19
100
AcDbEntity
  8
L-CENTER
 48
3.0
100
AcDbLine
 10
488.8003057860922
 20
846.6178015524399
 30
0.0
 11
488.8003057860922
 21
816.3778015524401
 31
0.0
  0
LINE
  5
2D3
330
19
100
AcDbEntity
  8
4
100
AcDbLine
 10
531.8003057860922
 20
832.7978015524402
 30
0.0
 11
531.8003057860922
 21
822.4978015524405
 31
0.0
  0
LINE
  5
2D4
330
19
100
AcDbEntity
  8
L-CENTER
 48
3.0
100
AcDbLine
 10
463.8003057860931
 20
810.5681199215485
 30
0.0
 11
463.8003057860931
 21
845.7688107510455
 31
0.0
  0
LINE
  5
2D5
330
19
100
AcDbEntity
  8
L-CENTER
 48
3.0
100
AcDbLine
 10
523.8003057860931
 20
810.5681199215485
 30
0.0
 11
523.8003057860931
 21
845.7688107510455
 31
0.0
  0
LINE
  5
2D6
330
19
100
AcDbEntity
  8
L-CENTER
 48
3.0
100
AcDbLine
 10
343.8003057860912
 20
810.5681199215485
 30
0.0
 11
343.8003057860912
 21
845.7688107510455
 31
0.0
  0
ARC
  5
2DD
330
19
100
AcDbEntity
  8
4
100
AcDbCircle
 10
521.8003057860922
 20
676.4978015524401
 30
0.0
 40
5.0
100
AcDbArc
 50
270.0
 51
0.0
  0
LINE
  5
2DE
330
19
100
AcDbEntity
  8
4
100
AcDbLine
 10
452.8003057860922
 20
692.37280155244
 30
0.0
 11
452.8003057860922
 21
676.4978015524401
 31
0.0
  0
LINE
  5
2DF
330
19
100
AcDbEntity
  8
4
100
AcDbLine
 10
447.0012737663308
 20
681.2346841466481
 30
0.0
 11
449.8003057860922
 21
691.4978015524401
 31
0.0
  0
ARC
  5
2E0
330
19
100
AcDbEntity
  8
4
100
AcDbCircle
 10
446.036509945093
 20
681.4978015524401
 30
0.0
 40
1.0
100
AcDbArc
 50
270.0
 51
344.7448812969451
  0
LINE
  5
2E1
330
19
100
AcDbEntity
  8
4
100
AcDbLine
 10
445.8003057860922
 20
701.9978015524401
 30
0.0
 11
445.8003057860922
 21
691.4978015524401
 31
0.0
  0
LINE
  5
2E2
330
19
100
AcDbEntity
  8
4
100
AcDbLine
 10
354.8003057860922
 20
692.3728015524401
 30
0.0
 11
354.8003057860922
 21
676.4978015524404
 31
0.0
  0
LINE
  5
2E3
330
19
100
AcDbEntity
  8
4
100
AcDbLine
 10
360.5993378058536
 20
681.234684146648
 30
0.0
 11
357.8003057860922
 21
691.4978015524401
 31
0.0
  0
ARC
  5
2E4
330
19
100
AcDbEntity
  8
4
100
AcDbCircle
 10
361.5641016270918
 20
681.4978015524401
 30
0.0
 40
1.0
100
AcDbArc
 50
195.2551187030612
 51
270.0
  0
LINE
  5
2E5
330
19
100
AcDbEntity
  8
4
100
AcDbLine
 10
361.8003057860923
 20
701.9978015524401
 30
0.0
 11
361.8003057860922
 21
691.4978015524403
 31
0.0
  0
LINE
  5
2E6
330
19
100
AcDbEntity
  8
4
100
AcDbLine
 10
449.8003057860922
 20
691.4978015524401
 30
0.0
 11
357.8003057860922
 21
691.4978015524401
 31
0.0
  0
LINE
  5
2E7
330
19
100
AcDbEntity
  8
4
100
AcDbLine
 10
446.036509945093
 20
680.4978015524401
 30
0.0
 11
361.5641016270918
 21
680.4978015524401
 31
0.0
  0
LINE
  5
2E8
330
19
100
AcDbEntity
  8
4
100
AcDbLine
 10
445.8003057860922
 20
701.9978015524401
 30
0.0
 11
361.8003057860922
 21
701.9978015524401
 31
0.0
  0
ARC
  5
2E9
330
19
100
AcDbEntity
  8
4
100
AcDbCircle
 10
349.8003057860922
 20
676.4978015524404
 30
0.0
 40
5.0
100
AcDbArc
 50
270.0
 51
0.0
  0
ARC
  5
2EA
330
19
100
AcDbEntity
  8
4
100
AcDbCircle
 10
457.8003057860922
 20
676.4978015524401
 30
0.0
 40
5.0
100
AcDbArc
 50
180.0
 51
270.0
  0
LINE
  5
2EB
330
19
100
AcDbEntity
  8
4
100
AcDbLine
 10
521.8003057860922
 20
671.4978015524401
 30
0.0
 11
457.8003057860922
 21
671.4978015524401
 31
0.0
  0
LINE
  5
2EC
330
19
100
AcDbEntity
  8
L-CENTER
 48
3.0
100
AcDbLine
 10
503.9203057860921
 20
701.4978015524401
 30
0.0
 11
473.6803057860923
 21
701.4978015524401
 31
0.0
  0
LINE
  5
2ED
330
19
100
AcDbEntity
  8
L-CENTER
 48
3.0
100
AcDbLine
 10
488.8003057860922
 20
716.6178015524401
 30
0.0
 11
488.8003057860922
 21
686.3778015524401
 31
0.0
  0
ARC
  5
2EE
330
19
100
AcDbEntity
  8
4
100
AcDbCircle
 10
488.8003057860922
 20
701.4978015524401
 30
0.0
 40
9.0
100
AcDbArc
 50
187.8264006103755
 51
24.69400880624756
  0
LINE
  5
2EF
330
19
100
AcDbEntity
  8
4
100
AcDbLine
 10
526.8003057860922
 20
707.4978015524403
 30
0.0
 11
526.8003057860922
 21
676.4978015524401
 31
0.0
  0
LINE
  5
2F0
330
19
100
AcDbEntity
  8
4
100
AcDbLine
 10
449.8003057860922
 20
691.4978015524401
 30
0.0
 11
504.6574486432355
 21
707.4978015524401
 31
0.0
  0
LINE
  5
2F1
330
19
100
AcDbEntity
  8
4
100
AcDbLine
 10
379.9593057860922
 20
701.9978015524401
 30
0.0
 11
381.8003057860922
 21
707.4978015524401
 31
0.0
  0
LINE
  5
2F2
330
19
100
AcDbEntity
  8
4
100
AcDbLine
 10
427.6413057860922
 20
701.9978015524401
 30
0.0
 11
425.8003057860922
 21
707.4978015524401
 31
0.0
  0
LINE
  5
2F3
330
19
100
AcDbEntity
  8
4
100
AcDbLine
 10
280.8003057860922
 20
856.49780155244
 30
0.0
 11
280.8003057860922
 21
843.7978015524402
 31
0.0
  0
ARC
  5
2F4
330
19
100
AcDbEntity
  8
4
100
AcDbCircle
 10
313.8003057860922
 20
834.9605965375997
 30
0.0
 40
1.0
100
AcDbArc
 50
279.4013854806595
 51
0.0
  0
ARC
  5
2F5
330
19
100
AcDbEntity
  8
4
100
AcDbCircle
 10
315.8003057860922
 20
837.8978015524401
 30
0.0
 40
1.0
100
AcDbArc
 50
90.0
 51
180.0
  0
LINE
  5
2F6
330
19
100
AcDbEntity
  8
4
100
AcDbLine
 10
314.8003057860922
 20
837.8978015524401
 30
0.0
 11
314.8003057860922
 21
834.9605965375997
 31
0.0
  0
LINE
  5
2F7
330
19
100
AcDbEntity
  8
4
100
AcDbLine
 10
290.3003057860913
 20
843.7978015524402
 30
0.0
 11
277.3003057860913
 21
843.7978015524402
 31
0.0
  0
LINE
  5
2F8
330
19
100
AcDbEntity
  8
4
100
AcDbLine
 10
291.0503057860913
 20
835.7978015524402
 30
0.0
 11
276.5503057860913
 21
835.7978015524402
 31
0.0
  0
LINE
  5
2F9
330
19
100
AcDbEntity
  8
4
100
AcDbLine
 10
277.3003057860913
 20
835.7978015524402
 30
0.0
 11
277.3003057860913
 21
843.7978015524402
 31
0.0
  0
LINE
  5
2FA
330
19
100
AcDbEntity
  8
4
100
AcDbLine
 10
276.5503057860913
 20
833.7978015524402
 30
0.0
 11
276.5503057860913
 21
835.7978015524402
 31
0.0
  0
LINE
  5
2FB
330
19
100
AcDbEntity
  8
4
100
AcDbLine
 10
290.3003057860913
 20
835.7978015524402
 30
0.0
 11
290.3003057860913
 21
843.7978015524402
 31
0.0
  0
LINE
  5
2FC
330
19
100
AcDbEntity
  8
4
100
AcDbLine
 10
291.0503057860913
 20
833.7978015524402
 30
0.0
 11
291.0503057860913
 21
835.7978015524402
 31
0.0
  0
ARC
  5
2FD
330
19
100
AcDbEntity
  8
4
100
AcDbCircle
 10
276.8003057860922
 20
832.7978015524402
 30
0.0
 40
1.0
100
AcDbArc
 50
90.0
 51
180.0
  0
ARC
  5
2FE
330
19
100
AcDbEntity
  8
4
100
AcDbCircle
 10
285.8003057860922
 20
856.49780155244
 30
0.0
 40
5.0
100
AcDbArc
 50
90.0
 51
180.0
  0
LINE
  5
2FF
330
19
100
AcDbEntity
  8
4
100
AcDbLine
 10
275.8003057860922
 20
822.49780155244
 30
0.0
 11
275.8003057860922
 21
816.49780155244
 31
0.0
  0
LINE
  5
300
330
19
100
AcDbEntity
  8
4
100
AcDbLine
 10
275.8003057860922
 20
716.4978015524401
 30
0.0
 11
275.8003057860922
 21
707.4978015524401
 31
0.0
  0
LINE
  5
301
330
19
100
AcDbEntity
  8
4
100
AcDbLine
 10
273.8003057860922
 20
816.49780155244
 30
0.0
 11
273.8003057860922
 21
716.4978015524401
 31
0.0
  0
LINE
  5
302
330
19
100
AcDbEntity
  8
L-CENTER
 48
3.0
100
AcDbLine
 10
318.8003057860922
 20
846.6178015524404
 30
0.0
 11
318.8003057860922
 21
816.3778015524401
 31
0.0
  0
LINE
  5
303
330
19
100
AcDbEntity
  8
4
100
AcDbLine
 10
275.8003057860922
 20
832.7978015524402
 30
0.0
 11
275.8003057860922
 21
822.49780155244
 31
0.0
  0
LINE
  5
304
330
19
100
AcDbEntity
  8
L-CENTER
 48
3.0
100
AcDbLine
 10
283.8003057860913
 20
810.5681199215485
 30
0.0
 11
283.8003057860913
 21
845.7688107510455
 31
0.0
  0
ARC
  5
305
330
19
100
AcDbEntity
  8
4
100
AcDbCircle
 10
285.8003057860922
 20
676.4978015524403
 30
0.0
 40
5.0
100
AcDbArc
 50
180.0
 51
270.0
  0
LINE
  5
306
330
19
100
AcDbEntity
  8
L-CENTER
 48
3.0
100
AcDbLine
 10
318.8003057860922
 20
716.6178015524403
 30
0.0
 11
318.8003057860922
 21
686.3778015524402
 31
0.0
  0
LINE
  5
307
330
19
100
AcDbEntity
  8
4
100
AcDbLine
 10
280.8003057860922
 20
707.49780155244
 30
0.0
 11
280.8003057860922
 21
676.4978015524403
 31
0.0
  0
ARC
  5
308
330
19
100
AcDbEntity
  8
4
100
AcDbCircle
 10
318.8003057860922
 20
701.4978015524403
 30
0.0
 40
9.0
100
AcDbArc
 50
155.3059911937525
 51
352.1735993896245
  0
LINE
  5
309
330
19
100
AcDbEntity
  8
L-CENTER
 48
3.0
100
AcDbLine
 10
333.9203057860921
 20
701.4978015524403
 30
0.0
 11
303.6803057860923
 21
701.4978015524403
 31
0.0
  0
LINE
  5
30A
330
19
100
AcDbEntity
  8
4
100
AcDbLine
 10
349.8003057860922
 20
671.4978015524404
 30
0.0
 11
285.8003057860922
 21
671.4978015524403
 31
0.0
  0
LINE
  5
30B
330
19
100
AcDbEntity
  8
4
100
AcDbLine
 10
275.8003057860922
 20
822.49780155244
 30
0.0
 11
531.8003057860924
 21
822.4978015524405
 31
0.0
  0
LINE
  5
30C
330
19
100
AcDbEntity
  8
L-CENTER
 48
3.0
100
AcDbLine
 10
539.061995689693
 20
766.49780155244
 30
0.0
 11
189.0276089148692
 21
766.49780155244
 31
0.0
  0
LINE
  5
30D
330
19
100
AcDbEntity
  8
L-CENTER
 48
3.0
100
AcDbLine
 10
333.9203057860925
 20
831.49780155244
 30
0.0
 11
303.6803057860923
 21
831.49780155244
 31
0.0
  0
LINE
  5
30E
330
19
100
AcDbEntity
  8
4
100
AcDbLine
 10
349.8003057860926
 20
861.49780155244
 30
0.0
 11
285.8003057860922
 21
861.49780155244
 31
0.0
  0
ARC
  5
30F
330
19
100
AcDbEntity
  8
4
100
AcDbCircle
 10
318.8003057860922
 20
831.49780155244
 30
0.0
 40
9.0
100
AcDbArc
 50
55.30786941466145
 51
165.1934930881043
  0
LINE
  5
310
330
19
100
AcDbEntity
  8
4
100
AcDbLine
 10
533.8003057860922
 20
816.49780155244
 30
0.0
 11
273.8003057860922
 21
816.49780155244
 31
0.0
  0
LINE
  5
311
330
19
100
AcDbEntity
  8
4
100
AcDbLine
 10
533.8003057860922
 20
716.4978015524401
 30
0.0
 11
273.8003057860922
 21
716.4978015524401
 31
0.0
  0
LINE
  5
312
330
19
100
AcDbEntity
  8
4
100
AcDbLine
 10
531.8003057860923
 20
707.4978015524401
 30
0.0
 11
275.8003057860922
 21
707.4978015524403
 31
0.0
  0
LINE
  5
313
330
19
100
AcDbEntity
  8
4
100
AcDbLine
 10
357.8003057860922
 20
691.4978015524401
 30
0.0
 11
302.9431629289488
 21
707.4978015524401
 31
0.0
  0
LINE
  5
314
330
19
100
AcDbEntity
  8
2
100
AcDbLine
 10
531.8003057860922
 20
822.7978015524402
 30
0.0
 11
275.8003057860922
 21
822.7978015524402
 31
0.0
  0
LINE
  5
315
330
19
100
AcDbEntity
  8
4
100
AcDbLine
 10
530.8003057860922
 20
833.7978015524402
 30
0.0
 11
276.8003057860922
 21
833.7978015524402
 31
0.0
  0
LINE
  5
316
330
19
100
AcDbEntity
  8
4
100
AcDbLine
 10
312.8993156870845
 20
833.7978015524402
 30
0.0
 11
337.3003057860913
 21
837.8379654868661
 31
0.0
  0
LINE
  5
317
330
19
100
AcDbEntity
  8
4
100
AcDbLine
 10
337.3003057860913
 20
838.8978015524401
 30
0.0
 11
315.8003057860922
 21
838.8978015524401
 31
0.0
  0
LINE
  5
318
330
19
100
AcDbEntity
  8
L-CENTER
 48
3.0
100
AcDbLine
 10
403.8003057860922
 20
950.8367654889264
 30
0.0
 11
403.8003057860922
 21
582.158837615954
 31
0.0
  0
LINE
  5
319
330
19
100
AcDbEntity
  8
4
100
AcDbLine
 10
938.2521918264006
 20
392.1141991457662
 30
0.0
 11
938.2521918264006
 21
393.1141991457662
 31
0.0
  0
ARC
  5
31A
330
19
100
AcDbEntity
  8
4
100
AcDbCircle
 10
939.2521918264006
 20
392.1141991457662
 30
0.0
 40
1.0
100
AcDbArc
 50
180.0
 51
270.0
  0
LINE
  5
31B
330
19
100
AcDbEntity
  8
4
100
AcDbLine
 10
931.7521918264006
 20
396.6141991457661
 30
0.0
 11
931.7521918264006
 21
394.6141991457661
 31
0.0
  0
LINE
  5
31C
330
19
100
AcDbEntity
  8
4
100
AcDbLine
 10
931.252191826401
 20
394.6141991457661
 30
0.0
 11
931.252191826401
 21
393.1141991457662
 31
0.0
  0
LINE
  5
31D
330
19
100
AcDbEntity
  8
4
100
AcDbLine
 10
930.2521918264006
 20
396.6141991457661
 30
0.0
 11
930.2521918264006
 21
400.6141991457662
 31
0.0
  0
ARC
  5
31E
330
19
100
AcDbEntity
  8
4
100
AcDbCircle
 10
985.5521918264003
 20
388.1141991457662
 30
0.0
 40
1.0
100
AcDbArc
 50
0.0
 51
90.0
  0
LINE
  5
31F
330
19
100
AcDbEntity
  8
4
100
AcDbLine
 10
985.5521918264003
 20
389.1141991457662
 30
0.0
 11
969.2521918264001
 21
389.1141991457662
 31
0.0
  0
LINE
  5
321
330
19
100
AcDbEntity
  8
4
100
AcDbLine
 10
996.5521918264003
 20
358.5372475999018
 30
0.0
 11
996.5521918264003
 21
371.5372475999018
 31
0.0
  0
LINE
  5
322
330
19
100
AcDbEntity
  8
4
100
AcDbLine
 10
988.5521918264003
 20
357.7872475999018
 30
0.0
 11
988.5521918264003
 21
372.2872475999018
 31
0.0
  0
LINE
  5
323
330
19
100
AcDbEntity
  8
2
100
AcDbLine
 10
986.5521918264003
 20
362.2088204751556
 30
0.0
 11
988.5521918264003
 21
364.2088204751556
 31
0.0
  0
LINE
  5
324
330
19
100
AcDbEntity
  8
4
100
AcDbLine
 10
986.5521918264003
 20
357.7872475999018
 30
0.0
 11
988.5521918264003
 21
357.7872475999018
 31
0.0
  0
LINE
  5
325
330
19
100
AcDbEntity
  8
2
100
AcDbLine
 10
986.5521918264003
 20
365.0372475999018
 30
0.0
 11
988.5521918264003
 21
367.0372475999018
 31
0.0
  0
LINE
  5
326
330
19
100
AcDbEntity
  8
4
100
AcDbLine
 10
986.5521918264003
 20
372.2872475999018
 30
0.0
 11
988.5521918264003
 21
372.2872475999018
 31
0.0
  0
LINE
  5
327
330
19
100
AcDbEntity
  8
L-CENTER
 48
3.0
100
AcDbLine
 10
963.3225101955086
 20
365.0372475999018
 30
0.0
 11
998.5232010250056
 21
365.0372475999018
 31
0.0
  0
LINE
  5
328
330
19
100
AcDbEntity
  8
4
100
AcDbLine
 10
988.5521918264003
 20
358.5372475999018
 30
0.0
 11
996.5521918264003
 21
358.5372475999018
 31
0.0
  0
LINE
  5
329
330
19
100
AcDbEntity
  8
4
100
AcDbLine
 10
988.5521918264003
 20
371.5372475999018
 30
0.0
 11
996.5521918264003
 21
371.5372475999018
 31
0.0
  0
LINE
  5
330
330
19
100
AcDbEntity
  8
4
100
AcDbLine
 10
1098.252191826401
 20
280.1141991457662
 30
0.0
 11
1099.252191826401
 21
279.1141991457662
 31
0.0
  0
LINE
  5
331
330
19
100
AcDbEntity
  8
4
100
AcDbLine
 10
1006.152191826401
 20
281.1141991457662
 30
0.0
 11
1024.252191826401
 21
281.1141991457662
 31
0.0
  0
LINE
  5
332
330
19
100
AcDbEntity
  8
4
100
AcDbLine
 10
1005.152191826401
 20
292.1141991457662
 30
0.0
 11
1006.152191826401
 21
292.1141991457662
 31
0.0
  0
ARC
  5
333
330
19
100
AcDbEntity
  8
4
100
AcDbCircle
 10
1004.152191826401
 20
302.350403304767
 30
0.0
 40
1.0
100
AcDbArc
 50
0.0
 51
74.74488129694508
  0
ARC
  5
334
330
19
100
AcDbEntity
  8
4
100
AcDbCircle
 10
995.9158182259857
 20
307.7062563551503
 30
0.0
 40
2.0
100
AcDbArc
 50
189.4013854806563
 51
254.744881296942
  0
LINE
  5
335
330
19
100
AcDbEntity
  8
4
100
AcDbLine
 10
1004.415309232193
 20
303.3151671260048
 30
0.0
 11
993.797257594887
 21
306.2109993907245
 31
0.0
  0
ARC
  5
336
330
19
100
AcDbEntity
  8
4
100
AcDbCircle
 10
994.3234924064709
 20
308.1405270332
 30
0.0
 40
2.0
100
AcDbArc
 50
189.4013854806563
 51
254.744881296942
  0
LINE
  5
337
330
19
100
AcDbEntity
  8
4
100
AcDbLine
 10
1029.2521918264
 20
280.1141991457662
 30
0.0
 11
1029.2521918264
 21
283.6141991457662
 31
0.0
  0
LINE
  5
338
330
19
100
AcDbEntity
  8
4
100
AcDbLine
 10
996.5521918264003
 20
254.6141991457662
 30
0.0
 11
996.5521918264003
 21
267.6141991457662
 31
0.0
  0
LINE
  5
339
330
19
100
AcDbEntity
  8
4
100
AcDbLine
 10
988.5521918264003
 20
253.8641991457662
 30
0.0
 11
988.5521918264003
 21
268.3641991457662
 31
0.0
  0
LINE
  5
33A
330
19
100
AcDbEntity
  8
2
100
AcDbLine
 10
986.5521918264003
 20
258.28577202102
 30
0.0
 11
988.5521918264003
 21
260.28577202102
 31
0.0
  0
LINE
  5
33B
330
19
100
AcDbEntity
  8
4
100
AcDbLine
 10
986.5521918264003
 20
253.8641991457662
 30
0.0
 11
988.5521918264003
 21
253.8641991457662
 31
0.0
  0
LINE
  5
33C
330
19
100
AcDbEntity
  8
2
100
AcDbLine
 10
986.5521918264003
 20
261.1141991457662
 30
0.0
 11
988.5521918264003
 21
263.1141991457662
 31
0.0
  0
LINE
  5
33D
330
19
100
AcDbEntity
  8
4
100
AcDbLine
 10
986.5521918264003
 20
268.3641991457662
 30
0.0
 11
988.5521918264003
 21
268.3641991457662
 31
0.0
  0
LINE
  5
33E
330
19
100
AcDbEntity
  8
4
100
AcDbLine
 10
988.5521918264003
 20
254.6141991457662
 30
0.0
 11
996.5521918264003
 21
254.6141991457662
 31
0.0
  0
LINE
  5
33F
330
19
100
AcDbEntity
  8
4
100
AcDbLine
 10
988.5521918264003
 20
267.6141991457662
 30
0.0
 11
996.5521918264003
 21
267.6141991457662
 31
0.0
  0
LINE
  5
340
330
19
100
AcDbEntity
  8
4
100
AcDbLine
 10
992.5598660068849
 20
267.6141991457662
 30
0.0
 11
992.5598660068854
 21
305.8988197452313
 31
0.0
  0
LINE
  5
341
330
19
100
AcDbEntity
  8
4
100
AcDbLine
 10
1029.2521918264
 20
283.6141991457662
 30
0.0
 11
1099.252191826401
 21
283.6141991457662
 31
0.0
  0
LINE
  5
342
330
19
100
AcDbEntity
  8
4
100
AcDbLine
 10
1024.252191826401
 20
280.1141991457662
 30
0.0
 11
1098.252191826401
 21
280.1141991457662
 31
0.0
  0
LINE
  5
343
330
19
100
AcDbEntity
  8
4
100
AcDbLine
 10
1099.252191826401
 20
243.1141991457662
 30
0.0
 11
1098.252191826401
 21
242.1141991457662
 31
0.0
  0
LINE
  5
344
330
19
100
AcDbEntity
  8
4
100
AcDbLine
 10
1006.152191826401
 20
241.1141991457662
 30
0.0
 11
1024.252191826401
 21
241.1141991457662
 31
0.0
  0
ARC
  5
345
330
19
100
AcDbEntity
  8
4
100
AcDbCircle
 10
1004.152191826401
 20
219.8779949867653
 30
0.0
 40
1.0
100
AcDbArc
 50
285.2551187030549
 51
0.0
  0
LINE
  5
346
330
19
100
AcDbEntity
  8
4
100
AcDbLine
 10
1005.152191826401
 20
230.1141991457662
 30
0.0
 11
1006.1521918264
 21
230.1141991457662
 31
0.0
  0
ARC
  5
347
330
19
100
AcDbEntity
  8
4
100
AcDbCircle
 10
995.9158182259857
 20
214.5221419363818
 30
0.0
 40
2.0
100
AcDbArc
 50
105.2551187030581
 51
170.5986145193453
  0
LINE
  5
348
330
19
100
AcDbEntity
  8
4
100
AcDbLine
 10
995.3895834144014
 20
216.4516695788575
 30
0.0
 11
993.7972575948866
 21
216.0173989008078
 31
0.0
  0
ARC
  5
349
330
19
100
AcDbEntity
  8
4
100
AcDbCircle
 10
994.3234924064709
 20
214.0878712583324
 30
0.0
 40
2.0
100
AcDbArc
 50
105.2551187030581
 51
170.5986145193453
  0
LINE
  5
34A
330
19
100
AcDbEntity
  8
4
100
AcDbLine
 10
1004.415309232193
 20
218.9132311655276
 30
0.0
 11
993.797257594887
 21
216.0173989008078
 31
0.0
  0
LINE
  5
34B
330
19
100
AcDbEntity
  8
4
100
AcDbLine
 10
1024.252191826401
 20
242.1141991457662
 30
0.0
 11
1098.252191826401
 21
242.1141991457662
 31
0.0
  0
LINE
  5
34C
330
19
100
AcDbEntity
  8
4
100
AcDbLine
 10
1005.152191826401
 20
219.8779949867653
 30
0.0
 11
1005.152191826401
 21
302.350403304767
 31
0.0
  0
LINE
  5
34D
330
19
100
AcDbEntity
  8
4
100
AcDbLine
 10
1006.1521918264
 20
230.1141991457662
 30
0.0
 11
1006.152191826401
 21
292.1141991457662
 31
0.0
  0
LINE
  5
34E
330
19
100
AcDbEntity
  8
4
100
AcDbLine
 10
1024.2521918264
 20
241.1141991457662
 30
0.0
 11
1024.2521918264
 21
281.1141991457662
 31
0.0
  0
LINE
  5
34F
330
19
100
AcDbEntity
  8
4
100
AcDbLine
 10
1099.252191826401
 20
243.1141991457662
 30
0.0
 11
1099.252191826401
 21
283.6141991457662
 31
0.0
  0
LINE
  5
350
330
19
100
AcDbEntity
  8
4
100
AcDbLine
 10
992.5598660068854
 20
215.6799284677168
 30
0.0
 11
992.5598660068854
 21
254.6141991457662
 31
0.0
  0
LINE
  5
351
330
19
100
AcDbEntity
  8
4
100
AcDbLine
 10
1098.252191826401
 20
280.1141991457662
 30
0.0
 11
1098.252191826401
 21
242.1141991457662
 31
0.0
  0
LINE
  5
352
330
19
100
AcDbEntity
  8
4
100
AcDbLine
 10
986.5521918264008
 20
342.832442597042
 30
0.0
 11
992.350355982669
 21
307.8138273958164
 31
0.0
  0
LINE
  5
353
330
19
100
AcDbEntity
  8
4
100
AcDbLine
 10
986.5521918264003
 20
352.015189244775
 30
0.0
 11
993.9426818021839
 21
307.3795567177669
 31
0.0
  0
LINE
  5
356
330
19
100
AcDbEntity
  8
4
100
AcDbLine
 10
861.2521918264006
 20
389.1141991457664
 30
0.0
 11
868.2521918264006
 21
389.1141991457664
 31
0.0
  0
ARC
  5
357
330
19
100
AcDbEntity
  8
4
100
AcDbCircle
 10
861.2521918264006
 20
388.1141991457664
 30
0.0
 40
1.0
100
AcDbArc
 50
90.0
 51
180.0
  0
ARC
  5
358
330
19
100
AcDbEntity
  8
4
100
AcDbCircle
 10
868.2521918264006
 20
390.1141991457664
 30
0.0
 40
1.0
100
AcDbArc
 50
270.0
 51
0.0
  0
LINE
  5
359
330
19
100
AcDbEntity
  8
4
100
AcDbLine
 10
906.7521918264008
 20
396.6141991457661
 30
0.0
 11
906.7521918264008
 21
394.6141991457661
 31
0.0
  0
LINE
  5
35A
330
19
100
AcDbEntity
  8
4
100
AcDbLine
 10
907.2521918264006
 20
394.6141991457661
 30
0.0
 11
907.2521918264006
 21
393.1141991457662
 31
0.0
  0
LINE
  5
35B
330
19
100
AcDbEntity
  8
4
100
AcDbLine
 10
908.2521918264008
 20
396.6141991457661
 30
0.0
 11
908.2521918264006
 21
400.6141991457662
 31
0.0
  0
LINE
  5
35C
330
19
100
AcDbEntity
  8
4
100
AcDbLine
 10
900.2521918264006
 20
392.1141991457662
 30
0.0
 11
900.2521918264006
 21
393.1141991457662
 31
0.0
  0
ARC
  5
35D
330
19
100
AcDbEntity
  8
4
100
AcDbCircle
 10
899.2521918264006
 20
392.1141991457662
 30
0.0
 40
1.0
100
AcDbArc
 50
270.0
 51
0.0
  0
LINE
  5
362
330
19
100
AcDbEntity
  8
4
100
AcDbLine
 10
860.2521918264006
 20
367.3284848600522
 30
0.0
 11
853.1896918264006
 21
343.1141991457662
 31
0.0
  0
LINE
  5
363
330
19
100
AcDbEntity
  8
4
100
AcDbLine
 10
853.2521918264006
 20
343.1141991457662
 30
0.0
 11
846.2521918264006
 21
343.1141991457664
 31
0.0
  0
ARC
  5
364
330
19
100
AcDbEntity
  8
4
100
AcDbCircle
 10
853.2521918264006
 20
345.1141991457662
 30
0.0
 40
2.0
100
AcDbArc
 50
270.0
 51
343.7397952916892
  0
ARC
  5
365
330
19
100
AcDbEntity
  8
4
100
AcDbCircle
 10
846.2521918264006
 20
341.1141991457664
 30
0.0
 40
2.0
100
AcDbArc
 50
90.0
 51
180.0
  0
LINE
  5
367
330
19
100
AcDbEntity
  8
4
100
AcDbLine
 10
409.8003057860922
 20
400.6141991457662
 30
0.0
 11
409.8003057860924
 21
396.6141991457661
 31
0.0
  0
LINE
  5
368
330
19
100
AcDbEntity
  8
4
100
AcDbLine
 10
422.8003057860922
 20
393.1141991457662
 30
0.0
 11
422.8003057860922
 21
391.6499119501746
 31
0.0
  0
ARC
  5
369
330
19
100
AcDbEntity
  8
4
100
AcDbCircle
 10
423.8003057860922
 20
391.6499119501746
 30
0.0
 40
1.0
100
AcDbArc
 50
180.0
 51
267.3403080275167
  0
LINE
  5
36A
330
19
100
AcDbEntity
  8
4
100
AcDbLine
 10
416.3003057860924
 20
400.6141991457662
 30
0.0
 11
416.3003057860922
 21
394.6141991457661
 31
0.0
  0
LINE
  5
36B
330
19
100
AcDbEntity
  8
4
100
AcDbLine
 10
415.8003057860924
 20
394.6141991457661
 30
0.0
 11
415.8003057860924
 21
393.1141991457662
 31
0.0
  0
LINE
  5
36C
330
19
100
AcDbEntity
  8
4
100
AcDbLine
 10
384.8003057860922
 20
393.1141991457662
 30
0.0
 11
384.8003057860922
 21
391.6499119501746
 31
0.0
  0
ARC
  5
36D
330
19
100
AcDbEntity
  8
4
100
AcDbCircle
 10
383.8003057860922
 20
391.6499119501746
 30
0.0
 40
1.0
100
AcDbArc
 50
272.6596919724732
 51
0.0
  0
LINE
  5
36E
330
19
100
AcDbEntity
  8
4
100
AcDbLine
 10
391.3003057860922
 20
400.6141991457662
 30
0.0
 11
391.3003057860924
 21
394.6141991457661
 31
0.0
  0
LINE
  5
36F
330
19
100
AcDbEntity
  8
4
100
AcDbLine
 10
397.8003057860922
 20
400.6141991457662
 30
0.0
 11
397.8003057860924
 21
396.6141991457661
 31
0.0
  0
LINE
  5
370
330
19
100
AcDbEntity
  8
4
100
AcDbLine
 10
391.8003057860922
 20
394.6141991457661
 30
0.0
 11
391.8003057860922
 21
393.1141991457662
 31
0.0
  0
LINE
  5
371
330
19
100
AcDbEntity
  8
4
100
AcDbLine
 10
422.8003057860922
 20
393.1141991457662
 30
0.0
 11
384.8003057860922
 21
393.1141991457662
 31
0.0
  0
LINE
  5
372
330
19
100
AcDbEntity
  8
4
100
AcDbLine
 10
416.3003057860922
 20
394.6141991457661
 30
0.0
 11
391.3003057860924
 21
394.6141991457661
 31
0.0
  0
LINE
  5
373
330
19
100
AcDbEntity
  8
4
100
AcDbLine
 10
416.3003057860924
 20
400.6141991457662
 30
0.0
 11
391.3003057860922
 21
400.6141991457662
 31
0.0
  0
LINE
  5
374
330
19
100
AcDbEntity
  8
4
100
AcDbLine
 10
416.3003057860922
 20
396.6141991457661
 30
0.0
 11
391.3003057860924
 21
396.6141991457661
 31
0.0
  0
LINE
  5
375
330
19
100
AcDbEntity
  8
4
100
AcDbLine
 10
426.1492163161552
 20
360.6952337977273
 30
0.0
 11
427.4083337739505
 21
345.8604827559075
 31
0.0
  0
ARC
  5
376
330
19
100
AcDbEntity
  8
4
100
AcDbCircle
 10
430.3975858532369
 20
346.114199145766
 30
0.0
 40
3.0
100
AcDbArc
 50
184.8514211278585
 51
270.0
  0
ARC
  5
377
330
19
100
AcDbEntity
  8
4
100
AcDbCircle
 10
429.1384683954416
 20
360.948950187586
 30
0.0
 40
3.0
100
AcDbArc
 50
75.75896836461767
 51
184.8514211278585
  0
LINE
  5
378
330
19
100
AcDbEntity
  8
4
100
AcDbLine
 10
381.4513952560292
 20
360.6952337977273
 30
0.0
 11
380.1922777982336
 21
345.8604827559075
 31
0.0
  0
ARC
  5
379
330
19
100
AcDbEntity
  8
4
100
AcDbCircle
 10
377.2030257189474
 20
346.114199145766
 30
0.0
 40
3.0
100
AcDbArc
 50
270.0
 51
355.1485788721415
  0
ARC
  5
37A
330
19
100
AcDbEntity
  8
4
100
AcDbCircle
 10
378.4621431767428
 20
360.948950187586
 30
0.0
 40
3.0
100
AcDbArc
 50
355.1485788721415
 51
104.2410316353823
  0
LINE
  5
37B
330
19
100
AcDbEntity
  8
4
100
AcDbLine
 10
363.8003057860922
 20
343.114199145766
 30
0.0
 11
443.8003057860922
 21
343.114199145766
 31
0.0
  0
ARC
  5
37C
330
19
100
AcDbEntity
  8
4
100
AcDbCircle
 10
438.3003057860924
 20
328.114199145766
 30
0.0
 40
3.0
100
AcDbArc
 50
90.0
 51
255.5224878140737
  0
ARC
  5
37D
330
19
100
AcDbEntity
  8
4
100
AcDbCircle
 10
434.8003057860922
 20
318.114199145766
 30
0.0
 40
5.0
100
AcDbArc
 50
270.0
 51
0.0
  0
LINE
  5
37E
330
19
100
AcDbEntity
  8
4
100
AcDbLine
 10
438.8003057860922
 20
337.114199145766
 30
0.0
 11
422.8003057860922
 21
337.114199145766
 31
0.0
  0
LINE
  5
37F
330
19
100
AcDbEntity
  8
4
100
AcDbLine
 10
421.8003057860922
 20
336.114199145766
 30
0.0
 11
421.8003057860922
 21
329.022526058958
 31
0.0
  0
ARC
  5
380
330
19
100
AcDbEntity
  8
4
100
AcDbCircle
 10
412.3003057860922
 20
323.114199145766
 30
0.0
 40
1.0
100
AcDbArc
 50
180.0
 51
270.0
  0
ARC
  5
381
330
19
100
AcDbEntity
  8
4
100
AcDbCircle
 10
412.3003057860922
 20
327.114199145766
 30
0.0
 40
1.0
100
AcDbArc
 50
90.0
 51
180.0
  0
ARC
  5
382
330
19
100
AcDbEntity
  8
4
100
AcDbCircle
 10
405.5195293796876
 20
314.1141991457657
 30
0.0
 40
1.0
100
AcDbArc
 50
270.0
 51
14.03624346792646
  0
LINE
  5
383
330
19
100
AcDbEntity
  8
4
100
AcDbLine
 10
417.3003057860922
 20
327.114199145766
 30
0.0
 11
417.3003057860922
 21
323.114199145766
 31
0.0
  0
ARC
  5
384
330
19
100
AcDbEntity
  8
4
100
AcDbCircle
 10
416.3003057860922
 20
323.114199145766
 30
0.0
 40
1.0
100
AcDbArc
 50
270.0
 51
0.0
  0
ARC
  5
385
330
19
100
AcDbEntity
  8
4
100
AcDbCircle
 10
416.3003057860922
 20
327.114199145766
 30
0.0
 40
1.0
100
AcDbArc
 50
0.0
 51
90.0
  0
ARC
  5
386
330
19
100
AcDbEntity
  8
4
100
AcDbCircle
 10
422.8003057860922
 20
314.114199145766
 30
0.0
 40
1.0
100
AcDbArc
 50
180.0
 51
270.0
  0
LINE
  5
387
330
19
100
AcDbEntity
  8
4
100
AcDbLine
 10
421.8003057860922
 20
318.2058722325739
 30
0.0
 11
421.8003057860922
 21
314.114199145766
 31
0.0
  0
ARC
  5
388
330
19
100
AcDbEntity
  8
4
100
AcDbCircle
 10
422.8003057860922
 20
329.022526058958
 30
0.0
 40
1.0
100
AcDbArc
 50
180.0
 51
259.5243183036038
  0
ARC
  5
389
330
19
100
AcDbEntity
  8
4
100
AcDbCircle
 10
422.8003057860922
 20
318.2058722325739
 30
0.0
 40
1.0
100
AcDbArc
 50
100.4756816963963
 51
180.0
  0
LINE
  5
38A
330
19
100
AcDbEntity
  8
4
100
AcDbLine
 10
411.3003057860922
 20
327.114199145766
 30
0.0
 11
411.3003057860922
 21
323.114199145766
 31
0.0
  0
LINE
  5
38B
330
19
100
AcDbEntity
  8
4
100
AcDbLine
 10
416.3003057860922
 20
328.114199145766
 30
0.0
 11
412.3003057860922
 21
328.114199145766
 31
0.0
  0
LINE
  5
38C
330
19
100
AcDbEntity
  8
4
100
AcDbLine
 10
416.3003057860922
 20
322.114199145766
 30
0.0
 11
412.3003057860922
 21
322.114199145766
 31
0.0
  0
ARC
  5
38D
330
19
100
AcDbEntity
  8
4
100
AcDbCircle
 10
421.8003057860922
 20
323.614199145766
 30
0.0
 40
4.5
100
AcDbArc
 50
280.4756816963973
 51
79.52431830360274
  0
LINE
  5
38E
330
19
100
AcDbEntity
  8
4
100
AcDbLine
 10
434.8003057860922
 20
313.114199145766
 30
0.0
 11
422.8003057860922
 21
313.114199145766
 31
0.0
  0
ARC
  5
38F
330
19
100
AcDbEntity
  8
4
100
AcDbCircle
 10
422.8003057860922
 20
336.114199145766
 30
0.0
 40
1.0
100
AcDbArc
 50
90.0
 51
180.0
  0
ARC
  5
390
330
19
100
AcDbEntity
  8
4
100
AcDbCircle
 10
438.8003057860922
 20
332.114199145766
 30
0.0
 40
1.0
100
AcDbArc
 50
270.0
 51
0.0
  0
LINE
  5
391
330
19
100
AcDbEntity
  8
4
100
AcDbLine
 10
439.8003057860922
 20
322.3047241264528
 30
0.0
 11
439.8003057860922
 21
318.114199145766
 31
0.0
  0
ARC
  5
392
330
19
100
AcDbEntity
  8
4
100
AcDbCircle
 10
436.8003057860922
 20
322.3047241264528
 30
0.0
 40
3.0
100
AcDbArc
 50
0.0
 51
75.5224878140737
  0
LINE
  5
393
330
19
100
AcDbEntity
  8
4
100
AcDbLine
 10
438.8003057860922
 20
331.114199145766
 30
0.0
 11
438.3003057860924
 21
331.114199145766
 31
0.0
  0
LINE
  5
394
330
19
100
AcDbEntity
  8
4
100
AcDbLine
 10
439.8003057860922
 20
336.114199145766
 30
0.0
 11
439.8003057860922
 21
332.114199145766
 31
0.0
  0
ARC
  5
395
330
19
100
AcDbEntity
  8
4
100
AcDbCircle
 10
438.8003057860922
 20
336.114199145766
 30
0.0
 40
1.0
100
AcDbArc
 50
0.0
 51
90.0
  0
LINE
  5
396
330
19
100
AcDbEntity
  8
4
100
AcDbLine
 10
373.8003057860922
 20
336.114199145766
 30
0.0
 11
373.8003057860922
 21
320.114199145766
 31
0.0
  0
LINE
  5
397
330
19
100
AcDbEntity
  8
4
100
AcDbLine
 10
367.8003057860922
 20
336.114199145766
 30
0.0
 11
367.8003057860922
 21
314.114199145766
 31
0.0
  0
LINE
  5
398
330
19
100
AcDbEntity
  8
4
100
AcDbLine
 10
394.6109396923512
 20
336.3567347708022
 30
0.0
 11
389.1109396923512
 21
314.3567347708022
 31
0.0
  0
LINE
  5
399
330
19
100
AcDbEntity
  8
4
100
AcDbLine
 10
384.3003057860922
 20
318.114199145766
 30
0.0
 11
384.3003057860922
 21
314.114199145766
 31
0.0
  0
ARC
  5
39A
330
19
100
AcDbEntity
  8
4
100
AcDbCircle
 10
383.3003057860922
 20
314.114199145766
 30
0.0
 40
1.0
100
AcDbArc
 50
270.0
 51
0.0
  0
ARC
  5
39B
330
19
100
AcDbEntity
  8
4
100
AcDbCircle
 10
383.3003057860922
 20
318.114199145766
 30
0.0
 40
1.0
100
AcDbArc
 50
0.0
 51
90.0
  0
ARC
  5
39C
330
19
100
AcDbEntity
  8
4
100
AcDbCircle
 10
374.8003057860922
 20
320.114199145766
 30
0.0
 40
1.0
100
AcDbArc
 50
180.0
 51
270.0
  0
ARC
  5
39D
330
19
100
AcDbEntity
  8
4
100
AcDbCircle
 10
368.8003057860922
 20
314.114199145766
 30
0.0
 40
1.0
100
AcDbArc
 50
180.0
 51
270.0
  0
LINE
  5
39E
330
19
100
AcDbEntity
  8
4
100
AcDbLine
 10
383.3003057860922
 20
319.114199145766
 30
0.0
 11
374.8003057860922
 21
319.114199145766
 31
0.0
  0
LINE
  5
39F
330
19
100
AcDbEntity
  8
4
100
AcDbLine
 10
383.3003057860922
 20
313.114199145766
 30
0.0
 11
368.8003057860922
 21
313.114199145766
 31
0.0
  0
LINE
  5
3A0
330
19
100
AcDbEntity
  8
4
100
AcDbLine
 10
399.9603303945362
 20
315.7354669582842
 30
0.0
 11
400.4262812539248
 21
313.8716635207297
 31
0.0
  0
ARC
  5
3A1
330
19
100
AcDbEntity
  8
4
100
AcDbCircle
 10
399.4752591444633
 20
315.614199145766
 30
0.0
 40
0.5
100
AcDbArc
 50
14.03624346792014
 51
90.0
  0
ARC
  5
3A2
330
19
100
AcDbEntity
  8
4
100
AcDbCircle
 10
396.1253524277208
 20
315.614199145766
 30
0.0
 40
0.5
100
AcDbArc
 50
90.0
 51
165.9637565320799
  0
LINE
  5
3A3
330
19
100
AcDbEntity
  8
4
100
AcDbLine
 10
399.4752591444633
 20
316.114199145766
 30
0.0
 11
396.1253524277208
 21
316.114199145766
 31
0.0
  0
LINE
  5
3A4
330
19
100
AcDbEntity
  8
4
100
AcDbLine
 10
395.6402811776481
 20
315.7354669582842
 30
0.0
 11
395.1743303182595
 21
313.8716635207297
 31
0.0
  0
LINE
  5
3A5
330
19
100
AcDbEntity
  8
4
100
AcDbLine
 10
394.2041878181142
 20
313.114199145766
 30
0.0
 11
390.0810821924965
 21
313.114199145766
 31
0.0
  0
ARC
  5
3A6
330
19
100
AcDbEntity
  8
4
100
AcDbCircle
 10
390.0810821924965
 20
314.114199145766
 30
0.0
 40
1.0
100
AcDbArc
 50
165.9637565320735
 51
270.0
  0
ARC
  5
3A7
330
19
100
AcDbEntity
  8
4
100
AcDbCircle
 10
394.2041878181142
 20
314.114199145766
 30
0.0
 40
1.0
100
AcDbArc
 50
270.0
 51
345.9637565320735
  0
ARC
  5
3A8
330
19
100
AcDbEntity
  8
4
100
AcDbCircle
 10
401.3964237540702
 20
314.1141991457662
 30
0.0
 40
1.0
100
AcDbArc
 50
194.0362434679265
 51
270.0
  0
LINE
  5
3A9
330
19
100
AcDbEntity
  8
4
100
AcDbLine
 10
372.8003057860922
 20
337.114199145766
 30
0.0
 11
368.8003057860922
 21
337.114199145766
 31
0.0
  0
ARC
  5
3AA
330
19
100
AcDbEntity
  8
4
100
AcDbCircle
 10
368.8003057860922
 20
336.114199145766
 30
0.0
 40
1.0
100
AcDbArc
 50
90.0
 51
180.0
  0
ARC
  5
3AB
330
19
100
AcDbEntity
  8
4
100
AcDbCircle
 10
372.8003057860922
 20
336.114199145766
 30
0.0
 40
1.0
100
AcDbArc
 50
0.0
 51
90.0
  0
LINE
  5
3AC
330
19
100
AcDbEntity
  8
4
100
AcDbLine
 10
400.0195293796876
 20
337.114199145766
 30
0.0
 11
395.5810821924965
 21
337.114199145766
 31
0.0
  0
ARC
  5
3AD
330
19
100
AcDbEntity
  8
4
100
AcDbCircle
 10
395.5810821924965
 20
336.114199145766
 30
0.0
 40
1.0
100
AcDbArc
 50
90.0
 51
165.9637565320735
  0
ARC
  5
3AE
330
19
100
AcDbEntity
  8
4
100
AcDbCircle
 10
400.0195293796876
 20
336.114199145766
 30
0.0
 40
1.0
100
AcDbArc
 50
14.03624346792646
 51
90.0
  0
LINE
  5
3AF
330
19
100
AcDbEntity
  8
4
100
AcDbLine
 10
400.9896718798329
 20
336.3567347708022
 30
0.0
 11
406.4896718798329
 21
314.3567347708022
 31
0.0
  0
LINE
  5
3B0
330
19
100
AcDbEntity
  8
4
100
AcDbLine
 10
405.5195293796876
 20
313.1141991457657
 30
0.0
 11
401.3964237540702
 21
313.1141991457662
 31
0.0
  0
ARC
  5
3B1
330
19
100
AcDbEntity
  8
4
100
AcDbCircle
 10
363.8003057860922
 20
341.114199145766
 30
0.0
 40
2.0
100
AcDbArc
 50
90.0
 51
180.0
  0
ARC
  5
3B2
330
19
100
AcDbEntity
  8
4
100
AcDbCircle
 10
443.8003057860922
 20
341.114199145766
 30
0.0
 40
2.0
100
AcDbArc
 50
0.0
 51
90.0
  0
ARC
  5
3B3
330
19
100
AcDbEntity
  8
4
100
AcDbCircle
 10
514.2086389860881
 20
371.5225323457619
 30
0.0
 40
5.0
100
AcDbArc
 50
15.05726445492374
 51
74.94273554507782
  0
LINE
  5
3B4
330
19
100
AcDbEntity
  8
4
100
AcDbLine
 10
844.2521918264006
 20
288.1141991457662
 30
0.0
 11
860.2521918264006
 21
283.1141991457662
 31
0.0
  0
LINE
  5
3B5
330
19
100
AcDbEntity
  8
4
100
AcDbLine
 10
833.9890744206086
 20
304.3151671260048
 30
0.0
 11
843.1719433438034
 21
306.8195859232399
 31
0.0
  0
ARC
  5
3B6
330
19
100
AcDbEntity
  8
4
100
AcDbCircle
 10
834.2521918264006
 20
303.350403304767
 30
0.0
 40
1.0
100
AcDbArc
 50
105.2551187030549
 51
180.0
  0
ARC
  5
3B7
330
19
100
AcDbEntity
  8
4
100
AcDbCircle
 10
842.645708532219
 20
308.7491135657153
 30
0.0
 40
2.0
100
AcDbArc
 50
285.255118703058
 51
343.7397952916901
  0
LINE
  5
3BE
330
19
100
AcDbEntity
  8
4
100
AcDbLine
 10
844.2521918264006
 20
234.1141991457662
 30
0.0
 11
860.2521918264006
 21
239.1141991457662
 31
0.0
  0
ARC
  5
3BF
330
19
100
AcDbEntity
  8
4
100
AcDbCircle
 10
842.7367561022352
 20
211.3814073429055
 30
0.0
 40
4.0
100
AcDbArc
 50
16.2602047083119
 51
74.74488129694171
  0
ARC
  5
3C0
330
19
100
AcDbEntity
  8
4
100
AcDbCircle
 10
842.645708532219
 20
213.4792847258175
 30
0.0
 40
2.0
100
AcDbArc
 50
16.26020470831235
 51
74.74488129694195
  0
LINE
  5
3C1
330
19
100
AcDbEntity
  8
4
100
AcDbLine
 10
833.9890744206086
 20
217.9132311655278
 30
0.0
 11
843.7892257254034
 21
215.2404626278565
 31
0.0
  0
ARC
  5
3C2
330
19
100
AcDbEntity
  8
4
100
AcDbCircle
 10
834.2521918264006
 20
218.8779949867655
 30
0.0
 40
1.0
100
AcDbArc
 50
180.0
 51
254.7448812969451
  0
LINE
  5
3C5
330
19
100
AcDbEntity
  8
4
100
AcDbLine
 10
844.2521918264006
 20
215.1141991457662
 30
0.0
 11
844.2521918264006
 21
307.5578069613873
 31
0.0
  0
LINE
  5
3C6
330
19
100
AcDbEntity
  8
4
100
AcDbLine
 10
833.2521918264006
 20
218.8779949867655
 30
0.0
 11
833.2521918264006
 21
303.350403304767
 31
0.0
  0
ARC
  5
3C7
330
19
100
AcDbEntity
  8
4
100
AcDbCircle
 10
503.6350568279122
 20
286.4523617551154
 30
0.0
 40
3.0
100
AcDbArc
 50
265.1485788721405
 51
14.2410316353826
  0
ARC
  5
3C8
330
19
100
AcDbEntity
  8
4
100
AcDbCircle
 10
454.9689135522613
 20
294.5973416813483
 30
0.0
 40
7.0
100
AcDbArc
 50
186.2614549438377
 51
265.1485788721404
  0
ARC
  5
3C9
330
19
100
AcDbEntity
  8
4
100
AcDbCircle
 10
439.6178337616554
 20
296.9317271213295
 30
0.0
 40
5.0
100
AcDbArc
 50
6.973793430355677
 51
83.02620656964487
  0
ARC
  5
3CA
330
19
100
AcDbEntity
  8
4
100
AcDbCircle
 10
442.2799117803054
 20
299.5938051399792
 30
0.0
 40
5.0
100
AcDbArc
 50
7.494980959280371
 51
82.52200874565311
  0
ARC
  5
3CB
330
19
100
AcDbEntity
  8
4
100
AcDbCircle
 10
447.8003057860922
 20
303.8979020279307
 30
0.0
 40
2.0
100
AcDbArc
 50
180.0
 51
217.9425463551725
  0
ARC
  5
3CC
330
19
100
AcDbEntity
  8
4
100
AcDbCircle
 10
447.8003057860924
 20
303.8979020279294
 30
0.0
 40
2.0
100
AcDbArc
 50
180.0
 51
217.9425463551597
  0
ARC
  5
3CD
330
19
100
AcDbEntity
  8
4
100
AcDbCircle
 10
352.6316980199233
 20
294.5973416813481
 30
0.0
 40
7.0
100
AcDbArc
 50
274.8514211278596
 51
353.7385450561623
  0
ARC
  5
3CE
330
19
100
AcDbEntity
  8
4
100
AcDbCircle
 10
359.8003057860922
 20
303.8979020279342
 30
0.0
 40
2.0
100
AcDbArc
 50
322.0574536448067
 51
0.0
  0
ARC
  5
3CF
330
19
100
AcDbEntity
  8
4
100
AcDbCircle
 10
365.320699791879
 20
299.5938051399789
 30
0.0
 40
5.0
100
AcDbArc
 50
97.4949809592804
 51
172.505019040721
  0
ARC
  5
3D0
330
19
100
AcDbEntity
  8
4
100
AcDbCircle
 10
367.9827778105289
 20
296.931727121329
 30
0.0
 40
5.0
100
AcDbArc
 50
96.9737934303558
 51
173.0262065696443
  0
ARC
  5
3D1
330
19
100
AcDbEntity
  8
4
100
AcDbCircle
 10
403.8003057860922
 20
4.114199145765951
 30
0.0
 40
300.0
100
AcDbArc
 50
83.0262065696443
 51
96.97379343035567
  0
ARC
  5
3D2
330
19
100
AcDbEntity
  8
4
100
AcDbCircle
 10
403.8003057860922
 20
7.114199145765951
 30
0.0
 40
300.0
100
AcDbArc
 50
82.50501904071994
 51
97.49498095928006
  0
LINE
  5
3D3
330
19
100
AcDbEntity
  8
4
100
AcDbLine
 10
503.3813404380537
 20
283.4631096758292
 30
0.0
 11
454.3769086425912
 21
287.6224201630137
 31
0.0
  0
ARC
  5
3D4
330
19
100
AcDbEntity
  8
4
100
AcDbCircle
 10
503.6350568279122
 20
235.7760365364168
 30
0.0
 40
3.0
100
AcDbArc
 50
345.7589683646174
 51
94.85142112785951
  0
ARC
  5
3D5
330
19
100
AcDbEntity
  8
4
100
AcDbCircle
 10
439.6178337616554
 20
225.2966711702027
 30
0.0
 40
5.0
100
AcDbArc
 50
276.973793430355
 51
353.0262065696443
  0
ARC
  5
3D6
330
19
100
AcDbEntity
  8
4
100
AcDbCircle
 10
454.9689135522613
 20
227.6310566101838
 30
0.0
 40
7.0
100
AcDbArc
 50
94.85142112785962
 51
173.7385450561628
  0
ARC
  5
3D7
330
19
100
AcDbEntity
  8
4
100
AcDbCircle
 10
367.9827778105289
 20
225.2966711702027
 30
0.0
 40
5.0
100
AcDbArc
 50
186.9737934303556
 51
263.0262065696449
  0
ARC
  5
3D8
330
19
100
AcDbEntity
  8
4
100
AcDbCircle
 10
352.6316980199231
 20
227.6310566101838
 30
0.0
 40
7.0
100
AcDbArc
 50
6.261454943837213
 51
85.14857887214039
  0
ARC
  5
3D9
330
19
100
AcDbEntity
  8
4
100
AcDbCircle
 10
403.8003057860922
 20
518.1141991457664
 30
0.0
 40
300.0
100
AcDbArc
 50
263.0262065696443
 51
276.9737934303557
  0
ARC
  5
3DA
330
19
100
AcDbEntity
  8
4
100
AcDbCircle
 10
403.8003057860922
 20
515.1141991457664
 30
0.0
 40
300.0
100
AcDbArc
 50
262.50501904072
 51
277.49498095928
  0
ARC
  5
3DB
330
19
100
AcDbEntity
  8
4
100
AcDbCircle
 10
437.2834483216743
 20
209.9455913795971
 30
0.0
 40
7.0
100
AcDbArc
 50
96.26145494383721
 51
175.1485788721405
  0
ARC
  5
3DC
330
19
100
AcDbEntity
  8
4
100
AcDbCircle
 10
365.320699791879
 20
222.634593151553
 30
0.0
 40
5.0
100
AcDbArc
 50
187.4949809592804
 51
262.505019040719
  0
ARC
  5
3DD
330
19
100
AcDbEntity
  8
4
100
AcDbCircle
 10
370.31716325051
 20
209.9455913795971
 30
0.0
 40
7.0
100
AcDbArc
 50
4.851421127859541
 51
83.73854505616279
  0
ARC
  5
3DE
330
19
100
AcDbEntity
  8
4
100
AcDbCircle
 10
442.2799117803054
 20
222.634593151553
 30
0.0
 40
5.0
100
AcDbArc
 50
277.494980959281
 51
352.5050190407196
  0
LINE
  5
3DF
330
19
100
AcDbEntity
  8
4
100
AcDbLine
 10
503.3813404380537
 20
238.7652886157032
 30
0.0
 11
454.3769086425912
 21
234.6059781285185
 31
0.0
  0
ARC
  5
3E0
330
19
100
AcDbEntity
  8
4
100
AcDbCircle
 10
146.8003057860922
 20
261.1141991457662
 30
0.0
 40
300.0
100
AcDbArc
 50
353.0262065696442
 51
6.973793430355729
  0
ARC
  5
3E1
330
19
100
AcDbEntity
  8
4
100
AcDbCircle
 10
149.8003057860922
 20
261.1141991457662
 30
0.0
 40
300.0
100
AcDbArc
 50
352.50501904072
 51
7.494980959280029
  0
ARC
  5
3E2
330
19
100
AcDbEntity
  8
4
100
AcDbCircle
 10
657.8003057860922
 20
261.1141991457662
 30
0.0
 40
300.0
100
AcDbArc
 50
172.50501904072
 51
187.49498095928
  0
ARC
  5
3E3
330
19
100
AcDbEntity
  8
4
100
AcDbCircle
 10
660.8003057860922
 20
261.1141991457662
 30
0.0
 40
300.0
100
AcDbArc
 50
173.0262065696443
 51
186.9737934303557
  0
LINE
  5
3E4
330
19
100
AcDbEntity
  8
4
100
AcDbLine
 10
361.8003057860922
 20
341.114199145766
 30
0.0
 11
361.8003057860922
 21
303.8979020279342
 31
0.0
  0
LINE
  5
3E5
330
19
100
AcDbEntity
  8
4
100
AcDbLine
 10
445.8003057860922
 20
341.114199145766
 30
0.0
 11
445.8003057860922
 21
303.8979020279307
 31
0.0
  0
LINE
  5
3E7
330
19
100
AcDbEntity
  8
4
100
AcDbLine
 10
860.2521918264008
 20
361.9713420029095
 30
0.0
 11
844.5657085322191
 21
308.1891135657154
 31
0.0
  0
LINE
  5
3E8
330
19
100
AcDbEntity
  8
4
100
AcDbLine
 10
844.2521918264006
 20
341.1141991457664
 30
0.0
 11
844.2521918264006
 21
307.5578069613871
 31
0.0
  0
LINE
  5
3E9
330
19
100
AcDbEntity
  8
L-CENTER
 48
3.0
100
AcDbLine
 10
1104.530280682763
 20
261.1141991457662
 30
0.0
 11
733.9741029700381
 21
261.1141991457662
 31
0.0
  0
LINE
  5
3EA
330
19
100
AcDbEntity
  8
4
100
AcDbLine
 10
869.2521918264006
 20
391.1141991457662
 30
0.0
 11
969.2521918264006
 21
391.1141991457662
 31
0.0
  0
LINE
  5
3EB
330
19
100
AcDbEntity
  8
4
100
AcDbLine
 10
931.7521918264006
 20
396.6141991457661
 30
0.0
 11
906.7521918264008
 21
396.6141991457661
 31
0.0
  0
LINE
  5
3EC
330
19
100
AcDbEntity
  8
4
100
AcDbLine
 10
931.7521918264006
 20
394.6141991457661
 30
0.0
 11
906.7521918264008
 21
394.6141991457661
 31
0.0
  0
LINE
  5
3ED
330
19
100
AcDbEntity
  8
4
100
AcDbLine
 10
930.2521918264006
 20
400.6141991457662
 30
0.0
 11
908.2521918264006
 21
400.6141991457662
 31
0.0
  0
LINE
  5
3EE
330
19
100
AcDbEntity
  8
4
100
AcDbLine
 10
938.2521918264006
 20
393.1141991457662
 30
0.0
 11
900.2521918264006
 21
393.1141991457662
 31
0.0
  0
LINE
  5
3EF
330
19
100
AcDbEntity
  8
2
100
AcDbLine
 10
986.5521918264003
 20
157.1911506916306
 30
0.0
 11
988.5521918264003
 21
159.1911506916306
 31
0.0
  0
LINE
  5
3F0
330
19
100
AcDbEntity
  8
4
100
AcDbLine
 10
986.5521918264003
 20
164.4411506916306
 30
0.0
 11
988.5521918264003
 21
164.4411506916306
 31
0.0
  0
LINE
  5
3F1
330
19
100
AcDbEntity
  8
L-CENTER
 48
3.0
100
AcDbLine
 10
963.3225101955086
 20
157.1911506916306
 30
0.0
 11
998.5232010250056
 21
157.1911506916306
 31
0.0
  0
LINE
  5
3F2
330
19
100
AcDbEntity
  8
4
100
AcDbLine
 10
988.5521918264003
 20
163.6911506916306
 30
0.0
 11
996.5521918264003
 21
163.6911506916306
 31
0.0
  0
ARC
  5
3F3
330
19
100
AcDbEntity
  8
4
100
AcDbCircle
 10
985.5521918264003
 20
134.1141991457662
 30
0.0
 40
1.0
100
AcDbArc
 50
270.0
 51
0.0
  0
LINE
  5
3F4
330
19
100
AcDbEntity
  8
4
100
AcDbLine
 10
968.2521918264006
 20
131.1141991457662
 30
0.0
 11
969.2521918264006
 21
131.1141991457662
 31
0.0
  0
LINE
  5
3F5
330
19
100
AcDbEntity
  8
4
100
AcDbLine
 10
985.5521918264003
 20
133.1141991457662
 30
0.0
 11
969.2521918264001
 21
133.1141991457662
 31
0.0
  0
LINE
  5
3F6
330
19
100
AcDbEntity
  8
4
100
AcDbLine
 10
986.5521918264003
 20
149.9411506916306
 30
0.0
 11
988.5521918264003
 21
149.9411506916306
 31
0.0
  0
LINE
  5
3F7
330
19
100
AcDbEntity
  8
4
100
AcDbLine
 10
988.5521918264003
 20
150.6911506916306
 30
0.0
 11
996.5521918264003
 21
150.6911506916306
 31
0.0
  0
LINE
  5
3F8
330
19
100
AcDbEntity
  8
4
100
AcDbLine
 10
996.5521918264003
 20
150.6911506916306
 30
0.0
 11
996.5521918264003
 21
163.6911506916306
 31
0.0
  0
LINE
  5
3F9
330
19
100
AcDbEntity
  8
4
100
AcDbLine
 10
988.5521918264003
 20
149.9411506916306
 30
0.0
 11
988.5521918264003
 21
164.4411506916306
 31
0.0
  0
LINE
  5
3FA
330
19
100
AcDbEntity
  8
2
100
AcDbLine
 10
986.5521918264003
 20
154.3627235668844
 30
0.0
 11
988.5521918264003
 21
156.3627235668844
 31
0.0
  0
ARC
  5
3FB
330
19
100
AcDbEntity
  8
4
100
AcDbCircle
 10
1012.252191826401
 20
76.11419914576618
 30
0.0
 40
2.0
100
AcDbArc
 50
0.0
 51
90.0
  0
ARC
  5
3FC
330
19
100
AcDbEntity
  8
4
100
AcDbCircle
 10
969.252191826401
 20
88.11419914576618
 30
0.0
 40
10.0
100
AcDbArc
 50
180.0
 51
270.0
  0
ARC
  5
3FD
330
19
100
AcDbEntity
  8
4
100
AcDbCircle
 10
987.2229421767906
 20
82.11419914576618
 30
0.0
 40
4.0
100
AcDbArc
 50
196.7983717813053
 51
270.0
  0
LINE
  5
3FE
330
19
100
AcDbEntity
  8
4
100
AcDbLine
 10
959.2521918264006
 20
109.8122557495965
 30
0.0
 11
959.252191826401
 21
88.11419914576618
 31
0.0
  0
LINE
  5
3FF
330
19
100
AcDbEntity
  8
4
100
AcDbLine
 10
968.2521918264006
 20
131.1141991457662
 30
0.0
 11
983.3936313336435
 21
80.95818077802369
 31
0.0
  0
ARC
  5
400
330
19
100
AcDbEntity
  8
4
100
AcDbCircle
 10
919.2521918264006
 20
138.1141991457662
 30
0.0
 40
49.0
100
AcDbArc
 50
324.718738172734
 51
0.0
  0
LINE
  5
407
330
19
100
AcDbEntity
  8
4
100
AcDbLine
 10
1014.252191826401
 20
48.11419914576618
 30
0.0
 11
1014.252191826401
 21
76.11419914576618
 31
0.0
  0
LINE
  5
408
330
19
100
AcDbEntity
  8
L-CENTER
 48
3.0
100
AcDbLine
 10
984.2521918264006
 20
38.11419914576618
 30
0.0
 11
984.2521918264006
 21
88.11419914576618
 31
0.0
  0
LINE
  5
409
330
19
100
AcDbEntity
  8
4
100
AcDbLine
 10
861.2521918264006
 20
133.1141991457662
 30
0.0
 11
870.5079613985849
 21
133.1141991457662
 31
0.0
  0
ARC
  5
40A
330
19
100
AcDbEntity
  8
4
100
AcDbCircle
 10
861.2521918264006
 20
134.1141991457662
 30
0.0
 40
1.0
100
AcDbArc
 50
180.0
 51
270.0
  0
ARC
  5
410
330
19
100
AcDbEntity
  8
4
100
AcDbCircle
 10
851.2814414760107
 20
82.11419914576618
 30
0.0
 40
4.0
100
AcDbArc
 50
270.0
 51
343.2016282186947
  0
ARC
  5
411
330
19
100
AcDbEntity
  8
4
100
AcDbCircle
 10
869.2521918264003
 20
88.11419914576618
 30
0.0
 40
10.0
100
AcDbArc
 50
270.0
 51
0.0
  0
ARC
  5
412
330
19
100
AcDbEntity
  8
4
100
AcDbCircle
 10
826.2521918264006
 20
76.11419914576618
 30
0.0
 40
2.0
100
AcDbArc
 50
90.0
 51
180.0
  0
LINE
  5
413
330
19
100
AcDbEntity
  8
4
100
AcDbLine
 10
879.2521918264006
 20
109.8122557495965
 30
0.0
 11
879.2521918264003
 21
88.11419914576618
 31
0.0
  0
LINE
  5
415
330
19
100
AcDbEntity
  8
4
100
AcDbLine
 10
855.1107523191577
 20
80.9581807780238
 30
0.0
 11
870.6017168286708
 21
132.2720007157857
 31
0.0
  0
LINE
  5
416
330
19
100
AcDbEntity
  8
4
100
AcDbLine
 10
866.2521918264006
 20
133.1141991457662
 30
0.0
 11
866.2521918264006
 21
117.8641991457657
 31
0.0
  0
ARC
  5
417
330
19
100
AcDbEntity
  8
4
100
AcDbCircle
 10
919.2521918264006
 20
138.1141991457662
 30
0.0
 40
49.0
100
AcDbArc
 50
180.0
 51
215.281261827266
  0
LINE
  5
418
330
19
100
AcDbEntity
  8
4
100
AcDbLine
 10
531.8003057860922
 20
186.1141991457662
 30
0.0
 11
531.6085343890104
 21
186.1141991457662
 31
0.0
  0
LINE
  5
419
330
19
100
AcDbEntity
  8
4
100
AcDbLine
 10
531.8003057860922
 20
174.1141991457662
 30
0.0
 11
532.8003057860922
 21
174.1141991457662
 31
0.0
  0
ARC
  5
41A
330
19
100
AcDbEntity
  8
4
100
AcDbCircle
 10
514.2086389860881
 20
150.7058659457705
 30
0.0
 40
5.0
100
AcDbArc
 50
285.0572644549223
 51
344.9427355450743
  0
ARC
  5
41B
330
19
100
AcDbEntity
  8
4
100
AcDbCircle
 10
429.1384683954414
 20
161.2794481039462
 30
0.0
 40
3.0
100
AcDbArc
 50
175.1485788721405
 51
284.2410316353826
  0
ARC
  5
41C
330
19
100
AcDbEntity
  8
4
100
AcDbCircle
 10
378.462143176743
 20
161.2794481039462
 30
0.0
 40
3.0
100
AcDbArc
 50
255.7589683646174
 51
4.851421127859541
  0
LINE
  5
41D
330
19
100
AcDbEntity
  8
4
100
AcDbLine
 10
403.8003057860922
 20
151.9706056063172
 30
0.0
 11
415.8003057860919
 21
145.0424023760417
 31
0.0
  0
LINE
  5
41E
330
19
100
AcDbEntity
  8
4
100
AcDbLine
 10
415.8003057860919
 20
145.0424023760417
 30
0.0
 11
415.8003057860919
 21
131.1859959154907
 31
0.0
  0
ARC
  5
41F
330
19
100
AcDbEntity
  8
4
100
AcDbCircle
 10
462.8003057860922
 20
133.1620990223994
 30
0.0
 40
2.0
100
AcDbArc
 50
97.84965082380431
 51
180.0
  0
ARC
  5
420
330
19
100
AcDbEntity
  8
4
100
AcDbCircle
 10
450.8003057860922
 20
131.6785229380248
 30
0.0
 40
2.0
100
AcDbArc
 50
0.0
 51
96.24593198344063
  0
ARC
  5
421
330
19
100
AcDbEntity
  8
4
100
AcDbCircle
 10
356.8003057860922
 20
131.6785229380248
 30
0.0
 40
2.0
100
AcDbArc
 50
83.75406801655939
 51
180.0
  0
ARC
  5
422
330
19
100
AcDbEntity
  8
4
100
AcDbCircle
 10
344.8003057860922
 20
133.1620990223994
 30
0.0
 40
2.0
100
AcDbArc
 50
0.0
 51
82.15034917619569
  0
LINE
  5
423
330
19
100
AcDbEntity
  8
4
100
AcDbLine
 10
391.8003057860922
 20
145.0424023760416
 30
0.0
 11
391.8003057860922
 21
131.1859959154908
 31
0.0
  0
LINE
  5
424
330
19
100
AcDbEntity
  8
4
100
AcDbLine
 10
403.8003057860922
 20
151.9706056063172
 30
0.0
 11
391.8003057860922
 21
145.0424023760416
 31
0.0
  0
ARC
  5
425
330
19
100
AcDbEntity
  8
4
100
AcDbCircle
 10
403.8003057860922
 20
138.1141991457662
 30
0.0
 40
22.0
100
AcDbArc
 50
90.0
 51
188.1902902613165
  0
ARC
  5
426
330
19
100
AcDbEntity
  8
4
100
AcDbCircle
 10
403.8003057860922
 20
138.1141991457662
 30
0.0
 40
22.0
100
AcDbArc
 50
351.8097097386835
 51
90.0
  0
ARC
  5
427
330
19
100
AcDbEntity
  8
4
100
AcDbCircle
 10
403.8003057860922
 20
561.114199145766
 30
0.0
 40
430.0
100
AcDbArc
 50
272.2279832959101
 51
285.0572644549238
  0
LINE
  5
428
330
19
100
AcDbEntity
  8
4
100
AcDbLine
 10
531.8003057860922
 20
102.114199145766
 30
0.0
 11
532.8003057860922
 21
102.1141991457662
 31
0.0
  0
ARC
  5
42A
330
19
100
AcDbEntity
  8
4
100
AcDbCircle
 10
524.8003057860922
 20
76.11419914576618
 30
0.0
 40
2.0
100
AcDbArc
 50
0.0
 51
79.57084495630201
  0
ARC
  5
42B
330
19
100
AcDbEntity
  8
4
100
AcDbCircle
 10
525.5243842408217
 20
80.04811708992838
 30
0.0
 40
2.0
100
AcDbArc
 50
176.4967826591375
 51
259.570844956302
  0
LINE
  5
42C
330
19
100
AcDbEntity
  8
4
100
AcDbLine
 10
531.8003057860922
 20
90.11419914576618
 30
0.0
 11
526.958834731834
 21
90.11419914576618
 31
0.0
  0
ARC
  5
42D
330
19
100
AcDbEntity
  8
4
100
AcDbCircle
 10
526.958834731834
 20
87.11419914576618
 30
0.0
 40
3.0
100
AcDbArc
 50
90.0
 51
176.4967826591372
  0
ARC
  5
42F
330
19
100
AcDbEntity
  8
4
100
AcDbCircle
 10
463.8003057860922
 20
81.11419914576618
 30
0.0
 40
3.0
100
AcDbArc
 50
180.0
 51
270.0
  0
ARC
  5
430
330
19
100
AcDbEntity
  8
4
100
AcDbCircle
 10
454.8003057860922
 20
76.11419914576618
 30
0.0
 40
2.0
100
AcDbArc
 50
90.0
 51
180.0
  0
ARC
  5
431
330
19
100
AcDbEntity
  8
4
100
AcDbCircle
 10
352.8003057860922
 20
76.11419914576618
 30
0.0
 40
2.0
100
AcDbArc
 50
0.0
 51
90.0
  0
ARC
  5
432
330
19
100
AcDbEntity
  8
4
100
AcDbCircle
 10
343.8003057860922
 20
81.11419914576618
 30
0.0
 40
3.0
100
AcDbArc
 50
270.0
 51
0.0
  0
LINE
  5
433
330
19
100
AcDbEntity
  8
L-CENTER
 48
3.0
100
AcDbLine
 10
421.0666698189517
 20
78.11419914576618
 30
0.0
 11
386.5339417532326
 21
78.11419914576618
 31
0.0
  0
LINE
  5
434
330
19
100
AcDbEntity
  8
4
100
AcDbLine
 10
525.0145201557486
 20
78.11419914576618
 30
0.0
 11
454.8003057860922
 21
78.11419914576618
 31
0.0
  0
LINE
  5
435
330
19
100
AcDbEntity
  8
4
100
AcDbLine
 10
521.0599375430809
 20
109.8122557495965
 30
0.0
 11
465.2308251605805
 21
109.8122557495965
 31
0.0
  0
LINE
  5
436
330
19
100
AcDbEntity
  8
4
100
AcDbLine
 10
531.8003057860922
 20
186.1141991457662
 30
0.0
 11
531.8003057860922
 21
90.11419914576618
 31
0.0
  0
LINE
  5
437
330
19
100
AcDbEntity
  8
4
100
AcDbLine
 10
532.8003057860922
 20
174.1141991457662
 30
0.0
 11
532.8003057860922
 21
102.1141991457662
 31
0.0
  0
LINE
  5
438
330
19
100
AcDbEntity
  8
4
100
AcDbLine
 10
416.8003057860922
 20
125.6642995477773
 30
0.0
 11
416.8003057860922
 21
78.11419914576618
 31
0.0
  0
LINE
  5
439
330
19
100
AcDbEntity
  8
4
100
AcDbLine
 10
390.8003057860922
 20
125.6642995477773
 30
0.0
 11
390.8003057860922
 21
78.11419914576618
 31
0.0
  0
LINE
  5
43A
330
19
100
AcDbEntity
  8
4
100
AcDbLine
 10
346.8003057860922
 20
81.11419914576618
 30
0.0
 11
346.8003057860922
 21
133.1620990223994
 31
0.0
  0
ARC
  5
43B
330
19
100
AcDbEntity
  8
4
100
AcDbCircle
 10
403.8003057860922
 20
138.1141991457662
 30
0.0
 40
18.0
100
AcDbArc
 50
192.1371753395049
 51
270.0
  0
ARC
  5
43C
330
19
100
AcDbEntity
  8
4
100
AcDbCircle
 10
403.8003057860922
 20
138.1141991457662
 30
0.0
 40
18.0
100
AcDbArc
 50
270.0
 51
347.8628246604951
  0
LINE
  5
43D
330
19
100
AcDbEntity
  8
4
100
AcDbLine
 10
460.8003057860922
 20
81.11419914576618
 30
0.0
 11
460.8003057860922
 21
133.1620990223994
 31
0.0
  0
LINE
  5
43E
330
19
100
AcDbEntity
  8
4
100
AcDbLine
 10
415.8003057860919
 20
131.1859959154907
 30
0.0
 11
403.8003057860919
 21
124.2577926852152
 31
0.0
  0
CIRCLE
  5
43F
330
19
100
AcDbEntity
  8
4
100
AcDbCircle
 10
403.8003057860922
 20
138.1141991457662
 30
0.0
 40
15.0
  0
LINE
  5
440
330
19
100
AcDbEntity
  8
4
100
AcDbLine
 10
391.8003057860922
 20
131.1859959154908
 30
0.0
 11
403.8003057860919
 21
124.2577926852152
 31
0.0
  0
TEXT
  5
44C
330
19
100
AcDbEntity
  8
3
100
AcDbText
 10
632.1777623555423
 20
7.045256502443351
 30
0.0
 40
9.0
  1
LA5-07
  7
KANJI
 72
     1
 11
656.9277623555423
 21
7.045256502443351
 31
0.0
100
AcDbText
  0
LINE
  5
450
330
19
100
AcDbEntity
  8
4
100
AcDbLine
 10
460.8003057860922
 20
48.11419914576618
 30
0.0
 11
452.8003057860922
 21
60.11419914576618
 31
0.0
  0
LINE
  5
451
330
19
100
AcDbEntity
  8
4
100
AcDbLine
 10
347.3940388577919
 20
49.00479875331575
 30
0.0
 11
354.2065727143925
 21
59.2235995382166
 31
0.0
  0
ARC
  5
452
330
19
100
AcDbEntity
  8
4
100
AcDbCircle
 10
345.7299382691162
 20
50.11419914576618
 30
0.0
 40
2.0
100
AcDbArc
 50
270.0
 51
326.3099324740198
  0
ARC
  5
453
330
19
100
AcDbEntity
  8
4
100
AcDbCircle
 10
355.8706733030681
 20
58.11419914576618
 30
0.0
 40
2.0
100
AcDbArc
 50
90.0
 51
146.3099324740198
  0
LINE
  5
454
330
19
100
AcDbEntity
  8
4
100
AcDbLine
 10
452.8003057860922
 20
60.11419914576618
 30
0.0
 11
355.8706733030681
 21
60.11419914576618
 31
0.0
  0
LINE
  5
458
330
19
100
AcDbEntity
  8
4
100
AcDbLine
 10
526.8003057860922
 20
48.11419914576618
 30
0.0
 11
460.8003057860922
 21
48.11419914576618
 31
0.0
  0
LINE
  5
45C
330
19
100
AcDbEntity
  8
4
100
AcDbLine
 10
354.8003057860922
 20
60.11419914576618
 30
0.0
 11
354.8003057860922
 21
131.6785229380248
 31
0.0
  0
LINE
  5
45D
330
19
100
AcDbEntity
  8
4
100
AcDbLine
 10
452.8003057860922
 20
60.11419914576618
 30
0.0
 11
452.8003057860922
 21
131.6785229380248
 31
0.0
  0
ARC
  5
45E
330
19
100
AcDbEntity
  8
4
100
AcDbCircle
 10
403.8003057860922
 20
78.11419914576618
 30
0.0
 40
13.0
100
AcDbArc
 50
270.0
 51
0.0
  0
ARC
  5
45F
330
19
100
AcDbEntity
  8
4
100
AcDbCircle
 10
403.8003057860922
 20
78.11419914576618
 30
0.0
 40
13.0
100
AcDbArc
 50
180.0
 51
270.0
  0
LINE
  5
460
330
19
100
AcDbEntity
  8
4
100
AcDbLine
 10
526.8003057860922
 20
76.11419914576618
 30
0.0
 11
526.8003057860922
 21
48.11419914576618
 31
0.0
  0
LINE
  5
461
330
19
100
AcDbEntity
  8
L-CENTER
 48
3.0
100
AcDbLine
 10
488.8003057860922
 20
38.11419914576618
 30
0.0
 11
488.8003057860922
 21
88.11419914576618
 31
0.0
  0
LWPOLYLINE
  5
462
330
19
100
AcDbEntity
  8
4
100
AcDbPolyline
 90
       44
 70
     0
 43
0.0
 10
468.2551024172699
 20
78.11419914576612
 10
469.0909417388991
 20
77.04438371508706
 10
469.4179717388993
 20
76.61240771508699
 10
469.7213287388993
 20
76.18394471508697
 10
470.3709547388994
 20
74.937171715087
 10
470.4612217388992
 20
74.54030771508707
 10
470.4686257388994
 20
74.15572871508704
 10
470.3813227388991
 20
73.78519871508712
 10
470.1650887388992
 20
73.38618071508705
 10
469.8548107388992
 20
72.99975071508709
 10
469.4909347388993
 20
72.618549715087
 10
469.1139097388993
 20
72.2352247150871
 10
468.7641787388993
 20
71.84241671508704
 10
468.4821967388993
 20
71.43276671508704
 10
468.3098107388992
 20
71.03432471508705
 10
468.2189377388993
 20
70.61745071508705
 10
468.1987537388993
 20
70.18435871508706
 10
468.4541197388992
 20
68.80995371508703
 10
468.9560647388994
 20
67.36941671508708
 10
469.4123587388992
 20
65.92261271508698
 10
469.5038047388994
 20
65.44929971508697
 10
469.5468847388993
 20
64.98415571508701
 10
469.5307747388993
 20
64.52940371508703
 10
469.3987177388992
 20
63.91517171508707
 10
469.1589757388992
 20
63.320910715087
 10
468.8399557388993
 20
62.74208171508695
 10
467.6911957388993
 20
61.05287471508694
 10
467.3390467388992
 20
60.49044971508698
 10
467.0496127388992
 20
59.92079171508703
 10
466.8513007388992
 20
59.33936471508702
 10
466.7691607388992
 20
58.813029715087
 10
466.7671687388993
 20
58.27544171508703
 10
466.8321757388992
 20
57.72807971508701
 10
467.2977487388994
 20
56.04208871508706
 10
467.8930897388991
 20
54.32121071508703
 10
468.0590287388993
 20
53.74671671508702
 10
468.1868047388994
 20
53.17424171508702
 10
468.2632717388992
 20
52.605267715087
 10
468.2599597388994
 20
51.70799771508695
 10
468.1202197388993
 20
50.82125171508693
 10
467.8713337388992
 20
49.94292671508697
 10
467.5405897388991
 20
49.07091671508709
 10
467.1552727388992
 20
48.20311571508705
 10
467.1128942019027
 20
48.11419914576618
  0
LINE
  5
463
330
19
100
AcDbEntity
  8
4
100
AcDbLine
 10
497.8003057860922
 20
48.11419914576618
 30
0.0
 11
497.8003057860922
 21
78.11419914576618
 31
0.0
  0
LINE
  5
464
330
19
100
AcDbEntity
  8
4
100
AcDbLine
 10
479.8003057860922
 20
48.11419914576618
 30
0.0
 11
479.8003057860919
 21
78.11419914576618
 31
0.0
  0
LINE
  5
468
330
19
100
AcDbEntity
  8
L-CENTER
 48
3.0
100
AcDbLine
 10
854.2521918264006
 20
38.11419914576618
 30
0.0
 11
854.2521918264006
 21
88.11419914576618
 31
0.0
  0
LINE
  5
469
330
19
100
AcDbEntity
  8
4
100
AcDbLine
 10
824.2521918264006
 20
48.11419914576618
 30
0.0
 11
824.2521918264006
 21
76.11419914576618
 31
0.0
  0
LINE
  5
46A
330
19
100
AcDbEntity
  8
4
100
AcDbLine
 10
824.2521918264006
 20
48.11419914576618
 30
0.0
 11
1014.252191826401
 21
48.11419914576618
 31
0.0
  0
LINE
  5
46B
330
19
100
AcDbEntity
  8
4
100
AcDbLine
 10
826.2521918264006
 20
78.11419914576618
 30
0.0
 11
1012.252191826401
 21
78.11419914576618
 31
0.0
  0
LINE
  5
46C
330
19
100
AcDbEntity
  8
L-CENTER
 48
3.0
100
AcDbLine
 10
980.5950443011566
 20
138.1141991457662
 30
0.0
 11
857.9093393516443
 21
138.1141991457662
 31
0.0
  0
CIRCLE
  5
46F
330
19
100
AcDbEntity
  8
4
100
AcDbCircle
 10
919.2521918264006
 20
138.1141991457662
 30
0.0
 40
36.0
  0
CIRCLE
  5
470
330
19
100
AcDbEntity
  8
4
100
AcDbCircle
 10
919.2521918264006
 20
138.1141991457662
 30
0.0
 40
48.0
  0
LINE
  5
471
330
19
100
AcDbEntity
  8
2
 48
3.0
100
AcDbLine
 10
403.8003057860923
 20
81.57830076090386
 30
0.0
 11
406.8003057860922
 21
79.84624995333502
 31
0.0
  0
LINE
  5
472
330
19
100
AcDbEntity
  8
2
 48
3.0
100
AcDbLine
 10
400.8003057860922
 20
76.38214833819728
 30
0.0
 11
403.8003057860922
 21
74.65009753062839
 31
0.0
  0
LINE
  5
473
330
19
100
AcDbEntity
  8
2
 48
3.0
100
AcDbLine
 10
406.8003057860922
 20
79.84624995333502
 30
0.0
 11
406.8003057860922
 21
76.38214833819717
 31
0.0
  0
LINE
  5
474
330
19
100
AcDbEntity
  8
2
 48
3.0
100
AcDbLine
 10
400.8003057860922
 20
79.84624995333485
 30
0.0
 11
400.8003057860922
 21
76.38214833819728
 31
0.0
  0
LINE
  5
475
330
19
100
AcDbEntity
  8
L-CENTER
 48
3.0
100
AcDbLine
 10
403.8003057860922
 20
403.114199145766
 30
0.0
 11
403.8003057860922
 21
54.0223109634544
 31
0.0
  0
ARC
  5
476
330
19
100
AcDbEntity
  8
4
100
AcDbCircle
 10
103.8003057860924
 20
261.114199145766
 30
0.0
 40
430.0
100
AcDbArc
 50
344.9427355450762
 51
15.05726445492384
  0
LINE
  5
477
330
19
100
AcDbEntity
  8
4
100
AcDbLine
 10
532.9967943605943
 20
234.8392263519167
 30
0.0
 11
523.528121503266
 21
80.17032626571404
 31
0.0
  0
LINE
  5
478
330
19
100
AcDbEntity
  8
4
100
AcDbLine
 10
426.1492163161552
 20
161.5331644938046
 30
0.0
 11
430.3085268033399
 21
210.5375962892672
 31
0.0
  0
LINE
  5
479
330
19
100
AcDbEntity
  8
4
100
AcDbLine
 10
381.4513952560292
 20
161.5331644938046
 30
0.0
 11
377.2920847688445
 21
210.5375962892672
 31
0.0
  0
ARC
  5
47A
330
19
100
AcDbEntity
  8
4
100
AcDbCircle
 10
531.6085343890104
 20
187.6141991457662
 30
0.0
 40
1.5
100
AcDbArc
 50
176.4967826591382
 51
270.0
  0
LINE
  5
47B
330
19
100
AcDbEntity
  8
4
100
AcDbLine
 10
860.2521918264006
 20
388.1141991457664
 30
0.0
 11
860.2521918264006
 21
134.1141991457662
 31
0.0
  0
LINE
  5
47F
330
19
100
AcDbEntity
  8
4
100
AcDbLine
 10
860.2521918264006
 20
160.2570562886233
 30
0.0
 11
844.5657085322191
 21
214.0392847258174
 31
0.0
  0
LINE
  5
480
330
19
100
AcDbEntity
  8
4
100
AcDbLine
 10
860.2521918264006
 20
165.6141991457664
 30
0.0
 11
846.5767561022351
 21
212.5014073429054
 31
0.0
  0
LINE
  5
481
330
19
100
AcDbEntity
  8
2
100
AcDbLine
 10
975.5521918264005
 20
133.1141991457662
 30
0.0
 11
975.5521918264005
 21
389.1141991457662
 31
0.0
  0
LINE
  5
4A5
330
19
100
AcDbEntity
  8
L-CENTER
 48
3.0
100
AcDbLine
 10
117.8875621565415
 20
115.3707431457661
 30
0.0
 11
117.8875621565415
 21
160.8576551457663
 31
0.0
  0
ARC
  5
4A6
330
19
100
AcDbEntity
  8
4
100
AcDbCircle
 10
117.8875621565415
 20
138.1141991457663
 30
0.0
 40
13.5
100
AcDbArc
 50
105.0261137591195
 51
74.97388624088046
  0
LINE
  5
4A7
330
19
100
AcDbEntity
  8
4
100
AcDbLine
 10
121.3875621565415
 20
147.6141991457663
 30
0.0
 11
121.3875621565415
 21
154.6141991457663
 31
0.0
  0
LINE
  5
4A9
330
19
100
AcDbEntity
  8
4
100
AcDbLine
 10
114.3875621565415
 20
147.6141991457663
 30
0.0
 11
114.3875621565415
 21
154.6141991457663
 31
0.0
  0
LINE
  5
4AA
330
19
100
AcDbEntity
  8
4
100
AcDbLine
 10
114.3875621565415
 20
147.6141991457663
 30
0.0
 11
121.3875621565415
 21
147.6141991457663
 31
0.0
  0
LINE
  5
4AC
330
19
100
AcDbEntity
  8
L-CENTER
 48
3.0
100
AcDbLine
 10
140.6310181565415
 20
138.1141991457662
 30
0.0
 11
95.1441061565414
 21
138.1141991457662
 31
0.0
  0
LINE
  5
4AF
330
19
100
AcDbEntity
  8
4
100
AcDbLine
 10
114.3875621565415
 20
154.6141991457663
 30
0.0
 11
121.3875621565415
 21
154.6141991457663
 31
0.0
  0
ENDSEC
  0
SECTION
  2
OBJECTS
  0
DICTIONARY
  5
7
330
0
100
AcDbDictionary
281
     1
  3
ACAD_COLOR
350
2D
  3
ACAD_GROUP
350
2B
  3
ACAD_LAYOUT
350
22
  3
ACAD_MATERIAL
350
9
  3
ACAD_MLEADERSTYLE
350
485
  3
ACAD_MLINESTYLE
350
17
  3
ACAD_PLOTSETTINGS
350
2C
  3
ACAD_PLOTSTYLENAME
350
6
  3
ACAD_SCALELIST
350
32
  3
ACAD_TABLESTYLE
350
484
  3
ACAD_VISUALSTYLE
350
2E
  3
ACDBHEADERROUNDTRIPXREC
350
4B5
  3
AcDbVariableDictionary
350
482
  3
DWGPROPS
350
4B8
  0
DICTIONARY
  5
4B9
330
2A
100
AcDbDictionary
280
     1
281
     1
  3
ACAD_XREC_ROUNDTRIP
360
4BA
  0
DICTIONARY
  5
1E
330
1D
100
AcDbDictionary
280
     1
281
     1
  3
ADSK_XREC_LAYER_RECONCILED
360
1F
  0
DICTIONARY
  5
1C2
330
1C1
100
AcDbDictionary
280
     1
281
     1
  3
ADSK_XREC_LAYER_RECONCILED
360
1C3
  0
DICTIONARY
  5
3
330
1
100
AcDbDictionary
280
     1
281
     1
  3
ADSK_XREC_LAYER_RECONCILED
360
4
  0
DICTIONARY
  5
74
330
73
100
AcDbDictionary
280
     1
281
     1
  3
ADSK_XREC_LAYER_RECONCILED
360
75
  0
DICTIONARY
  5
E4
330
E3
100
AcDbDictionary
280
     1
281
     1
  3
ADSK_XREC_LAYER_RECONCILED
360
E5
  0
DICTIONARY
  5
5C
330
5B
100
AcDbDictionary
280
     1
281
     1
  3
ADSK_XREC_LAYER_RECONCILED
360
5D
  0
DICTIONARY
  5
1A
330
19
100
AcDbDictionary
280
     1
281
     1
  3
ACAD_SORTENTS
360
1B
  0
DICTIONARY
  5
2D
102
{ACAD_REACTORS
330
7
102
}
330
7
100
AcDbDictionary
281
     1
  0
DICTIONARY
  5
2B
102
{ACAD_REACTORS
330
7
102
}
330
7
100
AcDbDictionary
281
     1
  0
DICTIONARY
  5
22
102
{ACAD_REACTORS
330
7
102
}
330
7
100
AcDbDictionary
281
     1
  3
Model
350
21
  3
ﾚｲｱｳﾄ1
350
27
  0
DICTIONARY
  5
9
102
{ACAD_REACTORS
330
7
102
}
330
7
100
AcDbDictionary
281
     1
  3
ByBlock
350
55
  3
ByLayer
350
12
  3
Global
350
8
  0
DICTIONARY
  5
485
102
{ACAD_REACTORS
330
7
102
}
330
7
100
AcDbDictionary
281
     1
  3
Standard
350
4A1
  0
DICTIONARY
  5
17
102
{ACAD_REACTORS
330
7
102
}
330
7
100
AcDbDictionary
281
     1
  3
STANDARD
350
16
  0
DICTIONARY
  5
2C
102
{ACAD_REACTORS
330
7
102
}
330
7
100
AcDbDictionary
281
     1
  0
ACDBDICTIONARYWDFLT
  5
6
102
{ACAD_REACTORS
330
7
102
}
330
7
100
AcDbDictionary
281
     1
  3
Normal
350
5
100
AcDbDictionaryWithDefault
340
5
  0
DICTIONARY
  5
32
102
{ACAD_REACTORS
330
7
102
}
330
7
100
AcDbDictionary
281
     1
  3
*A1
350
54
  0
DICTIONARY
  5
484
102
{ACAD_REACTORS
330
7
102
}
330
7
100
AcDbDictionary
281
     1
  3
Standard
350
4B1
  0
DICTIONARY
  5
2E
102
{ACAD_REACTORS
330
7
102
}
330
7
100
AcDbDictionary
281
     1
  3
2dWireframe
350
48D
  3
Basic
350
490
  3
Brighten
350
494
  3
ColorChange
350
498
  3
Conceptual
350
492
  3
Dim
350
493
  3
EdgeColorOff
350
49B
  3
Facepattern
350
497
  3
Flat
350
489
  3
FlatWithEdges
350
48A
  3
Gouraud
350
48B
  3
GouraudWithEdges
350
48C
  3
Hidden
350
48F
  3
JitterOff
350
499
  3
Linepattern
350
496
  3
OverhangOff
350
49A
  3
Realistic
350
491
  3
Shaded
350
4A0
  3
Shaded with edges
350
49F
  3
Shades of Gray
350
49C
  3
Sketchy
350
49D
  3
Thicken
350
495
  3
Wireframe
350
48E
  3
X-Ray
350
49E
  0
DICTIONARY
  5
4B5
102
{ACAD_REACTORS
330
7
102
}
330
7
100
AcDbDictionary
281
     1
  3
COLORDICT
350
4B6
  3
MATERIALDICT
350
4B7
  0
DICTIONARY
  5
482
102
{ACAD_REACTORS
330
7
102
}
330
7
100
AcDbDictionary
281
     1
  3
CANNOSCALE
350
483
  3
CMLEADERSTYLE
350
4A3
  3
CTABLESTYLE
350
4B2
  3
DIMASSOC
350
4B3
  3
HIDETEXT
350
4B4
  3
MSLTSCALE
350
4BB
  3
XCLIPFRAME
350
486
  0
XRECORD
  5
4B8
102
{ACAD_REACTORS
330
7
102
}
330
7
100
AcDbXrecord
280
     1
  1
DWGPROPS COOKIE
  2

  3

  4

  6

  7

  8
sg-d04
  9

300
=
301
=
302
=
303
=
304
=
305
=
306
=
307
=
308
=
309
=
 40
0.0
 41
2457438.451695625
 42
2457871.44092779
  1

 90
        0
  0
XRECORD
  5
4BA
102
{ACAD_REACTORS
330
4B9
102
}
330
4B9
100
AcDbXrecord
280
     1
102
VTR_0.000_0.000_1.000_1.000_VISUALSTYLE
340
48D
102
VTR_0.000_0.000_1.000_1.000_GRIDDISPLAY
 70
     3
102
VTR_0.000_0.000_1.000_1.000_GRIDMAJOR
 70
     5
102
VTR_0.000_0.000_1.000_1.000_DEFAULTLIGHTING
280
     1
102
VTR_0.000_0.000_1.000_1.000_DEFAULTLIGHTINGTYPE
 70
     1
102
VTR_0.000_0.000_1.000_1.000_BRIGHTNESS
141
0.0
102
VTR_0.000_0.000_1.000_1.000_CONTRAST
142
0.0
  0
XRECORD
  5
1F
102
{ACAD_REACTORS
330
1E
102
}
330
1E
100
AcDbXrecord
280
     1
290
     1
  0
XRECORD
  5
1C3
102
{ACAD_REACTORS
330
1C2
102
}
330
1C2
100
AcDbXrecord
280
     1
290
     1
  0
XRECORD
  5
4
102
{ACAD_REACTORS
330
3
102
}
330
3
100
AcDbXrecord
280
     1
290
     1
  0
XRECORD
  5
75
102
{ACAD_REACTORS
330
74
102
}
330
74
100
AcDbXrecord
280
     1
290
     1
  0
XRECORD
  5
E5
102
{ACAD_REACTORS
330
E4
102
}
330
E4
100
AcDbXrecord
280
     1
290
     1
  0
XRECORD
  5
5D
102
{ACAD_REACTORS
330
5C
102
}
330
5C
100
AcDbXrecord
280
     1
290
     1
  0
SORTENTSTABLE
  5
1B
102
{ACAD_REACTORS
330
1A
102
}
330
1A
100
AcDbSortentsTable
330
19
331
0
  5
481
331
15B
  5
477
331
15C
  5
476
331
15D
  5
475
331
15E
  5
474
331
28F
  5
347
331
290
  5
346
331
291
  5
345
331
292
  5
344
331
293
  5
343
331
294
  5
342
331
295
  5
341
331
296
  5
340
331
297
  5
33F
331
298
  5
33E
331
299
  5
33D
331
29A
  5
33C
331
29B
  5
33B
331
29C
  5
33A
331
29D
  5
339
331
29E
  5
338
331
29F
  5
337
331
2A0
  5
336
331
2A1
  5
335
331
2A2
  5
334
331
2A3
  5
333
331
2A4
  5
332
331
2A5
  5
331
331
2A6
  5
330
331
2A7
  5
32F
331
2A8
  5
32E
331
2A9
  5
32D
331
2AA
  5
32C
331
2AB
  5
32B
331
2AC
  5
32A
331
2AD
  5
329
331
2AE
  5
328
331
2AF
  5
327
331
2B0
  5
326
331
2B1
  5
325
331
2B2
  5
324
331
2B3
  5
323
331
2B4
  5
322
331
2B5
  5
321
331
2B6
  5
320
331
2B7
  5
31F
331
2B8
  5
31E
331
2B9
  5
31D
331
2BA
  5
31C
331
2BB
  5
31B
331
2BC
  5
31A
331
2BD
  5
319
331
2BE
  5
318
331
2BF
  5
317
331
2C0
  5
316
331
2C1
  5
315
331
2C2
  5
314
331
2C3
  5
313
331
2C4
  5
312
331
2C5
  5
311
331
2C6
  5
310
331
2C7
  5
30F
331
2C8
  5
30E
331
2C9
  5
30D
331
2CA
  5
30C
331
2CB
  5
30B
331
2CC
  5
30A
331
2CD
  5
309
331
2CE
  5
308
331
2CF
  5
307
331
2D0
  5
306
331
2D1
  5
305
331
2D2
  5
304
331
2D3
  5
303
331
2D4
  5
302
331
2D5
  5
301
331
2D6
  5
300
331
2DD
  5
2F9
331
2DE
  5
2F8
331
2DF
  5
2F7
331
2E0
  5
2F6
331
2E1
  5
2F5
331
2E2
  5
2F4
331
2E3
  5
2F3
331
2E4
  5
2F2
331
2E5
  5
2F1
331
2E6
  5
2F0
331
2E7
  5
2EF
331
2E8
  5
2EE
331
2E9
  5
2ED
331
2EA
  5
2EC
331
2EC
  5
2EA
331
2ED
  5
2E9
331
2EE
  5
2E8
331
2EF
  5
2E7
331
2F0
  5
2E6
331
2F1
  5
2E5
331
2F2
  5
2E4
331
2F3
  5
2E3
331
2F4
  5
2E2
331
2F5
  5
2E1
331
2F6
  5
2E0
331
2F7
  5
2DF
331
2F8
  5
2DE
331
2F9
  5
2DD
331
2FA
  5
2DC
331
2FB
  5
2DB
331
2FC
  5
2DA
331
2FD
  5
2D9
331
2FE
  5
2D8
331
2FF
  5
2D7
331
300
  5
2D6
331
301
  5
2D5
331
302
  5
2D4
331
303
  5
2D3
331
304
  5
2D2
331
305
  5
2D1
331
306
  5
2D0
331
307
  5
2CF
331
308
  5
2CE
331
309
  5
2CD
331
30A
  5
2CC
331
30B
  5
2CB
331
30C
  5
2CA
331
30D
  5
2C9
331
30E
  5
2C8
331
30F
  5
2C7
331
310
  5
2C6
331
311
  5
2C5
331
312
  5
2C4
331
313
  5
2C3
331
314
  5
2C2
331
315
  5
2C1
331
316
  5
2C0
331
317
  5
2BF
331
318
  5
2BE
331
319
  5
2BD
331
31A
  5
2BC
331
31B
  5
2BB
331
31C
  5
2BA
331
31D
  5
2B9
331
31E
  5
2B8
331
31F
  5
2B7
331
321
  5
2B5
331
322
  5
2B4
331
323
  5
2B3
331
324
  5
2B2
331
325
  5
2B1
331
326
  5
2B0
331
327
  5
2AF
331
328
  5
2AE
331
329
  5
2AD
331
330
  5
2A6
331
331
  5
2A5
331
332
  5
2A4
331
333
  5
2A3
331
334
  5
2A2
331
335
  5
2A1
331
336
  5
2A0
331
337
  5
29F
331
338
  5
29E
331
339
  5
29D
331
33A
  5
29C
331
33B
  5
29B
331
33C
  5
29A
331
33D
  5
299
331
33E
  5
298
331
33F
  5
297
331
340
  5
296
331
341
  5
295
331
342
  5
294
331
343
  5
293
331
344
  5
292
331
345
  5
291
331
346
  5
290
331
347
  5
28F
331
348
  5
28E
331
349
  5
28D
331
34A
  5
28C
331
34B
  5
28B
331
34C
  5
28A
331
34D
  5
289
331
34E
  5
288
331
34F
  5
287
331
350
  5
286
331
351
  5
285
331
352
  5
284
331
353
  5
283
331
356
  5
280
331
357
  5
27F
331
358
  5
27E
331
359
  5
27D
331
35A
  5
27C
331
35B
  5
27B
331
35C
  5
27A
331
35D
  5
279
331
362
  5
274
331
363
  5
273
331
364
  5
272
331
365
  5
271
331
367
  5
26F
331
368
  5
26E
331
369
  5
26D
331
36A
  5
26C
331
36B
  5
26B
331
36C
  5
26A
331
36D
  5
269
331
36E
  5
268
331
36F
  5
267
331
370
  5
266
331
371
  5
265
331
372
  5
264
331
373
  5
263
331
374
  5
262
331
375
  5
261
331
376
  5
260
331
377
  5
25F
331
378
  5
25E
331
379
  5
25D
331
37A
  5
25C
331
37B
  5
25B
331
37C
  5
25A
331
37D
  5
259
331
37E
  5
258
331
37F
  5
257
331
380
  5
256
331
381
  5
255
331
382
  5
254
331
383
  5
253
331
384
  5
252
331
385
  5
251
331
386
  5
250
331
387
  5
24F
331
388
  5
24E
331
389
  5
24D
331
38A
  5
24C
331
38B
  5
24B
331
38C
  5
24A
331
38D
  5
249
331
38E
  5
248
331
38F
  5
247
331
390
  5
246
331
391
  5
245
331
392
  5
244
331
393
  5
243
331
394
  5
242
331
395
  5
241
331
396
  5
240
331
397
  5
23F
331
398
  5
23E
331
399
  5
23D
331
39A
  5
23C
331
39B
  5
23B
331
39C
  5
23A
331
39D
  5
239
331
39E
  5
238
331
39F
  5
237
331
3A0
  5
236
331
3A1
  5
235
331
3A2
  5
234
331
3A3
  5
233
331
3A4
  5
232
331
3A5
  5
231
331
3A6
  5
230
331
3A7
  5
22F
331
3A8
  5
22E
331
3A9
  5
22D
331
3AA
  5
22C
331
3AB
  5
22B
331
3AC
  5
22A
331
3AD
  5
229
331
3AE
  5
228
331
3AF
  5
227
331
3B0
  5
226
331
3B1
  5
225
331
3B2
  5
224
331
3B3
  5
223
331
3B4
  5
222
331
3B5
  5
221
331
3B6
  5
220
331
3B7
  5
21F
331
3BE
  5
218
331
3BF
  5
217
331
3C0
  5
216
331
3C1
  5
215
331
3C2
  5
214
331
3C5
  5
211
331
3C6
  5
210
331
3C7
  5
20F
331
3C8
  5
20E
331
3C9
  5
20D
331
3CA
  5
20C
331
3CB
  5
20B
331
3CC
  5
20A
331
3CD
  5
209
331
3CE
  5
208
331
3CF
  5
207
331
3D0
  5
206
331
3D1
  5
205
331
3D2
  5
204
331
3D3
  5
203
331
3D4
  5
202
331
3D5
  5
201
331
3D6
  5
200
331
3D7
  5
1FF
331
3D8
  5
1FE
331
3D9
  5
1FD
331
3DA
  5
1FC
331
3DB
  5
1FB
331
3DC
  5
1FA
331
3DD
  5
1F9
331
3DE
  5
1F8
331
3DF
  5
1F7
331
3E0
  5
1F6
331
3E1
  5
1F5
331
3E2
  5
1F4
331
3E3
  5
1F3
331
3E4
  5
1F2
331
3E5
  5
1F1
331
3E7
  5
1EF
331
3E8
  5
1EE
331
3E9
  5
1ED
331
3EA
  5
1EC
331
3EB
  5
1EB
331
3EC
  5
1EA
331
3ED
  5
1E9
331
3EE
  5
1E8
331
3EF
  5
1E7
331
3F0
  5
1E6
331
3F1
  5
1E5
331
3F2
  5
1E4
331
3F3
  5
1E3
331
3F4
  5
1E2
331
3F5
  5
1E1
331
3F6
  5
1E0
331
3F7
  5
1DF
331
3F8
  5
1DE
331
3F9
  5
1DD
331
3FA
  5
1DC
331
3FB
  5
1DB
331
3FC
  5
1DA
331
3FD
  5
1D9
331
3FE
  5
1D8
331
3FF
  5
1D7
331
400
  5
1D6
331
407
  5
1CF
331
408
  5
1CE
331
409
  5
1CD
331
40A
  5
1CC
331
410
  5
1C6
331
411
  5
1C5
331
412
  5
1C4
331
413
  5
1C0
331
415
  5
1BE
331
416
  5
1BD
331
417
  5
1BC
331
418
  5
1BA
331
419
  5
1B9
331
41A
  5
1B8
331
41B
  5
1B7
331
41C
  5
1B6
331
41D
  5
1B5
331
41E
  5
1B4
331
41F
  5
1B3
331
420
  5
1B2
331
421
  5
1B1
331
422
  5
1B0
331
423
  5
1AF
331
424
  5
1AE
331
425
  5
1AD
331
426
  5
1AC
331
427
  5
1AB
331
428
  5
1AA
331
42A
  5
1A8
331
42B
  5
1A7
331
42C
  5
1A6
331
42D
  5
1A5
331
42F
  5
1A3
331
430
  5
1A2
331
431
  5
1A1
331
432
  5
1A0
331
433
  5
19F
331
434
  5
19E
331
435
  5
19D
331
436
  5
19C
331
437
  5
19B
331
438
  5
19A
331
439
  5
199
331
43A
  5
198
331
43B
  5
197
331
43C
  5
196
331
43D
  5
195
331
43E
  5
194
331
43F
  5
193
331
440
  5
192
331
44C
  5
186
331
450
  5
182
331
451
  5
181
331
452
  5
180
331
453
  5
17F
331
454
  5
17E
331
458
  5
17A
331
45C
  5
176
331
45D
  5
175
331
45E
  5
174
331
45F
  5
173
331
460
  5
172
331
461
  5
171
331
462
  5
170
331
463
  5
16F
331
464
  5
16E
331
468
  5
16A
331
469
  5
169
331
46A
  5
168
331
46B
  5
167
331
46C
  5
166
331
46F
  5
163
331
470
  5
162
331
471
  5
161
331
472
  5
160
331
473
  5
15F
331
474
  5
15E
331
475
  5
15D
331
476
  5
15C
331
477
  5
15B
331
478
  5
15A
331
479
  5
159
331
47A
  5
158
331
47B
  5
157
331
47F
  5
153
331
480
  5
152
331
481
  5
151
  0
LAYOUT
  5
21
102
{ACAD_REACTORS
330
22
102
}
330
22
100
AcDbPlotSettings
  1

  2
Bullzip PDF Printer.pc3
  4
A3
  6

 40
0.2
 41
0.0
 42
0.0
 43
0.0
 44
420.2
 45
297.1
 46
25.0
 47
12.0
 48
59.99999985999989
 49
0.0
140
1205.999997235
141
817.4999980924999
142
1.0
143
3.0
 70
 11936
 72
     1
 73
     0
 74
     4
  7
monochrome.ctb
 75
     0
147
0.3333333333333333
148
-59.99999985999989
149
0.0
100
AcDbLayout
  1
Model
 70
     0
 71
     0
 10
0.0
 20
0.0
 11
12.0
 21
9.0
 12
0.0
 22
0.0
 32
0.0
 14
95.14410615654128
 24
7.045256502443351
 34
0.0
 15
1104.530280682763
 25
950.8367654889264
 35
0.0
146
0.0
 13
0.0
 23
0.0
 33
0.0
 16
1.0
 26
0.0
 36
0.0
 17
0.0
 27
1.0
 37
0.0
 76
     0
330
19
331
2F
1001
ACAD_PSEXT
1000
Bullzip PDF Printer.pc3
1000
Bullzip PDF Printer
1000
BULLZIP
1000
Bullzip PDF Printer 10.1.0.1871
1070
     0
  0
LAYOUT
  5
27
102
{ACAD_REACTORS
330
22
102
}
330
22
100
AcDbPlotSettings
  1

  2
C:\Program Files\ACAD LT 2000\plotters\Draftpro-DXL (7575A).pc3
  4

  6

 40
0.0
 41
0.0
 42
0.0
 43
0.0
 44
0.0
 45
0.0
 46
0.0
 47
0.0
 48
0.0
 49
0.0
140
0.0
141
0.0
142
1.0
143
1.0
 70
   688
 72
     0
 73
     0
 74
     5
  7
monochrome.ctb
 75
    16
147
1.0
148
0.0
149
0.0
100
AcDbLayout
  1
ﾚｲｱｳﾄ1
 70
     0
 71
     1
 10
0.0
 20
0.0
 11
12.0
 21
9.0
 12
0.0
 22
0.0
 32
0.0
 14
1.000000000000000E+20
 24
1.000000000000000E+20
 34
1.000000000000000E+20
 15
-1.000000000000000E+20
 25
-1.000000000000000E+20
 35
-1.000000000000000E+20
146
0.0
 13
0.0
 23
0.0
 33
0.0
 16
1.0
 26
0.0
 36
0.0
 17
0.0
 27
1.0
 37
0.0
 76
     0
330
24
  0
MATERIAL
  5
55
102
{ACAD_REACTORS
330
9
102
}
102
{ACAD_XDICTIONARY
360
4C0
102
}
330
9
100
AcDbMaterial
  1
ByBlock
 72
     0
 73
     2
 43
0.0208333333333333
 43
0.0
 43
0.0
 43
0.0
 43
0.0
 43
0.0208333333333333
 43
0.0
 43
0.0
 43
0.0
 43
0.0
 43
1.0
 43
0.0
 43
0.0
 43
0.0
 43
0.0
 43
1.0
 77
     0
 78
     2
 47
0.0208333333333333
 47
0.0
 47
0.0
 47
0.0
 47
0.0
 47
0.0208333333333333
 47
0.0
 47
0.0
 47
0.0
 47
0.0
 47
1.0
 47
0.0
 47
0.0
 47
0.0
 47
0.0
 47
1.0
171
     0
172
     2
 49
0.0208333333333333
 49
0.0
 49
0.0
 49
0.0
 49
0.0
 49
0.0208333333333333
 49
0.0
 49
0.0
 49
0.0
 49
0.0
 49
1.0
 49
0.0
 49
0.0
 49
0.0
 49
0.0
 49
1.0
175
     0
176
     2
142
0.0208333333333333
142
0.0
142
0.0
142
0.0
142
0.0
142
0.0208333333333333
142
0.0
142
0.0
142
0.0
142
0.0
142
1.0
142
0.0
142
0.0
142
0.0
142
0.0
142
1.0
179
     0
270
     2
144
0.0208333333333333
144
0.0
144
0.0
144
0.0
144
0.0
144
0.0208333333333333
144
0.0
144
0.0
144
0.0
144
0.0
144
1.0
144
0.0
144
0.0
144
0.0
144
0.0
144
1.0
274
     2
147
0.0208333333333333
147
0.0
147
0.0
147
0.0
147
0.0
147
0.0208333333333333
147
0.0
147
0.0
147
0.0
147
0.0
147
1.0
147
0.0
147
0.0
147
0.0
147
0.0
147
1.0
  0
MATERIAL
  5
12
102
{ACAD_REACTORS
330
9
102
}
102
{ACAD_XDICTIONARY
360
4BC
102
}
330
9
100
AcDbMaterial
  1
ByLayer
 72
     0
 73
     2
 43
0.0208333333333333
 43
0.0
 43
0.0
 43
0.0
 43
0.0
 43
0.0208333333333333
 43
0.0
 43
0.0
 43
0.0
 43
0.0
 43
1.0
 43
0.0
 43
0.0
 43
0.0
 43
0.0
 43
1.0
 77
     0
 78
     2
 47
0.0208333333333333
 47
0.0
 47
0.0
 47
0.0
 47
0.0
 47
0.0208333333333333
 47
0.0
 47
0.0
 47
0.0
 47
0.0
 47
1.0
 47
0.0
 47
0.0
 47
0.0
 47
0.0
 47
1.0
171
     0
172
     2
 49
0.0208333333333333
 49
0.0
 49
0.0
 49
0.0
 49
0.0
 49
0.0208333333333333
 49
0.0
 49
0.0
 49
0.0
 49
0.0
 49
1.0
 49
0.0
 49
0.0
 49
0.0
 49
0.0
 49
1.0
175
     0
176
     2
142
0.0208333333333333
142
0.0
142
0.0
142
0.0
142
0.0
142
0.0208333333333333
142
0.0
142
0.0
142
0.0
142
0.0
142
1.0
142
0.0
142
0.0
142
0.0
142
0.0
142
1.0
179
     0
270
     2
144
0.0208333333333333
144
0.0
144
0.0
144
0.0
144
0.0
144
0.0208333333333333
144
0.0
144
0.0
144
0.0
144
0.0
144
1.0
144
0.0
144
0.0
144
0.0
144
0.0
144
1.0
274
     2
147
0.0208333333333333
147
0.0
147
0.0
147
0.0
147
0.0
147
0.0208333333333333
147
0.0
147
0.0
147
0.0
147
0.0
147
1.0
147
0.0
147
0.0
147
0.0
147
0.0
147
1.0
  0
MATERIAL
  5
8
102
{ACAD_REACTORS
330
9
102
}
102
{ACAD_XDICTIONARY
360
4BE
102
}
330
9
100
AcDbMaterial
  1
Global
 72
     0
 73
     2
 43
0.0208333333333333
 43
0.0
 43
0.0
 43
0.0
 43
0.0
 43
0.0208333333333333
 43
0.0
 43
0.0
 43
0.0
 43
0.0
 43
1.0
 43
0.0
 43
0.0
 43
0.0
 43
0.0
 43
1.0
 77
     0
 78
     2
 47
0.0208333333333333
 47
0.0
 47
0.0
 47
0.0
 47
0.0
 47
0.0208333333333333
 47
0.0
 47
0.0
 47
0.0
 47
0.0
 47
1.0
 47
0.0
 47
0.0
 47
0.0
 47
0.0
 47
1.0
171
     0
172
     2
 49
0.0208333333333333
 49
0.0
 49
0.0
 49
0.0
 49
0.0
 49
0.0208333333333333
 49
0.0
 49
0.0
 49
0.0
 49
0.0
 49
1.0
 49
0.0
 49
0.0
 49
0.0
 49
0.0
 49
1.0
175
     0
176
     2
142
0.0208333333333333
142
0.0
142
0.0
142
0.0
142
0.0
142
0.0208333333333333
142
0.0
142
0.0
142
0.0
142
0.0
142
1.0
142
0.0
142
0.0
142
0.0
142
0.0
142
1.0
179
     0
270
     2
144
0.0208333333333333
144
0.0
144
0.0
144
0.0
144
0.0
144
0.0208333333333333
144
0.0
144
0.0
144
0.0
144
0.0
144
1.0
144
0.0
144
0.0
144
0.0
144
0.0
144
1.0
274
     2
147
0.0208333333333333
147
0.0
147
0.0
147
0.0
147
0.0
147
0.0208333333333333
147
0.0
147
0.0
147
0.0
147
0.0
147
1.0
147
0.0
147
0.0
147
0.0
147
0.0
147
1.0
1001
ACAD
1070
    -1
1070
     3
1070
     0
1000

1071
        0
  0
MLEADERSTYLE
  5
4A1
102
{ACAD_REACTORS
330
485
102
}
102
{ACAD_XDICTIONARY
360
4F2
102
}
330
485
100
AcDbMLeaderStyle
170
     2
171
     1
172
     0
 90
        2
 40
0.0
 41
0.0
173
     1
 91
-1056964608
340
F
 92
       -2
290
     1
 42
0.09
291
     1
 43
0.36
  3
Standard
341
0
 44
0.18
300

342
10
174
     1
178
     6
175
     1
176
     0
 93
-1056964608
 45
0.18
292
     0
297
     0
 46
0.18
343
0
 94
-1056964608
 47
1.0
 49
1.0
140
1.0
293
     1
141
0.0
294
     1
177
     0
142
1.0
295
     0
296
     0
143
0.125
1001
ACAD_MLEADERVER
1070
     2
  0
MLINESTYLE
  5
16
102
{ACAD_REACTORS
330
17
102
}
330
17
100
AcDbMlineStyle
  2
STANDARD
 70
     0
  3

 62
     0
 51
90.0
 52
90.0
 71
     2
 49
0.5
 62
   256
  6
BYLAYER
 49
-0.5
 62
   256
  6
BYLAYER
  0
ACDBPLACEHOLDER
  5
5
102
{ACAD_REACTORS
330
6
102
}
330
6
  0
SCALE
  5
54
102
{ACAD_REACTORS
330
32
102
}
330
32
100
AcDbScale
 70
     0
300
1:1
140
1.0
141
1.0
290
     1
  0
TABLESTYLE
  5
4B1
102
{ACAD_REACTORS
330
484
102
}
330
484
100
AcDbTableStyle
  3
Standard
 70
     0
 71
     0
 40
0.06
 41
0.06
280
     0
281
     0
  7
STANDARD
140
0.18
170
     2
 62
     0
 63
   257
283
     0
274
    -2
284
     1
 64
     0
275
    -2
285
     1
 65
     0
276
    -2
286
     1
 66
     0
277
    -2
287
     1
 67
     0
278
    -2
288
     1
 68
     0
279
    -2
289
     1
 69
     0
  7
STANDARD
140
0.25
170
     5
 62
     0
 63
   257
283
     0
274
    -2
284
     1
 64
     0
275
    -2
285
     1
 65
     0
276
    -2
286
     1
 66
     0
277
    -2
287
     1
 67
     0
278
    -2
288
     1
 68
     0
279
    -2
289
     1
 69
     0
  7
STANDARD
140
0.18
170
     5
 62
     0
 63
   257
283
     0
274
    -2
284
     1
 64
     0
275
    -2
285
     1
 65
     0
276
    -2
286
     1
 66
     0
277
    -2
287
     1
 67
     0
278
    -2
288
     1
 68
     0
279
    -2
289
     1
 69
     0
  0
VISUALSTYLE
  5
48D
102
{ACAD_REACTORS
330
2E
102
}
102
{ACAD_XDICTIONARY
360
4CA
102
}
330
2E
100
AcDbVisualStyle
  2
2dWireframe
 70
     4
 71
     0
 72
     2
 73
     0
 90
        0
 40
0.6
 41
30.0
 62
     5
 63
     7
 74
     1
 91
        4
 64
     7
 65
   257
 75
     1
175
     1
 42
1.0
 92
        0
 66
   257
 43
1.0
 76
     1
 77
     6
 78
     2
 67
     7
 79
     5
170
     0
171
     0
290
     0
174
     0
 93
        1
 44
0.0
173
     0
291
     0
 45
0.0
1001
ACAD
1000
AcDbSavedByObjectVersion
1070
     0
  0
VISUALSTYLE
  5
490
102
{ACAD_REACTORS
330
2E
102
}
102
{ACAD_XDICTIONARY
360
4D0
102
}
330
2E
100
AcDbVisualStyle
  2
Basic
 70
     7
 71
     1
 72
     0
 73
     1
 90
        0
 40
0.6
 41
30.0
 62
     5
 63
     7
 74
     0
 91
        4
 64
     7
 65
   257
 75
     1
175
     1
 42
1.0
 92
        8
 66
     7
 43
1.0
 76
     1
 77
     6
 78
     2
 67
     7
 79
     5
170
     0
171
     0
290
     0
174
     0
 93
        1
 44
0.0
173
     0
291
     1
 45
0.0
1001
ACAD
1000
AcDbSavedByObjectVersion
1070
     0
  0
VISUALSTYLE
  5
494
102
{ACAD_REACTORS
330
2E
102
}
102
{ACAD_XDICTIONARY
360
4D8
102
}
330
2E
100
AcDbVisualStyle
  2
Brighten
 70
    12
 71
     2
 72
     2
 73
     0
 90
        0
 40
0.6
 41
30.0
 62
     5
 63
     7
 74
     1
 91
        4
 64
     7
 65
   257
 75
     1
175
     1
 42
1.0
 92
        8
 66
     7
 43
1.0
 76
     1
 77
     6
 78
     2
 67
     7
 79
     5
170
     0
171
     0
290
     0
174
     0
 93
        1
 44
50.0
173
     0
291
     1
 45
0.0
1001
ACAD
1000
AcDbSavedByObjectVersion
1070
     0
  0
VISUALSTYLE
  5
498
102
{ACAD_REACTORS
330
2E
102
}
102
{ACAD_XDICTIONARY
360
4E0
102
}
330
2E
100
AcDbVisualStyle
  2
ColorChange
 70
    16
 71
     2
 72
     2
 73
     3
 90
        0
 40
0.6
 41
30.0
 62
     5
 63
     8
 74
     1
 91
        4
 64
     7
 65
   257
 75
     1
175
     1
 42
1.0
 92
        8
 66
     8
 43
1.0
 76
     1
 77
     6
 78
     2
 67
     7
 79
     5
170
     0
171
     0
290
     0
174
     0
 93
        1
 44
0.0
173
     0
291
     1
 45
0.0
1001
ACAD
1000
AcDbSavedByObjectVersion
1070
     0
  0
VISUALSTYLE
  5
492
102
{ACAD_REACTORS
330
2E
102
}
102
{ACAD_XDICTIONARY
360
4D4
102
}
330
2E
100
AcDbVisualStyle
  2
Conceptual
 70
     9
 71
     3
 72
     2
 73
     0
 90
        0
 40
0.6
 41
30.0
 62
     5
 63
     7
 74
     2
 91
        2
 64
     7
 65
   257
 75
     1
175
     1
 42
40.0
 92
        8
 66
     7
 43
1.0
 76
     1
 77
     6
 78
     2
 67
     7
 79
     3
170
     0
171
     0
290
     0
174
     0
 93
        1
 44
0.0
173
     0
291
     0
 45
0.0
1001
ACAD
1000
AcDbSavedByObjectVersion
1070
     0
  0
VISUALSTYLE
  5
493
102
{ACAD_REACTORS
330
2E
102
}
102
{ACAD_XDICTIONARY
360
4D6
102
}
330
2E
100
AcDbVisualStyle
  2
Dim
 70
    11
 71
     2
 72
     2
 73
     0
 90
        0
 40
0.6
 41
30.0
 62
     5
 63
     7
 74
     1
 91
        4
 64
     7
 65
   257
 75
     1
175
     1
 42
1.0
 92
        8
 66
     7
 43
1.0
 76
     1
 77
     6
 78
     2
 67
     7
 79
     5
170
     0
171
     0
290
     0
174
     0
 93
        1
 44
-50.0
173
     0
291
     1
 45
0.0
1001
ACAD
1000
AcDbSavedByObjectVersion
1070
     0
  0
VISUALSTYLE
  5
49B
102
{ACAD_REACTORS
330
2E
102
}
102
{ACAD_XDICTIONARY
360
4E6
102
}
330
2E
100
AcDbVisualStyle
  2
EdgeColorOff
 70
    22
 71
     2
 72
     2
 73
     0
 90
        0
 40
0.6
 41
30.0
 62
     5
 63
     7
 74
     1
 91
        4
 64
     7
 65
   257
 75
     1
175
     1
 42
1.0
 92
        8
 66
     7
 43
1.0
 76
     1
 77
     6
 78
     2
 67
     7
 79
     5
170
     0
171
     0
290
     0
174
     0
 93
        1
 44
0.0
173
     0
291
     1
 45
0.0
1001
ACAD
1000
AcDbSavedByObjectVersion
1070
     0
  0
VISUALSTYLE
  5
497
102
{ACAD_REACTORS
330
2E
102
}
102
{ACAD_XDICTIONARY
360
4DE
102
}
330
2E
100
AcDbVisualStyle
  2
Facepattern
 70
    15
 71
     2
 72
     2
 73
     0
 90
        0
 40
0.6
 41
30.0
 62
     5
 63
     7
 74
     1
 91
        4
 64
     7
 65
   257
 75
     1
175
     1
 42
1.0
 92
        8
 66
     7
 43
1.0
 76
     1
 77
     6
 78
     2
 67
     7
 79
     5
170
     0
171
     0
290
     0
174
     0
 93
        1
 44
0.0
173
     0
291
     1
 45
0.0
1001
ACAD
1000
AcDbSavedByObjectVersion
1070
     0
  0
VISUALSTYLE
  5
489
102
{ACAD_REACTORS
330
2E
102
}
102
{ACAD_XDICTIONARY
360
4C2
102
}
330
2E
100
AcDbVisualStyle
  2
Flat
 70
     0
 71
     2
 72
     1
 73
     1
 90
        2
 40
0.6
 41
30.0
 62
     5
 63
     7
 74
     0
 91
        4
 64
     7
 65
   257
 75
     1
175
     1
 42
1.0
 92
        8
 66
     7
 43
1.0
 76
     1
 77
     6
 78
     2
 67
     7
 79
     5
170
     0
171
     0
290
     0
174
     0
 93
       13
 44
0.0
173
     0
291
     1
 45
0.0
1001
ACAD
1000
AcDbSavedByObjectVersion
1070
     0
  0
VISUALSTYLE
  5
48A
102
{ACAD_REACTORS
330
2E
102
}
102
{ACAD_XDICTIONARY
360
4C4
102
}
330
2E
100
AcDbVisualStyle
  2
FlatWithEdges
 70
     1
 71
     2
 72
     1
 73
     1
 90
        2
 40
0.6
 41
30.0
 62
     5
 63
     7
 74
     1
 91
        4
 64
     7
 65
   257
 75
     1
175
     1
 42
1.0
 92
        0
 66
   257
 43
1.0
 76
     1
 77
     6
 78
     2
 67
     7
 79
     5
170
     0
171
     0
290
     0
174
     0
 93
       13
 44
0.0
173
     0
291
     1
 45
0.0
1001
ACAD
1000
AcDbSavedByObjectVersion
1070
     0
  0
VISUALSTYLE
  5
48B
102
{ACAD_REACTORS
330
2E
102
}
102
{ACAD_XDICTIONARY
360
4C6
102
}
330
2E
100
AcDbVisualStyle
  2
Gouraud
 70
     2
 71
     2
 72
     2
 73
     1
 90
        2
 40
0.6
 41
30.0
 62
     5
 63
     7
 74
     0
 91
        4
 64
     7
 65
   257
 75
     1
175
     1
 42
1.0
 92
        0
 66
     7
 43
1.0
 76
     1
 77
     6
 78
     2
 67
     7
 79
     5
170
     0
171
     0
290
     0
174
     0
 93
       13
 44
0.0
173
     0
291
     1
 45
0.0
1001
ACAD
1000
AcDbSavedByObjectVersion
1070
     0
  0
VISUALSTYLE
  5
48C
102
{ACAD_REACTORS
330
2E
102
}
102
{ACAD_XDICTIONARY
360
4C8
102
}
330
2E
100
AcDbVisualStyle
  2
GouraudWithEdges
 70
     3
 71
     2
 72
     2
 73
     1
 90
        2
 40
0.6
 41
30.0
 62
     5
 63
     7
 74
     1
 91
        4
 64
     7
 65
   257
 75
     1
175
     1
 42
1.0
 92
        0
 66
   257
 43
1.0
 76
     1
 77
     6
 78
     2
 67
     7
 79
     5
170
     0
171
     0
290
     0
174
     0
 93
       13
 44
0.0
173
     0
291
     1
 45
0.0
1001
ACAD
1000
AcDbSavedByObjectVersion
1070
     0
  0
VISUALSTYLE
  5
48F
102
{ACAD_REACTORS
330
2E
102
}
102
{ACAD_XDICTIONARY
360
4CE
102
}
330
2E
100
AcDbVisualStyle
  2
Hidden
 70
     6
 71
     1
 72
     2
 73
     2
 90
        0
 40
0.6
 41
30.0
 62
     5
 63
     7
 74
     2
 91
        2
 64
     7
 65
   257
 75
     2
175
     1
 42
40.0
 92
        0
 66
   257
 43
1.0
 76
     1
 77
     6
 78
     2
 67
     7
 79
     3
170
     0
171
     0
290
     0
174
     0
 93
        1
 44
0.0
173
     0
291
     0
 45
0.0
1001
ACAD
1000
AcDbSavedByObjectVersion
1070
     0
  0
VISUALSTYLE
  5
499
102
{ACAD_REACTORS
330
2E
102
}
102
{ACAD_XDICTIONARY
360
4E2
102
}
330
2E
100
AcDbVisualStyle
  2
JitterOff
 70
    20
 71
     2
 72
     2
 73
     0
 90
        0
 40
0.6
 41
30.0
 62
     5
 63
     7
 74
     1
 91
        4
 64
     7
 65
   257
 75
     1
175
     1
 42
1.0
 92
       10
 66
     7
 43
1.0
 76
     1
 77
     6
 78
     2
 67
     7
 79
     5
170
     0
171
     0
290
     0
174
     0
 93
        1
 44
0.0
173
     0
291
     1
 45
0.0
1001
ACAD
1000
AcDbSavedByObjectVersion
1070
     0
  0
VISUALSTYLE
  5
496
102
{ACAD_REACTORS
330
2E
102
}
102
{ACAD_XDICTIONARY
360
4DC
102
}
330
2E
100
AcDbVisualStyle
  2
Linepattern
 70
    14
 71
     2
 72
     2
 73
     0
 90
        0
 40
0.6
 41
30.0
 62
     5
 63
     7
 74
     1
 91
        4
 64
     7
 65
   257
 75
     7
175
     7
 42
1.0
 92
        8
 66
     7
 43
1.0
 76
     1
 77
     6
 78
     2
 67
     7
 79
     5
170
     0
171
     0
290
     0
174
     0
 93
        1
 44
0.0
173
     0
291
     1
 45
0.0
1001
ACAD
1000
AcDbSavedByObjectVersion
1070
     0
  0
VISUALSTYLE
  5
49A
102
{ACAD_REACTORS
330
2E
102
}
102
{ACAD_XDICTIONARY
360
4E4
102
}
330
2E
100
AcDbVisualStyle
  2
OverhangOff
 70
    21
 71
     2
 72
     2
 73
     0
 90
        0
 40
0.6
 41
30.0
 62
     5
 63
     7
 74
     1
 91
        4
 64
     7
 65
   257
 75
     1
175
     1
 42
1.0
 92
        9
 66
     7
 43
1.0
 76
     1
 77
     6
 78
     2
 67
     7
 79
     5
170
     0
171
     0
290
     0
174
     0
 93
        1
 44
0.0
173
     0
291
     1
 45
0.0
1001
ACAD
1000
AcDbSavedByObjectVersion
1070
     0
  0
VISUALSTYLE
  5
491
102
{ACAD_REACTORS
330
2E
102
}
102
{ACAD_XDICTIONARY
360
4D2
102
}
330
2E
100
AcDbVisualStyle
  2
Realistic
 70
     8
 71
     2
 72
     3
 73
     0
 90
        2
 40
0.6
 41
30.0
 62
     5
 63
     7
 74
     0
 91
        0
 64
     7
 65
   257
 75
     1
175
     1
 42
1.0
 92
        8
 66
   257
 43
1.0
 76
     1
 77
     6
 78
     2
 67
     7
 79
     3
170
     0
171
     0
290
     0
174
     0
 93
       13
 44
0.0
173
     0
291
     0
 45
0.0
1001
ACAD
1000
AcDbSavedByObjectVersion
1070
     0
  0
VISUALSTYLE
  5
4A0
102
{ACAD_REACTORS
330
2E
102
}
102
{ACAD_XDICTIONARY
360
4F0
102
}
330
2E
100
AcDbVisualStyle
  2
Shaded
 70
    27
 71
     2
 72
     2
 73
     1
 90
        2
 40
0.6
 41
30.0
 62
     5
 63
     7
 74
     0
 91
        4
 64
     7
 65
   257
 75
     1
175
     1
 42
1.0
 92
        8
 66
   257
 43
1.0
 76
     1
 77
     6
 78
     2
 67
   251
 79
     3
170
     0
171
     0
290
     0
174
     0
 93
        5
 44
0.0
173
     0
291
     0
 45
0.0
1001
ACAD
1000
AcDbSavedByObjectVersion
1070
     0
  0
VISUALSTYLE
  5
49F
102
{ACAD_REACTORS
330
2E
102
}
102
{ACAD_XDICTIONARY
360
4EE
102
}
330
2E
100
AcDbVisualStyle
  2
Shaded with edges
 70
    26
 71
     2
 72
     2
 73
     1
 90
        2
 40
0.6
 41
30.0
 62
     5
 63
     7
 74
     1
 91
       10
 64
     7
 65
   257
 75
     2
175
     1
 42
1.0
 92
        8
 66
   257
 43
1.0
 76
     1
 77
     6
 78
     2
 67
     7
 79
     3
170
     0
171
     0
290
     0
174
     0
 93
        5
 44
0.0
173
     0
291
     0
 45
0.0
1001
ACAD
1000
AcDbSavedByObjectVersion
1070
     0
  0
VISUALSTYLE
  5
49C
102
{ACAD_REACTORS
330
2E
102
}
102
{ACAD_XDICTIONARY
360
4E8
102
}
330
2E
100
AcDbVisualStyle
  2
Shades of Gray
 70
    23
 71
     2
 72
     2
 73
     3
 90
        0
 40
0.6
 41
30.0
 62
     5
 63
     7
 74
     2
 91
        2
 64
     7
 65
     7
 75
     1
175
     1
 42
40.0
 92
        8
 66
     7
 43
1.0
 76
     1
 77
     6
 78
     2
 67
     7
 79
     3
170
     0
171
     0
290
     0
174
     0
 93
        1
 44
0.0
173
     0
291
     0
 45
0.0
1001
ACAD
1000
AcDbSavedByObjectVersion
1070
     0
  0
VISUALSTYLE
  5
49D
102
{ACAD_REACTORS
330
2E
102
}
102
{ACAD_XDICTIONARY
360
4EA
102
}
330
2E
100
AcDbVisualStyle
  2
Sketchy
 70
    24
 71
     1
 72
     2
 73
     2
 90
        0
 40
0.6
 41
30.0
 62
     5
 63
     7
 74
     2
 91
        2
 64
     7
 65
     7
 75
     1
175
     1
 42
40.0
 92
       11
 66
     7
 43
1.0
 76
     1
 77
     6
 78
     2
 67
     7
 79
     6
170
     0
171
     0
290
     0
174
     0
 93
        1
 44
0.0
173
     0
291
     0
 45
0.0
1001
ACAD
1000
AcDbSavedByObjectVersion
1070
     0
  0
VISUALSTYLE
  5
495
102
{ACAD_REACTORS
330
2E
102
}
102
{ACAD_XDICTIONARY
360
4DA
102
}
330
2E
100
AcDbVisualStyle
  2
Thicken
 70
    13
 71
     2
 72
     2
 73
     0
 90
        0
 40
0.6
 41
30.0
 62
     5
 63
     7
 74
     1
 91
        4
 64
     7
 65
   257
 75
     1
175
     1
 42
1.0
 92
       12
 66
     7
 43
1.0
 76
     1
 77
     6
 78
     2
 67
     7
 79
     5
170
     0
171
     0
290
     0
174
     0
 93
        1
 44
0.0
173
     0
291
     1
 45
0.0
1001
ACAD
1000
AcDbSavedByObjectVersion
1070
     0
  0
VISUALSTYLE
  5
48E
102
{ACAD_REACTORS
330
2E
102
}
102
{ACAD_XDICTIONARY
360
4CC
102
}
330
2E
100
AcDbVisualStyle
  2
Wireframe
 70
     5
 71
     0
 72
     2
 73
     0
 90
        0
 40
0.6
 41
30.0
 62
     5
 63
     7
 74
     1
 91
        4
 64
     7
 65
   257
 75
     1
175
     1
 42
1.0
 92
        0
 66
   257
 43
1.0
 76
     1
 77
     6
 78
     2
 67
     7
 79
     5
170
     0
171
     0
290
     0
174
     0
 93
        1
 44
0.0
173
     0
291
     0
 45
0.0
1001
ACAD
1000
AcDbSavedByObjectVersion
1070
     0
  0
VISUALSTYLE
  5
49E
102
{ACAD_REACTORS
330
2E
102
}
102
{ACAD_XDICTIONARY
360
4EC
102
}
330
2E
100
AcDbVisualStyle
  2
X-Ray
 70
    25
 71
     2
 72
     2
 73
     1
 90
        1
 40
0.5
 41
30.0
 62
     5
 63
     7
 74
     1
 91
        0
 64
     7
 65
   257
 75
     1
175
     1
 42
1.0
 92
        8
 66
     7
 43
1.0
 76
     1
 77
     6
 78
     2
 67
     7
 79
     3
170
     0
171
     0
290
     0
174
     0
 93
       13
 44
0.0
173
     0
291
     0
 45
0.0
1001
ACAD
1000
AcDbSavedByObjectVersion
1070
     0
  0
XRECORD
  5
4B6
102
{ACAD_REACTORS
330
4B5
102
}
330
4B5
100
AcDbXrecord
280
     1
340
2D
  0
XRECORD
  5
4B7
102
{ACAD_REACTORS
330
4B5
102
}
330
4B5
100
AcDbXrecord
280
     1
340
9
  0
DICTIONARYVAR
  5
483
102
{ACAD_REACTORS
330
482
102
}
330
482
100
DictionaryVariables
280
     0
  1
1:1
  0
DICTIONARYVAR
  5
4A3
102
{ACAD_REACTORS
330
482
102
}
330
482
100
DictionaryVariables
280
     0
  1
Standard
  0
DICTIONARYVAR
  5
4B2
102
{ACAD_REACTORS
330
482
102
}
330
482
100
DictionaryVariables
280
     0
  1
Standard
  0
DICTIONARYVAR
  5
4B3
102
{ACAD_REACTORS
330
482
102
}
330
482
100
DictionaryVariables
280
     0
  1
0
  0
DICTIONARYVAR
  5
4B4
102
{ACAD_REACTORS
330
482
102
}
330
482
100
DictionaryVariables
280
     0
  1
1
  0
DICTIONARYVAR
  5
4BB
102
{ACAD_REACTORS
330
482
102
}
330
482
100
DictionaryVariables
280
     0
  1
1
  0
DICTIONARYVAR
  5
486
102
{ACAD_REACTORS
330
482
102
}
330
482
100
DictionaryVariables
280
     0
  1
0
  0
DICTIONARY
  5
4C0
330
55
100
AcDbDictionary
280
     1
281
     1
  3
ACAD_XREC_ROUNDTRIP
360
4C1
  0
DICTIONARY
  5
4BC
330
12
100
AcDbDictionary
280
     1
281
     1
  3
ACAD_XREC_ROUNDTRIP
360
4BD
  0
DICTIONARY
  5
4BE
330
8
100
AcDbDictionary
280
     1
281
     1
  3
ACAD_XREC_ROUNDTRIP
360
4BF
  0
DICTIONARY
  5
4F2
330
4A1
100
AcDbDictionary
280
     1
281
     1
  3
ACAD_XREC_ROUNDTRIP
360
4F3
  0
DICTIONARY
  5
4CA
330
48D
100
AcDbDictionary
280
     1
281
     1
  3
ACAD_XREC_ROUNDTRIP
360
4CB
  0
DICTIONARY
  5
4D0
330
490
100
AcDbDictionary
280
     1
281
     1
  3
ACAD_XREC_ROUNDTRIP
360
4D1
  0
DICTIONARY
  5
4D8
330
494
100
AcDbDictionary
280
     1
281
     1
  3
ACAD_XREC_ROUNDTRIP
360
4D9
  0
DICTIONARY
  5
4E0
330
498
100
AcDbDictionary
280
     1
281
     1
  3
ACAD_XREC_ROUNDTRIP
360
4E1
  0
DICTIONARY
  5
4D4
330
492
100
AcDbDictionary
280
     1
281
     1
  3
ACAD_XREC_ROUNDTRIP
360
4D5
  0
DICTIONARY
  5
4D6
330
493
100
AcDbDictionary
280
     1
281
     1
  3
ACAD_XREC_ROUNDTRIP
360
4D7
  0
DICTIONARY
  5
4E6
330
49B
100
AcDbDictionary
280
     1
281
     1
  3
ACAD_XREC_ROUNDTRIP
360
4E7
  0
DICTIONARY
  5
4DE
330
497
100
AcDbDictionary
280
     1
281
     1
  3
ACAD_XREC_ROUNDTRIP
360
4DF
  0
DICTIONARY
  5
4C2
330
489
100
AcDbDictionary
280
     1
281
     1
  3
ACAD_XREC_ROUNDTRIP
360
4C3
  0
DICTIONARY
  5
4C4
330
48A
100
AcDbDictionary
280
     1
281
     1
  3
ACAD_XREC_ROUNDTRIP
360
4C5
  0
DICTIONARY
  5
4C6
330
48B
100
AcDbDictionary
280
     1
281
     1
  3
ACAD_XREC_ROUNDTRIP
360
4C7
  0
DICTIONARY
  5
4C8
330
48C
100
AcDbDictionary
280
     1
281
     1
  3
ACAD_XREC_ROUNDTRIP
360
4C9
  0
DICTIONARY
  5
4CE
330
48F
100
AcDbDictionary
280
     1
281
     1
  3
ACAD_XREC_ROUNDTRIP
360
4CF
  0
DICTIONARY
  5
4E2
330
499
100
AcDbDictionary
280
     1
281
     1
  3
ACAD_XREC_ROUNDTRIP
360
4E3
  0
DICTIONARY
  5
4DC
330
496
100
AcDbDictionary
280
     1
281
     1
  3
ACAD_XREC_ROUNDTRIP
360
4DD
  0
DICTIONARY
  5
4E4
330
49A
100
AcDbDictionary
280
     1
281
     1
  3
ACAD_XREC_ROUNDTRIP
360
4E5
  0
DICTIONARY
  5
4D2
330
491
100
AcDbDictionary
280
     1
281
     1
  3
ACAD_XREC_ROUNDTRIP
360
4D3
  0
DICTIONARY
  5
4F0
330
4A0
100
AcDbDictionary
280
     1
281
     1
  3
ACAD_XREC_ROUNDTRIP
360
4F1
  0
DICTIONARY
  5
4EE
330
49F
100
AcDbDictionary
280
     1
281
     1
  3
ACAD_XREC_ROUNDTRIP
360
4EF
  0
DICTIONARY
  5
4E8
330
49C
100
AcDbDictionary
280
     1
281
     1
  3
ACAD_XREC_ROUNDTRIP
360
4E9
  0
DICTIONARY
  5
4EA
330
49D
100
AcDbDictionary
280
     1
281
     1
  3
ACAD_XREC_ROUNDTRIP
360
4EB
  0
DICTIONARY
  5
4DA
330
495
100
AcDbDictionary
280
     1
281
     1
  3
ACAD_XREC_ROUNDTRIP
360
4DB
  0
DICTIONARY
  5
4CC
330
48E
100
AcDbDictionary
280
     1
281
     1
  3
ACAD_XREC_ROUNDTRIP
360
4CD
  0
DICTIONARY
  5
4EC
330
49E
100
AcDbDictionary
280
     1
281
     1
  3
ACAD_XREC_ROUNDTRIP
360
4ED
  0
XRECORD
  5
4C1
102
{ACAD_REACTORS
330
4C0
102
}
330
4C0
100
AcDbXrecord
280
     1
102
MATERIAL
148
0.0
149
0.0
149
0.0
 93
        0
 94
      127
282
     0
 72
     0
 77
     0
171
     0
175
     0
179
     0
273
     0
  0
XRECORD
  5
4BD
102
{ACAD_REACTORS
330
4BC
102
}
330
4BC
100
AcDbXrecord
280
     1
102
MATERIAL
148
0.0
149
0.0
149
0.0
 93
        0
 94
      127
282
     0
 72
     0
 77
     0
171
     0
175
     0
179
     0
273
     0
  0
XRECORD
  5
4BF
102
{ACAD_REACTORS
330
4BE
102
}
330
4BE
100
AcDbXrecord
280
     1
102
MATERIAL
148
0.0
149
0.0
149
0.0
 93
        0
 94
      127
282
     0
 72
     0
 77
     0
171
     0
175
     0
179
     0
273
     0
  0
XRECORD
  5
4F3
102
{ACAD_REACTORS
330
4F2
102
}
330
4F2
100
AcDbXrecord
280
     1
102
ACAD_ROUNDTRIP_2010_MLEADER_STYLE
  0
XRECORD
  5
4CB
102
{ACAD_REACTORS
330
4CA
102
}
330
4CA
100
AcDbXrecord
280
     1
102
RTVSPropertyOp0
 70
     1
102
RTVSPropertyOp1
 70
     1
102
RTVSPropertyOp2
 70
     1
102
RTVSPropertyOp3
 70
     1
102
RTVSPropertyOp4
 70
     1
102
RTVSPropertyOp5
 70
     1
102
RTVSPropertyOp6
 70
     1
102
RTVSPropertyOp7
 70
     1
102
RTVSPropertyOp8
 70
     1
102
RTVSPropertyOp9
 70
     1
102
RTVSPropertyOp10
 70
     1
102
RTVSPropertyOp11
 70
     1
102
RTVSPropertyOp12
 70
     1
102
RTVSPropertyOp13
 70
     1
102
RTVSPropertyOp14
 70
     1
102
RTVSPropertyOp15
 70
     1
102
RTVSPropertyOp16
 70
     1
102
RTVSPropertyOp17
 70
     1
102
RTVSPropertyOp18
 70
     1
102
RTVSPropertyOp19
 70
     1
102
RTVSPropertyOp20
 70
     1
102
RTVSPropertyOp21
 70
     1
102
RTVSPropertyOp22
 70
     1
102
RTVSPropertyOp23
 70
     1
102
RTVSPropertyOp24
 70
     1
102
RTVSPropertyOp25
 70
     1
102
RTVSPropertyOp26
 70
     1
102
RTVSPropertyOp27
 70
     1
102
RTVSPropertyOp28
 70
     1
102
RTVSPropertyOp29
 70
     1
102
RTVSPropertyOp30
 70
     1
102
RTVSPropertyOp31
 70
     1
102
RTVSPropertyOp32
 70
     1
102
RTVSPropertyOp33
 70
     1
102
RTVSPropertyOp34
 70
     1
102
RTVSPropertyOp35
 70
     1
102
RTVSPropertyOp36
 70
     1
102
RTVSPropertyOp37
 70
     1
102
RTVSPropertyOp38
 70
     1
102
RTVSPropertyOp39
 70
     1
102
RTVSPropertyOp40
 70
     1
102
RTVSPropertyOp41
 70
     1
102
RTVSPropertyOp42
 70
     1
102
RTVSPropertyOp43
 70
     1
102
RTVSPropertyOp44
 70
     1
102
RTVSPropertyOp45
 70
     1
102
RTVSPropertyOp46
 70
     1
102
RTVSPropertyOp47
 70
     1
102
RTVSPropertyOp48
 70
     1
102
RTVSPropertyOp49
 70
     1
102
RTVSPropertyOp50
 70
     1
102
RTVSPropertyOp51
 70
     0
102
RTVSPropertyOp52
 70
     0
102
RTVSPropertyOp53
 70
     1
102
RTVSPropertyOp54
 70
     1
102
RTVSPropertyOp55
 70
     1
102
RTVSPropertyOp56
 70
     1
102
RTVSPropertyOp57
 70
     1
102
RTVSPost2010Prop28
280
     1
102
RTVSPost2010PropOp28
 70
     1
102
RTVSPost2010Prop29
280
     1
102
RTVSPost2010PropOp29
 70
     1
102
RTVSPost2010Prop30
280
     0
102
RTVSPost2010PropOp30
 70
     1
102
RTVSPost2010Prop31
280
     0
102
RTVSPost2010PropOp31
 70
     1
102
RTVSPost2010Prop32
280
     0
102
RTVSPost2010PropOp32
 70
     1
102
RTVSPost2010Prop33
280
     0
102
RTVSPost2010PropOp33
 70
     1
102
RTVSPost2010Prop34
280
     0
102
RTVSPost2010PropOp34
 70
     1
102
RTVSPost2010Prop35
280
     0
102
RTVSPost2010PropOp35
 70
     1
102
RTVSPost2010Prop36
280
     0
102
RTVSPost2010PropOp36
 70
     1
102
RTVSPost2010Prop37
 90
       50
102
RTVSPost2010PropOp37
 70
     1
102
RTVSPost2010Prop38
140
0.0
102
RTVSPost2010PropOp38
 70
     1
102
RTVSPost2010Prop39
140
1.0
102
RTVSPost2010PropOp39
 70
     1
102
RTVSPost2010Prop40
 90
        0
102
RTVSPost2010PropOp40
 70
     1
102
RTVSPost2010Prop41ColorIndex
 90
       18
102
RTVSPost2010Prop41ColorRGB
 90
        0
102
RTVSPost2010PropOp41
 70
     1
102
RTVSPost2010Prop42
 90
       50
102
RTVSPost2010PropOp42
 70
     1
102
RTVSPost2010Prop43
 90
        3
102
RTVSPost2010PropOp43
 70
     1
102
RTVSPost2010Prop44ColorIndex
 90
        5
102
RTVSPost2010Prop44ColorRGB
 90
      255
102
RTVSPost2010PropOp44
 70
     1
102
RTVSPost2010Prop45
280
     0
102
RTVSPost2010PropOp45
 70
     1
102
RTVSPost2010Prop46
 90
       50
102
RTVSPost2010PropOp46
 70
     1
102
RTVSPost2010Prop47
 90
       50
102
RTVSPost2010PropOp47
 70
     1
102
RTVSPost2010Prop48
 90
       50
102
RTVSPost2010PropOp48
 70
     1
102
RTVSPost2010Prop49
280
     0
102
RTVSPost2010PropOp49
 70
     1
102
RTVSPost2010Prop50
 90
       50
102
RTVSPost2010PropOp50
 70
     1
102
RTVSPost2010Prop51ColorIndex
 90
      256
102
RTVSPost2010Prop51ColorRGB
 90
-16777216
102
RTVSPost2010PropOp51
 70
     0
102
RTVSPost2010Prop52
140
1.0
102
RTVSPost2010PropOp52
 70
     0
102
RTVSPost2010Prop53
 90
        2
102
RTVSPost2010PropOp53
 70
     1
102
RTVSPost2010Prop54
  1
strokes_ogs.tif
102
RTVSPost2010PropOp54
 70
     1
102
RTVSPost2010Prop55
280
     0
102
RTVSPost2010PropOp55
 70
     1
102
RTVSPost2010Prop56
140
1.0
102
RTVSPost2010PropOp56
 70
     1
102
RTVSPost2010Prop57
140
1.0
102
RTVSPost2010PropOp57
 70
     1
  0
XRECORD
  5
4D1
102
{ACAD_REACTORS
330
4D0
102
}
330
4D0
100
AcDbXrecord
280
     1
102
RTVSPropertyOp0
 70
     1
102
RTVSPropertyOp1
 70
     1
102
RTVSPropertyOp2
 70
     1
102
RTVSPropertyOp3
 70
     1
102
RTVSPropertyOp4
 70
     1
102
RTVSPropertyOp5
 70
     1
102
RTVSPropertyOp6
 70
     1
102
RTVSPropertyOp7
 70
     1
102
RTVSPropertyOp8
 70
     1
102
RTVSPropertyOp9
 70
     1
102
RTVSPropertyOp10
 70
     1
102
RTVSPropertyOp11
 70
     1
102
RTVSPropertyOp12
 70
     1
102
RTVSPropertyOp13
 70
     1
102
RTVSPropertyOp14
 70
     1
102
RTVSPropertyOp15
 70
     1
102
RTVSPropertyOp16
 70
     1
102
RTVSPropertyOp17
 70
     1
102
RTVSPropertyOp18
 70
     1
102
RTVSPropertyOp19
 70
     1
102
RTVSPropertyOp20
 70
     1
102
RTVSPropertyOp21
 70
     1
102
RTVSPropertyOp22
 70
     1
102
RTVSPropertyOp23
 70
     1
102
RTVSPropertyOp24
 70
     1
102
RTVSPropertyOp25
 70
     1
102
RTVSPropertyOp26
 70
     1
102
RTVSPropertyOp27
 70
     1
102
RTVSPropertyOp28
 70
     1
102
RTVSPropertyOp29
 70
     1
102
RTVSPropertyOp30
 70
     1
102
RTVSPropertyOp31
 70
     1
102
RTVSPropertyOp32
 70
     1
102
RTVSPropertyOp33
 70
     1
102
RTVSPropertyOp34
 70
     1
102
RTVSPropertyOp35
 70
     1
102
RTVSPropertyOp36
 70
     1
102
RTVSPropertyOp37
 70
     1
102
RTVSPropertyOp38
 70
     1
102
RTVSPropertyOp39
 70
     1
102
RTVSPropertyOp40
 70
     1
102
RTVSPropertyOp41
 70
     1
102
RTVSPropertyOp42
 70
     1
102
RTVSPropertyOp43
 70
     1
102
RTVSPropertyOp44
 70
     1
102
RTVSPropertyOp45
 70
     1
102
RTVSPropertyOp46
 70
     1
102
RTVSPropertyOp47
 70
     1
102
RTVSPropertyOp48
 70
     1
102
RTVSPropertyOp49
 70
     1
102
RTVSPropertyOp50
 70
     1
102
RTVSPropertyOp51
 70
     0
102
RTVSPropertyOp52
 70
     0
102
RTVSPropertyOp53
 70
     1
102
RTVSPropertyOp54
 70
     1
102
RTVSPropertyOp55
 70
     1
102
RTVSPropertyOp56
 70
     1
102
RTVSPropertyOp57
 70
     1
102
RTVSPost2010Prop28
280
     0
102
RTVSPost2010PropOp28
 70
     1
102
RTVSPost2010Prop29
280
     1
102
RTVSPost2010PropOp29
 70
     1
102
RTVSPost2010Prop30
280
     1
102
RTVSPost2010PropOp30
 70
     1
102
RTVSPost2010Prop31
280
     0
102
RTVSPost2010PropOp31
 70
     1
102
RTVSPost2010Prop32
280
     0
102
RTVSPost2010PropOp32
 70
     1
102
RTVSPost2010Prop33
280
     0
102
RTVSPost2010PropOp33
 70
     1
102
RTVSPost2010Prop34
280
     0
102
RTVSPost2010PropOp34
 70
     1
102
RTVSPost2010Prop35
280
     0
102
RTVSPost2010PropOp35
 70
     1
102
RTVSPost2010Prop36
280
     0
102
RTVSPost2010PropOp36
 70
     1
102
RTVSPost2010Prop37
 90
       50
102
RTVSPost2010PropOp37
 70
     1
102
RTVSPost2010Prop38
140
0.0
102
RTVSPost2010PropOp38
 70
     1
102
RTVSPost2010Prop39
140
1.0
102
RTVSPost2010PropOp39
 70
     1
102
RTVSPost2010Prop40
 90
        0
102
RTVSPost2010PropOp40
 70
     1
102
RTVSPost2010Prop41ColorIndex
 90
       18
102
RTVSPost2010Prop41ColorRGB
 90
        0
102
RTVSPost2010PropOp41
 70
     1
102
RTVSPost2010Prop42
 90
       50
102
RTVSPost2010PropOp42
 70
     1
102
RTVSPost2010Prop43
 90
        3
102
RTVSPost2010PropOp43
 70
     1
102
RTVSPost2010Prop44ColorIndex
 90
        5
102
RTVSPost2010Prop44ColorRGB
 90
      255
102
RTVSPost2010PropOp44
 70
     1
102
RTVSPost2010Prop45
280
     0
102
RTVSPost2010PropOp45
 70
     1
102
RTVSPost2010Prop46
 90
       50
102
RTVSPost2010PropOp46
 70
     1
102
RTVSPost2010Prop47
 90
       50
102
RTVSPost2010PropOp47
 70
     1
102
RTVSPost2010Prop48
 90
       50
102
RTVSPost2010PropOp48
 70
     1
102
RTVSPost2010Prop49
280
     0
102
RTVSPost2010PropOp49
 70
     1
102
RTVSPost2010Prop50
 90
       50
102
RTVSPost2010PropOp50
 70
     1
102
RTVSPost2010Prop51ColorIndex
 90
      256
102
RTVSPost2010Prop51ColorRGB
 90
-16777216
102
RTVSPost2010PropOp51
 70
     0
102
RTVSPost2010Prop52
140
1.0
102
RTVSPost2010PropOp52
 70
     0
102
RTVSPost2010Prop53
 90
        2
102
RTVSPost2010PropOp53
 70
     1
102
RTVSPost2010Prop54
  1
strokes_ogs.tif
102
RTVSPost2010PropOp54
 70
     1
102
RTVSPost2010Prop55
280
     0
102
RTVSPost2010PropOp55
 70
     1
102
RTVSPost2010Prop56
140
1.0
102
RTVSPost2010PropOp56
 70
     1
102
RTVSPost2010Prop57
140
1.0
102
RTVSPost2010PropOp57
 70
     1
  0
XRECORD
  5
4D9
102
{ACAD_REACTORS
330
4D8
102
}
330
4D8
100
AcDbXrecord
280
     1
102
RTVSPropertyOp0
 70
     1
102
RTVSPropertyOp1
 70
     1
102
RTVSPropertyOp2
 70
     1
102
RTVSPropertyOp3
 70
     1
102
RTVSPropertyOp4
 70
     1
102
RTVSPropertyOp5
 70
     1
102
RTVSPropertyOp6
 70
     1
102
RTVSPropertyOp7
 70
     1
102
RTVSPropertyOp8
 70
     1
102
RTVSPropertyOp9
 70
     1
102
RTVSPropertyOp10
 70
     1
102
RTVSPropertyOp11
 70
     1
102
RTVSPropertyOp12
 70
     1
102
RTVSPropertyOp13
 70
     1
102
RTVSPropertyOp14
 70
     1
102
RTVSPropertyOp15
 70
     1
102
RTVSPropertyOp16
 70
     1
102
RTVSPropertyOp17
 70
     1
102
RTVSPropertyOp18
 70
     1
102
RTVSPropertyOp19
 70
     1
102
RTVSPropertyOp20
 70
     1
102
RTVSPropertyOp21
 70
     1
102
RTVSPropertyOp22
 70
     1
102
RTVSPropertyOp23
 70
     1
102
RTVSPropertyOp24
 70
     1
102
RTVSPropertyOp25
 70
     1
102
RTVSPropertyOp26
 70
     1
102
RTVSPropertyOp27
 70
     1
102
RTVSPropertyOp28
 70
     1
102
RTVSPropertyOp29
 70
     1
102
RTVSPropertyOp30
 70
     1
102
RTVSPropertyOp31
 70
     1
102
RTVSPropertyOp32
 70
     1
102
RTVSPropertyOp33
 70
     1
102
RTVSPropertyOp34
 70
     1
102
RTVSPropertyOp35
 70
     1
102
RTVSPropertyOp36
 70
     1
102
RTVSPropertyOp37
 70
     1
102
RTVSPropertyOp38
 70
     1
102
RTVSPropertyOp39
 70
     1
102
RTVSPropertyOp40
 70
     1
102
RTVSPropertyOp41
 70
     1
102
RTVSPropertyOp42
 70
     1
102
RTVSPropertyOp43
 70
     1
102
RTVSPropertyOp44
 70
     1
102
RTVSPropertyOp45
 70
     1
102
RTVSPropertyOp46
 70
     1
102
RTVSPropertyOp47
 70
     1
102
RTVSPropertyOp48
 70
     1
102
RTVSPropertyOp49
 70
     1
102
RTVSPropertyOp50
 70
     1
102
RTVSPropertyOp51
 70
     0
102
RTVSPropertyOp52
 70
     0
102
RTVSPropertyOp53
 70
     1
102
RTVSPropertyOp54
 70
     1
102
RTVSPropertyOp55
 70
     1
102
RTVSPropertyOp56
 70
     1
102
RTVSPropertyOp57
 70
     1
102
RTVSPost2010Prop28
280
     0
102
RTVSPost2010PropOp28
 70
     1
102
RTVSPost2010Prop29
280
     1
102
RTVSPost2010PropOp29
 70
     1
102
RTVSPost2010Prop30
280
     1
102
RTVSPost2010PropOp30
 70
     1
102
RTVSPost2010Prop31
280
     0
102
RTVSPost2010PropOp31
 70
     1
102
RTVSPost2010Prop32
280
     0
102
RTVSPost2010PropOp32
 70
     1
102
RTVSPost2010Prop33
280
     0
102
RTVSPost2010PropOp33
 70
     1
102
RTVSPost2010Prop34
280
     0
102
RTVSPost2010PropOp34
 70
     1
102
RTVSPost2010Prop35
280
     0
102
RTVSPost2010PropOp35
 70
     1
102
RTVSPost2010Prop36
280
     0
102
RTVSPost2010PropOp36
 70
     1
102
RTVSPost2010Prop37
 90
       50
102
RTVSPost2010PropOp37
 70
     1
102
RTVSPost2010Prop38
140
0.0
102
RTVSPost2010PropOp38
 70
     1
102
RTVSPost2010Prop39
140
1.0
102
RTVSPost2010PropOp39
 70
     1
102
RTVSPost2010Prop40
 90
        0
102
RTVSPost2010PropOp40
 70
     1
102
RTVSPost2010Prop41ColorIndex
 90
       18
102
RTVSPost2010Prop41ColorRGB
 90
        0
102
RTVSPost2010PropOp41
 70
     1
102
RTVSPost2010Prop42
 90
       50
102
RTVSPost2010PropOp42
 70
     1
102
RTVSPost2010Prop43
 90
        3
102
RTVSPost2010PropOp43
 70
     1
102
RTVSPost2010Prop44ColorIndex
 90
        5
102
RTVSPost2010Prop44ColorRGB
 90
      255
102
RTVSPost2010PropOp44
 70
     1
102
RTVSPost2010Prop45
280
     0
102
RTVSPost2010PropOp45
 70
     1
102
RTVSPost2010Prop46
 90
       50
102
RTVSPost2010PropOp46
 70
     1
102
RTVSPost2010Prop47
 90
       50
102
RTVSPost2010PropOp47
 70
     1
102
RTVSPost2010Prop48
 90
       50
102
RTVSPost2010PropOp48
 70
     1
102
RTVSPost2010Prop49
280
     0
102
RTVSPost2010PropOp49
 70
     1
102
RTVSPost2010Prop50
 90
       50
102
RTVSPost2010PropOp50
 70
     1
102
RTVSPost2010Prop51ColorIndex
 90
      256
102
RTVSPost2010Prop51ColorRGB
 90
-16777216
102
RTVSPost2010PropOp51
 70
     0
102
RTVSPost2010Prop52
140
1.0
102
RTVSPost2010PropOp52
 70
     0
102
RTVSPost2010Prop53
 90
        2
102
RTVSPost2010PropOp53
 70
     1
102
RTVSPost2010Prop54
  1
strokes_ogs.tif
102
RTVSPost2010PropOp54
 70
     1
102
RTVSPost2010Prop55
280
     0
102
RTVSPost2010PropOp55
 70
     1
102
RTVSPost2010Prop56
140
1.0
102
RTVSPost2010PropOp56
 70
     1
102
RTVSPost2010Prop57
140
1.0
102
RTVSPost2010PropOp57
 70
     1
  0
XRECORD
  5
4E1
102
{ACAD_REACTORS
330
4E0
102
}
330
4E0
100
AcDbXrecord
280
     1
102
RTVSPropertyOp0
 70
     1
102
RTVSPropertyOp1
 70
     1
102
RTVSPropertyOp2
 70
     1
102
RTVSPropertyOp3
 70
     1
102
RTVSPropertyOp4
 70
     1
102
RTVSPropertyOp5
 70
     1
102
RTVSPropertyOp6
 70
     1
102
RTVSPropertyOp7
 70
     1
102
RTVSPropertyOp8
 70
     1
102
RTVSPropertyOp9
 70
     1
102
RTVSPropertyOp10
 70
     1
102
RTVSPropertyOp11
 70
     1
102
RTVSPropertyOp12
 70
     1
102
RTVSPropertyOp13
 70
     1
102
RTVSPropertyOp14
 70
     1
102
RTVSPropertyOp15
 70
     1
102
RTVSPropertyOp16
 70
     1
102
RTVSPropertyOp17
 70
     1
102
RTVSPropertyOp18
 70
     1
102
RTVSPropertyOp19
 70
     1
102
RTVSPropertyOp20
 70
     1
102
RTVSPropertyOp21
 70
     1
102
RTVSPropertyOp22
 70
     1
102
RTVSPropertyOp23
 70
     1
102
RTVSPropertyOp24
 70
     1
102
RTVSPropertyOp25
 70
     1
102
RTVSPropertyOp26
 70
     1
102
RTVSPropertyOp27
 70
     1
102
RTVSPropertyOp28
 70
     1
102
RTVSPropertyOp29
 70
     1
102
RTVSPropertyOp30
 70
     1
102
RTVSPropertyOp31
 70
     1
102
RTVSPropertyOp32
 70
     1
102
RTVSPropertyOp33
 70
     1
102
RTVSPropertyOp34
 70
     1
102
RTVSPropertyOp35
 70
     1
102
RTVSPropertyOp36
 70
     1
102
RTVSPropertyOp37
 70
     1
102
RTVSPropertyOp38
 70
     1
102
RTVSPropertyOp39
 70
     1
102
RTVSPropertyOp40
 70
     1
102
RTVSPropertyOp41
 70
     1
102
RTVSPropertyOp42
 70
     1
102
RTVSPropertyOp43
 70
     1
102
RTVSPropertyOp44
 70
     1
102
RTVSPropertyOp45
 70
     1
102
RTVSPropertyOp46
 70
     1
102
RTVSPropertyOp47
 70
     1
102
RTVSPropertyOp48
 70
     1
102
RTVSPropertyOp49
 70
     1
102
RTVSPropertyOp50
 70
     1
102
RTVSPropertyOp51
 70
     0
102
RTVSPropertyOp52
 70
     0
102
RTVSPropertyOp53
 70
     1
102
RTVSPropertyOp54
 70
     1
102
RTVSPropertyOp55
 70
     1
102
RTVSPropertyOp56
 70
     1
102
RTVSPropertyOp57
 70
     1
102
RTVSPost2010Prop28
280
     0
102
RTVSPost2010PropOp28
 70
     1
102
RTVSPost2010Prop29
280
     1
102
RTVSPost2010PropOp29
 70
     1
102
RTVSPost2010Prop30
280
     1
102
RTVSPost2010PropOp30
 70
     1
102
RTVSPost2010Prop31
280
     0
102
RTVSPost2010PropOp31
 70
     1
102
RTVSPost2010Prop32
280
     0
102
RTVSPost2010PropOp32
 70
     1
102
RTVSPost2010Prop33
280
     0
102
RTVSPost2010PropOp33
 70
     1
102
RTVSPost2010Prop34
280
     0
102
RTVSPost2010PropOp34
 70
     1
102
RTVSPost2010Prop35
280
     0
102
RTVSPost2010PropOp35
 70
     1
102
RTVSPost2010Prop36
280
     0
102
RTVSPost2010PropOp36
 70
     1
102
RTVSPost2010Prop37
 90
       50
102
RTVSPost2010PropOp37
 70
     1
102
RTVSPost2010Prop38
140
0.0
102
RTVSPost2010PropOp38
 70
     1
102
RTVSPost2010Prop39
140
1.0
102
RTVSPost2010PropOp39
 70
     1
102
RTVSPost2010Prop40
 90
        0
102
RTVSPost2010PropOp40
 70
     1
102
RTVSPost2010Prop41ColorIndex
 90
       18
102
RTVSPost2010Prop41ColorRGB
 90
        0
102
RTVSPost2010PropOp41
 70
     1
102
RTVSPost2010Prop42
 90
       50
102
RTVSPost2010PropOp42
 70
     1
102
RTVSPost2010Prop43
 90
        3
102
RTVSPost2010PropOp43
 70
     1
102
RTVSPost2010Prop44ColorIndex
 90
        5
102
RTVSPost2010Prop44ColorRGB
 90
      255
102
RTVSPost2010PropOp44
 70
     1
102
RTVSPost2010Prop45
280
     0
102
RTVSPost2010PropOp45
 70
     1
102
RTVSPost2010Prop46
 90
       50
102
RTVSPost2010PropOp46
 70
     1
102
RTVSPost2010Prop47
 90
       50
102
RTVSPost2010PropOp47
 70
     1
102
RTVSPost2010Prop48
 90
       50
102
RTVSPost2010PropOp48
 70
     1
102
RTVSPost2010Prop49
280
     0
102
RTVSPost2010PropOp49
 70
     1
102
RTVSPost2010Prop50
 90
       50
102
RTVSPost2010PropOp50
 70
     1
102
RTVSPost2010Prop51ColorIndex
 90
      256
102
RTVSPost2010Prop51ColorRGB
 90
-16777216
102
RTVSPost2010PropOp51
 70
     0
102
RTVSPost2010Prop52
140
1.0
102
RTVSPost2010PropOp52
 70
     0
102
RTVSPost2010Prop53
 90
        2
102
RTVSPost2010PropOp53
 70
     1
102
RTVSPost2010Prop54
  1
strokes_ogs.tif
102
RTVSPost2010PropOp54
 70
     1
102
RTVSPost2010Prop55
280
     0
102
RTVSPost2010PropOp55
 70
     1
102
RTVSPost2010Prop56
140
1.0
102
RTVSPost2010PropOp56
 70
     1
102
RTVSPost2010Prop57
140
1.0
102
RTVSPost2010PropOp57
 70
     1
  0
XRECORD
  5
4D5
102
{ACAD_REACTORS
330
4D4
102
}
330
4D4
100
AcDbXrecord
280
     1
102
RTVSPropertyOp0
 70
     1
102
RTVSPropertyOp1
 70
     1
102
RTVSPropertyOp2
 70
     1
102
RTVSPropertyOp3
 70
     1
102
RTVSPropertyOp4
 70
     1
102
RTVSPropertyOp5
 70
     1
102
RTVSPropertyOp6
 70
     1
102
RTVSPropertyOp7
 70
     1
102
RTVSPropertyOp8
 70
     1
102
RTVSPropertyOp9
 70
     1
102
RTVSPropertyOp10
 70
     1
102
RTVSPropertyOp11
 70
     1
102
RTVSPropertyOp12
 70
     1
102
RTVSPropertyOp13
 70
     1
102
RTVSPropertyOp14
 70
     1
102
RTVSPropertyOp15
 70
     1
102
RTVSPropertyOp16
 70
     1
102
RTVSPropertyOp17
 70
     1
102
RTVSPropertyOp18
 70
     1
102
RTVSPropertyOp19
 70
     1
102
RTVSPropertyOp20
 70
     1
102
RTVSPropertyOp21
 70
     1
102
RTVSPropertyOp22
 70
     1
102
RTVSPropertyOp23
 70
     1
102
RTVSPropertyOp24
 70
     1
102
RTVSPropertyOp25
 70
     1
102
RTVSPropertyOp26
 70
     1
102
RTVSPropertyOp27
 70
     1
102
RTVSPropertyOp28
 70
     1
102
RTVSPropertyOp29
 70
     1
102
RTVSPropertyOp30
 70
     1
102
RTVSPropertyOp31
 70
     1
102
RTVSPropertyOp32
 70
     1
102
RTVSPropertyOp33
 70
     1
102
RTVSPropertyOp34
 70
     1
102
RTVSPropertyOp35
 70
     1
102
RTVSPropertyOp36
 70
     1
102
RTVSPropertyOp37
 70
     1
102
RTVSPropertyOp38
 70
     1
102
RTVSPropertyOp39
 70
     1
102
RTVSPropertyOp40
 70
     1
102
RTVSPropertyOp41
 70
     1
102
RTVSPropertyOp42
 70
     1
102
RTVSPropertyOp43
 70
     1
102
RTVSPropertyOp44
 70
     1
102
RTVSPropertyOp45
 70
     1
102
RTVSPropertyOp46
 70
     1
102
RTVSPropertyOp47
 70
     1
102
RTVSPropertyOp48
 70
     1
102
RTVSPropertyOp49
 70
     1
102
RTVSPropertyOp50
 70
     1
102
RTVSPropertyOp51
 70
     0
102
RTVSPropertyOp52
 70
     0
102
RTVSPropertyOp53
 70
     1
102
RTVSPropertyOp54
 70
     1
102
RTVSPropertyOp55
 70
     1
102
RTVSPropertyOp56
 70
     1
102
RTVSPropertyOp57
 70
     1
102
RTVSPost2010Prop28
280
     0
102
RTVSPost2010PropOp28
 70
     1
102
RTVSPost2010Prop29
280
     1
102
RTVSPost2010PropOp29
 70
     1
102
RTVSPost2010Prop30
280
     1
102
RTVSPost2010PropOp30
 70
     1
102
RTVSPost2010Prop31
280
     0
102
RTVSPost2010PropOp31
 70
     1
102
RTVSPost2010Prop32
280
     0
102
RTVSPost2010PropOp32
 70
     1
102
RTVSPost2010Prop33
280
     0
102
RTVSPost2010PropOp33
 70
     1
102
RTVSPost2010Prop34
280
     0
102
RTVSPost2010PropOp34
 70
     1
102
RTVSPost2010Prop35
280
     0
102
RTVSPost2010PropOp35
 70
     1
102
RTVSPost2010Prop36
280
     0
102
RTVSPost2010PropOp36
 70
     1
102
RTVSPost2010Prop37
 90
       50
102
RTVSPost2010PropOp37
 70
     1
102
RTVSPost2010Prop38
140
0.0
102
RTVSPost2010PropOp38
 70
     1
102
RTVSPost2010Prop39
140
1.0
102
RTVSPost2010PropOp39
 70
     1
102
RTVSPost2010Prop40
 90
        0
102
RTVSPost2010PropOp40
 70
     1
102
RTVSPost2010Prop41ColorIndex
 90
       18
102
RTVSPost2010Prop41ColorRGB
 90
        0
102
RTVSPost2010PropOp41
 70
     1
102
RTVSPost2010Prop42
 90
       50
102
RTVSPost2010PropOp42
 70
     1
102
RTVSPost2010Prop43
 90
        3
102
RTVSPost2010PropOp43
 70
     1
102
RTVSPost2010Prop44ColorIndex
 90
        5
102
RTVSPost2010Prop44ColorRGB
 90
      255
102
RTVSPost2010PropOp44
 70
     1
102
RTVSPost2010Prop45
280
     0
102
RTVSPost2010PropOp45
 70
     1
102
RTVSPost2010Prop46
 90
       50
102
RTVSPost2010PropOp46
 70
     1
102
RTVSPost2010Prop47
 90
       50
102
RTVSPost2010PropOp47
 70
     1
102
RTVSPost2010Prop48
 90
       50
102
RTVSPost2010PropOp48
 70
     1
102
RTVSPost2010Prop49
280
     0
102
RTVSPost2010PropOp49
 70
     1
102
RTVSPost2010Prop50
 90
       50
102
RTVSPost2010PropOp50
 70
     1
102
RTVSPost2010Prop51ColorIndex
 90
      256
102
RTVSPost2010Prop51ColorRGB
 90
-16777216
102
RTVSPost2010PropOp51
 70
     0
102
RTVSPost2010Prop52
140
1.0
102
RTVSPost2010PropOp52
 70
     0
102
RTVSPost2010Prop53
 90
        2
102
RTVSPost2010PropOp53
 70
     1
102
RTVSPost2010Prop54
  1
strokes_ogs.tif
102
RTVSPost2010PropOp54
 70
     1
102
RTVSPost2010Prop55
280
     0
102
RTVSPost2010PropOp55
 70
     1
102
RTVSPost2010Prop56
140
1.0
102
RTVSPost2010PropOp56
 70
     1
102
RTVSPost2010Prop57
140
1.0
102
RTVSPost2010PropOp57
 70
     1
  0
XRECORD
  5
4D7
102
{ACAD_REACTORS
330
4D6
102
}
330
4D6
100
AcDbXrecord
280
     1
102
RTVSPropertyOp0
 70
     1
102
RTVSPropertyOp1
 70
     1
102
RTVSPropertyOp2
 70
     1
102
RTVSPropertyOp3
 70
     1
102
RTVSPropertyOp4
 70
     1
102
RTVSPropertyOp5
 70
     1
102
RTVSPropertyOp6
 70
     1
102
RTVSPropertyOp7
 70
     1
102
RTVSPropertyOp8
 70
     1
102
RTVSPropertyOp9
 70
     1
102
RTVSPropertyOp10
 70
     1
102
RTVSPropertyOp11
 70
     1
102
RTVSPropertyOp12
 70
     1
102
RTVSPropertyOp13
 70
     1
102
RTVSPropertyOp14
 70
     1
102
RTVSPropertyOp15
 70
     1
102
RTVSPropertyOp16
 70
     1
102
RTVSPropertyOp17
 70
     1
102
RTVSPropertyOp18
 70
     1
102
RTVSPropertyOp19
 70
     1
102
RTVSPropertyOp20
 70
     1
102
RTVSPropertyOp21
 70
     1
102
RTVSPropertyOp22
 70
     1
102
RTVSPropertyOp23
 70
     1
102
RTVSPropertyOp24
 70
     1
102
RTVSPropertyOp25
 70
     1
102
RTVSPropertyOp26
 70
     1
102
RTVSPropertyOp27
 70
     1
102
RTVSPropertyOp28
 70
     1
102
RTVSPropertyOp29
 70
     1
102
RTVSPropertyOp30
 70
     1
102
RTVSPropertyOp31
 70
     1
102
RTVSPropertyOp32
 70
     1
102
RTVSPropertyOp33
 70
     1
102
RTVSPropertyOp34
 70
     1
102
RTVSPropertyOp35
 70
     1
102
RTVSPropertyOp36
 70
     1
102
RTVSPropertyOp37
 70
     1
102
RTVSPropertyOp38
 70
     1
102
RTVSPropertyOp39
 70
     1
102
RTVSPropertyOp40
 70
     1
102
RTVSPropertyOp41
 70
     1
102
RTVSPropertyOp42
 70
     1
102
RTVSPropertyOp43
 70
     1
102
RTVSPropertyOp44
 70
     1
102
RTVSPropertyOp45
 70
     1
102
RTVSPropertyOp46
 70
     1
102
RTVSPropertyOp47
 70
     1
102
RTVSPropertyOp48
 70
     1
102
RTVSPropertyOp49
 70
     1
102
RTVSPropertyOp50
 70
     1
102
RTVSPropertyOp51
 70
     0
102
RTVSPropertyOp52
 70
     0
102
RTVSPropertyOp53
 70
     1
102
RTVSPropertyOp54
 70
     1
102
RTVSPropertyOp55
 70
     1
102
RTVSPropertyOp56
 70
     1
102
RTVSPropertyOp57
 70
     1
102
RTVSPost2010Prop28
280
     0
102
RTVSPost2010PropOp28
 70
     1
102
RTVSPost2010Prop29
280
     1
102
RTVSPost2010PropOp29
 70
     1
102
RTVSPost2010Prop30
280
     1
102
RTVSPost2010PropOp30
 70
     1
102
RTVSPost2010Prop31
280
     0
102
RTVSPost2010PropOp31
 70
     1
102
RTVSPost2010Prop32
280
     0
102
RTVSPost2010PropOp32
 70
     1
102
RTVSPost2010Prop33
280
     0
102
RTVSPost2010PropOp33
 70
     1
102
RTVSPost2010Prop34
280
     0
102
RTVSPost2010PropOp34
 70
     1
102
RTVSPost2010Prop35
280
     0
102
RTVSPost2010PropOp35
 70
     1
102
RTVSPost2010Prop36
280
     0
102
RTVSPost2010PropOp36
 70
     1
102
RTVSPost2010Prop37
 90
       50
102
RTVSPost2010PropOp37
 70
     1
102
RTVSPost2010Prop38
140
0.0
102
RTVSPost2010PropOp38
 70
     1
102
RTVSPost2010Prop39
140
1.0
102
RTVSPost2010PropOp39
 70
     1
102
RTVSPost2010Prop40
 90
        0
102
RTVSPost2010PropOp40
 70
     1
102
RTVSPost2010Prop41ColorIndex
 90
       18
102
RTVSPost2010Prop41ColorRGB
 90
        0
102
RTVSPost2010PropOp41
 70
     1
102
RTVSPost2010Prop42
 90
       50
102
RTVSPost2010PropOp42
 70
     1
102
RTVSPost2010Prop43
 90
        3
102
RTVSPost2010PropOp43
 70
     1
102
RTVSPost2010Prop44ColorIndex
 90
        5
102
RTVSPost2010Prop44ColorRGB
 90
      255
102
RTVSPost2010PropOp44
 70
     1
102
RTVSPost2010Prop45
280
     0
102
RTVSPost2010PropOp45
 70
     1
102
RTVSPost2010Prop46
 90
       50
102
RTVSPost2010PropOp46
 70
     1
102
RTVSPost2010Prop47
 90
       50
102
RTVSPost2010PropOp47
 70
     1
102
RTVSPost2010Prop48
 90
       50
102
RTVSPost2010PropOp48
 70
     1
102
RTVSPost2010Prop49
280
     0
102
RTVSPost2010PropOp49
 70
     1
102
RTVSPost2010Prop50
 90
       50
102
RTVSPost2010PropOp50
 70
     1
102
RTVSPost2010Prop51ColorIndex
 90
      256
102
RTVSPost2010Prop51ColorRGB
 90
-16777216
102
RTVSPost2010PropOp51
 70
     0
102
RTVSPost2010Prop52
140
1.0
102
RTVSPost2010PropOp52
 70
     0
102
RTVSPost2010Prop53
 90
        2
102
RTVSPost2010PropOp53
 70
     1
102
RTVSPost2010Prop54
  1
strokes_ogs.tif
102
RTVSPost2010PropOp54
 70
     1
102
RTVSPost2010Prop55
280
     0
102
RTVSPost2010PropOp55
 70
     1
102
RTVSPost2010Prop56
140
1.0
102
RTVSPost2010PropOp56
 70
     1
102
RTVSPost2010Prop57
140
1.0
102
RTVSPost2010PropOp57
 70
     1
  0
XRECORD
  5
4E7
102
{ACAD_REACTORS
330
4E6
102
}
330
4E6
100
AcDbXrecord
280
     1
102
RTVSPropertyOp0
 70
     0
102
RTVSPropertyOp1
 70
     0
102
RTVSPropertyOp2
 70
     0
102
RTVSPropertyOp3
 70
     0
102
RTVSPropertyOp4
 70
     0
102
RTVSPropertyOp5
 70
     0
102
RTVSPropertyOp6
 70
     0
102
RTVSPropertyOp7
 70
     0
102
RTVSPropertyOp8
 70
     0
102
RTVSPropertyOp9
 70
     0
102
RTVSPropertyOp10
 70
     0
102
RTVSPropertyOp11
 70
     0
102
RTVSPropertyOp12
 70
     0
102
RTVSPropertyOp13
 70
     0
102
RTVSPropertyOp14
 70
     0
102
RTVSPropertyOp15
 70
     0
102
RTVSPropertyOp16
 70
     0
102
RTVSPropertyOp17
 70
     0
102
RTVSPropertyOp18
 70
     0
102
RTVSPropertyOp19
 70
     0
102
RTVSPropertyOp20
 70
     0
102
RTVSPropertyOp21
 70
     0
102
RTVSPropertyOp22
 70
     0
102
RTVSPropertyOp23
 70
     0
102
RTVSPropertyOp24
 70
     0
102
RTVSPropertyOp25
 70
     0
102
RTVSPropertyOp26
 70
     0
102
RTVSPropertyOp27
 70
     0
102
RTVSPropertyOp28
 70
     1
102
RTVSPropertyOp29
 70
     1
102
RTVSPropertyOp30
 70
     1
102
RTVSPropertyOp31
 70
     1
102
RTVSPropertyOp32
 70
     1
102
RTVSPropertyOp33
 70
     1
102
RTVSPropertyOp34
 70
     1
102
RTVSPropertyOp35
 70
     1
102
RTVSPropertyOp36
 70
     1
102
RTVSPropertyOp37
 70
     1
102
RTVSPropertyOp38
 70
     1
102
RTVSPropertyOp39
 70
     1
102
RTVSPropertyOp40
 70
     1
102
RTVSPropertyOp41
 70
     1
102
RTVSPropertyOp42
 70
     1
102
RTVSPropertyOp43
 70
     1
102
RTVSPropertyOp44
 70
     1
102
RTVSPropertyOp45
 70
     1
102
RTVSPropertyOp46
 70
     1
102
RTVSPropertyOp47
 70
     1
102
RTVSPropertyOp48
 70
     1
102
RTVSPropertyOp49
 70
     1
102
RTVSPropertyOp50
 70
     1
102
RTVSPropertyOp51
 70
     0
102
RTVSPropertyOp52
 70
     0
102
RTVSPropertyOp53
 70
     1
102
RTVSPropertyOp54
 70
     1
102
RTVSPropertyOp55
 70
     1
102
RTVSPropertyOp56
 70
     1
102
RTVSPropertyOp57
 70
     1
102
RTVSPost2010Prop28
280
     0
102
RTVSPost2010PropOp28
 70
     1
102
RTVSPost2010Prop29
280
     1
102
RTVSPost2010PropOp29
 70
     1
102
RTVSPost2010Prop30
280
     1
102
RTVSPost2010PropOp30
 70
     1
102
RTVSPost2010Prop31
280
     0
102
RTVSPost2010PropOp31
 70
     1
102
RTVSPost2010Prop32
280
     0
102
RTVSPost2010PropOp32
 70
     1
102
RTVSPost2010Prop33
280
     0
102
RTVSPost2010PropOp33
 70
     1
102
RTVSPost2010Prop34
280
     0
102
RTVSPost2010PropOp34
 70
     1
102
RTVSPost2010Prop35
280
     0
102
RTVSPost2010PropOp35
 70
     1
102
RTVSPost2010Prop36
280
     0
102
RTVSPost2010PropOp36
 70
     1
102
RTVSPost2010Prop37
 90
       50
102
RTVSPost2010PropOp37
 70
     1
102
RTVSPost2010Prop38
140
0.0
102
RTVSPost2010PropOp38
 70
     1
102
RTVSPost2010Prop39
140
1.0
102
RTVSPost2010PropOp39
 70
     1
102
RTVSPost2010Prop40
 90
        0
102
RTVSPost2010PropOp40
 70
     1
102
RTVSPost2010Prop41ColorIndex
 90
       18
102
RTVSPost2010Prop41ColorRGB
 90
        0
102
RTVSPost2010PropOp41
 70
     1
102
RTVSPost2010Prop42
 90
       50
102
RTVSPost2010PropOp42
 70
     1
102
RTVSPost2010Prop43
 90
        3
102
RTVSPost2010PropOp43
 70
     1
102
RTVSPost2010Prop44ColorIndex
 90
        5
102
RTVSPost2010Prop44ColorRGB
 90
      255
102
RTVSPost2010PropOp44
 70
     1
102
RTVSPost2010Prop45
280
     0
102
RTVSPost2010PropOp45
 70
     1
102
RTVSPost2010Prop46
 90
       50
102
RTVSPost2010PropOp46
 70
     1
102
RTVSPost2010Prop47
 90
       50
102
RTVSPost2010PropOp47
 70
     1
102
RTVSPost2010Prop48
 90
       50
102
RTVSPost2010PropOp48
 70
     1
102
RTVSPost2010Prop49
280
     0
102
RTVSPost2010PropOp49
 70
     1
102
RTVSPost2010Prop50
 90
       50
102
RTVSPost2010PropOp50
 70
     1
102
RTVSPost2010Prop51ColorIndex
 90
      256
102
RTVSPost2010Prop51ColorRGB
 90
-16777216
102
RTVSPost2010PropOp51
 70
     0
102
RTVSPost2010Prop52
140
1.0
102
RTVSPost2010PropOp52
 70
     0
102
RTVSPost2010Prop53
 90
        2
102
RTVSPost2010PropOp53
 70
     1
102
RTVSPost2010Prop54
  1
strokes_ogs.tif
102
RTVSPost2010PropOp54
 70
     1
102
RTVSPost2010Prop55
280
     0
102
RTVSPost2010PropOp55
 70
     1
102
RTVSPost2010Prop56
140
1.0
102
RTVSPost2010PropOp56
 70
     1
102
RTVSPost2010Prop57
140
1.0
102
RTVSPost2010PropOp57
 70
     1
  0
XRECORD
  5
4DF
102
{ACAD_REACTORS
330
4DE
102
}
330
4DE
100
AcDbXrecord
280
     1
102
RTVSPropertyOp0
 70
     1
102
RTVSPropertyOp1
 70
     1
102
RTVSPropertyOp2
 70
     1
102
RTVSPropertyOp3
 70
     1
102
RTVSPropertyOp4
 70
     1
102
RTVSPropertyOp5
 70
     1
102
RTVSPropertyOp6
 70
     1
102
RTVSPropertyOp7
 70
     1
102
RTVSPropertyOp8
 70
     1
102
RTVSPropertyOp9
 70
     1
102
RTVSPropertyOp10
 70
     1
102
RTVSPropertyOp11
 70
     1
102
RTVSPropertyOp12
 70
     1
102
RTVSPropertyOp13
 70
     1
102
RTVSPropertyOp14
 70
     1
102
RTVSPropertyOp15
 70
     1
102
RTVSPropertyOp16
 70
     1
102
RTVSPropertyOp17
 70
     1
102
RTVSPropertyOp18
 70
     1
102
RTVSPropertyOp19
 70
     1
102
RTVSPropertyOp20
 70
     1
102
RTVSPropertyOp21
 70
     1
102
RTVSPropertyOp22
 70
     1
102
RTVSPropertyOp23
 70
     1
102
RTVSPropertyOp24
 70
     1
102
RTVSPropertyOp25
 70
     1
102
RTVSPropertyOp26
 70
     1
102
RTVSPropertyOp27
 70
     1
102
RTVSPropertyOp28
 70
     1
102
RTVSPropertyOp29
 70
     1
102
RTVSPropertyOp30
 70
     1
102
RTVSPropertyOp31
 70
     1
102
RTVSPropertyOp32
 70
     1
102
RTVSPropertyOp33
 70
     1
102
RTVSPropertyOp34
 70
     1
102
RTVSPropertyOp35
 70
     1
102
RTVSPropertyOp36
 70
     1
102
RTVSPropertyOp37
 70
     1
102
RTVSPropertyOp38
 70
     1
102
RTVSPropertyOp39
 70
     1
102
RTVSPropertyOp40
 70
     1
102
RTVSPropertyOp41
 70
     1
102
RTVSPropertyOp42
 70
     1
102
RTVSPropertyOp43
 70
     1
102
RTVSPropertyOp44
 70
     1
102
RTVSPropertyOp45
 70
     1
102
RTVSPropertyOp46
 70
     1
102
RTVSPropertyOp47
 70
     1
102
RTVSPropertyOp48
 70
     1
102
RTVSPropertyOp49
 70
     1
102
RTVSPropertyOp50
 70
     1
102
RTVSPropertyOp51
 70
     0
102
RTVSPropertyOp52
 70
     0
102
RTVSPropertyOp53
 70
     1
102
RTVSPropertyOp54
 70
     1
102
RTVSPropertyOp55
 70
     1
102
RTVSPropertyOp56
 70
     1
102
RTVSPropertyOp57
 70
     1
102
RTVSPost2010Prop28
280
     0
102
RTVSPost2010PropOp28
 70
     1
102
RTVSPost2010Prop29
280
     1
102
RTVSPost2010PropOp29
 70
     1
102
RTVSPost2010Prop30
280
     1
102
RTVSPost2010PropOp30
 70
     1
102
RTVSPost2010Prop31
280
     0
102
RTVSPost2010PropOp31
 70
     1
102
RTVSPost2010Prop32
280
     0
102
RTVSPost2010PropOp32
 70
     1
102
RTVSPost2010Prop33
280
     0
102
RTVSPost2010PropOp33
 70
     1
102
RTVSPost2010Prop34
280
     0
102
RTVSPost2010PropOp34
 70
     1
102
RTVSPost2010Prop35
280
     0
102
RTVSPost2010PropOp35
 70
     1
102
RTVSPost2010Prop36
280
     0
102
RTVSPost2010PropOp36
 70
     1
102
RTVSPost2010Prop37
 90
       50
102
RTVSPost2010PropOp37
 70
     1
102
RTVSPost2010Prop38
140
0.0
102
RTVSPost2010PropOp38
 70
     1
102
RTVSPost2010Prop39
140
1.0
102
RTVSPost2010PropOp39
 70
     1
102
RTVSPost2010Prop40
 90
        0
102
RTVSPost2010PropOp40
 70
     1
102
RTVSPost2010Prop41ColorIndex
 90
       18
102
RTVSPost2010Prop41ColorRGB
 90
        0
102
RTVSPost2010PropOp41
 70
     1
102
RTVSPost2010Prop42
 90
       50
102
RTVSPost2010PropOp42
 70
     1
102
RTVSPost2010Prop43
 90
        3
102
RTVSPost2010PropOp43
 70
     1
102
RTVSPost2010Prop44ColorIndex
 90
        5
102
RTVSPost2010Prop44ColorRGB
 90
      255
102
RTVSPost2010PropOp44
 70
     1
102
RTVSPost2010Prop45
280
     0
102
RTVSPost2010PropOp45
 70
     1
102
RTVSPost2010Prop46
 90
       50
102
RTVSPost2010PropOp46
 70
     1
102
RTVSPost2010Prop47
 90
       50
102
RTVSPost2010PropOp47
 70
     1
102
RTVSPost2010Prop48
 90
       50
102
RTVSPost2010PropOp48
 70
     1
102
RTVSPost2010Prop49
280
     0
102
RTVSPost2010PropOp49
 70
     1
102
RTVSPost2010Prop50
 90
       50
102
RTVSPost2010PropOp50
 70
     1
102
RTVSPost2010Prop51ColorIndex
 90
      256
102
RTVSPost2010Prop51ColorRGB
 90
-16777216
102
RTVSPost2010PropOp51
 70
     0
102
RTVSPost2010Prop52
140
1.0
102
RTVSPost2010PropOp52
 70
     0
102
RTVSPost2010Prop53
 90
        2
102
RTVSPost2010PropOp53
 70
     1
102
RTVSPost2010Prop54
  1
strokes_ogs.tif
102
RTVSPost2010PropOp54
 70
     1
102
RTVSPost2010Prop55
280
     0
102
RTVSPost2010PropOp55
 70
     1
102
RTVSPost2010Prop56
140
1.0
102
RTVSPost2010PropOp56
 70
     1
102
RTVSPost2010Prop57
140
1.0
102
RTVSPost2010PropOp57
 70
     1
  0
XRECORD
  5
4C3
102
{ACAD_REACTORS
330
4C2
102
}
330
4C2
100
AcDbXrecord
280
     1
102
RTVSPropertyOp0
 70
     1
102
RTVSPropertyOp1
 70
     1
102
RTVSPropertyOp2
 70
     1
102
RTVSPropertyOp3
 70
     1
102
RTVSPropertyOp4
 70
     1
102
RTVSPropertyOp5
 70
     1
102
RTVSPropertyOp6
 70
     1
102
RTVSPropertyOp7
 70
     1
102
RTVSPropertyOp8
 70
     1
102
RTVSPropertyOp9
 70
     1
102
RTVSPropertyOp10
 70
     1
102
RTVSPropertyOp11
 70
     1
102
RTVSPropertyOp12
 70
     1
102
RTVSPropertyOp13
 70
     1
102
RTVSPropertyOp14
 70
     1
102
RTVSPropertyOp15
 70
     1
102
RTVSPropertyOp16
 70
     1
102
RTVSPropertyOp17
 70
     1
102
RTVSPropertyOp18
 70
     1
102
RTVSPropertyOp19
 70
     1
102
RTVSPropertyOp20
 70
     1
102
RTVSPropertyOp21
 70
     1
102
RTVSPropertyOp22
 70
     1
102
RTVSPropertyOp23
 70
     1
102
RTVSPropertyOp24
 70
     1
102
RTVSPropertyOp25
 70
     1
102
RTVSPropertyOp26
 70
     1
102
RTVSPropertyOp27
 70
     1
102
RTVSPropertyOp28
 70
     1
102
RTVSPropertyOp29
 70
     1
102
RTVSPropertyOp30
 70
     1
102
RTVSPropertyOp31
 70
     1
102
RTVSPropertyOp32
 70
     1
102
RTVSPropertyOp33
 70
     1
102
RTVSPropertyOp34
 70
     1
102
RTVSPropertyOp35
 70
     1
102
RTVSPropertyOp36
 70
     1
102
RTVSPropertyOp37
 70
     1
102
RTVSPropertyOp38
 70
     1
102
RTVSPropertyOp39
 70
     1
102
RTVSPropertyOp40
 70
     1
102
RTVSPropertyOp41
 70
     1
102
RTVSPropertyOp42
 70
     1
102
RTVSPropertyOp43
 70
     1
102
RTVSPropertyOp44
 70
     1
102
RTVSPropertyOp45
 70
     1
102
RTVSPropertyOp46
 70
     1
102
RTVSPropertyOp47
 70
     1
102
RTVSPropertyOp48
 70
     1
102
RTVSPropertyOp49
 70
     1
102
RTVSPropertyOp50
 70
     1
102
RTVSPropertyOp51
 70
     0
102
RTVSPropertyOp52
 70
     0
102
RTVSPropertyOp53
 70
     1
102
RTVSPropertyOp54
 70
     1
102
RTVSPropertyOp55
 70
     1
102
RTVSPropertyOp56
 70
     1
102
RTVSPropertyOp57
 70
     1
102
RTVSPost2010Prop28
280
     0
102
RTVSPost2010PropOp28
 70
     1
102
RTVSPost2010Prop29
280
     1
102
RTVSPost2010PropOp29
 70
     1
102
RTVSPost2010Prop30
280
     1
102
RTVSPost2010PropOp30
 70
     1
102
RTVSPost2010Prop31
280
     0
102
RTVSPost2010PropOp31
 70
     1
102
RTVSPost2010Prop32
280
     0
102
RTVSPost2010PropOp32
 70
     1
102
RTVSPost2010Prop33
280
     0
102
RTVSPost2010PropOp33
 70
     1
102
RTVSPost2010Prop34
280
     0
102
RTVSPost2010PropOp34
 70
     1
102
RTVSPost2010Prop35
280
     0
102
RTVSPost2010PropOp35
 70
     1
102
RTVSPost2010Prop36
280
     0
102
RTVSPost2010PropOp36
 70
     1
102
RTVSPost2010Prop37
 90
       50
102
RTVSPost2010PropOp37
 70
     1
102
RTVSPost2010Prop38
140
0.0
102
RTVSPost2010PropOp38
 70
     1
102
RTVSPost2010Prop39
140
1.0
102
RTVSPost2010PropOp39
 70
     1
102
RTVSPost2010Prop40
 90
        0
102
RTVSPost2010PropOp40
 70
     1
102
RTVSPost2010Prop41ColorIndex
 90
       18
102
RTVSPost2010Prop41ColorRGB
 90
        0
102
RTVSPost2010PropOp41
 70
     1
102
RTVSPost2010Prop42
 90
       50
102
RTVSPost2010PropOp42
 70
     1
102
RTVSPost2010Prop43
 90
        3
102
RTVSPost2010PropOp43
 70
     1
102
RTVSPost2010Prop44ColorIndex
 90
        5
102
RTVSPost2010Prop44ColorRGB
 90
      255
102
RTVSPost2010PropOp44
 70
     1
102
RTVSPost2010Prop45
280
     0
102
RTVSPost2010PropOp45
 70
     1
102
RTVSPost2010Prop46
 90
       50
102
RTVSPost2010PropOp46
 70
     1
102
RTVSPost2010Prop47
 90
       50
102
RTVSPost2010PropOp47
 70
     1
102
RTVSPost2010Prop48
 90
       50
102
RTVSPost2010PropOp48
 70
     1
102
RTVSPost2010Prop49
280
     0
102
RTVSPost2010PropOp49
 70
     1
102
RTVSPost2010Prop50
 90
       50
102
RTVSPost2010PropOp50
 70
     1
102
RTVSPost2010Prop51ColorIndex
 90
      256
102
RTVSPost2010Prop51ColorRGB
 90
-16777216
102
RTVSPost2010PropOp51
 70
     0
102
RTVSPost2010Prop52
140
1.0
102
RTVSPost2010PropOp52
 70
     0
102
RTVSPost2010Prop53
 90
        2
102
RTVSPost2010PropOp53
 70
     1
102
RTVSPost2010Prop54
  1
strokes_ogs.tif
102
RTVSPost2010PropOp54
 70
     1
102
RTVSPost2010Prop55
280
     0
102
RTVSPost2010PropOp55
 70
     1
102
RTVSPost2010Prop56
140
1.0
102
RTVSPost2010PropOp56
 70
     1
102
RTVSPost2010Prop57
140
1.0
102
RTVSPost2010PropOp57
 70
     1
  0
XRECORD
  5
4C5
102
{ACAD_REACTORS
330
4C4
102
}
330
4C4
100
AcDbXrecord
280
     1
102
RTVSPropertyOp0
 70
     1
102
RTVSPropertyOp1
 70
     1
102
RTVSPropertyOp2
 70
     1
102
RTVSPropertyOp3
 70
     1
102
RTVSPropertyOp4
 70
     1
102
RTVSPropertyOp5
 70
     1
102
RTVSPropertyOp6
 70
     1
102
RTVSPropertyOp7
 70
     1
102
RTVSPropertyOp8
 70
     1
102
RTVSPropertyOp9
 70
     1
102
RTVSPropertyOp10
 70
     1
102
RTVSPropertyOp11
 70
     1
102
RTVSPropertyOp12
 70
     1
102
RTVSPropertyOp13
 70
     1
102
RTVSPropertyOp14
 70
     1
102
RTVSPropertyOp15
 70
     1
102
RTVSPropertyOp16
 70
     1
102
RTVSPropertyOp17
 70
     1
102
RTVSPropertyOp18
 70
     1
102
RTVSPropertyOp19
 70
     1
102
RTVSPropertyOp20
 70
     1
102
RTVSPropertyOp21
 70
     1
102
RTVSPropertyOp22
 70
     1
102
RTVSPropertyOp23
 70
     1
102
RTVSPropertyOp24
 70
     1
102
RTVSPropertyOp25
 70
     1
102
RTVSPropertyOp26
 70
     1
102
RTVSPropertyOp27
 70
     1
102
RTVSPropertyOp28
 70
     1
102
RTVSPropertyOp29
 70
     1
102
RTVSPropertyOp30
 70
     1
102
RTVSPropertyOp31
 70
     1
102
RTVSPropertyOp32
 70
     1
102
RTVSPropertyOp33
 70
     1
102
RTVSPropertyOp34
 70
     1
102
RTVSPropertyOp35
 70
     1
102
RTVSPropertyOp36
 70
     1
102
RTVSPropertyOp37
 70
     1
102
RTVSPropertyOp38
 70
     1
102
RTVSPropertyOp39
 70
     1
102
RTVSPropertyOp40
 70
     1
102
RTVSPropertyOp41
 70
     1
102
RTVSPropertyOp42
 70
     1
102
RTVSPropertyOp43
 70
     1
102
RTVSPropertyOp44
 70
     1
102
RTVSPropertyOp45
 70
     1
102
RTVSPropertyOp46
 70
     1
102
RTVSPropertyOp47
 70
     1
102
RTVSPropertyOp48
 70
     1
102
RTVSPropertyOp49
 70
     1
102
RTVSPropertyOp50
 70
     1
102
RTVSPropertyOp51
 70
     0
102
RTVSPropertyOp52
 70
     0
102
RTVSPropertyOp53
 70
     1
102
RTVSPropertyOp54
 70
     1
102
RTVSPropertyOp55
 70
     1
102
RTVSPropertyOp56
 70
     1
102
RTVSPropertyOp57
 70
     1
102
RTVSPost2010Prop28
280
     0
102
RTVSPost2010PropOp28
 70
     1
102
RTVSPost2010Prop29
280
     1
102
RTVSPost2010PropOp29
 70
     1
102
RTVSPost2010Prop30
280
     1
102
RTVSPost2010PropOp30
 70
     1
102
RTVSPost2010Prop31
280
     0
102
RTVSPost2010PropOp31
 70
     1
102
RTVSPost2010Prop32
280
     0
102
RTVSPost2010PropOp32
 70
     1
102
RTVSPost2010Prop33
280
     0
102
RTVSPost2010PropOp33
 70
     1
102
RTVSPost2010Prop34
280
     0
102
RTVSPost2010PropOp34
 70
     1
102
RTVSPost2010Prop35
280
     0
102
RTVSPost2010PropOp35
 70
     1
102
RTVSPost2010Prop36
280
     0
102
RTVSPost2010PropOp36
 70
     1
102
RTVSPost2010Prop37
 90
       50
102
RTVSPost2010PropOp37
 70
     1
102
RTVSPost2010Prop38
140
0.0
102
RTVSPost2010PropOp38
 70
     1
102
RTVSPost2010Prop39
140
1.0
102
RTVSPost2010PropOp39
 70
     1
102
RTVSPost2010Prop40
 90
        0
102
RTVSPost2010PropOp40
 70
     1
102
RTVSPost2010Prop41ColorIndex
 90
       18
102
RTVSPost2010Prop41ColorRGB
 90
        0
102
RTVSPost2010PropOp41
 70
     1
102
RTVSPost2010Prop42
 90
       50
102
RTVSPost2010PropOp42
 70
     1
102
RTVSPost2010Prop43
 90
        3
102
RTVSPost2010PropOp43
 70
     1
102
RTVSPost2010Prop44ColorIndex
 90
        5
102
RTVSPost2010Prop44ColorRGB
 90
      255
102
RTVSPost2010PropOp44
 70
     1
102
RTVSPost2010Prop45
280
     0
102
RTVSPost2010PropOp45
 70
     1
102
RTVSPost2010Prop46
 90
       50
102
RTVSPost2010PropOp46
 70
     1
102
RTVSPost2010Prop47
 90
       50
102
RTVSPost2010PropOp47
 70
     1
102
RTVSPost2010Prop48
 90
       50
102
RTVSPost2010PropOp48
 70
     1
102
RTVSPost2010Prop49
280
     0
102
RTVSPost2010PropOp49
 70
     1
102
RTVSPost2010Prop50
 90
       50
102
RTVSPost2010PropOp50
 70
     1
102
RTVSPost2010Prop51ColorIndex
 90
      256
102
RTVSPost2010Prop51ColorRGB
 90
-16777216
102
RTVSPost2010PropOp51
 70
     0
102
RTVSPost2010Prop52
140
1.0
102
RTVSPost2010PropOp52
 70
     0
102
RTVSPost2010Prop53
 90
        2
102
RTVSPost2010PropOp53
 70
     1
102
RTVSPost2010Prop54
  1
strokes_ogs.tif
102
RTVSPost2010PropOp54
 70
     1
102
RTVSPost2010Prop55
280
     0
102
RTVSPost2010PropOp55
 70
     1
102
RTVSPost2010Prop56
140
1.0
102
RTVSPost2010PropOp56
 70
     1
102
RTVSPost2010Prop57
140
1.0
102
RTVSPost2010PropOp57
 70
     1
  0
XRECORD
  5
4C7
102
{ACAD_REACTORS
330
4C6
102
}
330
4C6
100
AcDbXrecord
280
     1
102
RTVSPropertyOp0
 70
     1
102
RTVSPropertyOp1
 70
     1
102
RTVSPropertyOp2
 70
     1
102
RTVSPropertyOp3
 70
     1
102
RTVSPropertyOp4
 70
     1
102
RTVSPropertyOp5
 70
     1
102
RTVSPropertyOp6
 70
     1
102
RTVSPropertyOp7
 70
     1
102
RTVSPropertyOp8
 70
     1
102
RTVSPropertyOp9
 70
     1
102
RTVSPropertyOp10
 70
     1
102
RTVSPropertyOp11
 70
     1
102
RTVSPropertyOp12
 70
     1
102
RTVSPropertyOp13
 70
     1
102
RTVSPropertyOp14
 70
     1
102
RTVSPropertyOp15
 70
     1
102
RTVSPropertyOp16
 70
     1
102
RTVSPropertyOp17
 70
     1
102
RTVSPropertyOp18
 70
     1
102
RTVSPropertyOp19
 70
     1
102
RTVSPropertyOp20
 70
     1
102
RTVSPropertyOp21
 70
     1
102
RTVSPropertyOp22
 70
     1
102
RTVSPropertyOp23
 70
     1
102
RTVSPropertyOp24
 70
     1
102
RTVSPropertyOp25
 70
     1
102
RTVSPropertyOp26
 70
     1
102
RTVSPropertyOp27
 70
     1
102
RTVSPropertyOp28
 70
     1
102
RTVSPropertyOp29
 70
     1
102
RTVSPropertyOp30
 70
     1
102
RTVSPropertyOp31
 70
     1
102
RTVSPropertyOp32
 70
     1
102
RTVSPropertyOp33
 70
     1
102
RTVSPropertyOp34
 70
     1
102
RTVSPropertyOp35
 70
     1
102
RTVSPropertyOp36
 70
     1
102
RTVSPropertyOp37
 70
     1
102
RTVSPropertyOp38
 70
     1
102
RTVSPropertyOp39
 70
     1
102
RTVSPropertyOp40
 70
     1
102
RTVSPropertyOp41
 70
     1
102
RTVSPropertyOp42
 70
     1
102
RTVSPropertyOp43
 70
     1
102
RTVSPropertyOp44
 70
     1
102
RTVSPropertyOp45
 70
     1
102
RTVSPropertyOp46
 70
     1
102
RTVSPropertyOp47
 70
     1
102
RTVSPropertyOp48
 70
     1
102
RTVSPropertyOp49
 70
     1
102
RTVSPropertyOp50
 70
     1
102
RTVSPropertyOp51
 70
     0
102
RTVSPropertyOp52
 70
     0
102
RTVSPropertyOp53
 70
     1
102
RTVSPropertyOp54
 70
     1
102
RTVSPropertyOp55
 70
     1
102
RTVSPropertyOp56
 70
     1
102
RTVSPropertyOp57
 70
     1
102
RTVSPost2010Prop28
280
     0
102
RTVSPost2010PropOp28
 70
     1
102
RTVSPost2010Prop29
280
     1
102
RTVSPost2010PropOp29
 70
     1
102
RTVSPost2010Prop30
280
     1
102
RTVSPost2010PropOp30
 70
     1
102
RTVSPost2010Prop31
280
     0
102
RTVSPost2010PropOp31
 70
     1
102
RTVSPost2010Prop32
280
     0
102
RTVSPost2010PropOp32
 70
     1
102
RTVSPost2010Prop33
280
     0
102
RTVSPost2010PropOp33
 70
     1
102
RTVSPost2010Prop34
280
     0
102
RTVSPost2010PropOp34
 70
     1
102
RTVSPost2010Prop35
280
     0
102
RTVSPost2010PropOp35
 70
     1
102
RTVSPost2010Prop36
280
     0
102
RTVSPost2010PropOp36
 70
     1
102
RTVSPost2010Prop37
 90
       50
102
RTVSPost2010PropOp37
 70
     1
102
RTVSPost2010Prop38
140
0.0
102
RTVSPost2010PropOp38
 70
     1
102
RTVSPost2010Prop39
140
1.0
102
RTVSPost2010PropOp39
 70
     1
102
RTVSPost2010Prop40
 90
        0
102
RTVSPost2010PropOp40
 70
     1
102
RTVSPost2010Prop41ColorIndex
 90
       18
102
RTVSPost2010Prop41ColorRGB
 90
        0
102
RTVSPost2010PropOp41
 70
     1
102
RTVSPost2010Prop42
 90
       50
102
RTVSPost2010PropOp42
 70
     1
102
RTVSPost2010Prop43
 90
        3
102
RTVSPost2010PropOp43
 70
     1
102
RTVSPost2010Prop44ColorIndex
 90
        5
102
RTVSPost2010Prop44ColorRGB
 90
      255
102
RTVSPost2010PropOp44
 70
     1
102
RTVSPost2010Prop45
280
     0
102
RTVSPost2010PropOp45
 70
     1
102
RTVSPost2010Prop46
 90
       50
102
RTVSPost2010PropOp46
 70
     1
102
RTVSPost2010Prop47
 90
       50
102
RTVSPost2010PropOp47
 70
     1
102
RTVSPost2010Prop48
 90
       50
102
RTVSPost2010PropOp48
 70
     1
102
RTVSPost2010Prop49
280
     0
102
RTVSPost2010PropOp49
 70
     1
102
RTVSPost2010Prop50
 90
       50
102
RTVSPost2010PropOp50
 70
     1
102
RTVSPost2010Prop51ColorIndex
 90
      256
102
RTVSPost2010Prop51ColorRGB
 90
-16777216
102
RTVSPost2010PropOp51
 70
     0
102
RTVSPost2010Prop52
140
1.0
102
RTVSPost2010PropOp52
 70
     0
102
RTVSPost2010Prop53
 90
        2
102
RTVSPost2010PropOp53
 70
     1
102
RTVSPost2010Prop54
  1
strokes_ogs.tif
102
RTVSPost2010PropOp54
 70
     1
102
RTVSPost2010Prop55
280
     0
102
RTVSPost2010PropOp55
 70
     1
102
RTVSPost2010Prop56
140
1.0
102
RTVSPost2010PropOp56
 70
     1
102
RTVSPost2010Prop57
140
1.0
102
RTVSPost2010PropOp57
 70
     1
  0
XRECORD
  5
4C9
102
{ACAD_REACTORS
330
4C8
102
}
330
4C8
100
AcDbXrecord
280
     1
102
RTVSPropertyOp0
 70
     1
102
RTVSPropertyOp1
 70
     1
102
RTVSPropertyOp2
 70
     1
102
RTVSPropertyOp3
 70
     1
102
RTVSPropertyOp4
 70
     1
102
RTVSPropertyOp5
 70
     1
102
RTVSPropertyOp6
 70
     1
102
RTVSPropertyOp7
 70
     1
102
RTVSPropertyOp8
 70
     1
102
RTVSPropertyOp9
 70
     1
102
RTVSPropertyOp10
 70
     1
102
RTVSPropertyOp11
 70
     1
102
RTVSPropertyOp12
 70
     1
102
RTVSPropertyOp13
 70
     1
102
RTVSPropertyOp14
 70
     1
102
RTVSPropertyOp15
 70
     1
102
RTVSPropertyOp16
 70
     1
102
RTVSPropertyOp17
 70
     1
102
RTVSPropertyOp18
 70
     1
102
RTVSPropertyOp19
 70
     1
102
RTVSPropertyOp20
 70
     1
102
RTVSPropertyOp21
 70
     1
102
RTVSPropertyOp22
 70
     1
102
RTVSPropertyOp23
 70
     1
102
RTVSPropertyOp24
 70
     1
102
RTVSPropertyOp25
 70
     1
102
RTVSPropertyOp26
 70
     1
102
RTVSPropertyOp27
 70
     1
102
RTVSPropertyOp28
 70
     1
102
RTVSPropertyOp29
 70
     1
102
RTVSPropertyOp30
 70
     1
102
RTVSPropertyOp31
 70
     1
102
RTVSPropertyOp32
 70
     1
102
RTVSPropertyOp33
 70
     1
102
RTVSPropertyOp34
 70
     1
102
RTVSPropertyOp35
 70
     1
102
RTVSPropertyOp36
 70
     1
102
RTVSPropertyOp37
 70
     1
102
RTVSPropertyOp38
 70
     1
102
RTVSPropertyOp39
 70
     1
102
RTVSPropertyOp40
 70
     1
102
RTVSPropertyOp41
 70
     1
102
RTVSPropertyOp42
 70
     1
102
RTVSPropertyOp43
 70
     1
102
RTVSPropertyOp44
 70
     1
102
RTVSPropertyOp45
 70
     1
102
RTVSPropertyOp46
 70
     1
102
RTVSPropertyOp47
 70
     1
102
RTVSPropertyOp48
 70
     1
102
RTVSPropertyOp49
 70
     1
102
RTVSPropertyOp50
 70
     1
102
RTVSPropertyOp51
 70
     0
102
RTVSPropertyOp52
 70
     0
102
RTVSPropertyOp53
 70
     1
102
RTVSPropertyOp54
 70
     1
102
RTVSPropertyOp55
 70
     1
102
RTVSPropertyOp56
 70
     1
102
RTVSPropertyOp57
 70
     1
102
RTVSPost2010Prop28
280
     0
102
RTVSPost2010PropOp28
 70
     1
102
RTVSPost2010Prop29
280
     1
102
RTVSPost2010PropOp29
 70
     1
102
RTVSPost2010Prop30
280
     1
102
RTVSPost2010PropOp30
 70
     1
102
RTVSPost2010Prop31
280
     0
102
RTVSPost2010PropOp31
 70
     1
102
RTVSPost2010Prop32
280
     0
102
RTVSPost2010PropOp32
 70
     1
102
RTVSPost2010Prop33
280
     0
102
RTVSPost2010PropOp33
 70
     1
102
RTVSPost2010Prop34
280
     0
102
RTVSPost2010PropOp34
 70
     1
102
RTVSPost2010Prop35
280
     0
102
RTVSPost2010PropOp35
 70
     1
102
RTVSPost2010Prop36
280
     0
102
RTVSPost2010PropOp36
 70
     1
102
RTVSPost2010Prop37
 90
       50
102
RTVSPost2010PropOp37
 70
     1
102
RTVSPost2010Prop38
140
0.0
102
RTVSPost2010PropOp38
 70
     1
102
RTVSPost2010Prop39
140
1.0
102
RTVSPost2010PropOp39
 70
     1
102
RTVSPost2010Prop40
 90
        0
102
RTVSPost2010PropOp40
 70
     1
102
RTVSPost2010Prop41ColorIndex
 90
       18
102
RTVSPost2010Prop41ColorRGB
 90
        0
102
RTVSPost2010PropOp41
 70
     1
102
RTVSPost2010Prop42
 90
       50
102
RTVSPost2010PropOp42
 70
     1
102
RTVSPost2010Prop43
 90
        3
102
RTVSPost2010PropOp43
 70
     1
102
RTVSPost2010Prop44ColorIndex
 90
        5
102
RTVSPost2010Prop44ColorRGB
 90
      255
102
RTVSPost2010PropOp44
 70
     1
102
RTVSPost2010Prop45
280
     0
102
RTVSPost2010PropOp45
 70
     1
102
RTVSPost2010Prop46
 90
       50
102
RTVSPost2010PropOp46
 70
     1
102
RTVSPost2010Prop47
 90
       50
102
RTVSPost2010PropOp47
 70
     1
102
RTVSPost2010Prop48
 90
       50
102
RTVSPost2010PropOp48
 70
     1
102
RTVSPost2010Prop49
280
     0
102
RTVSPost2010PropOp49
 70
     1
102
RTVSPost2010Prop50
 90
       50
102
RTVSPost2010PropOp50
 70
     1
102
RTVSPost2010Prop51ColorIndex
 90
      256
102
RTVSPost2010Prop51ColorRGB
 90
-16777216
102
RTVSPost2010PropOp51
 70
     0
102
RTVSPost2010Prop52
140
1.0
102
RTVSPost2010PropOp52
 70
     0
102
RTVSPost2010Prop53
 90
        2
102
RTVSPost2010PropOp53
 70
     1
102
RTVSPost2010Prop54
  1
strokes_ogs.tif
102
RTVSPost2010PropOp54
 70
     1
102
RTVSPost2010Prop55
280
     0
102
RTVSPost2010PropOp55
 70
     1
102
RTVSPost2010Prop56
140
1.0
102
RTVSPost2010PropOp56
 70
     1
102
RTVSPost2010Prop57
140
1.0
102
RTVSPost2010PropOp57
 70
     1
  0
XRECORD
  5
4CF
102
{ACAD_REACTORS
330
4CE
102
}
330
4CE
100
AcDbXrecord
280
     1
102
RTVSPropertyOp0
 70
     1
102
RTVSPropertyOp1
 70
     1
102
RTVSPropertyOp2
 70
     1
102
RTVSPropertyOp3
 70
     1
102
RTVSPropertyOp4
 70
     1
102
RTVSPropertyOp5
 70
     1
102
RTVSPropertyOp6
 70
     1
102
RTVSPropertyOp7
 70
     1
102
RTVSPropertyOp8
 70
     1
102
RTVSPropertyOp9
 70
     1
102
RTVSPropertyOp10
 70
     1
102
RTVSPropertyOp11
 70
     1
102
RTVSPropertyOp12
 70
     1
102
RTVSPropertyOp13
 70
     1
102
RTVSPropertyOp14
 70
     1
102
RTVSPropertyOp15
 70
     1
102
RTVSPropertyOp16
 70
     1
102
RTVSPropertyOp17
 70
     1
102
RTVSPropertyOp18
 70
     1
102
RTVSPropertyOp19
 70
     1
102
RTVSPropertyOp20
 70
     1
102
RTVSPropertyOp21
 70
     1
102
RTVSPropertyOp22
 70
     1
102
RTVSPropertyOp23
 70
     1
102
RTVSPropertyOp24
 70
     1
102
RTVSPropertyOp25
 70
     1
102
RTVSPropertyOp26
 70
     1
102
RTVSPropertyOp27
 70
     1
102
RTVSPropertyOp28
 70
     1
102
RTVSPropertyOp29
 70
     1
102
RTVSPropertyOp30
 70
     1
102
RTVSPropertyOp31
 70
     1
102
RTVSPropertyOp32
 70
     1
102
RTVSPropertyOp33
 70
     1
102
RTVSPropertyOp34
 70
     1
102
RTVSPropertyOp35
 70
     1
102
RTVSPropertyOp36
 70
     1
102
RTVSPropertyOp37
 70
     1
102
RTVSPropertyOp38
 70
     1
102
RTVSPropertyOp39
 70
     1
102
RTVSPropertyOp40
 70
     1
102
RTVSPropertyOp41
 70
     1
102
RTVSPropertyOp42
 70
     1
102
RTVSPropertyOp43
 70
     1
102
RTVSPropertyOp44
 70
     1
102
RTVSPropertyOp45
 70
     1
102
RTVSPropertyOp46
 70
     1
102
RTVSPropertyOp47
 70
     1
102
RTVSPropertyOp48
 70
     1
102
RTVSPropertyOp49
 70
     1
102
RTVSPropertyOp50
 70
     1
102
RTVSPropertyOp51
 70
     0
102
RTVSPropertyOp52
 70
     0
102
RTVSPropertyOp53
 70
     1
102
RTVSPropertyOp54
 70
     1
102
RTVSPropertyOp55
 70
     1
102
RTVSPropertyOp56
 70
     1
102
RTVSPropertyOp57
 70
     1
102
RTVSPost2010Prop28
280
     0
102
RTVSPost2010PropOp28
 70
     1
102
RTVSPost2010Prop29
280
     1
102
RTVSPost2010PropOp29
 70
     1
102
RTVSPost2010Prop30
280
     1
102
RTVSPost2010PropOp30
 70
     1
102
RTVSPost2010Prop31
280
     0
102
RTVSPost2010PropOp31
 70
     1
102
RTVSPost2010Prop32
280
     0
102
RTVSPost2010PropOp32
 70
     1
102
RTVSPost2010Prop33
280
     0
102
RTVSPost2010PropOp33
 70
     1
102
RTVSPost2010Prop34
280
     0
102
RTVSPost2010PropOp34
 70
     1
102
RTVSPost2010Prop35
280
     0
102
RTVSPost2010PropOp35
 70
     1
102
RTVSPost2010Prop36
280
     0
102
RTVSPost2010PropOp36
 70
     1
102
RTVSPost2010Prop37
 90
       50
102
RTVSPost2010PropOp37
 70
     1
102
RTVSPost2010Prop38
140
0.0
102
RTVSPost2010PropOp38
 70
     1
102
RTVSPost2010Prop39
140
1.0
102
RTVSPost2010PropOp39
 70
     1
102
RTVSPost2010Prop40
 90
        0
102
RTVSPost2010PropOp40
 70
     1
102
RTVSPost2010Prop41ColorIndex
 90
       18
102
RTVSPost2010Prop41ColorRGB
 90
        0
102
RTVSPost2010PropOp41
 70
     1
102
RTVSPost2010Prop42
 90
       50
102
RTVSPost2010PropOp42
 70
     1
102
RTVSPost2010Prop43
 90
        3
102
RTVSPost2010PropOp43
 70
     1
102
RTVSPost2010Prop44ColorIndex
 90
        5
102
RTVSPost2010Prop44ColorRGB
 90
      255
102
RTVSPost2010PropOp44
 70
     1
102
RTVSPost2010Prop45
280
     0
102
RTVSPost2010PropOp45
 70
     1
102
RTVSPost2010Prop46
 90
       50
102
RTVSPost2010PropOp46
 70
     1
102
RTVSPost2010Prop47
 90
       50
102
RTVSPost2010PropOp47
 70
     1
102
RTVSPost2010Prop48
 90
       50
102
RTVSPost2010PropOp48
 70
     1
102
RTVSPost2010Prop49
280
     0
102
RTVSPost2010PropOp49
 70
     1
102
RTVSPost2010Prop50
 90
       50
102
RTVSPost2010PropOp50
 70
     1
102
RTVSPost2010Prop51ColorIndex
 90
      256
102
RTVSPost2010Prop51ColorRGB
 90
-16777216
102
RTVSPost2010PropOp51
 70
     0
102
RTVSPost2010Prop52
140
1.0
102
RTVSPost2010PropOp52
 70
     0
102
RTVSPost2010Prop53
 90
        2
102
RTVSPost2010PropOp53
 70
     1
102
RTVSPost2010Prop54
  1
strokes_ogs.tif
102
RTVSPost2010PropOp54
 70
     1
102
RTVSPost2010Prop55
280
     0
102
RTVSPost2010PropOp55
 70
     1
102
RTVSPost2010Prop56
140
1.0
102
RTVSPost2010PropOp56
 70
     1
102
RTVSPost2010Prop57
140
1.0
102
RTVSPost2010PropOp57
 70
     1
  0
XRECORD
  5
4E3
102
{ACAD_REACTORS
330
4E2
102
}
330
4E2
100
AcDbXrecord
280
     1
102
RTVSPropertyOp0
 70
     0
102
RTVSPropertyOp1
 70
     0
102
RTVSPropertyOp2
 70
     0
102
RTVSPropertyOp3
 70
     0
102
RTVSPropertyOp4
 70
     0
102
RTVSPropertyOp5
 70
     0
102
RTVSPropertyOp6
 70
     0
102
RTVSPropertyOp7
 70
     0
102
RTVSPropertyOp8
 70
     0
102
RTVSPropertyOp9
 70
     0
102
RTVSPropertyOp10
 70
     0
102
RTVSPropertyOp11
 70
     0
102
RTVSPropertyOp12
 70
     0
102
RTVSPropertyOp13
 70
     0
102
RTVSPropertyOp14
 70
     0
102
RTVSPropertyOp15
 70
     0
102
RTVSPropertyOp16
 70
     0
102
RTVSPropertyOp17
 70
     0
102
RTVSPropertyOp18
 70
     0
102
RTVSPropertyOp19
 70
     0
102
RTVSPropertyOp20
 70
     0
102
RTVSPropertyOp21
 70
     0
102
RTVSPropertyOp22
 70
     0
102
RTVSPropertyOp23
 70
     0
102
RTVSPropertyOp24
 70
     0
102
RTVSPropertyOp25
 70
     0
102
RTVSPropertyOp26
 70
     0
102
RTVSPropertyOp27
 70
     0
102
RTVSPropertyOp28
 70
     1
102
RTVSPropertyOp29
 70
     1
102
RTVSPropertyOp30
 70
     1
102
RTVSPropertyOp31
 70
     1
102
RTVSPropertyOp32
 70
     1
102
RTVSPropertyOp33
 70
     1
102
RTVSPropertyOp34
 70
     1
102
RTVSPropertyOp35
 70
     1
102
RTVSPropertyOp36
 70
     1
102
RTVSPropertyOp37
 70
     1
102
RTVSPropertyOp38
 70
     1
102
RTVSPropertyOp39
 70
     1
102
RTVSPropertyOp40
 70
     1
102
RTVSPropertyOp41
 70
     1
102
RTVSPropertyOp42
 70
     1
102
RTVSPropertyOp43
 70
     1
102
RTVSPropertyOp44
 70
     1
102
RTVSPropertyOp45
 70
     1
102
RTVSPropertyOp46
 70
     1
102
RTVSPropertyOp47
 70
     1
102
RTVSPropertyOp48
 70
     1
102
RTVSPropertyOp49
 70
     1
102
RTVSPropertyOp50
 70
     1
102
RTVSPropertyOp51
 70
     0
102
RTVSPropertyOp52
 70
     0
102
RTVSPropertyOp53
 70
     1
102
RTVSPropertyOp54
 70
     1
102
RTVSPropertyOp55
 70
     1
102
RTVSPropertyOp56
 70
     1
102
RTVSPropertyOp57
 70
     1
102
RTVSPost2010Prop28
280
     0
102
RTVSPost2010PropOp28
 70
     1
102
RTVSPost2010Prop29
280
     1
102
RTVSPost2010PropOp29
 70
     1
102
RTVSPost2010Prop30
280
     1
102
RTVSPost2010PropOp30
 70
     1
102
RTVSPost2010Prop31
280
     0
102
RTVSPost2010PropOp31
 70
     1
102
RTVSPost2010Prop32
280
     0
102
RTVSPost2010PropOp32
 70
     1
102
RTVSPost2010Prop33
280
     0
102
RTVSPost2010PropOp33
 70
     1
102
RTVSPost2010Prop34
280
     0
102
RTVSPost2010PropOp34
 70
     1
102
RTVSPost2010Prop35
280
     0
102
RTVSPost2010PropOp35
 70
     1
102
RTVSPost2010Prop36
280
     0
102
RTVSPost2010PropOp36
 70
     1
102
RTVSPost2010Prop37
 90
       50
102
RTVSPost2010PropOp37
 70
     1
102
RTVSPost2010Prop38
140
0.0
102
RTVSPost2010PropOp38
 70
     1
102
RTVSPost2010Prop39
140
1.0
102
RTVSPost2010PropOp39
 70
     1
102
RTVSPost2010Prop40
 90
        0
102
RTVSPost2010PropOp40
 70
     1
102
RTVSPost2010Prop41ColorIndex
 90
       18
102
RTVSPost2010Prop41ColorRGB
 90
        0
102
RTVSPost2010PropOp41
 70
     1
102
RTVSPost2010Prop42
 90
       50
102
RTVSPost2010PropOp42
 70
     1
102
RTVSPost2010Prop43
 90
        3
102
RTVSPost2010PropOp43
 70
     1
102
RTVSPost2010Prop44ColorIndex
 90
        5
102
RTVSPost2010Prop44ColorRGB
 90
      255
102
RTVSPost2010PropOp44
 70
     1
102
RTVSPost2010Prop45
280
     0
102
RTVSPost2010PropOp45
 70
     1
102
RTVSPost2010Prop46
 90
       50
102
RTVSPost2010PropOp46
 70
     1
102
RTVSPost2010Prop47
 90
       50
102
RTVSPost2010PropOp47
 70
     1
102
RTVSPost2010Prop48
 90
       50
102
RTVSPost2010PropOp48
 70
     1
102
RTVSPost2010Prop49
280
     0
102
RTVSPost2010PropOp49
 70
     1
102
RTVSPost2010Prop50
 90
       50
102
RTVSPost2010PropOp50
 70
     1
102
RTVSPost2010Prop51ColorIndex
 90
      256
102
RTVSPost2010Prop51ColorRGB
 90
-16777216
102
RTVSPost2010PropOp51
 70
     0
102
RTVSPost2010Prop52
140
1.0
102
RTVSPost2010PropOp52
 70
     0
102
RTVSPost2010Prop53
 90
        2
102
RTVSPost2010PropOp53
 70
     1
102
RTVSPost2010Prop54
  1
strokes_ogs.tif
102
RTVSPost2010PropOp54
 70
     1
102
RTVSPost2010Prop55
280
     0
102
RTVSPost2010PropOp55
 70
     1
102
RTVSPost2010Prop56
140
1.0
102
RTVSPost2010PropOp56
 70
     1
102
RTVSPost2010Prop57
140
1.0
102
RTVSPost2010PropOp57
 70
     1
  0
XRECORD
  5
4DD
102
{ACAD_REACTORS
330
4DC
102
}
330
4DC
100
AcDbXrecord
280
     1
102
RTVSPropertyOp0
 70
     1
102
RTVSPropertyOp1
 70
     1
102
RTVSPropertyOp2
 70
     1
102
RTVSPropertyOp3
 70
     1
102
RTVSPropertyOp4
 70
     1
102
RTVSPropertyOp5
 70
     1
102
RTVSPropertyOp6
 70
     1
102
RTVSPropertyOp7
 70
     1
102
RTVSPropertyOp8
 70
     1
102
RTVSPropertyOp9
 70
     1
102
RTVSPropertyOp10
 70
     1
102
RTVSPropertyOp11
 70
     1
102
RTVSPropertyOp12
 70
     1
102
RTVSPropertyOp13
 70
     1
102
RTVSPropertyOp14
 70
     1
102
RTVSPropertyOp15
 70
     1
102
RTVSPropertyOp16
 70
     1
102
RTVSPropertyOp17
 70
     1
102
RTVSPropertyOp18
 70
     1
102
RTVSPropertyOp19
 70
     1
102
RTVSPropertyOp20
 70
     1
102
RTVSPropertyOp21
 70
     1
102
RTVSPropertyOp22
 70
     1
102
RTVSPropertyOp23
 70
     1
102
RTVSPropertyOp24
 70
     1
102
RTVSPropertyOp25
 70
     1
102
RTVSPropertyOp26
 70
     1
102
RTVSPropertyOp27
 70
     1
102
RTVSPropertyOp28
 70
     1
102
RTVSPropertyOp29
 70
     1
102
RTVSPropertyOp30
 70
     1
102
RTVSPropertyOp31
 70
     1
102
RTVSPropertyOp32
 70
     1
102
RTVSPropertyOp33
 70
     1
102
RTVSPropertyOp34
 70
     1
102
RTVSPropertyOp35
 70
     1
102
RTVSPropertyOp36
 70
     1
102
RTVSPropertyOp37
 70
     1
102
RTVSPropertyOp38
 70
     1
102
RTVSPropertyOp39
 70
     1
102
RTVSPropertyOp40
 70
     1
102
RTVSPropertyOp41
 70
     1
102
RTVSPropertyOp42
 70
     1
102
RTVSPropertyOp43
 70
     1
102
RTVSPropertyOp44
 70
     1
102
RTVSPropertyOp45
 70
     1
102
RTVSPropertyOp46
 70
     1
102
RTVSPropertyOp47
 70
     1
102
RTVSPropertyOp48
 70
     1
102
RTVSPropertyOp49
 70
     1
102
RTVSPropertyOp50
 70
     1
102
RTVSPropertyOp51
 70
     0
102
RTVSPropertyOp52
 70
     0
102
RTVSPropertyOp53
 70
     1
102
RTVSPropertyOp54
 70
     1
102
RTVSPropertyOp55
 70
     1
102
RTVSPropertyOp56
 70
     1
102
RTVSPropertyOp57
 70
     1
102
RTVSPost2010Prop28
280
     0
102
RTVSPost2010PropOp28
 70
     1
102
RTVSPost2010Prop29
280
     1
102
RTVSPost2010PropOp29
 70
     1
102
RTVSPost2010Prop30
280
     1
102
RTVSPost2010PropOp30
 70
     1
102
RTVSPost2010Prop31
280
     0
102
RTVSPost2010PropOp31
 70
     1
102
RTVSPost2010Prop32
280
     0
102
RTVSPost2010PropOp32
 70
     1
102
RTVSPost2010Prop33
280
     0
102
RTVSPost2010PropOp33
 70
     1
102
RTVSPost2010Prop34
280
     0
102
RTVSPost2010PropOp34
 70
     1
102
RTVSPost2010Prop35
280
     0
102
RTVSPost2010PropOp35
 70
     1
102
RTVSPost2010Prop36
280
     0
102
RTVSPost2010PropOp36
 70
     1
102
RTVSPost2010Prop37
 90
       50
102
RTVSPost2010PropOp37
 70
     1
102
RTVSPost2010Prop38
140
0.0
102
RTVSPost2010PropOp38
 70
     1
102
RTVSPost2010Prop39
140
1.0
102
RTVSPost2010PropOp39
 70
     1
102
RTVSPost2010Prop40
 90
        0
102
RTVSPost2010PropOp40
 70
     1
102
RTVSPost2010Prop41ColorIndex
 90
       18
102
RTVSPost2010Prop41ColorRGB
 90
        0
102
RTVSPost2010PropOp41
 70
     1
102
RTVSPost2010Prop42
 90
       50
102
RTVSPost2010PropOp42
 70
     1
102
RTVSPost2010Prop43
 90
        3
102
RTVSPost2010PropOp43
 70
     1
102
RTVSPost2010Prop44ColorIndex
 90
        5
102
RTVSPost2010Prop44ColorRGB
 90
      255
102
RTVSPost2010PropOp44
 70
     1
102
RTVSPost2010Prop45
280
     0
102
RTVSPost2010PropOp45
 70
     1
102
RTVSPost2010Prop46
 90
       50
102
RTVSPost2010PropOp46
 70
     1
102
RTVSPost2010Prop47
 90
       50
102
RTVSPost2010PropOp47
 70
     1
102
RTVSPost2010Prop48
 90
       50
102
RTVSPost2010PropOp48
 70
     1
102
RTVSPost2010Prop49
280
     0
102
RTVSPost2010PropOp49
 70
     1
102
RTVSPost2010Prop50
 90
       50
102
RTVSPost2010PropOp50
 70
     1
102
RTVSPost2010Prop51ColorIndex
 90
      256
102
RTVSPost2010Prop51ColorRGB
 90
-16777216
102
RTVSPost2010PropOp51
 70
     0
102
RTVSPost2010Prop52
140
1.0
102
RTVSPost2010PropOp52
 70
     0
102
RTVSPost2010Prop53
 90
        2
102
RTVSPost2010PropOp53
 70
     1
102
RTVSPost2010Prop54
  1
strokes_ogs.tif
102
RTVSPost2010PropOp54
 70
     1
102
RTVSPost2010Prop55
280
     0
102
RTVSPost2010PropOp55
 70
     1
102
RTVSPost2010Prop56
140
1.0
102
RTVSPost2010PropOp56
 70
     1
102
RTVSPost2010Prop57
140
1.0
102
RTVSPost2010PropOp57
 70
     1
  0
XRECORD
  5
4E5
102
{ACAD_REACTORS
330
4E4
102
}
330
4E4
100
AcDbXrecord
280
     1
102
RTVSPropertyOp0
 70
     0
102
RTVSPropertyOp1
 70
     0
102
RTVSPropertyOp2
 70
     0
102
RTVSPropertyOp3
 70
     0
102
RTVSPropertyOp4
 70
     0
102
RTVSPropertyOp5
 70
     0
102
RTVSPropertyOp6
 70
     0
102
RTVSPropertyOp7
 70
     0
102
RTVSPropertyOp8
 70
     0
102
RTVSPropertyOp9
 70
     0
102
RTVSPropertyOp10
 70
     0
102
RTVSPropertyOp11
 70
     0
102
RTVSPropertyOp12
 70
     0
102
RTVSPropertyOp13
 70
     0
102
RTVSPropertyOp14
 70
     0
102
RTVSPropertyOp15
 70
     0
102
RTVSPropertyOp16
 70
     0
102
RTVSPropertyOp17
 70
     0
102
RTVSPropertyOp18
 70
     0
102
RTVSPropertyOp19
 70
     0
102
RTVSPropertyOp20
 70
     0
102
RTVSPropertyOp21
 70
     0
102
RTVSPropertyOp22
 70
     0
102
RTVSPropertyOp23
 70
     0
102
RTVSPropertyOp24
 70
     0
102
RTVSPropertyOp25
 70
     0
102
RTVSPropertyOp26
 70
     0
102
RTVSPropertyOp27
 70
     0
102
RTVSPropertyOp28
 70
     1
102
RTVSPropertyOp29
 70
     1
102
RTVSPropertyOp30
 70
     1
102
RTVSPropertyOp31
 70
     1
102
RTVSPropertyOp32
 70
     1
102
RTVSPropertyOp33
 70
     1
102
RTVSPropertyOp34
 70
     1
102
RTVSPropertyOp35
 70
     1
102
RTVSPropertyOp36
 70
     1
102
RTVSPropertyOp37
 70
     1
102
RTVSPropertyOp38
 70
     1
102
RTVSPropertyOp39
 70
     1
102
RTVSPropertyOp40
 70
     1
102
RTVSPropertyOp41
 70
     1
102
RTVSPropertyOp42
 70
     1
102
RTVSPropertyOp43
 70
     1
102
RTVSPropertyOp44
 70
     1
102
RTVSPropertyOp45
 70
     1
102
RTVSPropertyOp46
 70
     1
102
RTVSPropertyOp47
 70
     1
102
RTVSPropertyOp48
 70
     1
102
RTVSPropertyOp49
 70
     1
102
RTVSPropertyOp50
 70
     1
102
RTVSPropertyOp51
 70
     0
102
RTVSPropertyOp52
 70
     0
102
RTVSPropertyOp53
 70
     1
102
RTVSPropertyOp54
 70
     1
102
RTVSPropertyOp55
 70
     1
102
RTVSPropertyOp56
 70
     1
102
RTVSPropertyOp57
 70
     1
102
RTVSPost2010Prop28
280
     0
102
RTVSPost2010PropOp28
 70
     1
102
RTVSPost2010Prop29
280
     1
102
RTVSPost2010PropOp29
 70
     1
102
RTVSPost2010Prop30
280
     1
102
RTVSPost2010PropOp30
 70
     1
102
RTVSPost2010Prop31
280
     0
102
RTVSPost2010PropOp31
 70
     1
102
RTVSPost2010Prop32
280
     0
102
RTVSPost2010PropOp32
 70
     1
102
RTVSPost2010Prop33
280
     0
102
RTVSPost2010PropOp33
 70
     1
102
RTVSPost2010Prop34
280
     0
102
RTVSPost2010PropOp34
 70
     1
102
RTVSPost2010Prop35
280
     0
102
RTVSPost2010PropOp35
 70
     1
102
RTVSPost2010Prop36
280
     0
102
RTVSPost2010PropOp36
 70
     1
102
RTVSPost2010Prop37
 90
       50
102
RTVSPost2010PropOp37
 70
     1
102
RTVSPost2010Prop38
140
0.0
102
RTVSPost2010PropOp38
 70
     1
102
RTVSPost2010Prop39
140
1.0
102
RTVSPost2010PropOp39
 70
     1
102
RTVSPost2010Prop40
 90
        0
102
RTVSPost2010PropOp40
 70
     1
102
RTVSPost2010Prop41ColorIndex
 90
       18
102
RTVSPost2010Prop41ColorRGB
 90
        0
102
RTVSPost2010PropOp41
 70
     1
102
RTVSPost2010Prop42
 90
       50
102
RTVSPost2010PropOp42
 70
     1
102
RTVSPost2010Prop43
 90
        3
102
RTVSPost2010PropOp43
 70
     1
102
RTVSPost2010Prop44ColorIndex
 90
        5
102
RTVSPost2010Prop44ColorRGB
 90
      255
102
RTVSPost2010PropOp44
 70
     1
102
RTVSPost2010Prop45
280
     0
102
RTVSPost2010PropOp45
 70
     1
102
RTVSPost2010Prop46
 90
       50
102
RTVSPost2010PropOp46
 70
     1
102
RTVSPost2010Prop47
 90
       50
102
RTVSPost2010PropOp47
 70
     1
102
RTVSPost2010Prop48
 90
       50
102
RTVSPost2010PropOp48
 70
     1
102
RTVSPost2010Prop49
280
     0
102
RTVSPost2010PropOp49
 70
     1
102
RTVSPost2010Prop50
 90
       50
102
RTVSPost2010PropOp50
 70
     1
102
RTVSPost2010Prop51ColorIndex
 90
      256
102
RTVSPost2010Prop51ColorRGB
 90
-16777216
102
RTVSPost2010PropOp51
 70
     0
102
RTVSPost2010Prop52
140
1.0
102
RTVSPost2010PropOp52
 70
     0
102
RTVSPost2010Prop53
 90
        2
102
RTVSPost2010PropOp53
 70
     1
102
RTVSPost2010Prop54
  1
strokes_ogs.tif
102
RTVSPost2010PropOp54
 70
     1
102
RTVSPost2010Prop55
280
     0
102
RTVSPost2010PropOp55
 70
     1
102
RTVSPost2010Prop56
140
1.0
102
RTVSPost2010PropOp56
 70
     1
102
RTVSPost2010Prop57
140
1.0
102
RTVSPost2010PropOp57
 70
     1
  0
XRECORD
  5
4D3
102
{ACAD_REACTORS
330
4D2
102
}
330
4D2
100
AcDbXrecord
280
     1
102
RTVSPropertyOp0
 70
     1
102
RTVSPropertyOp1
 70
     1
102
RTVSPropertyOp2
 70
     1
102
RTVSPropertyOp3
 70
     1
102
RTVSPropertyOp4
 70
     1
102
RTVSPropertyOp5
 70
     1
102
RTVSPropertyOp6
 70
     1
102
RTVSPropertyOp7
 70
     1
102
RTVSPropertyOp8
 70
     1
102
RTVSPropertyOp9
 70
     1
102
RTVSPropertyOp10
 70
     1
102
RTVSPropertyOp11
 70
     1
102
RTVSPropertyOp12
 70
     1
102
RTVSPropertyOp13
 70
     1
102
RTVSPropertyOp14
 70
     1
102
RTVSPropertyOp15
 70
     1
102
RTVSPropertyOp16
 70
     1
102
RTVSPropertyOp17
 70
     1
102
RTVSPropertyOp18
 70
     1
102
RTVSPropertyOp19
 70
     1
102
RTVSPropertyOp20
 70
     1
102
RTVSPropertyOp21
 70
     1
102
RTVSPropertyOp22
 70
     1
102
RTVSPropertyOp23
 70
     1
102
RTVSPropertyOp24
 70
     1
102
RTVSPropertyOp25
 70
     1
102
RTVSPropertyOp26
 70
     1
102
RTVSPropertyOp27
 70
     1
102
RTVSPropertyOp28
 70
     1
102
RTVSPropertyOp29
 70
     1
102
RTVSPropertyOp30
 70
     1
102
RTVSPropertyOp31
 70
     1
102
RTVSPropertyOp32
 70
     1
102
RTVSPropertyOp33
 70
     1
102
RTVSPropertyOp34
 70
     1
102
RTVSPropertyOp35
 70
     1
102
RTVSPropertyOp36
 70
     1
102
RTVSPropertyOp37
 70
     1
102
RTVSPropertyOp38
 70
     1
102
RTVSPropertyOp39
 70
     1
102
RTVSPropertyOp40
 70
     1
102
RTVSPropertyOp41
 70
     1
102
RTVSPropertyOp42
 70
     1
102
RTVSPropertyOp43
 70
     1
102
RTVSPropertyOp44
 70
     1
102
RTVSPropertyOp45
 70
     1
102
RTVSPropertyOp46
 70
     1
102
RTVSPropertyOp47
 70
     1
102
RTVSPropertyOp48
 70
     1
102
RTVSPropertyOp49
 70
     1
102
RTVSPropertyOp50
 70
     1
102
RTVSPropertyOp51
 70
     0
102
RTVSPropertyOp52
 70
     0
102
RTVSPropertyOp53
 70
     1
102
RTVSPropertyOp54
 70
     1
102
RTVSPropertyOp55
 70
     1
102
RTVSPropertyOp56
 70
     1
102
RTVSPropertyOp57
 70
     1
102
RTVSPost2010Prop28
280
     0
102
RTVSPost2010PropOp28
 70
     1
102
RTVSPost2010Prop29
280
     1
102
RTVSPost2010PropOp29
 70
     1
102
RTVSPost2010Prop30
280
     1
102
RTVSPost2010PropOp30
 70
     1
102
RTVSPost2010Prop31
280
     0
102
RTVSPost2010PropOp31
 70
     1
102
RTVSPost2010Prop32
280
     0
102
RTVSPost2010PropOp32
 70
     1
102
RTVSPost2010Prop33
280
     0
102
RTVSPost2010PropOp33
 70
     1
102
RTVSPost2010Prop34
280
     0
102
RTVSPost2010PropOp34
 70
     1
102
RTVSPost2010Prop35
280
     0
102
RTVSPost2010PropOp35
 70
     1
102
RTVSPost2010Prop36
280
     0
102
RTVSPost2010PropOp36
 70
     1
102
RTVSPost2010Prop37
 90
       50
102
RTVSPost2010PropOp37
 70
     1
102
RTVSPost2010Prop38
140
0.0
102
RTVSPost2010PropOp38
 70
     1
102
RTVSPost2010Prop39
140
1.0
102
RTVSPost2010PropOp39
 70
     1
102
RTVSPost2010Prop40
 90
        0
102
RTVSPost2010PropOp40
 70
     1
102
RTVSPost2010Prop41ColorIndex
 90
       18
102
RTVSPost2010Prop41ColorRGB
 90
        0
102
RTVSPost2010PropOp41
 70
     1
102
RTVSPost2010Prop42
 90
       50
102
RTVSPost2010PropOp42
 70
     1
102
RTVSPost2010Prop43
 90
        3
102
RTVSPost2010PropOp43
 70
     1
102
RTVSPost2010Prop44ColorIndex
 90
        5
102
RTVSPost2010Prop44ColorRGB
 90
      255
102
RTVSPost2010PropOp44
 70
     1
102
RTVSPost2010Prop45
280
     0
102
RTVSPost2010PropOp45
 70
     1
102
RTVSPost2010Prop46
 90
       50
102
RTVSPost2010PropOp46
 70
     1
102
RTVSPost2010Prop47
 90
       50
102
RTVSPost2010PropOp47
 70
     1
102
RTVSPost2010Prop48
 90
       50
102
RTVSPost2010PropOp48
 70
     1
102
RTVSPost2010Prop49
280
     0
102
RTVSPost2010PropOp49
 70
     1
102
RTVSPost2010Prop50
 90
       50
102
RTVSPost2010PropOp50
 70
     1
102
RTVSPost2010Prop51ColorIndex
 90
      256
102
RTVSPost2010Prop51ColorRGB
 90
-16777216
102
RTVSPost2010PropOp51
 70
     0
102
RTVSPost2010Prop52
140
1.0
102
RTVSPost2010PropOp52
 70
     0
102
RTVSPost2010Prop53
 90
        2
102
RTVSPost2010PropOp53
 70
     1
102
RTVSPost2010Prop54
  1
strokes_ogs.tif
102
RTVSPost2010PropOp54
 70
     1
102
RTVSPost2010Prop55
280
     0
102
RTVSPost2010PropOp55
 70
     1
102
RTVSPost2010Prop56
140
1.0
102
RTVSPost2010PropOp56
 70
     1
102
RTVSPost2010Prop57
140
1.0
102
RTVSPost2010PropOp57
 70
     1
  0
XRECORD
  5
4F1
102
{ACAD_REACTORS
330
4F0
102
}
330
4F0
100
AcDbXrecord
280
     1
102
RTVSPropertyOp0
 70
     1
102
RTVSPropertyOp1
 70
     1
102
RTVSPropertyOp2
 70
     1
102
RTVSPropertyOp3
 70
     1
102
RTVSPropertyOp4
 70
     1
102
RTVSPropertyOp5
 70
     1
102
RTVSPropertyOp6
 70
     1
102
RTVSPropertyOp7
 70
     1
102
RTVSPropertyOp8
 70
     1
102
RTVSPropertyOp9
 70
     1
102
RTVSPropertyOp10
 70
     1
102
RTVSPropertyOp11
 70
     1
102
RTVSPropertyOp12
 70
     1
102
RTVSPropertyOp13
 70
     1
102
RTVSPropertyOp14
 70
     1
102
RTVSPropertyOp15
 70
     1
102
RTVSPropertyOp16
 70
     1
102
RTVSPropertyOp17
 70
     1
102
RTVSPropertyOp18
 70
     1
102
RTVSPropertyOp19
 70
     1
102
RTVSPropertyOp20
 70
     1
102
RTVSPropertyOp21
 70
     1
102
RTVSPropertyOp22
 70
     1
102
RTVSPropertyOp23
 70
     1
102
RTVSPropertyOp24
 70
     1
102
RTVSPropertyOp25
 70
     1
102
RTVSPropertyOp26
 70
     1
102
RTVSPropertyOp27
 70
     1
102
RTVSPropertyOp28
 70
     1
102
RTVSPropertyOp29
 70
     1
102
RTVSPropertyOp30
 70
     1
102
RTVSPropertyOp31
 70
     1
102
RTVSPropertyOp32
 70
     1
102
RTVSPropertyOp33
 70
     1
102
RTVSPropertyOp34
 70
     1
102
RTVSPropertyOp35
 70
     1
102
RTVSPropertyOp36
 70
     1
102
RTVSPropertyOp37
 70
     1
102
RTVSPropertyOp38
 70
     1
102
RTVSPropertyOp39
 70
     1
102
RTVSPropertyOp40
 70
     1
102
RTVSPropertyOp41
 70
     1
102
RTVSPropertyOp42
 70
     1
102
RTVSPropertyOp43
 70
     1
102
RTVSPropertyOp44
 70
     1
102
RTVSPropertyOp45
 70
     1
102
RTVSPropertyOp46
 70
     1
102
RTVSPropertyOp47
 70
     1
102
RTVSPropertyOp48
 70
     1
102
RTVSPropertyOp49
 70
     1
102
RTVSPropertyOp50
 70
     1
102
RTVSPropertyOp51
 70
     0
102
RTVSPropertyOp52
 70
     0
102
RTVSPropertyOp53
 70
     1
102
RTVSPropertyOp54
 70
     1
102
RTVSPropertyOp55
 70
     1
102
RTVSPropertyOp56
 70
     1
102
RTVSPropertyOp57
 70
     1
102
RTVSPost2010Prop28
280
     0
102
RTVSPost2010PropOp28
 70
     1
102
RTVSPost2010Prop29
280
     1
102
RTVSPost2010PropOp29
 70
     1
102
RTVSPost2010Prop30
280
     1
102
RTVSPost2010PropOp30
 70
     1
102
RTVSPost2010Prop31
280
     0
102
RTVSPost2010PropOp31
 70
     1
102
RTVSPost2010Prop32
280
     0
102
RTVSPost2010PropOp32
 70
     1
102
RTVSPost2010Prop33
280
     0
102
RTVSPost2010PropOp33
 70
     1
102
RTVSPost2010Prop34
280
     0
102
RTVSPost2010PropOp34
 70
     1
102
RTVSPost2010Prop35
280
     0
102
RTVSPost2010PropOp35
 70
     1
102
RTVSPost2010Prop36
280
     0
102
RTVSPost2010PropOp36
 70
     1
102
RTVSPost2010Prop37
 90
       50
102
RTVSPost2010PropOp37
 70
     1
102
RTVSPost2010Prop38
140
0.0
102
RTVSPost2010PropOp38
 70
     1
102
RTVSPost2010Prop39
140
1.0
102
RTVSPost2010PropOp39
 70
     1
102
RTVSPost2010Prop40
 90
        0
102
RTVSPost2010PropOp40
 70
     1
102
RTVSPost2010Prop41ColorIndex
 90
       18
102
RTVSPost2010Prop41ColorRGB
 90
        0
102
RTVSPost2010PropOp41
 70
     1
102
RTVSPost2010Prop42
 90
       50
102
RTVSPost2010PropOp42
 70
     1
102
RTVSPost2010Prop43
 90
        3
102
RTVSPost2010PropOp43
 70
     1
102
RTVSPost2010Prop44ColorIndex
 90
        5
102
RTVSPost2010Prop44ColorRGB
 90
      255
102
RTVSPost2010PropOp44
 70
     1
102
RTVSPost2010Prop45
280
     0
102
RTVSPost2010PropOp45
 70
     1
102
RTVSPost2010Prop46
 90
       50
102
RTVSPost2010PropOp46
 70
     1
102
RTVSPost2010Prop47
 90
       50
102
RTVSPost2010PropOp47
 70
     1
102
RTVSPost2010Prop48
 90
       50
102
RTVSPost2010PropOp48
 70
     1
102
RTVSPost2010Prop49
280
     0
102
RTVSPost2010PropOp49
 70
     1
102
RTVSPost2010Prop50
 90
       50
102
RTVSPost2010PropOp50
 70
     1
102
RTVSPost2010Prop51ColorIndex
 90
      256
102
RTVSPost2010Prop51ColorRGB
 90
-16777216
102
RTVSPost2010PropOp51
 70
     0
102
RTVSPost2010Prop52
140
1.0
102
RTVSPost2010PropOp52
 70
     0
102
RTVSPost2010Prop53
 90
        2
102
RTVSPost2010PropOp53
 70
     1
102
RTVSPost2010Prop54
  1
strokes_ogs.tif
102
RTVSPost2010PropOp54
 70
     1
102
RTVSPost2010Prop55
280
     0
102
RTVSPost2010PropOp55
 70
     1
102
RTVSPost2010Prop56
140
1.0
102
RTVSPost2010PropOp56
 70
     1
102
RTVSPost2010Prop57
140
1.0
102
RTVSPost2010PropOp57
 70
     1
  0
XRECORD
  5
4EF
102
{ACAD_REACTORS
330
4EE
102
}
330
4EE
100
AcDbXrecord
280
     1
102
RTVSPropertyOp0
 70
     1
102
RTVSPropertyOp1
 70
     1
102
RTVSPropertyOp2
 70
     1
102
RTVSPropertyOp3
 70
     1
102
RTVSPropertyOp4
 70
     1
102
RTVSPropertyOp5
 70
     1
102
RTVSPropertyOp6
 70
     1
102
RTVSPropertyOp7
 70
     1
102
RTVSPropertyOp8
 70
     1
102
RTVSPropertyOp9
 70
     1
102
RTVSPropertyOp10
 70
     1
102
RTVSPropertyOp11
 70
     1
102
RTVSPropertyOp12
 70
     1
102
RTVSPropertyOp13
 70
     1
102
RTVSPropertyOp14
 70
     1
102
RTVSPropertyOp15
 70
     1
102
RTVSPropertyOp16
 70
     1
102
RTVSPropertyOp17
 70
     1
102
RTVSPropertyOp18
 70
     1
102
RTVSPropertyOp19
 70
     1
102
RTVSPropertyOp20
 70
     1
102
RTVSPropertyOp21
 70
     1
102
RTVSPropertyOp22
 70
     1
102
RTVSPropertyOp23
 70
     1
102
RTVSPropertyOp24
 70
     1
102
RTVSPropertyOp25
 70
     1
102
RTVSPropertyOp26
 70
     1
102
RTVSPropertyOp27
 70
     1
102
RTVSPropertyOp28
 70
     1
102
RTVSPropertyOp29
 70
     1
102
RTVSPropertyOp30
 70
     1
102
RTVSPropertyOp31
 70
     1
102
RTVSPropertyOp32
 70
     1
102
RTVSPropertyOp33
 70
     1
102
RTVSPropertyOp34
 70
     1
102
RTVSPropertyOp35
 70
     1
102
RTVSPropertyOp36
 70
     1
102
RTVSPropertyOp37
 70
     1
102
RTVSPropertyOp38
 70
     1
102
RTVSPropertyOp39
 70
     1
102
RTVSPropertyOp40
 70
     1
102
RTVSPropertyOp41
 70
     1
102
RTVSPropertyOp42
 70
     1
102
RTVSPropertyOp43
 70
     1
102
RTVSPropertyOp44
 70
     1
102
RTVSPropertyOp45
 70
     1
102
RTVSPropertyOp46
 70
     1
102
RTVSPropertyOp47
 70
     1
102
RTVSPropertyOp48
 70
     1
102
RTVSPropertyOp49
 70
     1
102
RTVSPropertyOp50
 70
     1
102
RTVSPropertyOp51
 70
     0
102
RTVSPropertyOp52
 70
     0
102
RTVSPropertyOp53
 70
     1
102
RTVSPropertyOp54
 70
     1
102
RTVSPropertyOp55
 70
     1
102
RTVSPropertyOp56
 70
     1
102
RTVSPropertyOp57
 70
     1
102
RTVSPost2010Prop28
280
     0
102
RTVSPost2010PropOp28
 70
     1
102
RTVSPost2010Prop29
280
     1
102
RTVSPost2010PropOp29
 70
     1
102
RTVSPost2010Prop30
280
     1
102
RTVSPost2010PropOp30
 70
     1
102
RTVSPost2010Prop31
280
     0
102
RTVSPost2010PropOp31
 70
     1
102
RTVSPost2010Prop32
280
     0
102
RTVSPost2010PropOp32
 70
     1
102
RTVSPost2010Prop33
280
     0
102
RTVSPost2010PropOp33
 70
     1
102
RTVSPost2010Prop34
280
     0
102
RTVSPost2010PropOp34
 70
     1
102
RTVSPost2010Prop35
280
     0
102
RTVSPost2010PropOp35
 70
     1
102
RTVSPost2010Prop36
280
     0
102
RTVSPost2010PropOp36
 70
     1
102
RTVSPost2010Prop37
 90
       50
102
RTVSPost2010PropOp37
 70
     1
102
RTVSPost2010Prop38
140
0.0
102
RTVSPost2010PropOp38
 70
     1
102
RTVSPost2010Prop39
140
1.0
102
RTVSPost2010PropOp39
 70
     1
102
RTVSPost2010Prop40
 90
        0
102
RTVSPost2010PropOp40
 70
     1
102
RTVSPost2010Prop41ColorIndex
 90
       18
102
RTVSPost2010Prop41ColorRGB
 90
        0
102
RTVSPost2010PropOp41
 70
     1
102
RTVSPost2010Prop42
 90
       50
102
RTVSPost2010PropOp42
 70
     1
102
RTVSPost2010Prop43
 90
        3
102
RTVSPost2010PropOp43
 70
     1
102
RTVSPost2010Prop44ColorIndex
 90
        5
102
RTVSPost2010Prop44ColorRGB
 90
      255
102
RTVSPost2010PropOp44
 70
     1
102
RTVSPost2010Prop45
280
     0
102
RTVSPost2010PropOp45
 70
     1
102
RTVSPost2010Prop46
 90
       50
102
RTVSPost2010PropOp46
 70
     1
102
RTVSPost2010Prop47
 90
       50
102
RTVSPost2010PropOp47
 70
     1
102
RTVSPost2010Prop48
 90
       50
102
RTVSPost2010PropOp48
 70
     1
102
RTVSPost2010Prop49
280
     0
102
RTVSPost2010PropOp49
 70
     1
102
RTVSPost2010Prop50
 90
       50
102
RTVSPost2010PropOp50
 70
     1
102
RTVSPost2010Prop51ColorIndex
 90
      256
102
RTVSPost2010Prop51ColorRGB
 90
-16777216
102
RTVSPost2010PropOp51
 70
     0
102
RTVSPost2010Prop52
140
1.0
102
RTVSPost2010PropOp52
 70
     0
102
RTVSPost2010Prop53
 90
        2
102
RTVSPost2010PropOp53
 70
     1
102
RTVSPost2010Prop54
  1
strokes_ogs.tif
102
RTVSPost2010PropOp54
 70
     1
102
RTVSPost2010Prop55
280
     0
102
RTVSPost2010PropOp55
 70
     1
102
RTVSPost2010Prop56
140
1.0
102
RTVSPost2010PropOp56
 70
     1
102
RTVSPost2010Prop57
140
1.0
102
RTVSPost2010PropOp57
 70
     1
  0
XRECORD
  5
4E9
102
{ACAD_REACTORS
330
4E8
102
}
330
4E8
100
AcDbXrecord
280
     1
102
RTVSPropertyOp0
 70
     1
102
RTVSPropertyOp1
 70
     1
102
RTVSPropertyOp2
 70
     1
102
RTVSPropertyOp3
 70
     1
102
RTVSPropertyOp4
 70
     1
102
RTVSPropertyOp5
 70
     1
102
RTVSPropertyOp6
 70
     1
102
RTVSPropertyOp7
 70
     1
102
RTVSPropertyOp8
 70
     1
102
RTVSPropertyOp9
 70
     1
102
RTVSPropertyOp10
 70
     1
102
RTVSPropertyOp11
 70
     1
102
RTVSPropertyOp12
 70
     1
102
RTVSPropertyOp13
 70
     1
102
RTVSPropertyOp14
 70
     1
102
RTVSPropertyOp15
 70
     1
102
RTVSPropertyOp16
 70
     1
102
RTVSPropertyOp17
 70
     1
102
RTVSPropertyOp18
 70
     1
102
RTVSPropertyOp19
 70
     1
102
RTVSPropertyOp20
 70
     1
102
RTVSPropertyOp21
 70
     1
102
RTVSPropertyOp22
 70
     1
102
RTVSPropertyOp23
 70
     1
102
RTVSPropertyOp24
 70
     1
102
RTVSPropertyOp25
 70
     1
102
RTVSPropertyOp26
 70
     1
102
RTVSPropertyOp27
 70
     1
102
RTVSPropertyOp28
 70
     1
102
RTVSPropertyOp29
 70
     1
102
RTVSPropertyOp30
 70
     1
102
RTVSPropertyOp31
 70
     1
102
RTVSPropertyOp32
 70
     1
102
RTVSPropertyOp33
 70
     1
102
RTVSPropertyOp34
 70
     1
102
RTVSPropertyOp35
 70
     1
102
RTVSPropertyOp36
 70
     1
102
RTVSPropertyOp37
 70
     1
102
RTVSPropertyOp38
 70
     1
102
RTVSPropertyOp39
 70
     1
102
RTVSPropertyOp40
 70
     1
102
RTVSPropertyOp41
 70
     1
102
RTVSPropertyOp42
 70
     1
102
RTVSPropertyOp43
 70
     1
102
RTVSPropertyOp44
 70
     1
102
RTVSPropertyOp45
 70
     1
102
RTVSPropertyOp46
 70
     1
102
RTVSPropertyOp47
 70
     1
102
RTVSPropertyOp48
 70
     1
102
RTVSPropertyOp49
 70
     1
102
RTVSPropertyOp50
 70
     1
102
RTVSPropertyOp51
 70
     0
102
RTVSPropertyOp52
 70
     0
102
RTVSPropertyOp53
 70
     1
102
RTVSPropertyOp54
 70
     1
102
RTVSPropertyOp55
 70
     1
102
RTVSPropertyOp56
 70
     1
102
RTVSPropertyOp57
 70
     1
102
RTVSPost2010Prop28
280
     0
102
RTVSPost2010PropOp28
 70
     1
102
RTVSPost2010Prop29
280
     1
102
RTVSPost2010PropOp29
 70
     1
102
RTVSPost2010Prop30
280
     1
102
RTVSPost2010PropOp30
 70
     1
102
RTVSPost2010Prop31
280
     0
102
RTVSPost2010PropOp31
 70
     1
102
RTVSPost2010Prop32
280
     0
102
RTVSPost2010PropOp32
 70
     1
102
RTVSPost2010Prop33
280
     0
102
RTVSPost2010PropOp33
 70
     1
102
RTVSPost2010Prop34
280
     0
102
RTVSPost2010PropOp34
 70
     1
102
RTVSPost2010Prop35
280
     0
102
RTVSPost2010PropOp35
 70
     1
102
RTVSPost2010Prop36
280
     0
102
RTVSPost2010PropOp36
 70
     1
102
RTVSPost2010Prop37
 90
       50
102
RTVSPost2010PropOp37
 70
     1
102
RTVSPost2010Prop38
140
0.0
102
RTVSPost2010PropOp38
 70
     1
102
RTVSPost2010Prop39
140
1.0
102
RTVSPost2010PropOp39
 70
     1
102
RTVSPost2010Prop40
 90
        0
102
RTVSPost2010PropOp40
 70
     1
102
RTVSPost2010Prop41ColorIndex
 90
       18
102
RTVSPost2010Prop41ColorRGB
 90
        0
102
RTVSPost2010PropOp41
 70
     1
102
RTVSPost2010Prop42
 90
       50
102
RTVSPost2010PropOp42
 70
     1
102
RTVSPost2010Prop43
 90
        3
102
RTVSPost2010PropOp43
 70
     1
102
RTVSPost2010Prop44ColorIndex
 90
        5
102
RTVSPost2010Prop44ColorRGB
 90
      255
102
RTVSPost2010PropOp44
 70
     1
102
RTVSPost2010Prop45
280
     0
102
RTVSPost2010PropOp45
 70
     1
102
RTVSPost2010Prop46
 90
       50
102
RTVSPost2010PropOp46
 70
     1
102
RTVSPost2010Prop47
 90
       50
102
RTVSPost2010PropOp47
 70
     1
102
RTVSPost2010Prop48
 90
       50
102
RTVSPost2010PropOp48
 70
     1
102
RTVSPost2010Prop49
280
     0
102
RTVSPost2010PropOp49
 70
     1
102
RTVSPost2010Prop50
 90
       50
102
RTVSPost2010PropOp50
 70
     1
102
RTVSPost2010Prop51ColorIndex
 90
      256
102
RTVSPost2010Prop51ColorRGB
 90
-16777216
102
RTVSPost2010PropOp51
 70
     0
102
RTVSPost2010Prop52
140
1.0
102
RTVSPost2010PropOp52
 70
     0
102
RTVSPost2010Prop53
 90
        2
102
RTVSPost2010PropOp53
 70
     1
102
RTVSPost2010Prop54
  1
strokes_ogs.tif
102
RTVSPost2010PropOp54
 70
     1
102
RTVSPost2010Prop55
280
     0
102
RTVSPost2010PropOp55
 70
     1
102
RTVSPost2010Prop56
140
1.0
102
RTVSPost2010PropOp56
 70
     1
102
RTVSPost2010Prop57
140
1.0
102
RTVSPost2010PropOp57
 70
     1
  0
XRECORD
  5
4EB
102
{ACAD_REACTORS
330
4EA
102
}
330
4EA
100
AcDbXrecord
280
     1
102
RTVSPropertyOp0
 70
     1
102
RTVSPropertyOp1
 70
     1
102
RTVSPropertyOp2
 70
     1
102
RTVSPropertyOp3
 70
     1
102
RTVSPropertyOp4
 70
     1
102
RTVSPropertyOp5
 70
     1
102
RTVSPropertyOp6
 70
     1
102
RTVSPropertyOp7
 70
     1
102
RTVSPropertyOp8
 70
     1
102
RTVSPropertyOp9
 70
     1
102
RTVSPropertyOp10
 70
     1
102
RTVSPropertyOp11
 70
     1
102
RTVSPropertyOp12
 70
     1
102
RTVSPropertyOp13
 70
     1
102
RTVSPropertyOp14
 70
     1
102
RTVSPropertyOp15
 70
     1
102
RTVSPropertyOp16
 70
     1
102
RTVSPropertyOp17
 70
     1
102
RTVSPropertyOp18
 70
     1
102
RTVSPropertyOp19
 70
     1
102
RTVSPropertyOp20
 70
     1
102
RTVSPropertyOp21
 70
     1
102
RTVSPropertyOp22
 70
     1
102
RTVSPropertyOp23
 70
     1
102
RTVSPropertyOp24
 70
     1
102
RTVSPropertyOp25
 70
     1
102
RTVSPropertyOp26
 70
     1
102
RTVSPropertyOp27
 70
     1
102
RTVSPropertyOp28
 70
     1
102
RTVSPropertyOp29
 70
     1
102
RTVSPropertyOp30
 70
     1
102
RTVSPropertyOp31
 70
     1
102
RTVSPropertyOp32
 70
     1
102
RTVSPropertyOp33
 70
     1
102
RTVSPropertyOp34
 70
     1
102
RTVSPropertyOp35
 70
     1
102
RTVSPropertyOp36
 70
     1
102
RTVSPropertyOp37
 70
     1
102
RTVSPropertyOp38
 70
     1
102
RTVSPropertyOp39
 70
     1
102
RTVSPropertyOp40
 70
     1
102
RTVSPropertyOp41
 70
     1
102
RTVSPropertyOp42
 70
     1
102
RTVSPropertyOp43
 70
     1
102
RTVSPropertyOp44
 70
     1
102
RTVSPropertyOp45
 70
     1
102
RTVSPropertyOp46
 70
     1
102
RTVSPropertyOp47
 70
     1
102
RTVSPropertyOp48
 70
     1
102
RTVSPropertyOp49
 70
     1
102
RTVSPropertyOp50
 70
     1
102
RTVSPropertyOp51
 70
     0
102
RTVSPropertyOp52
 70
     0
102
RTVSPropertyOp53
 70
     1
102
RTVSPropertyOp54
 70
     1
102
RTVSPropertyOp55
 70
     1
102
RTVSPropertyOp56
 70
     1
102
RTVSPropertyOp57
 70
     1
102
RTVSPost2010Prop28
280
     0
102
RTVSPost2010PropOp28
 70
     1
102
RTVSPost2010Prop29
280
     1
102
RTVSPost2010PropOp29
 70
     1
102
RTVSPost2010Prop30
280
     1
102
RTVSPost2010PropOp30
 70
     1
102
RTVSPost2010Prop31
280
     0
102
RTVSPost2010PropOp31
 70
     1
102
RTVSPost2010Prop32
280
     0
102
RTVSPost2010PropOp32
 70
     1
102
RTVSPost2010Prop33
280
     0
102
RTVSPost2010PropOp33
 70
     1
102
RTVSPost2010Prop34
280
     0
102
RTVSPost2010PropOp34
 70
     1
102
RTVSPost2010Prop35
280
     0
102
RTVSPost2010PropOp35
 70
     1
102
RTVSPost2010Prop36
280
     0
102
RTVSPost2010PropOp36
 70
     1
102
RTVSPost2010Prop37
 90
       50
102
RTVSPost2010PropOp37
 70
     1
102
RTVSPost2010Prop38
140
0.0
102
RTVSPost2010PropOp38
 70
     1
102
RTVSPost2010Prop39
140
1.0
102
RTVSPost2010PropOp39
 70
     1
102
RTVSPost2010Prop40
 90
        0
102
RTVSPost2010PropOp40
 70
     1
102
RTVSPost2010Prop41ColorIndex
 90
       18
102
RTVSPost2010Prop41ColorRGB
 90
        0
102
RTVSPost2010PropOp41
 70
     1
102
RTVSPost2010Prop42
 90
       50
102
RTVSPost2010PropOp42
 70
     1
102
RTVSPost2010Prop43
 90
        3
102
RTVSPost2010PropOp43
 70
     1
102
RTVSPost2010Prop44ColorIndex
 90
        5
102
RTVSPost2010Prop44ColorRGB
 90
      255
102
RTVSPost2010PropOp44
 70
     1
102
RTVSPost2010Prop45
280
     0
102
RTVSPost2010PropOp45
 70
     1
102
RTVSPost2010Prop46
 90
       50
102
RTVSPost2010PropOp46
 70
     1
102
RTVSPost2010Prop47
 90
       50
102
RTVSPost2010PropOp47
 70
     1
102
RTVSPost2010Prop48
 90
       50
102
RTVSPost2010PropOp48
 70
     1
102
RTVSPost2010Prop49
280
     0
102
RTVSPost2010PropOp49
 70
     1
102
RTVSPost2010Prop50
 90
       50
102
RTVSPost2010PropOp50
 70
     1
102
RTVSPost2010Prop51ColorIndex
 90
      256
102
RTVSPost2010Prop51ColorRGB
 90
-16777216
102
RTVSPost2010PropOp51
 70
     0
102
RTVSPost2010Prop52
140
1.0
102
RTVSPost2010PropOp52
 70
     0
102
RTVSPost2010Prop53
 90
        2
102
RTVSPost2010PropOp53
 70
     1
102
RTVSPost2010Prop54
  1
strokes_ogs.tif
102
RTVSPost2010PropOp54
 70
     1
102
RTVSPost2010Prop55
280
     0
102
RTVSPost2010PropOp55
 70
     1
102
RTVSPost2010Prop56
140
1.0
102
RTVSPost2010PropOp56
 70
     1
102
RTVSPost2010Prop57
140
1.0
102
RTVSPost2010PropOp57
 70
     1
  0
XRECORD
  5
4DB
102
{ACAD_REACTORS
330
4DA
102
}
330
4DA
100
AcDbXrecord
280
     1
102
RTVSPropertyOp0
 70
     1
102
RTVSPropertyOp1
 70
     1
102
RTVSPropertyOp2
 70
     1
102
RTVSPropertyOp3
 70
     1
102
RTVSPropertyOp4
 70
     1
102
RTVSPropertyOp5
 70
     1
102
RTVSPropertyOp6
 70
     1
102
RTVSPropertyOp7
 70
     1
102
RTVSPropertyOp8
 70
     1
102
RTVSPropertyOp9
 70
     1
102
RTVSPropertyOp10
 70
     1
102
RTVSPropertyOp11
 70
     1
102
RTVSPropertyOp12
 70
     1
102
RTVSPropertyOp13
 70
     1
102
RTVSPropertyOp14
 70
     1
102
RTVSPropertyOp15
 70
     1
102
RTVSPropertyOp16
 70
     1
102
RTVSPropertyOp17
 70
     1
102
RTVSPropertyOp18
 70
     1
102
RTVSPropertyOp19
 70
     1
102
RTVSPropertyOp20
 70
     1
102
RTVSPropertyOp21
 70
     1
102
RTVSPropertyOp22
 70
     1
102
RTVSPropertyOp23
 70
     1
102
RTVSPropertyOp24
 70
     1
102
RTVSPropertyOp25
 70
     1
102
RTVSPropertyOp26
 70
     1
102
RTVSPropertyOp27
 70
     1
102
RTVSPropertyOp28
 70
     1
102
RTVSPropertyOp29
 70
     1
102
RTVSPropertyOp30
 70
     1
102
RTVSPropertyOp31
 70
     1
102
RTVSPropertyOp32
 70
     1
102
RTVSPropertyOp33
 70
     1
102
RTVSPropertyOp34
 70
     1
102
RTVSPropertyOp35
 70
     1
102
RTVSPropertyOp36
 70
     1
102
RTVSPropertyOp37
 70
     1
102
RTVSPropertyOp38
 70
     1
102
RTVSPropertyOp39
 70
     1
102
RTVSPropertyOp40
 70
     1
102
RTVSPropertyOp41
 70
     1
102
RTVSPropertyOp42
 70
     1
102
RTVSPropertyOp43
 70
     1
102
RTVSPropertyOp44
 70
     1
102
RTVSPropertyOp45
 70
     1
102
RTVSPropertyOp46
 70
     1
102
RTVSPropertyOp47
 70
     1
102
RTVSPropertyOp48
 70
     1
102
RTVSPropertyOp49
 70
     1
102
RTVSPropertyOp50
 70
     1
102
RTVSPropertyOp51
 70
     0
102
RTVSPropertyOp52
 70
     0
102
RTVSPropertyOp53
 70
     1
102
RTVSPropertyOp54
 70
     1
102
RTVSPropertyOp55
 70
     1
102
RTVSPropertyOp56
 70
     1
102
RTVSPropertyOp57
 70
     1
102
RTVSPost2010Prop28
280
     0
102
RTVSPost2010PropOp28
 70
     1
102
RTVSPost2010Prop29
280
     1
102
RTVSPost2010PropOp29
 70
     1
102
RTVSPost2010Prop30
280
     1
102
RTVSPost2010PropOp30
 70
     1
102
RTVSPost2010Prop31
280
     0
102
RTVSPost2010PropOp31
 70
     1
102
RTVSPost2010Prop32
280
     0
102
RTVSPost2010PropOp32
 70
     1
102
RTVSPost2010Prop33
280
     0
102
RTVSPost2010PropOp33
 70
     1
102
RTVSPost2010Prop34
280
     0
102
RTVSPost2010PropOp34
 70
     1
102
RTVSPost2010Prop35
280
     0
102
RTVSPost2010PropOp35
 70
     1
102
RTVSPost2010Prop36
280
     0
102
RTVSPost2010PropOp36
 70
     1
102
RTVSPost2010Prop37
 90
       50
102
RTVSPost2010PropOp37
 70
     1
102
RTVSPost2010Prop38
140
0.0
102
RTVSPost2010PropOp38
 70
     1
102
RTVSPost2010Prop39
140
1.0
102
RTVSPost2010PropOp39
 70
     1
102
RTVSPost2010Prop40
 90
        0
102
RTVSPost2010PropOp40
 70
     1
102
RTVSPost2010Prop41ColorIndex
 90
       18
102
RTVSPost2010Prop41ColorRGB
 90
        0
102
RTVSPost2010PropOp41
 70
     1
102
RTVSPost2010Prop42
 90
       50
102
RTVSPost2010PropOp42
 70
     1
102
RTVSPost2010Prop43
 90
        3
102
RTVSPost2010PropOp43
 70
     1
102
RTVSPost2010Prop44ColorIndex
 90
        5
102
RTVSPost2010Prop44ColorRGB
 90
      255
102
RTVSPost2010PropOp44
 70
     1
102
RTVSPost2010Prop45
280
     0
102
RTVSPost2010PropOp45
 70
     1
102
RTVSPost2010Prop46
 90
       50
102
RTVSPost2010PropOp46
 70
     1
102
RTVSPost2010Prop47
 90
       50
102
RTVSPost2010PropOp47
 70
     1
102
RTVSPost2010Prop48
 90
       50
102
RTVSPost2010PropOp48
 70
     1
102
RTVSPost2010Prop49
280
     0
102
RTVSPost2010PropOp49
 70
     1
102
RTVSPost2010Prop50
 90
       50
102
RTVSPost2010PropOp50
 70
     1
102
RTVSPost2010Prop51ColorIndex
 90
      256
102
RTVSPost2010Prop51ColorRGB
 90
-16777216
102
RTVSPost2010PropOp51
 70
     0
102
RTVSPost2010Prop52
140
1.0
102
RTVSPost2010PropOp52
 70
     0
102
RTVSPost2010Prop53
 90
        2
102
RTVSPost2010PropOp53
 70
     1
102
RTVSPost2010Prop54
  1
strokes_ogs.tif
102
RTVSPost2010PropOp54
 70
     1
102
RTVSPost2010Prop55
280
     0
102
RTVSPost2010PropOp55
 70
     1
102
RTVSPost2010Prop56
140
1.0
102
RTVSPost2010PropOp56
 70
     1
102
RTVSPost2010Prop57
140
1.0
102
RTVSPost2010PropOp57
 70
     1
  0
XRECORD
  5
4CD
102
{ACAD_REACTORS
330
4CC
102
}
330
4CC
100
AcDbXrecord
280
     1
102
RTVSPropertyOp0
 70
     1
102
RTVSPropertyOp1
 70
     1
102
RTVSPropertyOp2
 70
     1
102
RTVSPropertyOp3
 70
     1
102
RTVSPropertyOp4
 70
     1
102
RTVSPropertyOp5
 70
     1
102
RTVSPropertyOp6
 70
     1
102
RTVSPropertyOp7
 70
     1
102
RTVSPropertyOp8
 70
     1
102
RTVSPropertyOp9
 70
     1
102
RTVSPropertyOp10
 70
     1
102
RTVSPropertyOp11
 70
     1
102
RTVSPropertyOp12
 70
     1
102
RTVSPropertyOp13
 70
     1
102
RTVSPropertyOp14
 70
     1
102
RTVSPropertyOp15
 70
     1
102
RTVSPropertyOp16
 70
     1
102
RTVSPropertyOp17
 70
     1
102
RTVSPropertyOp18
 70
     1
102
RTVSPropertyOp19
 70
     1
102
RTVSPropertyOp20
 70
     1
102
RTVSPropertyOp21
 70
     1
102
RTVSPropertyOp22
 70
     1
102
RTVSPropertyOp23
 70
     1
102
RTVSPropertyOp24
 70
     1
102
RTVSPropertyOp25
 70
     1
102
RTVSPropertyOp26
 70
     1
102
RTVSPropertyOp27
 70
     1
102
RTVSPropertyOp28
 70
     1
102
RTVSPropertyOp29
 70
     1
102
RTVSPropertyOp30
 70
     1
102
RTVSPropertyOp31
 70
     1
102
RTVSPropertyOp32
 70
     1
102
RTVSPropertyOp33
 70
     1
102
RTVSPropertyOp34
 70
     1
102
RTVSPropertyOp35
 70
     1
102
RTVSPropertyOp36
 70
     1
102
RTVSPropertyOp37
 70
     1
102
RTVSPropertyOp38
 70
     1
102
RTVSPropertyOp39
 70
     1
102
RTVSPropertyOp40
 70
     1
102
RTVSPropertyOp41
 70
     1
102
RTVSPropertyOp42
 70
     1
102
RTVSPropertyOp43
 70
     1
102
RTVSPropertyOp44
 70
     1
102
RTVSPropertyOp45
 70
     1
102
RTVSPropertyOp46
 70
     1
102
RTVSPropertyOp47
 70
     1
102
RTVSPropertyOp48
 70
     1
102
RTVSPropertyOp49
 70
     1
102
RTVSPropertyOp50
 70
     1
102
RTVSPropertyOp51
 70
     0
102
RTVSPropertyOp52
 70
     0
102
RTVSPropertyOp53
 70
     1
102
RTVSPropertyOp54
 70
     1
102
RTVSPropertyOp55
 70
     1
102
RTVSPropertyOp56
 70
     1
102
RTVSPropertyOp57
 70
     1
102
RTVSPost2010Prop28
280
     0
102
RTVSPost2010PropOp28
 70
     1
102
RTVSPost2010Prop29
280
     1
102
RTVSPost2010PropOp29
 70
     1
102
RTVSPost2010Prop30
280
     1
102
RTVSPost2010PropOp30
 70
     1
102
RTVSPost2010Prop31
280
     0
102
RTVSPost2010PropOp31
 70
     1
102
RTVSPost2010Prop32
280
     0
102
RTVSPost2010PropOp32
 70
     1
102
RTVSPost2010Prop33
280
     0
102
RTVSPost2010PropOp33
 70
     1
102
RTVSPost2010Prop34
280
     0
102
RTVSPost2010PropOp34
 70
     1
102
RTVSPost2010Prop35
280
     0
102
RTVSPost2010PropOp35
 70
     1
102
RTVSPost2010Prop36
280
     0
102
RTVSPost2010PropOp36
 70
     1
102
RTVSPost2010Prop37
 90
       50
102
RTVSPost2010PropOp37
 70
     1
102
RTVSPost2010Prop38
140
0.0
102
RTVSPost2010PropOp38
 70
     1
102
RTVSPost2010Prop39
140
1.0
102
RTVSPost2010PropOp39
 70
     1
102
RTVSPost2010Prop40
 90
        0
102
RTVSPost2010PropOp40
 70
     1
102
RTVSPost2010Prop41ColorIndex
 90
       18
102
RTVSPost2010Prop41ColorRGB
 90
        0
102
RTVSPost2010PropOp41
 70
     1
102
RTVSPost2010Prop42
 90
       50
102
RTVSPost2010PropOp42
 70
     1
102
RTVSPost2010Prop43
 90
        3
102
RTVSPost2010PropOp43
 70
     1
102
RTVSPost2010Prop44ColorIndex
 90
        5
102
RTVSPost2010Prop44ColorRGB
 90
      255
102
RTVSPost2010PropOp44
 70
     1
102
RTVSPost2010Prop45
280
     0
102
RTVSPost2010PropOp45
 70
     1
102
RTVSPost2010Prop46
 90
       50
102
RTVSPost2010PropOp46
 70
     1
102
RTVSPost2010Prop47
 90
       50
102
RTVSPost2010PropOp47
 70
     1
102
RTVSPost2010Prop48
 90
       50
102
RTVSPost2010PropOp48
 70
     1
102
RTVSPost2010Prop49
280
     0
102
RTVSPost2010PropOp49
 70
     1
102
RTVSPost2010Prop50
 90
       50
102
RTVSPost2010PropOp50
 70
     1
102
RTVSPost2010Prop51ColorIndex
 90
      256
102
RTVSPost2010Prop51ColorRGB
 90
-16777216
102
RTVSPost2010PropOp51
 70
     0
102
RTVSPost2010Prop52
140
1.0
102
RTVSPost2010PropOp52
 70
     0
102
RTVSPost2010Prop53
 90
        2
102
RTVSPost2010PropOp53
 70
     1
102
RTVSPost2010Prop54
  1
strokes_ogs.tif
102
RTVSPost2010PropOp54
 70
     1
102
RTVSPost2010Prop55
280
     0
102
RTVSPost2010PropOp55
 70
     1
102
RTVSPost2010Prop56
140
1.0
102
RTVSPost2010PropOp56
 70
     1
102
RTVSPost2010Prop57
140
1.0
102
RTVSPost2010PropOp57
 70
     1
  0
XRECORD
  5
4ED
102
{ACAD_REACTORS
330
4EC
102
}
330
4EC
100
AcDbXrecord
280
     1
102
RTVSPropertyOp0
 70
     1
102
RTVSPropertyOp1
 70
     1
102
RTVSPropertyOp2
 70
     1
102
RTVSPropertyOp3
 70
     1
102
RTVSPropertyOp4
 70
     1
102
RTVSPropertyOp5
 70
     1
102
RTVSPropertyOp6
 70
     1
102
RTVSPropertyOp7
 70
     1
102
RTVSPropertyOp8
 70
     1
102
RTVSPropertyOp9
 70
     1
102
RTVSPropertyOp10
 70
     1
102
RTVSPropertyOp11
 70
     1
102
RTVSPropertyOp12
 70
     1
102
RTVSPropertyOp13
 70
     1
102
RTVSPropertyOp14
 70
     1
102
RTVSPropertyOp15
 70
     1
102
RTVSPropertyOp16
 70
     1
102
RTVSPropertyOp17
 70
     1
102
RTVSPropertyOp18
 70
     1
102
RTVSPropertyOp19
 70
     1
102
RTVSPropertyOp20
 70
     1
102
RTVSPropertyOp21
 70
     1
102
RTVSPropertyOp22
 70
     1
102
RTVSPropertyOp23
 70
     1
102
RTVSPropertyOp24
 70
     1
102
RTVSPropertyOp25
 70
     1
102
RTVSPropertyOp26
 70
     1
102
RTVSPropertyOp27
 70
     1
102
RTVSPropertyOp28
 70
     1
102
RTVSPropertyOp29
 70
     1
102
RTVSPropertyOp30
 70
     1
102
RTVSPropertyOp31
 70
     1
102
RTVSPropertyOp32
 70
     1
102
RTVSPropertyOp33
 70
     1
102
RTVSPropertyOp34
 70
     1
102
RTVSPropertyOp35
 70
     1
102
RTVSPropertyOp36
 70
     1
102
RTVSPropertyOp37
 70
     1
102
RTVSPropertyOp38
 70
     1
102
RTVSPropertyOp39
 70
     1
102
RTVSPropertyOp40
 70
     1
102
RTVSPropertyOp41
 70
     1
102
RTVSPropertyOp42
 70
     1
102
RTVSPropertyOp43
 70
     1
102
RTVSPropertyOp44
 70
     1
102
RTVSPropertyOp45
 70
     1
102
RTVSPropertyOp46
 70
     1
102
RTVSPropertyOp47
 70
     1
102
RTVSPropertyOp48
 70
     1
102
RTVSPropertyOp49
 70
     1
102
RTVSPropertyOp50
 70
     1
102
RTVSPropertyOp51
 70
     0
102
RTVSPropertyOp52
 70
     0
102
RTVSPropertyOp53
 70
     1
102
RTVSPropertyOp54
 70
     1
102
RTVSPropertyOp55
 70
     1
102
RTVSPropertyOp56
 70
     1
102
RTVSPropertyOp57
 70
     1
102
RTVSPost2010Prop28
280
     0
102
RTVSPost2010PropOp28
 70
     1
102
RTVSPost2010Prop29
280
     1
102
RTVSPost2010PropOp29
 70
     1
102
RTVSPost2010Prop30
280
     1
102
RTVSPost2010PropOp30
 70
     1
102
RTVSPost2010Prop31
280
     0
102
RTVSPost2010PropOp31
 70
     1
102
RTVSPost2010Prop32
280
     0
102
RTVSPost2010PropOp32
 70
     1
102
RTVSPost2010Prop33
280
     0
102
RTVSPost2010PropOp33
 70
     1
102
RTVSPost2010Prop34
280
     0
102
RTVSPost2010PropOp34
 70
     1
102
RTVSPost2010Prop35
280
     0
102
RTVSPost2010PropOp35
 70
     1
102
RTVSPost2010Prop36
280
     0
102
RTVSPost2010PropOp36
 70
     1
102
RTVSPost2010Prop37
 90
       50
102
RTVSPost2010PropOp37
 70
     1
102
RTVSPost2010Prop38
140
0.0
102
RTVSPost2010PropOp38
 70
     1
102
RTVSPost2010Prop39
140
1.0
102
RTVSPost2010PropOp39
 70
     1
102
RTVSPost2010Prop40
 90
        0
102
RTVSPost2010PropOp40
 70
     1
102
RTVSPost2010Prop41ColorIndex
 90
       18
102
RTVSPost2010Prop41ColorRGB
 90
        0
102
RTVSPost2010PropOp41
 70
     1
102
RTVSPost2010Prop42
 90
       50
102
RTVSPost2010PropOp42
 70
     1
102
RTVSPost2010Prop43
 90
        3
102
RTVSPost2010PropOp43
 70
     1
102
RTVSPost2010Prop44ColorIndex
 90
        5
102
RTVSPost2010Prop44ColorRGB
 90
      255
102
RTVSPost2010PropOp44
 70
     1
102
RTVSPost2010Prop45
280
     0
102
RTVSPost2010PropOp45
 70
     1
102
RTVSPost2010Prop46
 90
       50
102
RTVSPost2010PropOp46
 70
     1
102
RTVSPost2010Prop47
 90
       50
102
RTVSPost2010PropOp47
 70
     1
102
RTVSPost2010Prop48
 90
       50
102
RTVSPost2010PropOp48
 70
     1
102
RTVSPost2010Prop49
280
     0
102
RTVSPost2010PropOp49
 70
     1
102
RTVSPost2010Prop50
 90
       50
102
RTVSPost2010PropOp50
 70
     1
102
RTVSPost2010Prop51ColorIndex
 90
      256
102
RTVSPost2010Prop51ColorRGB
 90
-16777216
102
RTVSPost2010PropOp51
 70
     0
102
RTVSPost2010Prop52
140
1.0
102
RTVSPost2010PropOp52
 70
     0
102
RTVSPost2010Prop53
 90
        2
102
RTVSPost2010PropOp53
 70
     1
102
RTVSPost2010Prop54
  1
strokes_ogs.tif
102
RTVSPost2010PropOp54
 70
     1
102
RTVSPost2010Prop55
280
     0
102
RTVSPost2010PropOp55
 70
     1
102
RTVSPost2010Prop56
140
1.0
102
RTVSPost2010PropOp56
 70
     1
102
RTVSPost2010Prop57
140
1.0
102
RTVSPost2010PropOp57
 70
     1
  0
ENDSEC
  0
EOF
