  0
SECTION
  2
HEADER
  9
$ACADVER
  1
AC1015
  9
$ACADMAINTVER
 70
     6
  9
$DWGCODEPAGE
  3
ANSI_932
  9
$INSBASE
 10
1560.615283548487
 20
875.8040346208393
 30
0.0
  9
$EXTMIN
 10
174.801320209732
 20
-1.224395254205604
 30
0.0
  9
$EXTMAX
 10
1014.252191826401
 20
801.5428263167358
 30
0.0
  9
$LIMMIN
 10
0.0
 20
0.0
  9
$LIMMAX
 10
816.5000000000001
 20
565.0
  9
$ORTHOMODE
 70
     1
  9
$REGENMODE
 70
     1
  9
$FILLMODE
 70
     1
  9
$QTEXTMODE
 70
     0
  9
$MIRRTEXT
 70
     1
  9
$LTSCALE
 40
5.0
  9
$ATTMODE
 70
     1
  9
$TEXTSIZE
 40
9.0
  9
$TRACEWID
 40
0.05
  9
$TEXTSTYLE
  7
KANJI
  9
$CLAYER
  8
2
  9
$CELTYPE
  6
BYLAYER
  9
$CECOLOR
 62
   256
  9
$CELTSCALE
 40
1.0
  9
$DISPSILH
 70
     0
  9
$DIMSCALE
 40
3.0
  9
$DIMASZ
 40
2.0
  9
$DIMEXO
 40
0.5
  9
$DIMDLI
 40
0.0
  9
$DIMRND
 40
0.0
  9
$DIMDLE
 40
0.0
  9
$DIMEXE
 40
1.0
  9
$DIMTP
 40
0.0
  9
$DIMTM
 40
0.0
  9
$DIMTXT
 40
3.0
  9
$DIMCEN
 40
0.09
  9
$DIMTSZ
 40
0.0
  9
$DIMTOL
 70
     0
  9
$DIMLIM
 70
     0
  9
$DIMTIH
 70
     0
  9
$DIMTOH
 70
     0
  9
$DIMSE1
 70
     0
  9
$DIMSE2
 70
     0
  9
$DIMTAD
 70
     0
  9
$DIMZIN
 70
     8
  9
$DIMBLK
  1

  9
$DIMASO
 70
     0
  9
$DIMSHO
 70
     0
  9
$DIMPOST
  1

  9
$DIMAPOST
  1

  9
$DIMALT
 70
     0
  9
$DIMALTD
 70
     2
  9
$DIMALTF
 40
25.4
  9
$DIMLFAC
 40
1.0
  9
$DIMTOFL
 70
     1
  9
$DIMTVP
 40
1.0
  9
$DIMTIX
 70
     1
  9
$DIMSOXD
 70
     1
  9
$DIMSAH
 70
     0
  9
$DIMBLK1
  1

  9
$DIMBLK2
  1

  9
$DIMSTYLE
  2
STANDARD
  9
$DIMCLRD
 70
   256
  9
$DIMCLRE
 70
   256
  9
$DIMCLRT
 70
   256
  9
$DIMTFAC
 40
1.0
  9
$DIMGAP
 40
0.09
  9
$DIMJUST
 70
     0
  9
$DIMSD1
 70
     0
  9
$DIMSD2
 70
     0
  9
$DIMTOLJ
 70
     1
  9
$DIMTZIN
 70
     0
  9
$DIMALTZ
 70
     0
  9
$DIMALTTZ
 70
     0
  9
$DIMUPT
 70
     0
  9
$DIMDEC
 70
     1
  9
$DIMTDEC
 70
     4
  9
$DIMALTU
 70
     2
  9
$DIMALTTD
 70
     2
  9
$DIMTXSTY
  7
STANDARD
  9
$DIMAUNIT
 70
     0
  9
$DIMADEC
 70
     0
  9
$DIMALTRND
 40
0.0
  9
$DIMAZIN
 70
     0
  9
$DIMDSEP
 70
    46
  9
$DIMATFIT
 70
     3
  9
$DIMFRAC
 70
     0
  9
$DIMLDRBLK
  1

  9
$DIMLUNIT
 70
     2
  9
$DIMLWD
 70
    -2
  9
$DIMLWE
 70
    -2
  9
$DIMTMOVE
 70
     0
  9
$LUNITS
 70
     2
  9
$LUPREC
 70
     3
  9
$SKETCHINC
 40
0.1
  9
$FILLETRAD
 40
1.0
  9
$AUNITS
 70
     0
  9
$AUPREC
 70
     3
  9
$MENU
  1
C:\R13\WIN\SUPPORT\ACADFULL
  9
$ELEVATION
 40
0.0
  9
$PELEVATION
 40
0.0
  9
$THICKNESS
 40
0.0
  9
$LIMCHECK
 70
     0
  9
$CHAMFERA
 40
0.0
  9
$CHAMFERB
 40
0.0
  9
$CHAMFERC
 40
0.0
  9
$CHAMFERD
 40
0.0
  9
$SKPOLY
 70
     0
  9
$TDCREATE
 40
2457438.840215764
  9
$TDUCREATE
 40
2457438.465215764
  9
$TDUPDATE
 40
2457871.815226875
  9
$TDUUPDATE
 40
2457871.440226875
  9
$TDINDWG
 40
0.0088025347
  9
$TDUSRTIMER
 40
0.0088021991
  9
$USRTIMER
 70
     1
  9
$ANGBASE
 50
0.0
  9
$ANGDIR
 70
     0
  9
$PDMODE
 70
     0
  9
$PDSIZE
 40
0.0
  9
$PLINEWID
 40
0.0
  9
$SPLFRAME
 70
     0
  9
$SPLINETYPE
 70
     6
  9
$SPLINESEGS
 70
     8
  9
$HANDSEED
  5
4C3
  9
$SURFTAB1
 70
     6
  9
$SURFTAB2
 70
     6
  9
$SURFTYPE
 70
     6
  9
$SURFU
 70
     6
  9
$SURFV
 70
     6
  9
$UCSBASE
  2

  9
$UCSNAME
  2

  9
$UCSORG
 10
0.0
 20
0.0
 30
0.0
  9
$UCSXDIR
 10
1.0
 20
0.0
 30
0.0
  9
$UCSYDIR
 10
0.0
 20
1.0
 30
0.0
  9
$UCSORTHOREF
  2

  9
$UCSORTHOVIEW
 70
     0
  9
$UCSORGTOP
 10
0.0
 20
0.0
 30
0.0
  9
$UCSORGBOTTOM
 10
0.0
 20
0.0
 30
0.0
  9
$UCSORGLEFT
 10
0.0
 20
0.0
 30
0.0
  9
$UCSORGRIGHT
 10
0.0
 20
0.0
 30
0.0
  9
$UCSORGFRONT
 10
0.0
 20
0.0
 30
0.0
  9
$UCSORGBACK
 10
0.0
 20
0.0
 30
0.0
  9
$PUCSBASE
  2

  9
$PUCSNAME
  2

  9
$PUCSORG
 10
0.0
 20
0.0
 30
0.0
  9
$PUCSXDIR
 10
1.0
 20
0.0
 30
0.0
  9
$PUCSYDIR
 10
0.0
 20
1.0
 30
0.0
  9
$PUCSORTHOREF
  2

  9
$PUCSORTHOVIEW
 70
     0
  9
$PUCSORGTOP
 10
0.0
 20
0.0
 30
0.0
  9
$PUCSORGBOTTOM
 10
0.0
 20
0.0
 30
0.0
  9
$PUCSORGLEFT
 10
0.0
 20
0.0
 30
0.0
  9
$PUCSORGRIGHT
 10
0.0
 20
0.0
 30
0.0
  9
$PUCSORGFRONT
 10
0.0
 20
0.0
 30
0.0
  9
$PUCSORGBACK
 10
0.0
 20
0.0
 30
0.0
  9
$USERI1
 70
     0
  9
$USERI2
 70
     0
  9
$USERI3
 70
     0
  9
$USERI4
 70
     0
  9
$USERI5
 70
     0
  9
$USERR1
 40
0.0
  9
$USERR2
 40
0.0
  9
$USERR3
 40
0.0
  9
$USERR4
 40
2448925.372986111
  9
$USERR5
 40
0.04166667
  9
$WORLDVIEW
 70
     1
  9
$SHADEDGE
 70
     3
  9
$SHADEDIF
 70
    70
  9
$TILEMODE
 70
     1
  9
$MAXACTVP
 70
    16
  9
$PINSBASE
 10
0.0
 20
0.0
 30
0.0
  9
$PLIMCHECK
 70
     0
  9
$PEXTMIN
 10
1.000000000000000E+20
 20
1.000000000000000E+20
 30
1.000000000000000E+20
  9
$PEXTMAX
 10
-1.000000000000000E+20
 20
-1.000000000000000E+20
 30
-1.000000000000000E+20
  9
$PLIMMIN
 10
0.0
 20
0.0
  9
$PLIMMAX
 10
12.0
 20
9.0
  9
$UNITMODE
 70
     0
  9
$VISRETAIN
 70
     0
  9
$PLINEGEN
 70
     0
  9
$PSLTSCALE
 70
     0
  9
$TREEDEPTH
 70
  3020
  9
$CMLSTYLE
  2
STANDARD
  9
$CMLJUST
 70
     0
  9
$CMLSCALE
 40
1.0
  9
$PROXYGRAPHICS
 70
     1
  9
$MEASUREMENT
 70
     0
  9
$CELWEIGHT
370
    -1
  9
$ENDCAPS
280
     0
  9
$JOINSTYLE
280
     0
  9
$LWDISPLAY
290
     0
  9
$INSUNITS
 70
     0
  9
$HYPERLINKBASE
  1

  9
$STYLESHEET
  1

  9
$XEDIT
290
     1
  9
$CEPSNTYPE
380
     0
  9
$PSTYLEMODE
290
     1
  9
$FINGERPRINTGUID
  2
{3E3101BC-A858-4BAD-BC4E-AE39A5EB20E1}
  9
$VERSIONGUID
  2
{3AB7E9C5-E4C0-453A-8230-B3D4A8039594}
  9
$EXTNAMES
290
     1
  9
$PSVPSCALE
 40
0.0
  9
$OLESTARTUP
290
     0
  0
ENDSEC
  0
SECTION
  2
CLASSES
  0
CLASS
  1
ACDBDICTIONARYWDFLT
  2
AcDbDictionaryWithDefault
  3
ObjectDBX Classes
 90
        0
280
     0
281
     0
  0
CLASS
  1
MATERIAL
  2
AcDbMaterial
  3
ObjectDBX Classes
 90
     1153
280
     0
281
     0
  0
CLASS
  1
SORTENTSTABLE
  2
AcDbSortentsTable
  3
ObjectDBX Classes
 90
        0
280
     0
281
     0
  0
CLASS
  1
SCALE
  2
AcDbScale
  3
ObjectDBX Classes
 90
     1153
280
     0
281
     0
  0
CLASS
  1
DICTIONARYVAR
  2
AcDbDictionaryVar
  3
ObjectDBX Classes
 90
        0
280
     0
281
     0
  0
CLASS
  1
VISUALSTYLE
  2
AcDbVisualStyle
  3
ObjectDBX Classes
 90
     4095
280
     0
281
     0
  0
CLASS
  1
MLEADERSTYLE
  2
AcDbMLeaderStyle
  3
ACDB_MLEADERSTYLE_CLASS
 90
     4095
280
     0
281
     0
  0
CLASS
  1
TABLESTYLE
  2
AcDbTableStyle
  3
ObjectDBX Classes
 90
     4095
280
     0
281
     0
  0
CLASS
  1
ACDBPLACEHOLDER
  2
AcDbPlaceHolder
  3
ObjectDBX Classes
 90
        0
280
     0
281
     0
  0
CLASS
  1
LAYOUT
  2
AcDbLayout
  3
ObjectDBX Classes
 90
        0
280
     0
281
     0
  0
ENDSEC
  0
SECTION
  2
TABLES
  0
TABLE
  2
VPORT
  5
2A
102
{ACAD_XDICTIONARY
360
488
102
}
330
0
100
AcDbSymbolTable
 70
     1
  0
VPORT
  5
2F
330
2A
100
AcDbSymbolTableRecord
100
AcDbViewportTableRecord
  2
*ACTIVE
 70
     0
 10
0.0
 20
0.0
 11
1.0
 21
1.0
 12
1090.688437431221
 22
336.6184122589255
 13
0.0
 23
0.0
 14
1.0
 24
1.0
 15
50.0
 25
50.0
 16
0.0
 26
0.0
 36
1.0
 17
0.0
 27
0.0
 37
0.0
 40
1082.161460342719
 41
2.177611940298507
 42
50.0
 43
0.0
 44
0.0
 50
0.0
 51
0.0
 71
     0
 72
  5000
 73
     1
 74
     0
 75
     0
 76
     0
 77
     0
 78
     0
281
     0
 65
     1
110
0.0
120
0.0
130
0.0
111
1.0
121
0.0
131
0.0
112
0.0
122
1.0
132
0.0
 79
     0
146
0.0
1001
ACAD_NAV_VCDISPLAY
1070
     3
  0
ENDTAB
  0
TABLE
  2
LTYPE
  5
D
330
0
100
AcDbSymbolTable
 70
     2
  0
LTYPE
  5
E
330
D
100
AcDbSymbolTableRecord
100
AcDbLinetypeTableRecord
  2
BYBLOCK
 70
     0
  3

 72
    65
 73
     0
 40
0.0
  0
LTYPE
  5
F
330
D
100
AcDbSymbolTableRecord
100
AcDbLinetypeTableRecord
  2
BYLAYER
 70
     0
  3

 72
    65
 73
     0
 40
0.0
  0
LTYPE
  5
C
330
D
100
AcDbSymbolTableRecord
100
AcDbLinetypeTableRecord
  2
CONTINUOUS
 70
     0
  3
Solid line
 72
    65
 73
     0
 40
0.0
  0
LTYPE
  5
105
330
D
100
AcDbSymbolTableRecord
100
AcDbLinetypeTableRecord
  2
CENTER
 70
     0
  3
____ _ ____ _ ____ _ ____ _ ____ _ ____ _ ____
 72
    65
 73
     4
 40
2.0
 49
1.25
 74
     0
 49
-0.25
 74
     0
 49
0.25
 74
     0
 49
-0.25
 74
     0
  0
ENDTAB
  0
TABLE
  2
LAYER
  5
2
330
0
100
AcDbSymbolTable
 70
     7
  0
LAYER
  5
1D
102
{ACAD_XDICTIONARY
360
1E
102
}
330
2
100
AcDbSymbolTableRecord
100
AcDbLayerTableRecord
  2
0
 70
     0
 62
     7
  6
CONTINUOUS
370
    -3
390
5
  0
LAYER
  5
1E1
102
{ACAD_XDICTIONARY
360
1E2
102
}
330
2
100
AcDbSymbolTableRecord
100
AcDbLayerTableRecord
  2
1
 70
     0
 62
     9
  6
CONTINUOUS
370
    -3
390
5
  0
LAYER
  5
1
102
{ACAD_XDICTIONARY
360
3
102
}
330
2
100
AcDbSymbolTableRecord
100
AcDbLayerTableRecord
  2
2
 70
     0
 62
     4
  6
CONTINUOUS
370
    -3
390
5
  0
LAYER
  5
9B
102
{ACAD_XDICTIONARY
360
9C
102
}
330
2
100
AcDbSymbolTableRecord
100
AcDbLayerTableRecord
  2
4
 70
     0
 62
     3
  6
CONTINUOUS
370
    -3
390
5
  0
LAYER
  5
102
102
{ACAD_XDICTIONARY
360
103
102
}
330
2
100
AcDbSymbolTableRecord
100
AcDbLayerTableRecord
  2
L-CENTER
 70
     0
 62
     1
  6
CENTER
370
    -3
390
5
  0
LAYER
  5
59
102
{ACAD_XDICTIONARY
360
5A
102
}
330
2
100
AcDbSymbolTableRecord
100
AcDbLayerTableRecord
  2
3
 70
     0
 62
     2
  6
CONTINUOUS
370
    -3
390
5
  0
LAYER
  5
1DB
330
2
100
AcDbSymbolTableRecord
100
AcDbLayerTableRecord
  2
5
 70
     0
 62
     6
  6
CONTINUOUS
370
    -3
390
5
  0
ENDTAB
  0
TABLE
  2
STYLE
  5
11
330
0
100
AcDbSymbolTable
 70
     2
  0
STYLE
  5
15
330
11
100
AcDbSymbolTableRecord
100
AcDbTextStyleTableRecord
  2
STANDARD
 70
     0
 40
0.0
 41
1.0
 50
0.0
 71
     0
 42
5.4
  3
TXT
  4

  0
STYLE
  5
10
330
11
100
AcDbSymbolTableRecord
100
AcDbTextStyleTableRecord
  2
KANJI
 70
     0
 40
0.0
 41
1.0
 50
0.0
 71
     0
 42
9.0
  3
TXT
  4
BIGFONT
  0
ENDTAB
  0
TABLE
  2
VIEW
  5
28
330
0
100
AcDbSymbolTable
 70
     0
  0
ENDTAB
  0
TABLE
  2
UCS
  5
29
330
0
100
AcDbSymbolTable
 70
     0
  0
ENDTAB
  0
TABLE
  2
APPID
  5
B
330
0
100
AcDbSymbolTable
 70
     4
  0
APPID
  5
A
330
B
100
AcDbSymbolTableRecord
100
AcDbRegAppTableRecord
  2
ACAD
 70
     0
  0
APPID
  5
30
330
B
100
AcDbSymbolTableRecord
100
AcDbRegAppTableRecord
  2
ACAD_NAV_VCDISPLAY
 70
     0
  0
APPID
  5
23
330
B
100
AcDbSymbolTableRecord
100
AcDbRegAppTableRecord
  2
ACAD_PSEXT
 70
     0
  0
APPID
  5
47D
330
B
100
AcDbSymbolTableRecord
100
AcDbRegAppTableRecord
  2
ACAD_MLEADERVER
 70
     0
  0
ENDTAB
  0
TABLE
  2
DIMSTYLE
  5
14
330
0
100
AcDbSymbolTable
 70
     1
100
AcDbDimStyleTable
  0
DIMSTYLE
105
13
330
14
100
AcDbSymbolTableRecord
100
AcDbDimStyleTableRecord
  2
STANDARD
 70
     0
178
     0
340
15
  0
ENDTAB
  0
TABLE
  2
BLOCK_RECORD
  5
18
330
0
100
AcDbSymbolTable
 70
     0
  0
BLOCK_RECORD
  5
19
102
{ACAD_XDICTIONARY
360
1A
102
}
330
18
100
AcDbSymbolTableRecord
100
AcDbBlockTableRecord
  2
*MODEL_SPACE
340
21
  0
BLOCK_RECORD
  5
24
330
18
100
AcDbSymbolTableRecord
100
AcDbBlockTableRecord
  2
*PAPER_SPACE
340
27
  0
ENDTAB
  0
ENDSEC
  0
SECTION
  2
BLOCKS
  0
BLOCK
  5
1C
330
19
100
AcDbEntity
  8
0
100
AcDbBlockBegin
  2
*MODEL_SPACE
 70
     0
 10
0.0
 20
0.0
 30
0.0
  3
*MODEL_SPACE
  1

  0
ENDBLK
  5
20
330
19
100
AcDbEntity
  8
0
100
AcDbBlockEnd
  0
BLOCK
  5
25
330
24
100
AcDbEntity
 67
     1
  8
0
100
AcDbBlockBegin
  2
*PAPER_SPACE
 70
     0
 10
0.0
 20
0.0
 30
0.0
  3
*PAPER_SPACE
  1

  0
ENDBLK
  5
26
330
24
100
AcDbEntity
 67
     1
  8
0
100
AcDbBlockEnd
  0
ENDSEC
  0
SECTION
  2
ENTITIES
  0
ARC
  5
9A
330
19
100
AcDbEntity
  8
4
100
AcDbCircle
 10
469.9575198392829
 20
252.8445473891172
 30
0.0
 40
19.0
100
AcDbArc
 50
105.2575232904556
 51
74.74247670954361
  0
LINE
  5
9E
330
19
100
AcDbEntity
  8
4
100
AcDbLine
 10
474.9575198392829
 20
275.3445473891172
 30
0.0
 11
474.9575198392829
 21
267.3445473891172
 31
0.0
  0
LINE
  5
9F
330
19
100
AcDbEntity
  8
4
100
AcDbLine
 10
464.9575198392831
 20
275.3445473891172
 30
0.0
 11
464.9575198392833
 21
267.3445473891172
 31
0.0
  0
LINE
  5
A0
330
19
100
AcDbEntity
  8
4
100
AcDbLine
 10
464.9575198392833
 20
267.3445473891172
 30
0.0
 11
474.9575198392829
 21
267.3445473891172
 31
0.0
  0
LINE
  5
A1
330
19
100
AcDbEntity
  8
4
100
AcDbLine
 10
464.9575198392831
 20
275.3445473891172
 30
0.0
 11
474.9575198392829
 21
275.3445473891172
 31
0.0
  0
CIRCLE
  5
A2
330
19
100
AcDbEntity
  8
4
100
AcDbCircle
 10
469.9575198392829
 20
252.8445473891172
 30
0.0
 40
31.0
  0
LINE
  5
B4
330
19
100
AcDbEntity
  8
4
100
AcDbLine
 10
740.2521918264006
 20
271.8445473891172
 30
0.0
 11
739.2521918264006
 21
270.8445473891172
 31
0.0
  0
LINE
  5
B5
330
19
100
AcDbEntity
  8
4
100
AcDbLine
 10
832.2521918264007
 20
272.8445473891172
 30
0.0
 11
814.2521918264001
 21
272.8445473891172
 31
0.0
  0
LINE
  5
B6
330
19
100
AcDbEntity
  8
4
100
AcDbLine
 10
833.2521918264006
 20
283.8445473891172
 30
0.0
 11
832.2521918264006
 21
283.8445473891172
 31
0.0
  0
LINE
  5
B7
330
19
100
AcDbEntity
  8
4
100
AcDbLine
 10
809.252191826401
 20
271.8445473891172
 30
0.0
 11
809.252191826401
 21
275.3445473891172
 31
0.0
  0
LINE
  5
B8
330
19
100
AcDbEntity
  8
4
100
AcDbLine
 10
809.252191826401
 20
275.3445473891172
 30
0.0
 11
739.2521918264006
 21
275.3445473891172
 31
0.0
  0
LINE
  5
B9
330
19
100
AcDbEntity
  8
4
100
AcDbLine
 10
814.2521918264001
 20
271.8445473891172
 30
0.0
 11
740.2521918264006
 21
271.8445473891172
 31
0.0
  0
LINE
  5
BA
330
19
100
AcDbEntity
  8
4
100
AcDbLine
 10
739.2521918264006
 20
234.8445473891172
 30
0.0
 11
740.2521918264006
 21
233.8445473891172
 31
0.0
  0
LINE
  5
BB
330
19
100
AcDbEntity
  8
4
100
AcDbLine
 10
832.2521918264009
 20
232.8445473891172
 30
0.0
 11
814.2521918264001
 21
232.8445473891172
 31
0.0
  0
LINE
  5
BC
330
19
100
AcDbEntity
  8
4
100
AcDbLine
 10
833.2521918264006
 20
221.8445473891172
 30
0.0
 11
832.252191826401
 21
221.8445473891172
 31
0.0
  0
LINE
  5
BD
330
19
100
AcDbEntity
  8
4
100
AcDbLine
 10
814.2521918264001
 20
233.8445473891172
 30
0.0
 11
740.2521918264006
 21
233.8445473891172
 31
0.0
  0
LINE
  5
BE
330
19
100
AcDbEntity
  8
4
100
AcDbLine
 10
832.252191826401
 20
221.8445473891172
 30
0.0
 11
832.2521918264006
 21
283.8445473891172
 31
0.0
  0
LINE
  5
BF
330
19
100
AcDbEntity
  8
4
100
AcDbLine
 10
814.252191826401
 20
232.8445473891172
 30
0.0
 11
814.252191826401
 21
272.8445473891172
 31
0.0
  0
LINE
  5
C0
330
19
100
AcDbEntity
  8
4
100
AcDbLine
 10
739.2521918264006
 20
234.8445473891172
 30
0.0
 11
739.2521918264003
 21
275.3445473891172
 31
0.0
  0
LINE
  5
C1
330
19
100
AcDbEntity
  8
4
100
AcDbLine
 10
740.2521918264006
 20
271.8445473891172
 30
0.0
 11
740.2521918264006
 21
233.8445473891172
 31
0.0
  0
LINE
  5
C2
330
19
100
AcDbEntity
  8
4
100
AcDbLine
 10
474.9575198392829
 20
527.542826316736
 30
0.0
 11
488.9575198392829
 21
527.542826316736
 31
0.0
  0
LINE
  5
C3
330
19
100
AcDbEntity
  8
4
100
AcDbLine
 10
487.9575198392829
 20
526.542826316736
 30
0.0
 11
488.9575198392829
 21
527.542826316736
 31
0.0
  0
LINE
  5
C4
330
19
100
AcDbEntity
  8
4
100
AcDbLine
 10
450.9575198392829
 20
527.542826316736
 30
0.0
 11
464.9575198392829
 21
527.542826316736
 31
0.0
  0
LINE
  5
C5
330
19
100
AcDbEntity
  8
4
100
AcDbLine
 10
450.9575198392829
 20
527.542826316736
 30
0.0
 11
451.9575198392829
 21
526.542826316736
 31
0.0
  0
LINE
  5
C6
330
19
100
AcDbEntity
  8
4
100
AcDbLine
 10
451.9575198392829
 20
526.542826316736
 30
0.0
 11
487.9575198392829
 21
526.542826316736
 31
0.0
  0
LINE
  5
C7
330
19
100
AcDbEntity
  8
4
100
AcDbLine
 10
469.9575198392829
 20
596.542826316736
 30
0.0
 11
469.9575198392829
 21
596.542826316736
 31
0.0
  0
ARC
  5
C8
330
19
100
AcDbEntity
  8
4
100
AcDbCircle
 10
469.957519839283
 20
591.542826316736
 30
0.0
 40
5.0
100
AcDbArc
 50
0.0
 51
90.0
  0
ARC
  5
C9
330
19
100
AcDbEntity
  8
4
100
AcDbCircle
 10
489.957519839283
 20
600.542826316736
 30
0.0
 40
1.0
100
AcDbArc
 50
90.0
 51
180.0
  0
ARC
  5
CA
330
19
100
AcDbEntity
  8
4
100
AcDbCircle
 10
449.957519839283
 20
600.542826316736
 30
0.0
 40
1.0
100
AcDbArc
 50
0.0
 51
90.0
  0
LINE
  5
CB
330
19
100
AcDbEntity
  8
4
100
AcDbLine
 10
449.9575198392829
 20
601.542826316736
 30
0.0
 11
489.9575198392829
 21
601.542826316736
 31
0.0
  0
ARC
  5
CC
330
19
100
AcDbEntity
  8
4
100
AcDbCircle
 10
469.957519839283
 20
591.542826316736
 30
0.0
 40
5.0
100
AcDbArc
 50
90.0
 51
180.0
  0
LINE
  5
CD
330
19
100
AcDbEntity
  8
4
100
AcDbLine
 10
500.9575198392828
 20
619.542826316736
 30
0.0
 11
500.9575198392827
 21
620.542826316736
 31
0.0
  0
LINE
  5
CE
330
19
100
AcDbEntity
  8
4
100
AcDbLine
 10
438.9575198392828
 20
619.542826316736
 30
0.0
 11
438.9575198392828
 21
620.542826316736
 31
0.0
  0
LINE
  5
CF
330
19
100
AcDbEntity
  8
4
100
AcDbLine
 10
500.9575198392827
 20
619.542826316736
 30
0.0
 11
438.9575198392828
 21
619.542826316736
 31
0.0
  0
LINE
  5
D0
330
19
100
AcDbEntity
  8
4
100
AcDbLine
 10
449.957519839283
 20
619.542826316736
 30
0.0
 11
449.9575198392829
 21
601.542826316736
 31
0.0
  0
LINE
  5
D1
330
19
100
AcDbEntity
  8
4
100
AcDbLine
 10
489.957519839283
 20
619.542826316736
 30
0.0
 11
489.9575198392829
 21
601.542826316736
 31
0.0
  0
LINE
  5
D2
330
19
100
AcDbEntity
  8
4
100
AcDbLine
 10
474.9575198392829
 20
591.542826316736
 30
0.0
 11
474.9575198392829
 21
526.542826316736
 31
0.0
  0
LINE
  5
D3
330
19
100
AcDbEntity
  8
4
100
AcDbLine
 10
464.9575198392829
 20
591.542826316736
 30
0.0
 11
464.9575198392829
 21
526.542826316736
 31
0.0
  0
LINE
  5
D4
330
19
100
AcDbEntity
  8
4
100
AcDbLine
 10
450.9575198392829
 20
600.542826316736
 30
0.0
 11
450.9575198392829
 21
527.542826316736
 31
0.0
  0
LINE
  5
D5
330
19
100
AcDbEntity
  8
4
100
AcDbLine
 10
488.9575198392829
 20
600.542826316736
 30
0.0
 11
488.9575198392829
 21
527.542826316736
 31
0.0
  0
LINE
  5
DD
330
19
100
AcDbEntity
  8
4
100
AcDbLine
 10
259.9575198392829
 20
146.3445473891172
 30
0.0
 11
259.9575198392829
 21
117.3445473891172
 31
0.0
  0
LINE
  5
DF
330
19
100
AcDbEntity
  8
4
100
AcDbLine
 10
260.9575198392829
 20
143.3445473891173
 30
0.0
 11
259.9575198392829
 21
142.3445473891173
 31
0.0
  0
LINE
  5
E0
330
19
100
AcDbEntity
  8
4
100
AcDbLine
 10
340.9575198392831
 20
147.3445473891172
 30
0.0
 11
319.9575198392829
 21
147.3445473891172
 31
0.0
  0
LINE
  5
E1
330
19
100
AcDbEntity
  8
4
100
AcDbLine
 10
314.9575198392829
 20
146.3445473891173
 30
0.0
 11
314.9575198392831
 21
143.3445473891173
 31
0.0
  0
LINE
  5
E2
330
19
100
AcDbEntity
  8
4
100
AcDbLine
 10
319.9575198392829
 20
143.3445473891173
 30
0.0
 11
260.9575198392829
 21
143.3445473891173
 31
0.0
  0
LINE
  5
E3
330
19
100
AcDbEntity
  8
4
100
AcDbLine
 10
314.9575198392829
 20
146.3445473891173
 30
0.0
 11
259.9575198392829
 21
146.3445473891172
 31
0.0
  0
LINE
  5
E4
330
19
100
AcDbEntity
  8
4
100
AcDbLine
 10
340.9575198392831
 20
112.3445473891172
 30
0.0
 11
319.9575198392829
 21
112.3445473891172
 31
0.0
  0
LINE
  5
E5
330
19
100
AcDbEntity
  8
4
100
AcDbLine
 10
319.9575198392829
 20
116.3445473891172
 30
0.0
 11
260.9575198392829
 21
116.3445473891172
 31
0.0
  0
LINE
  5
E6
330
19
100
AcDbEntity
  8
4
100
AcDbLine
 10
319.9575198392831
 20
147.3445473891172
 30
0.0
 11
319.9575198392831
 21
112.3445473891172
 31
0.0
  0
LINE
  5
E7
330
19
100
AcDbEntity
  8
4
100
AcDbLine
 10
259.9575198392829
 20
117.3445473891172
 30
0.0
 11
260.9575198392829
 21
116.3445473891172
 31
0.0
  0
LINE
  5
E8
330
19
100
AcDbEntity
  8
4
100
AcDbLine
 10
260.9575198392829
 20
143.3445473891173
 30
0.0
 11
260.9575198392829
 21
116.3445473891172
 31
0.0
  0
LINE
  5
EA
330
19
100
AcDbEntity
  8
4
100
AcDbLine
 10
260.9575198392829
 20
720.0428263167358
 30
0.0
 11
259.9575198392829
 21
719.0428263167358
 31
0.0
  0
LINE
  5
EB
330
19
100
AcDbEntity
  8
4
100
AcDbLine
 10
260.9575198392829
 20
720.0428263167358
 30
0.0
 11
260.9575198392829
 21
710.0428263167358
 31
0.0
  0
LINE
  5
EC
330
19
100
AcDbEntity
  8
4
100
AcDbLine
 10
339.957519839283
 20
724.0428263167358
 30
0.0
 11
319.9575198392829
 21
724.0428263167358
 31
0.0
  0
ARC
  5
ED
330
19
100
AcDbEntity
  8
4
100
AcDbCircle
 10
318.9575198392829
 20
721.0428263167358
 30
0.0
 40
1.0
100
AcDbArc
 50
270.0
 51
0.0
  0
LINE
  5
EE
330
19
100
AcDbEntity
  8
4
100
AcDbLine
 10
311.4575198392829
 20
710.0428263167358
 30
0.0
 11
259.9575198392829
 21
710.0428263167358
 31
0.0
  0
LINE
  5
EF
330
19
100
AcDbEntity
  8
4
100
AcDbLine
 10
318.9575198392829
 20
720.0428263167358
 30
0.0
 11
260.9575198392829
 21
720.0428263167358
 31
0.0
  0
LINE
  5
F0
330
19
100
AcDbEntity
  8
4
100
AcDbLine
 10
260.9575198392829
 20
693.0428263167358
 30
0.0
 11
259.9575198392829
 21
694.0428263167358
 31
0.0
  0
LINE
  5
F1
330
19
100
AcDbEntity
  8
4
100
AcDbLine
 10
260.9575198392829
 20
703.0428263167358
 30
0.0
 11
260.9575198392829
 21
693.0428263167363
 31
0.0
  0
LINE
  5
F2
330
19
100
AcDbEntity
  8
4
100
AcDbLine
 10
339.957519839283
 20
689.0428263167358
 30
0.0
 11
319.9575198392829
 21
689.0428263167358
 31
0.0
  0
ARC
  5
F3
330
19
100
AcDbEntity
  8
4
100
AcDbCircle
 10
318.9575198392829
 20
692.0428263167358
 30
0.0
 40
1.0
100
AcDbArc
 50
0.0
 51
90.0
  0
LINE
  5
F4
330
19
100
AcDbEntity
  8
4
100
AcDbLine
 10
318.9575198392829
 20
693.0428263167358
 30
0.0
 11
260.9575198392829
 21
693.0428263167358
 31
0.0
  0
LINE
  5
F5
330
19
100
AcDbEntity
  8
4
100
AcDbLine
 10
311.4575198392829
 20
703.0428263167358
 30
0.0
 11
259.9575198392829
 21
703.0428263167358
 31
0.0
  0
LINE
  5
F6
330
19
100
AcDbEntity
  8
4
100
AcDbLine
 10
319.9575198392829
 20
724.0428263167358
 30
0.0
 11
319.9575198392829
 21
689.0428263167358
 31
0.0
  0
LINE
  5
F7
330
19
100
AcDbEntity
  8
4
100
AcDbLine
 10
259.9575198392829
 20
719.0428263167358
 30
0.0
 11
259.9575198392829
 21
694.0428263167358
 31
0.0
  0
ARC
  5
F8
330
19
100
AcDbEntity
  8
4
100
AcDbCircle
 10
311.4575198392829
 20
706.5428263167358
 30
0.0
 40
3.5
100
AcDbArc
 50
270.0
 51
90.0
  0
LINE
  5
101
330
19
100
AcDbEntity
  8
L-CENTER
 48
3.0
100
AcDbLine
 10
197.5447762097322
 20
107.1010913891172
 30
0.0
 11
197.5447762097322
 21
152.5880033891174
 31
0.0
  0
ARC
  5
10B
330
19
100
AcDbEntity
  8
4
100
AcDbCircle
 10
197.5447762097322
 20
129.8445473891173
 30
0.0
 40
13.5
100
AcDbArc
 50
105.0261137591195
 51
74.9738862408805
  0
LINE
  5
10C
330
19
100
AcDbEntity
  8
4
100
AcDbLine
 10
201.0447762097322
 20
139.3445473891173
 30
0.0
 11
201.0447762097322
 21
146.3445473891173
 31
0.0
  0
LINE
  5
10E
330
19
100
AcDbEntity
  8
4
100
AcDbLine
 10
194.0447762097322
 20
139.3445473891173
 30
0.0
 11
194.0447762097322
 21
146.3445473891173
 31
0.0
  0
LINE
  5
111
330
19
100
AcDbEntity
  8
4
100
AcDbLine
 10
194.0447762097322
 20
139.3445473891173
 30
0.0
 11
201.0447762097322
 21
139.3445473891173
 31
0.0
  0
LINE
  5
114
330
19
100
AcDbEntity
  8
L-CENTER
 48
3.0
100
AcDbLine
 10
220.2882322097321
 20
129.8445473891173
 30
0.0
 11
174.801320209732
 21
129.8445473891173
 31
0.0
  0
LINE
  5
11B
330
19
100
AcDbEntity
  8
4
100
AcDbLine
 10
194.0447762097322
 20
146.3445473891173
 30
0.0
 11
201.0447762097322
 21
146.3445473891173
 31
0.0
  0
ARC
  5
146
330
19
100
AcDbEntity
  8
4
100
AcDbCircle
 10
469.9575198392829
 20
-47.15545261088278
 30
0.0
 40
430.0
100
AcDbArc
 50
74.94273554507615
 51
105.0572644549238
  0
LINE
  5
147
330
19
100
AcDbEntity
  8
4
100
AcDbLine
 10
370.3764851873216
 20
275.19345791918
 30
0.0
 11
419.3809169827839
 21
279.3527684063647
 31
0.0
  0
LINE
  5
14A
330
19
100
AcDbEntity
  8
4
100
AcDbLine
 10
352.6978880822942
 20
101.5426039929475
 30
0.0
 11
408.5270004647946
 21
101.5426039929475
 31
0.0
  0
ARC
  5
14B
330
19
100
AcDbEntity
  8
4
100
AcDbCircle
 10
469.9575198392829
 20
552.844547389117
 30
0.0
 40
430.0
100
AcDbArc
 50
254.9427355450761
 51
267.7720167040899
  0
LINE
  5
14C
330
19
100
AcDbEntity
  8
4
100
AcDbLine
 10
370.3764851873214
 20
230.4956368590542
 30
0.0
 11
419.3809169827839
 21
226.3363263718695
 31
0.0
  0
LINE
  5
14D
330
19
100
AcDbEntity
  8
4
100
AcDbLine
 10
348.2293959082613
 20
69.84454738911722
 30
0.0
 11
418.9575198392829
 21
69.84454738911722
 31
0.0
  0
LINE
  5
14E
330
19
100
AcDbEntity
  8
4
100
AcDbLine
 10
411.887152322307
 20
39.84454738911722
 30
0.0
 11
346.9575198392829
 21
39.84454738911722
 31
0.0
  0
ARC
  5
14F
330
19
100
AcDbEntity
  8
4
100
AcDbCircle
 10
469.9575198392829
 20
252.8445473891172
 30
0.0
 40
128.0
100
AcDbArc
 50
277.9021441181848
 51
262.0978558818151
  0
ARC
  5
150
330
19
100
AcDbEntity
  8
4
100
AcDbCircle
 10
469.9575198392829
 20
252.8445473891172
 30
0.0
 40
106.0
100
AcDbArc
 50
277.0114116271595
 51
262.9885883728406
  0
LINE
  5
151
330
19
100
AcDbEntity
  8
L-CENTER
 48
3.0
100
AcDbLine
 10
603.5693625153945
 20
129.8445473891172
 30
0.0
 11
255.5320830853875
 21
129.8445473891173
 31
0.0
  0
LINE
  5
152
330
19
100
AcDbEntity
  8
L-CENTER
 48
3.0
100
AcDbLine
 10
609.9575198392829
 20
252.8445473891172
 30
0.0
 11
329.9575198392829
 21
252.8445473891172
 31
0.0
  0
ARC
  5
153
330
19
100
AcDbEntity
  8
4
100
AcDbCircle
 10
341.9575198392829
 20
179.8445473891172
 30
0.0
 40
2.0
100
AcDbArc
 50
270.0
 51
329.6461908323774
  0
LINE
  5
154
330
19
100
AcDbEntity
  8
4
100
AcDbLine
 10
340.7610312647812
 20
226.5695745952685
 30
0.0
 11
350.2256586458166
 21
71.96675656490277
 31
0.0
  0
ARC
  5
155
330
19
100
AcDbEntity
  8
4
100
AcDbCircle
 10
769.9575198392827
 20
252.844547389117
 30
0.0
 40
430.0
100
AcDbArc
 50
164.9427355450761
 51
195.0572644549239
  0
LINE
  5
156
330
19
100
AcDbEntity
  8
4
100
AcDbLine
 10
346.9575198392829
 20
68.84454738911722
 30
0.0
 11
346.9575198392829
 21
39.84454738911722
 31
0.0
  0
LINE
  5
157
330
19
100
AcDbEntity
  8
L-CENTER
 48
3.0
100
AcDbLine
 10
384.9575198392829
 20
29.84454738911722
 30
0.0
 11
384.9575198392829
 21
79.84454738911722
 31
0.0
  0
LINE
  5
159
330
19
100
AcDbEntity
  8
4
100
AcDbLine
 10
340.9575198392829
 20
165.8445473891172
 30
0.0
 11
340.9575198392829
 21
93.84454738911722
 31
0.0
  0
LINE
  5
15A
330
19
100
AcDbEntity
  8
4
100
AcDbLine
 10
341.9575198392829
 20
177.8445473891172
 30
0.0
 11
341.9575198392829
 21
81.844547389117
 31
0.0
  0
LINE
  5
15B
330
19
100
AcDbEntity
  8
4
100
AcDbLine
 10
341.9575198392829
 20
81.844547389117
 30
0.0
 11
346.798990893541
 21
81.84454738911722
 31
0.0
  0
ARC
  5
15C
330
19
100
AcDbEntity
  8
4
100
AcDbCircle
 10
346.798990893541
 20
78.84454738911722
 30
0.0
 40
3.0
100
AcDbArc
 50
3.503217340862814
 51
90.0
  0
ARC
  5
15D
330
19
100
AcDbEntity
  8
4
100
AcDbCircle
 10
348.2293959082613
 20
71.84454738911722
 30
0.0
 40
2.0
100
AcDbArc
 50
270.0
 51
3.503217340862606
  0
ARC
  5
15E
330
19
100
AcDbEntity
  8
4
100
AcDbCircle
 10
347.9575198392829
 20
68.84454738911722
 30
0.0
 40
1.0
100
AcDbArc
 50
90.0
 51
180.0
  0
LINE
  5
15F
330
19
100
AcDbEntity
  8
4
100
AcDbLine
 10
348.2293959082613
 20
69.84454738911722
 30
0.0
 11
347.9575198392829
 21
69.84454738911722
 31
0.0
  0
LINE
  5
160
330
19
100
AcDbEntity
  8
4
100
AcDbLine
 10
341.9575198392829
 20
93.844547389117
 30
0.0
 11
340.9575198392829
 21
93.84454738911722
 31
0.0
  0
ARC
  5
161
330
19
100
AcDbEntity
  8
4
100
AcDbCircle
 10
359.549186639287
 20
142.4362141891215
 30
0.0
 40
5.0
100
AcDbArc
 50
195.0572644549256
 51
254.942735545077
  0
LINE
  5
162
330
19
100
AcDbEntity
  8
4
100
AcDbLine
 10
341.9575198392829
 20
165.8445473891172
 30
0.0
 11
340.9575198392829
 21
165.8445473891172
 31
0.0
  0
ARC
  5
163
330
19
100
AcDbEntity
  8
4
100
AcDbCircle
 10
769.9575198392829
 20
252.844547389117
 30
0.0
 40
430.0
100
AcDbArc
 50
164.9427355450761
 51
183.5032173408624
  0
ARC
  5
164
330
19
100
AcDbEntity
  8
4
100
AcDbCircle
 10
370.1227687974629
 20
227.5063847797678
 30
0.0
 40
3.0
100
AcDbArc
 50
85.14857887214049
 51
194.2410316353826
  0
ARC
  5
165
330
19
100
AcDbEntity
  8
4
100
AcDbCircle
 10
370.1227687974631
 20
278.1827099984662
 30
0.0
 40
3.0
100
AcDbArc
 50
165.7589683646174
 51
274.8514211278595
  0
ARC
  5
166
330
19
100
AcDbEntity
  8
4
100
AcDbCircle
 10
359.5491866392872
 20
363.2528805891129
 30
0.0
 40
5.0
100
AcDbArc
 50
105.057264454925
 51
164.942735545075
  0
LINE
  5
167
330
19
100
AcDbEntity
  8
4
100
AcDbLine
 10
986.5521918264008
 20
161.9435572901082
 30
0.0
 11
993.9426818021839
 21
206.5791898171165
 31
0.0
  0
LINE
  5
168
330
19
100
AcDbEntity
  8
4
100
AcDbLine
 10
986.5521918264008
 20
171.1263039378439
 30
0.0
 11
992.350355982669
 21
206.144919139067
 31
0.0
  0
LINE
  5
169
330
19
100
AcDbEntity
  8
4
100
AcDbLine
 10
968.2521918264006
 20
252.8445473891172
 30
0.0
 11
968.2521918264006
 21
129.8445473891172
 31
0.0
  0
LINE
  5
16A
330
19
100
AcDbEntity
  8
4
100
AcDbLine
 10
870.2521918264006
 20
252.8445473891172
 30
0.0
 11
870.2521918264006
 21
129.8445473891172
 31
0.0
  0
LINE
  5
16B
330
19
100
AcDbEntity
  8
4
100
AcDbLine
 10
869.2521918264006
 20
382.8445473891172
 30
0.0
 11
869.2521918264006
 21
124.8445473891172
 31
0.0
  0
LINE
  5
16C
330
19
100
AcDbEntity
  8
L-CENTER
 48
3.0
100
AcDbLine
 10
919.2521918264006
 20
395.4782448355206
 30
0.0
 11
919.2521918264005
 21
33.64813357966705
 31
0.0
  0
LINE
  5
16D
330
19
100
AcDbEntity
  8
4
100
AcDbLine
 10
986.5521918264003
 20
125.8445473891172
 30
0.0
 11
986.5521918264003
 21
379.8445473891172
 31
0.0
  0
LINE
  5
16E
330
19
100
AcDbEntity
  8
4
100
AcDbLine
 10
969.2521918264006
 20
382.8445473891172
 30
0.0
 11
969.252191826401
 21
122.8445473891172
 31
0.0
  0
LINE
  5
16F
330
19
100
AcDbEntity
  8
4
100
AcDbLine
 10
975.2521918264006
 20
124.8445473891172
 30
0.0
 11
975.2521918264006
 21
380.8445473891172
 31
0.0
  0
CIRCLE
  5
17A
330
19
100
AcDbEntity
  8
4
100
AcDbCircle
 10
469.9575198392829
 20
69.84454738911722
 30
0.0
 40
5.5
  0
CIRCLE
  5
17B
330
19
100
AcDbEntity
  8
2
100
AcDbCircle
 10
469.9575198392829
 20
69.84454738911722
 30
0.0
 40
6.577999999999975
  0
LINE
  5
17C
330
19
100
AcDbEntity
  8
2
 48
3.0
100
AcDbLine
 10
469.9575198392831
 20
73.3086490042549
 30
0.0
 11
466.9575198392829
 21
71.5765981966859
 31
0.0
  0
LINE
  5
17D
330
19
100
AcDbEntity
  8
2
 48
3.0
100
AcDbLine
 10
472.957519839283
 20
68.11249658154827
 30
0.0
 11
469.957519839283
 21
66.38044577397937
 31
0.0
  0
LINE
  5
2AF
330
19
100
AcDbEntity
  8
4
100
AcDbLine
 10
592.9575198392829
 20
796.5428263167358
 30
0.0
 11
592.9575198392831
 21
783.842826316736
 31
0.0
  0
ARC
  5
2B0
330
19
100
AcDbEntity
  8
4
100
AcDbCircle
 10
596.9575198392829
 20
772.842826316736
 30
0.0
 40
1.0
100
AcDbArc
 50
0.0
 51
90.0
  0
LINE
  5
2B1
330
19
100
AcDbEntity
  8
4
100
AcDbLine
 10
596.4575198392838
 20
783.842826316736
 30
0.0
 11
583.4575198392838
 21
783.842826316736
 31
0.0
  0
LINE
  5
2B2
330
19
100
AcDbEntity
  8
4
100
AcDbLine
 10
597.2075198392838
 20
775.842826316736
 30
0.0
 11
582.7075198392838
 21
775.842826316736
 31
0.0
  0
LINE
  5
2B3
330
19
100
AcDbEntity
  8
4
100
AcDbLine
 10
583.4575198392838
 20
775.842826316736
 30
0.0
 11
583.4575198392838
 21
783.842826316736
 31
0.0
  0
LINE
  5
2B4
330
19
100
AcDbEntity
  8
4
100
AcDbLine
 10
582.7075198392838
 20
773.842826316736
 30
0.0
 11
582.7075198392838
 21
775.842826316736
 31
0.0
  0
LINE
  5
2B5
330
19
100
AcDbEntity
  8
4
100
AcDbLine
 10
596.4575198392838
 20
775.842826316736
 30
0.0
 11
596.4575198392838
 21
783.842826316736
 31
0.0
  0
LINE
  5
2B6
330
19
100
AcDbEntity
  8
4
100
AcDbLine
 10
597.2075198392838
 20
773.842826316736
 30
0.0
 11
597.2075198392838
 21
775.842826316736
 31
0.0
  0
ARC
  5
2B7
330
19
100
AcDbEntity
  8
4
100
AcDbCircle
 10
587.9575198392829
 20
796.5428263167358
 30
0.0
 40
5.0
100
AcDbArc
 50
0.0
 51
90.0
  0
LINE
  5
2B8
330
19
100
AcDbEntity
  8
4
100
AcDbLine
 10
518.9575198392829
 20
796.5428263167358
 30
0.0
 11
518.9575198392829
 21
780.780531234769
 31
0.0
  0
LINE
  5
2B9
330
19
100
AcDbEntity
  8
4
100
AcDbLine
 10
512.1584878195215
 20
791.7059437225279
 30
0.0
 11
514.6200494061916
 21
782.6802179047371
 31
0.0
  0
LINE
  5
2BA
330
19
100
AcDbEntity
  8
4
100
AcDbLine
 10
496.9575198392829
 20
781.4428263167359
 30
0.0
 11
493.1951436016592
 21
773.842826316736
 31
0.0
  0
LINE
  5
2BB
330
19
100
AcDbEntity
  8
4
100
AcDbLine
 10
500.9575198392828
 20
793.4428263167359
 30
0.0
 11
500.9575198392827
 21
792.4428263167359
 31
0.0
  0
ARC
  5
2BC
330
19
100
AcDbEntity
  8
4
100
AcDbCircle
 10
511.1937239982838
 20
791.4428263167359
 30
0.0
 40
1.0
100
AcDbArc
 50
15.25511870304865
 51
90.0
  0
LINE
  5
2BD
330
19
100
AcDbEntity
  8
4
100
AcDbLine
 10
523.4575198392838
 20
780.0354492675555
 30
0.0
 11
516.2228774112837
 21
781.2333162925196
 31
0.0
  0
LINE
  5
2BE
330
19
100
AcDbEntity
  8
4
100
AcDbLine
 10
536.4575198392838
 20
783.842826316736
 30
0.0
 11
523.4575198392838
 21
783.842826316736
 31
0.0
  0
LINE
  5
2BF
330
19
100
AcDbEntity
  8
4
100
AcDbLine
 10
537.2075198392838
 20
775.842826316736
 30
0.0
 11
522.7075198392838
 21
775.842826316736
 31
0.0
  0
LINE
  5
2C0
330
19
100
AcDbEntity
  8
4
100
AcDbLine
 10
523.4575198392838
 20
775.842826316736
 30
0.0
 11
523.4575198392838
 21
783.842826316736
 31
0.0
  0
LINE
  5
2C1
330
19
100
AcDbEntity
  8
4
100
AcDbLine
 10
522.7075198392838
 20
773.842826316736
 30
0.0
 11
522.7075198392838
 21
775.842826316736
 31
0.0
  0
LINE
  5
2C2
330
19
100
AcDbEntity
  8
4
100
AcDbLine
 10
536.4575198392838
 20
775.842826316736
 30
0.0
 11
536.4575198392838
 21
783.842826316736
 31
0.0
  0
LINE
  5
2C3
330
19
100
AcDbEntity
  8
4
100
AcDbLine
 10
537.2075198392838
 20
773.842826316736
 30
0.0
 11
537.2075198392838
 21
775.842826316736
 31
0.0
  0
ARC
  5
2C4
330
19
100
AcDbEntity
  8
4
100
AcDbCircle
 10
516.5495770486671
 20
783.206452716321
 30
0.0
 40
2.0
100
AcDbArc
 50
195.2551187030478
 51
260.5986145193437
  0
LINE
  5
2C5
330
19
100
AcDbEntity
  8
4
100
AcDbLine
 10
420.9575198392833
 20
796.5428263167358
 30
0.0
 11
420.9575198392833
 21
780.7805312347685
 31
0.0
  0
LINE
  5
2C6
330
19
100
AcDbEntity
  8
4
100
AcDbLine
 10
442.9575198392829
 20
781.4428263167359
 30
0.0
 11
446.7198960769066
 21
773.842826316736
 31
0.0
  0
LINE
  5
2C7
330
19
100
AcDbEntity
  8
4
100
AcDbLine
 10
427.7565518590443
 20
791.7059437225279
 30
0.0
 11
425.294990272374
 21
782.6802179047371
 31
0.0
  0
ARC
  5
2C8
330
19
100
AcDbEntity
  8
4
100
AcDbCircle
 10
423.3654626298987
 20
783.206452716321
 30
0.0
 40
2.0
100
AcDbArc
 50
279.4013854806547
 51
344.7448812969518
  0
ARC
  5
2C9
330
19
100
AcDbEntity
  8
4
100
AcDbCircle
 10
428.721315680282
 20
791.4428263167359
 30
0.0
 40
1.0
100
AcDbArc
 50
90.0
 51
164.7448812969522
  0
LINE
  5
2CA
330
19
100
AcDbEntity
  8
4
100
AcDbLine
 10
438.9575198392828
 20
793.4428263167359
 30
0.0
 11
438.9575198392828
 21
792.4428263167359
 31
0.0
  0
LINE
  5
2CB
330
19
100
AcDbEntity
  8
4
100
AcDbLine
 10
416.457519839282
 20
780.035449267555
 30
0.0
 11
423.6921622672824
 21
781.2333162925196
 31
0.0
  0
LINE
  5
2CC
330
19
100
AcDbEntity
  8
4
100
AcDbLine
 10
416.457519839282
 20
783.842826316736
 30
0.0
 11
403.457519839282
 21
783.842826316736
 31
0.0
  0
LINE
  5
2CD
330
19
100
AcDbEntity
  8
4
100
AcDbLine
 10
417.207519839282
 20
775.842826316736
 30
0.0
 11
402.707519839282
 21
775.842826316736
 31
0.0
  0
LINE
  5
2CE
330
19
100
AcDbEntity
  8
4
100
AcDbLine
 10
403.457519839282
 20
775.842826316736
 30
0.0
 11
403.457519839282
 21
783.842826316736
 31
0.0
  0
LINE
  5
2CF
330
19
100
AcDbEntity
  8
4
100
AcDbLine
 10
402.707519839282
 20
773.842826316736
 30
0.0
 11
402.707519839282
 21
775.842826316736
 31
0.0
  0
LINE
  5
2D0
330
19
100
AcDbEntity
  8
4
100
AcDbLine
 10
416.457519839282
 20
775.842826316736
 30
0.0
 11
416.457519839282
 21
783.842826316736
 31
0.0
  0
LINE
  5
2D1
330
19
100
AcDbEntity
  8
4
100
AcDbLine
 10
417.207519839282
 20
773.842826316736
 30
0.0
 11
417.207519839282
 21
775.842826316736
 31
0.0
  0
LINE
  5
2D2
330
19
100
AcDbEntity
  8
4
100
AcDbLine
 10
511.1937239982838
 20
781.4428263167359
 30
0.0
 11
428.721315680282
 21
781.4428263167359
 31
0.0
  0
LINE
  5
2D3
330
19
100
AcDbEntity
  8
4
100
AcDbLine
 10
500.9575198392827
 20
793.4428263167359
 30
0.0
 11
438.9575198392828
 21
793.4428263167359
 31
0.0
  0
LINE
  5
2D4
330
19
100
AcDbEntity
  8
4
100
AcDbLine
 10
511.1937239982838
 20
792.4428263167359
 30
0.0
 11
428.721315680282
 21
792.4428263167359
 31
0.0
  0
ARC
  5
2D5
330
19
100
AcDbEntity
  8
4
100
AcDbCircle
 10
415.9575198392833
 20
796.5428263167358
 30
0.0
 40
5.0
100
AcDbArc
 50
0.0
 51
90.0
  0
ARC
  5
2D6
330
19
100
AcDbEntity
  8
4
100
AcDbCircle
 10
523.9575198392829
 20
796.5428263167358
 30
0.0
 40
5.0
100
AcDbArc
 50
90.0
 51
180.0
  0
LINE
  5
2D7
330
19
100
AcDbEntity
  8
4
100
AcDbLine
 10
587.9575198392829
 20
801.5428263167358
 30
0.0
 11
523.9575198392829
 21
801.5428263167358
 31
0.0
  0
ARC
  5
2D8
330
19
100
AcDbEntity
  8
4
100
AcDbCircle
 10
554.9575198392829
 20
771.5428263167358
 30
0.0
 40
9.0
100
AcDbArc
 50
14.80650691189566
 51
149.5459547618773
  0
LINE
  5
2D9
330
19
100
AcDbEntity
  8
L-CENTER
 48
3.0
100
AcDbLine
 10
570.0775198392828
 20
771.5428263167358
 30
0.0
 11
539.837519839283
 21
771.5428263167358
 31
0.0
  0
LINE
  5
2DA
330
19
100
AcDbEntity
  8
4
100
AcDbLine
 10
560.8585099382913
 20
773.842826316736
 30
0.0
 11
536.4575198392838
 21
777.8829902511624
 31
0.0
  0
LINE
  5
2DB
330
19
100
AcDbEntity
  8
4
100
AcDbLine
 10
597.9575198392831
 20
762.5428263167363
 30
0.0
 11
597.9575198392831
 21
756.5428263167358
 31
0.0
  0
LINE
  5
2DC
330
19
100
AcDbEntity
  8
4
100
AcDbLine
 10
597.9575198392831
 20
656.5428263167361
 30
0.0
 11
597.957519839283
 21
647.542826316736
 31
0.0
  0
LINE
  5
2DD
330
19
100
AcDbEntity
  8
4
100
AcDbLine
 10
599.9575198392829
 20
756.5428263167358
 30
0.0
 11
599.9575198392829
 21
656.5428263167361
 31
0.0
  0
CIRCLE
  5
2DE
330
19
100
AcDbEntity
  8
4
100
AcDbCircle
 10
469.9575198392829
 20
706.5428263167358
 30
0.0
 40
19.0
  0
CIRCLE
  5
2DF
330
19
100
AcDbEntity
  8
4
100
AcDbCircle
 10
469.9575198392829
 20
706.5428263167358
 30
0.0
 40
12.5
  0
LWPOLYLINE
  5
2E0
330
19
100
AcDbEntity
  8
4
100
AcDbPolyline
 90
        6
 70
     1
 43
0.0
 10
482.4575198392829
 20
706.5428263167358
 10
476.2075198392829
 20
717.3681438640414
 10
463.7075198392829
 20
717.3681438640414
 10
457.4575198392829
 20
706.5428263167358
 10
463.7075198392829
 20
695.7175087694303
 10
476.2075198392829
 20
695.7175087694303
  0
LINE
  5
2E1
330
19
100
AcDbEntity
  8
L-CENTER
 48
3.0
100
AcDbLine
 10
554.9575198392829
 20
786.6628263167357
 30
0.0
 11
554.9575198392829
 21
756.422826316736
 31
0.0
  0
LINE
  5
2E2
330
19
100
AcDbEntity
  8
4
100
AcDbLine
 10
597.9575198392829
 20
772.842826316736
 30
0.0
 11
597.9575198392829
 21
762.5428263167363
 31
0.0
  0
LINE
  5
2E3
330
19
100
AcDbEntity
  8
L-CENTER
 48
3.0
100
AcDbLine
 10
529.9575198392838
 20
750.6131446858443
 30
0.0
 11
529.9575198392838
 21
785.8138355153413
 31
0.0
  0
LINE
  5
2E4
330
19
100
AcDbEntity
  8
L-CENTER
 48
3.0
100
AcDbLine
 10
589.9575198392838
 20
750.6131446858443
 30
0.0
 11
589.9575198392838
 21
785.8138355153413
 31
0.0
  0
LINE
  5
2E5
330
19
100
AcDbEntity
  8
L-CENTER
 48
3.0
100
AcDbLine
 10
409.9575198392819
 20
750.6131446858443
 30
0.0
 11
409.9575198392819
 21
785.8138355153413
 31
0.0
  0
ARC
  5
2E8
330
19
100
AcDbEntity
  8
4
100
AcDbCircle
 10
587.9575198392829
 20
616.542826316736
 30
0.0
 40
5.0
100
AcDbArc
 50
270.0
 51
0.0
  0
LINE
  5
2E9
330
19
100
AcDbEntity
  8
4
100
AcDbLine
 10
518.9575198392829
 20
632.4178263167358
 30
0.0
 11
518.9575198392829
 21
616.542826316736
 31
0.0
  0
LINE
  5
2EA
330
19
100
AcDbEntity
  8
4
100
AcDbLine
 10
513.1584878195215
 20
621.2797089109439
 30
0.0
 11
515.9575198392829
 21
631.542826316736
 31
0.0
  0
ARC
  5
2EB
330
19
100
AcDbEntity
  8
4
100
AcDbCircle
 10
512.1937239982838
 20
621.542826316736
 30
0.0
 40
1.0
100
AcDbArc
 50
270.0
 51
344.7448812969451
  0
LINE
  5
2EC
330
19
100
AcDbEntity
  8
4
100
AcDbLine
 10
511.9575198392829
 20
642.042826316736
 30
0.0
 11
511.9575198392829
 21
631.542826316736
 31
0.0
  0
LINE
  5
2ED
330
19
100
AcDbEntity
  8
4
100
AcDbLine
 10
420.9575198392829
 20
632.417826316736
 30
0.0
 11
420.9575198392829
 21
616.5428263167362
 31
0.0
  0
LINE
  5
2EE
330
19
100
AcDbEntity
  8
4
100
AcDbLine
 10
426.7565518590443
 20
621.2797089109438
 30
0.0
 11
423.9575198392829
 21
631.542826316736
 31
0.0
  0
ARC
  5
2EF
330
19
100
AcDbEntity
  8
4
100
AcDbCircle
 10
427.7213156802825
 20
621.542826316736
 30
0.0
 40
1.0
100
AcDbArc
 50
195.2551187030612
 51
270.0
  0
LINE
  5
2F0
330
19
100
AcDbEntity
  8
4
100
AcDbLine
 10
427.957519839283
 20
642.042826316736
 30
0.0
 11
427.957519839283
 21
631.5428263167361
 31
0.0
  0
LINE
  5
2F1
330
19
100
AcDbEntity
  8
4
100
AcDbLine
 10
515.9575198392829
 20
631.542826316736
 30
0.0
 11
423.9575198392829
 21
631.542826316736
 31
0.0
  0
LINE
  5
2F2
330
19
100
AcDbEntity
  8
4
100
AcDbLine
 10
512.1937239982838
 20
620.542826316736
 30
0.0
 11
427.7213156802825
 21
620.542826316736
 31
0.0
  0
LINE
  5
2F3
330
19
100
AcDbEntity
  8
4
100
AcDbLine
 10
511.9575198392829
 20
642.042826316736
 30
0.0
 11
427.957519839283
 21
642.042826316736
 31
0.0
  0
ARC
  5
2F4
330
19
100
AcDbEntity
  8
4
100
AcDbCircle
 10
415.9575198392829
 20
616.5428263167362
 30
0.0
 40
5.0
100
AcDbArc
 50
270.0
 51
0.0
  0
ARC
  5
2F5
330
19
100
AcDbEntity
  8
4
100
AcDbCircle
 10
523.9575198392829
 20
616.542826316736
 30
0.0
 40
5.0
100
AcDbArc
 50
180.0
 51
270.0
  0
LINE
  5
2F6
330
19
100
AcDbEntity
  8
4
100
AcDbLine
 10
587.9575198392829
 20
611.542826316736
 30
0.0
 11
523.9575198392829
 21
611.542826316736
 31
0.0
  0
LINE
  5
2F7
330
19
100
AcDbEntity
  8
L-CENTER
 48
3.0
100
AcDbLine
 10
570.0775198392828
 20
641.542826316736
 30
0.0
 11
539.837519839283
 21
641.542826316736
 31
0.0
  0
LINE
  5
2F8
330
19
100
AcDbEntity
  8
L-CENTER
 48
3.0
100
AcDbLine
 10
554.9575198392829
 20
656.662826316736
 30
0.0
 11
554.9575198392829
 21
626.422826316736
 31
0.0
  0
ARC
  5
2F9
330
19
100
AcDbEntity
  8
4
100
AcDbCircle
 10
554.9575198392829
 20
641.542826316736
 30
0.0
 40
9.0
100
AcDbArc
 50
187.8264006103755
 51
24.69400880624743
  0
LINE
  5
2FA
330
19
100
AcDbEntity
  8
4
100
AcDbLine
 10
592.9575198392829
 20
647.5428263167361
 30
0.0
 11
592.9575198392829
 21
616.542826316736
 31
0.0
  0
LINE
  5
2FB
330
19
100
AcDbEntity
  8
4
100
AcDbLine
 10
515.9575198392829
 20
631.542826316736
 30
0.0
 11
570.8146626964262
 21
647.542826316736
 31
0.0
  0
LINE
  5
2FC
330
19
100
AcDbEntity
  8
4
100
AcDbLine
 10
446.1165198392829
 20
642.042826316736
 30
0.0
 11
447.9575198392829
 21
647.542826316736
 31
0.0
  0
LINE
  5
2FD
330
19
100
AcDbEntity
  8
4
100
AcDbLine
 10
493.7985198392829
 20
642.042826316736
 30
0.0
 11
491.9575198392829
 21
647.542826316736
 31
0.0
  0
LINE
  5
2FE
330
19
100
AcDbEntity
  8
4
100
AcDbLine
 10
346.9575198392829
 20
796.5428263167358
 30
0.0
 11
346.9575198392829
 21
783.842826316736
 31
0.0
  0
ARC
  5
2FF
330
19
100
AcDbEntity
  8
4
100
AcDbCircle
 10
379.9575198392829
 20
775.0056213018955
 30
0.0
 40
1.0
100
AcDbArc
 50
279.4013854806595
 51
0.0
  0
ARC
  5
300
330
19
100
AcDbEntity
  8
4
100
AcDbCircle
 10
381.9575198392829
 20
777.9428263167359
 30
0.0
 40
1.0
100
AcDbArc
 50
90.0
 51
180.0
  0
LINE
  5
301
330
19
100
AcDbEntity
  8
4
100
AcDbLine
 10
380.9575198392829
 20
777.9428263167359
 30
0.0
 11
380.9575198392829
 21
775.0056213018955
 31
0.0
  0
LINE
  5
302
330
19
100
AcDbEntity
  8
4
100
AcDbLine
 10
356.457519839282
 20
783.842826316736
 30
0.0
 11
343.457519839282
 21
783.842826316736
 31
0.0
  0
LINE
  5
303
330
19
100
AcDbEntity
  8
4
100
AcDbLine
 10
357.207519839282
 20
775.842826316736
 30
0.0
 11
342.707519839282
 21
775.842826316736
 31
0.0
  0
LINE
  5
304
330
19
100
AcDbEntity
  8
4
100
AcDbLine
 10
343.457519839282
 20
775.842826316736
 30
0.0
 11
343.457519839282
 21
783.842826316736
 31
0.0
  0
LINE
  5
305
330
19
100
AcDbEntity
  8
4
100
AcDbLine
 10
342.707519839282
 20
773.842826316736
 30
0.0
 11
342.707519839282
 21
775.842826316736
 31
0.0
  0
LINE
  5
306
330
19
100
AcDbEntity
  8
4
100
AcDbLine
 10
356.457519839282
 20
775.842826316736
 30
0.0
 11
356.457519839282
 21
783.842826316736
 31
0.0
  0
LINE
  5
307
330
19
100
AcDbEntity
  8
4
100
AcDbLine
 10
357.207519839282
 20
773.842826316736
 30
0.0
 11
357.207519839282
 21
775.842826316736
 31
0.0
  0
ARC
  5
308
330
19
100
AcDbEntity
  8
4
100
AcDbCircle
 10
342.9575198392829
 20
772.842826316736
 30
0.0
 40
1.0
100
AcDbArc
 50
90.0
 51
180.0
  0
ARC
  5
309
330
19
100
AcDbEntity
  8
4
100
AcDbCircle
 10
351.9575198392829
 20
796.5428263167358
 30
0.0
 40
5.0
100
AcDbArc
 50
90.0
 51
180.0
  0
LINE
  5
30A
330
19
100
AcDbEntity
  8
4
100
AcDbLine
 10
341.9575198392829
 20
762.5428263167358
 30
0.0
 11
341.9575198392829
 21
756.5428263167358
 31
0.0
  0
LINE
  5
30B
330
19
100
AcDbEntity
  8
4
100
AcDbLine
 10
341.9575198392829
 20
656.542826316736
 30
0.0
 11
341.9575198392829
 21
647.542826316736
 31
0.0
  0
LINE
  5
30C
330
19
100
AcDbEntity
  8
4
100
AcDbLine
 10
339.9575198392829
 20
756.5428263167358
 30
0.0
 11
339.9575198392829
 21
656.542826316736
 31
0.0
  0
LINE
  5
30D
330
19
100
AcDbEntity
  8
L-CENTER
 48
3.0
100
AcDbLine
 10
384.9575198392829
 20
786.6628263167362
 30
0.0
 11
384.9575198392829
 21
756.422826316736
 31
0.0
  0
LINE
  5
30E
330
19
100
AcDbEntity
  8
4
100
AcDbLine
 10
341.9575198392829
 20
772.842826316736
 30
0.0
 11
341.9575198392829
 21
762.5428263167358
 31
0.0
  0
LINE
  5
30F
330
19
100
AcDbEntity
  8
L-CENTER
 48
3.0
100
AcDbLine
 10
349.957519839282
 20
750.6131446858443
 30
0.0
 11
349.957519839282
 21
785.8138355153413
 31
0.0
  0
ARC
  5
310
330
19
100
AcDbEntity
  8
4
100
AcDbCircle
 10
351.9575198392829
 20
616.5428263167361
 30
0.0
 40
5.0
100
AcDbArc
 50
180.0
 51
270.0
  0
LINE
  5
311
330
19
100
AcDbEntity
  8
L-CENTER
 48
3.0
100
AcDbLine
 10
384.9575198392829
 20
656.6628263167361
 30
0.0
 11
384.9575198392829
 21
626.4228263167361
 31
0.0
  0
LINE
  5
312
330
19
100
AcDbEntity
  8
4
100
AcDbLine
 10
346.9575198392829
 20
647.5428263167358
 30
0.0
 11
346.9575198392829
 21
616.5428263167361
 31
0.0
  0
ARC
  5
313
330
19
100
AcDbEntity
  8
4
100
AcDbCircle
 10
384.9575198392829
 20
641.5428263167361
 30
0.0
 40
9.0
100
AcDbArc
 50
155.3059911937525
 51
352.1735993896245
  0
LINE
  5
314
330
19
100
AcDbEntity
  8
L-CENTER
 48
3.0
100
AcDbLine
 10
400.0775198392828
 20
641.5428263167361
 30
0.0
 11
369.837519839283
 21
641.5428263167361
 31
0.0
  0
LINE
  5
315
330
19
100
AcDbEntity
  8
4
100
AcDbLine
 10
415.9575198392829
 20
611.5428263167362
 30
0.0
 11
351.9575198392829
 21
611.5428263167361
 31
0.0
  0
LINE
  5
316
330
19
100
AcDbEntity
  8
4
100
AcDbLine
 10
341.9575198392829
 20
762.5428263167358
 30
0.0
 11
597.9575198392831
 21
762.5428263167363
 31
0.0
  0
LINE
  5
317
330
19
100
AcDbEntity
  8
L-CENTER
 48
3.0
100
AcDbLine
 10
605.7693979338287
 20
706.5428263167358
 30
0.0
 11
255.18482296806
 21
706.5428263167358
 31
0.0
  0
LINE
  5
318
330
19
100
AcDbEntity
  8
L-CENTER
 48
3.0
100
AcDbLine
 10
400.0775198392832
 20
771.5428263167358
 30
0.0
 11
369.837519839283
 21
771.5428263167358
 31
0.0
  0
LINE
  5
319
330
19
100
AcDbEntity
  8
4
100
AcDbLine
 10
415.9575198392833
 20
801.5428263167358
 30
0.0
 11
351.9575198392829
 21
801.5428263167358
 31
0.0
  0
ARC
  5
31A
330
19
100
AcDbEntity
  8
4
100
AcDbCircle
 10
384.9575198392829
 20
771.5428263167358
 30
0.0
 40
9.0
100
AcDbArc
 50
55.30786941466145
 51
165.1934930881043
  0
LINE
  5
31B
330
19
100
AcDbEntity
  8
4
100
AcDbLine
 10
599.9575198392829
 20
756.5428263167358
 30
0.0
 11
339.9575198392829
 21
756.5428263167358
 31
0.0
  0
LINE
  5
31C
330
19
100
AcDbEntity
  8
4
100
AcDbLine
 10
599.9575198392829
 20
656.542826316736
 30
0.0
 11
339.9575198392829
 21
656.542826316736
 31
0.0
  0
LINE
  5
31D
330
19
100
AcDbEntity
  8
4
100
AcDbLine
 10
597.957519839283
 20
647.542826316736
 30
0.0
 11
341.957519839283
 21
647.5428263167361
 31
0.0
  0
LINE
  5
31E
330
19
100
AcDbEntity
  8
4
100
AcDbLine
 10
423.9575198392829
 20
631.542826316736
 30
0.0
 11
369.1003769821396
 21
647.542826316736
 31
0.0
  0
LINE
  5
31F
330
19
100
AcDbEntity
  8
2
100
AcDbLine
 10
597.9575198392829
 20
762.842826316736
 30
0.0
 11
341.9575198392829
 21
762.842826316736
 31
0.0
  0
LINE
  5
320
330
19
100
AcDbEntity
  8
4
100
AcDbLine
 10
596.9575198392829
 20
773.842826316736
 30
0.0
 11
342.9575198392829
 21
773.842826316736
 31
0.0
  0
LINE
  5
321
330
19
100
AcDbEntity
  8
4
100
AcDbLine
 10
379.0565297402752
 20
773.842826316736
 30
0.0
 11
403.457519839282
 21
777.8829902511619
 31
0.0
  0
LINE
  5
322
330
19
100
AcDbEntity
  8
4
100
AcDbLine
 10
403.457519839282
 20
778.9428263167359
 30
0.0
 11
381.9575198392829
 21
778.9428263167359
 31
0.0
  0
LINE
  5
323
330
19
100
AcDbEntity
  8
L-CENTER
 48
3.0
100
AcDbLine
 10
469.9575198392829
 20
797.6826999868639
 30
0.0
 11
469.9575198392829
 21
522.2038623802498
 31
0.0
  0
LINE
  5
324
330
19
100
AcDbEntity
  8
4
100
AcDbLine
 10
938.2521918264006
 20
383.8445473891172
 30
0.0
 11
938.2521918264006
 21
384.8445473891172
 31
0.0
  0
ARC
  5
325
330
19
100
AcDbEntity
  8
4
100
AcDbCircle
 10
939.2521918264006
 20
383.8445473891172
 30
0.0
 40
1.0
100
AcDbArc
 50
180.0
 51
270.0
  0
LINE
  5
326
330
19
100
AcDbEntity
  8
4
100
AcDbLine
 10
931.7521918264006
 20
388.3445473891171
 30
0.0
 11
931.7521918264006
 21
386.3445473891171
 31
0.0
  0
LINE
  5
327
330
19
100
AcDbEntity
  8
4
100
AcDbLine
 10
931.252191826401
 20
386.3445473891171
 30
0.0
 11
931.252191826401
 21
384.8445473891172
 31
0.0
  0
LINE
  5
328
330
19
100
AcDbEntity
  8
4
100
AcDbLine
 10
930.2521918264006
 20
388.3445473891171
 30
0.0
 11
930.2521918264006
 21
392.3445473891172
 31
0.0
  0
ARC
  5
329
330
19
100
AcDbEntity
  8
4
100
AcDbCircle
 10
985.5521918264003
 20
379.8445473891172
 30
0.0
 40
1.0
100
AcDbArc
 50
0.0
 51
90.0
  0
LINE
  5
32A
330
19
100
AcDbEntity
  8
4
100
AcDbLine
 10
985.5521918264003
 20
380.8445473891172
 30
0.0
 11
969.2521918264001
 21
380.8445473891172
 31
0.0
  0
LINE
  5
32B
330
19
100
AcDbEntity
  8
4
100
AcDbLine
 10
996.5521918264003
 20
350.2675958432528
 30
0.0
 11
996.5521918264003
 21
363.2675958432528
 31
0.0
  0
LINE
  5
32C
330
19
100
AcDbEntity
  8
4
100
AcDbLine
 10
988.5521918264003
 20
349.5175958432528
 30
0.0
 11
988.5521918264003
 21
364.0175958432528
 31
0.0
  0
LINE
  5
32D
330
19
100
AcDbEntity
  8
2
100
AcDbLine
 10
986.5521918264003
 20
353.9391687185066
 30
0.0
 11
988.5521918264003
 21
355.9391687185066
 31
0.0
  0
LINE
  5
32E
330
19
100
AcDbEntity
  8
4
100
AcDbLine
 10
986.5521918264003
 20
349.5175958432528
 30
0.0
 11
988.5521918264003
 21
349.5175958432528
 31
0.0
  0
LINE
  5
32F
330
19
100
AcDbEntity
  8
2
100
AcDbLine
 10
986.5521918264003
 20
356.7675958432528
 30
0.0
 11
988.5521918264003
 21
358.7675958432528
 31
0.0
  0
LINE
  5
330
330
19
100
AcDbEntity
  8
4
100
AcDbLine
 10
986.5521918264003
 20
364.0175958432528
 30
0.0
 11
988.5521918264003
 21
364.0175958432528
 31
0.0
  0
LINE
  5
331
330
19
100
AcDbEntity
  8
L-CENTER
 48
3.0
100
AcDbLine
 10
963.3225101955086
 20
356.7675958432528
 30
0.0
 11
998.5232010250056
 21
356.7675958432528
 31
0.0
  0
LINE
  5
332
330
19
100
AcDbEntity
  8
4
100
AcDbLine
 10
988.5521918264003
 20
350.2675958432528
 30
0.0
 11
996.5521918264003
 21
350.2675958432528
 31
0.0
  0
LINE
  5
333
330
19
100
AcDbEntity
  8
4
100
AcDbLine
 10
988.5521918264003
 20
363.2675958432528
 30
0.0
 11
996.5521918264003
 21
363.2675958432528
 31
0.0
  0
LINE
  5
334
330
19
100
AcDbEntity
  8
4
100
AcDbLine
 10
1005.152191826401
 20
283.8445473891172
 30
0.0
 11
1006.152191826401
 21
283.8445473891172
 31
0.0
  0
ARC
  5
335
330
19
100
AcDbEntity
  8
4
100
AcDbCircle
 10
1004.152191826401
 20
294.0807515481181
 30
0.0
 40
1.0
100
AcDbArc
 50
0.0
 51
74.74488129694508
  0
ARC
  5
336
330
19
100
AcDbEntity
  8
4
100
AcDbCircle
 10
995.9158182259857
 20
299.4366045985014
 30
0.0
 40
2.0
100
AcDbArc
 50
189.4013854806563
 51
254.744881296942
  0
LINE
  5
337
330
19
100
AcDbEntity
  8
4
100
AcDbLine
 10
1004.415309232193
 20
295.0455153693558
 30
0.0
 11
993.797257594887
 21
297.9413476340756
 31
0.0
  0
ARC
  5
338
330
19
100
AcDbEntity
  8
4
100
AcDbCircle
 10
994.3234924064709
 20
299.870875276551
 30
0.0
 40
2.0
100
AcDbArc
 50
189.4013854806563
 51
254.744881296942
  0
LINE
  5
339
330
19
100
AcDbEntity
  8
4
100
AcDbLine
 10
996.5521918264003
 20
246.3445473891172
 30
0.0
 11
996.5521918264003
 21
259.3445473891172
 31
0.0
  0
LINE
  5
33A
330
19
100
AcDbEntity
  8
4
100
AcDbLine
 10
988.5521918264003
 20
245.5945473891172
 30
0.0
 11
988.5521918264003
 21
260.0945473891172
 31
0.0
  0
LINE
  5
33B
330
19
100
AcDbEntity
  8
2
100
AcDbLine
 10
986.5521918264003
 20
250.016120264371
 30
0.0
 11
988.5521918264003
 21
252.016120264371
 31
0.0
  0
LINE
  5
33C
330
19
100
AcDbEntity
  8
4
100
AcDbLine
 10
986.5521918264003
 20
245.5945473891172
 30
0.0
 11
988.5521918264003
 21
245.5945473891172
 31
0.0
  0
LINE
  5
33D
330
19
100
AcDbEntity
  8
2
100
AcDbLine
 10
986.5521918264003
 20
252.8445473891172
 30
0.0
 11
988.5521918264003
 21
254.8445473891172
 31
0.0
  0
LINE
  5
33E
330
19
100
AcDbEntity
  8
4
100
AcDbLine
 10
986.5521918264003
 20
260.0945473891172
 30
0.0
 11
988.5521918264003
 21
260.0945473891172
 31
0.0
  0
LINE
  5
33F
330
19
100
AcDbEntity
  8
4
100
AcDbLine
 10
988.5521918264003
 20
246.3445473891172
 30
0.0
 11
996.5521918264003
 21
246.3445473891172
 31
0.0
  0
LINE
  5
340
330
19
100
AcDbEntity
  8
4
100
AcDbLine
 10
988.5521918264003
 20
259.3445473891172
 30
0.0
 11
996.5521918264003
 21
259.3445473891172
 31
0.0
  0
LINE
  5
341
330
19
100
AcDbEntity
  8
4
100
AcDbLine
 10
992.5598660068849
 20
259.3445473891172
 30
0.0
 11
992.5598660068854
 21
297.6291679885824
 31
0.0
  0
ARC
  5
342
330
19
100
AcDbEntity
  8
4
100
AcDbCircle
 10
1004.152191826401
 20
211.6083432301164
 30
0.0
 40
1.0
100
AcDbArc
 50
285.2551187030549
 51
0.0
  0
LINE
  5
343
330
19
100
AcDbEntity
  8
4
100
AcDbLine
 10
1005.152191826401
 20
221.8445473891172
 30
0.0
 11
1006.1521918264
 21
221.8445473891172
 31
0.0
  0
ARC
  5
344
330
19
100
AcDbEntity
  8
4
100
AcDbCircle
 10
995.9158182259857
 20
206.2524901797328
 30
0.0
 40
2.0
100
AcDbArc
 50
105.2551187030581
 51
170.5986145193453
  0
LINE
  5
345
330
19
100
AcDbEntity
  8
4
100
AcDbLine
 10
995.3895834144014
 20
208.1820178222085
 30
0.0
 11
993.7972575948866
 21
207.7477471441589
 31
0.0
  0
ARC
  5
346
330
19
100
AcDbEntity
  8
4
100
AcDbCircle
 10
994.3234924064709
 20
205.8182195016834
 30
0.0
 40
2.0
100
AcDbArc
 50
105.2551187030581
 51
170.5986145193453
  0
LINE
  5
347
330
19
100
AcDbEntity
  8
4
100
AcDbLine
 10
1004.415309232193
 20
210.6435794088786
 30
0.0
 11
993.797257594887
 21
207.7477471441589
 31
0.0
  0
LINE
  5
348
330
19
100
AcDbEntity
  8
4
100
AcDbLine
 10
1005.152191826401
 20
211.6083432301164
 30
0.0
 11
1005.152191826401
 21
294.0807515481181
 31
0.0
  0
LINE
  5
349
330
19
100
AcDbEntity
  8
4
100
AcDbLine
 10
1006.1521918264
 20
221.8445473891172
 30
0.0
 11
1006.152191826401
 21
283.8445473891172
 31
0.0
  0
LINE
  5
34A
330
19
100
AcDbEntity
  8
4
100
AcDbLine
 10
992.5598660068854
 20
207.4102767110678
 30
0.0
 11
992.5598660068854
 21
246.3445473891172
 31
0.0
  0
LINE
  5
34B
330
19
100
AcDbEntity
  8
4
100
AcDbLine
 10
986.5521918264008
 20
334.5627908403931
 30
0.0
 11
992.350355982669
 21
299.5441756391674
 31
0.0
  0
LINE
  5
34C
330
19
100
AcDbEntity
  8
4
100
AcDbLine
 10
986.5521918264003
 20
343.745537488126
 30
0.0
 11
993.9426818021839
 21
299.109904961118
 31
0.0
  0
LINE
  5
34D
330
19
100
AcDbEntity
  8
4
100
AcDbLine
 10
861.2521918264006
 20
380.8445473891175
 30
0.0
 11
868.2521918264006
 21
380.8445473891175
 31
0.0
  0
ARC
  5
34E
330
19
100
AcDbEntity
  8
4
100
AcDbCircle
 10
861.2521918264006
 20
379.8445473891175
 30
0.0
 40
1.0
100
AcDbArc
 50
90.0
 51
180.0
  0
ARC
  5
34F
330
19
100
AcDbEntity
  8
4
100
AcDbCircle
 10
868.2521918264006
 20
381.8445473891175
 30
0.0
 40
1.0
100
AcDbArc
 50
270.0
 51
0.0
  0
LINE
  5
350
330
19
100
AcDbEntity
  8
4
100
AcDbLine
 10
906.7521918264008
 20
388.3445473891171
 30
0.0
 11
906.7521918264008
 21
386.3445473891171
 31
0.0
  0
LINE
  5
351
330
19
100
AcDbEntity
  8
4
100
AcDbLine
 10
907.2521918264006
 20
386.3445473891171
 30
0.0
 11
907.2521918264006
 21
384.8445473891172
 31
0.0
  0
LINE
  5
352
330
19
100
AcDbEntity
  8
4
100
AcDbLine
 10
908.2521918264008
 20
388.3445473891171
 30
0.0
 11
908.2521918264006
 21
392.3445473891172
 31
0.0
  0
LINE
  5
353
330
19
100
AcDbEntity
  8
4
100
AcDbLine
 10
900.2521918264006
 20
383.8445473891172
 30
0.0
 11
900.2521918264006
 21
384.8445473891172
 31
0.0
  0
ARC
  5
354
330
19
100
AcDbEntity
  8
4
100
AcDbCircle
 10
899.2521918264006
 20
383.8445473891172
 30
0.0
 40
1.0
100
AcDbArc
 50
270.0
 51
0.0
  0
LINE
  5
355
330
19
100
AcDbEntity
  8
4
100
AcDbLine
 10
860.2521918264006
 20
359.0588331034032
 30
0.0
 11
853.1896918264006
 21
334.8445473891172
 31
0.0
  0
LINE
  5
356
330
19
100
AcDbEntity
  8
4
100
AcDbLine
 10
853.2521918264006
 20
334.8445473891172
 30
0.0
 11
846.2521918264006
 21
334.8445473891175
 31
0.0
  0
ARC
  5
357
330
19
100
AcDbEntity
  8
4
100
AcDbCircle
 10
853.2521918264006
 20
336.8445473891172
 30
0.0
 40
2.0
100
AcDbArc
 50
270.0
 51
343.7397952916892
  0
ARC
  5
358
330
19
100
AcDbEntity
  8
4
100
AcDbCircle
 10
846.2521918264006
 20
332.8445473891175
 30
0.0
 40
2.0
100
AcDbArc
 50
90.0
 51
180.0
  0
LINE
  5
359
330
19
100
AcDbEntity
  8
4
100
AcDbLine
 10
475.9575198392829
 20
392.3445473891172
 30
0.0
 11
475.9575198392831
 21
388.3445473891171
 31
0.0
  0
LINE
  5
35A
330
19
100
AcDbEntity
  8
4
100
AcDbLine
 10
488.9575198392829
 20
384.8445473891172
 30
0.0
 11
488.9575198392829
 21
383.3802601935256
 31
0.0
  0
ARC
  5
35B
330
19
100
AcDbEntity
  8
4
100
AcDbCircle
 10
489.9575198392829
 20
383.3802601935256
 30
0.0
 40
1.0
100
AcDbArc
 50
180.0
 51
267.3403080275167
  0
LINE
  5
35C
330
19
100
AcDbEntity
  8
4
100
AcDbLine
 10
482.4575198392831
 20
392.3445473891172
 30
0.0
 11
482.4575198392829
 21
386.3445473891171
 31
0.0
  0
LINE
  5
35D
330
19
100
AcDbEntity
  8
4
100
AcDbLine
 10
481.9575198392831
 20
386.3445473891171
 30
0.0
 11
481.9575198392831
 21
384.8445473891172
 31
0.0
  0
LINE
  5
35E
330
19
100
AcDbEntity
  8
4
100
AcDbLine
 10
450.9575198392829
 20
384.8445473891172
 30
0.0
 11
450.9575198392829
 21
383.3802601935256
 31
0.0
  0
ARC
  5
35F
330
19
100
AcDbEntity
  8
4
100
AcDbCircle
 10
449.9575198392829
 20
383.3802601935256
 30
0.0
 40
1.0
100
AcDbArc
 50
272.6596919724732
 51
0.0
  0
LINE
  5
360
330
19
100
AcDbEntity
  8
4
100
AcDbLine
 10
457.4575198392829
 20
392.3445473891172
 30
0.0
 11
457.4575198392831
 21
386.3445473891171
 31
0.0
  0
LINE
  5
361
330
19
100
AcDbEntity
  8
4
100
AcDbLine
 10
463.9575198392829
 20
392.3445473891172
 30
0.0
 11
463.9575198392831
 21
388.3445473891171
 31
0.0
  0
LINE
  5
362
330
19
100
AcDbEntity
  8
4
100
AcDbLine
 10
457.9575198392829
 20
386.3445473891171
 30
0.0
 11
457.9575198392829
 21
384.8445473891172
 31
0.0
  0
LINE
  5
363
330
19
100
AcDbEntity
  8
4
100
AcDbLine
 10
488.9575198392829
 20
384.8445473891172
 30
0.0
 11
450.9575198392829
 21
384.8445473891172
 31
0.0
  0
LINE
  5
364
330
19
100
AcDbEntity
  8
4
100
AcDbLine
 10
482.4575198392829
 20
386.3445473891171
 30
0.0
 11
457.4575198392831
 21
386.3445473891171
 31
0.0
  0
LINE
  5
365
330
19
100
AcDbEntity
  8
4
100
AcDbLine
 10
482.4575198392831
 20
392.3445473891172
 30
0.0
 11
457.4575198392829
 21
392.3445473891172
 31
0.0
  0
LINE
  5
366
330
19
100
AcDbEntity
  8
4
100
AcDbLine
 10
482.4575198392829
 20
388.3445473891171
 30
0.0
 11
457.4575198392831
 21
388.3445473891171
 31
0.0
  0
LINE
  5
367
330
19
100
AcDbEntity
  8
4
100
AcDbLine
 10
492.3064303693459
 20
352.4255820410783
 30
0.0
 11
493.5655478271412
 21
337.5908309992585
 31
0.0
  0
ARC
  5
368
330
19
100
AcDbEntity
  8
4
100
AcDbCircle
 10
496.5547999064277
 20
337.844547389117
 30
0.0
 40
3.0
100
AcDbArc
 50
184.8514211278585
 51
270.0
  0
ARC
  5
369
330
19
100
AcDbEntity
  8
4
100
AcDbCircle
 10
495.2956824486323
 20
352.679298430937
 30
0.0
 40
3.0
100
AcDbArc
 50
75.75896836461767
 51
184.8514211278585
  0
LINE
  5
36A
330
19
100
AcDbEntity
  8
4
100
AcDbLine
 10
447.6086093092199
 20
352.4255820410783
 30
0.0
 11
446.3494918514243
 21
337.5908309992585
 31
0.0
  0
ARC
  5
36B
330
19
100
AcDbEntity
  8
4
100
AcDbCircle
 10
443.3602397721381
 20
337.844547389117
 30
0.0
 40
3.0
100
AcDbArc
 50
270.0
 51
355.1485788721415
  0
ARC
  5
36C
330
19
100
AcDbEntity
  8
4
100
AcDbCircle
 10
444.6193572299335
 20
352.679298430937
 30
0.0
 40
3.0
100
AcDbArc
 50
355.1485788721415
 51
104.2410316353823
  0
LINE
  5
36D
330
19
100
AcDbEntity
  8
4
100
AcDbLine
 10
429.9575198392829
 20
334.844547389117
 30
0.0
 11
509.9575198392829
 21
334.844547389117
 31
0.0
  0
ARC
  5
36E
330
19
100
AcDbEntity
  8
4
100
AcDbCircle
 10
504.4575198392831
 20
319.844547389117
 30
0.0
 40
3.0
100
AcDbArc
 50
90.0
 51
255.5224878140737
  0
ARC
  5
36F
330
19
100
AcDbEntity
  8
4
100
AcDbCircle
 10
500.9575198392829
 20
309.844547389117
 30
0.0
 40
5.0
100
AcDbArc
 50
270.0
 51
0.0
  0
LINE
  5
370
330
19
100
AcDbEntity
  8
4
100
AcDbLine
 10
504.9575198392829
 20
328.844547389117
 30
0.0
 11
488.9575198392829
 21
328.844547389117
 31
0.0
  0
LINE
  5
371
330
19
100
AcDbEntity
  8
4
100
AcDbLine
 10
487.9575198392829
 20
327.844547389117
 30
0.0
 11
487.9575198392829
 21
320.752874302309
 31
0.0
  0
ARC
  5
372
330
19
100
AcDbEntity
  8
4
100
AcDbCircle
 10
478.4575198392829
 20
314.844547389117
 30
0.0
 40
1.0
100
AcDbArc
 50
180.0
 51
270.0
  0
ARC
  5
373
330
19
100
AcDbEntity
  8
4
100
AcDbCircle
 10
478.4575198392829
 20
318.844547389117
 30
0.0
 40
1.0
100
AcDbArc
 50
90.0
 51
180.0
  0
ARC
  5
374
330
19
100
AcDbEntity
  8
4
100
AcDbCircle
 10
471.6767434328783
 20
305.8445473891168
 30
0.0
 40
1.0
100
AcDbArc
 50
270.0
 51
14.03624346792646
  0
LINE
  5
375
330
19
100
AcDbEntity
  8
4
100
AcDbLine
 10
483.4575198392829
 20
318.844547389117
 30
0.0
 11
483.4575198392829
 21
314.844547389117
 31
0.0
  0
ARC
  5
376
330
19
100
AcDbEntity
  8
4
100
AcDbCircle
 10
482.4575198392829
 20
314.844547389117
 30
0.0
 40
1.0
100
AcDbArc
 50
270.0
 51
0.0
  0
ARC
  5
377
330
19
100
AcDbEntity
  8
4
100
AcDbCircle
 10
482.4575198392829
 20
318.844547389117
 30
0.0
 40
1.0
100
AcDbArc
 50
0.0
 51
90.0
  0
ARC
  5
378
330
19
100
AcDbEntity
  8
4
100
AcDbCircle
 10
488.9575198392829
 20
305.844547389117
 30
0.0
 40
1.0
100
AcDbArc
 50
180.0
 51
270.0
  0
LINE
  5
379
330
19
100
AcDbEntity
  8
4
100
AcDbLine
 10
487.9575198392829
 20
309.936220475925
 30
0.0
 11
487.9575198392829
 21
305.844547389117
 31
0.0
  0
ARC
  5
37A
330
19
100
AcDbEntity
  8
4
100
AcDbCircle
 10
488.9575198392829
 20
320.752874302309
 30
0.0
 40
1.0
100
AcDbArc
 50
180.0
 51
259.5243183036038
  0
ARC
  5
37B
330
19
100
AcDbEntity
  8
4
100
AcDbCircle
 10
488.9575198392829
 20
309.936220475925
 30
0.0
 40
1.0
100
AcDbArc
 50
100.4756816963963
 51
180.0
  0
LINE
  5
37C
330
19
100
AcDbEntity
  8
4
100
AcDbLine
 10
477.4575198392829
 20
318.844547389117
 30
0.0
 11
477.4575198392829
 21
314.844547389117
 31
0.0
  0
LINE
  5
37D
330
19
100
AcDbEntity
  8
4
100
AcDbLine
 10
482.4575198392829
 20
319.844547389117
 30
0.0
 11
478.4575198392829
 21
319.844547389117
 31
0.0
  0
LINE
  5
37E
330
19
100
AcDbEntity
  8
4
100
AcDbLine
 10
482.4575198392829
 20
313.844547389117
 30
0.0
 11
478.4575198392829
 21
313.844547389117
 31
0.0
  0
ARC
  5
37F
330
19
100
AcDbEntity
  8
4
100
AcDbCircle
 10
487.9575198392829
 20
315.344547389117
 30
0.0
 40
4.5
100
AcDbArc
 50
280.4756816963973
 51
79.52431830360274
  0
LINE
  5
380
330
19
100
AcDbEntity
  8
4
100
AcDbLine
 10
500.9575198392829
 20
304.844547389117
 30
0.0
 11
488.9575198392829
 21
304.844547389117
 31
0.0
  0
ARC
  5
381
330
19
100
AcDbEntity
  8
4
100
AcDbCircle
 10
488.9575198392829
 20
327.844547389117
 30
0.0
 40
1.0
100
AcDbArc
 50
90.0
 51
180.0
  0
ARC
  5
382
330
19
100
AcDbEntity
  8
4
100
AcDbCircle
 10
504.9575198392829
 20
323.844547389117
 30
0.0
 40
1.0
100
AcDbArc
 50
270.0
 51
0.0
  0
LINE
  5
383
330
19
100
AcDbEntity
  8
4
100
AcDbLine
 10
505.9575198392829
 20
314.0350723698039
 30
0.0
 11
505.9575198392829
 21
309.844547389117
 31
0.0
  0
ARC
  5
384
330
19
100
AcDbEntity
  8
4
100
AcDbCircle
 10
502.9575198392829
 20
314.0350723698039
 30
0.0
 40
3.0
100
AcDbArc
 50
0.0
 51
75.5224878140737
  0
LINE
  5
385
330
19
100
AcDbEntity
  8
4
100
AcDbLine
 10
504.9575198392829
 20
322.844547389117
 30
0.0
 11
504.4575198392831
 21
322.844547389117
 31
0.0
  0
LINE
  5
386
330
19
100
AcDbEntity
  8
4
100
AcDbLine
 10
505.9575198392829
 20
327.844547389117
 30
0.0
 11
505.9575198392829
 21
323.844547389117
 31
0.0
  0
ARC
  5
387
330
19
100
AcDbEntity
  8
4
100
AcDbCircle
 10
504.9575198392829
 20
327.844547389117
 30
0.0
 40
1.0
100
AcDbArc
 50
0.0
 51
90.0
  0
LINE
  5
388
330
19
100
AcDbEntity
  8
4
100
AcDbLine
 10
439.9575198392829
 20
327.844547389117
 30
0.0
 11
439.9575198392829
 21
311.844547389117
 31
0.0
  0
LINE
  5
389
330
19
100
AcDbEntity
  8
4
100
AcDbLine
 10
433.9575198392829
 20
327.844547389117
 30
0.0
 11
433.9575198392829
 21
305.844547389117
 31
0.0
  0
LINE
  5
38A
330
19
100
AcDbEntity
  8
4
100
AcDbLine
 10
460.7681537455419
 20
328.0870830141532
 30
0.0
 11
455.2681537455419
 21
306.0870830141532
 31
0.0
  0
LINE
  5
38B
330
19
100
AcDbEntity
  8
4
100
AcDbLine
 10
450.4575198392829
 20
309.844547389117
 30
0.0
 11
450.4575198392829
 21
305.844547389117
 31
0.0
  0
ARC
  5
38C
330
19
100
AcDbEntity
  8
4
100
AcDbCircle
 10
449.4575198392829
 20
305.844547389117
 30
0.0
 40
1.0
100
AcDbArc
 50
270.0
 51
0.0
  0
ARC
  5
38D
330
19
100
AcDbEntity
  8
4
100
AcDbCircle
 10
449.4575198392829
 20
309.844547389117
 30
0.0
 40
1.0
100
AcDbArc
 50
0.0
 51
90.0
  0
ARC
  5
38E
330
19
100
AcDbEntity
  8
4
100
AcDbCircle
 10
440.9575198392829
 20
311.844547389117
 30
0.0
 40
1.0
100
AcDbArc
 50
180.0
 51
270.0
  0
ARC
  5
38F
330
19
100
AcDbEntity
  8
4
100
AcDbCircle
 10
434.9575198392829
 20
305.844547389117
 30
0.0
 40
1.0
100
AcDbArc
 50
180.0
 51
270.0
  0
LINE
  5
390
330
19
100
AcDbEntity
  8
4
100
AcDbLine
 10
449.4575198392829
 20
310.844547389117
 30
0.0
 11
440.9575198392829
 21
310.844547389117
 31
0.0
  0
LINE
  5
391
330
19
100
AcDbEntity
  8
4
100
AcDbLine
 10
449.4575198392829
 20
304.844547389117
 30
0.0
 11
434.9575198392829
 21
304.844547389117
 31
0.0
  0
LINE
  5
392
330
19
100
AcDbEntity
  8
4
100
AcDbLine
 10
466.1175444477269
 20
307.4658152016352
 30
0.0
 11
466.5834953071155
 21
305.6020117640808
 31
0.0
  0
ARC
  5
393
330
19
100
AcDbEntity
  8
4
100
AcDbCircle
 10
465.632473197654
 20
307.344547389117
 30
0.0
 40
0.5
100
AcDbArc
 50
14.03624346792014
 51
90.0
  0
ARC
  5
394
330
19
100
AcDbEntity
  8
4
100
AcDbCircle
 10
462.2825664809116
 20
307.344547389117
 30
0.0
 40
0.5
100
AcDbArc
 50
90.0
 51
165.9637565320799
  0
LINE
  5
395
330
19
100
AcDbEntity
  8
4
100
AcDbLine
 10
465.632473197654
 20
307.844547389117
 30
0.0
 11
462.2825664809116
 21
307.844547389117
 31
0.0
  0
LINE
  5
396
330
19
100
AcDbEntity
  8
4
100
AcDbLine
 10
461.7974952308389
 20
307.4658152016352
 30
0.0
 11
461.3315443714503
 21
305.6020117640808
 31
0.0
  0
LINE
  5
397
330
19
100
AcDbEntity
  8
4
100
AcDbLine
 10
460.3614018713049
 20
304.844547389117
 30
0.0
 11
456.2382962456873
 21
304.844547389117
 31
0.0
  0
ARC
  5
398
330
19
100
AcDbEntity
  8
4
100
AcDbCircle
 10
456.2382962456873
 20
305.844547389117
 30
0.0
 40
1.0
100
AcDbArc
 50
165.9637565320735
 51
270.0
  0
ARC
  5
399
330
19
100
AcDbEntity
  8
4
100
AcDbCircle
 10
460.3614018713049
 20
305.844547389117
 30
0.0
 40
1.0
100
AcDbArc
 50
270.0
 51
345.9637565320735
  0
ARC
  5
39A
330
19
100
AcDbEntity
  8
4
100
AcDbCircle
 10
467.5536378072609
 20
305.8445473891172
 30
0.0
 40
1.0
100
AcDbArc
 50
194.0362434679265
 51
270.0
  0
LINE
  5
39B
330
19
100
AcDbEntity
  8
4
100
AcDbLine
 10
438.9575198392829
 20
328.844547389117
 30
0.0
 11
434.9575198392829
 21
328.844547389117
 31
0.0
  0
ARC
  5
39C
330
19
100
AcDbEntity
  8
4
100
AcDbCircle
 10
434.9575198392829
 20
327.844547389117
 30
0.0
 40
1.0
100
AcDbArc
 50
90.0
 51
180.0
  0
ARC
  5
39D
330
19
100
AcDbEntity
  8
4
100
AcDbCircle
 10
438.9575198392829
 20
327.844547389117
 30
0.0
 40
1.0
100
AcDbArc
 50
0.0
 51
90.0
  0
LINE
  5
39E
330
19
100
AcDbEntity
  8
4
100
AcDbLine
 10
466.1767434328783
 20
328.844547389117
 30
0.0
 11
461.7382962456873
 21
328.844547389117
 31
0.0
  0
ARC
  5
39F
330
19
100
AcDbEntity
  8
4
100
AcDbCircle
 10
461.7382962456873
 20
327.844547389117
 30
0.0
 40
1.0
100
AcDbArc
 50
90.0
 51
165.9637565320735
  0
ARC
  5
3A0
330
19
100
AcDbEntity
  8
4
100
AcDbCircle
 10
466.1767434328783
 20
327.844547389117
 30
0.0
 40
1.0
100
AcDbArc
 50
14.03624346792646
 51
90.0
  0
LINE
  5
3A1
330
19
100
AcDbEntity
  8
4
100
AcDbLine
 10
467.1468859330237
 20
328.0870830141532
 30
0.0
 11
472.6468859330237
 21
306.0870830141532
 31
0.0
  0
LINE
  5
3A2
330
19
100
AcDbEntity
  8
4
100
AcDbLine
 10
471.6767434328783
 20
304.8445473891168
 30
0.0
 11
467.5536378072609
 21
304.8445473891172
 31
0.0
  0
ARC
  5
3A3
330
19
100
AcDbEntity
  8
4
100
AcDbCircle
 10
429.9575198392829
 20
332.844547389117
 30
0.0
 40
2.0
100
AcDbArc
 50
90.0
 51
180.0
  0
ARC
  5
3A4
330
19
100
AcDbEntity
  8
4
100
AcDbCircle
 10
509.9575198392829
 20
332.844547389117
 30
0.0
 40
2.0
100
AcDbArc
 50
0.0
 51
90.0
  0
ARC
  5
3A5
330
19
100
AcDbEntity
  8
4
100
AcDbCircle
 10
580.3658530392788
 20
363.2528805891129
 30
0.0
 40
5.0
100
AcDbArc
 50
15.05726445492374
 51
74.94273554507782
  0
LINE
  5
3A6
330
19
100
AcDbEntity
  8
4
100
AcDbLine
 10
844.2521918264006
 20
279.8445473891172
 30
0.0
 11
860.2521918264006
 21
274.8445473891172
 31
0.0
  0
LINE
  5
3A7
330
19
100
AcDbEntity
  8
4
100
AcDbLine
 10
833.9890744206086
 20
296.0455153693558
 30
0.0
 11
843.1719433438034
 21
298.5499341665909
 31
0.0
  0
ARC
  5
3A8
330
19
100
AcDbEntity
  8
4
100
AcDbCircle
 10
834.2521918264006
 20
295.0807515481181
 30
0.0
 40
1.0
100
AcDbArc
 50
105.2551187030549
 51
180.0
  0
ARC
  5
3A9
330
19
100
AcDbEntity
  8
4
100
AcDbCircle
 10
842.645708532219
 20
300.4794618090664
 30
0.0
 40
2.0
100
AcDbArc
 50
285.255118703058
 51
343.7397952916901
  0
LINE
  5
3AA
330
19
100
AcDbEntity
  8
4
100
AcDbLine
 10
844.2521918264006
 20
225.8445473891172
 30
0.0
 11
860.2521918264006
 21
230.8445473891172
 31
0.0
  0
ARC
  5
3AB
330
19
100
AcDbEntity
  8
4
100
AcDbCircle
 10
842.7367561022352
 20
203.1117555862565
 30
0.0
 40
4.0
100
AcDbArc
 50
16.2602047083119
 51
74.74488129694171
  0
ARC
  5
3AC
330
19
100
AcDbEntity
  8
4
100
AcDbCircle
 10
842.645708532219
 20
205.2096329691685
 30
0.0
 40
2.0
100
AcDbArc
 50
16.26020470831235
 51
74.74488129694195
  0
LINE
  5
3AD
330
19
100
AcDbEntity
  8
4
100
AcDbLine
 10
833.9890744206086
 20
209.6435794088788
 30
0.0
 11
843.7892257254034
 21
206.9708108712075
 31
0.0
  0
ARC
  5
3AE
330
19
100
AcDbEntity
  8
4
100
AcDbCircle
 10
834.2521918264006
 20
210.6083432301166
 30
0.0
 40
1.0
100
AcDbArc
 50
180.0
 51
254.7448812969451
  0
LINE
  5
3AF
330
19
100
AcDbEntity
  8
4
100
AcDbLine
 10
844.2521918264006
 20
206.8445473891172
 30
0.0
 11
844.2521918264006
 21
299.2881552047384
 31
0.0
  0
LINE
  5
3B0
330
19
100
AcDbEntity
  8
4
100
AcDbLine
 10
833.2521918264006
 20
210.6083432301166
 30
0.0
 11
833.2521918264006
 21
295.0807515481181
 31
0.0
  0
ARC
  5
3B1
330
19
100
AcDbEntity
  8
4
100
AcDbCircle
 10
569.7922708811029
 20
278.1827099984664
 30
0.0
 40
3.0
100
AcDbArc
 50
265.1485788721416
 51
14.24103163538234
  0
ARC
  5
3B2
330
19
100
AcDbEntity
  8
4
100
AcDbCircle
 10
521.126127605452
 20
286.3276899246994
 30
0.0
 40
7.0
100
AcDbArc
 50
186.2614549438377
 51
265.1485788721408
  0
ARC
  5
3B3
330
19
100
AcDbEntity
  8
4
100
AcDbCircle
 10
505.7750478148462
 20
288.6620753646805
 30
0.0
 40
5.0
100
AcDbArc
 50
6.973793430355677
 51
83.02620656964487
  0
ARC
  5
3B4
330
19
100
AcDbEntity
  8
4
100
AcDbCircle
 10
508.4371258334961
 20
291.3241533833302
 30
0.0
 40
5.0
100
AcDbArc
 50
7.494980959280371
 51
82.52200874565311
  0
ARC
  5
3B5
330
19
100
AcDbEntity
  8
4
100
AcDbCircle
 10
513.9575198392829
 20
295.6282502712818
 30
0.0
 40
2.0
100
AcDbArc
 50
180.0
 51
217.9425463551715
  0
ARC
  5
3B6
330
19
100
AcDbEntity
  8
4
100
AcDbCircle
 10
513.9575198392831
 20
295.6282502712804
 30
0.0
 40
2.0
100
AcDbArc
 50
180.0
 51
217.9425463551597
  0
ARC
  5
3B7
330
19
100
AcDbEntity
  8
4
100
AcDbCircle
 10
418.788912073114
 20
286.3276899246991
 30
0.0
 40
7.0
100
AcDbArc
 50
274.8514211278596
 51
353.7385450561623
  0
ARC
  5
3B8
330
19
100
AcDbEntity
  8
4
100
AcDbCircle
 10
425.9575198392829
 20
295.6282502712852
 30
0.0
 40
2.0
100
AcDbArc
 50
322.0574536448067
 51
0.0
  0
ARC
  5
3B9
330
19
100
AcDbEntity
  8
4
100
AcDbCircle
 10
431.4779138450697
 20
291.32415338333
 30
0.0
 40
5.0
100
AcDbArc
 50
97.4949809592804
 51
172.505019040721
  0
ARC
  5
3BA
330
19
100
AcDbEntity
  8
4
100
AcDbCircle
 10
434.1399918637196
 20
288.66207536468
 30
0.0
 40
5.0
100
AcDbArc
 50
96.9737934303558
 51
173.0262065696443
  0
ARC
  5
3BB
330
19
100
AcDbEntity
  8
4
100
AcDbCircle
 10
469.9575198392829
 20
-4.155452610883003
 30
0.0
 40
300.0
100
AcDbArc
 50
83.0262065696443
 51
96.97379343035567
  0
ARC
  5
3BC
330
19
100
AcDbEntity
  8
4
100
AcDbCircle
 10
469.9575198392829
 20
-1.155452610883003
 30
0.0
 40
300.0
100
AcDbArc
 50
82.50501904071994
 51
97.49498095928006
  0
LINE
  5
3BD
330
19
100
AcDbEntity
  8
4
100
AcDbLine
 10
569.5385544912444
 20
275.1934579191802
 30
0.0
 11
520.5341226957819
 21
279.3527684063647
 31
0.0
  0
ARC
  5
3BE
330
19
100
AcDbEntity
  8
4
100
AcDbCircle
 10
569.7922708811029
 20
227.5063847797678
 30
0.0
 40
3.0
100
AcDbArc
 50
345.7589683646177
 51
94.85142112785843
  0
ARC
  5
3BF
330
19
100
AcDbEntity
  8
4
100
AcDbCircle
 10
505.7750478148462
 20
217.0270194135537
 30
0.0
 40
5.0
100
AcDbArc
 50
276.973793430355
 51
353.0262065696443
  0
ARC
  5
3C0
330
19
100
AcDbEntity
  8
4
100
AcDbCircle
 10
521.126127605452
 20
219.3614048535349
 30
0.0
 40
7.0
100
AcDbArc
 50
94.85142112785915
 51
173.7385450561628
  0
ARC
  5
3C1
330
19
100
AcDbEntity
  8
4
100
AcDbCircle
 10
434.1399918637196
 20
217.0270194135537
 30
0.0
 40
5.0
100
AcDbArc
 50
186.9737934303556
 51
263.0262065696449
  0
ARC
  5
3C2
330
19
100
AcDbEntity
  8
4
100
AcDbCircle
 10
418.7889120731138
 20
219.3614048535349
 30
0.0
 40
7.0
100
AcDbArc
 50
6.261454943837213
 51
85.14857887214039
  0
ARC
  5
3C3
330
19
100
AcDbEntity
  8
4
100
AcDbCircle
 10
469.9575198392829
 20
509.8445473891175
 30
0.0
 40
300.0
100
AcDbArc
 50
263.0262065696443
 51
276.9737934303557
  0
ARC
  5
3C4
330
19
100
AcDbEntity
  8
4
100
AcDbCircle
 10
469.9575198392829
 20
506.8445473891175
 30
0.0
 40
300.0
100
AcDbArc
 50
262.50501904072
 51
277.49498095928
  0
ARC
  5
3C5
330
19
100
AcDbEntity
  8
4
100
AcDbCircle
 10
503.440662374865
 20
201.6759396229481
 30
0.0
 40
7.0
100
AcDbArc
 50
96.26145494383721
 51
175.1485788721405
  0
ARC
  5
3C6
330
19
100
AcDbEntity
  8
4
100
AcDbCircle
 10
431.4779138450697
 20
214.364941394904
 30
0.0
 40
5.0
100
AcDbArc
 50
187.4949809592804
 51
262.505019040719
  0
ARC
  5
3C7
330
19
100
AcDbEntity
  8
4
100
AcDbCircle
 10
436.4743773037007
 20
201.6759396229481
 30
0.0
 40
7.0
100
AcDbArc
 50
4.851421127859541
 51
83.73854505616279
  0
ARC
  5
3C8
330
19
100
AcDbEntity
  8
4
100
AcDbCircle
 10
508.4371258334961
 20
214.364941394904
 30
0.0
 40
5.0
100
AcDbArc
 50
277.494980959281
 51
352.5050190407196
  0
LINE
  5
3C9
330
19
100
AcDbEntity
  8
4
100
AcDbLine
 10
569.5385544912444
 20
230.4956368590542
 30
0.0
 11
520.5341226957819
 21
226.3363263718695
 31
0.0
  0
ARC
  5
3CA
330
19
100
AcDbEntity
  8
4
100
AcDbCircle
 10
212.9575198392829
 20
252.8445473891172
 30
0.0
 40
300.0
100
AcDbArc
 50
353.0262065696442
 51
6.973793430355729
  0
ARC
  5
3CB
330
19
100
AcDbEntity
  8
4
100
AcDbCircle
 10
215.9575198392829
 20
252.8445473891172
 30
0.0
 40
300.0
100
AcDbArc
 50
352.50501904072
 51
7.494980959280029
  0
ARC
  5
3CC
330
19
100
AcDbEntity
  8
4
100
AcDbCircle
 10
723.9575198392829
 20
252.8445473891172
 30
0.0
 40
300.0
100
AcDbArc
 50
172.50501904072
 51
187.49498095928
  0
ARC
  5
3CD
330
19
100
AcDbEntity
  8
4
100
AcDbCircle
 10
726.9575198392829
 20
252.8445473891172
 30
0.0
 40
300.0
100
AcDbArc
 50
173.0262065696443
 51
186.9737934303557
  0
LINE
  5
3CE
330
19
100
AcDbEntity
  8
4
100
AcDbLine
 10
427.9575198392829
 20
332.844547389117
 30
0.0
 11
427.9575198392829
 21
295.6282502712852
 31
0.0
  0
LINE
  5
3CF
330
19
100
AcDbEntity
  8
4
100
AcDbLine
 10
511.9575198392829
 20
332.844547389117
 30
0.0
 11
511.9575198392829
 21
295.6282502712818
 31
0.0
  0
LINE
  5
3D0
330
19
100
AcDbEntity
  8
4
100
AcDbLine
 10
860.2521918264008
 20
353.7016902462606
 30
0.0
 11
844.5657085322191
 21
299.9194618090664
 31
0.0
  0
LINE
  5
3D1
330
19
100
AcDbEntity
  8
4
100
AcDbLine
 10
844.2521918264006
 20
332.8445473891175
 30
0.0
 11
844.2521918264006
 21
299.2881552047381
 31
0.0
  0
LINE
  5
3D2
330
19
100
AcDbEntity
  8
L-CENTER
 48
3.0
100
AcDbLine
 10
1010.068604678714
 20
252.8445473891172
 30
0.0
 11
733.9741029700381
 21
252.8445473891172
 31
0.0
  0
LINE
  5
3D3
330
19
100
AcDbEntity
  8
4
100
AcDbLine
 10
869.2521918264006
 20
382.8445473891172
 30
0.0
 11
969.2521918264006
 21
382.8445473891172
 31
0.0
  0
LINE
  5
3D4
330
19
100
AcDbEntity
  8
4
100
AcDbLine
 10
931.7521918264006
 20
388.3445473891171
 30
0.0
 11
906.7521918264008
 21
388.3445473891171
 31
0.0
  0
LINE
  5
3D5
330
19
100
AcDbEntity
  8
4
100
AcDbLine
 10
931.7521918264006
 20
386.3445473891171
 30
0.0
 11
906.7521918264008
 21
386.3445473891171
 31
0.0
  0
LINE
  5
3D6
330
19
100
AcDbEntity
  8
4
100
AcDbLine
 10
930.2521918264006
 20
392.3445473891172
 30
0.0
 11
908.2521918264006
 21
392.3445473891172
 31
0.0
  0
LINE
  5
3D7
330
19
100
AcDbEntity
  8
4
100
AcDbLine
 10
938.2521918264006
 20
384.8445473891172
 30
0.0
 11
900.2521918264006
 21
384.8445473891172
 31
0.0
  0
LINE
  5
3D8
330
19
100
AcDbEntity
  8
2
100
AcDbLine
 10
986.5521918264003
 20
148.9214989349816
 30
0.0
 11
988.5521918264003
 21
150.9214989349816
 31
0.0
  0
LINE
  5
3D9
330
19
100
AcDbEntity
  8
4
100
AcDbLine
 10
986.5521918264003
 20
156.1714989349816
 30
0.0
 11
988.5521918264003
 21
156.1714989349816
 31
0.0
  0
LINE
  5
3DA
330
19
100
AcDbEntity
  8
L-CENTER
 48
3.0
100
AcDbLine
 10
963.3225101955086
 20
148.9214989349816
 30
0.0
 11
998.5232010250056
 21
148.9214989349816
 31
0.0
  0
LINE
  5
3DB
330
19
100
AcDbEntity
  8
4
100
AcDbLine
 10
988.5521918264003
 20
155.4214989349816
 30
0.0
 11
996.5521918264003
 21
155.4214989349816
 31
0.0
  0
ARC
  5
3DC
330
19
100
AcDbEntity
  8
4
100
AcDbCircle
 10
985.5521918264003
 20
125.8445473891172
 30
0.0
 40
1.0
100
AcDbArc
 50
270.0
 51
0.0
  0
LINE
  5
3DD
330
19
100
AcDbEntity
  8
4
100
AcDbLine
 10
968.2521918264006
 20
122.8445473891172
 30
0.0
 11
969.2521918264006
 21
122.8445473891172
 31
0.0
  0
LINE
  5
3DE
330
19
100
AcDbEntity
  8
4
100
AcDbLine
 10
985.5521918264003
 20
124.8445473891172
 30
0.0
 11
969.2521918264001
 21
124.8445473891172
 31
0.0
  0
LINE
  5
3DF
330
19
100
AcDbEntity
  8
4
100
AcDbLine
 10
986.5521918264003
 20
141.6714989349816
 30
0.0
 11
988.5521918264003
 21
141.6714989349816
 31
0.0
  0
LINE
  5
3E0
330
19
100
AcDbEntity
  8
4
100
AcDbLine
 10
988.5521918264003
 20
142.4214989349816
 30
0.0
 11
996.5521918264003
 21
142.4214989349816
 31
0.0
  0
LINE
  5
3E1
330
19
100
AcDbEntity
  8
4
100
AcDbLine
 10
996.5521918264003
 20
142.4214989349816
 30
0.0
 11
996.5521918264003
 21
155.4214989349816
 31
0.0
  0
LINE
  5
3E2
330
19
100
AcDbEntity
  8
4
100
AcDbLine
 10
988.5521918264003
 20
141.6714989349816
 30
0.0
 11
988.5521918264003
 21
156.1714989349816
 31
0.0
  0
LINE
  5
3E3
330
19
100
AcDbEntity
  8
2
100
AcDbLine
 10
986.5521918264003
 20
146.0930718102354
 30
0.0
 11
988.5521918264003
 21
148.0930718102354
 31
0.0
  0
ARC
  5
3E4
330
19
100
AcDbEntity
  8
4
100
AcDbCircle
 10
1012.252191826401
 20
67.84454738911722
 30
0.0
 40
2.0
100
AcDbArc
 50
0.0
 51
90.0
  0
ARC
  5
3E5
330
19
100
AcDbEntity
  8
4
100
AcDbCircle
 10
969.252191826401
 20
79.84454738911722
 30
0.0
 40
10.0
100
AcDbArc
 50
180.0
 51
270.0
  0
ARC
  5
3E6
330
19
100
AcDbEntity
  8
4
100
AcDbCircle
 10
987.2229421767906
 20
73.84454738911722
 30
0.0
 40
4.0
100
AcDbArc
 50
196.7983717813053
 51
270.0
  0
LINE
  5
3E7
330
19
100
AcDbEntity
  8
4
100
AcDbLine
 10
959.2521918264006
 20
101.5426039929475
 30
0.0
 11
959.252191826401
 21
79.84454738911722
 31
0.0
  0
LINE
  5
3E8
330
19
100
AcDbEntity
  8
4
100
AcDbLine
 10
968.2521918264006
 20
122.8445473891172
 30
0.0
 11
983.3936313336435
 21
72.68852902137473
 31
0.0
  0
ARC
  5
3E9
330
19
100
AcDbEntity
  8
4
100
AcDbCircle
 10
919.2521918264006
 20
129.8445473891172
 30
0.0
 40
49.0
100
AcDbArc
 50
324.718738172734
 51
0.0
  0
LINE
  5
3F0
330
19
100
AcDbEntity
  8
4
100
AcDbLine
 10
1014.252191826401
 20
39.84454738911722
 30
0.0
 11
1014.252191826401
 21
67.84454738911722
 31
0.0
  0
LINE
  5
3F1
330
19
100
AcDbEntity
  8
L-CENTER
 48
3.0
100
AcDbLine
 10
984.2521918264006
 20
29.84454738911722
 30
0.0
 11
984.2521918264006
 21
79.84454738911722
 31
0.0
  0
LINE
  5
3F2
330
19
100
AcDbEntity
  8
4
100
AcDbLine
 10
861.2521918264006
 20
124.8445473891172
 30
0.0
 11
870.5079613985849
 21
124.8445473891172
 31
0.0
  0
ARC
  5
3F3
330
19
100
AcDbEntity
  8
4
100
AcDbCircle
 10
861.2521918264006
 20
125.8445473891172
 30
0.0
 40
1.0
100
AcDbArc
 50
180.0
 51
270.0
  0
ARC
  5
3F4
330
19
100
AcDbEntity
  8
4
100
AcDbCircle
 10
851.2814414760107
 20
73.84454738911722
 30
0.0
 40
4.0
100
AcDbArc
 50
270.0
 51
343.2016282186947
  0
ARC
  5
3F5
330
19
100
AcDbEntity
  8
4
100
AcDbCircle
 10
869.2521918264003
 20
79.84454738911722
 30
0.0
 40
10.0
100
AcDbArc
 50
270.0
 51
0.0
  0
ARC
  5
3F6
330
19
100
AcDbEntity
  8
4
100
AcDbCircle
 10
826.2521918264006
 20
67.84454738911722
 30
0.0
 40
2.0
100
AcDbArc
 50
90.0
 51
180.0
  0
LINE
  5
3F7
330
19
100
AcDbEntity
  8
4
100
AcDbLine
 10
879.2521918264006
 20
101.5426039929475
 30
0.0
 11
879.2521918264003
 21
79.84454738911722
 31
0.0
  0
LINE
  5
3F8
330
19
100
AcDbEntity
  8
4
100
AcDbLine
 10
855.1107523191577
 20
72.68852902137485
 30
0.0
 11
870.6017168286708
 21
124.0023489591367
 31
0.0
  0
LINE
  5
3F9
330
19
100
AcDbEntity
  8
4
100
AcDbLine
 10
866.2521918264006
 20
124.8445473891172
 30
0.0
 11
866.2521918264006
 21
109.5945473891168
 31
0.0
  0
ARC
  5
3FA
330
19
100
AcDbEntity
  8
4
100
AcDbCircle
 10
919.2521918264006
 20
129.8445473891172
 30
0.0
 40
49.0
100
AcDbArc
 50
180.0
 51
215.281261827266
  0
LINE
  5
3FB
330
19
100
AcDbEntity
  8
4
100
AcDbLine
 10
597.9575198392829
 20
177.8445473891172
 30
0.0
 11
597.7657484422011
 21
177.8445473891172
 31
0.0
  0
LINE
  5
3FC
330
19
100
AcDbEntity
  8
4
100
AcDbLine
 10
597.9575198392829
 20
165.8445473891172
 30
0.0
 11
598.9575198392829
 21
165.8445473891172
 31
0.0
  0
ARC
  5
3FD
330
19
100
AcDbEntity
  8
4
100
AcDbCircle
 10
580.3658530392788
 20
142.4362141891215
 30
0.0
 40
5.0
100
AcDbArc
 50
285.0572644549223
 51
344.9427355450743
  0
ARC
  5
3FE
330
19
100
AcDbEntity
  8
4
100
AcDbCircle
 10
495.2956824486321
 20
153.0097963472972
 30
0.0
 40
3.0
100
AcDbArc
 50
175.1485788721405
 51
284.2410316353826
  0
ARC
  5
3FF
330
19
100
AcDbEntity
  8
4
100
AcDbCircle
 10
444.6193572299337
 20
153.0097963472972
 30
0.0
 40
3.0
100
AcDbArc
 50
255.7589683646174
 51
4.851421127859541
  0
LINE
  5
400
330
19
100
AcDbEntity
  8
4
100
AcDbLine
 10
469.9575198392829
 20
143.7009538496682
 30
0.0
 11
481.9575198392827
 21
136.7727506193927
 31
0.0
  0
LINE
  5
401
330
19
100
AcDbEntity
  8
4
100
AcDbLine
 10
481.9575198392827
 20
136.7727506193927
 30
0.0
 11
481.9575198392827
 21
122.9163441588418
 31
0.0
  0
ARC
  5
402
330
19
100
AcDbEntity
  8
4
100
AcDbCircle
 10
528.9575198392829
 20
124.8924472657504
 30
0.0
 40
2.0
100
AcDbArc
 50
97.84965082380431
 51
180.0
  0
ARC
  5
403
330
19
100
AcDbEntity
  8
4
100
AcDbCircle
 10
516.9575198392829
 20
123.4088711813758
 30
0.0
 40
2.0
100
AcDbArc
 50
0.0
 51
96.24593198344063
  0
ARC
  5
404
330
19
100
AcDbEntity
  8
4
100
AcDbCircle
 10
422.9575198392829
 20
123.4088711813758
 30
0.0
 40
2.0
100
AcDbArc
 50
83.75406801655939
 51
180.0
  0
ARC
  5
405
330
19
100
AcDbEntity
  8
4
100
AcDbCircle
 10
410.9575198392829
 20
124.8924472657504
 30
0.0
 40
2.0
100
AcDbArc
 50
0.0
 51
82.15034917619569
  0
LINE
  5
406
330
19
100
AcDbEntity
  8
4
100
AcDbLine
 10
457.9575198392829
 20
136.7727506193926
 30
0.0
 11
457.9575198392829
 21
122.9163441588419
 31
0.0
  0
LINE
  5
407
330
19
100
AcDbEntity
  8
4
100
AcDbLine
 10
469.9575198392829
 20
143.7009538496682
 30
0.0
 11
457.9575198392829
 21
136.7727506193926
 31
0.0
  0
ARC
  5
408
330
19
100
AcDbEntity
  8
4
100
AcDbCircle
 10
469.9575198392829
 20
129.8445473891172
 30
0.0
 40
22.0
100
AcDbArc
 50
90.0
 51
188.1902902613165
  0
ARC
  5
409
330
19
100
AcDbEntity
  8
4
100
AcDbCircle
 10
469.9575198392829
 20
129.8445473891172
 30
0.0
 40
22.0
100
AcDbArc
 50
351.8097097386835
 51
90.0
  0
ARC
  5
40A
330
19
100
AcDbEntity
  8
4
100
AcDbCircle
 10
469.9575198392829
 20
552.844547389117
 30
0.0
 40
430.0
100
AcDbArc
 50
272.2279832959101
 51
285.0572644549238
  0
LINE
  5
40B
330
19
100
AcDbEntity
  8
4
100
AcDbLine
 10
597.9575198392829
 20
93.844547389117
 30
0.0
 11
598.9575198392829
 21
93.84454738911722
 31
0.0
  0
ARC
  5
40D
330
19
100
AcDbEntity
  8
4
100
AcDbCircle
 10
590.9575198392829
 20
67.84454738911722
 30
0.0
 40
2.0
100
AcDbArc
 50
0.0
 51
79.57084495630201
  0
ARC
  5
40E
330
19
100
AcDbEntity
  8
4
100
AcDbCircle
 10
591.6815982940125
 20
71.77846533327943
 30
0.0
 40
2.0
100
AcDbArc
 50
176.4967826591375
 51
259.570844956302
  0
LINE
  5
40F
330
19
100
AcDbEntity
  8
4
100
AcDbLine
 10
597.9575198392829
 20
81.84454738911722
 30
0.0
 11
593.1160487850248
 21
81.84454738911722
 31
0.0
  0
ARC
  5
410
330
19
100
AcDbEntity
  8
4
100
AcDbCircle
 10
593.1160487850248
 20
78.84454738911722
 30
0.0
 40
3.0
100
AcDbArc
 50
90.0
 51
176.4967826591372
  0
ARC
  5
412
330
19
100
AcDbEntity
  8
4
100
AcDbCircle
 10
529.9575198392829
 20
72.84454738911722
 30
0.0
 40
3.0
100
AcDbArc
 50
180.0
 51
270.0
  0
ARC
  5
413
330
19
100
AcDbEntity
  8
4
100
AcDbCircle
 10
520.9575198392829
 20
67.84454738911722
 30
0.0
 40
2.0
100
AcDbArc
 50
90.0
 51
180.0
  0
ARC
  5
414
330
19
100
AcDbEntity
  8
4
100
AcDbCircle
 10
418.9575198392829
 20
67.84454738911722
 30
0.0
 40
2.0
100
AcDbArc
 50
0.0
 51
90.0
  0
ARC
  5
415
330
19
100
AcDbEntity
  8
4
100
AcDbCircle
 10
409.9575198392829
 20
72.84454738911722
 30
0.0
 40
3.0
100
AcDbArc
 50
270.0
 51
0.0
  0
LINE
  5
416
330
19
100
AcDbEntity
  8
L-CENTER
 48
3.0
100
AcDbLine
 10
487.2238838721424
 20
69.84454738911722
 30
0.0
 11
452.6911558064234
 21
69.84454738911722
 31
0.0
  0
LINE
  5
417
330
19
100
AcDbEntity
  8
4
100
AcDbLine
 10
591.1717342089394
 20
69.84454738911722
 30
0.0
 11
520.9575198392829
 21
69.84454738911722
 31
0.0
  0
LINE
  5
418
330
19
100
AcDbEntity
  8
4
100
AcDbLine
 10
587.2171515962716
 20
101.5426039929475
 30
0.0
 11
531.3880392137712
 21
101.5426039929475
 31
0.0
  0
LINE
  5
419
330
19
100
AcDbEntity
  8
4
100
AcDbLine
 10
597.9575198392829
 20
177.8445473891172
 30
0.0
 11
597.9575198392829
 21
81.84454738911722
 31
0.0
  0
LINE
  5
41A
330
19
100
AcDbEntity
  8
4
100
AcDbLine
 10
598.9575198392829
 20
165.8445473891172
 30
0.0
 11
598.9575198392829
 21
93.84454738911722
 31
0.0
  0
LINE
  5
41B
330
19
100
AcDbEntity
  8
4
100
AcDbLine
 10
482.9575198392829
 20
117.3946477911284
 30
0.0
 11
482.9575198392829
 21
69.84454738911722
 31
0.0
  0
LINE
  5
41C
330
19
100
AcDbEntity
  8
4
100
AcDbLine
 10
456.9575198392829
 20
117.3946477911284
 30
0.0
 11
456.9575198392829
 21
69.84454738911722
 31
0.0
  0
LINE
  5
41D
330
19
100
AcDbEntity
  8
4
100
AcDbLine
 10
412.9575198392829
 20
72.84454738911722
 30
0.0
 11
412.9575198392829
 21
124.8924472657504
 31
0.0
  0
ARC
  5
41E
330
19
100
AcDbEntity
  8
4
100
AcDbCircle
 10
469.9575198392829
 20
129.8445473891172
 30
0.0
 40
18.0
100
AcDbArc
 50
192.1371753395049
 51
270.0
  0
ARC
  5
41F
330
19
100
AcDbEntity
  8
4
100
AcDbCircle
 10
469.9575198392829
 20
129.8445473891172
 30
0.0
 40
18.0
100
AcDbArc
 50
270.0
 51
347.8628246604951
  0
LINE
  5
420
330
19
100
AcDbEntity
  8
4
100
AcDbLine
 10
526.9575198392829
 20
72.84454738911722
 30
0.0
 11
526.9575198392829
 21
124.8924472657504
 31
0.0
  0
LINE
  5
421
330
19
100
AcDbEntity
  8
4
100
AcDbLine
 10
481.9575198392827
 20
122.9163441588418
 30
0.0
 11
469.9575198392827
 21
115.9881409285662
 31
0.0
  0
CIRCLE
  5
422
330
19
100
AcDbEntity
  8
4
100
AcDbCircle
 10
469.9575198392829
 20
129.8445473891172
 30
0.0
 40
15.0
  0
LINE
  5
423
330
19
100
AcDbEntity
  8
4
100
AcDbLine
 10
457.9575198392829
 20
122.9163441588419
 30
0.0
 11
469.9575198392827
 21
115.9881409285662
 31
0.0
  0
TEXT
  5
429
330
19
100
AcDbEntity
  8
3
100
AcDbText
 10
622.4878919805112
 20
-1.224395254205604
 30
0.0
 40
9.0
  1
LA5-03
  7
KANJI
 72
     1
 11
647.2378919805112
 21
-1.224395254205604
 31
0.0
100
AcDbText
  0
LINE
  5
42D
330
19
100
AcDbEntity
  8
4
100
AcDbLine
 10
526.9575198392829
 20
39.84454738911722
 30
0.0
 11
518.9575198392829
 21
51.84454738911722
 31
0.0
  0
LINE
  5
42E
330
19
100
AcDbEntity
  8
4
100
AcDbLine
 10
413.5512529109826
 20
40.7351469966668
 30
0.0
 11
420.3637867675832
 21
50.95394778156765
 31
0.0
  0
ARC
  5
42F
330
19
100
AcDbEntity
  8
4
100
AcDbCircle
 10
411.887152322307
 20
41.84454738911722
 30
0.0
 40
2.0
100
AcDbArc
 50
270.0
 51
326.3099324740198
  0
ARC
  5
430
330
19
100
AcDbEntity
  8
4
100
AcDbCircle
 10
422.0278873562588
 20
49.84454738911722
 30
0.0
 40
2.0
100
AcDbArc
 50
90.0
 51
146.3099324740198
  0
LINE
  5
431
330
19
100
AcDbEntity
  8
4
100
AcDbLine
 10
518.9575198392829
 20
51.84454738911722
 30
0.0
 11
422.0278873562588
 21
51.84454738911722
 31
0.0
  0
LINE
  5
435
330
19
100
AcDbEntity
  8
4
100
AcDbLine
 10
592.9575198392829
 20
39.84454738911722
 30
0.0
 11
526.9575198392829
 21
39.84454738911722
 31
0.0
  0
LINE
  5
439
330
19
100
AcDbEntity
  8
4
100
AcDbLine
 10
420.9575198392829
 20
51.84454738911722
 30
0.0
 11
420.9575198392829
 21
123.4088711813758
 31
0.0
  0
LINE
  5
43A
330
19
100
AcDbEntity
  8
4
100
AcDbLine
 10
518.9575198392829
 20
51.84454738911722
 30
0.0
 11
518.9575198392829
 21
123.4088711813758
 31
0.0
  0
ARC
  5
43B
330
19
100
AcDbEntity
  8
4
100
AcDbCircle
 10
469.9575198392829
 20
69.84454738911722
 30
0.0
 40
13.0
100
AcDbArc
 50
270.0
 51
0.0
  0
ARC
  5
43C
330
19
100
AcDbEntity
  8
4
100
AcDbCircle
 10
469.9575198392829
 20
69.84454738911722
 30
0.0
 40
13.0
100
AcDbArc
 50
180.0
 51
270.0
  0
LINE
  5
43D
330
19
100
AcDbEntity
  8
4
100
AcDbLine
 10
592.9575198392829
 20
67.84454738911722
 30
0.0
 11
592.9575198392829
 21
39.84454738911722
 31
0.0
  0
LINE
  5
43E
330
19
100
AcDbEntity
  8
L-CENTER
 48
3.0
100
AcDbLine
 10
554.9575198392829
 20
29.84454738911722
 30
0.0
 11
554.9575198392829
 21
79.84454738911722
 31
0.0
  0
LWPOLYLINE
  5
43F
330
19
100
AcDbEntity
  8
4
100
AcDbPolyline
 90
       44
 70
     0
 43
0.0
 10
534.4123164704606
 20
69.84454738911717
 10
535.2481557920898
 20
68.77473195843811
 10
535.57518579209
 20
68.34275595843803
 10
535.87854279209
 20
67.91429295843801
 10
536.5281687920901
 20
66.66751995843805
 10
536.6184357920899
 20
66.27065595843811
 10
536.6258397920901
 20
65.88607695843808
 10
536.5385367920899
 20
65.51554695843816
 10
536.3223027920899
 20
65.1165289584381
 10
536.01202479209
 20
64.73009895843813
 10
535.6481487920901
 20
64.34889795843804
 10
535.2711237920901
 20
63.96557295843814
 10
534.92139279209
 20
63.57276495843809
 10
534.6394107920901
 20
63.16311495843809
 10
534.4670247920899
 20
62.7646729584381
 10
534.37615179209
 20
62.34779895843809
 10
534.35596779209
 20
61.9147069584381
 10
534.6113337920899
 20
60.54030195843808
 10
535.1132787920901
 20
59.09976495843813
 10
535.56957279209
 20
57.65296095843803
 10
535.6610187920901
 20
57.17964795843801
 10
535.70409879209
 20
56.71450395843806
 10
535.68798879209
 20
56.25975195843807
 10
535.55593179209
 20
55.64551995843811
 10
535.31618979209
 20
55.05125895843804
 10
534.9971697920901
 20
54.472429958438
 10
533.84840979209
 20
52.78322295843799
 10
533.49626079209
 20
52.22079795843803
 10
533.2068267920899
 20
51.65113995843808
 10
533.00851479209
 20
51.06971295843806
 10
532.92637479209
 20
50.54337795843804
 10
532.92438279209
 20
50.00578995843807
 10
532.9893897920899
 20
49.45842795843805
 10
533.4549627920901
 20
47.77243695843811
 10
534.0503037920898
 20
46.05155895843808
 10
534.21624279209
 20
45.47706495843806
 10
534.3440187920901
 20
44.90458995843807
 10
534.42048579209
 20
44.33561595843804
 10
534.4171737920901
 20
43.43834595843799
 10
534.27743379209
 20
42.55159995843798
 10
534.02854779209
 20
41.67327495843801
 10
533.6978037920899
 20
40.80126495843814
 10
533.3124867920899
 20
39.9334639584381
 10
533.2701082550934
 20
39.84454738911722
  0
LINE
  5
440
330
19
100
AcDbEntity
  8
4
100
AcDbLine
 10
563.9575198392829
 20
39.84454738911722
 30
0.0
 11
563.9575198392829
 21
69.84454738911722
 31
0.0
  0
LINE
  5
441
330
19
100
AcDbEntity
  8
4
100
AcDbLine
 10
545.9575198392829
 20
39.84454738911722
 30
0.0
 11
545.9575198392827
 21
69.84454738911722
 31
0.0
  0
LINE
  5
444
330
19
100
AcDbEntity
  8
L-CENTER
 48
3.0
100
AcDbLine
 10
854.2521918264006
 20
29.84454738911722
 30
0.0
 11
854.2521918264006
 21
79.84454738911722
 31
0.0
  0
LINE
  5
445
330
19
100
AcDbEntity
  8
4
100
AcDbLine
 10
824.2521918264006
 20
39.84454738911722
 30
0.0
 11
824.2521918264006
 21
67.84454738911722
 31
0.0
  0
LINE
  5
446
330
19
100
AcDbEntity
  8
4
100
AcDbLine
 10
824.2521918264006
 20
39.84454738911722
 30
0.0
 11
1014.252191826401
 21
39.84454738911722
 31
0.0
  0
LINE
  5
447
330
19
100
AcDbEntity
  8
4
100
AcDbLine
 10
826.2521918264006
 20
69.84454738911722
 30
0.0
 11
1012.252191826401
 21
69.84454738911722
 31
0.0
  0
LINE
  5
448
330
19
100
AcDbEntity
  8
L-CENTER
 48
3.0
100
AcDbLine
 10
980.5950443011566
 20
129.8445473891172
 30
0.0
 11
857.9093393516443
 21
129.8445473891172
 31
0.0
  0
CIRCLE
  5
44B
330
19
100
AcDbEntity
  8
4
100
AcDbCircle
 10
919.2521918264006
 20
129.8445473891172
 30
0.0
 40
36.0
  0
CIRCLE
  5
44C
330
19
100
AcDbEntity
  8
4
100
AcDbCircle
 10
919.2521918264006
 20
129.8445473891172
 30
0.0
 40
48.0
  0
LINE
  5
44D
330
19
100
AcDbEntity
  8
2
 48
3.0
100
AcDbLine
 10
469.957519839283
 20
73.3086490042549
 30
0.0
 11
472.9575198392829
 21
71.57659819668606
 31
0.0
  0
LINE
  5
44E
330
19
100
AcDbEntity
  8
2
 48
3.0
100
AcDbLine
 10
466.9575198392829
 20
68.11249658154833
 30
0.0
 11
469.9575198392829
 21
66.38044577397943
 31
0.0
  0
LINE
  5
44F
330
19
100
AcDbEntity
  8
2
 48
3.0
100
AcDbLine
 10
472.9575198392829
 20
71.57659819668606
 30
0.0
 11
472.9575198392829
 21
68.11249658154821
 31
0.0
  0
LINE
  5
450
330
19
100
AcDbEntity
  8
2
 48
3.0
100
AcDbLine
 10
466.9575198392829
 20
71.5765981966859
 30
0.0
 11
466.9575198392829
 21
68.11249658154833
 31
0.0
  0
LINE
  5
451
330
19
100
AcDbEntity
  8
L-CENTER
 48
3.0
100
AcDbLine
 10
469.9575198392829
 20
394.844547389117
 30
0.0
 11
469.9575198392829
 21
45.75265920680545
 31
0.0
  0
ARC
  5
452
330
19
100
AcDbEntity
  8
4
100
AcDbCircle
 10
169.9575198392831
 20
252.844547389117
 30
0.0
 40
430.0
100
AcDbArc
 50
344.9427355450762
 51
15.05726445492384
  0
LINE
  5
453
330
19
100
AcDbEntity
  8
4
100
AcDbLine
 10
599.154008413785
 20
226.5695745952678
 30
0.0
 11
589.6853355564567
 21
71.90067450906508
 31
0.0
  0
LINE
  5
454
330
19
100
AcDbEntity
  8
4
100
AcDbLine
 10
492.3064303693459
 20
153.2635127371557
 30
0.0
 11
496.4657408565306
 21
202.2679445326182
 31
0.0
  0
LINE
  5
455
330
19
100
AcDbEntity
  8
4
100
AcDbLine
 10
447.6086093092199
 20
153.2635127371557
 30
0.0
 11
443.4492988220352
 21
202.2679445326182
 31
0.0
  0
ARC
  5
456
330
19
100
AcDbEntity
  8
4
100
AcDbCircle
 10
597.7657484422011
 20
179.3445473891172
 30
0.0
 40
1.5
100
AcDbArc
 50
176.4967826591382
 51
270.0
  0
LINE
  5
457
330
19
100
AcDbEntity
  8
4
100
AcDbLine
 10
860.2521918264006
 20
379.8445473891175
 30
0.0
 11
860.2521918264006
 21
125.8445473891172
 31
0.0
  0
LINE
  5
458
330
19
100
AcDbEntity
  8
4
100
AcDbLine
 10
860.2521918264006
 20
151.9874045319743
 30
0.0
 11
844.5657085322191
 21
205.7696329691685
 31
0.0
  0
LINE
  5
459
330
19
100
AcDbEntity
  8
4
100
AcDbLine
 10
860.2521918264006
 20
157.3445473891175
 30
0.0
 11
846.5767561022351
 21
204.2317555862564
 31
0.0
  0
LINE
  5
45A
330
19
100
AcDbEntity
  8
2
100
AcDbLine
 10
975.5521918264005
 20
124.8445473891172
 30
0.0
 11
975.5521918264005
 21
380.8445473891172
 31
0.0
  0
ENDSEC
  0
SECTION
  2
OBJECTS
  0
DICTIONARY
  5
7
330
0
100
AcDbDictionary
281
     1
  3
ACAD_COLOR
350
2D
  3
ACAD_GROUP
350
2B
  3
ACAD_LAYOUT
350
22
  3
ACAD_MATERIAL
350
9
  3
ACAD_MLEADERSTYLE
350
45E
  3
ACAD_MLINESTYLE
350
17
  3
ACAD_PLOTSETTINGS
350
2C
  3
ACAD_PLOTSTYLENAME
350
6
  3
ACAD_SCALELIST
350
32
  3
ACAD_TABLESTYLE
350
45D
  3
ACAD_VISUALSTYLE
350
2E
  3
ACDBHEADERROUNDTRIPXREC
350
484
  3
AcDbVariableDictionary
350
45B
  3
DWGPROPS
350
487
  0
DICTIONARY
  5
488
330
2A
100
AcDbDictionary
280
     1
281
     1
  3
ACAD_XREC_ROUNDTRIP
360
489
  0
DICTIONARY
  5
1E
330
1D
100
AcDbDictionary
280
     1
281
     1
  3
ADSK_XREC_LAYER_RECONCILED
360
1F
  0
DICTIONARY
  5
1E2
330
1E1
100
AcDbDictionary
280
     1
281
     1
  3
ADSK_XREC_LAYER_RECONCILED
360
1E3
  0
DICTIONARY
  5
3
330
1
100
AcDbDictionary
280
     1
281
     1
  3
ADSK_XREC_LAYER_RECONCILED
360
4
  0
DICTIONARY
  5
9C
330
9B
100
AcDbDictionary
280
     1
281
     1
  3
ADSK_XREC_LAYER_RECONCILED
360
9D
  0
DICTIONARY
  5
103
330
102
100
AcDbDictionary
280
     1
281
     1
  3
ADSK_XREC_LAYER_RECONCILED
360
104
  0
DICTIONARY
  5
5A
330
59
100
AcDbDictionary
280
     1
281
     1
  3
ADSK_XREC_LAYER_RECONCILED
360
5B
  0
DICTIONARY
  5
1A
330
19
100
AcDbDictionary
280
     1
281
     1
  3
ACAD_SORTENTS
360
1B
  0
DICTIONARY
  5
2D
102
{ACAD_REACTORS
330
7
102
}
330
7
100
AcDbDictionary
281
     1
  0
DICTIONARY
  5
2B
102
{ACAD_REACTORS
330
7
102
}
330
7
100
AcDbDictionary
281
     1
  0
DICTIONARY
  5
22
102
{ACAD_REACTORS
330
7
102
}
330
7
100
AcDbDictionary
281
     1
  3
Model
350
21
  3
ﾚｲｱｳﾄ1
350
27
  0
DICTIONARY
  5
9
102
{ACAD_REACTORS
330
7
102
}
330
7
100
AcDbDictionary
281
     1
  3
ByBlock
350
55
  3
ByLayer
350
12
  3
Global
350
8
  0
DICTIONARY
  5
45E
102
{ACAD_REACTORS
330
7
102
}
330
7
100
AcDbDictionary
281
     1
  3
Standard
350
47C
  0
DICTIONARY
  5
17
102
{ACAD_REACTORS
330
7
102
}
330
7
100
AcDbDictionary
281
     1
  3
STANDARD
350
16
  0
DICTIONARY
  5
2C
102
{ACAD_REACTORS
330
7
102
}
330
7
100
AcDbDictionary
281
     1
  0
ACDBDICTIONARYWDFLT
  5
6
102
{ACAD_REACTORS
330
7
102
}
330
7
100
AcDbDictionary
281
     1
  3
Normal
350
5
100
AcDbDictionaryWithDefault
340
5
  0
DICTIONARY
  5
32
102
{ACAD_REACTORS
330
7
102
}
330
7
100
AcDbDictionary
281
     1
  3
*A1
350
54
  0
DICTIONARY
  5
45D
102
{ACAD_REACTORS
330
7
102
}
330
7
100
AcDbDictionary
281
     1
  3
Standard
350
480
  0
DICTIONARY
  5
2E
102
{ACAD_REACTORS
330
7
102
}
330
7
100
AcDbDictionary
281
     1
  3
2dWireframe
350
466
  3
Basic
350
469
  3
Brighten
350
46D
  3
ColorChange
350
471
  3
Conceptual
350
46B
  3
Dim
350
46C
  3
EdgeColorOff
350
474
  3
Facepattern
350
470
  3
Flat
350
462
  3
FlatWithEdges
350
463
  3
Gouraud
350
464
  3
GouraudWithEdges
350
465
  3
Hidden
350
468
  3
JitterOff
350
472
  3
Linepattern
350
46F
  3
OverhangOff
350
473
  3
Realistic
350
46A
  3
Shaded
350
479
  3
Shaded with edges
350
478
  3
Shades of Gray
350
475
  3
Sketchy
350
476
  3
Thicken
350
46E
  3
Wireframe
350
467
  3
X-Ray
350
477
  0
DICTIONARY
  5
484
102
{ACAD_REACTORS
330
7
102
}
330
7
100
AcDbDictionary
281
     1
  3
COLORDICT
350
485
  3
MATERIALDICT
350
486
  0
DICTIONARY
  5
45B
102
{ACAD_REACTORS
330
7
102
}
330
7
100
AcDbDictionary
281
     1
  3
CANNOSCALE
350
45C
  3
CMLEADERSTYLE
350
47E
  3
CTABLESTYLE
350
481
  3
DIMASSOC
350
482
  3
HIDETEXT
350
483
  3
MSLTSCALE
350
48A
  3
XCLIPFRAME
350
45F
  0
XRECORD
  5
487
102
{ACAD_REACTORS
330
7
102
}
330
7
100
AcDbXrecord
280
     1
  1
DWGPROPS COOKIE
  2

  3

  4

  6

  7

  8
sg-d04
  9

300
=
301
=
302
=
303
=
304
=
305
=
306
=
307
=
308
=
309
=
 40
0.0
 41
2457438.465215764
 42
2457871.440226875
  1

 90
        0
  0
XRECORD
  5
489
102
{ACAD_REACTORS
330
488
102
}
330
488
100
AcDbXrecord
280
     1
102
VTR_0.000_0.000_1.000_1.000_VISUALSTYLE
340
466
102
VTR_0.000_0.000_1.000_1.000_GRIDDISPLAY
 70
     3
102
VTR_0.000_0.000_1.000_1.000_GRIDMAJOR
 70
     5
102
VTR_0.000_0.000_1.000_1.000_DEFAULTLIGHTING
280
     1
102
VTR_0.000_0.000_1.000_1.000_DEFAULTLIGHTINGTYPE
 70
     1
102
VTR_0.000_0.000_1.000_1.000_BRIGHTNESS
141
0.0
102
VTR_0.000_0.000_1.000_1.000_CONTRAST
142
0.0
  0
XRECORD
  5
1F
102
{ACAD_REACTORS
330
1E
102
}
330
1E
100
AcDbXrecord
280
     1
290
     1
  0
XRECORD
  5
1E3
102
{ACAD_REACTORS
330
1E2
102
}
330
1E2
100
AcDbXrecord
280
     1
290
     1
  0
XRECORD
  5
4
102
{ACAD_REACTORS
330
3
102
}
330
3
100
AcDbXrecord
280
     1
290
     1
  0
XRECORD
  5
9D
102
{ACAD_REACTORS
330
9C
102
}
330
9C
100
AcDbXrecord
280
     1
290
     1
  0
XRECORD
  5
104
102
{ACAD_REACTORS
330
103
102
}
330
103
100
AcDbXrecord
280
     1
290
     1
  0
XRECORD
  5
5B
102
{ACAD_REACTORS
330
5A
102
}
330
5A
100
AcDbXrecord
280
     1
290
     1
  0
SORTENTSTABLE
  5
1B
102
{ACAD_REACTORS
330
1A
102
}
330
1A
100
AcDbSortentsTable
330
19
331
0
  5
45A
331
17A
  5
450
331
17B
  5
44F
331
17C
  5
44E
331
17D
  5
44D
331
2AF
  5
31F
331
2B0
  5
31E
331
2B1
  5
31D
331
2B2
  5
31C
331
2B3
  5
31B
331
2B4
  5
31A
331
2B5
  5
319
331
2B6
  5
318
331
2B7
  5
317
331
2B8
  5
316
331
2B9
  5
315
331
2BA
  5
314
331
2BB
  5
313
331
2BC
  5
312
331
2BD
  5
311
331
2BE
  5
310
331
2BF
  5
30F
331
2C0
  5
30E
331
2C1
  5
30D
331
2C2
  5
30C
331
2C3
  5
30B
331
2C4
  5
30A
331
2C5
  5
309
331
2C6
  5
308
331
2C7
  5
307
331
2C8
  5
306
331
2C9
  5
305
331
2CA
  5
304
331
2CB
  5
303
331
2CC
  5
302
331
2CD
  5
301
331
2CE
  5
300
331
2CF
  5
2FF
331
2D0
  5
2FE
331
2D1
  5
2FD
331
2D2
  5
2FC
331
2D3
  5
2FB
331
2D4
  5
2FA
331
2D5
  5
2F9
331
2D6
  5
2F8
331
2D7
  5
2F7
331
2D8
  5
2F6
331
2D9
  5
2F5
331
2DA
  5
2F4
331
2DB
  5
2F3
331
2DC
  5
2F2
331
2DD
  5
2F1
331
2DE
  5
2F0
331
2DF
  5
2EF
331
2E0
  5
2EE
331
2E1
  5
2ED
331
2E2
  5
2EC
331
2E3
  5
2EB
331
2E4
  5
2EA
331
2E5
  5
2E9
331
2E8
  5
2E6
331
2E9
  5
2E5
331
2EA
  5
2E4
331
2EB
  5
2E3
331
2EC
  5
2E2
331
2ED
  5
2E1
331
2EE
  5
2E0
331
2EF
  5
2DF
331
2F0
  5
2DE
331
2F1
  5
2DD
331
2F2
  5
2DC
331
2F3
  5
2DB
331
2F4
  5
2DA
331
2F5
  5
2D9
331
2F6
  5
2D8
331
2F7
  5
2D7
331
2F8
  5
2D6
331
2F9
  5
2D5
331
2FA
  5
2D4
331
2FB
  5
2D3
331
2FC
  5
2D2
331
2FD
  5
2D1
331
2FE
  5
2D0
331
2FF
  5
2CF
331
300
  5
2CE
331
301
  5
2CD
331
302
  5
2CC
331
303
  5
2CB
331
304
  5
2CA
331
305
  5
2C9
331
306
  5
2C8
331
307
  5
2C7
331
308
  5
2C6
331
309
  5
2C5
331
30A
  5
2C4
331
30B
  5
2C3
331
30C
  5
2C2
331
30D
  5
2C1
331
30E
  5
2C0
331
30F
  5
2BF
331
310
  5
2BE
331
311
  5
2BD
331
312
  5
2BC
331
313
  5
2BB
331
314
  5
2BA
331
315
  5
2B9
331
316
  5
2B8
331
317
  5
2B7
331
318
  5
2B6
331
319
  5
2B5
331
31A
  5
2B4
331
31B
  5
2B3
331
31C
  5
2B2
331
31D
  5
2B1
331
31E
  5
2B0
331
31F
  5
2AF
331
320
  5
2AE
331
321
  5
2AD
331
322
  5
2AC
331
323
  5
2AB
331
324
  5
2AA
331
325
  5
2A9
331
326
  5
2A8
331
327
  5
2A7
331
328
  5
2A6
331
329
  5
2A5
331
32A
  5
2A4
331
32B
  5
2A3
331
32C
  5
2A2
331
32D
  5
2A1
331
32E
  5
2A0
331
32F
  5
29F
331
330
  5
29E
331
331
  5
29D
331
332
  5
29C
331
333
  5
29B
331
334
  5
29A
331
335
  5
299
331
336
  5
298
331
337
  5
297
331
338
  5
296
331
339
  5
295
331
33A
  5
294
331
33B
  5
293
331
33C
  5
292
331
33D
  5
291
331
33E
  5
290
331
33F
  5
28F
331
340
  5
28E
331
341
  5
28D
331
342
  5
28C
331
343
  5
28B
331
344
  5
28A
331
345
  5
289
331
346
  5
288
331
347
  5
287
331
348
  5
286
331
349
  5
285
331
34A
  5
284
331
34B
  5
283
331
34C
  5
282
331
34D
  5
281
331
34E
  5
280
331
34F
  5
27F
331
350
  5
27E
331
351
  5
27D
331
352
  5
27C
331
353
  5
27B
331
354
  5
27A
331
355
  5
279
331
356
  5
278
331
357
  5
277
331
358
  5
276
331
359
  5
275
331
35A
  5
274
331
35B
  5
273
331
35C
  5
272
331
35D
  5
271
331
35E
  5
270
331
35F
  5
26F
331
360
  5
26E
331
361
  5
26D
331
362
  5
26C
331
363
  5
26B
331
364
  5
26A
331
365
  5
269
331
366
  5
268
331
367
  5
267
331
368
  5
266
331
369
  5
265
331
36A
  5
264
331
36B
  5
263
331
36C
  5
262
331
36D
  5
261
331
36E
  5
260
331
36F
  5
25F
331
370
  5
25E
331
371
  5
25D
331
372
  5
25C
331
373
  5
25B
331
374
  5
25A
331
375
  5
259
331
376
  5
258
331
377
  5
257
331
378
  5
256
331
379
  5
255
331
37A
  5
254
331
37B
  5
253
331
37C
  5
252
331
37D
  5
251
331
37E
  5
250
331
37F
  5
24F
331
380
  5
24E
331
381
  5
24D
331
382
  5
24C
331
383
  5
24B
331
384
  5
24A
331
385
  5
249
331
386
  5
248
331
387
  5
247
331
388
  5
246
331
389
  5
245
331
38A
  5
244
331
38B
  5
243
331
38C
  5
242
331
38D
  5
241
331
38E
  5
240
331
38F
  5
23F
331
390
  5
23E
331
391
  5
23D
331
392
  5
23C
331
393
  5
23B
331
394
  5
23A
331
395
  5
239
331
396
  5
238
331
397
  5
237
331
398
  5
236
331
399
  5
235
331
39A
  5
234
331
39B
  5
233
331
39C
  5
232
331
39D
  5
231
331
39E
  5
230
331
39F
  5
22F
331
3A0
  5
22E
331
3A1
  5
22D
331
3A2
  5
22C
331
3A3
  5
22B
331
3A4
  5
22A
331
3A5
  5
229
331
3A6
  5
228
331
3A7
  5
227
331
3A8
  5
226
331
3A9
  5
225
331
3AA
  5
224
331
3AB
  5
223
331
3AC
  5
222
331
3AD
  5
221
331
3AE
  5
220
331
3AF
  5
21F
331
3B0
  5
21E
331
3B1
  5
21D
331
3B2
  5
21C
331
3B3
  5
21B
331
3B4
  5
21A
331
3B5
  5
219
331
3B6
  5
218
331
3B7
  5
217
331
3B8
  5
216
331
3B9
  5
215
331
3BA
  5
214
331
3BB
  5
213
331
3BC
  5
212
331
3BD
  5
211
331
3BE
  5
210
331
3BF
  5
20F
331
3C0
  5
20E
331
3C1
  5
20D
331
3C2
  5
20C
331
3C3
  5
20B
331
3C4
  5
20A
331
3C5
  5
209
331
3C6
  5
208
331
3C7
  5
207
331
3C8
  5
206
331
3C9
  5
205
331
3CA
  5
204
331
3CB
  5
203
331
3CC
  5
202
331
3CD
  5
201
331
3CE
  5
200
331
3CF
  5
1FF
331
3D0
  5
1FE
331
3D1
  5
1FD
331
3D2
  5
1FC
331
3D3
  5
1FB
331
3D4
  5
1FA
331
3D5
  5
1F9
331
3D6
  5
1F8
331
3D7
  5
1F7
331
3D8
  5
1F6
331
3D9
  5
1F5
331
3DA
  5
1F4
331
3DB
  5
1F3
331
3DC
  5
1F2
331
3DD
  5
1F1
331
3DE
  5
1F0
331
3DF
  5
1EF
331
3E0
  5
1EE
331
3E1
  5
1ED
331
3E2
  5
1EC
331
3E3
  5
1EB
331
3E4
  5
1EA
331
3E5
  5
1E9
331
3E6
  5
1E8
331
3E7
  5
1E7
331
3E8
  5
1E6
331
3E9
  5
1E5
331
3F0
  5
1DA
331
3F1
  5
1D9
331
3F2
  5
1D8
331
3F3
  5
1D7
331
3F4
  5
1D6
331
3F5
  5
1D5
331
3F6
  5
1D4
331
3F7
  5
1D3
331
3F8
  5
1D2
331
3F9
  5
1D1
331
3FA
  5
1D0
331
3FB
  5
1CF
331
3FC
  5
1CE
331
3FD
  5
1CD
331
3FE
  5
1CC
331
3FF
  5
1CB
331
400
  5
1CA
331
401
  5
1C9
331
402
  5
1C8
331
403
  5
1C7
331
404
  5
1C6
331
405
  5
1C5
331
406
  5
1C4
331
407
  5
1C3
331
408
  5
1C2
331
409
  5
1C1
331
40A
  5
1C0
331
40B
  5
1BF
331
40D
  5
1BD
331
40E
  5
1BC
331
40F
  5
1BB
331
410
  5
1BA
331
412
  5
1B8
331
413
  5
1B7
331
414
  5
1B6
331
415
  5
1B5
331
416
  5
1B4
331
417
  5
1B3
331
418
  5
1B2
331
419
  5
1B1
331
41A
  5
1B0
331
41B
  5
1AF
331
41C
  5
1AE
331
41D
  5
1AD
331
41E
  5
1AC
331
41F
  5
1AB
331
420
  5
1AA
331
421
  5
1A9
331
422
  5
1A8
331
423
  5
1A7
331
429
  5
1A1
331
42D
  5
19D
331
42E
  5
19C
331
42F
  5
19B
331
430
  5
19A
331
431
  5
199
331
435
  5
195
331
439
  5
191
331
43A
  5
190
331
43B
  5
18F
331
43C
  5
18E
331
43D
  5
18D
331
43E
  5
18C
331
43F
  5
18B
331
440
  5
18A
331
441
  5
189
331
444
  5
186
331
445
  5
185
331
446
  5
184
331
447
  5
183
331
448
  5
182
331
44B
  5
17F
331
44C
  5
17E
331
44D
  5
17D
331
44E
  5
17C
331
44F
  5
17B
331
450
  5
17A
331
451
  5
179
331
452
  5
178
331
453
  5
177
331
454
  5
176
331
455
  5
175
331
456
  5
174
331
457
  5
173
331
458
  5
172
331
459
  5
171
331
45A
  5
170
  0
LAYOUT
  5
21
102
{ACAD_REACTORS
330
22
102
}
330
22
100
AcDbPlotSettings
  1

  2
Bullzip PDF Printer.pc3
  4
A3
  6

 40
0.2
 41
0.0
 42
0.0
 43
0.0
 44
420.2
 45
297.1
 46
25.0
 47
12.0
 48
59.99999985999989
 49
0.0
140
1205.999997235
141
817.4999980924999
142
1.0
143
3.0
 70
 11936
 72
     1
 73
     0
 74
     4
  7
monochrome.ctb
 75
     0
147
0.3333333333333333
148
-59.99999985999989
149
0.0
100
AcDbLayout
  1
Model
 70
     0
 71
     0
 10
0.0
 20
0.0
 11
12.0
 21
9.0
 12
0.0
 22
0.0
 32
0.0
 14
174.801320209732
 24
-1.224395254205604
 34
0.0
 15
1014.252191826401
 25
801.5428263167358
 35
0.0
146
0.0
 13
0.0
 23
0.0
 33
0.0
 16
1.0
 26
0.0
 36
0.0
 17
0.0
 27
1.0
 37
0.0
 76
     0
330
19
331
2F
1001
ACAD_PSEXT
1000
Bullzip PDF Printer.pc3
1000
Bullzip PDF Printer
1000
BULLZIP
1000
Bullzip PDF Printer 10.1.0.1871
1070
     0
  0
LAYOUT
  5
27
102
{ACAD_REACTORS
330
22
102
}
330
22
100
AcDbPlotSettings
  1

  2
C:\Program Files\ACAD LT 2000\plotters\Draftpro-DXL (7575A).pc3
  4

  6

 40
0.0
 41
0.0
 42
0.0
 43
0.0
 44
0.0
 45
0.0
 46
0.0
 47
0.0
 48
0.0
 49
0.0
140
0.0
141
0.0
142
1.0
143
1.0
 70
   688
 72
     0
 73
     0
 74
     5
  7
monochrome.ctb
 75
    16
147
1.0
148
0.0
149
0.0
100
AcDbLayout
  1
ﾚｲｱｳﾄ1
 70
     0
 71
     1
 10
0.0
 20
0.0
 11
12.0
 21
9.0
 12
0.0
 22
0.0
 32
0.0
 14
1.000000000000000E+20
 24
1.000000000000000E+20
 34
1.000000000000000E+20
 15
-1.000000000000000E+20
 25
-1.000000000000000E+20
 35
-1.000000000000000E+20
146
0.0
 13
0.0
 23
0.0
 33
0.0
 16
1.0
 26
0.0
 36
0.0
 17
0.0
 27
1.0
 37
0.0
 76
     0
330
24
  0
MATERIAL
  5
55
102
{ACAD_REACTORS
330
9
102
}
102
{ACAD_XDICTIONARY
360
48F
102
}
330
9
100
AcDbMaterial
  1
ByBlock
 72
     0
 73
     2
 43
0.0208333333333333
 43
0.0
 43
0.0
 43
0.0
 43
0.0
 43
0.0208333333333333
 43
0.0
 43
0.0
 43
0.0
 43
0.0
 43
1.0
 43
0.0
 43
0.0
 43
0.0
 43
0.0
 43
1.0
 77
     0
 78
     2
 47
0.0208333333333333
 47
0.0
 47
0.0
 47
0.0
 47
0.0
 47
0.0208333333333333
 47
0.0
 47
0.0
 47
0.0
 47
0.0
 47
1.0
 47
0.0
 47
0.0
 47
0.0
 47
0.0
 47
1.0
171
     0
172
     2
 49
0.0208333333333333
 49
0.0
 49
0.0
 49
0.0
 49
0.0
 49
0.0208333333333333
 49
0.0
 49
0.0
 49
0.0
 49
0.0
 49
1.0
 49
0.0
 49
0.0
 49
0.0
 49
0.0
 49
1.0
175
     0
176
     2
142
0.0208333333333333
142
0.0
142
0.0
142
0.0
142
0.0
142
0.0208333333333333
142
0.0
142
0.0
142
0.0
142
0.0
142
1.0
142
0.0
142
0.0
142
0.0
142
0.0
142
1.0
179
     0
270
     2
144
0.0208333333333333
144
0.0
144
0.0
144
0.0
144
0.0
144
0.0208333333333333
144
0.0
144
0.0
144
0.0
144
0.0
144
1.0
144
0.0
144
0.0
144
0.0
144
0.0
144
1.0
274
     2
147
0.0208333333333333
147
0.0
147
0.0
147
0.0
147
0.0
147
0.0208333333333333
147
0.0
147
0.0
147
0.0
147
0.0
147
1.0
147
0.0
147
0.0
147
0.0
147
0.0
147
1.0
  0
MATERIAL
  5
12
102
{ACAD_REACTORS
330
9
102
}
102
{ACAD_XDICTIONARY
360
48B
102
}
330
9
100
AcDbMaterial
  1
ByLayer
 72
     0
 73
     2
 43
0.0208333333333333
 43
0.0
 43
0.0
 43
0.0
 43
0.0
 43
0.0208333333333333
 43
0.0
 43
0.0
 43
0.0
 43
0.0
 43
1.0
 43
0.0
 43
0.0
 43
0.0
 43
0.0
 43
1.0
 77
     0
 78
     2
 47
0.0208333333333333
 47
0.0
 47
0.0
 47
0.0
 47
0.0
 47
0.0208333333333333
 47
0.0
 47
0.0
 47
0.0
 47
0.0
 47
1.0
 47
0.0
 47
0.0
 47
0.0
 47
0.0
 47
1.0
171
     0
172
     2
 49
0.0208333333333333
 49
0.0
 49
0.0
 49
0.0
 49
0.0
 49
0.0208333333333333
 49
0.0
 49
0.0
 49
0.0
 49
0.0
 49
1.0
 49
0.0
 49
0.0
 49
0.0
 49
0.0
 49
1.0
175
     0
176
     2
142
0.0208333333333333
142
0.0
142
0.0
142
0.0
142
0.0
142
0.0208333333333333
142
0.0
142
0.0
142
0.0
142
0.0
142
1.0
142
0.0
142
0.0
142
0.0
142
0.0
142
1.0
179
     0
270
     2
144
0.0208333333333333
144
0.0
144
0.0
144
0.0
144
0.0
144
0.0208333333333333
144
0.0
144
0.0
144
0.0
144
0.0
144
1.0
144
0.0
144
0.0
144
0.0
144
0.0
144
1.0
274
     2
147
0.0208333333333333
147
0.0
147
0.0
147
0.0
147
0.0
147
0.0208333333333333
147
0.0
147
0.0
147
0.0
147
0.0
147
1.0
147
0.0
147
0.0
147
0.0
147
0.0
147
1.0
  0
MATERIAL
  5
8
102
{ACAD_REACTORS
330
9
102
}
102
{ACAD_XDICTIONARY
360
48D
102
}
330
9
100
AcDbMaterial
  1
Global
 72
     0
 73
     2
 43
0.0208333333333333
 43
0.0
 43
0.0
 43
0.0
 43
0.0
 43
0.0208333333333333
 43
0.0
 43
0.0
 43
0.0
 43
0.0
 43
1.0
 43
0.0
 43
0.0
 43
0.0
 43
0.0
 43
1.0
 77
     0
 78
     2
 47
0.0208333333333333
 47
0.0
 47
0.0
 47
0.0
 47
0.0
 47
0.0208333333333333
 47
0.0
 47
0.0
 47
0.0
 47
0.0
 47
1.0
 47
0.0
 47
0.0
 47
0.0
 47
0.0
 47
1.0
171
     0
172
     2
 49
0.0208333333333333
 49
0.0
 49
0.0
 49
0.0
 49
0.0
 49
0.0208333333333333
 49
0.0
 49
0.0
 49
0.0
 49
0.0
 49
1.0
 49
0.0
 49
0.0
 49
0.0
 49
0.0
 49
1.0
175
     0
176
     2
142
0.0208333333333333
142
0.0
142
0.0
142
0.0
142
0.0
142
0.0208333333333333
142
0.0
142
0.0
142
0.0
142
0.0
142
1.0
142
0.0
142
0.0
142
0.0
142
0.0
142
1.0
179
     0
270
     2
144
0.0208333333333333
144
0.0
144
0.0
144
0.0
144
0.0
144
0.0208333333333333
144
0.0
144
0.0
144
0.0
144
0.0
144
1.0
144
0.0
144
0.0
144
0.0
144
0.0
144
1.0
274
     2
147
0.0208333333333333
147
0.0
147
0.0
147
0.0
147
0.0
147
0.0208333333333333
147
0.0
147
0.0
147
0.0
147
0.0
147
1.0
147
0.0
147
0.0
147
0.0
147
0.0
147
1.0
1001
ACAD
1070
    -1
1070
     3
1070
     0
1000

1071
        0
  0
MLEADERSTYLE
  5
47C
102
{ACAD_REACTORS
330
45E
102
}
102
{ACAD_XDICTIONARY
360
4C1
102
}
330
45E
100
AcDbMLeaderStyle
170
     2
171
     1
172
     0
 90
        2
 40
0.0
 41
0.0
173
     1
 91
-1056964608
340
F
 92
       -2
290
     1
 42
0.09
291
     1
 43
0.36
  3
Standard
341
0
 44
0.18
300

342
10
174
     1
178
     6
175
     1
176
     0
 93
-1056964608
 45
0.18
292
     0
297
     0
 46
0.18
343
0
 94
-1056964608
 47
1.0
 49
1.0
140
1.0
293
     1
141
0.0
294
     1
177
     0
142
1.0
295
     0
296
     0
143
0.125
1001
ACAD_MLEADERVER
1070
     2
  0
MLINESTYLE
  5
16
102
{ACAD_REACTORS
330
17
102
}
330
17
100
AcDbMlineStyle
  2
STANDARD
 70
     0
  3

 62
     0
 51
90.0
 52
90.0
 71
     2
 49
0.5
 62
   256
  6
BYLAYER
 49
-0.5
 62
   256
  6
BYLAYER
  0
ACDBPLACEHOLDER
  5
5
102
{ACAD_REACTORS
330
6
102
}
330
6
  0
SCALE
  5
54
102
{ACAD_REACTORS
330
32
102
}
330
32
100
AcDbScale
 70
     0
300
1:1
140
1.0
141
1.0
290
     1
  0
TABLESTYLE
  5
480
102
{ACAD_REACTORS
330
45D
102
}
330
45D
100
AcDbTableStyle
  3
Standard
 70
     0
 71
     0
 40
0.06
 41
0.06
280
     0
281
     0
  7
STANDARD
140
0.18
170
     2
 62
     0
 63
   257
283
     0
274
    -2
284
     1
 64
     0
275
    -2
285
     1
 65
     0
276
    -2
286
     1
 66
     0
277
    -2
287
     1
 67
     0
278
    -2
288
     1
 68
     0
279
    -2
289
     1
 69
     0
  7
STANDARD
140
0.25
170
     5
 62
     0
 63
   257
283
     0
274
    -2
284
     1
 64
     0
275
    -2
285
     1
 65
     0
276
    -2
286
     1
 66
     0
277
    -2
287
     1
 67
     0
278
    -2
288
     1
 68
     0
279
    -2
289
     1
 69
     0
  7
STANDARD
140
0.18
170
     5
 62
     0
 63
   257
283
     0
274
    -2
284
     1
 64
     0
275
    -2
285
     1
 65
     0
276
    -2
286
     1
 66
     0
277
    -2
287
     1
 67
     0
278
    -2
288
     1
 68
     0
279
    -2
289
     1
 69
     0
  0
VISUALSTYLE
  5
466
102
{ACAD_REACTORS
330
2E
102
}
102
{ACAD_XDICTIONARY
360
499
102
}
330
2E
100
AcDbVisualStyle
  2
2dWireframe
 70
     4
 71
     0
 72
     2
 73
     0
 90
        0
 40
0.6
 41
30.0
 62
     5
 63
     7
 74
     1
 91
        4
 64
     7
 65
   257
 75
     1
175
     1
 42
1.0
 92
        0
 66
   257
 43
1.0
 76
     1
 77
     6
 78
     2
 67
     7
 79
     5
170
     0
171
     0
290
     0
174
     0
 93
        1
 44
0.0
173
     0
291
     0
 45
0.0
1001
ACAD
1000
AcDbSavedByObjectVersion
1070
     0
  0
VISUALSTYLE
  5
469
102
{ACAD_REACTORS
330
2E
102
}
102
{ACAD_XDICTIONARY
360
49F
102
}
330
2E
100
AcDbVisualStyle
  2
Basic
 70
     7
 71
     1
 72
     0
 73
     1
 90
        0
 40
0.6
 41
30.0
 62
     5
 63
     7
 74
     0
 91
        4
 64
     7
 65
   257
 75
     1
175
     1
 42
1.0
 92
        8
 66
     7
 43
1.0
 76
     1
 77
     6
 78
     2
 67
     7
 79
     5
170
     0
171
     0
290
     0
174
     0
 93
        1
 44
0.0
173
     0
291
     1
 45
0.0
1001
ACAD
1000
AcDbSavedByObjectVersion
1070
     0
  0
VISUALSTYLE
  5
46D
102
{ACAD_REACTORS
330
2E
102
}
102
{ACAD_XDICTIONARY
360
4A7
102
}
330
2E
100
AcDbVisualStyle
  2
Brighten
 70
    12
 71
     2
 72
     2
 73
     0
 90
        0
 40
0.6
 41
30.0
 62
     5
 63
     7
 74
     1
 91
        4
 64
     7
 65
   257
 75
     1
175
     1
 42
1.0
 92
        8
 66
     7
 43
1.0
 76
     1
 77
     6
 78
     2
 67
     7
 79
     5
170
     0
171
     0
290
     0
174
     0
 93
        1
 44
50.0
173
     0
291
     1
 45
0.0
1001
ACAD
1000
AcDbSavedByObjectVersion
1070
     0
  0
VISUALSTYLE
  5
471
102
{ACAD_REACTORS
330
2E
102
}
102
{ACAD_XDICTIONARY
360
4AF
102
}
330
2E
100
AcDbVisualStyle
  2
ColorChange
 70
    16
 71
     2
 72
     2
 73
     3
 90
        0
 40
0.6
 41
30.0
 62
     5
 63
     8
 74
     1
 91
        4
 64
     7
 65
   257
 75
     1
175
     1
 42
1.0
 92
        8
 66
     8
 43
1.0
 76
     1
 77
     6
 78
     2
 67
     7
 79
     5
170
     0
171
     0
290
     0
174
     0
 93
        1
 44
0.0
173
     0
291
     1
 45
0.0
1001
ACAD
1000
AcDbSavedByObjectVersion
1070
     0
  0
VISUALSTYLE
  5
46B
102
{ACAD_REACTORS
330
2E
102
}
102
{ACAD_XDICTIONARY
360
4A3
102
}
330
2E
100
AcDbVisualStyle
  2
Conceptual
 70
     9
 71
     3
 72
     2
 73
     0
 90
        0
 40
0.6
 41
30.0
 62
     5
 63
     7
 74
     2
 91
        2
 64
     7
 65
   257
 75
     1
175
     1
 42
40.0
 92
        8
 66
     7
 43
1.0
 76
     1
 77
     6
 78
     2
 67
     7
 79
     3
170
     0
171
     0
290
     0
174
     0
 93
        1
 44
0.0
173
     0
291
     0
 45
0.0
1001
ACAD
1000
AcDbSavedByObjectVersion
1070
     0
  0
VISUALSTYLE
  5
46C
102
{ACAD_REACTORS
330
2E
102
}
102
{ACAD_XDICTIONARY
360
4A5
102
}
330
2E
100
AcDbVisualStyle
  2
Dim
 70
    11
 71
     2
 72
     2
 73
     0
 90
        0
 40
0.6
 41
30.0
 62
     5
 63
     7
 74
     1
 91
        4
 64
     7
 65
   257
 75
     1
175
     1
 42
1.0
 92
        8
 66
     7
 43
1.0
 76
     1
 77
     6
 78
     2
 67
     7
 79
     5
170
     0
171
     0
290
     0
174
     0
 93
        1
 44
-50.0
173
     0
291
     1
 45
0.0
1001
ACAD
1000
AcDbSavedByObjectVersion
1070
     0
  0
VISUALSTYLE
  5
474
102
{ACAD_REACTORS
330
2E
102
}
102
{ACAD_XDICTIONARY
360
4B5
102
}
330
2E
100
AcDbVisualStyle
  2
EdgeColorOff
 70
    22
 71
     2
 72
     2
 73
     0
 90
        0
 40
0.6
 41
30.0
 62
     5
 63
     7
 74
     1
 91
        4
 64
     7
 65
   257
 75
     1
175
     1
 42
1.0
 92
        8
 66
     7
 43
1.0
 76
     1
 77
     6
 78
     2
 67
     7
 79
     5
170
     0
171
     0
290
     0
174
     0
 93
        1
 44
0.0
173
     0
291
     1
 45
0.0
1001
ACAD
1000
AcDbSavedByObjectVersion
1070
     0
  0
VISUALSTYLE
  5
470
102
{ACAD_REACTORS
330
2E
102
}
102
{ACAD_XDICTIONARY
360
4AD
102
}
330
2E
100
AcDbVisualStyle
  2
Facepattern
 70
    15
 71
     2
 72
     2
 73
     0
 90
        0
 40
0.6
 41
30.0
 62
     5
 63
     7
 74
     1
 91
        4
 64
     7
 65
   257
 75
     1
175
     1
 42
1.0
 92
        8
 66
     7
 43
1.0
 76
     1
 77
     6
 78
     2
 67
     7
 79
     5
170
     0
171
     0
290
     0
174
     0
 93
        1
 44
0.0
173
     0
291
     1
 45
0.0
1001
ACAD
1000
AcDbSavedByObjectVersion
1070
     0
  0
VISUALSTYLE
  5
462
102
{ACAD_REACTORS
330
2E
102
}
102
{ACAD_XDICTIONARY
360
491
102
}
330
2E
100
AcDbVisualStyle
  2
Flat
 70
     0
 71
     2
 72
     1
 73
     1
 90
        2
 40
0.6
 41
30.0
 62
     5
 63
     7
 74
     0
 91
        4
 64
     7
 65
   257
 75
     1
175
     1
 42
1.0
 92
        8
 66
     7
 43
1.0
 76
     1
 77
     6
 78
     2
 67
     7
 79
     5
170
     0
171
     0
290
     0
174
     0
 93
       13
 44
0.0
173
     0
291
     1
 45
0.0
1001
ACAD
1000
AcDbSavedByObjectVersion
1070
     0
  0
VISUALSTYLE
  5
463
102
{ACAD_REACTORS
330
2E
102
}
102
{ACAD_XDICTIONARY
360
493
102
}
330
2E
100
AcDbVisualStyle
  2
FlatWithEdges
 70
     1
 71
     2
 72
     1
 73
     1
 90
        2
 40
0.6
 41
30.0
 62
     5
 63
     7
 74
     1
 91
        4
 64
     7
 65
   257
 75
     1
175
     1
 42
1.0
 92
        0
 66
   257
 43
1.0
 76
     1
 77
     6
 78
     2
 67
     7
 79
     5
170
     0
171
     0
290
     0
174
     0
 93
       13
 44
0.0
173
     0
291
     1
 45
0.0
1001
ACAD
1000
AcDbSavedByObjectVersion
1070
     0
  0
VISUALSTYLE
  5
464
102
{ACAD_REACTORS
330
2E
102
}
102
{ACAD_XDICTIONARY
360
495
102
}
330
2E
100
AcDbVisualStyle
  2
Gouraud
 70
     2
 71
     2
 72
     2
 73
     1
 90
        2
 40
0.6
 41
30.0
 62
     5
 63
     7
 74
     0
 91
        4
 64
     7
 65
   257
 75
     1
175
     1
 42
1.0
 92
        0
 66
     7
 43
1.0
 76
     1
 77
     6
 78
     2
 67
     7
 79
     5
170
     0
171
     0
290
     0
174
     0
 93
       13
 44
0.0
173
     0
291
     1
 45
0.0
1001
ACAD
1000
AcDbSavedByObjectVersion
1070
     0
  0
VISUALSTYLE
  5
465
102
{ACAD_REACTORS
330
2E
102
}
102
{ACAD_XDICTIONARY
360
497
102
}
330
2E
100
AcDbVisualStyle
  2
GouraudWithEdges
 70
     3
 71
     2
 72
     2
 73
     1
 90
        2
 40
0.6
 41
30.0
 62
     5
 63
     7
 74
     1
 91
        4
 64
     7
 65
   257
 75
     1
175
     1
 42
1.0
 92
        0
 66
   257
 43
1.0
 76
     1
 77
     6
 78
     2
 67
     7
 79
     5
170
     0
171
     0
290
     0
174
     0
 93
       13
 44
0.0
173
     0
291
     1
 45
0.0
1001
ACAD
1000
AcDbSavedByObjectVersion
1070
     0
  0
VISUALSTYLE
  5
468
102
{ACAD_REACTORS
330
2E
102
}
102
{ACAD_XDICTIONARY
360
49D
102
}
330
2E
100
AcDbVisualStyle
  2
Hidden
 70
     6
 71
     1
 72
     2
 73
     2
 90
        0
 40
0.6
 41
30.0
 62
     5
 63
     7
 74
     2
 91
        2
 64
     7
 65
   257
 75
     2
175
     1
 42
40.0
 92
        0
 66
   257
 43
1.0
 76
     1
 77
     6
 78
     2
 67
     7
 79
     3
170
     0
171
     0
290
     0
174
     0
 93
        1
 44
0.0
173
     0
291
     0
 45
0.0
1001
ACAD
1000
AcDbSavedByObjectVersion
1070
     0
  0
VISUALSTYLE
  5
472
102
{ACAD_REACTORS
330
2E
102
}
102
{ACAD_XDICTIONARY
360
4B1
102
}
330
2E
100
AcDbVisualStyle
  2
JitterOff
 70
    20
 71
     2
 72
     2
 73
     0
 90
        0
 40
0.6
 41
30.0
 62
     5
 63
     7
 74
     1
 91
        4
 64
     7
 65
   257
 75
     1
175
     1
 42
1.0
 92
       10
 66
     7
 43
1.0
 76
     1
 77
     6
 78
     2
 67
     7
 79
     5
170
     0
171
     0
290
     0
174
     0
 93
        1
 44
0.0
173
     0
291
     1
 45
0.0
1001
ACAD
1000
AcDbSavedByObjectVersion
1070
     0
  0
VISUALSTYLE
  5
46F
102
{ACAD_REACTORS
330
2E
102
}
102
{ACAD_XDICTIONARY
360
4AB
102
}
330
2E
100
AcDbVisualStyle
  2
Linepattern
 70
    14
 71
     2
 72
     2
 73
     0
 90
        0
 40
0.6
 41
30.0
 62
     5
 63
     7
 74
     1
 91
        4
 64
     7
 65
   257
 75
     7
175
     7
 42
1.0
 92
        8
 66
     7
 43
1.0
 76
     1
 77
     6
 78
     2
 67
     7
 79
     5
170
     0
171
     0
290
     0
174
     0
 93
        1
 44
0.0
173
     0
291
     1
 45
0.0
1001
ACAD
1000
AcDbSavedByObjectVersion
1070
     0
  0
VISUALSTYLE
  5
473
102
{ACAD_REACTORS
330
2E
102
}
102
{ACAD_XDICTIONARY
360
4B3
102
}
330
2E
100
AcDbVisualStyle
  2
OverhangOff
 70
    21
 71
     2
 72
     2
 73
     0
 90
        0
 40
0.6
 41
30.0
 62
     5
 63
     7
 74
     1
 91
        4
 64
     7
 65
   257
 75
     1
175
     1
 42
1.0
 92
        9
 66
     7
 43
1.0
 76
     1
 77
     6
 78
     2
 67
     7
 79
     5
170
     0
171
     0
290
     0
174
     0
 93
        1
 44
0.0
173
     0
291
     1
 45
0.0
1001
ACAD
1000
AcDbSavedByObjectVersion
1070
     0
  0
VISUALSTYLE
  5
46A
102
{ACAD_REACTORS
330
2E
102
}
102
{ACAD_XDICTIONARY
360
4A1
102
}
330
2E
100
AcDbVisualStyle
  2
Realistic
 70
     8
 71
     2
 72
     3
 73
     0
 90
        2
 40
0.6
 41
30.0
 62
     5
 63
     7
 74
     0
 91
        0
 64
     7
 65
   257
 75
     1
175
     1
 42
1.0
 92
        8
 66
   257
 43
1.0
 76
     1
 77
     6
 78
     2
 67
     7
 79
     3
170
     0
171
     0
290
     0
174
     0
 93
       13
 44
0.0
173
     0
291
     0
 45
0.0
1001
ACAD
1000
AcDbSavedByObjectVersion
1070
     0
  0
VISUALSTYLE
  5
479
102
{ACAD_REACTORS
330
2E
102
}
102
{ACAD_XDICTIONARY
360
4BF
102
}
330
2E
100
AcDbVisualStyle
  2
Shaded
 70
    27
 71
     2
 72
     2
 73
     1
 90
        2
 40
0.6
 41
30.0
 62
     5
 63
     7
 74
     0
 91
        4
 64
     7
 65
   257
 75
     1
175
     1
 42
1.0
 92
        8
 66
   257
 43
1.0
 76
     1
 77
     6
 78
     2
 67
   251
 79
     3
170
     0
171
     0
290
     0
174
     0
 93
        5
 44
0.0
173
     0
291
     0
 45
0.0
1001
ACAD
1000
AcDbSavedByObjectVersion
1070
     0
  0
VISUALSTYLE
  5
478
102
{ACAD_REACTORS
330
2E
102
}
102
{ACAD_XDICTIONARY
360
4BD
102
}
330
2E
100
AcDbVisualStyle
  2
Shaded with edges
 70
    26
 71
     2
 72
     2
 73
     1
 90
        2
 40
0.6
 41
30.0
 62
     5
 63
     7
 74
     1
 91
       10
 64
     7
 65
   257
 75
     2
175
     1
 42
1.0
 92
        8
 66
   257
 43
1.0
 76
     1
 77
     6
 78
     2
 67
     7
 79
     3
170
     0
171
     0
290
     0
174
     0
 93
        5
 44
0.0
173
     0
291
     0
 45
0.0
1001
ACAD
1000
AcDbSavedByObjectVersion
1070
     0
  0
VISUALSTYLE
  5
475
102
{ACAD_REACTORS
330
2E
102
}
102
{ACAD_XDICTIONARY
360
4B7
102
}
330
2E
100
AcDbVisualStyle
  2
Shades of Gray
 70
    23
 71
     2
 72
     2
 73
     3
 90
        0
 40
0.6
 41
30.0
 62
     5
 63
     7
 74
     2
 91
        2
 64
     7
 65
     7
 75
     1
175
     1
 42
40.0
 92
        8
 66
     7
 43
1.0
 76
     1
 77
     6
 78
     2
 67
     7
 79
     3
170
     0
171
     0
290
     0
174
     0
 93
        1
 44
0.0
173
     0
291
     0
 45
0.0
1001
ACAD
1000
AcDbSavedByObjectVersion
1070
     0
  0
VISUALSTYLE
  5
476
102
{ACAD_REACTORS
330
2E
102
}
102
{ACAD_XDICTIONARY
360
4B9
102
}
330
2E
100
AcDbVisualStyle
  2
Sketchy
 70
    24
 71
     1
 72
     2
 73
     2
 90
        0
 40
0.6
 41
30.0
 62
     5
 63
     7
 74
     2
 91
        2
 64
     7
 65
     7
 75
     1
175
     1
 42
40.0
 92
       11
 66
     7
 43
1.0
 76
     1
 77
     6
 78
     2
 67
     7
 79
     6
170
     0
171
     0
290
     0
174
     0
 93
        1
 44
0.0
173
     0
291
     0
 45
0.0
1001
ACAD
1000
AcDbSavedByObjectVersion
1070
     0
  0
VISUALSTYLE
  5
46E
102
{ACAD_REACTORS
330
2E
102
}
102
{ACAD_XDICTIONARY
360
4A9
102
}
330
2E
100
AcDbVisualStyle
  2
Thicken
 70
    13
 71
     2
 72
     2
 73
     0
 90
        0
 40
0.6
 41
30.0
 62
     5
 63
     7
 74
     1
 91
        4
 64
     7
 65
   257
 75
     1
175
     1
 42
1.0
 92
       12
 66
     7
 43
1.0
 76
     1
 77
     6
 78
     2
 67
     7
 79
     5
170
     0
171
     0
290
     0
174
     0
 93
        1
 44
0.0
173
     0
291
     1
 45
0.0
1001
ACAD
1000
AcDbSavedByObjectVersion
1070
     0
  0
VISUALSTYLE
  5
467
102
{ACAD_REACTORS
330
2E
102
}
102
{ACAD_XDICTIONARY
360
49B
102
}
330
2E
100
AcDbVisualStyle
  2
Wireframe
 70
     5
 71
     0
 72
     2
 73
     0
 90
        0
 40
0.6
 41
30.0
 62
     5
 63
     7
 74
     1
 91
        4
 64
     7
 65
   257
 75
     1
175
     1
 42
1.0
 92
        0
 66
   257
 43
1.0
 76
     1
 77
     6
 78
     2
 67
     7
 79
     5
170
     0
171
     0
290
     0
174
     0
 93
        1
 44
0.0
173
     0
291
     0
 45
0.0
1001
ACAD
1000
AcDbSavedByObjectVersion
1070
     0
  0
VISUALSTYLE
  5
477
102
{ACAD_REACTORS
330
2E
102
}
102
{ACAD_XDICTIONARY
360
4BB
102
}
330
2E
100
AcDbVisualStyle
  2
X-Ray
 70
    25
 71
     2
 72
     2
 73
     1
 90
        1
 40
0.5
 41
30.0
 62
     5
 63
     7
 74
     1
 91
        0
 64
     7
 65
   257
 75
     1
175
     1
 42
1.0
 92
        8
 66
     7
 43
1.0
 76
     1
 77
     6
 78
     2
 67
     7
 79
     3
170
     0
171
     0
290
     0
174
     0
 93
       13
 44
0.0
173
     0
291
     0
 45
0.0
1001
ACAD
1000
AcDbSavedByObjectVersion
1070
     0
  0
XRECORD
  5
485
102
{ACAD_REACTORS
330
484
102
}
330
484
100
AcDbXrecord
280
     1
340
2D
  0
XRECORD
  5
486
102
{ACAD_REACTORS
330
484
102
}
330
484
100
AcDbXrecord
280
     1
340
9
  0
DICTIONARYVAR
  5
45C
102
{ACAD_REACTORS
330
45B
102
}
330
45B
100
DictionaryVariables
280
     0
  1
1:1
  0
DICTIONARYVAR
  5
47E
102
{ACAD_REACTORS
330
45B
102
}
330
45B
100
DictionaryVariables
280
     0
  1
Standard
  0
DICTIONARYVAR
  5
481
102
{ACAD_REACTORS
330
45B
102
}
330
45B
100
DictionaryVariables
280
     0
  1
Standard
  0
DICTIONARYVAR
  5
482
102
{ACAD_REACTORS
330
45B
102
}
330
45B
100
DictionaryVariables
280
     0
  1
0
  0
DICTIONARYVAR
  5
483
102
{ACAD_REACTORS
330
45B
102
}
330
45B
100
DictionaryVariables
280
     0
  1
1
  0
DICTIONARYVAR
  5
48A
102
{ACAD_REACTORS
330
45B
102
}
330
45B
100
DictionaryVariables
280
     0
  1
1
  0
DICTIONARYVAR
  5
45F
102
{ACAD_REACTORS
330
45B
102
}
330
45B
100
DictionaryVariables
280
     0
  1
0
  0
DICTIONARY
  5
48F
330
55
100
AcDbDictionary
280
     1
281
     1
  3
ACAD_XREC_ROUNDTRIP
360
490
  0
DICTIONARY
  5
48B
330
12
100
AcDbDictionary
280
     1
281
     1
  3
ACAD_XREC_ROUNDTRIP
360
48C
  0
DICTIONARY
  5
48D
330
8
100
AcDbDictionary
280
     1
281
     1
  3
ACAD_XREC_ROUNDTRIP
360
48E
  0
DICTIONARY
  5
4C1
330
47C
100
AcDbDictionary
280
     1
281
     1
  3
ACAD_XREC_ROUNDTRIP
360
4C2
  0
DICTIONARY
  5
499
330
466
100
AcDbDictionary
280
     1
281
     1
  3
ACAD_XREC_ROUNDTRIP
360
49A
  0
DICTIONARY
  5
49F
330
469
100
AcDbDictionary
280
     1
281
     1
  3
ACAD_XREC_ROUNDTRIP
360
4A0
  0
DICTIONARY
  5
4A7
330
46D
100
AcDbDictionary
280
     1
281
     1
  3
ACAD_XREC_ROUNDTRIP
360
4A8
  0
DICTIONARY
  5
4AF
330
471
100
AcDbDictionary
280
     1
281
     1
  3
ACAD_XREC_ROUNDTRIP
360
4B0
  0
DICTIONARY
  5
4A3
330
46B
100
AcDbDictionary
280
     1
281
     1
  3
ACAD_XREC_ROUNDTRIP
360
4A4
  0
DICTIONARY
  5
4A5
330
46C
100
AcDbDictionary
280
     1
281
     1
  3
ACAD_XREC_ROUNDTRIP
360
4A6
  0
DICTIONARY
  5
4B5
330
474
100
AcDbDictionary
280
     1
281
     1
  3
ACAD_XREC_ROUNDTRIP
360
4B6
  0
DICTIONARY
  5
4AD
330
470
100
AcDbDictionary
280
     1
281
     1
  3
ACAD_XREC_ROUNDTRIP
360
4AE
  0
DICTIONARY
  5
491
330
462
100
AcDbDictionary
280
     1
281
     1
  3
ACAD_XREC_ROUNDTRIP
360
492
  0
DICTIONARY
  5
493
330
463
100
AcDbDictionary
280
     1
281
     1
  3
ACAD_XREC_ROUNDTRIP
360
494
  0
DICTIONARY
  5
495
330
464
100
AcDbDictionary
280
     1
281
     1
  3
ACAD_XREC_ROUNDTRIP
360
496
  0
DICTIONARY
  5
497
330
465
100
AcDbDictionary
280
     1
281
     1
  3
ACAD_XREC_ROUNDTRIP
360
498
  0
DICTIONARY
  5
49D
330
468
100
AcDbDictionary
280
     1
281
     1
  3
ACAD_XREC_ROUNDTRIP
360
49E
  0
DICTIONARY
  5
4B1
330
472
100
AcDbDictionary
280
     1
281
     1
  3
ACAD_XREC_ROUNDTRIP
360
4B2
  0
DICTIONARY
  5
4AB
330
46F
100
AcDbDictionary
280
     1
281
     1
  3
ACAD_XREC_ROUNDTRIP
360
4AC
  0
DICTIONARY
  5
4B3
330
473
100
AcDbDictionary
280
     1
281
     1
  3
ACAD_XREC_ROUNDTRIP
360
4B4
  0
DICTIONARY
  5
4A1
330
46A
100
AcDbDictionary
280
     1
281
     1
  3
ACAD_XREC_ROUNDTRIP
360
4A2
  0
DICTIONARY
  5
4BF
330
479
100
AcDbDictionary
280
     1
281
     1
  3
ACAD_XREC_ROUNDTRIP
360
4C0
  0
DICTIONARY
  5
4BD
330
478
100
AcDbDictionary
280
     1
281
     1
  3
ACAD_XREC_ROUNDTRIP
360
4BE
  0
DICTIONARY
  5
4B7
330
475
100
AcDbDictionary
280
     1
281
     1
  3
ACAD_XREC_ROUNDTRIP
360
4B8
  0
DICTIONARY
  5
4B9
330
476
100
AcDbDictionary
280
     1
281
     1
  3
ACAD_XREC_ROUNDTRIP
360
4BA
  0
DICTIONARY
  5
4A9
330
46E
100
AcDbDictionary
280
     1
281
     1
  3
ACAD_XREC_ROUNDTRIP
360
4AA
  0
DICTIONARY
  5
49B
330
467
100
AcDbDictionary
280
     1
281
     1
  3
ACAD_XREC_ROUNDTRIP
360
49C
  0
DICTIONARY
  5
4BB
330
477
100
AcDbDictionary
280
     1
281
     1
  3
ACAD_XREC_ROUNDTRIP
360
4BC
  0
XRECORD
  5
490
102
{ACAD_REACTORS
330
48F
102
}
330
48F
100
AcDbXrecord
280
     1
102
MATERIAL
148
0.0
149
0.0
149
0.0
 93
        0
 94
      127
282
     0
 72
     0
 77
     0
171
     0
175
     0
179
     0
273
     0
  0
XRECORD
  5
48C
102
{ACAD_REACTORS
330
48B
102
}
330
48B
100
AcDbXrecord
280
     1
102
MATERIAL
148
0.0
149
0.0
149
0.0
 93
        0
 94
      127
282
     0
 72
     0
 77
     0
171
     0
175
     0
179
     0
273
     0
  0
XRECORD
  5
48E
102
{ACAD_REACTORS
330
48D
102
}
330
48D
100
AcDbXrecord
280
     1
102
MATERIAL
148
0.0
149
0.0
149
0.0
 93
        0
 94
      127
282
     0
 72
     0
 77
     0
171
     0
175
     0
179
     0
273
     0
  0
XRECORD
  5
4C2
102
{ACAD_REACTORS
330
4C1
102
}
330
4C1
100
AcDbXrecord
280
     1
102
ACAD_ROUNDTRIP_2010_MLEADER_STYLE
  0
XRECORD
  5
49A
102
{ACAD_REACTORS
330
499
102
}
330
499
100
AcDbXrecord
280
     1
102
RTVSPropertyOp0
 70
     1
102
RTVSPropertyOp1
 70
     1
102
RTVSPropertyOp2
 70
     1
102
RTVSPropertyOp3
 70
     1
102
RTVSPropertyOp4
 70
     1
102
RTVSPropertyOp5
 70
     1
102
RTVSPropertyOp6
 70
     1
102
RTVSPropertyOp7
 70
     1
102
RTVSPropertyOp8
 70
     1
102
RTVSPropertyOp9
 70
     1
102
RTVSPropertyOp10
 70
     1
102
RTVSPropertyOp11
 70
     1
102
RTVSPropertyOp12
 70
     1
102
RTVSPropertyOp13
 70
     1
102
RTVSPropertyOp14
 70
     1
102
RTVSPropertyOp15
 70
     1
102
RTVSPropertyOp16
 70
     1
102
RTVSPropertyOp17
 70
     1
102
RTVSPropertyOp18
 70
     1
102
RTVSPropertyOp19
 70
     1
102
RTVSPropertyOp20
 70
     1
102
RTVSPropertyOp21
 70
     1
102
RTVSPropertyOp22
 70
     1
102
RTVSPropertyOp23
 70
     1
102
RTVSPropertyOp24
 70
     1
102
RTVSPropertyOp25
 70
     1
102
RTVSPropertyOp26
 70
     1
102
RTVSPropertyOp27
 70
     1
102
RTVSPropertyOp28
 70
     1
102
RTVSPropertyOp29
 70
     1
102
RTVSPropertyOp30
 70
     1
102
RTVSPropertyOp31
 70
     1
102
RTVSPropertyOp32
 70
     1
102
RTVSPropertyOp33
 70
     1
102
RTVSPropertyOp34
 70
     1
102
RTVSPropertyOp35
 70
     1
102
RTVSPropertyOp36
 70
     1
102
RTVSPropertyOp37
 70
     1
102
RTVSPropertyOp38
 70
     1
102
RTVSPropertyOp39
 70
     1
102
RTVSPropertyOp40
 70
     1
102
RTVSPropertyOp41
 70
     1
102
RTVSPropertyOp42
 70
     1
102
RTVSPropertyOp43
 70
     1
102
RTVSPropertyOp44
 70
     1
102
RTVSPropertyOp45
 70
     1
102
RTVSPropertyOp46
 70
     1
102
RTVSPropertyOp47
 70
     1
102
RTVSPropertyOp48
 70
     1
102
RTVSPropertyOp49
 70
     1
102
RTVSPropertyOp50
 70
     1
102
RTVSPropertyOp51
 70
     0
102
RTVSPropertyOp52
 70
     0
102
RTVSPropertyOp53
 70
     1
102
RTVSPropertyOp54
 70
     1
102
RTVSPropertyOp55
 70
     1
102
RTVSPropertyOp56
 70
     1
102
RTVSPropertyOp57
 70
     1
102
RTVSPost2010Prop28
280
     1
102
RTVSPost2010PropOp28
 70
     1
102
RTVSPost2010Prop29
280
     1
102
RTVSPost2010PropOp29
 70
     1
102
RTVSPost2010Prop30
280
     0
102
RTVSPost2010PropOp30
 70
     1
102
RTVSPost2010Prop31
280
     0
102
RTVSPost2010PropOp31
 70
     1
102
RTVSPost2010Prop32
280
     0
102
RTVSPost2010PropOp32
 70
     1
102
RTVSPost2010Prop33
280
     0
102
RTVSPost2010PropOp33
 70
     1
102
RTVSPost2010Prop34
280
     0
102
RTVSPost2010PropOp34
 70
     1
102
RTVSPost2010Prop35
280
     0
102
RTVSPost2010PropOp35
 70
     1
102
RTVSPost2010Prop36
280
     0
102
RTVSPost2010PropOp36
 70
     1
102
RTVSPost2010Prop37
 90
       50
102
RTVSPost2010PropOp37
 70
     1
102
RTVSPost2010Prop38
140
0.0
102
RTVSPost2010PropOp38
 70
     1
102
RTVSPost2010Prop39
140
1.0
102
RTVSPost2010PropOp39
 70
     1
102
RTVSPost2010Prop40
 90
        0
102
RTVSPost2010PropOp40
 70
     1
102
RTVSPost2010Prop41ColorIndex
 90
       18
102
RTVSPost2010Prop41ColorRGB
 90
        0
102
RTVSPost2010PropOp41
 70
     1
102
RTVSPost2010Prop42
 90
       50
102
RTVSPost2010PropOp42
 70
     1
102
RTVSPost2010Prop43
 90
        3
102
RTVSPost2010PropOp43
 70
     1
102
RTVSPost2010Prop44ColorIndex
 90
        5
102
RTVSPost2010Prop44ColorRGB
 90
      255
102
RTVSPost2010PropOp44
 70
     1
102
RTVSPost2010Prop45
280
     0
102
RTVSPost2010PropOp45
 70
     1
102
RTVSPost2010Prop46
 90
       50
102
RTVSPost2010PropOp46
 70
     1
102
RTVSPost2010Prop47
 90
       50
102
RTVSPost2010PropOp47
 70
     1
102
RTVSPost2010Prop48
 90
       50
102
RTVSPost2010PropOp48
 70
     1
102
RTVSPost2010Prop49
280
     0
102
RTVSPost2010PropOp49
 70
     1
102
RTVSPost2010Prop50
 90
       50
102
RTVSPost2010PropOp50
 70
     1
102
RTVSPost2010Prop51ColorIndex
 90
      256
102
RTVSPost2010Prop51ColorRGB
 90
-16777216
102
RTVSPost2010PropOp51
 70
     0
102
RTVSPost2010Prop52
140
1.0
102
RTVSPost2010PropOp52
 70
     0
102
RTVSPost2010Prop53
 90
        2
102
RTVSPost2010PropOp53
 70
     1
102
RTVSPost2010Prop54
  1
strokes_ogs.tif
102
RTVSPost2010PropOp54
 70
     1
102
RTVSPost2010Prop55
280
     0
102
RTVSPost2010PropOp55
 70
     1
102
RTVSPost2010Prop56
140
1.0
102
RTVSPost2010PropOp56
 70
     1
102
RTVSPost2010Prop57
140
1.0
102
RTVSPost2010PropOp57
 70
     1
  0
XRECORD
  5
4A0
102
{ACAD_REACTORS
330
49F
102
}
330
49F
100
AcDbXrecord
280
     1
102
RTVSPropertyOp0
 70
     1
102
RTVSPropertyOp1
 70
     1
102
RTVSPropertyOp2
 70
     1
102
RTVSPropertyOp3
 70
     1
102
RTVSPropertyOp4
 70
     1
102
RTVSPropertyOp5
 70
     1
102
RTVSPropertyOp6
 70
     1
102
RTVSPropertyOp7
 70
     1
102
RTVSPropertyOp8
 70
     1
102
RTVSPropertyOp9
 70
     1
102
RTVSPropertyOp10
 70
     1
102
RTVSPropertyOp11
 70
     1
102
RTVSPropertyOp12
 70
     1
102
RTVSPropertyOp13
 70
     1
102
RTVSPropertyOp14
 70
     1
102
RTVSPropertyOp15
 70
     1
102
RTVSPropertyOp16
 70
     1
102
RTVSPropertyOp17
 70
     1
102
RTVSPropertyOp18
 70
     1
102
RTVSPropertyOp19
 70
     1
102
RTVSPropertyOp20
 70
     1
102
RTVSPropertyOp21
 70
     1
102
RTVSPropertyOp22
 70
     1
102
RTVSPropertyOp23
 70
     1
102
RTVSPropertyOp24
 70
     1
102
RTVSPropertyOp25
 70
     1
102
RTVSPropertyOp26
 70
     1
102
RTVSPropertyOp27
 70
     1
102
RTVSPropertyOp28
 70
     1
102
RTVSPropertyOp29
 70
     1
102
RTVSPropertyOp30
 70
     1
102
RTVSPropertyOp31
 70
     1
102
RTVSPropertyOp32
 70
     1
102
RTVSPropertyOp33
 70
     1
102
RTVSPropertyOp34
 70
     1
102
RTVSPropertyOp35
 70
     1
102
RTVSPropertyOp36
 70
     1
102
RTVSPropertyOp37
 70
     1
102
RTVSPropertyOp38
 70
     1
102
RTVSPropertyOp39
 70
     1
102
RTVSPropertyOp40
 70
     1
102
RTVSPropertyOp41
 70
     1
102
RTVSPropertyOp42
 70
     1
102
RTVSPropertyOp43
 70
     1
102
RTVSPropertyOp44
 70
     1
102
RTVSPropertyOp45
 70
     1
102
RTVSPropertyOp46
 70
     1
102
RTVSPropertyOp47
 70
     1
102
RTVSPropertyOp48
 70
     1
102
RTVSPropertyOp49
 70
     1
102
RTVSPropertyOp50
 70
     1
102
RTVSPropertyOp51
 70
     0
102
RTVSPropertyOp52
 70
     0
102
RTVSPropertyOp53
 70
     1
102
RTVSPropertyOp54
 70
     1
102
RTVSPropertyOp55
 70
     1
102
RTVSPropertyOp56
 70
     1
102
RTVSPropertyOp57
 70
     1
102
RTVSPost2010Prop28
280
     0
102
RTVSPost2010PropOp28
 70
     1
102
RTVSPost2010Prop29
280
     1
102
RTVSPost2010PropOp29
 70
     1
102
RTVSPost2010Prop30
280
     1
102
RTVSPost2010PropOp30
 70
     1
102
RTVSPost2010Prop31
280
     0
102
RTVSPost2010PropOp31
 70
     1
102
RTVSPost2010Prop32
280
     0
102
RTVSPost2010PropOp32
 70
     1
102
RTVSPost2010Prop33
280
     0
102
RTVSPost2010PropOp33
 70
     1
102
RTVSPost2010Prop34
280
     0
102
RTVSPost2010PropOp34
 70
     1
102
RTVSPost2010Prop35
280
     0
102
RTVSPost2010PropOp35
 70
     1
102
RTVSPost2010Prop36
280
     0
102
RTVSPost2010PropOp36
 70
     1
102
RTVSPost2010Prop37
 90
       50
102
RTVSPost2010PropOp37
 70
     1
102
RTVSPost2010Prop38
140
0.0
102
RTVSPost2010PropOp38
 70
     1
102
RTVSPost2010Prop39
140
1.0
102
RTVSPost2010PropOp39
 70
     1
102
RTVSPost2010Prop40
 90
        0
102
RTVSPost2010PropOp40
 70
     1
102
RTVSPost2010Prop41ColorIndex
 90
       18
102
RTVSPost2010Prop41ColorRGB
 90
        0
102
RTVSPost2010PropOp41
 70
     1
102
RTVSPost2010Prop42
 90
       50
102
RTVSPost2010PropOp42
 70
     1
102
RTVSPost2010Prop43
 90
        3
102
RTVSPost2010PropOp43
 70
     1
102
RTVSPost2010Prop44ColorIndex
 90
        5
102
RTVSPost2010Prop44ColorRGB
 90
      255
102
RTVSPost2010PropOp44
 70
     1
102
RTVSPost2010Prop45
280
     0
102
RTVSPost2010PropOp45
 70
     1
102
RTVSPost2010Prop46
 90
       50
102
RTVSPost2010PropOp46
 70
     1
102
RTVSPost2010Prop47
 90
       50
102
RTVSPost2010PropOp47
 70
     1
102
RTVSPost2010Prop48
 90
       50
102
RTVSPost2010PropOp48
 70
     1
102
RTVSPost2010Prop49
280
     0
102
RTVSPost2010PropOp49
 70
     1
102
RTVSPost2010Prop50
 90
       50
102
RTVSPost2010PropOp50
 70
     1
102
RTVSPost2010Prop51ColorIndex
 90
      256
102
RTVSPost2010Prop51ColorRGB
 90
-16777216
102
RTVSPost2010PropOp51
 70
     0
102
RTVSPost2010Prop52
140
1.0
102
RTVSPost2010PropOp52
 70
     0
102
RTVSPost2010Prop53
 90
        2
102
RTVSPost2010PropOp53
 70
     1
102
RTVSPost2010Prop54
  1
strokes_ogs.tif
102
RTVSPost2010PropOp54
 70
     1
102
RTVSPost2010Prop55
280
     0
102
RTVSPost2010PropOp55
 70
     1
102
RTVSPost2010Prop56
140
1.0
102
RTVSPost2010PropOp56
 70
     1
102
RTVSPost2010Prop57
140
1.0
102
RTVSPost2010PropOp57
 70
     1
  0
XRECORD
  5
4A8
102
{ACAD_REACTORS
330
4A7
102
}
330
4A7
100
AcDbXrecord
280
     1
102
RTVSPropertyOp0
 70
     1
102
RTVSPropertyOp1
 70
     1
102
RTVSPropertyOp2
 70
     1
102
RTVSPropertyOp3
 70
     1
102
RTVSPropertyOp4
 70
     1
102
RTVSPropertyOp5
 70
     1
102
RTVSPropertyOp6
 70
     1
102
RTVSPropertyOp7
 70
     1
102
RTVSPropertyOp8
 70
     1
102
RTVSPropertyOp9
 70
     1
102
RTVSPropertyOp10
 70
     1
102
RTVSPropertyOp11
 70
     1
102
RTVSPropertyOp12
 70
     1
102
RTVSPropertyOp13
 70
     1
102
RTVSPropertyOp14
 70
     1
102
RTVSPropertyOp15
 70
     1
102
RTVSPropertyOp16
 70
     1
102
RTVSPropertyOp17
 70
     1
102
RTVSPropertyOp18
 70
     1
102
RTVSPropertyOp19
 70
     1
102
RTVSPropertyOp20
 70
     1
102
RTVSPropertyOp21
 70
     1
102
RTVSPropertyOp22
 70
     1
102
RTVSPropertyOp23
 70
     1
102
RTVSPropertyOp24
 70
     1
102
RTVSPropertyOp25
 70
     1
102
RTVSPropertyOp26
 70
     1
102
RTVSPropertyOp27
 70
     1
102
RTVSPropertyOp28
 70
     1
102
RTVSPropertyOp29
 70
     1
102
RTVSPropertyOp30
 70
     1
102
RTVSPropertyOp31
 70
     1
102
RTVSPropertyOp32
 70
     1
102
RTVSPropertyOp33
 70
     1
102
RTVSPropertyOp34
 70
     1
102
RTVSPropertyOp35
 70
     1
102
RTVSPropertyOp36
 70
     1
102
RTVSPropertyOp37
 70
     1
102
RTVSPropertyOp38
 70
     1
102
RTVSPropertyOp39
 70
     1
102
RTVSPropertyOp40
 70
     1
102
RTVSPropertyOp41
 70
     1
102
RTVSPropertyOp42
 70
     1
102
RTVSPropertyOp43
 70
     1
102
RTVSPropertyOp44
 70
     1
102
RTVSPropertyOp45
 70
     1
102
RTVSPropertyOp46
 70
     1
102
RTVSPropertyOp47
 70
     1
102
RTVSPropertyOp48
 70
     1
102
RTVSPropertyOp49
 70
     1
102
RTVSPropertyOp50
 70
     1
102
RTVSPropertyOp51
 70
     0
102
RTVSPropertyOp52
 70
     0
102
RTVSPropertyOp53
 70
     1
102
RTVSPropertyOp54
 70
     1
102
RTVSPropertyOp55
 70
     1
102
RTVSPropertyOp56
 70
     1
102
RTVSPropertyOp57
 70
     1
102
RTVSPost2010Prop28
280
     0
102
RTVSPost2010PropOp28
 70
     1
102
RTVSPost2010Prop29
280
     1
102
RTVSPost2010PropOp29
 70
     1
102
RTVSPost2010Prop30
280
     1
102
RTVSPost2010PropOp30
 70
     1
102
RTVSPost2010Prop31
280
     0
102
RTVSPost2010PropOp31
 70
     1
102
RTVSPost2010Prop32
280
     0
102
RTVSPost2010PropOp32
 70
     1
102
RTVSPost2010Prop33
280
     0
102
RTVSPost2010PropOp33
 70
     1
102
RTVSPost2010Prop34
280
     0
102
RTVSPost2010PropOp34
 70
     1
102
RTVSPost2010Prop35
280
     0
102
RTVSPost2010PropOp35
 70
     1
102
RTVSPost2010Prop36
280
     0
102
RTVSPost2010PropOp36
 70
     1
102
RTVSPost2010Prop37
 90
       50
102
RTVSPost2010PropOp37
 70
     1
102
RTVSPost2010Prop38
140
0.0
102
RTVSPost2010PropOp38
 70
     1
102
RTVSPost2010Prop39
140
1.0
102
RTVSPost2010PropOp39
 70
     1
102
RTVSPost2010Prop40
 90
        0
102
RTVSPost2010PropOp40
 70
     1
102
RTVSPost2010Prop41ColorIndex
 90
       18
102
RTVSPost2010Prop41ColorRGB
 90
        0
102
RTVSPost2010PropOp41
 70
     1
102
RTVSPost2010Prop42
 90
       50
102
RTVSPost2010PropOp42
 70
     1
102
RTVSPost2010Prop43
 90
        3
102
RTVSPost2010PropOp43
 70
     1
102
RTVSPost2010Prop44ColorIndex
 90
        5
102
RTVSPost2010Prop44ColorRGB
 90
      255
102
RTVSPost2010PropOp44
 70
     1
102
RTVSPost2010Prop45
280
     0
102
RTVSPost2010PropOp45
 70
     1
102
RTVSPost2010Prop46
 90
       50
102
RTVSPost2010PropOp46
 70
     1
102
RTVSPost2010Prop47
 90
       50
102
RTVSPost2010PropOp47
 70
     1
102
RTVSPost2010Prop48
 90
       50
102
RTVSPost2010PropOp48
 70
     1
102
RTVSPost2010Prop49
280
     0
102
RTVSPost2010PropOp49
 70
     1
102
RTVSPost2010Prop50
 90
       50
102
RTVSPost2010PropOp50
 70
     1
102
RTVSPost2010Prop51ColorIndex
 90
      256
102
RTVSPost2010Prop51ColorRGB
 90
-16777216
102
RTVSPost2010PropOp51
 70
     0
102
RTVSPost2010Prop52
140
1.0
102
RTVSPost2010PropOp52
 70
     0
102
RTVSPost2010Prop53
 90
        2
102
RTVSPost2010PropOp53
 70
     1
102
RTVSPost2010Prop54
  1
strokes_ogs.tif
102
RTVSPost2010PropOp54
 70
     1
102
RTVSPost2010Prop55
280
     0
102
RTVSPost2010PropOp55
 70
     1
102
RTVSPost2010Prop56
140
1.0
102
RTVSPost2010PropOp56
 70
     1
102
RTVSPost2010Prop57
140
1.0
102
RTVSPost2010PropOp57
 70
     1
  0
XRECORD
  5
4B0
102
{ACAD_REACTORS
330
4AF
102
}
330
4AF
100
AcDbXrecord
280
     1
102
RTVSPropertyOp0
 70
     1
102
RTVSPropertyOp1
 70
     1
102
RTVSPropertyOp2
 70
     1
102
RTVSPropertyOp3
 70
     1
102
RTVSPropertyOp4
 70
     1
102
RTVSPropertyOp5
 70
     1
102
RTVSPropertyOp6
 70
     1
102
RTVSPropertyOp7
 70
     1
102
RTVSPropertyOp8
 70
     1
102
RTVSPropertyOp9
 70
     1
102
RTVSPropertyOp10
 70
     1
102
RTVSPropertyOp11
 70
     1
102
RTVSPropertyOp12
 70
     1
102
RTVSPropertyOp13
 70
     1
102
RTVSPropertyOp14
 70
     1
102
RTVSPropertyOp15
 70
     1
102
RTVSPropertyOp16
 70
     1
102
RTVSPropertyOp17
 70
     1
102
RTVSPropertyOp18
 70
     1
102
RTVSPropertyOp19
 70
     1
102
RTVSPropertyOp20
 70
     1
102
RTVSPropertyOp21
 70
     1
102
RTVSPropertyOp22
 70
     1
102
RTVSPropertyOp23
 70
     1
102
RTVSPropertyOp24
 70
     1
102
RTVSPropertyOp25
 70
     1
102
RTVSPropertyOp26
 70
     1
102
RTVSPropertyOp27
 70
     1
102
RTVSPropertyOp28
 70
     1
102
RTVSPropertyOp29
 70
     1
102
RTVSPropertyOp30
 70
     1
102
RTVSPropertyOp31
 70
     1
102
RTVSPropertyOp32
 70
     1
102
RTVSPropertyOp33
 70
     1
102
RTVSPropertyOp34
 70
     1
102
RTVSPropertyOp35
 70
     1
102
RTVSPropertyOp36
 70
     1
102
RTVSPropertyOp37
 70
     1
102
RTVSPropertyOp38
 70
     1
102
RTVSPropertyOp39
 70
     1
102
RTVSPropertyOp40
 70
     1
102
RTVSPropertyOp41
 70
     1
102
RTVSPropertyOp42
 70
     1
102
RTVSPropertyOp43
 70
     1
102
RTVSPropertyOp44
 70
     1
102
RTVSPropertyOp45
 70
     1
102
RTVSPropertyOp46
 70
     1
102
RTVSPropertyOp47
 70
     1
102
RTVSPropertyOp48
 70
     1
102
RTVSPropertyOp49
 70
     1
102
RTVSPropertyOp50
 70
     1
102
RTVSPropertyOp51
 70
     0
102
RTVSPropertyOp52
 70
     0
102
RTVSPropertyOp53
 70
     1
102
RTVSPropertyOp54
 70
     1
102
RTVSPropertyOp55
 70
     1
102
RTVSPropertyOp56
 70
     1
102
RTVSPropertyOp57
 70
     1
102
RTVSPost2010Prop28
280
     0
102
RTVSPost2010PropOp28
 70
     1
102
RTVSPost2010Prop29
280
     1
102
RTVSPost2010PropOp29
 70
     1
102
RTVSPost2010Prop30
280
     1
102
RTVSPost2010PropOp30
 70
     1
102
RTVSPost2010Prop31
280
     0
102
RTVSPost2010PropOp31
 70
     1
102
RTVSPost2010Prop32
280
     0
102
RTVSPost2010PropOp32
 70
     1
102
RTVSPost2010Prop33
280
     0
102
RTVSPost2010PropOp33
 70
     1
102
RTVSPost2010Prop34
280
     0
102
RTVSPost2010PropOp34
 70
     1
102
RTVSPost2010Prop35
280
     0
102
RTVSPost2010PropOp35
 70
     1
102
RTVSPost2010Prop36
280
     0
102
RTVSPost2010PropOp36
 70
     1
102
RTVSPost2010Prop37
 90
       50
102
RTVSPost2010PropOp37
 70
     1
102
RTVSPost2010Prop38
140
0.0
102
RTVSPost2010PropOp38
 70
     1
102
RTVSPost2010Prop39
140
1.0
102
RTVSPost2010PropOp39
 70
     1
102
RTVSPost2010Prop40
 90
        0
102
RTVSPost2010PropOp40
 70
     1
102
RTVSPost2010Prop41ColorIndex
 90
       18
102
RTVSPost2010Prop41ColorRGB
 90
        0
102
RTVSPost2010PropOp41
 70
     1
102
RTVSPost2010Prop42
 90
       50
102
RTVSPost2010PropOp42
 70
     1
102
RTVSPost2010Prop43
 90
        3
102
RTVSPost2010PropOp43
 70
     1
102
RTVSPost2010Prop44ColorIndex
 90
        5
102
RTVSPost2010Prop44ColorRGB
 90
      255
102
RTVSPost2010PropOp44
 70
     1
102
RTVSPost2010Prop45
280
     0
102
RTVSPost2010PropOp45
 70
     1
102
RTVSPost2010Prop46
 90
       50
102
RTVSPost2010PropOp46
 70
     1
102
RTVSPost2010Prop47
 90
       50
102
RTVSPost2010PropOp47
 70
     1
102
RTVSPost2010Prop48
 90
       50
102
RTVSPost2010PropOp48
 70
     1
102
RTVSPost2010Prop49
280
     0
102
RTVSPost2010PropOp49
 70
     1
102
RTVSPost2010Prop50
 90
       50
102
RTVSPost2010PropOp50
 70
     1
102
RTVSPost2010Prop51ColorIndex
 90
      256
102
RTVSPost2010Prop51ColorRGB
 90
-16777216
102
RTVSPost2010PropOp51
 70
     0
102
RTVSPost2010Prop52
140
1.0
102
RTVSPost2010PropOp52
 70
     0
102
RTVSPost2010Prop53
 90
        2
102
RTVSPost2010PropOp53
 70
     1
102
RTVSPost2010Prop54
  1
strokes_ogs.tif
102
RTVSPost2010PropOp54
 70
     1
102
RTVSPost2010Prop55
280
     0
102
RTVSPost2010PropOp55
 70
     1
102
RTVSPost2010Prop56
140
1.0
102
RTVSPost2010PropOp56
 70
     1
102
RTVSPost2010Prop57
140
1.0
102
RTVSPost2010PropOp57
 70
     1
  0
XRECORD
  5
4A4
102
{ACAD_REACTORS
330
4A3
102
}
330
4A3
100
AcDbXrecord
280
     1
102
RTVSPropertyOp0
 70
     1
102
RTVSPropertyOp1
 70
     1
102
RTVSPropertyOp2
 70
     1
102
RTVSPropertyOp3
 70
     1
102
RTVSPropertyOp4
 70
     1
102
RTVSPropertyOp5
 70
     1
102
RTVSPropertyOp6
 70
     1
102
RTVSPropertyOp7
 70
     1
102
RTVSPropertyOp8
 70
     1
102
RTVSPropertyOp9
 70
     1
102
RTVSPropertyOp10
 70
     1
102
RTVSPropertyOp11
 70
     1
102
RTVSPropertyOp12
 70
     1
102
RTVSPropertyOp13
 70
     1
102
RTVSPropertyOp14
 70
     1
102
RTVSPropertyOp15
 70
     1
102
RTVSPropertyOp16
 70
     1
102
RTVSPropertyOp17
 70
     1
102
RTVSPropertyOp18
 70
     1
102
RTVSPropertyOp19
 70
     1
102
RTVSPropertyOp20
 70
     1
102
RTVSPropertyOp21
 70
     1
102
RTVSPropertyOp22
 70
     1
102
RTVSPropertyOp23
 70
     1
102
RTVSPropertyOp24
 70
     1
102
RTVSPropertyOp25
 70
     1
102
RTVSPropertyOp26
 70
     1
102
RTVSPropertyOp27
 70
     1
102
RTVSPropertyOp28
 70
     1
102
RTVSPropertyOp29
 70
     1
102
RTVSPropertyOp30
 70
     1
102
RTVSPropertyOp31
 70
     1
102
RTVSPropertyOp32
 70
     1
102
RTVSPropertyOp33
 70
     1
102
RTVSPropertyOp34
 70
     1
102
RTVSPropertyOp35
 70
     1
102
RTVSPropertyOp36
 70
     1
102
RTVSPropertyOp37
 70
     1
102
RTVSPropertyOp38
 70
     1
102
RTVSPropertyOp39
 70
     1
102
RTVSPropertyOp40
 70
     1
102
RTVSPropertyOp41
 70
     1
102
RTVSPropertyOp42
 70
     1
102
RTVSPropertyOp43
 70
     1
102
RTVSPropertyOp44
 70
     1
102
RTVSPropertyOp45
 70
     1
102
RTVSPropertyOp46
 70
     1
102
RTVSPropertyOp47
 70
     1
102
RTVSPropertyOp48
 70
     1
102
RTVSPropertyOp49
 70
     1
102
RTVSPropertyOp50
 70
     1
102
RTVSPropertyOp51
 70
     0
102
RTVSPropertyOp52
 70
     0
102
RTVSPropertyOp53
 70
     1
102
RTVSPropertyOp54
 70
     1
102
RTVSPropertyOp55
 70
     1
102
RTVSPropertyOp56
 70
     1
102
RTVSPropertyOp57
 70
     1
102
RTVSPost2010Prop28
280
     0
102
RTVSPost2010PropOp28
 70
     1
102
RTVSPost2010Prop29
280
     1
102
RTVSPost2010PropOp29
 70
     1
102
RTVSPost2010Prop30
280
     1
102
RTVSPost2010PropOp30
 70
     1
102
RTVSPost2010Prop31
280
     0
102
RTVSPost2010PropOp31
 70
     1
102
RTVSPost2010Prop32
280
     0
102
RTVSPost2010PropOp32
 70
     1
102
RTVSPost2010Prop33
280
     0
102
RTVSPost2010PropOp33
 70
     1
102
RTVSPost2010Prop34
280
     0
102
RTVSPost2010PropOp34
 70
     1
102
RTVSPost2010Prop35
280
     0
102
RTVSPost2010PropOp35
 70
     1
102
RTVSPost2010Prop36
280
     0
102
RTVSPost2010PropOp36
 70
     1
102
RTVSPost2010Prop37
 90
       50
102
RTVSPost2010PropOp37
 70
     1
102
RTVSPost2010Prop38
140
0.0
102
RTVSPost2010PropOp38
 70
     1
102
RTVSPost2010Prop39
140
1.0
102
RTVSPost2010PropOp39
 70
     1
102
RTVSPost2010Prop40
 90
        0
102
RTVSPost2010PropOp40
 70
     1
102
RTVSPost2010Prop41ColorIndex
 90
       18
102
RTVSPost2010Prop41ColorRGB
 90
        0
102
RTVSPost2010PropOp41
 70
     1
102
RTVSPost2010Prop42
 90
       50
102
RTVSPost2010PropOp42
 70
     1
102
RTVSPost2010Prop43
 90
        3
102
RTVSPost2010PropOp43
 70
     1
102
RTVSPost2010Prop44ColorIndex
 90
        5
102
RTVSPost2010Prop44ColorRGB
 90
      255
102
RTVSPost2010PropOp44
 70
     1
102
RTVSPost2010Prop45
280
     0
102
RTVSPost2010PropOp45
 70
     1
102
RTVSPost2010Prop46
 90
       50
102
RTVSPost2010PropOp46
 70
     1
102
RTVSPost2010Prop47
 90
       50
102
RTVSPost2010PropOp47
 70
     1
102
RTVSPost2010Prop48
 90
       50
102
RTVSPost2010PropOp48
 70
     1
102
RTVSPost2010Prop49
280
     0
102
RTVSPost2010PropOp49
 70
     1
102
RTVSPost2010Prop50
 90
       50
102
RTVSPost2010PropOp50
 70
     1
102
RTVSPost2010Prop51ColorIndex
 90
      256
102
RTVSPost2010Prop51ColorRGB
 90
-16777216
102
RTVSPost2010PropOp51
 70
     0
102
RTVSPost2010Prop52
140
1.0
102
RTVSPost2010PropOp52
 70
     0
102
RTVSPost2010Prop53
 90
        2
102
RTVSPost2010PropOp53
 70
     1
102
RTVSPost2010Prop54
  1
strokes_ogs.tif
102
RTVSPost2010PropOp54
 70
     1
102
RTVSPost2010Prop55
280
     0
102
RTVSPost2010PropOp55
 70
     1
102
RTVSPost2010Prop56
140
1.0
102
RTVSPost2010PropOp56
 70
     1
102
RTVSPost2010Prop57
140
1.0
102
RTVSPost2010PropOp57
 70
     1
  0
XRECORD
  5
4A6
102
{ACAD_REACTORS
330
4A5
102
}
330
4A5
100
AcDbXrecord
280
     1
102
RTVSPropertyOp0
 70
     1
102
RTVSPropertyOp1
 70
     1
102
RTVSPropertyOp2
 70
     1
102
RTVSPropertyOp3
 70
     1
102
RTVSPropertyOp4
 70
     1
102
RTVSPropertyOp5
 70
     1
102
RTVSPropertyOp6
 70
     1
102
RTVSPropertyOp7
 70
     1
102
RTVSPropertyOp8
 70
     1
102
RTVSPropertyOp9
 70
     1
102
RTVSPropertyOp10
 70
     1
102
RTVSPropertyOp11
 70
     1
102
RTVSPropertyOp12
 70
     1
102
RTVSPropertyOp13
 70
     1
102
RTVSPropertyOp14
 70
     1
102
RTVSPropertyOp15
 70
     1
102
RTVSPropertyOp16
 70
     1
102
RTVSPropertyOp17
 70
     1
102
RTVSPropertyOp18
 70
     1
102
RTVSPropertyOp19
 70
     1
102
RTVSPropertyOp20
 70
     1
102
RTVSPropertyOp21
 70
     1
102
RTVSPropertyOp22
 70
     1
102
RTVSPropertyOp23
 70
     1
102
RTVSPropertyOp24
 70
     1
102
RTVSPropertyOp25
 70
     1
102
RTVSPropertyOp26
 70
     1
102
RTVSPropertyOp27
 70
     1
102
RTVSPropertyOp28
 70
     1
102
RTVSPropertyOp29
 70
     1
102
RTVSPropertyOp30
 70
     1
102
RTVSPropertyOp31
 70
     1
102
RTVSPropertyOp32
 70
     1
102
RTVSPropertyOp33
 70
     1
102
RTVSPropertyOp34
 70
     1
102
RTVSPropertyOp35
 70
     1
102
RTVSPropertyOp36
 70
     1
102
RTVSPropertyOp37
 70
     1
102
RTVSPropertyOp38
 70
     1
102
RTVSPropertyOp39
 70
     1
102
RTVSPropertyOp40
 70
     1
102
RTVSPropertyOp41
 70
     1
102
RTVSPropertyOp42
 70
     1
102
RTVSPropertyOp43
 70
     1
102
RTVSPropertyOp44
 70
     1
102
RTVSPropertyOp45
 70
     1
102
RTVSPropertyOp46
 70
     1
102
RTVSPropertyOp47
 70
     1
102
RTVSPropertyOp48
 70
     1
102
RTVSPropertyOp49
 70
     1
102
RTVSPropertyOp50
 70
     1
102
RTVSPropertyOp51
 70
     0
102
RTVSPropertyOp52
 70
     0
102
RTVSPropertyOp53
 70
     1
102
RTVSPropertyOp54
 70
     1
102
RTVSPropertyOp55
 70
     1
102
RTVSPropertyOp56
 70
     1
102
RTVSPropertyOp57
 70
     1
102
RTVSPost2010Prop28
280
     0
102
RTVSPost2010PropOp28
 70
     1
102
RTVSPost2010Prop29
280
     1
102
RTVSPost2010PropOp29
 70
     1
102
RTVSPost2010Prop30
280
     1
102
RTVSPost2010PropOp30
 70
     1
102
RTVSPost2010Prop31
280
     0
102
RTVSPost2010PropOp31
 70
     1
102
RTVSPost2010Prop32
280
     0
102
RTVSPost2010PropOp32
 70
     1
102
RTVSPost2010Prop33
280
     0
102
RTVSPost2010PropOp33
 70
     1
102
RTVSPost2010Prop34
280
     0
102
RTVSPost2010PropOp34
 70
     1
102
RTVSPost2010Prop35
280
     0
102
RTVSPost2010PropOp35
 70
     1
102
RTVSPost2010Prop36
280
     0
102
RTVSPost2010PropOp36
 70
     1
102
RTVSPost2010Prop37
 90
       50
102
RTVSPost2010PropOp37
 70
     1
102
RTVSPost2010Prop38
140
0.0
102
RTVSPost2010PropOp38
 70
     1
102
RTVSPost2010Prop39
140
1.0
102
RTVSPost2010PropOp39
 70
     1
102
RTVSPost2010Prop40
 90
        0
102
RTVSPost2010PropOp40
 70
     1
102
RTVSPost2010Prop41ColorIndex
 90
       18
102
RTVSPost2010Prop41ColorRGB
 90
        0
102
RTVSPost2010PropOp41
 70
     1
102
RTVSPost2010Prop42
 90
       50
102
RTVSPost2010PropOp42
 70
     1
102
RTVSPost2010Prop43
 90
        3
102
RTVSPost2010PropOp43
 70
     1
102
RTVSPost2010Prop44ColorIndex
 90
        5
102
RTVSPost2010Prop44ColorRGB
 90
      255
102
RTVSPost2010PropOp44
 70
     1
102
RTVSPost2010Prop45
280
     0
102
RTVSPost2010PropOp45
 70
     1
102
RTVSPost2010Prop46
 90
       50
102
RTVSPost2010PropOp46
 70
     1
102
RTVSPost2010Prop47
 90
       50
102
RTVSPost2010PropOp47
 70
     1
102
RTVSPost2010Prop48
 90
       50
102
RTVSPost2010PropOp48
 70
     1
102
RTVSPost2010Prop49
280
     0
102
RTVSPost2010PropOp49
 70
     1
102
RTVSPost2010Prop50
 90
       50
102
RTVSPost2010PropOp50
 70
     1
102
RTVSPost2010Prop51ColorIndex
 90
      256
102
RTVSPost2010Prop51ColorRGB
 90
-16777216
102
RTVSPost2010PropOp51
 70
     0
102
RTVSPost2010Prop52
140
1.0
102
RTVSPost2010PropOp52
 70
     0
102
RTVSPost2010Prop53
 90
        2
102
RTVSPost2010PropOp53
 70
     1
102
RTVSPost2010Prop54
  1
strokes_ogs.tif
102
RTVSPost2010PropOp54
 70
     1
102
RTVSPost2010Prop55
280
     0
102
RTVSPost2010PropOp55
 70
     1
102
RTVSPost2010Prop56
140
1.0
102
RTVSPost2010PropOp56
 70
     1
102
RTVSPost2010Prop57
140
1.0
102
RTVSPost2010PropOp57
 70
     1
  0
XRECORD
  5
4B6
102
{ACAD_REACTORS
330
4B5
102
}
330
4B5
100
AcDbXrecord
280
     1
102
RTVSPropertyOp0
 70
     0
102
RTVSPropertyOp1
 70
     0
102
RTVSPropertyOp2
 70
     0
102
RTVSPropertyOp3
 70
     0
102
RTVSPropertyOp4
 70
     0
102
RTVSPropertyOp5
 70
     0
102
RTVSPropertyOp6
 70
     0
102
RTVSPropertyOp7
 70
     0
102
RTVSPropertyOp8
 70
     0
102
RTVSPropertyOp9
 70
     0
102
RTVSPropertyOp10
 70
     0
102
RTVSPropertyOp11
 70
     0
102
RTVSPropertyOp12
 70
     0
102
RTVSPropertyOp13
 70
     0
102
RTVSPropertyOp14
 70
     0
102
RTVSPropertyOp15
 70
     0
102
RTVSPropertyOp16
 70
     0
102
RTVSPropertyOp17
 70
     0
102
RTVSPropertyOp18
 70
     0
102
RTVSPropertyOp19
 70
     0
102
RTVSPropertyOp20
 70
     0
102
RTVSPropertyOp21
 70
     0
102
RTVSPropertyOp22
 70
     0
102
RTVSPropertyOp23
 70
     0
102
RTVSPropertyOp24
 70
     0
102
RTVSPropertyOp25
 70
     0
102
RTVSPropertyOp26
 70
     0
102
RTVSPropertyOp27
 70
     0
102
RTVSPropertyOp28
 70
     1
102
RTVSPropertyOp29
 70
     1
102
RTVSPropertyOp30
 70
     1
102
RTVSPropertyOp31
 70
     1
102
RTVSPropertyOp32
 70
     1
102
RTVSPropertyOp33
 70
     1
102
RTVSPropertyOp34
 70
     1
102
RTVSPropertyOp35
 70
     1
102
RTVSPropertyOp36
 70
     1
102
RTVSPropertyOp37
 70
     1
102
RTVSPropertyOp38
 70
     1
102
RTVSPropertyOp39
 70
     1
102
RTVSPropertyOp40
 70
     1
102
RTVSPropertyOp41
 70
     1
102
RTVSPropertyOp42
 70
     1
102
RTVSPropertyOp43
 70
     1
102
RTVSPropertyOp44
 70
     1
102
RTVSPropertyOp45
 70
     1
102
RTVSPropertyOp46
 70
     1
102
RTVSPropertyOp47
 70
     1
102
RTVSPropertyOp48
 70
     1
102
RTVSPropertyOp49
 70
     1
102
RTVSPropertyOp50
 70
     1
102
RTVSPropertyOp51
 70
     0
102
RTVSPropertyOp52
 70
     0
102
RTVSPropertyOp53
 70
     1
102
RTVSPropertyOp54
 70
     1
102
RTVSPropertyOp55
 70
     1
102
RTVSPropertyOp56
 70
     1
102
RTVSPropertyOp57
 70
     1
102
RTVSPost2010Prop28
280
     0
102
RTVSPost2010PropOp28
 70
     1
102
RTVSPost2010Prop29
280
     1
102
RTVSPost2010PropOp29
 70
     1
102
RTVSPost2010Prop30
280
     1
102
RTVSPost2010PropOp30
 70
     1
102
RTVSPost2010Prop31
280
     0
102
RTVSPost2010PropOp31
 70
     1
102
RTVSPost2010Prop32
280
     0
102
RTVSPost2010PropOp32
 70
     1
102
RTVSPost2010Prop33
280
     0
102
RTVSPost2010PropOp33
 70
     1
102
RTVSPost2010Prop34
280
     0
102
RTVSPost2010PropOp34
 70
     1
102
RTVSPost2010Prop35
280
     0
102
RTVSPost2010PropOp35
 70
     1
102
RTVSPost2010Prop36
280
     0
102
RTVSPost2010PropOp36
 70
     1
102
RTVSPost2010Prop37
 90
       50
102
RTVSPost2010PropOp37
 70
     1
102
RTVSPost2010Prop38
140
0.0
102
RTVSPost2010PropOp38
 70
     1
102
RTVSPost2010Prop39
140
1.0
102
RTVSPost2010PropOp39
 70
     1
102
RTVSPost2010Prop40
 90
        0
102
RTVSPost2010PropOp40
 70
     1
102
RTVSPost2010Prop41ColorIndex
 90
       18
102
RTVSPost2010Prop41ColorRGB
 90
        0
102
RTVSPost2010PropOp41
 70
     1
102
RTVSPost2010Prop42
 90
       50
102
RTVSPost2010PropOp42
 70
     1
102
RTVSPost2010Prop43
 90
        3
102
RTVSPost2010PropOp43
 70
     1
102
RTVSPost2010Prop44ColorIndex
 90
        5
102
RTVSPost2010Prop44ColorRGB
 90
      255
102
RTVSPost2010PropOp44
 70
     1
102
RTVSPost2010Prop45
280
     0
102
RTVSPost2010PropOp45
 70
     1
102
RTVSPost2010Prop46
 90
       50
102
RTVSPost2010PropOp46
 70
     1
102
RTVSPost2010Prop47
 90
       50
102
RTVSPost2010PropOp47
 70
     1
102
RTVSPost2010Prop48
 90
       50
102
RTVSPost2010PropOp48
 70
     1
102
RTVSPost2010Prop49
280
     0
102
RTVSPost2010PropOp49
 70
     1
102
RTVSPost2010Prop50
 90
       50
102
RTVSPost2010PropOp50
 70
     1
102
RTVSPost2010Prop51ColorIndex
 90
      256
102
RTVSPost2010Prop51ColorRGB
 90
-16777216
102
RTVSPost2010PropOp51
 70
     0
102
RTVSPost2010Prop52
140
1.0
102
RTVSPost2010PropOp52
 70
     0
102
RTVSPost2010Prop53
 90
        2
102
RTVSPost2010PropOp53
 70
     1
102
RTVSPost2010Prop54
  1
strokes_ogs.tif
102
RTVSPost2010PropOp54
 70
     1
102
RTVSPost2010Prop55
280
     0
102
RTVSPost2010PropOp55
 70
     1
102
RTVSPost2010Prop56
140
1.0
102
RTVSPost2010PropOp56
 70
     1
102
RTVSPost2010Prop57
140
1.0
102
RTVSPost2010PropOp57
 70
     1
  0
XRECORD
  5
4AE
102
{ACAD_REACTORS
330
4AD
102
}
330
4AD
100
AcDbXrecord
280
     1
102
RTVSPropertyOp0
 70
     1
102
RTVSPropertyOp1
 70
     1
102
RTVSPropertyOp2
 70
     1
102
RTVSPropertyOp3
 70
     1
102
RTVSPropertyOp4
 70
     1
102
RTVSPropertyOp5
 70
     1
102
RTVSPropertyOp6
 70
     1
102
RTVSPropertyOp7
 70
     1
102
RTVSPropertyOp8
 70
     1
102
RTVSPropertyOp9
 70
     1
102
RTVSPropertyOp10
 70
     1
102
RTVSPropertyOp11
 70
     1
102
RTVSPropertyOp12
 70
     1
102
RTVSPropertyOp13
 70
     1
102
RTVSPropertyOp14
 70
     1
102
RTVSPropertyOp15
 70
     1
102
RTVSPropertyOp16
 70
     1
102
RTVSPropertyOp17
 70
     1
102
RTVSPropertyOp18
 70
     1
102
RTVSPropertyOp19
 70
     1
102
RTVSPropertyOp20
 70
     1
102
RTVSPropertyOp21
 70
     1
102
RTVSPropertyOp22
 70
     1
102
RTVSPropertyOp23
 70
     1
102
RTVSPropertyOp24
 70
     1
102
RTVSPropertyOp25
 70
     1
102
RTVSPropertyOp26
 70
     1
102
RTVSPropertyOp27
 70
     1
102
RTVSPropertyOp28
 70
     1
102
RTVSPropertyOp29
 70
     1
102
RTVSPropertyOp30
 70
     1
102
RTVSPropertyOp31
 70
     1
102
RTVSPropertyOp32
 70
     1
102
RTVSPropertyOp33
 70
     1
102
RTVSPropertyOp34
 70
     1
102
RTVSPropertyOp35
 70
     1
102
RTVSPropertyOp36
 70
     1
102
RTVSPropertyOp37
 70
     1
102
RTVSPropertyOp38
 70
     1
102
RTVSPropertyOp39
 70
     1
102
RTVSPropertyOp40
 70
     1
102
RTVSPropertyOp41
 70
     1
102
RTVSPropertyOp42
 70
     1
102
RTVSPropertyOp43
 70
     1
102
RTVSPropertyOp44
 70
     1
102
RTVSPropertyOp45
 70
     1
102
RTVSPropertyOp46
 70
     1
102
RTVSPropertyOp47
 70
     1
102
RTVSPropertyOp48
 70
     1
102
RTVSPropertyOp49
 70
     1
102
RTVSPropertyOp50
 70
     1
102
RTVSPropertyOp51
 70
     0
102
RTVSPropertyOp52
 70
     0
102
RTVSPropertyOp53
 70
     1
102
RTVSPropertyOp54
 70
     1
102
RTVSPropertyOp55
 70
     1
102
RTVSPropertyOp56
 70
     1
102
RTVSPropertyOp57
 70
     1
102
RTVSPost2010Prop28
280
     0
102
RTVSPost2010PropOp28
 70
     1
102
RTVSPost2010Prop29
280
     1
102
RTVSPost2010PropOp29
 70
     1
102
RTVSPost2010Prop30
280
     1
102
RTVSPost2010PropOp30
 70
     1
102
RTVSPost2010Prop31
280
     0
102
RTVSPost2010PropOp31
 70
     1
102
RTVSPost2010Prop32
280
     0
102
RTVSPost2010PropOp32
 70
     1
102
RTVSPost2010Prop33
280
     0
102
RTVSPost2010PropOp33
 70
     1
102
RTVSPost2010Prop34
280
     0
102
RTVSPost2010PropOp34
 70
     1
102
RTVSPost2010Prop35
280
     0
102
RTVSPost2010PropOp35
 70
     1
102
RTVSPost2010Prop36
280
     0
102
RTVSPost2010PropOp36
 70
     1
102
RTVSPost2010Prop37
 90
       50
102
RTVSPost2010PropOp37
 70
     1
102
RTVSPost2010Prop38
140
0.0
102
RTVSPost2010PropOp38
 70
     1
102
RTVSPost2010Prop39
140
1.0
102
RTVSPost2010PropOp39
 70
     1
102
RTVSPost2010Prop40
 90
        0
102
RTVSPost2010PropOp40
 70
     1
102
RTVSPost2010Prop41ColorIndex
 90
       18
102
RTVSPost2010Prop41ColorRGB
 90
        0
102
RTVSPost2010PropOp41
 70
     1
102
RTVSPost2010Prop42
 90
       50
102
RTVSPost2010PropOp42
 70
     1
102
RTVSPost2010Prop43
 90
        3
102
RTVSPost2010PropOp43
 70
     1
102
RTVSPost2010Prop44ColorIndex
 90
        5
102
RTVSPost2010Prop44ColorRGB
 90
      255
102
RTVSPost2010PropOp44
 70
     1
102
RTVSPost2010Prop45
280
     0
102
RTVSPost2010PropOp45
 70
     1
102
RTVSPost2010Prop46
 90
       50
102
RTVSPost2010PropOp46
 70
     1
102
RTVSPost2010Prop47
 90
       50
102
RTVSPost2010PropOp47
 70
     1
102
RTVSPost2010Prop48
 90
       50
102
RTVSPost2010PropOp48
 70
     1
102
RTVSPost2010Prop49
280
     0
102
RTVSPost2010PropOp49
 70
     1
102
RTVSPost2010Prop50
 90
       50
102
RTVSPost2010PropOp50
 70
     1
102
RTVSPost2010Prop51ColorIndex
 90
      256
102
RTVSPost2010Prop51ColorRGB
 90
-16777216
102
RTVSPost2010PropOp51
 70
     0
102
RTVSPost2010Prop52
140
1.0
102
RTVSPost2010PropOp52
 70
     0
102
RTVSPost2010Prop53
 90
        2
102
RTVSPost2010PropOp53
 70
     1
102
RTVSPost2010Prop54
  1
strokes_ogs.tif
102
RTVSPost2010PropOp54
 70
     1
102
RTVSPost2010Prop55
280
     0
102
RTVSPost2010PropOp55
 70
     1
102
RTVSPost2010Prop56
140
1.0
102
RTVSPost2010PropOp56
 70
     1
102
RTVSPost2010Prop57
140
1.0
102
RTVSPost2010PropOp57
 70
     1
  0
XRECORD
  5
492
102
{ACAD_REACTORS
330
491
102
}
330
491
100
AcDbXrecord
280
     1
102
RTVSPropertyOp0
 70
     1
102
RTVSPropertyOp1
 70
     1
102
RTVSPropertyOp2
 70
     1
102
RTVSPropertyOp3
 70
     1
102
RTVSPropertyOp4
 70
     1
102
RTVSPropertyOp5
 70
     1
102
RTVSPropertyOp6
 70
     1
102
RTVSPropertyOp7
 70
     1
102
RTVSPropertyOp8
 70
     1
102
RTVSPropertyOp9
 70
     1
102
RTVSPropertyOp10
 70
     1
102
RTVSPropertyOp11
 70
     1
102
RTVSPropertyOp12
 70
     1
102
RTVSPropertyOp13
 70
     1
102
RTVSPropertyOp14
 70
     1
102
RTVSPropertyOp15
 70
     1
102
RTVSPropertyOp16
 70
     1
102
RTVSPropertyOp17
 70
     1
102
RTVSPropertyOp18
 70
     1
102
RTVSPropertyOp19
 70
     1
102
RTVSPropertyOp20
 70
     1
102
RTVSPropertyOp21
 70
     1
102
RTVSPropertyOp22
 70
     1
102
RTVSPropertyOp23
 70
     1
102
RTVSPropertyOp24
 70
     1
102
RTVSPropertyOp25
 70
     1
102
RTVSPropertyOp26
 70
     1
102
RTVSPropertyOp27
 70
     1
102
RTVSPropertyOp28
 70
     1
102
RTVSPropertyOp29
 70
     1
102
RTVSPropertyOp30
 70
     1
102
RTVSPropertyOp31
 70
     1
102
RTVSPropertyOp32
 70
     1
102
RTVSPropertyOp33
 70
     1
102
RTVSPropertyOp34
 70
     1
102
RTVSPropertyOp35
 70
     1
102
RTVSPropertyOp36
 70
     1
102
RTVSPropertyOp37
 70
     1
102
RTVSPropertyOp38
 70
     1
102
RTVSPropertyOp39
 70
     1
102
RTVSPropertyOp40
 70
     1
102
RTVSPropertyOp41
 70
     1
102
RTVSPropertyOp42
 70
     1
102
RTVSPropertyOp43
 70
     1
102
RTVSPropertyOp44
 70
     1
102
RTVSPropertyOp45
 70
     1
102
RTVSPropertyOp46
 70
     1
102
RTVSPropertyOp47
 70
     1
102
RTVSPropertyOp48
 70
     1
102
RTVSPropertyOp49
 70
     1
102
RTVSPropertyOp50
 70
     1
102
RTVSPropertyOp51
 70
     0
102
RTVSPropertyOp52
 70
     0
102
RTVSPropertyOp53
 70
     1
102
RTVSPropertyOp54
 70
     1
102
RTVSPropertyOp55
 70
     1
102
RTVSPropertyOp56
 70
     1
102
RTVSPropertyOp57
 70
     1
102
RTVSPost2010Prop28
280
     0
102
RTVSPost2010PropOp28
 70
     1
102
RTVSPost2010Prop29
280
     1
102
RTVSPost2010PropOp29
 70
     1
102
RTVSPost2010Prop30
280
     1
102
RTVSPost2010PropOp30
 70
     1
102
RTVSPost2010Prop31
280
     0
102
RTVSPost2010PropOp31
 70
     1
102
RTVSPost2010Prop32
280
     0
102
RTVSPost2010PropOp32
 70
     1
102
RTVSPost2010Prop33
280
     0
102
RTVSPost2010PropOp33
 70
     1
102
RTVSPost2010Prop34
280
     0
102
RTVSPost2010PropOp34
 70
     1
102
RTVSPost2010Prop35
280
     0
102
RTVSPost2010PropOp35
 70
     1
102
RTVSPost2010Prop36
280
     0
102
RTVSPost2010PropOp36
 70
     1
102
RTVSPost2010Prop37
 90
       50
102
RTVSPost2010PropOp37
 70
     1
102
RTVSPost2010Prop38
140
0.0
102
RTVSPost2010PropOp38
 70
     1
102
RTVSPost2010Prop39
140
1.0
102
RTVSPost2010PropOp39
 70
     1
102
RTVSPost2010Prop40
 90
        0
102
RTVSPost2010PropOp40
 70
     1
102
RTVSPost2010Prop41ColorIndex
 90
       18
102
RTVSPost2010Prop41ColorRGB
 90
        0
102
RTVSPost2010PropOp41
 70
     1
102
RTVSPost2010Prop42
 90
       50
102
RTVSPost2010PropOp42
 70
     1
102
RTVSPost2010Prop43
 90
        3
102
RTVSPost2010PropOp43
 70
     1
102
RTVSPost2010Prop44ColorIndex
 90
        5
102
RTVSPost2010Prop44ColorRGB
 90
      255
102
RTVSPost2010PropOp44
 70
     1
102
RTVSPost2010Prop45
280
     0
102
RTVSPost2010PropOp45
 70
     1
102
RTVSPost2010Prop46
 90
       50
102
RTVSPost2010PropOp46
 70
     1
102
RTVSPost2010Prop47
 90
       50
102
RTVSPost2010PropOp47
 70
     1
102
RTVSPost2010Prop48
 90
       50
102
RTVSPost2010PropOp48
 70
     1
102
RTVSPost2010Prop49
280
     0
102
RTVSPost2010PropOp49
 70
     1
102
RTVSPost2010Prop50
 90
       50
102
RTVSPost2010PropOp50
 70
     1
102
RTVSPost2010Prop51ColorIndex
 90
      256
102
RTVSPost2010Prop51ColorRGB
 90
-16777216
102
RTVSPost2010PropOp51
 70
     0
102
RTVSPost2010Prop52
140
1.0
102
RTVSPost2010PropOp52
 70
     0
102
RTVSPost2010Prop53
 90
        2
102
RTVSPost2010PropOp53
 70
     1
102
RTVSPost2010Prop54
  1
strokes_ogs.tif
102
RTVSPost2010PropOp54
 70
     1
102
RTVSPost2010Prop55
280
     0
102
RTVSPost2010PropOp55
 70
     1
102
RTVSPost2010Prop56
140
1.0
102
RTVSPost2010PropOp56
 70
     1
102
RTVSPost2010Prop57
140
1.0
102
RTVSPost2010PropOp57
 70
     1
  0
XRECORD
  5
494
102
{ACAD_REACTORS
330
493
102
}
330
493
100
AcDbXrecord
280
     1
102
RTVSPropertyOp0
 70
     1
102
RTVSPropertyOp1
 70
     1
102
RTVSPropertyOp2
 70
     1
102
RTVSPropertyOp3
 70
     1
102
RTVSPropertyOp4
 70
     1
102
RTVSPropertyOp5
 70
     1
102
RTVSPropertyOp6
 70
     1
102
RTVSPropertyOp7
 70
     1
102
RTVSPropertyOp8
 70
     1
102
RTVSPropertyOp9
 70
     1
102
RTVSPropertyOp10
 70
     1
102
RTVSPropertyOp11
 70
     1
102
RTVSPropertyOp12
 70
     1
102
RTVSPropertyOp13
 70
     1
102
RTVSPropertyOp14
 70
     1
102
RTVSPropertyOp15
 70
     1
102
RTVSPropertyOp16
 70
     1
102
RTVSPropertyOp17
 70
     1
102
RTVSPropertyOp18
 70
     1
102
RTVSPropertyOp19
 70
     1
102
RTVSPropertyOp20
 70
     1
102
RTVSPropertyOp21
 70
     1
102
RTVSPropertyOp22
 70
     1
102
RTVSPropertyOp23
 70
     1
102
RTVSPropertyOp24
 70
     1
102
RTVSPropertyOp25
 70
     1
102
RTVSPropertyOp26
 70
     1
102
RTVSPropertyOp27
 70
     1
102
RTVSPropertyOp28
 70
     1
102
RTVSPropertyOp29
 70
     1
102
RTVSPropertyOp30
 70
     1
102
RTVSPropertyOp31
 70
     1
102
RTVSPropertyOp32
 70
     1
102
RTVSPropertyOp33
 70
     1
102
RTVSPropertyOp34
 70
     1
102
RTVSPropertyOp35
 70
     1
102
RTVSPropertyOp36
 70
     1
102
RTVSPropertyOp37
 70
     1
102
RTVSPropertyOp38
 70
     1
102
RTVSPropertyOp39
 70
     1
102
RTVSPropertyOp40
 70
     1
102
RTVSPropertyOp41
 70
     1
102
RTVSPropertyOp42
 70
     1
102
RTVSPropertyOp43
 70
     1
102
RTVSPropertyOp44
 70
     1
102
RTVSPropertyOp45
 70
     1
102
RTVSPropertyOp46
 70
     1
102
RTVSPropertyOp47
 70
     1
102
RTVSPropertyOp48
 70
     1
102
RTVSPropertyOp49
 70
     1
102
RTVSPropertyOp50
 70
     1
102
RTVSPropertyOp51
 70
     0
102
RTVSPropertyOp52
 70
     0
102
RTVSPropertyOp53
 70
     1
102
RTVSPropertyOp54
 70
     1
102
RTVSPropertyOp55
 70
     1
102
RTVSPropertyOp56
 70
     1
102
RTVSPropertyOp57
 70
     1
102
RTVSPost2010Prop28
280
     0
102
RTVSPost2010PropOp28
 70
     1
102
RTVSPost2010Prop29
280
     1
102
RTVSPost2010PropOp29
 70
     1
102
RTVSPost2010Prop30
280
     1
102
RTVSPost2010PropOp30
 70
     1
102
RTVSPost2010Prop31
280
     0
102
RTVSPost2010PropOp31
 70
     1
102
RTVSPost2010Prop32
280
     0
102
RTVSPost2010PropOp32
 70
     1
102
RTVSPost2010Prop33
280
     0
102
RTVSPost2010PropOp33
 70
     1
102
RTVSPost2010Prop34
280
     0
102
RTVSPost2010PropOp34
 70
     1
102
RTVSPost2010Prop35
280
     0
102
RTVSPost2010PropOp35
 70
     1
102
RTVSPost2010Prop36
280
     0
102
RTVSPost2010PropOp36
 70
     1
102
RTVSPost2010Prop37
 90
       50
102
RTVSPost2010PropOp37
 70
     1
102
RTVSPost2010Prop38
140
0.0
102
RTVSPost2010PropOp38
 70
     1
102
RTVSPost2010Prop39
140
1.0
102
RTVSPost2010PropOp39
 70
     1
102
RTVSPost2010Prop40
 90
        0
102
RTVSPost2010PropOp40
 70
     1
102
RTVSPost2010Prop41ColorIndex
 90
       18
102
RTVSPost2010Prop41ColorRGB
 90
        0
102
RTVSPost2010PropOp41
 70
     1
102
RTVSPost2010Prop42
 90
       50
102
RTVSPost2010PropOp42
 70
     1
102
RTVSPost2010Prop43
 90
        3
102
RTVSPost2010PropOp43
 70
     1
102
RTVSPost2010Prop44ColorIndex
 90
        5
102
RTVSPost2010Prop44ColorRGB
 90
      255
102
RTVSPost2010PropOp44
 70
     1
102
RTVSPost2010Prop45
280
     0
102
RTVSPost2010PropOp45
 70
     1
102
RTVSPost2010Prop46
 90
       50
102
RTVSPost2010PropOp46
 70
     1
102
RTVSPost2010Prop47
 90
       50
102
RTVSPost2010PropOp47
 70
     1
102
RTVSPost2010Prop48
 90
       50
102
RTVSPost2010PropOp48
 70
     1
102
RTVSPost2010Prop49
280
     0
102
RTVSPost2010PropOp49
 70
     1
102
RTVSPost2010Prop50
 90
       50
102
RTVSPost2010PropOp50
 70
     1
102
RTVSPost2010Prop51ColorIndex
 90
      256
102
RTVSPost2010Prop51ColorRGB
 90
-16777216
102
RTVSPost2010PropOp51
 70
     0
102
RTVSPost2010Prop52
140
1.0
102
RTVSPost2010PropOp52
 70
     0
102
RTVSPost2010Prop53
 90
        2
102
RTVSPost2010PropOp53
 70
     1
102
RTVSPost2010Prop54
  1
strokes_ogs.tif
102
RTVSPost2010PropOp54
 70
     1
102
RTVSPost2010Prop55
280
     0
102
RTVSPost2010PropOp55
 70
     1
102
RTVSPost2010Prop56
140
1.0
102
RTVSPost2010PropOp56
 70
     1
102
RTVSPost2010Prop57
140
1.0
102
RTVSPost2010PropOp57
 70
     1
  0
XRECORD
  5
496
102
{ACAD_REACTORS
330
495
102
}
330
495
100
AcDbXrecord
280
     1
102
RTVSPropertyOp0
 70
     1
102
RTVSPropertyOp1
 70
     1
102
RTVSPropertyOp2
 70
     1
102
RTVSPropertyOp3
 70
     1
102
RTVSPropertyOp4
 70
     1
102
RTVSPropertyOp5
 70
     1
102
RTVSPropertyOp6
 70
     1
102
RTVSPropertyOp7
 70
     1
102
RTVSPropertyOp8
 70
     1
102
RTVSPropertyOp9
 70
     1
102
RTVSPropertyOp10
 70
     1
102
RTVSPropertyOp11
 70
     1
102
RTVSPropertyOp12
 70
     1
102
RTVSPropertyOp13
 70
     1
102
RTVSPropertyOp14
 70
     1
102
RTVSPropertyOp15
 70
     1
102
RTVSPropertyOp16
 70
     1
102
RTVSPropertyOp17
 70
     1
102
RTVSPropertyOp18
 70
     1
102
RTVSPropertyOp19
 70
     1
102
RTVSPropertyOp20
 70
     1
102
RTVSPropertyOp21
 70
     1
102
RTVSPropertyOp22
 70
     1
102
RTVSPropertyOp23
 70
     1
102
RTVSPropertyOp24
 70
     1
102
RTVSPropertyOp25
 70
     1
102
RTVSPropertyOp26
 70
     1
102
RTVSPropertyOp27
 70
     1
102
RTVSPropertyOp28
 70
     1
102
RTVSPropertyOp29
 70
     1
102
RTVSPropertyOp30
 70
     1
102
RTVSPropertyOp31
 70
     1
102
RTVSPropertyOp32
 70
     1
102
RTVSPropertyOp33
 70
     1
102
RTVSPropertyOp34
 70
     1
102
RTVSPropertyOp35
 70
     1
102
RTVSPropertyOp36
 70
     1
102
RTVSPropertyOp37
 70
     1
102
RTVSPropertyOp38
 70
     1
102
RTVSPropertyOp39
 70
     1
102
RTVSPropertyOp40
 70
     1
102
RTVSPropertyOp41
 70
     1
102
RTVSPropertyOp42
 70
     1
102
RTVSPropertyOp43
 70
     1
102
RTVSPropertyOp44
 70
     1
102
RTVSPropertyOp45
 70
     1
102
RTVSPropertyOp46
 70
     1
102
RTVSPropertyOp47
 70
     1
102
RTVSPropertyOp48
 70
     1
102
RTVSPropertyOp49
 70
     1
102
RTVSPropertyOp50
 70
     1
102
RTVSPropertyOp51
 70
     0
102
RTVSPropertyOp52
 70
     0
102
RTVSPropertyOp53
 70
     1
102
RTVSPropertyOp54
 70
     1
102
RTVSPropertyOp55
 70
     1
102
RTVSPropertyOp56
 70
     1
102
RTVSPropertyOp57
 70
     1
102
RTVSPost2010Prop28
280
     0
102
RTVSPost2010PropOp28
 70
     1
102
RTVSPost2010Prop29
280
     1
102
RTVSPost2010PropOp29
 70
     1
102
RTVSPost2010Prop30
280
     1
102
RTVSPost2010PropOp30
 70
     1
102
RTVSPost2010Prop31
280
     0
102
RTVSPost2010PropOp31
 70
     1
102
RTVSPost2010Prop32
280
     0
102
RTVSPost2010PropOp32
 70
     1
102
RTVSPost2010Prop33
280
     0
102
RTVSPost2010PropOp33
 70
     1
102
RTVSPost2010Prop34
280
     0
102
RTVSPost2010PropOp34
 70
     1
102
RTVSPost2010Prop35
280
     0
102
RTVSPost2010PropOp35
 70
     1
102
RTVSPost2010Prop36
280
     0
102
RTVSPost2010PropOp36
 70
     1
102
RTVSPost2010Prop37
 90
       50
102
RTVSPost2010PropOp37
 70
     1
102
RTVSPost2010Prop38
140
0.0
102
RTVSPost2010PropOp38
 70
     1
102
RTVSPost2010Prop39
140
1.0
102
RTVSPost2010PropOp39
 70
     1
102
RTVSPost2010Prop40
 90
        0
102
RTVSPost2010PropOp40
 70
     1
102
RTVSPost2010Prop41ColorIndex
 90
       18
102
RTVSPost2010Prop41ColorRGB
 90
        0
102
RTVSPost2010PropOp41
 70
     1
102
RTVSPost2010Prop42
 90
       50
102
RTVSPost2010PropOp42
 70
     1
102
RTVSPost2010Prop43
 90
        3
102
RTVSPost2010PropOp43
 70
     1
102
RTVSPost2010Prop44ColorIndex
 90
        5
102
RTVSPost2010Prop44ColorRGB
 90
      255
102
RTVSPost2010PropOp44
 70
     1
102
RTVSPost2010Prop45
280
     0
102
RTVSPost2010PropOp45
 70
     1
102
RTVSPost2010Prop46
 90
       50
102
RTVSPost2010PropOp46
 70
     1
102
RTVSPost2010Prop47
 90
       50
102
RTVSPost2010PropOp47
 70
     1
102
RTVSPost2010Prop48
 90
       50
102
RTVSPost2010PropOp48
 70
     1
102
RTVSPost2010Prop49
280
     0
102
RTVSPost2010PropOp49
 70
     1
102
RTVSPost2010Prop50
 90
       50
102
RTVSPost2010PropOp50
 70
     1
102
RTVSPost2010Prop51ColorIndex
 90
      256
102
RTVSPost2010Prop51ColorRGB
 90
-16777216
102
RTVSPost2010PropOp51
 70
     0
102
RTVSPost2010Prop52
140
1.0
102
RTVSPost2010PropOp52
 70
     0
102
RTVSPost2010Prop53
 90
        2
102
RTVSPost2010PropOp53
 70
     1
102
RTVSPost2010Prop54
  1
strokes_ogs.tif
102
RTVSPost2010PropOp54
 70
     1
102
RTVSPost2010Prop55
280
     0
102
RTVSPost2010PropOp55
 70
     1
102
RTVSPost2010Prop56
140
1.0
102
RTVSPost2010PropOp56
 70
     1
102
RTVSPost2010Prop57
140
1.0
102
RTVSPost2010PropOp57
 70
     1
  0
XRECORD
  5
498
102
{ACAD_REACTORS
330
497
102
}
330
497
100
AcDbXrecord
280
     1
102
RTVSPropertyOp0
 70
     1
102
RTVSPropertyOp1
 70
     1
102
RTVSPropertyOp2
 70
     1
102
RTVSPropertyOp3
 70
     1
102
RTVSPropertyOp4
 70
     1
102
RTVSPropertyOp5
 70
     1
102
RTVSPropertyOp6
 70
     1
102
RTVSPropertyOp7
 70
     1
102
RTVSPropertyOp8
 70
     1
102
RTVSPropertyOp9
 70
     1
102
RTVSPropertyOp10
 70
     1
102
RTVSPropertyOp11
 70
     1
102
RTVSPropertyOp12
 70
     1
102
RTVSPropertyOp13
 70
     1
102
RTVSPropertyOp14
 70
     1
102
RTVSPropertyOp15
 70
     1
102
RTVSPropertyOp16
 70
     1
102
RTVSPropertyOp17
 70
     1
102
RTVSPropertyOp18
 70
     1
102
RTVSPropertyOp19
 70
     1
102
RTVSPropertyOp20
 70
     1
102
RTVSPropertyOp21
 70
     1
102
RTVSPropertyOp22
 70
     1
102
RTVSPropertyOp23
 70
     1
102
RTVSPropertyOp24
 70
     1
102
RTVSPropertyOp25
 70
     1
102
RTVSPropertyOp26
 70
     1
102
RTVSPropertyOp27
 70
     1
102
RTVSPropertyOp28
 70
     1
102
RTVSPropertyOp29
 70
     1
102
RTVSPropertyOp30
 70
     1
102
RTVSPropertyOp31
 70
     1
102
RTVSPropertyOp32
 70
     1
102
RTVSPropertyOp33
 70
     1
102
RTVSPropertyOp34
 70
     1
102
RTVSPropertyOp35
 70
     1
102
RTVSPropertyOp36
 70
     1
102
RTVSPropertyOp37
 70
     1
102
RTVSPropertyOp38
 70
     1
102
RTVSPropertyOp39
 70
     1
102
RTVSPropertyOp40
 70
     1
102
RTVSPropertyOp41
 70
     1
102
RTVSPropertyOp42
 70
     1
102
RTVSPropertyOp43
 70
     1
102
RTVSPropertyOp44
 70
     1
102
RTVSPropertyOp45
 70
     1
102
RTVSPropertyOp46
 70
     1
102
RTVSPropertyOp47
 70
     1
102
RTVSPropertyOp48
 70
     1
102
RTVSPropertyOp49
 70
     1
102
RTVSPropertyOp50
 70
     1
102
RTVSPropertyOp51
 70
     0
102
RTVSPropertyOp52
 70
     0
102
RTVSPropertyOp53
 70
     1
102
RTVSPropertyOp54
 70
     1
102
RTVSPropertyOp55
 70
     1
102
RTVSPropertyOp56
 70
     1
102
RTVSPropertyOp57
 70
     1
102
RTVSPost2010Prop28
280
     0
102
RTVSPost2010PropOp28
 70
     1
102
RTVSPost2010Prop29
280
     1
102
RTVSPost2010PropOp29
 70
     1
102
RTVSPost2010Prop30
280
     1
102
RTVSPost2010PropOp30
 70
     1
102
RTVSPost2010Prop31
280
     0
102
RTVSPost2010PropOp31
 70
     1
102
RTVSPost2010Prop32
280
     0
102
RTVSPost2010PropOp32
 70
     1
102
RTVSPost2010Prop33
280
     0
102
RTVSPost2010PropOp33
 70
     1
102
RTVSPost2010Prop34
280
     0
102
RTVSPost2010PropOp34
 70
     1
102
RTVSPost2010Prop35
280
     0
102
RTVSPost2010PropOp35
 70
     1
102
RTVSPost2010Prop36
280
     0
102
RTVSPost2010PropOp36
 70
     1
102
RTVSPost2010Prop37
 90
       50
102
RTVSPost2010PropOp37
 70
     1
102
RTVSPost2010Prop38
140
0.0
102
RTVSPost2010PropOp38
 70
     1
102
RTVSPost2010Prop39
140
1.0
102
RTVSPost2010PropOp39
 70
     1
102
RTVSPost2010Prop40
 90
        0
102
RTVSPost2010PropOp40
 70
     1
102
RTVSPost2010Prop41ColorIndex
 90
       18
102
RTVSPost2010Prop41ColorRGB
 90
        0
102
RTVSPost2010PropOp41
 70
     1
102
RTVSPost2010Prop42
 90
       50
102
RTVSPost2010PropOp42
 70
     1
102
RTVSPost2010Prop43
 90
        3
102
RTVSPost2010PropOp43
 70
     1
102
RTVSPost2010Prop44ColorIndex
 90
        5
102
RTVSPost2010Prop44ColorRGB
 90
      255
102
RTVSPost2010PropOp44
 70
     1
102
RTVSPost2010Prop45
280
     0
102
RTVSPost2010PropOp45
 70
     1
102
RTVSPost2010Prop46
 90
       50
102
RTVSPost2010PropOp46
 70
     1
102
RTVSPost2010Prop47
 90
       50
102
RTVSPost2010PropOp47
 70
     1
102
RTVSPost2010Prop48
 90
       50
102
RTVSPost2010PropOp48
 70
     1
102
RTVSPost2010Prop49
280
     0
102
RTVSPost2010PropOp49
 70
     1
102
RTVSPost2010Prop50
 90
       50
102
RTVSPost2010PropOp50
 70
     1
102
RTVSPost2010Prop51ColorIndex
 90
      256
102
RTVSPost2010Prop51ColorRGB
 90
-16777216
102
RTVSPost2010PropOp51
 70
     0
102
RTVSPost2010Prop52
140
1.0
102
RTVSPost2010PropOp52
 70
     0
102
RTVSPost2010Prop53
 90
        2
102
RTVSPost2010PropOp53
 70
     1
102
RTVSPost2010Prop54
  1
strokes_ogs.tif
102
RTVSPost2010PropOp54
 70
     1
102
RTVSPost2010Prop55
280
     0
102
RTVSPost2010PropOp55
 70
     1
102
RTVSPost2010Prop56
140
1.0
102
RTVSPost2010PropOp56
 70
     1
102
RTVSPost2010Prop57
140
1.0
102
RTVSPost2010PropOp57
 70
     1
  0
XRECORD
  5
49E
102
{ACAD_REACTORS
330
49D
102
}
330
49D
100
AcDbXrecord
280
     1
102
RTVSPropertyOp0
 70
     1
102
RTVSPropertyOp1
 70
     1
102
RTVSPropertyOp2
 70
     1
102
RTVSPropertyOp3
 70
     1
102
RTVSPropertyOp4
 70
     1
102
RTVSPropertyOp5
 70
     1
102
RTVSPropertyOp6
 70
     1
102
RTVSPropertyOp7
 70
     1
102
RTVSPropertyOp8
 70
     1
102
RTVSPropertyOp9
 70
     1
102
RTVSPropertyOp10
 70
     1
102
RTVSPropertyOp11
 70
     1
102
RTVSPropertyOp12
 70
     1
102
RTVSPropertyOp13
 70
     1
102
RTVSPropertyOp14
 70
     1
102
RTVSPropertyOp15
 70
     1
102
RTVSPropertyOp16
 70
     1
102
RTVSPropertyOp17
 70
     1
102
RTVSPropertyOp18
 70
     1
102
RTVSPropertyOp19
 70
     1
102
RTVSPropertyOp20
 70
     1
102
RTVSPropertyOp21
 70
     1
102
RTVSPropertyOp22
 70
     1
102
RTVSPropertyOp23
 70
     1
102
RTVSPropertyOp24
 70
     1
102
RTVSPropertyOp25
 70
     1
102
RTVSPropertyOp26
 70
     1
102
RTVSPropertyOp27
 70
     1
102
RTVSPropertyOp28
 70
     1
102
RTVSPropertyOp29
 70
     1
102
RTVSPropertyOp30
 70
     1
102
RTVSPropertyOp31
 70
     1
102
RTVSPropertyOp32
 70
     1
102
RTVSPropertyOp33
 70
     1
102
RTVSPropertyOp34
 70
     1
102
RTVSPropertyOp35
 70
     1
102
RTVSPropertyOp36
 70
     1
102
RTVSPropertyOp37
 70
     1
102
RTVSPropertyOp38
 70
     1
102
RTVSPropertyOp39
 70
     1
102
RTVSPropertyOp40
 70
     1
102
RTVSPropertyOp41
 70
     1
102
RTVSPropertyOp42
 70
     1
102
RTVSPropertyOp43
 70
     1
102
RTVSPropertyOp44
 70
     1
102
RTVSPropertyOp45
 70
     1
102
RTVSPropertyOp46
 70
     1
102
RTVSPropertyOp47
 70
     1
102
RTVSPropertyOp48
 70
     1
102
RTVSPropertyOp49
 70
     1
102
RTVSPropertyOp50
 70
     1
102
RTVSPropertyOp51
 70
     0
102
RTVSPropertyOp52
 70
     0
102
RTVSPropertyOp53
 70
     1
102
RTVSPropertyOp54
 70
     1
102
RTVSPropertyOp55
 70
     1
102
RTVSPropertyOp56
 70
     1
102
RTVSPropertyOp57
 70
     1
102
RTVSPost2010Prop28
280
     0
102
RTVSPost2010PropOp28
 70
     1
102
RTVSPost2010Prop29
280
     1
102
RTVSPost2010PropOp29
 70
     1
102
RTVSPost2010Prop30
280
     1
102
RTVSPost2010PropOp30
 70
     1
102
RTVSPost2010Prop31
280
     0
102
RTVSPost2010PropOp31
 70
     1
102
RTVSPost2010Prop32
280
     0
102
RTVSPost2010PropOp32
 70
     1
102
RTVSPost2010Prop33
280
     0
102
RTVSPost2010PropOp33
 70
     1
102
RTVSPost2010Prop34
280
     0
102
RTVSPost2010PropOp34
 70
     1
102
RTVSPost2010Prop35
280
     0
102
RTVSPost2010PropOp35
 70
     1
102
RTVSPost2010Prop36
280
     0
102
RTVSPost2010PropOp36
 70
     1
102
RTVSPost2010Prop37
 90
       50
102
RTVSPost2010PropOp37
 70
     1
102
RTVSPost2010Prop38
140
0.0
102
RTVSPost2010PropOp38
 70
     1
102
RTVSPost2010Prop39
140
1.0
102
RTVSPost2010PropOp39
 70
     1
102
RTVSPost2010Prop40
 90
        0
102
RTVSPost2010PropOp40
 70
     1
102
RTVSPost2010Prop41ColorIndex
 90
       18
102
RTVSPost2010Prop41ColorRGB
 90
        0
102
RTVSPost2010PropOp41
 70
     1
102
RTVSPost2010Prop42
 90
       50
102
RTVSPost2010PropOp42
 70
     1
102
RTVSPost2010Prop43
 90
        3
102
RTVSPost2010PropOp43
 70
     1
102
RTVSPost2010Prop44ColorIndex
 90
        5
102
RTVSPost2010Prop44ColorRGB
 90
      255
102
RTVSPost2010PropOp44
 70
     1
102
RTVSPost2010Prop45
280
     0
102
RTVSPost2010PropOp45
 70
     1
102
RTVSPost2010Prop46
 90
       50
102
RTVSPost2010PropOp46
 70
     1
102
RTVSPost2010Prop47
 90
       50
102
RTVSPost2010PropOp47
 70
     1
102
RTVSPost2010Prop48
 90
       50
102
RTVSPost2010PropOp48
 70
     1
102
RTVSPost2010Prop49
280
     0
102
RTVSPost2010PropOp49
 70
     1
102
RTVSPost2010Prop50
 90
       50
102
RTVSPost2010PropOp50
 70
     1
102
RTVSPost2010Prop51ColorIndex
 90
      256
102
RTVSPost2010Prop51ColorRGB
 90
-16777216
102
RTVSPost2010PropOp51
 70
     0
102
RTVSPost2010Prop52
140
1.0
102
RTVSPost2010PropOp52
 70
     0
102
RTVSPost2010Prop53
 90
        2
102
RTVSPost2010PropOp53
 70
     1
102
RTVSPost2010Prop54
  1
strokes_ogs.tif
102
RTVSPost2010PropOp54
 70
     1
102
RTVSPost2010Prop55
280
     0
102
RTVSPost2010PropOp55
 70
     1
102
RTVSPost2010Prop56
140
1.0
102
RTVSPost2010PropOp56
 70
     1
102
RTVSPost2010Prop57
140
1.0
102
RTVSPost2010PropOp57
 70
     1
  0
XRECORD
  5
4B2
102
{ACAD_REACTORS
330
4B1
102
}
330
4B1
100
AcDbXrecord
280
     1
102
RTVSPropertyOp0
 70
     0
102
RTVSPropertyOp1
 70
     0
102
RTVSPropertyOp2
 70
     0
102
RTVSPropertyOp3
 70
     0
102
RTVSPropertyOp4
 70
     0
102
RTVSPropertyOp5
 70
     0
102
RTVSPropertyOp6
 70
     0
102
RTVSPropertyOp7
 70
     0
102
RTVSPropertyOp8
 70
     0
102
RTVSPropertyOp9
 70
     0
102
RTVSPropertyOp10
 70
     0
102
RTVSPropertyOp11
 70
     0
102
RTVSPropertyOp12
 70
     0
102
RTVSPropertyOp13
 70
     0
102
RTVSPropertyOp14
 70
     0
102
RTVSPropertyOp15
 70
     0
102
RTVSPropertyOp16
 70
     0
102
RTVSPropertyOp17
 70
     0
102
RTVSPropertyOp18
 70
     0
102
RTVSPropertyOp19
 70
     0
102
RTVSPropertyOp20
 70
     0
102
RTVSPropertyOp21
 70
     0
102
RTVSPropertyOp22
 70
     0
102
RTVSPropertyOp23
 70
     0
102
RTVSPropertyOp24
 70
     0
102
RTVSPropertyOp25
 70
     0
102
RTVSPropertyOp26
 70
     0
102
RTVSPropertyOp27
 70
     0
102
RTVSPropertyOp28
 70
     1
102
RTVSPropertyOp29
 70
     1
102
RTVSPropertyOp30
 70
     1
102
RTVSPropertyOp31
 70
     1
102
RTVSPropertyOp32
 70
     1
102
RTVSPropertyOp33
 70
     1
102
RTVSPropertyOp34
 70
     1
102
RTVSPropertyOp35
 70
     1
102
RTVSPropertyOp36
 70
     1
102
RTVSPropertyOp37
 70
     1
102
RTVSPropertyOp38
 70
     1
102
RTVSPropertyOp39
 70
     1
102
RTVSPropertyOp40
 70
     1
102
RTVSPropertyOp41
 70
     1
102
RTVSPropertyOp42
 70
     1
102
RTVSPropertyOp43
 70
     1
102
RTVSPropertyOp44
 70
     1
102
RTVSPropertyOp45
 70
     1
102
RTVSPropertyOp46
 70
     1
102
RTVSPropertyOp47
 70
     1
102
RTVSPropertyOp48
 70
     1
102
RTVSPropertyOp49
 70
     1
102
RTVSPropertyOp50
 70
     1
102
RTVSPropertyOp51
 70
     0
102
RTVSPropertyOp52
 70
     0
102
RTVSPropertyOp53
 70
     1
102
RTVSPropertyOp54
 70
     1
102
RTVSPropertyOp55
 70
     1
102
RTVSPropertyOp56
 70
     1
102
RTVSPropertyOp57
 70
     1
102
RTVSPost2010Prop28
280
     0
102
RTVSPost2010PropOp28
 70
     1
102
RTVSPost2010Prop29
280
     1
102
RTVSPost2010PropOp29
 70
     1
102
RTVSPost2010Prop30
280
     1
102
RTVSPost2010PropOp30
 70
     1
102
RTVSPost2010Prop31
280
     0
102
RTVSPost2010PropOp31
 70
     1
102
RTVSPost2010Prop32
280
     0
102
RTVSPost2010PropOp32
 70
     1
102
RTVSPost2010Prop33
280
     0
102
RTVSPost2010PropOp33
 70
     1
102
RTVSPost2010Prop34
280
     0
102
RTVSPost2010PropOp34
 70
     1
102
RTVSPost2010Prop35
280
     0
102
RTVSPost2010PropOp35
 70
     1
102
RTVSPost2010Prop36
280
     0
102
RTVSPost2010PropOp36
 70
     1
102
RTVSPost2010Prop37
 90
       50
102
RTVSPost2010PropOp37
 70
     1
102
RTVSPost2010Prop38
140
0.0
102
RTVSPost2010PropOp38
 70
     1
102
RTVSPost2010Prop39
140
1.0
102
RTVSPost2010PropOp39
 70
     1
102
RTVSPost2010Prop40
 90
        0
102
RTVSPost2010PropOp40
 70
     1
102
RTVSPost2010Prop41ColorIndex
 90
       18
102
RTVSPost2010Prop41ColorRGB
 90
        0
102
RTVSPost2010PropOp41
 70
     1
102
RTVSPost2010Prop42
 90
       50
102
RTVSPost2010PropOp42
 70
     1
102
RTVSPost2010Prop43
 90
        3
102
RTVSPost2010PropOp43
 70
     1
102
RTVSPost2010Prop44ColorIndex
 90
        5
102
RTVSPost2010Prop44ColorRGB
 90
      255
102
RTVSPost2010PropOp44
 70
     1
102
RTVSPost2010Prop45
280
     0
102
RTVSPost2010PropOp45
 70
     1
102
RTVSPost2010Prop46
 90
       50
102
RTVSPost2010PropOp46
 70
     1
102
RTVSPost2010Prop47
 90
       50
102
RTVSPost2010PropOp47
 70
     1
102
RTVSPost2010Prop48
 90
       50
102
RTVSPost2010PropOp48
 70
     1
102
RTVSPost2010Prop49
280
     0
102
RTVSPost2010PropOp49
 70
     1
102
RTVSPost2010Prop50
 90
       50
102
RTVSPost2010PropOp50
 70
     1
102
RTVSPost2010Prop51ColorIndex
 90
      256
102
RTVSPost2010Prop51ColorRGB
 90
-16777216
102
RTVSPost2010PropOp51
 70
     0
102
RTVSPost2010Prop52
140
1.0
102
RTVSPost2010PropOp52
 70
     0
102
RTVSPost2010Prop53
 90
        2
102
RTVSPost2010PropOp53
 70
     1
102
RTVSPost2010Prop54
  1
strokes_ogs.tif
102
RTVSPost2010PropOp54
 70
     1
102
RTVSPost2010Prop55
280
     0
102
RTVSPost2010PropOp55
 70
     1
102
RTVSPost2010Prop56
140
1.0
102
RTVSPost2010PropOp56
 70
     1
102
RTVSPost2010Prop57
140
1.0
102
RTVSPost2010PropOp57
 70
     1
  0
XRECORD
  5
4AC
102
{ACAD_REACTORS
330
4AB
102
}
330
4AB
100
AcDbXrecord
280
     1
102
RTVSPropertyOp0
 70
     1
102
RTVSPropertyOp1
 70
     1
102
RTVSPropertyOp2
 70
     1
102
RTVSPropertyOp3
 70
     1
102
RTVSPropertyOp4
 70
     1
102
RTVSPropertyOp5
 70
     1
102
RTVSPropertyOp6
 70
     1
102
RTVSPropertyOp7
 70
     1
102
RTVSPropertyOp8
 70
     1
102
RTVSPropertyOp9
 70
     1
102
RTVSPropertyOp10
 70
     1
102
RTVSPropertyOp11
 70
     1
102
RTVSPropertyOp12
 70
     1
102
RTVSPropertyOp13
 70
     1
102
RTVSPropertyOp14
 70
     1
102
RTVSPropertyOp15
 70
     1
102
RTVSPropertyOp16
 70
     1
102
RTVSPropertyOp17
 70
     1
102
RTVSPropertyOp18
 70
     1
102
RTVSPropertyOp19
 70
     1
102
RTVSPropertyOp20
 70
     1
102
RTVSPropertyOp21
 70
     1
102
RTVSPropertyOp22
 70
     1
102
RTVSPropertyOp23
 70
     1
102
RTVSPropertyOp24
 70
     1
102
RTVSPropertyOp25
 70
     1
102
RTVSPropertyOp26
 70
     1
102
RTVSPropertyOp27
 70
     1
102
RTVSPropertyOp28
 70
     1
102
RTVSPropertyOp29
 70
     1
102
RTVSPropertyOp30
 70
     1
102
RTVSPropertyOp31
 70
     1
102
RTVSPropertyOp32
 70
     1
102
RTVSPropertyOp33
 70
     1
102
RTVSPropertyOp34
 70
     1
102
RTVSPropertyOp35
 70
     1
102
RTVSPropertyOp36
 70
     1
102
RTVSPropertyOp37
 70
     1
102
RTVSPropertyOp38
 70
     1
102
RTVSPropertyOp39
 70
     1
102
RTVSPropertyOp40
 70
     1
102
RTVSPropertyOp41
 70
     1
102
RTVSPropertyOp42
 70
     1
102
RTVSPropertyOp43
 70
     1
102
RTVSPropertyOp44
 70
     1
102
RTVSPropertyOp45
 70
     1
102
RTVSPropertyOp46
 70
     1
102
RTVSPropertyOp47
 70
     1
102
RTVSPropertyOp48
 70
     1
102
RTVSPropertyOp49
 70
     1
102
RTVSPropertyOp50
 70
     1
102
RTVSPropertyOp51
 70
     0
102
RTVSPropertyOp52
 70
     0
102
RTVSPropertyOp53
 70
     1
102
RTVSPropertyOp54
 70
     1
102
RTVSPropertyOp55
 70
     1
102
RTVSPropertyOp56
 70
     1
102
RTVSPropertyOp57
 70
     1
102
RTVSPost2010Prop28
280
     0
102
RTVSPost2010PropOp28
 70
     1
102
RTVSPost2010Prop29
280
     1
102
RTVSPost2010PropOp29
 70
     1
102
RTVSPost2010Prop30
280
     1
102
RTVSPost2010PropOp30
 70
     1
102
RTVSPost2010Prop31
280
     0
102
RTVSPost2010PropOp31
 70
     1
102
RTVSPost2010Prop32
280
     0
102
RTVSPost2010PropOp32
 70
     1
102
RTVSPost2010Prop33
280
     0
102
RTVSPost2010PropOp33
 70
     1
102
RTVSPost2010Prop34
280
     0
102
RTVSPost2010PropOp34
 70
     1
102
RTVSPost2010Prop35
280
     0
102
RTVSPost2010PropOp35
 70
     1
102
RTVSPost2010Prop36
280
     0
102
RTVSPost2010PropOp36
 70
     1
102
RTVSPost2010Prop37
 90
       50
102
RTVSPost2010PropOp37
 70
     1
102
RTVSPost2010Prop38
140
0.0
102
RTVSPost2010PropOp38
 70
     1
102
RTVSPost2010Prop39
140
1.0
102
RTVSPost2010PropOp39
 70
     1
102
RTVSPost2010Prop40
 90
        0
102
RTVSPost2010PropOp40
 70
     1
102
RTVSPost2010Prop41ColorIndex
 90
       18
102
RTVSPost2010Prop41ColorRGB
 90
        0
102
RTVSPost2010PropOp41
 70
     1
102
RTVSPost2010Prop42
 90
       50
102
RTVSPost2010PropOp42
 70
     1
102
RTVSPost2010Prop43
 90
        3
102
RTVSPost2010PropOp43
 70
     1
102
RTVSPost2010Prop44ColorIndex
 90
        5
102
RTVSPost2010Prop44ColorRGB
 90
      255
102
RTVSPost2010PropOp44
 70
     1
102
RTVSPost2010Prop45
280
     0
102
RTVSPost2010PropOp45
 70
     1
102
RTVSPost2010Prop46
 90
       50
102
RTVSPost2010PropOp46
 70
     1
102
RTVSPost2010Prop47
 90
       50
102
RTVSPost2010PropOp47
 70
     1
102
RTVSPost2010Prop48
 90
       50
102
RTVSPost2010PropOp48
 70
     1
102
RTVSPost2010Prop49
280
     0
102
RTVSPost2010PropOp49
 70
     1
102
RTVSPost2010Prop50
 90
       50
102
RTVSPost2010PropOp50
 70
     1
102
RTVSPost2010Prop51ColorIndex
 90
      256
102
RTVSPost2010Prop51ColorRGB
 90
-16777216
102
RTVSPost2010PropOp51
 70
     0
102
RTVSPost2010Prop52
140
1.0
102
RTVSPost2010PropOp52
 70
     0
102
RTVSPost2010Prop53
 90
        2
102
RTVSPost2010PropOp53
 70
     1
102
RTVSPost2010Prop54
  1
strokes_ogs.tif
102
RTVSPost2010PropOp54
 70
     1
102
RTVSPost2010Prop55
280
     0
102
RTVSPost2010PropOp55
 70
     1
102
RTVSPost2010Prop56
140
1.0
102
RTVSPost2010PropOp56
 70
     1
102
RTVSPost2010Prop57
140
1.0
102
RTVSPost2010PropOp57
 70
     1
  0
XRECORD
  5
4B4
102
{ACAD_REACTORS
330
4B3
102
}
330
4B3
100
AcDbXrecord
280
     1
102
RTVSPropertyOp0
 70
     0
102
RTVSPropertyOp1
 70
     0
102
RTVSPropertyOp2
 70
     0
102
RTVSPropertyOp3
 70
     0
102
RTVSPropertyOp4
 70
     0
102
RTVSPropertyOp5
 70
     0
102
RTVSPropertyOp6
 70
     0
102
RTVSPropertyOp7
 70
     0
102
RTVSPropertyOp8
 70
     0
102
RTVSPropertyOp9
 70
     0
102
RTVSPropertyOp10
 70
     0
102
RTVSPropertyOp11
 70
     0
102
RTVSPropertyOp12
 70
     0
102
RTVSPropertyOp13
 70
     0
102
RTVSPropertyOp14
 70
     0
102
RTVSPropertyOp15
 70
     0
102
RTVSPropertyOp16
 70
     0
102
RTVSPropertyOp17
 70
     0
102
RTVSPropertyOp18
 70
     0
102
RTVSPropertyOp19
 70
     0
102
RTVSPropertyOp20
 70
     0
102
RTVSPropertyOp21
 70
     0
102
RTVSPropertyOp22
 70
     0
102
RTVSPropertyOp23
 70
     0
102
RTVSPropertyOp24
 70
     0
102
RTVSPropertyOp25
 70
     0
102
RTVSPropertyOp26
 70
     0
102
RTVSPropertyOp27
 70
     0
102
RTVSPropertyOp28
 70
     1
102
RTVSPropertyOp29
 70
     1
102
RTVSPropertyOp30
 70
     1
102
RTVSPropertyOp31
 70
     1
102
RTVSPropertyOp32
 70
     1
102
RTVSPropertyOp33
 70
     1
102
RTVSPropertyOp34
 70
     1
102
RTVSPropertyOp35
 70
     1
102
RTVSPropertyOp36
 70
     1
102
RTVSPropertyOp37
 70
     1
102
RTVSPropertyOp38
 70
     1
102
RTVSPropertyOp39
 70
     1
102
RTVSPropertyOp40
 70
     1
102
RTVSPropertyOp41
 70
     1
102
RTVSPropertyOp42
 70
     1
102
RTVSPropertyOp43
 70
     1
102
RTVSPropertyOp44
 70
     1
102
RTVSPropertyOp45
 70
     1
102
RTVSPropertyOp46
 70
     1
102
RTVSPropertyOp47
 70
     1
102
RTVSPropertyOp48
 70
     1
102
RTVSPropertyOp49
 70
     1
102
RTVSPropertyOp50
 70
     1
102
RTVSPropertyOp51
 70
     0
102
RTVSPropertyOp52
 70
     0
102
RTVSPropertyOp53
 70
     1
102
RTVSPropertyOp54
 70
     1
102
RTVSPropertyOp55
 70
     1
102
RTVSPropertyOp56
 70
     1
102
RTVSPropertyOp57
 70
     1
102
RTVSPost2010Prop28
280
     0
102
RTVSPost2010PropOp28
 70
     1
102
RTVSPost2010Prop29
280
     1
102
RTVSPost2010PropOp29
 70
     1
102
RTVSPost2010Prop30
280
     1
102
RTVSPost2010PropOp30
 70
     1
102
RTVSPost2010Prop31
280
     0
102
RTVSPost2010PropOp31
 70
     1
102
RTVSPost2010Prop32
280
     0
102
RTVSPost2010PropOp32
 70
     1
102
RTVSPost2010Prop33
280
     0
102
RTVSPost2010PropOp33
 70
     1
102
RTVSPost2010Prop34
280
     0
102
RTVSPost2010PropOp34
 70
     1
102
RTVSPost2010Prop35
280
     0
102
RTVSPost2010PropOp35
 70
     1
102
RTVSPost2010Prop36
280
     0
102
RTVSPost2010PropOp36
 70
     1
102
RTVSPost2010Prop37
 90
       50
102
RTVSPost2010PropOp37
 70
     1
102
RTVSPost2010Prop38
140
0.0
102
RTVSPost2010PropOp38
 70
     1
102
RTVSPost2010Prop39
140
1.0
102
RTVSPost2010PropOp39
 70
     1
102
RTVSPost2010Prop40
 90
        0
102
RTVSPost2010PropOp40
 70
     1
102
RTVSPost2010Prop41ColorIndex
 90
       18
102
RTVSPost2010Prop41ColorRGB
 90
        0
102
RTVSPost2010PropOp41
 70
     1
102
RTVSPost2010Prop42
 90
       50
102
RTVSPost2010PropOp42
 70
     1
102
RTVSPost2010Prop43
 90
        3
102
RTVSPost2010PropOp43
 70
     1
102
RTVSPost2010Prop44ColorIndex
 90
        5
102
RTVSPost2010Prop44ColorRGB
 90
      255
102
RTVSPost2010PropOp44
 70
     1
102
RTVSPost2010Prop45
280
     0
102
RTVSPost2010PropOp45
 70
     1
102
RTVSPost2010Prop46
 90
       50
102
RTVSPost2010PropOp46
 70
     1
102
RTVSPost2010Prop47
 90
       50
102
RTVSPost2010PropOp47
 70
     1
102
RTVSPost2010Prop48
 90
       50
102
RTVSPost2010PropOp48
 70
     1
102
RTVSPost2010Prop49
280
     0
102
RTVSPost2010PropOp49
 70
     1
102
RTVSPost2010Prop50
 90
       50
102
RTVSPost2010PropOp50
 70
     1
102
RTVSPost2010Prop51ColorIndex
 90
      256
102
RTVSPost2010Prop51ColorRGB
 90
-16777216
102
RTVSPost2010PropOp51
 70
     0
102
RTVSPost2010Prop52
140
1.0
102
RTVSPost2010PropOp52
 70
     0
102
RTVSPost2010Prop53
 90
        2
102
RTVSPost2010PropOp53
 70
     1
102
RTVSPost2010Prop54
  1
strokes_ogs.tif
102
RTVSPost2010PropOp54
 70
     1
102
RTVSPost2010Prop55
280
     0
102
RTVSPost2010PropOp55
 70
     1
102
RTVSPost2010Prop56
140
1.0
102
RTVSPost2010PropOp56
 70
     1
102
RTVSPost2010Prop57
140
1.0
102
RTVSPost2010PropOp57
 70
     1
  0
XRECORD
  5
4A2
102
{ACAD_REACTORS
330
4A1
102
}
330
4A1
100
AcDbXrecord
280
     1
102
RTVSPropertyOp0
 70
     1
102
RTVSPropertyOp1
 70
     1
102
RTVSPropertyOp2
 70
     1
102
RTVSPropertyOp3
 70
     1
102
RTVSPropertyOp4
 70
     1
102
RTVSPropertyOp5
 70
     1
102
RTVSPropertyOp6
 70
     1
102
RTVSPropertyOp7
 70
     1
102
RTVSPropertyOp8
 70
     1
102
RTVSPropertyOp9
 70
     1
102
RTVSPropertyOp10
 70
     1
102
RTVSPropertyOp11
 70
     1
102
RTVSPropertyOp12
 70
     1
102
RTVSPropertyOp13
 70
     1
102
RTVSPropertyOp14
 70
     1
102
RTVSPropertyOp15
 70
     1
102
RTVSPropertyOp16
 70
     1
102
RTVSPropertyOp17
 70
     1
102
RTVSPropertyOp18
 70
     1
102
RTVSPropertyOp19
 70
     1
102
RTVSPropertyOp20
 70
     1
102
RTVSPropertyOp21
 70
     1
102
RTVSPropertyOp22
 70
     1
102
RTVSPropertyOp23
 70
     1
102
RTVSPropertyOp24
 70
     1
102
RTVSPropertyOp25
 70
     1
102
RTVSPropertyOp26
 70
     1
102
RTVSPropertyOp27
 70
     1
102
RTVSPropertyOp28
 70
     1
102
RTVSPropertyOp29
 70
     1
102
RTVSPropertyOp30
 70
     1
102
RTVSPropertyOp31
 70
     1
102
RTVSPropertyOp32
 70
     1
102
RTVSPropertyOp33
 70
     1
102
RTVSPropertyOp34
 70
     1
102
RTVSPropertyOp35
 70
     1
102
RTVSPropertyOp36
 70
     1
102
RTVSPropertyOp37
 70
     1
102
RTVSPropertyOp38
 70
     1
102
RTVSPropertyOp39
 70
     1
102
RTVSPropertyOp40
 70
     1
102
RTVSPropertyOp41
 70
     1
102
RTVSPropertyOp42
 70
     1
102
RTVSPropertyOp43
 70
     1
102
RTVSPropertyOp44
 70
     1
102
RTVSPropertyOp45
 70
     1
102
RTVSPropertyOp46
 70
     1
102
RTVSPropertyOp47
 70
     1
102
RTVSPropertyOp48
 70
     1
102
RTVSPropertyOp49
 70
     1
102
RTVSPropertyOp50
 70
     1
102
RTVSPropertyOp51
 70
     0
102
RTVSPropertyOp52
 70
     0
102
RTVSPropertyOp53
 70
     1
102
RTVSPropertyOp54
 70
     1
102
RTVSPropertyOp55
 70
     1
102
RTVSPropertyOp56
 70
     1
102
RTVSPropertyOp57
 70
     1
102
RTVSPost2010Prop28
280
     0
102
RTVSPost2010PropOp28
 70
     1
102
RTVSPost2010Prop29
280
     1
102
RTVSPost2010PropOp29
 70
     1
102
RTVSPost2010Prop30
280
     1
102
RTVSPost2010PropOp30
 70
     1
102
RTVSPost2010Prop31
280
     0
102
RTVSPost2010PropOp31
 70
     1
102
RTVSPost2010Prop32
280
     0
102
RTVSPost2010PropOp32
 70
     1
102
RTVSPost2010Prop33
280
     0
102
RTVSPost2010PropOp33
 70
     1
102
RTVSPost2010Prop34
280
     0
102
RTVSPost2010PropOp34
 70
     1
102
RTVSPost2010Prop35
280
     0
102
RTVSPost2010PropOp35
 70
     1
102
RTVSPost2010Prop36
280
     0
102
RTVSPost2010PropOp36
 70
     1
102
RTVSPost2010Prop37
 90
       50
102
RTVSPost2010PropOp37
 70
     1
102
RTVSPost2010Prop38
140
0.0
102
RTVSPost2010PropOp38
 70
     1
102
RTVSPost2010Prop39
140
1.0
102
RTVSPost2010PropOp39
 70
     1
102
RTVSPost2010Prop40
 90
        0
102
RTVSPost2010PropOp40
 70
     1
102
RTVSPost2010Prop41ColorIndex
 90
       18
102
RTVSPost2010Prop41ColorRGB
 90
        0
102
RTVSPost2010PropOp41
 70
     1
102
RTVSPost2010Prop42
 90
       50
102
RTVSPost2010PropOp42
 70
     1
102
RTVSPost2010Prop43
 90
        3
102
RTVSPost2010PropOp43
 70
     1
102
RTVSPost2010Prop44ColorIndex
 90
        5
102
RTVSPost2010Prop44ColorRGB
 90
      255
102
RTVSPost2010PropOp44
 70
     1
102
RTVSPost2010Prop45
280
     0
102
RTVSPost2010PropOp45
 70
     1
102
RTVSPost2010Prop46
 90
       50
102
RTVSPost2010PropOp46
 70
     1
102
RTVSPost2010Prop47
 90
       50
102
RTVSPost2010PropOp47
 70
     1
102
RTVSPost2010Prop48
 90
       50
102
RTVSPost2010PropOp48
 70
     1
102
RTVSPost2010Prop49
280
     0
102
RTVSPost2010PropOp49
 70
     1
102
RTVSPost2010Prop50
 90
       50
102
RTVSPost2010PropOp50
 70
     1
102
RTVSPost2010Prop51ColorIndex
 90
      256
102
RTVSPost2010Prop51ColorRGB
 90
-16777216
102
RTVSPost2010PropOp51
 70
     0
102
RTVSPost2010Prop52
140
1.0
102
RTVSPost2010PropOp52
 70
     0
102
RTVSPost2010Prop53
 90
        2
102
RTVSPost2010PropOp53
 70
     1
102
RTVSPost2010Prop54
  1
strokes_ogs.tif
102
RTVSPost2010PropOp54
 70
     1
102
RTVSPost2010Prop55
280
     0
102
RTVSPost2010PropOp55
 70
     1
102
RTVSPost2010Prop56
140
1.0
102
RTVSPost2010PropOp56
 70
     1
102
RTVSPost2010Prop57
140
1.0
102
RTVSPost2010PropOp57
 70
     1
  0
XRECORD
  5
4C0
102
{ACAD_REACTORS
330
4BF
102
}
330
4BF
100
AcDbXrecord
280
     1
102
RTVSPropertyOp0
 70
     1
102
RTVSPropertyOp1
 70
     1
102
RTVSPropertyOp2
 70
     1
102
RTVSPropertyOp3
 70
     1
102
RTVSPropertyOp4
 70
     1
102
RTVSPropertyOp5
 70
     1
102
RTVSPropertyOp6
 70
     1
102
RTVSPropertyOp7
 70
     1
102
RTVSPropertyOp8
 70
     1
102
RTVSPropertyOp9
 70
     1
102
RTVSPropertyOp10
 70
     1
102
RTVSPropertyOp11
 70
     1
102
RTVSPropertyOp12
 70
     1
102
RTVSPropertyOp13
 70
     1
102
RTVSPropertyOp14
 70
     1
102
RTVSPropertyOp15
 70
     1
102
RTVSPropertyOp16
 70
     1
102
RTVSPropertyOp17
 70
     1
102
RTVSPropertyOp18
 70
     1
102
RTVSPropertyOp19
 70
     1
102
RTVSPropertyOp20
 70
     1
102
RTVSPropertyOp21
 70
     1
102
RTVSPropertyOp22
 70
     1
102
RTVSPropertyOp23
 70
     1
102
RTVSPropertyOp24
 70
     1
102
RTVSPropertyOp25
 70
     1
102
RTVSPropertyOp26
 70
     1
102
RTVSPropertyOp27
 70
     1
102
RTVSPropertyOp28
 70
     1
102
RTVSPropertyOp29
 70
     1
102
RTVSPropertyOp30
 70
     1
102
RTVSPropertyOp31
 70
     1
102
RTVSPropertyOp32
 70
     1
102
RTVSPropertyOp33
 70
     1
102
RTVSPropertyOp34
 70
     1
102
RTVSPropertyOp35
 70
     1
102
RTVSPropertyOp36
 70
     1
102
RTVSPropertyOp37
 70
     1
102
RTVSPropertyOp38
 70
     1
102
RTVSPropertyOp39
 70
     1
102
RTVSPropertyOp40
 70
     1
102
RTVSPropertyOp41
 70
     1
102
RTVSPropertyOp42
 70
     1
102
RTVSPropertyOp43
 70
     1
102
RTVSPropertyOp44
 70
     1
102
RTVSPropertyOp45
 70
     1
102
RTVSPropertyOp46
 70
     1
102
RTVSPropertyOp47
 70
     1
102
RTVSPropertyOp48
 70
     1
102
RTVSPropertyOp49
 70
     1
102
RTVSPropertyOp50
 70
     1
102
RTVSPropertyOp51
 70
     0
102
RTVSPropertyOp52
 70
     0
102
RTVSPropertyOp53
 70
     1
102
RTVSPropertyOp54
 70
     1
102
RTVSPropertyOp55
 70
     1
102
RTVSPropertyOp56
 70
     1
102
RTVSPropertyOp57
 70
     1
102
RTVSPost2010Prop28
280
     0
102
RTVSPost2010PropOp28
 70
     1
102
RTVSPost2010Prop29
280
     1
102
RTVSPost2010PropOp29
 70
     1
102
RTVSPost2010Prop30
280
     1
102
RTVSPost2010PropOp30
 70
     1
102
RTVSPost2010Prop31
280
     0
102
RTVSPost2010PropOp31
 70
     1
102
RTVSPost2010Prop32
280
     0
102
RTVSPost2010PropOp32
 70
     1
102
RTVSPost2010Prop33
280
     0
102
RTVSPost2010PropOp33
 70
     1
102
RTVSPost2010Prop34
280
     0
102
RTVSPost2010PropOp34
 70
     1
102
RTVSPost2010Prop35
280
     0
102
RTVSPost2010PropOp35
 70
     1
102
RTVSPost2010Prop36
280
     0
102
RTVSPost2010PropOp36
 70
     1
102
RTVSPost2010Prop37
 90
       50
102
RTVSPost2010PropOp37
 70
     1
102
RTVSPost2010Prop38
140
0.0
102
RTVSPost2010PropOp38
 70
     1
102
RTVSPost2010Prop39
140
1.0
102
RTVSPost2010PropOp39
 70
     1
102
RTVSPost2010Prop40
 90
        0
102
RTVSPost2010PropOp40
 70
     1
102
RTVSPost2010Prop41ColorIndex
 90
       18
102
RTVSPost2010Prop41ColorRGB
 90
        0
102
RTVSPost2010PropOp41
 70
     1
102
RTVSPost2010Prop42
 90
       50
102
RTVSPost2010PropOp42
 70
     1
102
RTVSPost2010Prop43
 90
        3
102
RTVSPost2010PropOp43
 70
     1
102
RTVSPost2010Prop44ColorIndex
 90
        5
102
RTVSPost2010Prop44ColorRGB
 90
      255
102
RTVSPost2010PropOp44
 70
     1
102
RTVSPost2010Prop45
280
     0
102
RTVSPost2010PropOp45
 70
     1
102
RTVSPost2010Prop46
 90
       50
102
RTVSPost2010PropOp46
 70
     1
102
RTVSPost2010Prop47
 90
       50
102
RTVSPost2010PropOp47
 70
     1
102
RTVSPost2010Prop48
 90
       50
102
RTVSPost2010PropOp48
 70
     1
102
RTVSPost2010Prop49
280
     0
102
RTVSPost2010PropOp49
 70
     1
102
RTVSPost2010Prop50
 90
       50
102
RTVSPost2010PropOp50
 70
     1
102
RTVSPost2010Prop51ColorIndex
 90
      256
102
RTVSPost2010Prop51ColorRGB
 90
-16777216
102
RTVSPost2010PropOp51
 70
     0
102
RTVSPost2010Prop52
140
1.0
102
RTVSPost2010PropOp52
 70
     0
102
RTVSPost2010Prop53
 90
        2
102
RTVSPost2010PropOp53
 70
     1
102
RTVSPost2010Prop54
  1
strokes_ogs.tif
102
RTVSPost2010PropOp54
 70
     1
102
RTVSPost2010Prop55
280
     0
102
RTVSPost2010PropOp55
 70
     1
102
RTVSPost2010Prop56
140
1.0
102
RTVSPost2010PropOp56
 70
     1
102
RTVSPost2010Prop57
140
1.0
102
RTVSPost2010PropOp57
 70
     1
  0
XRECORD
  5
4BE
102
{ACAD_REACTORS
330
4BD
102
}
330
4BD
100
AcDbXrecord
280
     1
102
RTVSPropertyOp0
 70
     1
102
RTVSPropertyOp1
 70
     1
102
RTVSPropertyOp2
 70
     1
102
RTVSPropertyOp3
 70
     1
102
RTVSPropertyOp4
 70
     1
102
RTVSPropertyOp5
 70
     1
102
RTVSPropertyOp6
 70
     1
102
RTVSPropertyOp7
 70
     1
102
RTVSPropertyOp8
 70
     1
102
RTVSPropertyOp9
 70
     1
102
RTVSPropertyOp10
 70
     1
102
RTVSPropertyOp11
 70
     1
102
RTVSPropertyOp12
 70
     1
102
RTVSPropertyOp13
 70
     1
102
RTVSPropertyOp14
 70
     1
102
RTVSPropertyOp15
 70
     1
102
RTVSPropertyOp16
 70
     1
102
RTVSPropertyOp17
 70
     1
102
RTVSPropertyOp18
 70
     1
102
RTVSPropertyOp19
 70
     1
102
RTVSPropertyOp20
 70
     1
102
RTVSPropertyOp21
 70
     1
102
RTVSPropertyOp22
 70
     1
102
RTVSPropertyOp23
 70
     1
102
RTVSPropertyOp24
 70
     1
102
RTVSPropertyOp25
 70
     1
102
RTVSPropertyOp26
 70
     1
102
RTVSPropertyOp27
 70
     1
102
RTVSPropertyOp28
 70
     1
102
RTVSPropertyOp29
 70
     1
102
RTVSPropertyOp30
 70
     1
102
RTVSPropertyOp31
 70
     1
102
RTVSPropertyOp32
 70
     1
102
RTVSPropertyOp33
 70
     1
102
RTVSPropertyOp34
 70
     1
102
RTVSPropertyOp35
 70
     1
102
RTVSPropertyOp36
 70
     1
102
RTVSPropertyOp37
 70
     1
102
RTVSPropertyOp38
 70
     1
102
RTVSPropertyOp39
 70
     1
102
RTVSPropertyOp40
 70
     1
102
RTVSPropertyOp41
 70
     1
102
RTVSPropertyOp42
 70
     1
102
RTVSPropertyOp43
 70
     1
102
RTVSPropertyOp44
 70
     1
102
RTVSPropertyOp45
 70
     1
102
RTVSPropertyOp46
 70
     1
102
RTVSPropertyOp47
 70
     1
102
RTVSPropertyOp48
 70
     1
102
RTVSPropertyOp49
 70
     1
102
RTVSPropertyOp50
 70
     1
102
RTVSPropertyOp51
 70
     0
102
RTVSPropertyOp52
 70
     0
102
RTVSPropertyOp53
 70
     1
102
RTVSPropertyOp54
 70
     1
102
RTVSPropertyOp55
 70
     1
102
RTVSPropertyOp56
 70
     1
102
RTVSPropertyOp57
 70
     1
102
RTVSPost2010Prop28
280
     0
102
RTVSPost2010PropOp28
 70
     1
102
RTVSPost2010Prop29
280
     1
102
RTVSPost2010PropOp29
 70
     1
102
RTVSPost2010Prop30
280
     1
102
RTVSPost2010PropOp30
 70
     1
102
RTVSPost2010Prop31
280
     0
102
RTVSPost2010PropOp31
 70
     1
102
RTVSPost2010Prop32
280
     0
102
RTVSPost2010PropOp32
 70
     1
102
RTVSPost2010Prop33
280
     0
102
RTVSPost2010PropOp33
 70
     1
102
RTVSPost2010Prop34
280
     0
102
RTVSPost2010PropOp34
 70
     1
102
RTVSPost2010Prop35
280
     0
102
RTVSPost2010PropOp35
 70
     1
102
RTVSPost2010Prop36
280
     0
102
RTVSPost2010PropOp36
 70
     1
102
RTVSPost2010Prop37
 90
       50
102
RTVSPost2010PropOp37
 70
     1
102
RTVSPost2010Prop38
140
0.0
102
RTVSPost2010PropOp38
 70
     1
102
RTVSPost2010Prop39
140
1.0
102
RTVSPost2010PropOp39
 70
     1
102
RTVSPost2010Prop40
 90
        0
102
RTVSPost2010PropOp40
 70
     1
102
RTVSPost2010Prop41ColorIndex
 90
       18
102
RTVSPost2010Prop41ColorRGB
 90
        0
102
RTVSPost2010PropOp41
 70
     1
102
RTVSPost2010Prop42
 90
       50
102
RTVSPost2010PropOp42
 70
     1
102
RTVSPost2010Prop43
 90
        3
102
RTVSPost2010PropOp43
 70
     1
102
RTVSPost2010Prop44ColorIndex
 90
        5
102
RTVSPost2010Prop44ColorRGB
 90
      255
102
RTVSPost2010PropOp44
 70
     1
102
RTVSPost2010Prop45
280
     0
102
RTVSPost2010PropOp45
 70
     1
102
RTVSPost2010Prop46
 90
       50
102
RTVSPost2010PropOp46
 70
     1
102
RTVSPost2010Prop47
 90
       50
102
RTVSPost2010PropOp47
 70
     1
102
RTVSPost2010Prop48
 90
       50
102
RTVSPost2010PropOp48
 70
     1
102
RTVSPost2010Prop49
280
     0
102
RTVSPost2010PropOp49
 70
     1
102
RTVSPost2010Prop50
 90
       50
102
RTVSPost2010PropOp50
 70
     1
102
RTVSPost2010Prop51ColorIndex
 90
      256
102
RTVSPost2010Prop51ColorRGB
 90
-16777216
102
RTVSPost2010PropOp51
 70
     0
102
RTVSPost2010Prop52
140
1.0
102
RTVSPost2010PropOp52
 70
     0
102
RTVSPost2010Prop53
 90
        2
102
RTVSPost2010PropOp53
 70
     1
102
RTVSPost2010Prop54
  1
strokes_ogs.tif
102
RTVSPost2010PropOp54
 70
     1
102
RTVSPost2010Prop55
280
     0
102
RTVSPost2010PropOp55
 70
     1
102
RTVSPost2010Prop56
140
1.0
102
RTVSPost2010PropOp56
 70
     1
102
RTVSPost2010Prop57
140
1.0
102
RTVSPost2010PropOp57
 70
     1
  0
XRECORD
  5
4B8
102
{ACAD_REACTORS
330
4B7
102
}
330
4B7
100
AcDbXrecord
280
     1
102
RTVSPropertyOp0
 70
     1
102
RTVSPropertyOp1
 70
     1
102
RTVSPropertyOp2
 70
     1
102
RTVSPropertyOp3
 70
     1
102
RTVSPropertyOp4
 70
     1
102
RTVSPropertyOp5
 70
     1
102
RTVSPropertyOp6
 70
     1
102
RTVSPropertyOp7
 70
     1
102
RTVSPropertyOp8
 70
     1
102
RTVSPropertyOp9
 70
     1
102
RTVSPropertyOp10
 70
     1
102
RTVSPropertyOp11
 70
     1
102
RTVSPropertyOp12
 70
     1
102
RTVSPropertyOp13
 70
     1
102
RTVSPropertyOp14
 70
     1
102
RTVSPropertyOp15
 70
     1
102
RTVSPropertyOp16
 70
     1
102
RTVSPropertyOp17
 70
     1
102
RTVSPropertyOp18
 70
     1
102
RTVSPropertyOp19
 70
     1
102
RTVSPropertyOp20
 70
     1
102
RTVSPropertyOp21
 70
     1
102
RTVSPropertyOp22
 70
     1
102
RTVSPropertyOp23
 70
     1
102
RTVSPropertyOp24
 70
     1
102
RTVSPropertyOp25
 70
     1
102
RTVSPropertyOp26
 70
     1
102
RTVSPropertyOp27
 70
     1
102
RTVSPropertyOp28
 70
     1
102
RTVSPropertyOp29
 70
     1
102
RTVSPropertyOp30
 70
     1
102
RTVSPropertyOp31
 70
     1
102
RTVSPropertyOp32
 70
     1
102
RTVSPropertyOp33
 70
     1
102
RTVSPropertyOp34
 70
     1
102
RTVSPropertyOp35
 70
     1
102
RTVSPropertyOp36
 70
     1
102
RTVSPropertyOp37
 70
     1
102
RTVSPropertyOp38
 70
     1
102
RTVSPropertyOp39
 70
     1
102
RTVSPropertyOp40
 70
     1
102
RTVSPropertyOp41
 70
     1
102
RTVSPropertyOp42
 70
     1
102
RTVSPropertyOp43
 70
     1
102
RTVSPropertyOp44
 70
     1
102
RTVSPropertyOp45
 70
     1
102
RTVSPropertyOp46
 70
     1
102
RTVSPropertyOp47
 70
     1
102
RTVSPropertyOp48
 70
     1
102
RTVSPropertyOp49
 70
     1
102
RTVSPropertyOp50
 70
     1
102
RTVSPropertyOp51
 70
     0
102
RTVSPropertyOp52
 70
     0
102
RTVSPropertyOp53
 70
     1
102
RTVSPropertyOp54
 70
     1
102
RTVSPropertyOp55
 70
     1
102
RTVSPropertyOp56
 70
     1
102
RTVSPropertyOp57
 70
     1
102
RTVSPost2010Prop28
280
     0
102
RTVSPost2010PropOp28
 70
     1
102
RTVSPost2010Prop29
280
     1
102
RTVSPost2010PropOp29
 70
     1
102
RTVSPost2010Prop30
280
     1
102
RTVSPost2010PropOp30
 70
     1
102
RTVSPost2010Prop31
280
     0
102
RTVSPost2010PropOp31
 70
     1
102
RTVSPost2010Prop32
280
     0
102
RTVSPost2010PropOp32
 70
     1
102
RTVSPost2010Prop33
280
     0
102
RTVSPost2010PropOp33
 70
     1
102
RTVSPost2010Prop34
280
     0
102
RTVSPost2010PropOp34
 70
     1
102
RTVSPost2010Prop35
280
     0
102
RTVSPost2010PropOp35
 70
     1
102
RTVSPost2010Prop36
280
     0
102
RTVSPost2010PropOp36
 70
     1
102
RTVSPost2010Prop37
 90
       50
102
RTVSPost2010PropOp37
 70
     1
102
RTVSPost2010Prop38
140
0.0
102
RTVSPost2010PropOp38
 70
     1
102
RTVSPost2010Prop39
140
1.0
102
RTVSPost2010PropOp39
 70
     1
102
RTVSPost2010Prop40
 90
        0
102
RTVSPost2010PropOp40
 70
     1
102
RTVSPost2010Prop41ColorIndex
 90
       18
102
RTVSPost2010Prop41ColorRGB
 90
        0
102
RTVSPost2010PropOp41
 70
     1
102
RTVSPost2010Prop42
 90
       50
102
RTVSPost2010PropOp42
 70
     1
102
RTVSPost2010Prop43
 90
        3
102
RTVSPost2010PropOp43
 70
     1
102
RTVSPost2010Prop44ColorIndex
 90
        5
102
RTVSPost2010Prop44ColorRGB
 90
      255
102
RTVSPost2010PropOp44
 70
     1
102
RTVSPost2010Prop45
280
     0
102
RTVSPost2010PropOp45
 70
     1
102
RTVSPost2010Prop46
 90
       50
102
RTVSPost2010PropOp46
 70
     1
102
RTVSPost2010Prop47
 90
       50
102
RTVSPost2010PropOp47
 70
     1
102
RTVSPost2010Prop48
 90
       50
102
RTVSPost2010PropOp48
 70
     1
102
RTVSPost2010Prop49
280
     0
102
RTVSPost2010PropOp49
 70
     1
102
RTVSPost2010Prop50
 90
       50
102
RTVSPost2010PropOp50
 70
     1
102
RTVSPost2010Prop51ColorIndex
 90
      256
102
RTVSPost2010Prop51ColorRGB
 90
-16777216
102
RTVSPost2010PropOp51
 70
     0
102
RTVSPost2010Prop52
140
1.0
102
RTVSPost2010PropOp52
 70
     0
102
RTVSPost2010Prop53
 90
        2
102
RTVSPost2010PropOp53
 70
     1
102
RTVSPost2010Prop54
  1
strokes_ogs.tif
102
RTVSPost2010PropOp54
 70
     1
102
RTVSPost2010Prop55
280
     0
102
RTVSPost2010PropOp55
 70
     1
102
RTVSPost2010Prop56
140
1.0
102
RTVSPost2010PropOp56
 70
     1
102
RTVSPost2010Prop57
140
1.0
102
RTVSPost2010PropOp57
 70
     1
  0
XRECORD
  5
4BA
102
{ACAD_REACTORS
330
4B9
102
}
330
4B9
100
AcDbXrecord
280
     1
102
RTVSPropertyOp0
 70
     1
102
RTVSPropertyOp1
 70
     1
102
RTVSPropertyOp2
 70
     1
102
RTVSPropertyOp3
 70
     1
102
RTVSPropertyOp4
 70
     1
102
RTVSPropertyOp5
 70
     1
102
RTVSPropertyOp6
 70
     1
102
RTVSPropertyOp7
 70
     1
102
RTVSPropertyOp8
 70
     1
102
RTVSPropertyOp9
 70
     1
102
RTVSPropertyOp10
 70
     1
102
RTVSPropertyOp11
 70
     1
102
RTVSPropertyOp12
 70
     1
102
RTVSPropertyOp13
 70
     1
102
RTVSPropertyOp14
 70
     1
102
RTVSPropertyOp15
 70
     1
102
RTVSPropertyOp16
 70
     1
102
RTVSPropertyOp17
 70
     1
102
RTVSPropertyOp18
 70
     1
102
RTVSPropertyOp19
 70
     1
102
RTVSPropertyOp20
 70
     1
102
RTVSPropertyOp21
 70
     1
102
RTVSPropertyOp22
 70
     1
102
RTVSPropertyOp23
 70
     1
102
RTVSPropertyOp24
 70
     1
102
RTVSPropertyOp25
 70
     1
102
RTVSPropertyOp26
 70
     1
102
RTVSPropertyOp27
 70
     1
102
RTVSPropertyOp28
 70
     1
102
RTVSPropertyOp29
 70
     1
102
RTVSPropertyOp30
 70
     1
102
RTVSPropertyOp31
 70
     1
102
RTVSPropertyOp32
 70
     1
102
RTVSPropertyOp33
 70
     1
102
RTVSPropertyOp34
 70
     1
102
RTVSPropertyOp35
 70
     1
102
RTVSPropertyOp36
 70
     1
102
RTVSPropertyOp37
 70
     1
102
RTVSPropertyOp38
 70
     1
102
RTVSPropertyOp39
 70
     1
102
RTVSPropertyOp40
 70
     1
102
RTVSPropertyOp41
 70
     1
102
RTVSPropertyOp42
 70
     1
102
RTVSPropertyOp43
 70
     1
102
RTVSPropertyOp44
 70
     1
102
RTVSPropertyOp45
 70
     1
102
RTVSPropertyOp46
 70
     1
102
RTVSPropertyOp47
 70
     1
102
RTVSPropertyOp48
 70
     1
102
RTVSPropertyOp49
 70
     1
102
RTVSPropertyOp50
 70
     1
102
RTVSPropertyOp51
 70
     0
102
RTVSPropertyOp52
 70
     0
102
RTVSPropertyOp53
 70
     1
102
RTVSPropertyOp54
 70
     1
102
RTVSPropertyOp55
 70
     1
102
RTVSPropertyOp56
 70
     1
102
RTVSPropertyOp57
 70
     1
102
RTVSPost2010Prop28
280
     0
102
RTVSPost2010PropOp28
 70
     1
102
RTVSPost2010Prop29
280
     1
102
RTVSPost2010PropOp29
 70
     1
102
RTVSPost2010Prop30
280
     1
102
RTVSPost2010PropOp30
 70
     1
102
RTVSPost2010Prop31
280
     0
102
RTVSPost2010PropOp31
 70
     1
102
RTVSPost2010Prop32
280
     0
102
RTVSPost2010PropOp32
 70
     1
102
RTVSPost2010Prop33
280
     0
102
RTVSPost2010PropOp33
 70
     1
102
RTVSPost2010Prop34
280
     0
102
RTVSPost2010PropOp34
 70
     1
102
RTVSPost2010Prop35
280
     0
102
RTVSPost2010PropOp35
 70
     1
102
RTVSPost2010Prop36
280
     0
102
RTVSPost2010PropOp36
 70
     1
102
RTVSPost2010Prop37
 90
       50
102
RTVSPost2010PropOp37
 70
     1
102
RTVSPost2010Prop38
140
0.0
102
RTVSPost2010PropOp38
 70
     1
102
RTVSPost2010Prop39
140
1.0
102
RTVSPost2010PropOp39
 70
     1
102
RTVSPost2010Prop40
 90
        0
102
RTVSPost2010PropOp40
 70
     1
102
RTVSPost2010Prop41ColorIndex
 90
       18
102
RTVSPost2010Prop41ColorRGB
 90
        0
102
RTVSPost2010PropOp41
 70
     1
102
RTVSPost2010Prop42
 90
       50
102
RTVSPost2010PropOp42
 70
     1
102
RTVSPost2010Prop43
 90
        3
102
RTVSPost2010PropOp43
 70
     1
102
RTVSPost2010Prop44ColorIndex
 90
        5
102
RTVSPost2010Prop44ColorRGB
 90
      255
102
RTVSPost2010PropOp44
 70
     1
102
RTVSPost2010Prop45
280
     0
102
RTVSPost2010PropOp45
 70
     1
102
RTVSPost2010Prop46
 90
       50
102
RTVSPost2010PropOp46
 70
     1
102
RTVSPost2010Prop47
 90
       50
102
RTVSPost2010PropOp47
 70
     1
102
RTVSPost2010Prop48
 90
       50
102
RTVSPost2010PropOp48
 70
     1
102
RTVSPost2010Prop49
280
     0
102
RTVSPost2010PropOp49
 70
     1
102
RTVSPost2010Prop50
 90
       50
102
RTVSPost2010PropOp50
 70
     1
102
RTVSPost2010Prop51ColorIndex
 90
      256
102
RTVSPost2010Prop51ColorRGB
 90
-16777216
102
RTVSPost2010PropOp51
 70
     0
102
RTVSPost2010Prop52
140
1.0
102
RTVSPost2010PropOp52
 70
     0
102
RTVSPost2010Prop53
 90
        2
102
RTVSPost2010PropOp53
 70
     1
102
RTVSPost2010Prop54
  1
strokes_ogs.tif
102
RTVSPost2010PropOp54
 70
     1
102
RTVSPost2010Prop55
280
     0
102
RTVSPost2010PropOp55
 70
     1
102
RTVSPost2010Prop56
140
1.0
102
RTVSPost2010PropOp56
 70
     1
102
RTVSPost2010Prop57
140
1.0
102
RTVSPost2010PropOp57
 70
     1
  0
XRECORD
  5
4AA
102
{ACAD_REACTORS
330
4A9
102
}
330
4A9
100
AcDbXrecord
280
     1
102
RTVSPropertyOp0
 70
     1
102
RTVSPropertyOp1
 70
     1
102
RTVSPropertyOp2
 70
     1
102
RTVSPropertyOp3
 70
     1
102
RTVSPropertyOp4
 70
     1
102
RTVSPropertyOp5
 70
     1
102
RTVSPropertyOp6
 70
     1
102
RTVSPropertyOp7
 70
     1
102
RTVSPropertyOp8
 70
     1
102
RTVSPropertyOp9
 70
     1
102
RTVSPropertyOp10
 70
     1
102
RTVSPropertyOp11
 70
     1
102
RTVSPropertyOp12
 70
     1
102
RTVSPropertyOp13
 70
     1
102
RTVSPropertyOp14
 70
     1
102
RTVSPropertyOp15
 70
     1
102
RTVSPropertyOp16
 70
     1
102
RTVSPropertyOp17
 70
     1
102
RTVSPropertyOp18
 70
     1
102
RTVSPropertyOp19
 70
     1
102
RTVSPropertyOp20
 70
     1
102
RTVSPropertyOp21
 70
     1
102
RTVSPropertyOp22
 70
     1
102
RTVSPropertyOp23
 70
     1
102
RTVSPropertyOp24
 70
     1
102
RTVSPropertyOp25
 70
     1
102
RTVSPropertyOp26
 70
     1
102
RTVSPropertyOp27
 70
     1
102
RTVSPropertyOp28
 70
     1
102
RTVSPropertyOp29
 70
     1
102
RTVSPropertyOp30
 70
     1
102
RTVSPropertyOp31
 70
     1
102
RTVSPropertyOp32
 70
     1
102
RTVSPropertyOp33
 70
     1
102
RTVSPropertyOp34
 70
     1
102
RTVSPropertyOp35
 70
     1
102
RTVSPropertyOp36
 70
     1
102
RTVSPropertyOp37
 70
     1
102
RTVSPropertyOp38
 70
     1
102
RTVSPropertyOp39
 70
     1
102
RTVSPropertyOp40
 70
     1
102
RTVSPropertyOp41
 70
     1
102
RTVSPropertyOp42
 70
     1
102
RTVSPropertyOp43
 70
     1
102
RTVSPropertyOp44
 70
     1
102
RTVSPropertyOp45
 70
     1
102
RTVSPropertyOp46
 70
     1
102
RTVSPropertyOp47
 70
     1
102
RTVSPropertyOp48
 70
     1
102
RTVSPropertyOp49
 70
     1
102
RTVSPropertyOp50
 70
     1
102
RTVSPropertyOp51
 70
     0
102
RTVSPropertyOp52
 70
     0
102
RTVSPropertyOp53
 70
     1
102
RTVSPropertyOp54
 70
     1
102
RTVSPropertyOp55
 70
     1
102
RTVSPropertyOp56
 70
     1
102
RTVSPropertyOp57
 70
     1
102
RTVSPost2010Prop28
280
     0
102
RTVSPost2010PropOp28
 70
     1
102
RTVSPost2010Prop29
280
     1
102
RTVSPost2010PropOp29
 70
     1
102
RTVSPost2010Prop30
280
     1
102
RTVSPost2010PropOp30
 70
     1
102
RTVSPost2010Prop31
280
     0
102
RTVSPost2010PropOp31
 70
     1
102
RTVSPost2010Prop32
280
     0
102
RTVSPost2010PropOp32
 70
     1
102
RTVSPost2010Prop33
280
     0
102
RTVSPost2010PropOp33
 70
     1
102
RTVSPost2010Prop34
280
     0
102
RTVSPost2010PropOp34
 70
     1
102
RTVSPost2010Prop35
280
     0
102
RTVSPost2010PropOp35
 70
     1
102
RTVSPost2010Prop36
280
     0
102
RTVSPost2010PropOp36
 70
     1
102
RTVSPost2010Prop37
 90
       50
102
RTVSPost2010PropOp37
 70
     1
102
RTVSPost2010Prop38
140
0.0
102
RTVSPost2010PropOp38
 70
     1
102
RTVSPost2010Prop39
140
1.0
102
RTVSPost2010PropOp39
 70
     1
102
RTVSPost2010Prop40
 90
        0
102
RTVSPost2010PropOp40
 70
     1
102
RTVSPost2010Prop41ColorIndex
 90
       18
102
RTVSPost2010Prop41ColorRGB
 90
        0
102
RTVSPost2010PropOp41
 70
     1
102
RTVSPost2010Prop42
 90
       50
102
RTVSPost2010PropOp42
 70
     1
102
RTVSPost2010Prop43
 90
        3
102
RTVSPost2010PropOp43
 70
     1
102
RTVSPost2010Prop44ColorIndex
 90
        5
102
RTVSPost2010Prop44ColorRGB
 90
      255
102
RTVSPost2010PropOp44
 70
     1
102
RTVSPost2010Prop45
280
     0
102
RTVSPost2010PropOp45
 70
     1
102
RTVSPost2010Prop46
 90
       50
102
RTVSPost2010PropOp46
 70
     1
102
RTVSPost2010Prop47
 90
       50
102
RTVSPost2010PropOp47
 70
     1
102
RTVSPost2010Prop48
 90
       50
102
RTVSPost2010PropOp48
 70
     1
102
RTVSPost2010Prop49
280
     0
102
RTVSPost2010PropOp49
 70
     1
102
RTVSPost2010Prop50
 90
       50
102
RTVSPost2010PropOp50
 70
     1
102
RTVSPost2010Prop51ColorIndex
 90
      256
102
RTVSPost2010Prop51ColorRGB
 90
-16777216
102
RTVSPost2010PropOp51
 70
     0
102
RTVSPost2010Prop52
140
1.0
102
RTVSPost2010PropOp52
 70
     0
102
RTVSPost2010Prop53
 90
        2
102
RTVSPost2010PropOp53
 70
     1
102
RTVSPost2010Prop54
  1
strokes_ogs.tif
102
RTVSPost2010PropOp54
 70
     1
102
RTVSPost2010Prop55
280
     0
102
RTVSPost2010PropOp55
 70
     1
102
RTVSPost2010Prop56
140
1.0
102
RTVSPost2010PropOp56
 70
     1
102
RTVSPost2010Prop57
140
1.0
102
RTVSPost2010PropOp57
 70
     1
  0
XRECORD
  5
49C
102
{ACAD_REACTORS
330
49B
102
}
330
49B
100
AcDbXrecord
280
     1
102
RTVSPropertyOp0
 70
     1
102
RTVSPropertyOp1
 70
     1
102
RTVSPropertyOp2
 70
     1
102
RTVSPropertyOp3
 70
     1
102
RTVSPropertyOp4
 70
     1
102
RTVSPropertyOp5
 70
     1
102
RTVSPropertyOp6
 70
     1
102
RTVSPropertyOp7
 70
     1
102
RTVSPropertyOp8
 70
     1
102
RTVSPropertyOp9
 70
     1
102
RTVSPropertyOp10
 70
     1
102
RTVSPropertyOp11
 70
     1
102
RTVSPropertyOp12
 70
     1
102
RTVSPropertyOp13
 70
     1
102
RTVSPropertyOp14
 70
     1
102
RTVSPropertyOp15
 70
     1
102
RTVSPropertyOp16
 70
     1
102
RTVSPropertyOp17
 70
     1
102
RTVSPropertyOp18
 70
     1
102
RTVSPropertyOp19
 70
     1
102
RTVSPropertyOp20
 70
     1
102
RTVSPropertyOp21
 70
     1
102
RTVSPropertyOp22
 70
     1
102
RTVSPropertyOp23
 70
     1
102
RTVSPropertyOp24
 70
     1
102
RTVSPropertyOp25
 70
     1
102
RTVSPropertyOp26
 70
     1
102
RTVSPropertyOp27
 70
     1
102
RTVSPropertyOp28
 70
     1
102
RTVSPropertyOp29
 70
     1
102
RTVSPropertyOp30
 70
     1
102
RTVSPropertyOp31
 70
     1
102
RTVSPropertyOp32
 70
     1
102
RTVSPropertyOp33
 70
     1
102
RTVSPropertyOp34
 70
     1
102
RTVSPropertyOp35
 70
     1
102
RTVSPropertyOp36
 70
     1
102
RTVSPropertyOp37
 70
     1
102
RTVSPropertyOp38
 70
     1
102
RTVSPropertyOp39
 70
     1
102
RTVSPropertyOp40
 70
     1
102
RTVSPropertyOp41
 70
     1
102
RTVSPropertyOp42
 70
     1
102
RTVSPropertyOp43
 70
     1
102
RTVSPropertyOp44
 70
     1
102
RTVSPropertyOp45
 70
     1
102
RTVSPropertyOp46
 70
     1
102
RTVSPropertyOp47
 70
     1
102
RTVSPropertyOp48
 70
     1
102
RTVSPropertyOp49
 70
     1
102
RTVSPropertyOp50
 70
     1
102
RTVSPropertyOp51
 70
     0
102
RTVSPropertyOp52
 70
     0
102
RTVSPropertyOp53
 70
     1
102
RTVSPropertyOp54
 70
     1
102
RTVSPropertyOp55
 70
     1
102
RTVSPropertyOp56
 70
     1
102
RTVSPropertyOp57
 70
     1
102
RTVSPost2010Prop28
280
     0
102
RTVSPost2010PropOp28
 70
     1
102
RTVSPost2010Prop29
280
     1
102
RTVSPost2010PropOp29
 70
     1
102
RTVSPost2010Prop30
280
     1
102
RTVSPost2010PropOp30
 70
     1
102
RTVSPost2010Prop31
280
     0
102
RTVSPost2010PropOp31
 70
     1
102
RTVSPost2010Prop32
280
     0
102
RTVSPost2010PropOp32
 70
     1
102
RTVSPost2010Prop33
280
     0
102
RTVSPost2010PropOp33
 70
     1
102
RTVSPost2010Prop34
280
     0
102
RTVSPost2010PropOp34
 70
     1
102
RTVSPost2010Prop35
280
     0
102
RTVSPost2010PropOp35
 70
     1
102
RTVSPost2010Prop36
280
     0
102
RTVSPost2010PropOp36
 70
     1
102
RTVSPost2010Prop37
 90
       50
102
RTVSPost2010PropOp37
 70
     1
102
RTVSPost2010Prop38
140
0.0
102
RTVSPost2010PropOp38
 70
     1
102
RTVSPost2010Prop39
140
1.0
102
RTVSPost2010PropOp39
 70
     1
102
RTVSPost2010Prop40
 90
        0
102
RTVSPost2010PropOp40
 70
     1
102
RTVSPost2010Prop41ColorIndex
 90
       18
102
RTVSPost2010Prop41ColorRGB
 90
        0
102
RTVSPost2010PropOp41
 70
     1
102
RTVSPost2010Prop42
 90
       50
102
RTVSPost2010PropOp42
 70
     1
102
RTVSPost2010Prop43
 90
        3
102
RTVSPost2010PropOp43
 70
     1
102
RTVSPost2010Prop44ColorIndex
 90
        5
102
RTVSPost2010Prop44ColorRGB
 90
      255
102
RTVSPost2010PropOp44
 70
     1
102
RTVSPost2010Prop45
280
     0
102
RTVSPost2010PropOp45
 70
     1
102
RTVSPost2010Prop46
 90
       50
102
RTVSPost2010PropOp46
 70
     1
102
RTVSPost2010Prop47
 90
       50
102
RTVSPost2010PropOp47
 70
     1
102
RTVSPost2010Prop48
 90
       50
102
RTVSPost2010PropOp48
 70
     1
102
RTVSPost2010Prop49
280
     0
102
RTVSPost2010PropOp49
 70
     1
102
RTVSPost2010Prop50
 90
       50
102
RTVSPost2010PropOp50
 70
     1
102
RTVSPost2010Prop51ColorIndex
 90
      256
102
RTVSPost2010Prop51ColorRGB
 90
-16777216
102
RTVSPost2010PropOp51
 70
     0
102
RTVSPost2010Prop52
140
1.0
102
RTVSPost2010PropOp52
 70
     0
102
RTVSPost2010Prop53
 90
        2
102
RTVSPost2010PropOp53
 70
     1
102
RTVSPost2010Prop54
  1
strokes_ogs.tif
102
RTVSPost2010PropOp54
 70
     1
102
RTVSPost2010Prop55
280
     0
102
RTVSPost2010PropOp55
 70
     1
102
RTVSPost2010Prop56
140
1.0
102
RTVSPost2010PropOp56
 70
     1
102
RTVSPost2010Prop57
140
1.0
102
RTVSPost2010PropOp57
 70
     1
  0
XRECORD
  5
4BC
102
{ACAD_REACTORS
330
4BB
102
}
330
4BB
100
AcDbXrecord
280
     1
102
RTVSPropertyOp0
 70
     1
102
RTVSPropertyOp1
 70
     1
102
RTVSPropertyOp2
 70
     1
102
RTVSPropertyOp3
 70
     1
102
RTVSPropertyOp4
 70
     1
102
RTVSPropertyOp5
 70
     1
102
RTVSPropertyOp6
 70
     1
102
RTVSPropertyOp7
 70
     1
102
RTVSPropertyOp8
 70
     1
102
RTVSPropertyOp9
 70
     1
102
RTVSPropertyOp10
 70
     1
102
RTVSPropertyOp11
 70
     1
102
RTVSPropertyOp12
 70
     1
102
RTVSPropertyOp13
 70
     1
102
RTVSPropertyOp14
 70
     1
102
RTVSPropertyOp15
 70
     1
102
RTVSPropertyOp16
 70
     1
102
RTVSPropertyOp17
 70
     1
102
RTVSPropertyOp18
 70
     1
102
RTVSPropertyOp19
 70
     1
102
RTVSPropertyOp20
 70
     1
102
RTVSPropertyOp21
 70
     1
102
RTVSPropertyOp22
 70
     1
102
RTVSPropertyOp23
 70
     1
102
RTVSPropertyOp24
 70
     1
102
RTVSPropertyOp25
 70
     1
102
RTVSPropertyOp26
 70
     1
102
RTVSPropertyOp27
 70
     1
102
RTVSPropertyOp28
 70
     1
102
RTVSPropertyOp29
 70
     1
102
RTVSPropertyOp30
 70
     1
102
RTVSPropertyOp31
 70
     1
102
RTVSPropertyOp32
 70
     1
102
RTVSPropertyOp33
 70
     1
102
RTVSPropertyOp34
 70
     1
102
RTVSPropertyOp35
 70
     1
102
RTVSPropertyOp36
 70
     1
102
RTVSPropertyOp37
 70
     1
102
RTVSPropertyOp38
 70
     1
102
RTVSPropertyOp39
 70
     1
102
RTVSPropertyOp40
 70
     1
102
RTVSPropertyOp41
 70
     1
102
RTVSPropertyOp42
 70
     1
102
RTVSPropertyOp43
 70
     1
102
RTVSPropertyOp44
 70
     1
102
RTVSPropertyOp45
 70
     1
102
RTVSPropertyOp46
 70
     1
102
RTVSPropertyOp47
 70
     1
102
RTVSPropertyOp48
 70
     1
102
RTVSPropertyOp49
 70
     1
102
RTVSPropertyOp50
 70
     1
102
RTVSPropertyOp51
 70
     0
102
RTVSPropertyOp52
 70
     0
102
RTVSPropertyOp53
 70
     1
102
RTVSPropertyOp54
 70
     1
102
RTVSPropertyOp55
 70
     1
102
RTVSPropertyOp56
 70
     1
102
RTVSPropertyOp57
 70
     1
102
RTVSPost2010Prop28
280
     0
102
RTVSPost2010PropOp28
 70
     1
102
RTVSPost2010Prop29
280
     1
102
RTVSPost2010PropOp29
 70
     1
102
RTVSPost2010Prop30
280
     1
102
RTVSPost2010PropOp30
 70
     1
102
RTVSPost2010Prop31
280
     0
102
RTVSPost2010PropOp31
 70
     1
102
RTVSPost2010Prop32
280
     0
102
RTVSPost2010PropOp32
 70
     1
102
RTVSPost2010Prop33
280
     0
102
RTVSPost2010PropOp33
 70
     1
102
RTVSPost2010Prop34
280
     0
102
RTVSPost2010PropOp34
 70
     1
102
RTVSPost2010Prop35
280
     0
102
RTVSPost2010PropOp35
 70
     1
102
RTVSPost2010Prop36
280
     0
102
RTVSPost2010PropOp36
 70
     1
102
RTVSPost2010Prop37
 90
       50
102
RTVSPost2010PropOp37
 70
     1
102
RTVSPost2010Prop38
140
0.0
102
RTVSPost2010PropOp38
 70
     1
102
RTVSPost2010Prop39
140
1.0
102
RTVSPost2010PropOp39
 70
     1
102
RTVSPost2010Prop40
 90
        0
102
RTVSPost2010PropOp40
 70
     1
102
RTVSPost2010Prop41ColorIndex
 90
       18
102
RTVSPost2010Prop41ColorRGB
 90
        0
102
RTVSPost2010PropOp41
 70
     1
102
RTVSPost2010Prop42
 90
       50
102
RTVSPost2010PropOp42
 70
     1
102
RTVSPost2010Prop43
 90
        3
102
RTVSPost2010PropOp43
 70
     1
102
RTVSPost2010Prop44ColorIndex
 90
        5
102
RTVSPost2010Prop44ColorRGB
 90
      255
102
RTVSPost2010PropOp44
 70
     1
102
RTVSPost2010Prop45
280
     0
102
RTVSPost2010PropOp45
 70
     1
102
RTVSPost2010Prop46
 90
       50
102
RTVSPost2010PropOp46
 70
     1
102
RTVSPost2010Prop47
 90
       50
102
RTVSPost2010PropOp47
 70
     1
102
RTVSPost2010Prop48
 90
       50
102
RTVSPost2010PropOp48
 70
     1
102
RTVSPost2010Prop49
280
     0
102
RTVSPost2010PropOp49
 70
     1
102
RTVSPost2010Prop50
 90
       50
102
RTVSPost2010PropOp50
 70
     1
102
RTVSPost2010Prop51ColorIndex
 90
      256
102
RTVSPost2010Prop51ColorRGB
 90
-16777216
102
RTVSPost2010PropOp51
 70
     0
102
RTVSPost2010Prop52
140
1.0
102
RTVSPost2010PropOp52
 70
     0
102
RTVSPost2010Prop53
 90
        2
102
RTVSPost2010PropOp53
 70
     1
102
RTVSPost2010Prop54
  1
strokes_ogs.tif
102
RTVSPost2010PropOp54
 70
     1
102
RTVSPost2010Prop55
280
     0
102
RTVSPost2010PropOp55
 70
     1
102
RTVSPost2010Prop56
140
1.0
102
RTVSPost2010PropOp56
 70
     1
102
RTVSPost2010Prop57
140
1.0
102
RTVSPost2010PropOp57
 70
     1
  0
ENDSEC
  0
EOF
