  0
SECTION
  2
HEADER
  9
$ACADVER
  1
AC1015
  9
$ACADMAINTVER
 70
     6
  9
$DWGCODEPAGE
  3
ANSI_932
  9
$INSBASE
 10
-288.8340095668061
 20
119.6782440884258
 30
0.0
  9
$EXTMIN
 10
95.70368460855434
 20
36.29769260039598
 30
0.0
  9
$EXTMAX
 10
784.6819709281336
 20
614.2049975549764
 30
0.0
  9
$LIMMIN
 10
0.0
 20
0.0
  9
$LIMMAX
 10
816.5000000000001
 20
565.0
  9
$ORTHOMODE
 70
     1
  9
$REGENMODE
 70
     1
  9
$FILLMODE
 70
     1
  9
$QTEXTMODE
 70
     0
  9
$MIRRTEXT
 70
     1
  9
$LTSCALE
 40
5.0
  9
$ATTMODE
 70
     1
  9
$TEXTSIZE
 40
6.0
  9
$TRACEWID
 40
0.05
  9
$TEXTSTYLE
  7
KANJI
  9
$CLAYER
  8
2
  9
$CELTYPE
  6
BYLAYER
  9
$CECOLOR
 62
   256
  9
$CELTSCALE
 40
1.0
  9
$DISPSILH
 70
     0
  9
$DIMSCALE
 40
2.0
  9
$DIMASZ
 40
2.0
  9
$DIMEXO
 40
0.5
  9
$DIMDLI
 40
0.0
  9
$DIMRND
 40
0.0
  9
$DIMDLE
 40
0.0
  9
$DIMEXE
 40
1.0
  9
$DIMTP
 40
0.0
  9
$DIMTM
 40
0.0
  9
$DIMTXT
 40
3.0
  9
$DIMCEN
 40
0.09
  9
$DIMTSZ
 40
0.0
  9
$DIMTOL
 70
     0
  9
$DIMLIM
 70
     0
  9
$DIMTIH
 70
     0
  9
$DIMTOH
 70
     0
  9
$DIMSE1
 70
     0
  9
$DIMSE2
 70
     0
  9
$DIMTAD
 70
     0
  9
$DIMZIN
 70
     8
  9
$DIMBLK
  1

  9
$DIMASO
 70
     0
  9
$DIMSHO
 70
     0
  9
$DIMPOST
  1

  9
$DIMAPOST
  1

  9
$DIMALT
 70
     0
  9
$DIMALTD
 70
     2
  9
$DIMALTF
 40
25.4
  9
$DIMLFAC
 40
1.0
  9
$DIMTOFL
 70
     1
  9
$DIMTVP
 40
1.0
  9
$DIMTIX
 70
     1
  9
$DIMSOXD
 70
     1
  9
$DIMSAH
 70
     0
  9
$DIMBLK1
  1

  9
$DIMBLK2
  1

  9
$DIMSTYLE
  2
STANDARD
  9
$DIMCLRD
 70
   256
  9
$DIMCLRE
 70
   256
  9
$DIMCLRT
 70
     2
  9
$DIMTFAC
 40
1.0
  9
$DIMGAP
 40
0.09
  9
$DIMJUST
 70
     0
  9
$DIMSD1
 70
     0
  9
$DIMSD2
 70
     0
  9
$DIMTOLJ
 70
     1
  9
$DIMTZIN
 70
     0
  9
$DIMALTZ
 70
     0
  9
$DIMALTTZ
 70
     0
  9
$DIMUPT
 70
     0
  9
$DIMDEC
 70
     1
  9
$DIMTDEC
 70
     4
  9
$DIMALTU
 70
     2
  9
$DIMALTTD
 70
     2
  9
$DIMTXSTY
  7
STANDARD
  9
$DIMAUNIT
 70
     0
  9
$DIMADEC
 70
     0
  9
$DIMALTRND
 40
0.0
  9
$DIMAZIN
 70
     0
  9
$DIMDSEP
 70
    46
  9
$DIMATFIT
 70
     3
  9
$DIMFRAC
 70
     0
  9
$DIMLDRBLK
  1

  9
$DIMLUNIT
 70
     2
  9
$DIMLWD
 70
    -2
  9
$DIMLWE
 70
    -2
  9
$DIMTMOVE
 70
     0
  9
$LUNITS
 70
     2
  9
$LUPREC
 70
     3
  9
$SKETCHINC
 40
0.1
  9
$FILLETRAD
 40
1.0
  9
$AUNITS
 70
     0
  9
$AUPREC
 70
     3
  9
$MENU
  1
C:\R13\WIN\SUPPORT\ACADFULL
  9
$ELEVATION
 40
0.0
  9
$PELEVATION
 40
0.0
  9
$THICKNESS
 40
0.0
  9
$LIMCHECK
 70
     0
  9
$CHAMFERA
 40
0.0
  9
$CHAMFERB
 40
0.0
  9
$CHAMFERC
 40
1.0
  9
$CHAMFERD
 40
0.7853981633974483
  9
$SKPOLY
 70
     0
  9
$TDCREATE
 40
2457438.849019479
  9
$TDUCREATE
 40
2457438.474019479
  9
$TDUPDATE
 40
2457871.810159734
  9
$TDUUPDATE
 40
2457871.435159734
  9
$TDINDWG
 40
0.0072485532
  9
$TDUSRTIMER
 40
0.0072472801
  9
$USRTIMER
 70
     1
  9
$ANGBASE
 50
0.0
  9
$ANGDIR
 70
     0
  9
$PDMODE
 70
     0
  9
$PDSIZE
 40
0.0
  9
$PLINEWID
 40
0.0
  9
$SPLFRAME
 70
     0
  9
$SPLINETYPE
 70
     6
  9
$SPLINESEGS
 70
     8
  9
$HANDSEED
  5
4FB
  9
$SURFTAB1
 70
     6
  9
$SURFTAB2
 70
     6
  9
$SURFTYPE
 70
     6
  9
$SURFU
 70
     6
  9
$SURFV
 70
     6
  9
$UCSBASE
  2

  9
$UCSNAME
  2

  9
$UCSORG
 10
0.0
 20
0.0
 30
0.0
  9
$UCSXDIR
 10
1.0
 20
0.0
 30
0.0
  9
$UCSYDIR
 10
0.0
 20
1.0
 30
0.0
  9
$UCSORTHOREF
  2

  9
$UCSORTHOVIEW
 70
     0
  9
$UCSORGTOP
 10
0.0
 20
0.0
 30
0.0
  9
$UCSORGBOTTOM
 10
0.0
 20
0.0
 30
0.0
  9
$UCSORGLEFT
 10
0.0
 20
0.0
 30
0.0
  9
$UCSORGRIGHT
 10
0.0
 20
0.0
 30
0.0
  9
$UCSORGFRONT
 10
0.0
 20
0.0
 30
0.0
  9
$UCSORGBACK
 10
0.0
 20
0.0
 30
0.0
  9
$PUCSBASE
  2

  9
$PUCSNAME
  2

  9
$PUCSORG
 10
0.0
 20
0.0
 30
0.0
  9
$PUCSXDIR
 10
1.0
 20
0.0
 30
0.0
  9
$PUCSYDIR
 10
0.0
 20
1.0
 30
0.0
  9
$PUCSORTHOREF
  2

  9
$PUCSORTHOVIEW
 70
     0
  9
$PUCSORGTOP
 10
0.0
 20
0.0
 30
0.0
  9
$PUCSORGBOTTOM
 10
0.0
 20
0.0
 30
0.0
  9
$PUCSORGLEFT
 10
0.0
 20
0.0
 30
0.0
  9
$PUCSORGRIGHT
 10
0.0
 20
0.0
 30
0.0
  9
$PUCSORGFRONT
 10
0.0
 20
0.0
 30
0.0
  9
$PUCSORGBACK
 10
0.0
 20
0.0
 30
0.0
  9
$USERI1
 70
     0
  9
$USERI2
 70
     0
  9
$USERI3
 70
     0
  9
$USERI4
 70
     0
  9
$USERI5
 70
     0
  9
$USERR1
 40
0.0
  9
$USERR2
 40
0.0
  9
$USERR3
 40
0.0
  9
$USERR4
 40
2448925.372986111
  9
$USERR5
 40
0.04166667
  9
$WORLDVIEW
 70
     1
  9
$SHADEDGE
 70
     3
  9
$SHADEDIF
 70
    70
  9
$TILEMODE
 70
     1
  9
$MAXACTVP
 70
    16
  9
$PINSBASE
 10
0.0
 20
0.0
 30
0.0
  9
$PLIMCHECK
 70
     0
  9
$PEXTMIN
 10
1.000000000000000E+20
 20
1.000000000000000E+20
 30
1.000000000000000E+20
  9
$PEXTMAX
 10
-1.000000000000000E+20
 20
-1.000000000000000E+20
 30
-1.000000000000000E+20
  9
$PLIMMIN
 10
0.0
 20
0.0
  9
$PLIMMAX
 10
12.0
 20
9.0
  9
$UNITMODE
 70
     0
  9
$VISRETAIN
 70
     0
  9
$PLINEGEN
 70
     0
  9
$PSLTSCALE
 70
     0
  9
$TREEDEPTH
 70
  3020
  9
$CMLSTYLE
  2
STANDARD
  9
$CMLJUST
 70
     0
  9
$CMLSCALE
 40
1.0
  9
$PROXYGRAPHICS
 70
     1
  9
$MEASUREMENT
 70
     0
  9
$CELWEIGHT
370
    -1
  9
$ENDCAPS
280
     0
  9
$JOINSTYLE
280
     0
  9
$LWDISPLAY
290
     0
  9
$INSUNITS
 70
     0
  9
$HYPERLINKBASE
  1

  9
$STYLESHEET
  1
monochrome.ctb
  9
$XEDIT
290
     1
  9
$CEPSNTYPE
380
     0
  9
$PSTYLEMODE
290
     1
  9
$FINGERPRINTGUID
  2
{FCCD8D64-C893-4DDC-A28B-6006FA8D34D2}
  9
$VERSIONGUID
  2
{A0F8F9D8-0B84-4C0D-A6BA-5638C18BADA4}
  9
$EXTNAMES
290
     1
  9
$PSVPSCALE
 40
0.0
  9
$OLESTARTUP
290
     0
  0
ENDSEC
  0
SECTION
  2
CLASSES
  0
CLASS
  1
ACDBDICTIONARYWDFLT
  2
AcDbDictionaryWithDefault
  3
ObjectDBX Classes
 90
        0
280
     0
281
     0
  0
CLASS
  1
MATERIAL
  2
AcDbMaterial
  3
ObjectDBX Classes
 90
     1153
280
     0
281
     0
  0
CLASS
  1
SORTENTSTABLE
  2
AcDbSortentsTable
  3
ObjectDBX Classes
 90
        0
280
     0
281
     0
  0
CLASS
  1
SCALE
  2
AcDbScale
  3
ObjectDBX Classes
 90
     1153
280
     0
281
     0
  0
CLASS
  1
DICTIONARYVAR
  2
AcDbDictionaryVar
  3
ObjectDBX Classes
 90
        0
280
     0
281
     0
  0
CLASS
  1
VISUALSTYLE
  2
AcDbVisualStyle
  3
ObjectDBX Classes
 90
     4095
280
     0
281
     0
  0
CLASS
  1
MLEADERSTYLE
  2
AcDbMLeaderStyle
  3
ACDB_MLEADERSTYLE_CLASS
 90
     4095
280
     0
281
     0
  0
CLASS
  1
TABLESTYLE
  2
AcDbTableStyle
  3
ObjectDBX Classes
 90
     4095
280
     0
281
     0
  0
CLASS
  1
ACDBPLACEHOLDER
  2
AcDbPlaceHolder
  3
ObjectDBX Classes
 90
        0
280
     0
281
     0
  0
CLASS
  1
LAYOUT
  2
AcDbLayout
  3
ObjectDBX Classes
 90
        0
280
     0
281
     0
  0
ENDSEC
  0
SECTION
  2
TABLES
  0
TABLE
  2
VPORT
  5
2D
102
{ACAD_XDICTIONARY
360
4C0
102
}
330
0
100
AcDbSymbolTable
 70
     1
  0
VPORT
  5
32
330
2D
100
AcDbSymbolTableRecord
100
AcDbViewportTableRecord
  2
*ACTIVE
 70
     0
 10
0.0
 20
0.0
 11
1.0
 21
1.0
 12
683.9751564308535
 22
318.7219323829873
 13
0.0
 23
0.0
 14
1.0
 24
1.0
 15
50.0
 25
50.0
 16
0.0
 26
0.0
 36
1.0
 17
0.0
 27
0.0
 37
0.0
 40
744.24073430739
 41
2.177611940298507
 42
50.0
 43
0.0
 44
0.0
 50
0.0
 51
0.0
 71
     0
 72
  5000
 73
     1
 74
     0
 75
     0
 76
     0
 77
     0
 78
     0
281
     0
 65
     1
110
0.0
120
0.0
130
0.0
111
1.0
121
0.0
131
0.0
112
0.0
122
1.0
132
0.0
 79
     0
146
0.0
1001
ACAD_NAV_VCDISPLAY
1070
     3
  0
ENDTAB
  0
TABLE
  2
LTYPE
  5
F
330
0
100
AcDbSymbolTable
 70
     2
  0
LTYPE
  5
10
330
F
100
AcDbSymbolTableRecord
100
AcDbLinetypeTableRecord
  2
BYBLOCK
 70
     0
  3

 72
    65
 73
     0
 40
0.0
  0
LTYPE
  5
11
330
F
100
AcDbSymbolTableRecord
100
AcDbLinetypeTableRecord
  2
BYLAYER
 70
     0
  3

 72
    65
 73
     0
 40
0.0
  0
LTYPE
  5
E
330
F
100
AcDbSymbolTableRecord
100
AcDbLinetypeTableRecord
  2
CONTINUOUS
 70
     0
  3
Solid line
 72
    65
 73
     0
 40
0.0
  0
LTYPE
  5
A1
330
F
100
AcDbSymbolTableRecord
100
AcDbLinetypeTableRecord
  2
CENTER
 70
     0
  3
____ _ ____ _ ____ _ ____ _ ____ _ ____ _ ____
 72
    65
 73
     4
 40
2.0
 49
1.25
 74
     0
 49
-0.25
 74
     0
 49
0.25
 74
     0
 49
-0.25
 74
     0
  0
ENDTAB
  0
TABLE
  2
LAYER
  5
2
102
{ACAD_XDICTIONARY
360
3
102
}
330
0
100
AcDbSymbolTable
 70
     8
  0
LAYER
  5
1F
102
{ACAD_XDICTIONARY
360
20
102
}
330
2
100
AcDbSymbolTableRecord
100
AcDbLayerTableRecord
  2
0
 70
     0
 62
     7
  6
CONTINUOUS
370
    -3
390
7
  0
LAYER
  5
D6
102
{ACAD_XDICTIONARY
360
D7
102
}
330
2
100
AcDbSymbolTableRecord
100
AcDbLayerTableRecord
  2
1
 70
     0
 62
     9
  6
CONTINUOUS
370
    -3
390
7
  0
LAYER
  5
1
102
{ACAD_XDICTIONARY
360
5
102
}
330
2
100
AcDbSymbolTableRecord
100
AcDbLayerTableRecord
  2
2
 70
     0
 62
     4
  6
CONTINUOUS
370
    -3
390
7
  0
LAYER
  5
64
102
{ACAD_XDICTIONARY
360
65
102
}
330
2
100
AcDbSymbolTableRecord
100
AcDbLayerTableRecord
  2
4
 70
     0
 62
     3
  6
CONTINUOUS
370
    -3
390
7
  0
LAYER
  5
9E
102
{ACAD_XDICTIONARY
360
9F
102
}
330
2
100
AcDbSymbolTableRecord
100
AcDbLayerTableRecord
  2
L-CENTER
 70
     0
 62
     1
  6
CENTER
370
    -3
390
7
  0
LAYER
  5
5A
102
{ACAD_XDICTIONARY
360
5B
102
}
330
2
100
AcDbSymbolTableRecord
100
AcDbLayerTableRecord
  2
3
 70
     0
 62
     2
  6
CONTINUOUS
370
    -3
390
7
  0
LAYER
  5
CE
330
2
100
AcDbSymbolTableRecord
100
AcDbLayerTableRecord
  2
5
 70
     0
 62
     6
  6
CONTINUOUS
370
    -3
390
7
  0
LAYER
  5
46D
330
2
100
AcDbSymbolTableRecord
100
AcDbLayerTableRecord
  2
Defpoints
 70
     0
 62
     7
  6
CONTINUOUS
290
     0
370
    -3
390
7
  0
ENDTAB
  0
TABLE
  2
STYLE
  5
13
330
0
100
AcDbSymbolTable
 70
     2
  0
STYLE
  5
17
330
13
100
AcDbSymbolTableRecord
100
AcDbTextStyleTableRecord
  2
STANDARD
 70
     0
 40
0.0
 41
1.0
 50
0.0
 71
     0
 42
3.6
  3
TXT
  4

  0
STYLE
  5
12
330
13
100
AcDbSymbolTableRecord
100
AcDbTextStyleTableRecord
  2
KANJI
 70
     0
 40
0.0
 41
1.0
 50
0.0
 71
     0
 42
6.0
  3
TXT
  4
BIGFONT
  0
ENDTAB
  0
TABLE
  2
VIEW
  5
2B
330
0
100
AcDbSymbolTable
 70
     0
  0
ENDTAB
  0
TABLE
  2
UCS
  5
2C
330
0
100
AcDbSymbolTable
 70
     0
  0
ENDTAB
  0
TABLE
  2
APPID
  5
D
330
0
100
AcDbSymbolTable
 70
     5
  0
APPID
  5
C
330
D
100
AcDbSymbolTableRecord
100
AcDbRegAppTableRecord
  2
ACAD
 70
     0
  0
APPID
  5
33
330
D
100
AcDbSymbolTableRecord
100
AcDbRegAppTableRecord
  2
ACAD_NAV_VCDISPLAY
 70
     0
  0
APPID
  5
26
330
D
100
AcDbSymbolTableRecord
100
AcDbRegAppTableRecord
  2
ACAD_PSEXT
 70
     0
  0
APPID
  5
4B1
330
D
100
AcDbSymbolTableRecord
100
AcDbRegAppTableRecord
  2
ACAD_MLEADERVER
 70
     0
  0
ENDTAB
  0
TABLE
  2
DIMSTYLE
  5
16
330
0
100
AcDbSymbolTable
 70
     1
100
AcDbDimStyleTable
  0
DIMSTYLE
105
15
330
16
100
AcDbSymbolTableRecord
100
AcDbDimStyleTableRecord
  2
STANDARD
 70
     0
178
     0
340
17
  0
ENDTAB
  0
TABLE
  2
BLOCK_RECORD
  5
1A
330
0
100
AcDbSymbolTable
 70
     0
  0
BLOCK_RECORD
  5
1B
102
{ACAD_XDICTIONARY
360
1C
102
}
330
1A
100
AcDbSymbolTableRecord
100
AcDbBlockTableRecord
  2
*MODEL_SPACE
340
23
  0
BLOCK_RECORD
  5
27
330
1A
100
AcDbSymbolTableRecord
100
AcDbBlockTableRecord
  2
*PAPER_SPACE
340
2A
  0
ENDTAB
  0
ENDSEC
  0
SECTION
  2
BLOCKS
  0
BLOCK
  5
1E
330
1B
100
AcDbEntity
  8
0
100
AcDbBlockBegin
  2
*MODEL_SPACE
 70
     0
 10
0.0
 20
0.0
 30
0.0
  3
*MODEL_SPACE
  1

  0
ENDBLK
  5
22
330
1B
100
AcDbEntity
  8
0
100
AcDbBlockEnd
  0
BLOCK
  5
28
330
27
100
AcDbEntity
 67
     1
  8
0
100
AcDbBlockBegin
  2
*PAPER_SPACE
 70
     0
 10
0.0
 20
0.0
 30
0.0
  3
*PAPER_SPACE
  1

  0
ENDBLK
  5
29
330
27
100
AcDbEntity
 67
     1
  8
0
100
AcDbBlockEnd
  0
ENDSEC
  0
SECTION
  2
ENTITIES
  0
ARC
  5
63
330
1B
100
AcDbEntity
  8
4
100
AcDbCircle
 10
519.8540378165496
 20
193.825535057427
 30
0.0
 40
1.0
100
AcDbArc
 50
180.0
 51
263.6598082540883
  0
ARC
  5
67
330
1B
100
AcDbEntity
  8
4
100
AcDbCircle
 10
519.8540378165496
 20
264.0354494711742
 30
0.0
 40
1.0
100
AcDbArc
 50
96.34019174591171
 51
180.0
  0
ARC
  5
68
330
1B
100
AcDbEntity
  8
4
100
AcDbCircle
 10
352.8009647333979
 20
411.6773448991328
 30
0.0
 40
1.0
100
AcDbArc
 50
270.0
 51
353.6598082540883
  0
ARC
  5
69
330
1B
100
AcDbEntity
  8
4
100
AcDbCircle
 10
282.5910503196505
 20
411.6773448991329
 30
0.0
 40
1.0
100
AcDbArc
 50
186.3401917459117
 51
270.0
  0
ARC
  5
6A
330
1B
100
AcDbEntity
  8
4
100
AcDbCircle
 10
230.6960075265242
 20
429.677344899133
 30
0.0
 40
1.0
100
AcDbArc
 50
180.0
 51
270.0
  0
ARC
  5
6B
330
1B
100
AcDbEntity
  8
4
100
AcDbCircle
 10
404.6960075265242
 20
429.6773448991329
 30
0.0
 40
1.0
100
AcDbArc
 50
270.0
 51
0.0
  0
ARC
  5
6C
330
1B
100
AcDbEntity
  8
4
100
AcDbCircle
 10
623.3540378165496
 20
318.4304922643006
 30
0.0
 40
0.5
100
AcDbArc
 50
0.0
 51
90.0
  0
ARC
  5
1AB
330
1B
100
AcDbEntity
  8
4
100
AcDbCircle
 10
639.7539398165497
 20
315.9304922643006
 30
0.0
 40
1.0
100
AcDbArc
 50
0.0
 51
90.0
  0
LINE
  5
1AC
330
1B
100
AcDbEntity
  8
4
100
AcDbLine
 10
642.2539398165497
 20
305.2615482643006
 30
0.0
 11
640.7539398165497
 21
305.2615482643006
 31
0.0
  0
LINE
  5
1AD
330
1B
100
AcDbEntity
  8
4
100
AcDbLine
 10
648.2539398165497
 20
304.5115482643006
 30
0.0
 11
642.2539398165497
 21
304.5115482643006
 31
0.0
  0
LINE
  5
1AF
330
1B
100
AcDbEntity
  8
4
100
AcDbLine
 10
642.2539398165497
 20
293.7615482643006
 30
0.0
 11
640.7539398165497
 21
293.7615482643006
 31
0.0
  0
LINE
  5
1B0
330
1B
100
AcDbEntity
  8
2
100
AcDbLine
 10
640.7539398165497
 20
299.5115482643006
 30
0.0
 11
642.2539398165497
 21
301.0115482643007
 31
0.0
  0
LINE
  5
1B1
330
1B
100
AcDbEntity
  8
2
100
AcDbLine
 10
640.7539398165497
 20
297.390227920741
 30
0.0
 11
642.2539398165497
 21
298.8902279207411
 31
0.0
  0
LINE
  5
1B2
330
1B
100
AcDbEntity
  8
4
100
AcDbLine
 10
648.2539398165497
 20
294.5115482643006
 30
0.0
 11
642.2539398165497
 21
294.5115482643006
 31
0.0
  0
LINE
  5
1B3
330
1B
100
AcDbEntity
  8
4
100
AcDbLine
 10
642.2539398165497
 20
305.2615482643006
 30
0.0
 11
642.2539398165497
 21
293.7615482643006
 31
0.0
  0
LINE
  5
1B4
330
1B
100
AcDbEntity
  8
4
100
AcDbLine
 10
648.2539398165497
 20
304.5115482643006
 30
0.0
 11
648.2539398165497
 21
294.5115482643006
 31
0.0
  0
ARC
  5
1B9
330
1B
100
AcDbEntity
  8
4
100
AcDbCircle
 10
624.8540378165496
 20
317.9304922643006
 30
0.0
 40
1.0
100
AcDbArc
 50
180.0
 51
270.0
  0
LINE
  5
1BA
330
1B
100
AcDbEntity
  8
4
100
AcDbLine
 10
595.6792338165496
 20
323.4304922643006
 30
0.0
 11
595.6792338165496
 21
327.4304922643006
 31
0.0
  0
LINE
  5
1BB
330
1B
100
AcDbEntity
  8
4
100
AcDbLine
 10
603.8540378165496
 20
318.9304922643006
 30
0.0
 11
603.8540378165496
 21
319.9304922643006
 31
0.0
  0
LINE
  5
1BC
330
1B
100
AcDbEntity
  8
4
100
AcDbLine
 10
596.3540378165496
 20
319.9304922643006
 30
0.0
 11
596.3540378165496
 21
321.4304922643006
 31
0.0
  0
LINE
  5
1BD
330
1B
100
AcDbEntity
  8
4
100
AcDbLine
 10
597.3540378165496
 20
321.4304922643006
 30
0.0
 11
597.3540378165496
 21
323.4304922643006
 31
0.0
  0
LINE
  5
1BE
330
1B
100
AcDbEntity
  8
4
100
AcDbLine
 10
574.0285978165496
 20
323.4304922643006
 30
0.0
 11
574.0285978165496
 21
327.4304922643006
 31
0.0
  0
LINE
  5
1BF
330
1B
100
AcDbEntity
  8
4
100
AcDbLine
 10
595.6792338165496
 20
327.4304922643006
 30
0.0
 11
574.0285978165496
 21
327.4304922643006
 31
0.0
  0
LINE
  5
1C6
330
1B
100
AcDbEntity
  8
4
100
AcDbLine
 10
573.3540378165496
 20
319.9304922643006
 30
0.0
 11
573.3540378165496
 21
321.4304922643006
 31
0.0
  0
LINE
  5
1C7
330
1B
100
AcDbEntity
  8
4
100
AcDbLine
 10
565.8540378165496
 20
318.9304922643006
 30
0.0
 11
565.8540378165496
 21
319.9304922643006
 31
0.0
  0
LINE
  5
1C8
330
1B
100
AcDbEntity
  8
4
100
AcDbLine
 10
572.3540378165496
 20
321.4304922643006
 30
0.0
 11
572.3540378165496
 21
323.4304922643006
 31
0.0
  0
ARC
  5
1C9
330
1B
100
AcDbEntity
  8
4
100
AcDbCircle
 10
547.3540378165496
 20
318.4304922643006
 30
0.0
 40
0.5
100
AcDbArc
 50
90.0
 51
180.0
  0
ARC
  5
1CA
330
1B
100
AcDbEntity
  8
4
100
AcDbCircle
 10
545.8540378165496
 20
317.9304922643006
 30
0.0
 40
1.0
100
AcDbArc
 50
270.0
 51
0.0
  0
ARC
  5
1CB
330
1B
100
AcDbEntity
  8
4
100
AcDbCircle
 10
537.8540378165496
 20
315.9304922643006
 30
0.0
 40
1.0
100
AcDbArc
 50
90.0
 51
180.0
  0
ARC
  5
1CC
330
1B
100
AcDbEntity
  8
4
100
AcDbCircle
 10
534.5894715647103
 20
294.7943639054218
 30
0.0
 40
1.0
100
AcDbArc
 50
270.0
 51
344.9315118405083
  0
ARC
  5
1CD
330
1B
100
AcDbEntity
  8
4
100
AcDbCircle
 10
528.8540378165496
 20
292.794363905422
 30
0.0
 40
1.0
100
AcDbArc
 50
90.0
 51
180.0
  0
LINE
  5
1CE
330
1B
100
AcDbEntity
  8
4
100
AcDbLine
 10
527.8540378165496
 20
292.794363905422
 30
0.0
 11
527.8540378165496
 21
290.6705194627588
 31
0.0
  0
LINE
  5
1CF
330
1B
100
AcDbEntity
  8
4
100
AcDbLine
 10
534.5894715647103
 20
293.7943639054218
 30
0.0
 11
528.8540378165496
 21
293.794363905422
 31
0.0
  0
LINE
  5
1D0
330
1B
100
AcDbEntity
  8
4
100
AcDbLine
 10
527.8540378165496
 20
290.6705194627588
 30
0.0
 11
527.8540378165496
 21
272.6705194627588
 31
0.0
  0
LINE
  5
1D1
330
1B
100
AcDbEntity
  8
4
100
AcDbLine
 10
537.8540378165496
 20
316.9304922643006
 30
0.0
 11
545.8540378165496
 21
316.9304922643006
 31
0.0
  0
LINE
  5
1D2
330
1B
100
AcDbEntity
  8
4
100
AcDbLine
 10
603.8540378165496
 20
319.9304922643006
 30
0.0
 11
565.8540378165496
 21
319.9304922643006
 31
0.0
  0
LINE
  5
1D3
330
1B
100
AcDbEntity
  8
4
100
AcDbLine
 10
600.8540378165496
 20
319.9304922643006
 30
0.0
 11
568.8540378165496
 21
319.9304922643006
 31
0.0
  0
LINE
  5
1D4
330
1B
100
AcDbEntity
  8
4
100
AcDbLine
 10
597.3540378165496
 20
323.4304922643006
 30
0.0
 11
572.3540378165496
 21
323.4304922643006
 31
0.0
  0
LINE
  5
1D5
330
1B
100
AcDbEntity
  8
4
100
AcDbLine
 10
597.3540378165496
 20
321.4304922643006
 30
0.0
 11
572.3540378165496
 21
321.4304922643006
 31
0.0
  0
LINE
  5
1D6
330
1B
100
AcDbEntity
  8
4
100
AcDbLine
 10
547.3540378165496
 20
318.9304922643006
 30
0.0
 11
623.3540378165496
 21
318.9304922643006
 31
0.0
  0
LINE
  5
1DF
330
1B
100
AcDbEntity
  8
4
100
AcDbLine
 10
639.7539398165497
 20
316.9304922643006
 30
0.0
 11
624.8540378165496
 21
316.9304922643006
 31
0.0
  0
LINE
  5
1E0
330
1B
100
AcDbEntity
  8
L-CENTER
 48
2.0
100
AcDbLine
 10
650.9614598165497
 20
299.5115482643006
 30
0.0
 11
619.1670403781957
 21
299.5115482643006
 31
0.0
  0
LINE
  5
1E2
330
1B
100
AcDbEntity
  8
4
100
AcDbLine
 10
713.8540378165496
 20
242.9304922643005
 30
0.0
 11
714.8540378165496
 21
241.9304922643005
 31
0.0
  0
LINE
  5
1E4
330
1B
100
AcDbEntity
  8
4
100
AcDbLine
 10
714.8540378165496
 20
215.9304922643005
 30
0.0
 11
713.8540378165496
 21
214.9304922643005
 31
0.0
  0
LINE
  5
1E5
330
1B
100
AcDbEntity
  8
4
100
AcDbLine
 10
713.8540378165496
 20
242.9304922643005
 30
0.0
 11
713.8540378165496
 21
214.9304922643005
 31
0.0
  0
LINE
  5
1E6
330
1B
100
AcDbEntity
  8
4
100
AcDbLine
 10
714.8540378165496
 20
245.9304922643006
 30
0.0
 11
714.8540378165496
 21
215.9304922643005
 31
0.0
  0
LINE
  5
1E8
330
1B
100
AcDbEntity
  8
4
100
AcDbLine
 10
669.8540378165496
 20
245.9304922643006
 30
0.0
 11
669.8540378165496
 21
242.9304922643006
 31
0.0
  0
LINE
  5
1E9
330
1B
100
AcDbEntity
  8
4
100
AcDbLine
 10
655.8537938165498
 20
253.9304922643006
 30
0.0
 11
654.8537938165498
 21
253.9304922643006
 31
0.0
  0
LINE
  5
1EA
330
1B
100
AcDbEntity
  8
4
100
AcDbLine
 10
655.8537938165498
 20
243.9304922643006
 30
0.0
 11
664.8540378165496
 21
243.9304922643006
 31
0.0
  0
LINE
  5
1EB
330
1B
100
AcDbEntity
  8
4
100
AcDbLine
 10
644.8537938165498
 20
249.4304922643006
 30
0.0
 11
640.7539398165497
 21
246.4304922643006
 31
0.0
  0
LINE
  5
1EC
330
1B
100
AcDbEntity
  8
4
100
AcDbLine
 10
644.8537938165498
 20
265.9304922643006
 30
0.0
 11
654.8537938165498
 21
263.9304922643006
 31
0.0
  0
LINE
  5
1ED
330
1B
100
AcDbEntity
  8
4
100
AcDbLine
 10
655.8537938165498
 20
203.9304922643006
 30
0.0
 11
654.8537938165498
 21
203.9304922643006
 31
0.0
  0
LINE
  5
1EE
330
1B
100
AcDbEntity
  8
4
100
AcDbLine
 10
655.8537938165498
 20
213.9304922643006
 30
0.0
 11
664.8540378165496
 21
213.9304922643006
 31
0.0
  0
LINE
  5
1EF
330
1B
100
AcDbEntity
  8
4
100
AcDbLine
 10
648.2539398165497
 20
233.9304922643007
 30
0.0
 11
648.2539398165497
 21
223.9304922643006
 31
0.0
  0
LINE
  5
1F0
330
1B
100
AcDbEntity
  8
4
100
AcDbLine
 10
642.2539398165497
 20
234.6804922643006
 30
0.0
 11
642.2539398165497
 21
223.1804922643006
 31
0.0
  0
LINE
  5
1F1
330
1B
100
AcDbEntity
  8
2
100
AcDbLine
 10
640.7539398165497
 20
228.9304922643006
 30
0.0
 11
642.2539398165497
 21
230.4304922643007
 31
0.0
  0
LINE
  5
1F2
330
1B
100
AcDbEntity
  8
2
100
AcDbLine
 10
640.7539398165497
 20
226.809171920741
 30
0.0
 11
642.2539398165497
 21
228.3091719207411
 31
0.0
  0
LINE
  5
1F3
330
1B
100
AcDbEntity
  8
4
100
AcDbLine
 10
642.2539398165497
 20
223.1804922643006
 30
0.0
 11
640.7539398165497
 21
223.1804922643006
 31
0.0
  0
LINE
  5
1F4
330
1B
100
AcDbEntity
  8
4
100
AcDbLine
 10
642.2539398165497
 20
234.6804922643006
 30
0.0
 11
640.7539398165497
 21
234.6804922643006
 31
0.0
  0
LINE
  5
1F5
330
1B
100
AcDbEntity
  8
4
100
AcDbLine
 10
648.2539398165497
 20
223.9304922643006
 30
0.0
 11
642.2539398165497
 21
223.9304922643006
 31
0.0
  0
LINE
  5
1F6
330
1B
100
AcDbEntity
  8
4
100
AcDbLine
 10
648.2539398165497
 20
233.9304922643007
 30
0.0
 11
642.2539398165497
 21
233.9304922643007
 31
0.0
  0
LINE
  5
1F7
330
1B
100
AcDbEntity
  8
4
100
AcDbLine
 10
644.8537938165498
 20
208.4304922643006
 30
0.0
 11
640.7539398165497
 21
211.4304922643006
 31
0.0
  0
LINE
  5
1F8
330
1B
100
AcDbEntity
  8
4
100
AcDbLine
 10
655.8537938165498
 20
253.9304922643006
 30
0.0
 11
655.8537938165498
 21
203.9304922643006
 31
0.0
  0
LINE
  5
1F9
330
1B
100
AcDbEntity
  8
4
100
AcDbLine
 10
644.8537938165498
 20
233.9304922643007
 30
0.0
 11
644.8537938165498
 21
265.9304922643006
 31
0.0
  0
LINE
  5
1FA
330
1B
100
AcDbEntity
  8
4
100
AcDbLine
 10
664.8540378165496
 20
213.9304922643006
 30
0.0
 11
664.8540378165496
 21
243.9304922643006
 31
0.0
  0
LINE
  5
1FB
330
1B
100
AcDbEntity
  8
4
100
AcDbLine
 10
640.7539398165497
 20
171.4307362643007
 30
0.0
 11
644.8537938165498
 21
191.9304922643006
 31
0.0
  0
LINE
  5
1FC
330
1B
100
AcDbEntity
  8
4
100
AcDbLine
 10
644.8537938165498
 20
191.9304922643006
 30
0.0
 11
654.8537938165498
 21
193.9304922643006
 31
0.0
  0
LINE
  5
1FD
330
1B
100
AcDbEntity
  8
4
100
AcDbLine
 10
648.2539398165497
 20
153.3494362643006
 30
0.0
 11
648.2539398165497
 21
163.3494362643006
 31
0.0
  0
LINE
  5
1FE
330
1B
100
AcDbEntity
  8
4
100
AcDbLine
 10
642.2539398165497
 20
152.5994362643006
 30
0.0
 11
642.2539398165497
 21
164.0994362643006
 31
0.0
  0
LINE
  5
1FF
330
1B
100
AcDbEntity
  8
2
100
AcDbLine
 10
640.7539398165497
 20
158.3494362643006
 30
0.0
 11
642.2539398165497
 21
156.8494362643005
 31
0.0
  0
LINE
  5
200
330
1B
100
AcDbEntity
  8
2
100
AcDbLine
 10
640.7539398165497
 20
160.4707566078602
 30
0.0
 11
642.2539398165497
 21
158.9707566078601
 31
0.0
  0
LINE
  5
201
330
1B
100
AcDbEntity
  8
4
100
AcDbLine
 10
642.2539398165497
 20
164.0994362643006
 30
0.0
 11
640.7539398165497
 21
164.0994362643006
 31
0.0
  0
LINE
  5
202
330
1B
100
AcDbEntity
  8
4
100
AcDbLine
 10
642.2539398165497
 20
152.5994362643006
 30
0.0
 11
640.7539398165497
 21
152.5994362643006
 31
0.0
  0
LINE
  5
203
330
1B
100
AcDbEntity
  8
4
100
AcDbLine
 10
648.2539398165497
 20
163.3494362643006
 30
0.0
 11
642.2539398165497
 21
163.3494362643006
 31
0.0
  0
LINE
  5
204
330
1B
100
AcDbEntity
  8
4
100
AcDbLine
 10
648.2539398165497
 20
153.3494362643006
 30
0.0
 11
642.2539398165497
 21
153.3494362643006
 31
0.0
  0
ARC
  5
205
330
1B
100
AcDbEntity
  8
4
100
AcDbCircle
 10
639.7539398165497
 20
141.9304922643006
 30
0.0
 40
1.0
100
AcDbArc
 50
270.0
 51
0.0
  0
LINE
  5
206
330
1B
100
AcDbEntity
  8
4
100
AcDbLine
 10
644.8537938165498
 20
223.9304922643006
 30
0.0
 11
644.8537938165498
 21
191.9304922643006
 31
0.0
  0
LINE
  5
207
330
1B
100
AcDbEntity
  8
4
100
AcDbLine
 10
654.8537938165498
 20
263.9304922643006
 30
0.0
 11
654.8537938165498
 21
193.9304922643006
 31
0.0
  0
LINE
  5
208
330
1B
100
AcDbEntity
  8
4
100
AcDbLine
 10
714.8540378165496
 20
245.9304922643006
 30
0.0
 11
669.8540378165496
 21
245.9304922643006
 31
0.0
  0
LINE
  5
209
330
1B
100
AcDbEntity
  8
4
100
AcDbLine
 10
713.8540378165496
 20
214.9304922643005
 30
0.0
 11
664.8540378165496
 21
214.9304922643006
 31
0.0
  0
LINE
  5
20A
330
1B
100
AcDbEntity
  8
4
100
AcDbLine
 10
713.8540378165496
 20
242.9304922643005
 30
0.0
 11
664.8540378165496
 21
242.9304922643006
 31
0.0
  0
ARC
  5
20B
330
1B
100
AcDbEntity
  8
4
100
AcDbCircle
 10
657.8540378165496
 20
85.93062826430071
 30
0.0
 40
2.0
100
AcDbArc
 50
0.0
 51
90.0
  0
LINE
  5
20C
330
1B
100
AcDbEntity
  8
4
100
AcDbLine
 10
659.8540378165496
 20
67.93062826430071
 30
0.0
 11
659.8540378165496
 21
85.93062826430071
 31
0.0
  0
ARC
  5
20D
330
1B
100
AcDbEntity
  8
4
100
AcDbCircle
 10
642.0014998165495
 20
90.93062826430071
 30
0.0
 40
3.000034
100
AcDbArc
 50
198.8100020000015
 51
270.0
  0
LINE
  5
210
330
1B
100
AcDbEntity
  8
L-CENTER
 48
2.0
100
AcDbLine
 10
639.8540378165496
 20
94.58613226430077
 30
0.0
 11
639.8540378165496
 21
61.53951626430069
 31
0.0
  0
LINE
  5
212
330
1B
100
AcDbEntity
  8
4
100
AcDbLine
 10
628.8540378165496
 20
140.9304922643006
 30
0.0
 11
622.8540378165496
 21
140.9304922643006
 31
0.0
  0
LINE
  5
217
330
1B
100
AcDbEntity
  8
4
100
AcDbLine
 10
527.8540378165496
 20
249.4304922643006
 30
0.0
 11
536.8540378165496
 21
246.4304922643006
 31
0.0
  0
LINE
  5
218
330
1B
100
AcDbEntity
  8
4
100
AcDbLine
 10
519.7436062904748
 20
265.0293332058478
 30
0.0
 11
527.8540378165496
 21
265.9304922643006
 31
0.0
  0
LINE
  5
219
330
1B
100
AcDbEntity
  8
4
100
AcDbLine
 10
527.8540378165496
 20
208.4304922643006
 30
0.0
 11
536.8540378165496
 21
211.4304922643006
 31
0.0
  0
LINE
  5
21A
330
1B
100
AcDbEntity
  8
4
100
AcDbLine
 10
543.8540378165496
 20
140.9304922643006
 30
0.0
 11
546.8540378165496
 21
140.9304922643006
 31
0.0
  0
LINE
  5
21B
330
1B
100
AcDbEntity
  8
4
100
AcDbLine
 10
546.3540378165496
 20
136.3686482643008
 30
0.0
 11
546.3540378165496
 21
140.9304922643006
 31
0.0
  0
LINE
  5
21C
330
1B
100
AcDbEntity
  8
4
100
AcDbLine
 10
546.3540378165496
 20
136.3686482643008
 30
0.0
 11
546.3540378165496
 21
140.9304922643006
 31
0.0
  0
LINE
  5
21D
330
1B
100
AcDbEntity
  8
4
100
AcDbLine
 10
519.7436062904748
 20
192.8316513227534
 30
0.0
 11
527.8540378165496
 21
191.9304922643006
 31
0.0
  0
ARC
  5
21E
330
1B
100
AcDbEntity
  8
4
100
AcDbCircle
 10
537.8540378165496
 20
141.9304922643006
 30
0.0
 40
1.0
100
AcDbArc
 50
180.0
 51
270.0
  0
LINE
  5
21F
330
1B
100
AcDbEntity
  8
4
100
AcDbLine
 10
536.8540378165496
 20
158.5020242643008
 30
0.0
 11
527.8540378165496
 21
191.9304922643006
 31
0.0
  0
LINE
  5
220
330
1B
100
AcDbEntity
  8
4
100
AcDbLine
 10
537.8540378165496
 20
140.9304922643006
 30
0.0
 11
543.8540378165496
 21
140.9304922643006
 31
0.0
  0
LINE
  5
221
330
1B
100
AcDbEntity
  8
4
100
AcDbLine
 10
542.3540378165496
 20
135.4306442643007
 30
0.0
 11
537.3540378165496
 21
135.4306442643007
 31
0.0
  0
LINE
  5
222
330
1B
100
AcDbEntity
  8
4
100
AcDbLine
 10
518.8540378165496
 20
264.0354494711742
 30
0.0
 11
518.8540378165496
 21
193.825535057427
 31
0.0
  0
LINE
  5
223
330
1B
100
AcDbEntity
  8
4
100
AcDbLine
 10
527.8540378165496
 20
265.9304922643006
 30
0.0
 11
527.8540378165496
 21
191.9304922643006
 31
0.0
  0
ARC
  5
224
330
1B
100
AcDbEntity
  8
4
100
AcDbCircle
 10
620.8540378165496
 20
121.2973282643007
 30
0.0
 40
4.999962
100
AcDbArc
 50
148.9971679999998
 51
180.0005269996932
  0
ARC
  5
225
330
1B
100
AcDbEntity
  8
4
100
AcDbCircle
 10
620.8540378165496
 20
92.93062826430071
 30
0.0
 40
5.0
100
AcDbArc
 50
180.0005160000544
 51
270.0
  0
LINE
  5
226
330
1B
100
AcDbEntity
  8
4
100
AcDbLine
 10
615.8540378165496
 20
121.2973282643007
 30
0.0
 11
615.8540378165496
 21
92.93062826430071
 31
0.0
  0
ARC
  5
229
330
1B
100
AcDbEntity
  8
4
100
AcDbCircle
 10
548.8540378165496
 20
121.2973282643007
 30
0.0
 40
4.999978
100
AcDbArc
 50
0.0
 51
31.00342500000094
  0
ARC
  5
22A
330
1B
100
AcDbEntity
  8
4
100
AcDbCircle
 10
548.8540378165496
 20
92.93062826430071
 30
0.0
 40
5.0
100
AcDbArc
 50
270.0
 51
0.0
  0
LINE
  5
22B
330
1B
100
AcDbEntity
  8
4
100
AcDbLine
 10
553.8540378165496
 20
121.2973282643007
 30
0.0
 11
553.8540378165496
 21
92.93062826430071
 31
0.0
  0
ARC
  5
22C
330
1B
100
AcDbEntity
  8
4
100
AcDbCircle
 10
527.7065778165495
 20
90.93062826430071
 30
0.0
 40
3.000024
100
AcDbArc
 50
270.0
 51
341.1911009999999
  0
LINE
  5
22D
330
1B
100
AcDbEntity
  8
4
100
AcDbLine
 10
543.4797718165496
 20
127.9306602643007
 30
0.0
 11
537.3540378165496
 21
127.9306602643007
 31
0.0
  0
LINE
  5
230
330
1B
100
AcDbEntity
  8
L-CENTER
 48
2.0
100
AcDbLine
 10
529.8540378165496
 20
94.58613226430077
 30
0.0
 11
529.8540378165496
 21
61.53951626430069
 31
0.0
  0
LINE
  5
231
330
1B
100
AcDbEntity
  8
4
100
AcDbLine
 10
584.8540378165496
 20
87.93062826430071
 30
0.0
 11
511.8540378165496
 21
87.93062826430071
 31
0.0
  0
CIRCLE
  5
232
330
1B
100
AcDbEntity
  8
4
100
AcDbCircle
 10
584.8540378165496
 20
142.9306282643007
 30
0.0
 40
26.0
  0
CIRCLE
  5
234
330
1B
100
AcDbEntity
  8
4
100
AcDbCircle
 10
584.8540378165496
 20
142.9306282643007
 30
0.0
 40
37.0
  0
LINE
  5
235
330
1B
100
AcDbEntity
  8
4
100
AcDbLine
 10
530.5464218165496
 20
89.96328226430069
 30
0.0
 11
547.9079938165496
 21
140.9304922643006
 31
0.0
  0
LINE
  5
236
330
1B
100
AcDbEntity
  8
4
100
AcDbLine
 10
537.3540378165496
 20
141.0644642643007
 30
0.0
 11
537.3540378165496
 21
127.9306602643007
 31
0.0
  0
LINE
  5
237
330
1B
100
AcDbEntity
  8
4
100
AcDbLine
 10
542.3540378165496
 20
140.9304922643006
 30
0.0
 11
542.3540378165496
 21
127.9306602643007
 31
0.0
  0
LINE
  5
238
330
1B
100
AcDbEntity
  8
4
100
AcDbLine
 10
544.3540378165496
 20
130.4973862643006
 30
0.0
 11
544.3540378165496
 21
140.9304922643006
 31
0.0
  0
LINE
  5
244
330
1B
100
AcDbEntity
  8
4
100
AcDbLine
 10
509.8540378165496
 20
67.93062826430071
 30
0.0
 11
509.8540378165496
 21
85.93062826430071
 31
0.0
  0
LINE
  5
24F
330
1B
100
AcDbEntity
  8
4
100
AcDbLine
 10
509.8540378165496
 20
67.93062826430071
 30
0.0
 11
584.8540378165496
 21
67.93062826430071
 31
0.0
  0
ARC
  5
253
330
1B
100
AcDbEntity
  8
4
100
AcDbCircle
 10
511.8540378165496
 20
85.93062826430071
 30
0.0
 40
2.0
100
AcDbArc
 50
90.0
 51
180.0004299985856
  0
LINE
  5
257
330
1B
100
AcDbEntity
  8
4
100
AcDbLine
 10
659.8540378165496
 20
67.93062826430071
 30
0.0
 11
584.8540378165496
 21
67.93062826430071
 31
0.0
  0
LINE
  5
259
330
1B
100
AcDbEntity
  8
L-CENTER
 48
2.0
100
AcDbLine
 10
541.4068792367968
 20
142.9306282643007
 30
0.0
 11
628.3011963963024
 21
142.9306282643007
 31
0.0
  0
LINE
  5
25A
330
1B
100
AcDbEntity
  8
4
100
AcDbLine
 10
584.8540378165496
 20
87.93062826430071
 30
0.0
 11
657.8540378165496
 21
87.93062826430071
 31
0.0
  0
LINE
  5
25B
330
1B
100
AcDbEntity
  8
4
 48
2.0
100
AcDbLine
 10
622.4813678028615
 20
138.9304922643006
 30
0.0
 11
622.8540378165496
 21
138.9304922643006
 31
0.0
  0
LINE
  5
25C
330
1B
100
AcDbEntity
  8
4
 48
2.0
100
AcDbLine
 10
546.8540378165496
 20
138.9304922643006
 30
0.0
 11
547.2267098302375
 21
138.9304922643006
 31
0.0
  0
LINE
  5
25D
330
1B
100
AcDbEntity
  8
L-CENTER
 48
2.0
100
AcDbLine
 10
513.8679538165495
 20
228.9304922643006
 30
0.0
 11
718.8302419770255
 21
228.9304922643006
 31
0.0
  0
LINE
  5
25E
330
1B
100
AcDbEntity
  8
4
100
AcDbLine
 10
639.7539398165497
 20
140.9304922643006
 30
0.0
 11
628.8540378165496
 21
140.9304922643006
 31
0.0
  0
LINE
  5
25F
330
1B
100
AcDbEntity
  8
4
100
AcDbLine
 10
639.1616558165497
 20
89.96328226430069
 30
0.0
 11
621.8000838165497
 21
140.9304922643006
 31
0.0
  0
LINE
  5
260
330
1B
100
AcDbEntity
  8
L-CENTER
 48
2.0
100
AcDbLine
 10
650.9614598165497
 20
158.3494362643006
 30
0.0
 11
619.1670403781957
 21
158.3494362643006
 31
0.0
  0
LINE
  5
262
330
1B
100
AcDbEntity
  8
L-CENTER
 48
2.0
100
AcDbLine
 10
584.8540378165496
 20
330.2731616293528
 30
0.0
 11
584.8540378165496
 21
61.07055992536334
 31
0.0
  0
LINE
  5
263
330
1B
100
AcDbEntity
  8
4
100
AcDbLine
 10
527.8540378165496
 20
272.6705194627588
 30
0.0
 11
527.8540378165492
 21
265.9304922643005
 31
0.0
  0
LINE
  5
266
330
1B
100
AcDbEntity
  8
4
100
AcDbLine
 10
536.8540378165496
 20
299.3589602643007
 30
0.0
 11
527.8540378165496
 21
265.9304922643006
 31
0.0
  0
LINE
  5
267
330
1B
100
AcDbEntity
  8
4
100
AcDbLine
 10
546.8540378165496
 20
318.4304922643006
 30
0.0
 11
546.8540378165496
 21
138.9304922643006
 31
0.0
  0
LINE
  5
268
330
1B
100
AcDbEntity
  8
4
100
AcDbLine
 10
547.8540378165496
 20
204.0056882643008
 30
0.0
 11
547.8540378165496
 21
142.9306282643007
 31
0.0
  0
LINE
  5
269
330
1B
100
AcDbEntity
  8
4
100
AcDbLine
 10
536.8540378165496
 20
141.9304922643006
 30
0.0
 11
536.8540378165496
 21
315.9304922643006
 31
0.0
  0
LINE
  5
26C
330
1B
100
AcDbEntity
  8
4
100
AcDbLine
 10
640.7539398165497
 20
286.4302482643008
 30
0.0
 11
644.8537938165498
 21
265.9304922643006
 31
0.0
  0
LINE
  5
26D
330
1B
100
AcDbEntity
  8
4
100
AcDbLine
 10
622.8540378165496
 20
204.0056882643008
 30
0.0
 11
622.8540378165496
 21
138.9304922643006
 31
0.0
  0
LINE
  5
26E
330
1B
100
AcDbEntity
  8
4
100
AcDbLine
 10
623.8540378165496
 20
318.4304922643006
 30
0.0
 11
623.8540378165496
 21
140.9304922643006
 31
0.0
  0
LINE
  5
26F
330
1B
100
AcDbEntity
  8
4
100
AcDbLine
 10
629.1540378165496
 20
316.9304922643006
 30
0.0
 11
629.1540378165496
 21
140.9304922643006
 31
0.0
  0
LINE
  5
270
330
1B
100
AcDbEntity
  8
4
100
AcDbLine
 10
628.8540378165496
 20
316.9304922643006
 30
0.0
 11
628.8540378165496
 21
140.9304922643006
 31
0.0
  0
LINE
  5
271
330
1B
100
AcDbEntity
  8
4
100
AcDbLine
 10
640.7539398165497
 20
315.9304922643006
 30
0.0
 11
640.7539398165497
 21
141.9304922643006
 31
0.0
  0
ARC
  5
277
330
1B
100
AcDbEntity
  8
4
100
AcDbCircle
 10
404.696007526524
 20
531.4773448991328
 30
0.0
 40
1.0
100
AcDbArc
 50
0.0
 51
90.0
  0
LINE
  5
278
330
1B
100
AcDbEntity
  8
4
100
AcDbLine
 10
405.696007526524
 20
531.4773448991327
 30
0.0
 11
405.696007526524
 21
520.9773448991327
 31
0.0
  0
LINE
  5
279
330
1B
100
AcDbEntity
  8
4
100
AcDbLine
 10
404.946007526524
 20
533.9773448991328
 30
0.0
 11
404.946007526524
 21
532.4773448991328
 31
0.0
  0
LINE
  5
27A
330
1B
100
AcDbEntity
  8
4
100
AcDbLine
 10
404.6960075265245
 20
546.6773448991329
 30
0.0
 11
404.6960075265245
 21
533.977344899133
 31
0.0
  0
LINE
  5
27B
330
1B
100
AcDbEntity
  8
4
100
AcDbLine
 10
404.196007526524
 20
539.9773448991328
 30
0.0
 11
404.196007526524
 21
533.9773448991328
 31
0.0
  0
LINE
  5
27C
330
1B
100
AcDbEntity
  8
4
100
AcDbLine
 10
393.446007526524
 20
533.9773448991328
 30
0.0
 11
393.446007526524
 21
532.4773448991328
 31
0.0
  0
LINE
  5
27D
330
1B
100
AcDbEntity
  8
4
100
AcDbLine
 10
394.196007526524
 20
539.9773448991328
 30
0.0
 11
394.196007526524
 21
533.9773448991328
 31
0.0
  0
LINE
  5
27E
330
1B
100
AcDbEntity
  8
4
100
AcDbLine
 10
404.946007526524
 20
533.9773448991328
 30
0.0
 11
393.446007526524
 21
533.9773448991328
 31
0.0
  0
LINE
  5
27F
330
1B
100
AcDbEntity
  8
4
100
AcDbLine
 10
404.196007526524
 20
539.9773448991328
 30
0.0
 11
394.196007526524
 21
539.9773448991328
 31
0.0
  0
ARC
  5
280
330
1B
100
AcDbEntity
  8
4
100
AcDbCircle
 10
399.6960075265245
 20
546.6773448991329
 30
0.0
 40
5.0
100
AcDbArc
 50
0.0
 51
90.0
  0
LINE
  5
285
330
1B
100
AcDbEntity
  8
4
100
AcDbLine
 10
407.6960075265242
 20
502.6773448991329
 30
0.0
 11
408.6960075265242
 21
502.6773448991328
 31
0.0
  0
LINE
  5
286
330
1B
100
AcDbEntity
  8
4
100
AcDbLine
 10
407.696007526524
 20
450.6773448991328
 30
0.0
 11
408.6960075265242
 21
450.6773448991329
 31
0.0
  0
LINE
  5
287
330
1B
100
AcDbEntity
  8
4
100
AcDbLine
 10
408.6960075265242
 20
502.6773448991329
 30
0.0
 11
408.696007526524
 21
450.6773448991329
 31
0.0
  0
LINE
  5
28A
330
1B
100
AcDbEntity
  8
4
100
AcDbLine
 10
405.6960075265242
 20
513.6773448991329
 30
0.0
 11
405.6960075265242
 21
520.6773448991329
 31
0.0
  0
LINE
  5
28B
330
1B
100
AcDbEntity
  8
L-CENTER
 48
2.0
100
AcDbLine
 10
399.196007526524
 20
542.1896551651088
 30
0.0
 11
399.196007526524
 21
509.9916583068974
 31
0.0
  0
LINE
  5
290
330
1B
100
AcDbEntity
  8
4
100
AcDbLine
 10
331.6960075265242
 20
605.6773448991329
 30
0.0
 11
330.6960075265242
 21
606.6773448991329
 31
0.0
  0
LINE
  5
291
330
1B
100
AcDbEntity
  8
4
100
AcDbLine
 10
321.1960075265242
 20
605.6773448991329
 30
0.0
 11
331.6960075265242
 21
605.6773448991329
 31
0.0
  0
LINE
  5
292
330
1B
100
AcDbEntity
  8
4
100
AcDbLine
 10
304.6960075265242
 20
606.6773448991329
 30
0.0
 11
303.6960075265242
 21
605.6773448991329
 31
0.0
  0
LINE
  5
293
330
1B
100
AcDbEntity
  8
4
100
AcDbLine
 10
303.6960075265242
 20
605.6773448991329
 30
0.0
 11
314.1960075265242
 21
605.6773448991329
 31
0.0
  0
LINE
  5
294
330
1B
100
AcDbEntity
  8
4
100
AcDbLine
 10
304.6960075265242
 20
606.6773448991329
 30
0.0
 11
330.6960075265242
 21
606.6773448991329
 31
0.0
  0
LINE
  5
295
330
1B
100
AcDbEntity
  8
L-CENTER
 48
2.0
100
AcDbLine
 10
377.6960075265245
 20
544.849172876969
 30
0.0
 11
377.6960075265245
 21
518.5055169212968
 31
0.0
  0
LINE
  5
296
330
1B
100
AcDbEntity
  8
4
100
AcDbLine
 10
352.8567842994964
 20
545.7734610342707
 30
0.0
 11
354.0160075265242
 21
539.977344899133
 31
0.0
  0
ARC
  5
297
330
1B
100
AcDbEntity
  8
4
100
AcDbCircle
 10
351.8762036238056
 20
545.5773448991328
 30
0.0
 40
1.0
100
AcDbArc
 50
11.30993247401763
 51
90.0
  0
LINE
  5
298
330
1B
100
AcDbEntity
  8
4
100
AcDbLine
 10
363.446007526524
 20
539.9773448991328
 30
0.0
 11
353.446007526524
 21
539.9773448991328
 31
0.0
  0
LINE
  5
299
330
1B
100
AcDbEntity
  8
4
100
AcDbLine
 10
364.196007526524
 20
533.9773448991328
 30
0.0
 11
364.196007526524
 21
532.4773448991328
 31
0.0
  0
LINE
  5
29A
330
1B
100
AcDbEntity
  8
4
100
AcDbLine
 10
352.696007526524
 20
533.9773448991328
 30
0.0
 11
352.696007526524
 21
532.4773448991328
 31
0.0
  0
LINE
  5
29B
330
1B
100
AcDbEntity
  8
4
100
AcDbLine
 10
364.196007526524
 20
533.9773448991328
 30
0.0
 11
352.696007526524
 21
533.9773448991328
 31
0.0
  0
LINE
  5
29C
330
1B
100
AcDbEntity
  8
4
100
AcDbLine
 10
353.446007526524
 20
539.9773448991328
 30
0.0
 11
353.446007526524
 21
533.9773448991328
 31
0.0
  0
LINE
  5
29D
330
1B
100
AcDbEntity
  8
4
100
AcDbLine
 10
363.446007526524
 20
539.9773448991328
 30
0.0
 11
363.446007526524
 21
533.9773448991328
 31
0.0
  0
LINE
  5
29E
330
1B
100
AcDbEntity
  8
4
100
AcDbLine
 10
382.8445367969109
 20
532.477344899133
 30
0.0
 11
363.446007526524
 21
536.3570507532103
 31
0.0
  0
ARC
  5
29F
330
1B
100
AcDbEntity
  8
4
100
AcDbCircle
 10
332.6960075265242
 20
557.6773448991329
 30
0.0
 40
1.0
100
AcDbArc
 50
180.0
 51
270.0
  0
LINE
  5
2A0
330
1B
100
AcDbEntity
  8
4
100
AcDbLine
 10
345.6960075265245
 20
546.6773448991329
 30
0.0
 11
345.6960075265245
 21
546.5773448991326
 31
0.0
  0
LINE
  5
2A1
330
1B
100
AcDbEntity
  8
4
100
AcDbLine
 10
342.6960075265242
 20
547.5773448991326
 30
0.0
 11
342.6960075265242
 21
546.5773448991326
 31
0.0
  0
LINE
  5
2A2
330
1B
100
AcDbEntity
  8
4
100
AcDbLine
 10
338.1960075265242
 20
538.1707884971303
 30
0.0
 11
336.3381258076749
 21
532.477344899133
 31
0.0
  0
ARC
  5
2A3
330
1B
100
AcDbEntity
  8
4
100
AcDbCircle
 10
350.6960075265245
 20
546.6773448991329
 30
0.0
 40
5.0
100
AcDbArc
 50
90.0
 51
180.0
  0
LINE
  5
2A4
330
1B
100
AcDbEntity
  8
4
  6
Continuous
100
AcDbLine
 10
332.6960075265242
 20
547.5773448991328
 30
0.0
 11
332.6960075265242
 21
556.6773448991329
 31
0.0
  0
LINE
  5
2A5
330
1B
100
AcDbEntity
  8
L-CENTER
 48
2.0
100
AcDbLine
 10
358.446007526524
 20
542.1896551651088
 30
0.0
 11
358.446007526524
 21
509.9916583068974
 31
0.0
  0
ARC
  5
2A6
330
1B
100
AcDbEntity
  8
4
100
AcDbCircle
 10
317.6960075265242
 20
565.1773448991329
 30
0.0
 40
3.5
100
AcDbArc
 50
180.0
 51
270.0
  0
LINE
  5
2A7
330
1B
100
AcDbEntity
  8
4
100
AcDbLine
 10
317.6960075265242
 20
561.6773448991329
 30
0.0
 11
317.6960075265242
 21
561.6773448991329
 31
0.0
  0
ARC
  5
2A8
330
1B
100
AcDbEntity
  8
4
100
AcDbCircle
 10
302.6960075265242
 20
557.6773448991329
 30
0.0
 40
1.0
100
AcDbArc
 50
270.0
 51
0.0
  0
LINE
  5
2A9
330
1B
100
AcDbEntity
  8
4
100
AcDbLine
 10
289.6960075265242
 20
546.6773448991329
 30
0.0
 11
289.6960075265242
 21
546.5773448991329
 31
0.0
  0
LINE
  5
2AA
330
1B
100
AcDbEntity
  8
4
100
AcDbLine
 10
292.6960075265242
 20
547.5773448991326
 30
0.0
 11
292.6960075265242
 21
546.5773448991328
 31
0.0
  0
LINE
  5
2AB
330
1B
100
AcDbEntity
  8
4
100
AcDbLine
 10
297.1960075265242
 20
538.1707884971303
 30
0.0
 11
299.0538892453735
 21
532.477344899133
 31
0.0
  0
LINE
  5
2AC
330
1B
100
AcDbEntity
  8
4
  6
Continuous
100
AcDbLine
 10
302.6960075265242
 20
547.5773448991328
 30
0.0
 11
302.6960075265242
 21
556.6773448991329
 31
0.0
  0
LINE
  5
2AD
330
1B
100
AcDbEntity
  8
4
100
AcDbLine
 10
282.535230753552
 20
545.773461034271
 30
0.0
 11
281.3760075265243
 21
539.9773448991328
 31
0.0
  0
ARC
  5
2AE
330
1B
100
AcDbEntity
  8
4
100
AcDbCircle
 10
283.5158114292428
 20
545.5773448991328
 30
0.0
 40
1.0
100
AcDbArc
 50
90.0
 51
168.6900675259824
  0
LINE
  5
2AF
330
1B
100
AcDbEntity
  8
4
100
AcDbLine
 10
271.9460075265245
 20
539.9773448991328
 30
0.0
 11
281.9460075265245
 21
539.9773448991328
 31
0.0
  0
LINE
  5
2B0
330
1B
100
AcDbEntity
  8
4
100
AcDbLine
 10
282.6960075265245
 20
533.9773448991328
 30
0.0
 11
282.6960075265245
 21
532.4773448991328
 31
0.0
  0
LINE
  5
2B1
330
1B
100
AcDbEntity
  8
4
100
AcDbLine
 10
271.9460075265245
 20
539.9773448991328
 30
0.0
 11
271.9460075265245
 21
533.9773448991328
 31
0.0
  0
LINE
  5
2B2
330
1B
100
AcDbEntity
  8
4
100
AcDbLine
 10
281.9460075265245
 20
539.9773448991328
 30
0.0
 11
281.9460075265245
 21
533.9773448991328
 31
0.0
  0
LINE
  5
2B3
330
1B
100
AcDbEntity
  8
4
100
AcDbLine
 10
271.1960075265245
 20
533.9773448991328
 30
0.0
 11
271.1960075265245
 21
532.4773448991328
 31
0.0
  0
LINE
  5
2B4
330
1B
100
AcDbEntity
  8
L-CENTER
 48
2.0
100
AcDbLine
 10
257.6960075265242
 20
544.849172876969
 30
0.0
 11
257.6960075265242
 21
518.5055169212968
 31
0.0
  0
LINE
  5
2B5
330
1B
100
AcDbEntity
  8
4
100
AcDbLine
 10
271.1960075265245
 20
533.9773448991328
 30
0.0
 11
282.6960075265245
 21
533.9773448991328
 31
0.0
  0
ARC
  5
2B6
330
1B
100
AcDbEntity
  8
4
100
AcDbCircle
 10
284.6960075265242
 20
546.6773448991329
 30
0.0
 40
5.0
100
AcDbArc
 50
0.0
 51
90.0
  0
LINE
  5
2B7
330
1B
100
AcDbEntity
  8
L-CENTER
 48
2.0
100
AcDbLine
 10
276.9460075265245
 20
542.1896551651088
 30
0.0
 11
276.9460075265245
 21
509.9916583068974
 31
0.0
  0
LINE
  5
2B8
330
1B
100
AcDbEntity
  8
4
100
AcDbLine
 10
292.6960075265242
 20
547.5773448991328
 30
0.0
 11
342.696007526524
 21
547.5773448991326
 31
0.0
  0
LINE
  5
2B9
330
1B
100
AcDbEntity
  8
4
100
AcDbLine
 10
281.9460075265242
 20
538.1707884971303
 30
0.0
 11
353.446007526524
 21
538.1707884971303
 31
0.0
  0
LINE
  5
2BA
330
1B
100
AcDbEntity
  8
4
100
AcDbLine
 10
283.5158114292428
 20
546.5773448991328
 30
0.0
 11
351.8762036238056
 21
546.5773448991326
 31
0.0
  0
CIRCLE
  5
2BB
330
1B
100
AcDbEntity
  8
4
100
AcDbCircle
 10
317.6960075265242
 20
476.6773448991329
 30
0.0
 40
19.0
  0
CIRCLE
  5
2BC
330
1B
100
AcDbEntity
  8
4
100
AcDbCircle
 10
317.6960075265242
 20
476.6773448991329
 30
0.0
 40
12.5
  0
LWPOLYLINE
  5
2BD
330
1B
100
AcDbEntity
  8
4
100
AcDbPolyline
 90
        6
 70
     1
 43
0.0
 10
330.1960075265242
 20
476.6773448991329
 10
323.9460075265242
 20
487.5026624464384
 10
311.4460075265242
 20
487.5026624464384
 10
305.1960075265242
 20
476.6773448991329
 10
311.4460075265242
 20
465.8520273518274
 10
323.9460075265242
 20
465.8520273518274
  0
ARC
  5
2BE
330
1B
100
AcDbEntity
  8
4
100
AcDbCircle
 10
317.6960075265242
 20
565.1773448991329
 30
0.0
 40
3.5
100
AcDbArc
 50
270.0
 51
0.0
  0
LINE
  5
2BF
330
1B
100
AcDbEntity
  8
4
100
AcDbLine
 10
302.6960075265242
 20
556.6773448991329
 30
0.0
 11
332.6960075265242
 21
556.6773448991329
 31
0.0
  0
LINE
  5
2C0
330
1B
100
AcDbEntity
  8
4
  6
Continuous
100
AcDbLine
 10
303.6960075265242
 20
557.6773448991329
 30
0.0
 11
303.6960075265242
 21
605.6773448991329
 31
0.0
  0
LINE
  5
2C1
330
1B
100
AcDbEntity
  8
4
  6
Continuous
100
AcDbLine
 10
331.6960075265242
 20
557.6773448991329
 30
0.0
 11
331.6960075265242
 21
605.6773448991329
 31
0.0
  0
LINE
  5
2C2
330
1B
100
AcDbEntity
  8
4
  6
Continuous
100
AcDbLine
 10
314.1960075265242
 20
565.1773448991329
 30
0.0
 11
314.1960075265242
 21
606.6773448991329
 31
0.0
  0
LINE
  5
2C3
330
1B
100
AcDbEntity
  8
4
  6
Continuous
100
AcDbLine
 10
321.1960075265242
 20
565.1773448991329
 30
0.0
 11
321.1960075265242
 21
606.6773448991329
 31
0.0
  0
LINE
  5
2C4
330
1B
100
AcDbEntity
  8
4
100
AcDbLine
 10
399.6960075265245
 20
551.6773448991329
 30
0.0
 11
350.6960075265245
 21
551.6773448991329
 31
0.0
  0
LINE
  5
2C5
330
1B
100
AcDbEntity
  8
L-CENTER
 48
2.0
100
AcDbLine
 10
390.8678355043605
 20
531.6773448991329
 30
0.0
 11
364.5241795486884
 21
531.6773448991329
 31
0.0
  0
ARC
  5
2C6
330
1B
100
AcDbEntity
  8
4
100
AcDbCircle
 10
377.6960075265245
 20
531.6773448991329
 30
0.0
 40
6.5
100
AcDbArc
 50
7.069714042303024
 51
152.666853422205
  0
LINE
  5
2C7
330
1B
100
AcDbEntity
  8
4
100
AcDbLine
 10
405.6960075265242
 20
429.6773448991329
 30
0.0
 11
405.6960075265242
 21
439.6773448991328
 31
0.0
  0
ARC
  5
2C8
330
1B
100
AcDbEntity
  8
4
100
AcDbCircle
 10
399.6960075265245
 20
406.6773448991329
 30
0.0
 40
5.0
100
AcDbArc
 50
270.0
 51
0.0
  0
LINE
  5
2C9
330
1B
100
AcDbEntity
  8
4
100
AcDbLine
 10
404.6960075265245
 20
406.6773448991329
 30
0.0
 11
404.6960075265245
 21
428.6773448991329
 31
0.0
  0
ARC
  5
2CE
330
1B
100
AcDbEntity
  8
4
100
AcDbCircle
 10
393.4509655265242
 20
304.6853762643008
 30
0.0
 40
4.999996
100
AcDbArc
 50
13.91478199999981
 51
76.0853850000016
  0
LINE
  5
2CF
330
1B
100
AcDbEntity
  8
L-CENTER
 48
2.0
100
AcDbLine
 10
377.6960075265245
 20
408.5055169212968
 30
0.0
 11
377.6960075265245
 21
434.849172876969
 31
0.0
  0
LINE
  5
2D0
330
1B
100
AcDbEntity
  8
4
100
AcDbLine
 10
354.6960075265242
 20
419.6773448991329
 30
0.0
 11
353.7948484680715
 21
411.5669133730579
 31
0.0
  0
LINE
  5
2D1
330
1B
100
AcDbEntity
  8
4
100
AcDbLine
 10
349.1960075265238
 20
419.6773448991329
 30
0.0
 11
349.1960075265238
 21
427.1793448991328
 31
0.0
  0
LINE
  5
2D2
330
1B
100
AcDbEntity
  8
4
100
AcDbLine
 10
345.6960075265245
 20
406.6773448991329
 30
0.0
 11
345.6960075265245
 21
410.6773448991328
 31
0.0
  0
ARC
  5
2D3
330
1B
100
AcDbEntity
  8
4
100
AcDbCircle
 10
350.6960075265245
 20
406.6773448991329
 30
0.0
 40
5.0
100
AcDbArc
 50
180.0
 51
270.0
  0
LINE
  5
2D4
330
1B
100
AcDbEntity
  8
4
100
AcDbLine
 10
289.6960075265242
 20
406.6773448991329
 30
0.0
 11
289.6960075265242
 21
410.6773448991328
 31
0.0
  0
LINE
  5
2D5
330
1B
100
AcDbEntity
  8
4
100
AcDbLine
 10
286.1960075265247
 20
419.6773448991329
 30
0.0
 11
286.1960075265247
 21
427.1793448991328
 31
0.0
  0
LINE
  5
2D6
330
1B
100
AcDbEntity
  8
L-CENTER
 48
2.0
100
AcDbLine
 10
257.6960075265242
 20
408.5055169212968
 30
0.0
 11
257.6960075265242
 21
434.849172876969
 31
0.0
  0
LINE
  5
2D7
330
1B
100
AcDbEntity
  8
4
100
AcDbLine
 10
280.6960075265242
 20
419.6773448991329
 30
0.0
 11
281.597166584977
 21
411.566913373058
 31
0.0
  0
ARC
  5
2D8
330
1B
100
AcDbEntity
  8
4
100
AcDbCircle
 10
284.6960075265242
 20
406.6773448991329
 30
0.0
 40
5.0
100
AcDbArc
 50
270.0
 51
0.0
  0
LINE
  5
2D9
330
1B
100
AcDbEntity
  8
4
100
AcDbLine
 10
282.5910503196505
 20
410.6773448991329
 30
0.0
 11
352.8009647333979
 21
410.6773448991328
 31
0.0
  0
LINE
  5
2DA
330
1B
100
AcDbEntity
  8
4
100
AcDbLine
 10
280.6960075265242
 20
419.6773448991329
 30
0.0
 11
354.6960075265242
 21
419.6773448991329
 31
0.0
  0
LINE
  5
2DC
330
1B
100
AcDbEntity
  8
4
100
AcDbLine
 10
336.6960075265242
 20
318.3657962643007
 30
0.0
 11
336.6960075265242
 21
319.9304922643006
 31
0.0
  0
LINE
  5
2DD
330
1B
100
AcDbEntity
  8
4
100
AcDbLine
 10
323.9460075265242
 20
323.4304922643006
 30
0.0
 11
323.9460075265242
 21
327.4304922643006
 31
0.0
  0
LINE
  5
2DE
330
1B
100
AcDbEntity
  8
4
100
AcDbLine
 10
329.1960075265242
 20
319.9304922643006
 30
0.0
 11
329.1960075265242
 21
321.4304922643006
 31
0.0
  0
LINE
  5
2DF
330
1B
100
AcDbEntity
  8
4
100
AcDbLine
 10
330.1960075265242
 20
321.4304922643006
 30
0.0
 11
330.1960075265242
 21
327.4304922643006
 31
0.0
  0
ARC
  5
2E0
330
1B
100
AcDbEntity
  8
4
100
AcDbCircle
 10
346.1960075265238
 20
290.9304922643003
 30
0.0
 40
3.0
100
AcDbArc
 50
0.0
 51
90.0
  0
LINE
  5
2E1
330
1B
100
AcDbEntity
  8
4
100
AcDbLine
 10
335.5296227811614
 20
298.6612164998952
 30
0.0
 11
335.6848479535477
 21
296.694453683096
 31
0.0
  0
LINE
  5
2E2
330
1B
100
AcDbEntity
  8
4
100
AcDbLine
 10
344.6960075265249
 20
274.4304922643005
 30
0.0
 11
344.6960075265249
 21
276.877927503539
 31
0.0
  0
ARC
  5
2E3
330
1B
100
AcDbEntity
  8
4
100
AcDbCircle
 10
342.6960075265249
 20
276.877927503539
 30
0.0
 40
2.0
100
AcDbArc
 50
0.0
 51
45.57388219765443
  0
ARC
  5
2E4
330
1B
100
AcDbEntity
  8
4
100
AcDbCircle
 10
342.6960075265247
 20
284.0194642007959
 30
0.0
 40
2.0
100
AcDbArc
 50
314.4261178023456
 51
0.0
  0
LINE
  5
2E5
330
1B
100
AcDbEntity
  8
4
100
AcDbLine
 10
344.6960075265249
 20
286.4304922643005
 30
0.0
 11
344.6960075265249
 21
284.0194642007959
 31
0.0
  0
ARC
  5
2E6
330
1B
100
AcDbEntity
  8
4
100
AcDbCircle
 10
341.6960075265249
 20
274.4304922643005
 30
0.0
 40
3.0
100
AcDbArc
 50
270.0
 51
0.0
  0
ARC
  5
2E7
330
1B
100
AcDbEntity
  8
4
100
AcDbCircle
 10
346.1959522975812
 20
280.4486958521675
 30
0.0
 40
3.0
100
AcDbArc
 50
134.4261178023486
 51
225.5738821976514
  0
ARC
  5
2E8
330
1B
100
AcDbEntity
  8
4
100
AcDbCircle
 10
341.6960075265249
 20
286.4304922643005
 30
0.0
 40
3.0
100
AcDbArc
 50
0.0
 51
90.0
  0
LINE
  5
2E9
330
1B
100
AcDbEntity
  8
4
100
AcDbLine
 10
328.1960075265249
 20
281.6804922643005
 30
0.0
 11
328.1960075265249
 21
279.1804922643005
 31
0.0
  0
ARC
  5
2EA
330
1B
100
AcDbEntity
  8
4
100
AcDbCircle
 10
330.4460075265247
 20
277.6804922643005
 30
0.0
 40
2.749999999999996
100
AcDbArc
 50
306.8698976458464
 51
35.37654015193888
  0
ARC
  5
2EB
330
1B
100
AcDbEntity
  8
4
100
AcDbCircle
 10
334.3189908727322
 20
280.4304922643005
 30
0.0
 40
2.0
100
AcDbArc
 50
144.6234598480595
 51
215.3765401519406
  0
ARC
  5
2EC
330
1B
100
AcDbEntity
  8
4
100
AcDbCircle
 10
333.4460075265249
 20
273.6804922643005
 30
0.0
 40
2.250000000000005
100
AcDbArc
 50
126.8698976458484
 51
270.0
  0
ARC
  5
2ED
330
1B
100
AcDbEntity
  8
4
100
AcDbCircle
 10
330.4460075265247
 20
283.1804922643005
 30
0.0
 40
2.749999999999996
100
AcDbArc
 50
324.6234598480611
 51
53.13010235415361
  0
ARC
  5
2EE
330
1B
100
AcDbEntity
  8
4
100
AcDbCircle
 10
319.4152311201203
 20
272.4304922643005
 30
0.0
 40
1.0
100
AcDbArc
 50
270.0
 51
14.03624346792646
  0
LINE
  5
2EF
330
1B
100
AcDbEntity
  8
4
100
AcDbLine
 10
323.6960075265249
 20
281.6804922643005
 30
0.0
 11
323.6960075265249
 21
279.1804922643005
 31
0.0
  0
ARC
  5
2F0
330
1B
100
AcDbEntity
  8
4
100
AcDbCircle
 10
324.6960075265249
 20
279.1804922643005
 30
0.0
 40
1.0
100
AcDbArc
 50
180.0
 51
270.0
  0
LINE
  5
2F1
330
1B
100
AcDbEntity
  8
4
100
AcDbLine
 10
324.6960075265249
 20
278.1804922643005
 30
0.0
 11
327.1960075265249
 21
278.1804922643005
 31
0.0
  0
ARC
  5
2F2
330
1B
100
AcDbEntity
  8
4
100
AcDbCircle
 10
324.6960075265249
 20
281.6804922643005
 30
0.0
 40
1.0
100
AcDbArc
 50
90.0
 51
180.0
  0
LINE
  5
2F3
330
1B
100
AcDbEntity
  8
4
100
AcDbLine
 10
324.6960075265249
 20
282.6804922643005
 30
0.0
 11
327.1960075265249
 21
282.6804922643005
 31
0.0
  0
ARC
  5
2F4
330
1B
100
AcDbEntity
  8
4
100
AcDbCircle
 10
327.1960075265249
 20
279.1804922643005
 30
0.0
 40
1.0
100
AcDbArc
 50
270.0
 51
0.0
  0
ARC
  5
2F5
330
1B
100
AcDbEntity
  8
4
100
AcDbCircle
 10
327.1960075265249
 20
281.6804922643005
 30
0.0
 40
1.0
100
AcDbArc
 50
0.0
 51
90.0
  0
ARC
  5
2F6
330
1B
100
AcDbEntity
  8
4
100
AcDbCircle
 10
333.4460075265249
 20
287.1804922643005
 30
0.0
 40
2.250000000000005
100
AcDbArc
 50
90.0
 51
233.1301023541516
  0
ARC
  5
2F7
330
1B
100
AcDbEntity
  8
4
100
AcDbCircle
 10
338.6755478362145
 20
296.9304922643003
 30
0.0
 40
3.0
100
AcDbArc
 50
184.5126689496101
 51
270.0
  0
LINE
  5
2F8
330
1B
100
AcDbEntity
  8
4
100
AcDbLine
 10
341.6960075265249
 20
289.4304922643005
 30
0.0
 11
333.4460075265249
 21
289.4304922643005
 31
0.0
  0
LINE
  5
2F9
330
1B
100
AcDbEntity
  8
4
100
AcDbLine
 10
341.6960075265249
 20
271.4304922643005
 30
0.0
 11
333.4460075265249
 21
271.4304922643005
 31
0.0
  0
ARC
  5
2FA
330
1B
100
AcDbEntity
  8
4
100
AcDbCircle
 10
338.5203226638282
 20
298.8972550810995
 30
0.0
 40
3.0
100
AcDbArc
 50
73.42533489782544
 51
184.5126689496111
  0
LINE
  5
2FF
330
1B
100
AcDbEntity
  8
4
100
AcDbLine
 10
311.4460075265242
 20
323.4304922643006
 30
0.0
 11
311.4460075265242
 21
327.4304922643006
 31
0.0
  0
LINE
  5
300
330
1B
100
AcDbEntity
  8
4
100
AcDbLine
 10
306.1960075265242
 20
319.9304922643006
 30
0.0
 11
306.1960075265242
 21
321.4304922643006
 31
0.0
  0
LINE
  5
301
330
1B
100
AcDbEntity
  8
4
100
AcDbLine
 10
305.1960075265242
 20
321.4304922643006
 30
0.0
 11
305.1960075265242
 21
327.4304922643006
 31
0.0
  0
LINE
  5
302
330
1B
100
AcDbEntity
  8
4
100
AcDbLine
 10
298.6960835265243
 20
318.3657962643007
 30
0.0
 11
298.6960835265243
 21
319.9304922643006
 31
0.0
  0
LINE
  5
303
330
1B
100
AcDbEntity
  8
4
100
AcDbLine
 10
312.4767839329293
 20
289.4304922643003
 30
0.0
 11
315.4152311201203
 21
289.4304922643003
 31
0.0
  0
ARC
  5
304
330
1B
100
AcDbEntity
  8
4
100
AcDbCircle
 10
315.4152311201203
 20
288.4304922643003
 30
0.0
 40
1.0
100
AcDbArc
 50
14.03624346792646
 51
90.0
  0
ARC
  5
305
330
1B
100
AcDbEntity
  8
4
100
AcDbCircle
 10
312.4767839329293
 20
288.4304922643003
 30
0.0
 40
1.0
100
AcDbArc
 50
90.0
 51
165.9637565320735
  0
ARC
  5
306
330
1B
100
AcDbEntity
  8
4
100
AcDbCircle
 10
313.9460075265249
 20
271.4304922643005
 30
0.0
 40
2.25
100
AcDbArc
 50
17.92021313940709
 51
162.0797868605989
  0
ARC
  5
307
330
1B
100
AcDbEntity
  8
4
100
AcDbCircle
 10
317.0383367457362
 20
272.4304922643007
 30
0.0
 40
1.0
100
AcDbArc
 50
197.9202131394064
 51
269.999999999987
  0
ARC
  5
308
330
1B
100
AcDbEntity
  8
4
100
AcDbCircle
 10
308.4767839329293
 20
272.4304922643005
 30
0.0
 40
1.0
100
AcDbArc
 50
165.9637565320735
 51
270.0
  0
LINE
  5
309
330
1B
100
AcDbEntity
  8
4
100
AcDbLine
 10
308.4767839329293
 20
271.4304922643005
 30
0.0
 11
310.8536783073134
 21
271.4304922643005
 31
0.0
  0
LINE
  5
30A
330
1B
100
AcDbEntity
  8
4
100
AcDbLine
 10
304.1960075265249
 20
274.9304922643005
 30
0.0
 11
304.1960075265249
 21
272.4304922643005
 31
0.0
  0
ARC
  5
30B
330
1B
100
AcDbEntity
  8
4
100
AcDbCircle
 10
310.8536783073134
 20
272.4304922643005
 30
0.0
 40
1.0
100
AcDbArc
 50
270.0
 51
342.0797868605966
  0
LINE
  5
30C
330
1B
100
AcDbEntity
  8
4
100
AcDbLine
 10
311.5066414327839
 20
288.6730278893367
 30
0.0
 11
307.5066414327839
 21
272.6730278893367
 31
0.0
  0
ARC
  5
30D
330
1B
100
AcDbEntity
  8
4
100
AcDbCircle
 10
296.716467216834
 20
296.9304922643003
 30
0.0
 40
3.0
100
AcDbArc
 50
270.0
 51
355.48733105039
  0
ARC
  5
30E
330
1B
100
AcDbEntity
  8
4
100
AcDbCircle
 10
296.8716923892202
 20
298.8972550810995
 30
0.0
 40
3.0
100
AcDbArc
 50
355.4873310503889
 51
106.5746651021746
  0
LINE
  5
30F
330
1B
100
AcDbEntity
  8
4
100
AcDbLine
 10
299.8623922718871
 20
298.6612164998952
 30
0.0
 11
299.7071670995008
 21
296.694453683096
 31
0.0
  0
LINE
  5
310
330
1B
100
AcDbEntity
  8
4
100
AcDbLine
 10
291.6960075265247
 20
289.4304922643005
 30
0.0
 11
294.1960075265249
 21
289.4304922643005
 31
0.0
  0
ARC
  5
311
330
1B
100
AcDbEntity
  8
4
100
AcDbCircle
 10
291.6960075265247
 20
288.4304922643005
 30
0.0
 40
1.0
100
AcDbArc
 50
90.0
 51
180.0
  0
ARC
  5
312
330
1B
100
AcDbEntity
  8
4
100
AcDbCircle
 10
294.1960075265249
 20
288.4304922643005
 30
0.0
 40
1.0
100
AcDbArc
 50
0.0
 51
90.0
  0
LINE
  5
313
330
1B
100
AcDbEntity
  8
4
100
AcDbLine
 10
296.1960075265249
 20
275.9304922643005
 30
0.0
 11
303.1960075265249
 21
275.9304922643005
 31
0.0
  0
ARC
  5
314
330
1B
100
AcDbEntity
  8
4
100
AcDbCircle
 10
291.6960075265249
 20
272.4304922643005
 30
0.0
 40
1.0
100
AcDbArc
 50
180.0
 51
270.0
  0
LINE
  5
315
330
1B
100
AcDbEntity
  8
4
100
AcDbLine
 10
291.6960075265249
 20
271.4304922643005
 30
0.0
 11
303.1960075265249
 21
271.4304922643005
 31
0.0
  0
ARC
  5
316
330
1B
100
AcDbEntity
  8
4
100
AcDbCircle
 10
296.1960075265249
 20
276.9304922643005
 30
0.0
 40
1.0
100
AcDbArc
 50
180.0
 51
270.0
  0
LINE
  5
317
330
1B
100
AcDbEntity
  8
4
100
AcDbLine
 10
290.6960075265247
 20
288.4304922643005
 30
0.0
 11
290.6960075265249
 21
272.4304922643005
 31
0.0
  0
LINE
  5
318
330
1B
100
AcDbEntity
  8
4
100
AcDbLine
 10
295.1960075265249
 20
288.4304922643005
 30
0.0
 11
295.1960075265249
 21
276.9304922643005
 31
0.0
  0
ARC
  5
319
330
1B
100
AcDbEntity
  8
4
100
AcDbCircle
 10
303.1960075265249
 20
274.9304922643005
 30
0.0
 40
1.0
100
AcDbArc
 50
0.0
 51
90.0
  0
ARC
  5
31A
330
1B
100
AcDbEntity
  8
4
100
AcDbCircle
 10
303.1960075265249
 20
272.4304922643005
 30
0.0
 40
1.0
100
AcDbArc
 50
270.0
 51
0.0
  0
ARC
  5
31B
330
1B
100
AcDbEntity
  8
4
100
AcDbCircle
 10
289.1960075265247
 20
290.9304922643003
 30
0.0
 40
3.0
100
AcDbArc
 50
90.0
 51
180.0
  0
LINE
  5
31C
330
1B
100
AcDbEntity
  8
4
100
AcDbLine
 10
346.1960075265238
 20
293.9304922643003
 30
0.0
 11
289.1960075265247
 21
293.9304922643007
 31
0.0
  0
LINE
  5
31D
330
1B
100
AcDbEntity
  8
4
100
AcDbLine
 10
305.1960075265242
 20
327.4304922643006
 30
0.0
 11
330.1960075265242
 21
327.4304922643006
 31
0.0
  0
LINE
  5
31E
330
1B
100
AcDbEntity
  8
4
100
AcDbLine
 10
336.6960075265242
 20
319.9304922643006
 30
0.0
 11
298.6960835265243
 21
319.9304922643006
 31
0.0
  0
LINE
  5
31F
330
1B
100
AcDbEntity
  8
4
100
AcDbLine
 10
305.1960075265242
 20
323.4304922643006
 30
0.0
 11
330.1960075265242
 21
323.4304922643006
 31
0.0
  0
LINE
  5
320
330
1B
100
AcDbEntity
  8
4
100
AcDbLine
 10
305.1960075265242
 20
321.4304922643006
 30
0.0
 11
330.1960075265242
 21
321.4304922643006
 31
0.0
  0
LINE
  5
321
330
1B
100
AcDbEntity
  8
4
100
AcDbLine
 10
317.0383367457359
 20
271.4304922643007
 30
0.0
 11
319.4152311201203
 21
271.4304922643005
 31
0.0
  0
LINE
  5
322
330
1B
100
AcDbEntity
  8
4
100
AcDbLine
 10
316.3853736202657
 20
288.6730278893367
 30
0.0
 11
320.3853736202657
 21
272.6730278893367
 31
0.0
  0
ARC
  5
325
330
1B
100
AcDbEntity
  8
4
100
AcDbCircle
 10
317.6958395265242
 20
-1.069737735699277
 30
0.0
 40
320.0
100
AcDbArc
 50
76.08442799999999
 51
89.99998099999999
  0
LINE
  5
326
330
1B
100
AcDbEntity
  8
4
100
AcDbLine
 10
399.6960075265245
 20
401.6773448991329
 30
0.0
 11
350.6960075265245
 21
401.6773448991329
 31
0.0
  0
ARC
  5
327
330
1B
100
AcDbEntity
  8
4
100
AcDbCircle
 10
377.6960075265245
 20
421.6773448991329
 30
0.0
 40
6.5
100
AcDbArc
 50
164.6818851209337
 51
40.37034491502085
  0
LINE
  5
328
330
1B
100
AcDbEntity
  8
L-CENTER
 48
2.0
100
AcDbLine
 10
390.8678355043605
 20
421.6773448991329
 30
0.0
 11
364.5241795486884
 21
421.6773448991329
 31
0.0
  0
LINE
  5
329
330
1B
100
AcDbEntity
  8
4
100
AcDbLine
 10
354.6960075265242
 20
419.6773448991329
 30
0.0
 11
395.2049974752465
 21
428.6773448991329
 31
0.0
  0
LINE
  5
32A
330
1B
100
AcDbEntity
  8
L-CENTER
 48
2.0
100
AcDbLine
 10
317.6960075265242
 20
404.6623138645679
 30
0.0
 11
317.6960075265242
 21
614.2049975549766
 31
0.0
  0
LINE
  5
32B
330
1B
100
AcDbEntity
  8
4
100
AcDbLine
 10
407.6960075265245
 20
513.6773448991328
 30
0.0
 11
407.696007526524
 21
439.6773448991329
 31
0.0
  0
ARC
  5
32C
330
1B
100
AcDbEntity
  8
4
100
AcDbCircle
 10
246.696007526524
 20
536.577344899133
 30
0.0
 40
1.0
100
AcDbArc
 50
90.0
 51
180.0
  0
ARC
  5
32D
330
1B
100
AcDbEntity
  8
4
100
AcDbCircle
 10
244.696007526524
 20
533.4773448991328
 30
0.0
 40
1.0
100
AcDbArc
 50
270.0
 51
0.0
  0
LINE
  5
32E
330
1B
100
AcDbEntity
  8
4
100
AcDbLine
 10
241.9460075265245
 20
533.9773448991328
 30
0.0
 11
241.9460075265245
 21
532.4773448991328
 31
0.0
  0
LINE
  5
32F
330
1B
100
AcDbEntity
  8
4
100
AcDbLine
 10
245.6960075265242
 20
536.577344899133
 30
0.0
 11
245.6960075265242
 21
533.4773448991328
 31
0.0
  0
LINE
  5
330
330
1B
100
AcDbEntity
  8
4
100
AcDbLine
 10
241.1960075265245
 20
539.9773448991328
 30
0.0
 11
241.1960075265245
 21
533.9773448991328
 31
0.0
  0
ARC
  5
331
330
1B
100
AcDbEntity
  8
4
100
AcDbCircle
 10
230.696007526524
 20
531.4773448991328
 30
0.0
 40
1.0
100
AcDbArc
 50
90.0
 51
180.0
  0
LINE
  5
332
330
1B
100
AcDbEntity
  8
4
100
AcDbLine
 10
229.6960075265242
 20
531.4773448991328
 30
0.0
 11
229.6960075265242
 21
520.9773448991328
 31
0.0
  0
LINE
  5
333
330
1B
100
AcDbEntity
  8
4
100
AcDbLine
 10
230.4460075265245
 20
533.9773448991328
 30
0.0
 11
230.4460075265245
 21
532.4773448991328
 31
0.0
  0
LINE
  5
334
330
1B
100
AcDbEntity
  8
4
100
AcDbLine
 10
230.6960075265242
 20
546.6773448991329
 30
0.0
 11
230.6960075265242
 21
533.9773448991328
 31
0.0
  0
LINE
  5
335
330
1B
100
AcDbEntity
  8
4
100
AcDbLine
 10
231.1960075265245
 20
539.9773448991328
 30
0.0
 11
231.1960075265245
 21
533.9773448991328
 31
0.0
  0
LINE
  5
336
330
1B
100
AcDbEntity
  8
4
100
AcDbLine
 10
231.1960075265245
 20
539.9773448991328
 30
0.0
 11
241.1960075265245
 21
539.9773448991328
 31
0.0
  0
LINE
  5
337
330
1B
100
AcDbEntity
  8
4
100
AcDbLine
 10
230.4460075265245
 20
533.9773448991328
 30
0.0
 11
241.9460075265245
 21
533.9773448991328
 31
0.0
  0
ARC
  5
338
330
1B
100
AcDbEntity
  8
4
100
AcDbCircle
 10
235.6960075265242
 20
546.6773448991329
 30
0.0
 40
5.0
100
AcDbArc
 50
90.0
 51
180.0
  0
LINE
  5
339
330
1B
100
AcDbEntity
  8
4
100
AcDbLine
 10
226.6960075265242
 20
502.6773448991329
 30
0.0
 11
227.6960075265242
 21
502.6773448991329
 31
0.0
  0
LINE
  5
33A
330
1B
100
AcDbEntity
  8
4
100
AcDbLine
 10
226.6960075265242
 20
450.6773448991329
 30
0.0
 11
227.6960075265242
 21
450.6773448991328
 31
0.0
  0
LINE
  5
33B
330
1B
100
AcDbEntity
  8
4
100
AcDbLine
 10
226.6960075265242
 20
502.6773448991329
 30
0.0
 11
226.6960075265242
 21
450.6773448991329
 31
0.0
  0
LINE
  5
33C
330
1B
100
AcDbEntity
  8
4
100
AcDbLine
 10
229.6960075265242
 20
513.6773448991329
 30
0.0
 11
229.6960075265242
 21
520.6773448991327
 31
0.0
  0
LINE
  5
33D
330
1B
100
AcDbEntity
  8
L-CENTER
 48
2.0
100
AcDbLine
 10
236.1960075265245
 20
542.1896551651088
 30
0.0
 11
236.1960075265245
 21
509.9916583068974
 31
0.0
  0
LINE
  5
33E
330
1B
100
AcDbEntity
  8
4
100
AcDbLine
 10
229.6960075265242
 20
429.677344899133
 30
0.0
 11
229.6960075265242
 21
439.6773448991329
 31
0.0
  0
ARC
  5
33F
330
1B
100
AcDbEntity
  8
4
100
AcDbCircle
 10
235.6960075265242
 20
406.6773448991329
 30
0.0
 40
5.0
100
AcDbArc
 50
180.0
 51
270.0
  0
LINE
  5
340
330
1B
100
AcDbEntity
  8
4
100
AcDbLine
 10
230.6960075265242
 20
406.6773448991329
 30
0.0
 11
230.6960075265242
 21
428.677344899133
 31
0.0
  0
ARC
  5
344
330
1B
100
AcDbEntity
  8
4
100
AcDbCircle
 10
241.9409555265242
 20
304.6853762643008
 30
0.0
 40
5.000006
100
AcDbArc
 50
103.9147930000019
 51
166.0852620000001
  0
LINE
  5
345
330
1B
100
AcDbEntity
  8
4
100
AcDbLine
 10
227.6960075265242
 20
513.6773448991328
 30
0.0
 11
227.6960075265242
 21
439.677344899133
 31
0.0
  0
ARC
  5
348
330
1B
100
AcDbEntity
  8
4
100
AcDbCircle
 10
317.6960835265243
 20
-1.069737735699277
 30
0.0
 40
320.000012
100
AcDbArc
 50
89.99998100000002
 51
103.91559
  0
LINE
  5
349
330
1B
100
AcDbEntity
  8
L-CENTER
 48
2.0
100
AcDbLine
 10
163.443450241713
 20
476.6773448991329
 30
0.0
 11
413.0515721550868
 21
476.6773448991329
 31
0.0
  0
LINE
  5
34A
330
1B
100
AcDbEntity
  8
4
100
AcDbLine
 10
235.6960075265242
 20
401.6773448991329
 30
0.0
 11
284.6960075265242
 21
401.6773448991329
 31
0.0
  0
LINE
  5
34B
330
1B
100
AcDbEntity
  8
L-CENTER
 48
2.0
100
AcDbLine
 10
244.5241795486882
 20
421.6773448991329
 30
0.0
 11
270.8678355043603
 21
421.6773448991329
 31
0.0
  0
ARC
  5
34C
330
1B
100
AcDbEntity
  8
4
100
AcDbCircle
 10
257.6960075265242
 20
421.6773448991329
 30
0.0
 40
6.5
100
AcDbArc
 50
137.2799604795303
 51
16.730805936637
  0
LINE
  5
34D
330
1B
100
AcDbEntity
  8
4
100
AcDbLine
 10
230.6960075265242
 20
428.677344899133
 30
0.0
 11
404.6960075265242
 21
428.6773448991329
 31
0.0
  0
LINE
  5
34E
330
1B
100
AcDbEntity
  8
4
100
AcDbLine
 10
235.6960075265242
 20
551.6773448991329
 30
0.0
 11
284.6960075265242
 21
551.6773448991327
 31
0.0
  0
LINE
  5
34F
330
1B
100
AcDbEntity
  8
L-CENTER
 48
2.0
100
AcDbLine
 10
244.5241795486882
 20
531.6773448991329
 30
0.0
 11
270.8678355043603
 21
531.6773448991329
 31
0.0
  0
ARC
  5
350
330
1B
100
AcDbEntity
  8
4
100
AcDbCircle
 10
257.6960075265242
 20
531.6773448991329
 30
0.0
 40
6.5
100
AcDbArc
 50
65.18836849743155
 51
114.8116315025687
  0
LINE
  5
351
330
1B
100
AcDbEntity
  8
4
100
AcDbLine
 10
227.6960075265242
 20
513.6773448991329
 30
0.0
 11
407.6960075265245
 21
513.6773448991329
 31
0.0
  0
LINE
  5
352
330
1B
100
AcDbEntity
  8
4
100
AcDbLine
 10
229.6960075265242
 20
520.6773448991327
 30
0.0
 11
405.6960075265242
 21
520.677344899133
 31
0.0
  0
LINE
  5
353
330
1B
100
AcDbEntity
  8
4
100
AcDbLine
 10
227.6960075265242
 20
439.677344899133
 30
0.0
 11
407.6960075265242
 21
439.6773448991329
 31
0.0
  0
LINE
  5
354
330
1B
100
AcDbEntity
  8
4
100
AcDbLine
 10
241.6960075265242
 20
428.677344899133
 30
0.0
 11
280.6960075265242
 21
419.6773448991329
 31
0.0
  0
LINE
  5
355
330
1B
100
AcDbEntity
  8
4
100
AcDbLine
 10
230.6960075265242
 20
532.4773448991328
 30
0.0
 11
404.696007526524
 21
532.4773448991328
 31
0.0
  0
LINE
  5
356
330
1B
100
AcDbEntity
  8
4
100
AcDbLine
 10
405.696007526524
 20
520.9773448991328
 30
0.0
 11
229.6960075265242
 21
520.9773448991328
 31
0.0
  0
LINE
  5
357
330
1B
100
AcDbEntity
  8
4
100
AcDbLine
 10
252.5474782561359
 20
532.477344899133
 30
0.0
 11
271.9460075265245
 21
536.3570507532103
 31
0.0
  0
LINE
  5
358
330
1B
100
AcDbEntity
  8
4
100
AcDbLine
 10
246.6960075265242
 20
537.577344899133
 30
0.0
 11
271.9460075265245
 21
537.5773448991326
 31
0.0
  0
ARC
  5
360
330
1B
100
AcDbEntity
  8
4
100
AcDbCircle
 10
387.6628795265242
 20
249.7547122643006
 30
0.0
 40
3.00001
100
AcDbArc
 50
265.4865009999995
 51
16.57795999999948
  0
ARC
  5
361
330
1B
100
AcDbEntity
  8
4
100
AcDbCircle
 10
387.6628795265242
 20
208.1062742643009
 30
0.0
 40
3.000026
100
AcDbArc
 50
343.422203
 51
94.51437500000142
  0
LINE
  5
365
330
1B
100
AcDbEntity
  8
4
100
AcDbLine
 10
408.6958395265242
 20
168.9304922643006
 30
0.0
 11
407.6958395265242
 21
168.9304922643006
 31
0.0
  0
LINE
  5
366
330
1B
100
AcDbEntity
  8
4
100
AcDbLine
 10
405.7844615265242
 20
179.9304922643006
 30
0.0
 11
407.6958395265242
 21
179.9304922643006
 31
0.0
  0
ARC
  5
367
330
1B
100
AcDbEntity
  8
4
100
AcDbCircle
 10
393.4509655265242
 20
153.1756082643006
 30
0.0
 40
5.000006
100
AcDbArc
 50
283.9154599999989
 51
346.085218
  0
LINE
  5
371
330
1B
100
AcDbEntity
  8
4
100
AcDbLine
 10
408.6958395265242
 20
116.9306282643007
 30
0.0
 11
407.6958395265242
 21
116.9306282643007
 31
0.0
  0
LINE
  5
372
330
1B
100
AcDbEntity
  8
4
100
AcDbLine
 10
402.8979875265243
 20
105.9306282643007
 30
0.0
 11
407.6958395265242
 21
105.9306282643007
 31
0.0
  0
ARC
  5
373
330
1B
100
AcDbEntity
  8
4
100
AcDbCircle
 10
402.6958395265242
 20
85.93062826430071
 30
0.0
 40
2.0
100
AcDbArc
 50
0.0
 51
90.0
  0
LINE
  5
374
330
1B
100
AcDbEntity
  8
4
100
AcDbLine
 10
404.6958395265242
 20
67.93062826430071
 30
0.0
 11
404.6958395265242
 21
85.93062826430071
 31
0.0
  0
LINE
  5
375
330
1B
100
AcDbEntity
  8
4
100
AcDbLine
 10
384.1958395265242
 20
87.93062826430071
 30
0.0
 11
384.1958395265242
 21
67.93062826430071
 31
0.0
  0
LINE
  5
37A
330
1B
100
AcDbEntity
  8
2
100
AcDbLine
 10
432.2212733516854
 20
36.29769260039598
 30
0.0
 11
473.3814427077054
 21
36.29769260039598
 31
0.0
  0
TEXT
  5
37B
330
1B
100
AcDbEntity
  8
3
100
AcDbText
 10
436.2424636978486
 20
38.31983061002143
 30
0.0
 40
6.0
  1
LA3-02
  7
KANJI
 72
     1
 11
452.7424636978486
 21
38.31983061002143
 31
0.0
100
AcDbText
  0
LINE
  5
37E
330
1B
100
AcDbEntity
  8
4
100
AcDbLine
 10
406.7236715265242
 20
204.0056882643008
 30
0.0
 11
402.1958395265242
 21
87.93062826430071
 31
0.0
  0
LINE
  5
37F
330
1B
100
AcDbEntity
  8
4
100
AcDbLine
 10
407.6958395265242
 20
105.9306282643007
 30
0.0
 11
407.6958395265242
 21
179.9304922643006
 31
0.0
  0
LINE
  5
380
330
1B
100
AcDbEntity
  8
4
100
AcDbLine
 10
408.6958395265242
 20
116.9306282643007
 30
0.0
 11
408.6958395265242
 21
168.9304922643006
 31
0.0
  0
ARC
  5
384
330
1B
100
AcDbEntity
  8
4
100
AcDbCircle
 10
357.2519915265243
 20
253.1580322643007
 30
0.0
 40
3.99997
100
AcDbArc
 50
186.8213750000002
 51
265.4880039999986
  0
ARC
  5
385
330
1B
100
AcDbEntity
  8
4
100
AcDbCircle
 10
357.2519915265243
 20
204.7029542643007
 30
0.0
 40
3.99998
100
AcDbArc
 50
94.51286800000202
 51
173.1786359999997
  0
ARC
  5
386
330
1B
100
AcDbEntity
  8
4
100
AcDbCircle
 10
352.196007526524
 20
265.5794124708266
 30
0.0
 40
3.0
100
AcDbArc
 50
180.0
 51
239.6700725780771
  0
ARC
  5
387
330
1B
100
AcDbEntity
  8
4
100
AcDbCircle
 10
348.3035195265243
 20
259.5379142643006
 30
0.0
 40
3.000028
100
AcDbArc
 50
8.937364000000418
 51
81.0619039999989
  0
ARC
  5
388
330
1B
100
AcDbEntity
  8
4
100
AcDbCircle
 10
349.1659315265242
 20
260.4004642643007
 30
0.0
 40
2.999974
100
AcDbArc
 50
9.192352999999802
 51
80.80781200000233
  0
ARC
  5
389
330
1B
100
AcDbEntity
  8
4
100
AcDbCircle
 10
341.9236215265241
 20
189.3743402643007
 30
0.0
 40
4.000001999999999
100
AcDbArc
 50
96.82139100000013
 51
175.4876440000002
  0
ARC
  5
38A
330
1B
100
AcDbEntity
  8
4
100
AcDbCircle
 10
338.6035075265243
 20
160.0149642643006
 30
0.0
 40
2.999978
100
AcDbArc
 50
175.4864789999997
 51
219.2527720000003
  0
LINE
  5
38B
330
1B
100
AcDbEntity
  8
4
100
AcDbLine
 10
330.6860735265243
 20
135.4306442643007
 30
0.0
 11
330.6860735265243
 21
150.4304922643006
 31
0.0
  0
LINE
  5
38C
330
1B
100
AcDbEntity
  8
4
100
AcDbLine
 10
335.6128155265242
 20
160.2510482643007
 30
0.0
 11
337.9360735265243
 21
189.6890382643006
 31
0.0
  0
ARC
  5
38D
330
1B
100
AcDbEntity
  8
4
100
AcDbCircle
 10
349.1659315265242
 20
197.4605222643007
 30
0.0
 40
2.999986
100
AcDbArc
 50
279.1930579999988
 51
350.8076930000002
  0
ARC
  5
38E
330
1B
100
AcDbEntity
  8
4
100
AcDbCircle
 10
348.3035195265243
 20
198.3230702643008
 30
0.0
 40
3.000038
100
AcDbArc
 50
278.9386800000006
 51
351.0626829999997
  0
ARC
  5
38F
330
1B
100
AcDbEntity
  8
4
100
AcDbCircle
 10
153.6957635265242
 20
228.9304922643006
 30
0.0
 40
199.999998
100
AcDbArc
 50
351.0629549999999
 51
8.938176999999989
  0
ARC
  5
390
330
1B
100
AcDbEntity
  8
4
100
AcDbCircle
 10
154.6957635265242
 20
228.9304922643006
 30
0.0
 40
200.000004
100
AcDbArc
 50
350.808976
 51
9.19208900000002
  0
ARC
  5
391
330
1B
100
AcDbEntity
  8
4
100
AcDbCircle
 10
283.1960075265245
 20
265.5794124708266
 30
0.0
 40
3.0
100
AcDbArc
 50
300.3299274219229
 51
0.0
  0
ARC
  5
392
330
1B
100
AcDbEntity
  8
4
100
AcDbCircle
 10
286.2261115265242
 20
260.4004642643007
 30
0.0
 40
2.999976
100
AcDbArc
 50
99.1924899999983
 51
170.8076469999998
  0
ARC
  5
393
330
1B
100
AcDbEntity
  8
4
100
AcDbCircle
 10
287.0884175265242
 20
259.5379142643006
 30
0.0
 40
3.000028
100
AcDbArc
 50
98.93809599999663
 51
171.0626359999996
  0
ARC
  5
394
330
1B
100
AcDbEntity
  8
4
100
AcDbCircle
 10
278.1399315265242
 20
253.1580322643007
 30
0.0
 40
3.999982
100
AcDbArc
 50
274.5132960000004
 51
353.1786499999999
  0
ARC
  5
395
330
1B
100
AcDbEntity
  8
4
100
AcDbCircle
 10
278.1399315265242
 20
204.7029542643007
 30
0.0
 40
3.99997
100
AcDbArc
 50
6.821391000000135
 51
85.48757500000019
  0
ARC
  5
396
330
1B
100
AcDbEntity
  8
4
100
AcDbCircle
 10
293.4682995265241
 20
189.3743402643007
 30
0.0
 40
3.999994
100
AcDbArc
 50
4.512373999999859
 51
83.17862299999855
  0
LINE
  5
397
330
1B
100
AcDbEntity
  8
4
100
AcDbLine
 10
317.6958395265242
 20
157.9304922643006
 30
0.0
 11
304.7053595265243
 21
150.4304922643006
 31
0.0
  0
LINE
  5
398
330
1B
100
AcDbEntity
  8
4
100
AcDbLine
 10
304.7053595265243
 20
135.4306742643007
 30
0.0
 11
304.7053595265243
 21
150.4304922643006
 31
0.0
  0
ARC
  5
399
330
1B
100
AcDbEntity
  8
4
100
AcDbCircle
 10
296.7886115265242
 20
160.0149642643006
 30
0.0
 40
2.999996
100
AcDbArc
 50
320.7477839999998
 51
4.51352100000012
  0
LINE
  5
39A
330
1B
100
AcDbEntity
  8
4
100
AcDbLine
 10
299.7793355265242
 20
160.2510482643007
 30
0.0
 11
297.4558495265242
 21
189.6890382643006
 31
0.0
  0
ARC
  5
39B
330
1B
100
AcDbEntity
  8
4
100
AcDbCircle
 10
286.2261115265242
 20
197.4605222643007
 30
0.0
 40
2.999972
100
AcDbArc
 50
189.1923530000005
 51
260.8083740000017
  0
ARC
  5
39C
330
1B
100
AcDbEntity
  8
4
100
AcDbCircle
 10
287.0884175265242
 20
198.3230702643008
 30
0.0
 40
3.000024
100
AcDbArc
 50
188.9373640000005
 51
261.0624699999999
  0
ARC
  5
39D
330
1B
100
AcDbEntity
  8
4
100
AcDbCircle
 10
480.6963275265241
 20
228.9304922643006
 30
0.0
 40
200.000002
100
AcDbArc
 50
170.80855
 51
189.192088
  0
ARC
  5
39E
330
1B
100
AcDbEntity
  8
4
100
AcDbCircle
 10
481.6963275265241
 20
228.9304922643006
 30
0.0
 40
200.000014
100
AcDbArc
 50
171.06246
 51
188.9382479999999
  0
ARC
  5
39F
330
1B
100
AcDbEntity
  8
4
100
AcDbCircle
 10
317.6960075265242
 20
142.9306282643007
 30
0.0
 40
24.000008
100
AcDbArc
 50
3.166119999999918
 51
176.835048
  0
ARC
  5
3A0
330
1B
100
AcDbEntity
  8
4
100
AcDbCircle
 10
317.6960835265243
 20
392.9307362643007
 30
0.0
 40
199.99997
100
AcDbArc
 50
261.06234
 51
278.9388510000001
  0
ARC
  5
3A1
330
1B
100
AcDbEntity
  8
4
100
AcDbCircle
 10
317.6958395265242
 20
391.9307362643007
 30
0.0
 40
200.000012
100
AcDbArc
 50
260.80849
 51
279.1930509999999
  0
ARC
  5
3A2
330
1B
100
AcDbEntity
  8
4
100
AcDbCircle
 10
317.6960835265243
 20
64.93024826430076
 30
0.0
 40
200.000006
100
AcDbArc
 50
81.06184899999997
 51
98.93824099999998
  0
ARC
  5
3A3
330
1B
100
AcDbEntity
  8
4
100
AcDbCircle
 10
317.6960835265243
 20
65.93024826430076
 30
0.0
 40
199.999976
100
AcDbArc
 50
80.80787800000003
 51
99.19249099999999
  0
LINE
  5
3A4
330
1B
100
AcDbEntity
  8
4
100
AcDbLine
 10
330.6860735265243
 20
150.4304922643006
 30
0.0
 11
317.6958395265242
 21
157.9304922643006
 31
0.0
  0
LINE
  5
3A6
330
1B
100
AcDbEntity
  8
4
100
AcDbLine
 10
371.1958395265242
 20
87.93062826430071
 30
0.0
 11
371.1958395265242
 21
67.93062826430071
 31
0.0
  0
ARC
  5
3A7
330
1B
100
AcDbEntity
  8
4
100
AcDbCircle
 10
361.2612695265241
 20
86.02810226430074
 30
0.0
 40
2.571854
100
AcDbArc
 50
305.3594470000052
 51
47.70997599999839
  0
ARC
  5
3A8
330
1B
100
AcDbEntity
  8
4
100
AcDbCircle
 10
361.2612695265241
 20
86.02810226430074
 30
0.0
 40
2.571854
100
AcDbArc
 50
305.3594470000052
 51
47.70997599999839
  0
ARC
  5
3A9
330
1B
100
AcDbEntity
  8
4
100
AcDbCircle
 10
360.2922735265242
 20
70.02810226430074
 30
0.0
 40
2.571856
100
AcDbArc
 50
305.3594650000009
 51
47.70995999999728
  0
ARC
  5
3AA
330
1B
100
AcDbEntity
  8
4
100
AcDbCircle
 10
360.2922735265242
 20
70.02810226430074
 30
0.0
 40
2.571856
100
AcDbArc
 50
305.3594650000009
 51
47.70995999999728
  0
ARC
  5
3AB
330
1B
100
AcDbEntity
  8
4
100
AcDbCircle
 10
363.7532115265242
 20
73.83315626430078
 30
0.0
 40
2.571858
100
AcDbArc
 50
125.3589809999981
 51
227.7104640000007
  0
ARC
  5
3AC
330
1B
100
AcDbEntity
  8
4
100
AcDbCircle
 10
363.7532115265242
 20
73.83315626430078
 30
0.0
 40
2.571858
100
AcDbArc
 50
125.3589809999981
 51
227.7104640000007
  0
ARC
  5
3AD
330
1B
100
AcDbEntity
  8
4
100
AcDbCircle
 10
360.7766495265244
 20
78.02810226430074
 30
0.0
 40
2.571856
100
AcDbArc
 50
305.3594649999949
 51
47.70996000000358
  0
ARC
  5
3AE
330
1B
100
AcDbEntity
  8
4
100
AcDbCircle
 10
360.7766495265244
 20
78.02810226430074
 30
0.0
 40
2.571856
100
AcDbArc
 50
305.3594649999949
 51
47.70996000000358
  0
LINE
  5
3AF
330
1B
100
AcDbEntity
  8
4
100
AcDbLine
 10
352.6958395265242
 20
67.93062826430071
 30
0.0
 11
352.6958395265242
 21
85.93062826430071
 31
0.0
  0
ARC
  5
3B0
330
1B
100
AcDbEntity
  8
4
100
AcDbCircle
 10
364.2378315265244
 20
81.83315626430078
 30
0.0
 40
2.571858
100
AcDbArc
 50
125.3589810000041
 51
227.710463999994
  0
ARC
  5
3B1
330
1B
100
AcDbEntity
  8
4
100
AcDbCircle
 10
364.2378315265244
 20
81.83315626430078
 30
0.0
 40
2.571858
100
AcDbArc
 50
125.3589810000041
 51
227.710463999994
  0
ARC
  5
3B2
330
1B
100
AcDbEntity
  8
4
100
AcDbCircle
 10
344.6546815265242
 20
75.93062826430071
 30
0.0
 40
2.0
100
AcDbArc
 50
34.99137400000378
 51
90.0
  0
LINE
  5
3B3
330
1B
100
AcDbEntity
  8
2
100
AcDbLine
 10
321.8921595265242
 20
93.50798026430073
 30
0.0
 11
321.8921595265242
 21
98.35327826430068
 31
0.0
  0
LINE
  5
3B4
330
1B
100
AcDbEntity
  8
4
100
AcDbLine
 10
330.6960835265243
 20
130.4807242643006
 30
0.0
 11
330.6960835265243
 21
95.93062826430071
 31
0.0
  0
LINE
  5
3B5
330
1B
100
AcDbEntity
  8
4
100
AcDbLine
 10
352.6958395265242
 20
67.93062826430071
 30
0.0
 11
346.2931595265243
 21
77.07753626430065
 31
0.0
  0
ARC
  5
3B6
330
1B
100
AcDbEntity
  8
4
100
AcDbCircle
 10
356.6960835265243
 20
92.93062826430071
 30
0.0
 40
5.0
100
AcDbArc
 50
180.0005160000544
 51
270.0010539999993
  0
LINE
  5
3B9
330
1B
100
AcDbEntity
  8
L-CENTER
 48
2.0
100
AcDbLine
 10
377.6958395265242
 20
94.58613226430077
 30
0.0
 11
377.6958395265242
 21
61.53951626430069
 31
0.0
  0
LINE
  5
3BA
330
1B
100
AcDbEntity
  8
2
100
AcDbLine
 10
317.6960075265242
 20
100.7759282643007
 30
0.0
 11
313.4998555265242
 21
98.35327826430068
 31
0.0
  0
LINE
  5
3BB
330
1B
100
AcDbEntity
  8
2
100
AcDbLine
 10
313.4998555265242
 20
93.50798026430073
 30
0.0
 11
317.6960075265242
 21
91.08533026430075
 31
0.0
  0
ARC
  5
3BC
330
1B
100
AcDbEntity
  8
4
100
AcDbCircle
 10
290.7373955265241
 20
75.93062826430071
 30
0.0
 40
2.0
100
AcDbArc
 50
90.0
 51
145.0079799999967
  0
LINE
  5
3BD
330
1B
100
AcDbEntity
  8
4
100
AcDbLine
 10
304.6958395265242
 20
130.4807242643006
 30
0.0
 11
304.6958395265242
 21
95.93062826430071
 31
0.0
  0
LINE
  5
3BE
330
1B
100
AcDbEntity
  8
4
100
AcDbLine
 10
304.6960075265242
 20
130.4807242643006
 30
0.0
 11
304.6960075265242
 21
95.93062826430071
 31
0.0
  0
LINE
  5
3BF
330
1B
100
AcDbEntity
  8
2
100
AcDbLine
 10
313.4998555265242
 20
98.35327826430068
 30
0.0
 11
313.4998555265242
 21
93.50798026430073
 31
0.0
  0
ARC
  5
3C0
330
1B
100
AcDbEntity
  8
4
100
AcDbCircle
 10
278.6958395265242
 20
92.93062826430071
 30
0.0
 40
5.0
100
AcDbArc
 50
270.0008709999991
 51
0.0
  0
LINE
  5
3C1
330
1B
100
AcDbEntity
  8
4
100
AcDbLine
 10
282.6960835265243
 20
67.93062826430071
 30
0.0
 11
282.6960835265243
 21
85.93062826430071
 31
0.0
  0
LINE
  5
3C2
330
1B
100
AcDbEntity
  8
4
100
AcDbLine
 10
282.6960835265243
 20
67.93062826430071
 30
0.0
 11
289.0989315265242
 21
77.07755426430072
 31
0.0
  0
LINE
  5
3C5
330
1B
100
AcDbEntity
  8
L-CENTER
 48
2.0
100
AcDbLine
 10
257.6960835265243
 20
94.58613226430077
 30
0.0
 11
257.6960835265243
 21
61.53951626430069
 31
0.0
  0
LINE
  5
3C7
330
1B
100
AcDbEntity
  8
4
100
AcDbLine
 10
290.7373955265241
 20
77.93062826430071
 30
0.0
 11
344.6546815265242
 21
77.93062826430071
 31
0.0
  0
LINE
  5
3CA
330
1B
100
AcDbEntity
  8
L-CENTER
 48
2.0
100
AcDbLine
 10
300.8989996097682
 20
95.93062826430071
 30
0.0
 11
334.4930154432802
 21
95.93062826430071
 31
0.0
  0
ARC
  5
3CB
330
1B
100
AcDbEntity
  8
4
100
AcDbCircle
 10
317.6960075265242
 20
95.93062826430071
 30
0.0
 40
13.0
100
AcDbArc
 50
180.0005380000284
 51
0.0000710019436379
  0
CIRCLE
  5
3CC
330
1B
100
AcDbEntity
  8
2
100
AcDbCircle
 10
317.6960075265242
 20
95.93062826430071
 30
0.0
 40
6.0
  0
CIRCLE
  5
3CD
330
1B
100
AcDbEntity
  8
4
100
AcDbCircle
 10
317.6960075265242
 20
95.93062826430071
 30
0.0
 40
10.0
  0
LINE
  5
3CE
330
1B
100
AcDbEntity
  8
2
100
AcDbLine
 10
317.6960075265242
 20
91.08533026430075
 30
0.0
 11
321.8921595265242
 21
93.50798026430073
 31
0.0
  0
LINE
  5
3CF
330
1B
100
AcDbEntity
  8
2
100
AcDbLine
 10
321.8921595265242
 20
98.35327826430068
 30
0.0
 11
317.6960075265242
 21
100.7759282643007
 31
0.0
  0
LINE
  5
3D0
330
1B
100
AcDbEntity
  8
4
100
AcDbLine
 10
289.6960835265243
 20
137.9306282643007
 30
0.0
 11
289.6960835265243
 21
77.63816226430072
 31
0.0
  0
LINE
  5
3D1
330
1B
100
AcDbEntity
  8
4
100
AcDbLine
 10
283.6960835265243
 20
137.9306282643007
 30
0.0
 11
283.6960835265243
 21
92.93062826430071
 31
0.0
  0
LINE
  5
3D2
330
1B
100
AcDbEntity
  8
4
100
AcDbLine
 10
317.6958395265242
 20
127.9306602643007
 30
0.0
 11
330.6860735265243
 21
135.4306442643007
 31
0.0
  0
CIRCLE
  5
3D3
330
1B
100
AcDbEntity
  8
4
100
AcDbCircle
 10
317.6958395265242
 20
142.9306602643006
 30
0.0
 40
15.0
  0
CIRCLE
  5
3D4
330
1B
100
AcDbEntity
  8
4
100
AcDbCircle
 10
317.6960075265242
 20
142.9306282643007
 30
0.0
 40
18.0
  0
LINE
  5
3D5
330
1B
100
AcDbEntity
  8
4
100
AcDbLine
 10
304.7053595265243
 20
135.4306742643007
 30
0.0
 11
317.6958395265242
 21
127.9306602643007
 31
0.0
  0
LINE
  5
3D6
330
1B
100
AcDbEntity
  8
4
100
AcDbLine
 10
351.6960075265242
 20
137.9306282643007
 30
0.0
 11
351.6960075265242
 21
92.93062826430071
 31
0.0
  0
LINE
  5
3D7
330
1B
100
AcDbEntity
  8
4
100
AcDbLine
 10
345.6960075265242
 20
137.9306282643007
 30
0.0
 11
345.6960075265242
 21
77.63815426430074
 31
0.0
  0
LINE
  5
3D8
330
1B
100
AcDbEntity
  8
4
100
AcDbLine
 10
404.6958395265242
 20
67.93062826430071
 30
0.0
 11
352.6958395265242
 21
67.93062826430071
 31
0.0
  0
LINE
  5
3DA
330
1B
100
AcDbEntity
  8
4
100
AcDbLine
 10
387.4267955265243
 20
246.7642322643006
 30
0.0
 11
356.9372935265242
 21
249.1704822643006
 31
0.0
  0
LINE
  5
3DB
330
1B
100
AcDbEntity
  8
4
100
AcDbLine
 10
387.4267955265243
 20
211.0967522643008
 30
0.0
 11
356.9372935265242
 21
208.6905022643008
 31
0.0
  0
LINE
  5
3DC
330
1B
100
AcDbEntity
  8
4
100
AcDbLine
 10
356.6960835265243
 20
87.93062826430071
 30
0.0
 11
402.6958395265242
 21
87.93062826430071
 31
0.0
  0
ARC
  5
3DD
330
1B
100
AcDbEntity
  8
4
100
AcDbCircle
 10
317.6958395265242
 20
458.9307362643009
 30
0.0
 40
319.999978
100
AcDbArc
 50
273.1631429999999
 51
283.9164299999999
  0
LINE
  5
3E5
330
1B
100
AcDbEntity
  8
4
100
AcDbLine
 10
769.0677155114496
 20
245.9304922643006
 30
0.0
 11
769.0677155114496
 21
238.9304922643006
 31
0.0
  0
LINE
  5
3E8
330
1B
100
AcDbEntity
  8
4
100
AcDbLine
 10
762.0677155114496
 20
245.9304922643006
 30
0.0
 11
762.0677155114496
 21
238.9304922643006
 31
0.0
  0
LINE
  5
3EA
330
1B
100
AcDbEntity
  8
4
100
AcDbLine
 10
769.0677155114496
 20
238.9304922643006
 30
0.0
 11
762.0677155114496
 21
238.9304922643006
 31
0.0
  0
LINE
  5
3EB
330
1B
100
AcDbEntity
  8
4
100
AcDbLine
 10
769.0677155114496
 20
245.9304922643006
 30
0.0
 11
762.0677155114496
 21
245.9304922643006
 31
0.0
  0
LINE
  5
3ED
330
1B
100
AcDbEntity
  8
L-CENTER
 48
2.0
100
AcDbLine
 10
765.5677155114496
 20
248.0447476809846
 30
0.0
 11
765.5677155114496
 21
209.8162368476166
 31
0.0
  0
LINE
  5
3F8
330
1B
100
AcDbEntity
  8
L-CENTER
 48
2.0
100
AcDbLine
 10
746.4534600947655
 20
228.9304922643006
 30
0.0
 11
784.6819709281336
 21
228.9304922643006
 31
0.0
  0
ARC
  5
3F9
330
1B
100
AcDbEntity
  8
4
100
AcDbCircle
 10
765.5677155114496
 20
228.9304922643006
 30
0.0
 40
14.0
100
AcDbArc
 50
104.4775121859299
 51
75.52248800000002
  0
ARC
  5
403
330
1B
100
AcDbEntity
  8
4
100
AcDbCircle
 10
247.7290415265243
 20
249.7547122643006
 30
0.0
 40
3.00002
100
AcDbArc
 50
163.4221210000007
 51
274.51466
  0
ARC
  5
404
330
1B
100
AcDbEntity
  8
4
100
AcDbCircle
 10
247.7290415265243
 20
208.1062742643009
 30
0.0
 40
3.00001
100
AcDbArc
 50
85.48621500000189
 51
196.5779599999996
  0
LINE
  5
405
330
1B
100
AcDbEntity
  8
4
100
AcDbLine
 10
229.6074595265243
 20
179.9304922643006
 30
0.0
 11
227.6960835265243
 21
179.9304922643006
 31
0.0
  0
LINE
  5
406
330
1B
100
AcDbEntity
  8
4
100
AcDbLine
 10
226.6960835265243
 20
168.9304922643006
 30
0.0
 11
227.6960835265243
 21
168.9304922643006
 31
0.0
  0
ARC
  5
407
330
1B
100
AcDbEntity
  8
4
100
AcDbCircle
 10
241.9409555265242
 20
153.1756082643006
 30
0.0
 40
4.999984
100
AcDbArc
 50
193.9148230000003
 51
256.085886
  0
LINE
  5
408
330
1B
100
AcDbEntity
  8
4
100
AcDbLine
 10
226.6960835265243
 20
116.9306282643007
 30
0.0
 11
227.6960835265243
 21
116.9306282643007
 31
0.0
  0
LINE
  5
409
330
1B
100
AcDbEntity
  8
4
100
AcDbLine
 10
232.4939355265242
 20
105.9306282643007
 30
0.0
 11
227.6960835265243
 21
105.9306282643007
 31
0.0
  0
ARC
  5
40A
330
1B
100
AcDbEntity
  8
4
100
AcDbCircle
 10
232.6960835265243
 20
85.93062826430071
 30
0.0
 40
2.0
100
AcDbArc
 50
90.0
 51
180.0004299994332
  0
LINE
  5
40B
330
1B
100
AcDbEntity
  8
4
100
AcDbLine
 10
230.6960835265243
 20
67.93062826430071
 30
0.0
 11
230.6960835265243
 21
85.93062826430071
 31
0.0
  0
LINE
  5
40E
330
1B
100
AcDbEntity
  8
4
100
AcDbLine
 10
227.6960835265243
 20
105.9306282643007
 30
0.0
 11
227.6960835265243
 21
179.9304922643006
 31
0.0
  0
LINE
  5
40F
330
1B
100
AcDbEntity
  8
4
100
AcDbLine
 10
228.6682515265243
 20
204.0056882643008
 30
0.0
 11
233.1960835265243
 21
87.93062826430071
 31
0.0
  0
LINE
  5
410
330
1B
100
AcDbEntity
  8
4
100
AcDbLine
 10
226.6960835265243
 20
116.9306282643007
 30
0.0
 11
226.6960835265243
 21
168.9304922643006
 31
0.0
  0
LINE
  5
412
330
1B
100
AcDbEntity
  8
4
100
AcDbLine
 10
115.7544229677134
 20
149.9304902643007
 30
0.0
 11
115.7544229677134
 21
156.9304902643007
 31
0.0
  0
LINE
  5
416
330
1B
100
AcDbEntity
  8
4
100
AcDbLine
 10
108.7544229677134
 20
156.9304902643007
 30
0.0
 11
108.7544229677134
 21
149.9304902643007
 31
0.0
  0
LINE
  5
418
330
1B
100
AcDbEntity
  8
4
100
AcDbLine
 10
115.7544229677134
 20
149.9304902643007
 30
0.0
 11
108.7544229677134
 21
149.9304902643007
 31
0.0
  0
LINE
  5
419
330
1B
100
AcDbEntity
  8
4
100
AcDbLine
 10
115.7544229677134
 20
156.9304902643007
 30
0.0
 11
108.7544229677134
 21
156.9304902643007
 31
0.0
  0
ARC
  5
41B
330
1B
100
AcDbEntity
  8
4
100
AcDbCircle
 10
112.2544229677134
 20
142.9306282643007
 30
0.0
 40
11.000056
100
AcDbArc
 50
108.5529066380957
 51
71.44700099999976
  0
LINE
  5
41C
330
1B
100
AcDbEntity
  8
L-CENTER
 48
2.0
100
AcDbLine
 10
112.2544229677134
 20
126.3798899051416
 30
0.0
 11
112.2544229677134
 21
159.4813666234598
 31
0.0
  0
ARC
  5
42A
330
1B
100
AcDbEntity
  8
4
100
AcDbCircle
 10
317.6960835265243
 20
458.9307362643009
 30
0.0
 40
319.999968
100
AcDbArc
 50
256.0850439999999
 51
266.8382779999999
  0
LINE
  5
42B
330
1B
100
AcDbEntity
  8
L-CENTER
 48
2.0
100
AcDbLine
 10
414.9286490086496
 20
142.9306282643007
 30
0.0
 11
164.3371481463012
 21
142.9306282643007
 31
0.0
  0
LINE
  5
42C
330
1B
100
AcDbEntity
  8
L-CENTER
 48
2.0
100
AcDbLine
 10
413.7248915265243
 20
228.9304922643006
 30
0.0
 11
221.6671235265242
 21
228.9304922643006
 31
0.0
  0
LINE
  5
42D
330
1B
100
AcDbEntity
  8
L-CENTER
 48
2.0
100
AcDbLine
 10
128.8051613268725
 20
142.9306282643007
 30
0.0
 11
95.70368460855434
 21
142.9306282643007
 31
0.0
  0
LINE
  5
431
330
1B
100
AcDbEntity
  8
4
100
AcDbLine
 10
230.6960835265243
 20
67.93062826430071
 30
0.0
 11
282.6960835265243
 21
67.93062826430071
 31
0.0
  0
LINE
  5
433
330
1B
100
AcDbEntity
  8
4
100
AcDbLine
 10
278.6958395265242
 20
87.93062826430071
 30
0.0
 11
232.6960835265243
 21
87.93062826430071
 31
0.0
  0
LINE
  5
434
330
1B
100
AcDbEntity
  8
4
100
AcDbLine
 10
247.9651255265242
 20
246.7642322643006
 30
0.0
 11
278.4546275265243
 21
249.1704822643006
 31
0.0
  0
LINE
  5
435
330
1B
100
AcDbEntity
  8
4
100
AcDbLine
 10
247.9651255265242
 20
211.0967522643008
 30
0.0
 11
278.4546275265243
 21
208.6905022643008
 31
0.0
  0
ARC
  5
436
330
1B
100
AcDbEntity
  8
4
100
AcDbCircle
 10
317.6960075265242
 20
228.9304922643006
 30
0.0
 40
75.999964
100
AcDbArc
 50
285.510488
 51
254.4909850000001
  0
ARC
  5
437
330
1B
100
AcDbEntity
  8
4
100
AcDbCircle
 10
317.6960075265242
 20
228.9304922643006
 30
0.0
 40
87.999994
100
AcDbArc
 50
281.803277
 51
258.198142
  0
LINE
  5
438
330
1B
100
AcDbEntity
  8
4
100
AcDbLine
 10
286.1960075265247
 20
290.9304922643003
 30
0.0
 11
286.1960075265245
 21
265.5794124708266
 31
0.0
  0
ARC
  5
43A
330
1B
100
AcDbEntity
  8
4
100
AcDbCircle
 10
547.6960835265243
 20
228.9304922643006
 30
0.0
 40
320.000018
100
AcDbArc
 50
166.085171
 51
193.915594
  0
LINE
  5
43B
330
1B
100
AcDbEntity
  8
4
100
AcDbLine
 10
349.1960075265238
 20
290.9304922643003
 30
0.0
 11
349.196007526524
 21
265.5794124708266
 31
0.0
  0
ARC
  5
43C
330
1B
100
AcDbEntity
  8
4
100
AcDbCircle
 10
87.69576352652416
 20
228.9304922643006
 30
0.0
 40
319.99999
100
AcDbArc
 50
346.085662
 51
13.91554700000002
  0
LINE
  5
43D
330
1B
100
AcDbEntity
  8
L-CENTER
 48
2.0
100
AcDbLine
 10
317.6960075265242
 20
331.3368723127952
 30
0.0
 11
317.6960075265242
 21
74.55477386894077
 31
0.0
  0
LINE
  5
462
330
1B
100
AcDbEntity
  8
4
100
AcDbLine
 10
168.6961755265243
 20
153.9304922643007
 30
0.0
 11
167.6961755265243
 21
152.9304922643007
 31
0.0
  0
LINE
  5
463
330
1B
100
AcDbEntity
  8
4
100
AcDbLine
 10
167.6961755265243
 20
132.9306282643008
 30
0.0
 11
167.6961755265243
 21
156.9304922643007
 31
0.0
  0
LINE
  5
464
330
1B
100
AcDbEntity
  8
4
100
AcDbLine
 10
207.6961755265243
 20
153.9304922643007
 30
0.0
 11
207.6961755265243
 21
156.9304922643007
 31
0.0
  0
LINE
  5
465
330
1B
100
AcDbEntity
  8
4
100
AcDbLine
 10
226.6961755265243
 20
155.4304922643007
 30
0.0
 11
212.6961755265243
 21
155.4304922643007
 31
0.0
  0
LINE
  5
466
330
1B
100
AcDbEntity
  8
4
100
AcDbLine
 10
207.6961755265243
 20
156.9304922643007
 30
0.0
 11
167.6961755265243
 21
156.9304922643007
 31
0.0
  0
LINE
  5
467
330
1B
100
AcDbEntity
  8
4
100
AcDbLine
 10
212.6961755265243
 20
153.9304922643007
 30
0.0
 11
168.6961755265243
 21
153.9304922643007
 31
0.0
  0
LINE
  5
468
330
1B
100
AcDbEntity
  8
4
100
AcDbLine
 10
226.6961755265243
 20
130.4306282643008
 30
0.0
 11
212.6961755265243
 21
130.4306282643008
 31
0.0
  0
LINE
  5
469
330
1B
100
AcDbEntity
  8
4
100
AcDbLine
 10
212.6961755265243
 20
131.9306282643008
 30
0.0
 11
168.6961755265243
 21
131.9306282643008
 31
0.0
  0
LINE
  5
46A
330
1B
100
AcDbEntity
  8
4
100
AcDbLine
 10
212.6961755265243
 20
155.4304922643007
 30
0.0
 11
212.6961755265243
 21
130.4306282643008
 31
0.0
  0
LINE
  5
46B
330
1B
100
AcDbEntity
  8
4
100
AcDbLine
 10
167.6961755265243
 20
132.9306282643008
 30
0.0
 11
168.6961755265243
 21
131.9306282643008
 31
0.0
  0
LINE
  5
46C
330
1B
100
AcDbEntity
  8
4
100
AcDbLine
 10
168.6961755265243
 20
153.9304922643007
 30
0.0
 11
168.6961755265243
 21
131.9306282643008
 31
0.0
  0
LINE
  5
485
330
1B
100
AcDbEntity
  8
4
100
AcDbLine
 10
168.6960075265242
 20
487.6773448991329
 30
0.0
 11
167.6960075265242
 21
486.6773448991329
 31
0.0
  0
LINE
  5
486
330
1B
100
AcDbEntity
  8
4
100
AcDbLine
 10
168.6960075265242
 20
465.6773448991329
 30
0.0
 11
167.6960075265242
 21
466.6773448991329
 31
0.0
  0
LINE
  5
487
330
1B
100
AcDbEntity
  8
4
100
AcDbLine
 10
168.6960075265242
 20
473.1773448991329
 30
0.0
 11
168.6960075265242
 21
465.6773448991329
 31
0.0
  0
LINE
  5
488
330
1B
100
AcDbEntity
  8
4
100
AcDbLine
 10
168.6960075265242
 20
487.6773448991329
 30
0.0
 11
168.6960075265242
 21
480.1773448991329
 31
0.0
  0
LINE
  5
489
330
1B
100
AcDbEntity
  8
4
100
AcDbLine
 10
167.6960075265242
 20
486.6773448991329
 30
0.0
 11
167.6960075265242
 21
466.6773448991329
 31
0.0
  0
ARC
  5
48A
330
1B
100
AcDbEntity
  8
4
100
AcDbCircle
 10
211.6960075265242
 20
488.6773448991329
 30
0.0
 40
1.0
100
AcDbArc
 50
270.0
 51
0.0
  0
ARC
  5
48B
330
1B
100
AcDbEntity
  8
4
100
AcDbCircle
 10
211.6960075265245
 20
464.6773448991329
 30
0.0
 40
1.0
100
AcDbArc
 50
0.0
 51
90.0
  0
ARC
  5
48C
330
1B
100
AcDbEntity
  8
4
100
AcDbCircle
 10
204.1960075265242
 20
476.6773448991329
 30
0.0
 40
3.5
100
AcDbArc
 50
270.0
 51
90.0
  0
LINE
  5
48D
330
1B
100
AcDbEntity
  8
4
100
AcDbLine
 10
212.6960075265242
 20
489.1773448991329
 30
0.0
 11
212.6960075265242
 21
464.1773448991329
 31
0.0
  0
LINE
  5
48E
330
1B
100
AcDbEntity
  8
4
100
AcDbLine
 10
212.6960075265242
 20
489.1773448991329
 30
0.0
 11
226.6960075265242
 21
489.1773448991329
 31
0.0
  0
LINE
  5
48F
330
1B
100
AcDbEntity
  8
4
100
AcDbLine
 10
212.6960075265242
 20
464.1773448991329
 30
0.0
 11
226.6960075265242
 21
464.1773448991329
 31
0.0
  0
LINE
  5
490
330
1B
100
AcDbEntity
  8
4
100
AcDbLine
 10
167.6960075265242
 20
480.1773448991329
 30
0.0
 11
204.1960075265242
 21
480.1773448991329
 31
0.0
  0
LINE
  5
491
330
1B
100
AcDbEntity
  8
4
100
AcDbLine
 10
167.6960075265242
 20
473.1773448991329
 30
0.0
 11
204.1960075265242
 21
473.1773448991329
 31
0.0
  0
LINE
  5
492
330
1B
100
AcDbEntity
  8
4
100
AcDbLine
 10
168.6960075265242
 20
487.6773448991329
 30
0.0
 11
211.6960075265242
 21
487.6773448991329
 31
0.0
  0
LINE
  5
493
330
1B
100
AcDbEntity
  8
4
100
AcDbLine
 10
168.6960075265242
 20
465.6773448991329
 30
0.0
 11
211.6960075265245
 21
465.6773448991329
 31
0.0
  0
CIRCLE
  5
4B4
330
1B
100
AcDbEntity
  8
4
100
AcDbCircle
 10
317.6960075265242
 20
95.93062826430071
 30
0.0
 40
6.5
  0
ENDSEC
  0
SECTION
  2
OBJECTS
  0
DICTIONARY
  5
9
330
0
100
AcDbDictionary
281
     1
  3
ACAD_COLOR
350
30
  3
ACAD_GROUP
350
2E
  3
ACAD_LAYOUT
350
24
  3
ACAD_MATERIAL
350
B
  3
ACAD_MLEADERSTYLE
350
442
  3
ACAD_MLINESTYLE
350
19
  3
ACAD_PLOTSETTINGS
350
2F
  3
ACAD_PLOTSTYLENAME
350
8
  3
ACAD_SCALELIST
350
35
  3
ACAD_TABLESTYLE
350
441
  3
ACAD_VISUALSTYLE
350
31
  3
ACDBHEADERROUNDTRIPXREC
350
4BC
  3
AcDbVariableDictionary
350
43F
  3
DWGPROPS
350
4BF
  0
DICTIONARY
  5
4C0
330
2D
100
AcDbDictionary
280
     1
281
     1
  3
ACAD_XREC_ROUNDTRIP
360
4C1
  0
DICTIONARY
  5
3
330
2
100
AcDbDictionary
280
     1
281
     1
  3
ACAD_LAYERSTATES
360
4
  0
DICTIONARY
  5
20
330
1F
100
AcDbDictionary
280
     1
281
     1
  3
ADSK_XREC_LAYER_RECONCILED
360
21
  0
DICTIONARY
  5
D7
330
D6
100
AcDbDictionary
280
     1
281
     1
  3
ADSK_XREC_LAYER_RECONCILED
360
D8
  0
DICTIONARY
  5
5
330
1
100
AcDbDictionary
280
     1
281
     1
  3
ADSK_XREC_LAYER_RECONCILED
360
6
  0
DICTIONARY
  5
65
330
64
100
AcDbDictionary
280
     1
281
     1
  3
ADSK_XREC_LAYER_RECONCILED
360
66
  0
DICTIONARY
  5
9F
330
9E
100
AcDbDictionary
280
     1
281
     1
  3
ADSK_XREC_LAYER_RECONCILED
360
A0
  0
DICTIONARY
  5
5B
330
5A
100
AcDbDictionary
280
     1
281
     1
  3
ADSK_XREC_LAYER_RECONCILED
360
5C
  0
DICTIONARY
  5
1C
330
1B
100
AcDbDictionary
280
     1
281
     1
  3
ACAD_SORTENTS
360
1D
  0
DICTIONARY
  5
30
102
{ACAD_REACTORS
330
9
102
}
330
9
100
AcDbDictionary
281
     1
  0
DICTIONARY
  5
2E
102
{ACAD_REACTORS
330
9
102
}
330
9
100
AcDbDictionary
281
     1
  0
DICTIONARY
  5
24
102
{ACAD_REACTORS
330
9
102
}
330
9
100
AcDbDictionary
281
     1
  3
Model
350
23
  3
ﾚｲｱｳﾄ1
350
2A
  0
DICTIONARY
  5
B
102
{ACAD_REACTORS
330
9
102
}
330
9
100
AcDbDictionary
281
     1
  3
ByBlock
350
58
  3
ByLayer
350
14
  3
Global
350
A
  0
DICTIONARY
  5
442
102
{ACAD_REACTORS
330
9
102
}
330
9
100
AcDbDictionary
281
     1
  3
Standard
350
4B0
  0
DICTIONARY
  5
19
102
{ACAD_REACTORS
330
9
102
}
330
9
100
AcDbDictionary
281
     1
  3
STANDARD
350
18
  0
DICTIONARY
  5
2F
102
{ACAD_REACTORS
330
9
102
}
330
9
100
AcDbDictionary
281
     1
  0
ACDBDICTIONARYWDFLT
  5
8
102
{ACAD_REACTORS
330
9
102
}
330
9
100
AcDbDictionary
281
     1
  3
Normal
350
7
100
AcDbDictionaryWithDefault
340
7
  0
DICTIONARY
  5
35
102
{ACAD_REACTORS
330
9
102
}
330
9
100
AcDbDictionary
281
     1
  3
*A1
350
57
  0
DICTIONARY
  5
441
102
{ACAD_REACTORS
330
9
102
}
330
9
100
AcDbDictionary
281
     1
  3
Standard
350
4B8
  0
DICTIONARY
  5
31
102
{ACAD_REACTORS
330
9
102
}
330
9
100
AcDbDictionary
281
     1
  3
2dWireframe
350
44A
  3
Basic
350
44D
  3
Brighten
350
451
  3
ColorChange
350
455
  3
Conceptual
350
44F
  3
Dim
350
450
  3
EdgeColorOff
350
458
  3
Facepattern
350
454
  3
Flat
350
446
  3
FlatWithEdges
350
447
  3
Gouraud
350
448
  3
GouraudWithEdges
350
449
  3
Hidden
350
44C
  3
JitterOff
350
456
  3
Linepattern
350
453
  3
OverhangOff
350
457
  3
Realistic
350
44E
  3
Shaded
350
45D
  3
Shaded with edges
350
45C
  3
Shades of Gray
350
459
  3
Sketchy
350
45A
  3
Thicken
350
452
  3
Wireframe
350
44B
  3
X-Ray
350
45B
  0
DICTIONARY
  5
4BC
102
{ACAD_REACTORS
330
9
102
}
330
9
100
AcDbDictionary
281
     1
  3
COLORDICT
350
4BD
  3
MATERIALDICT
350
4BE
  0
DICTIONARY
  5
43F
102
{ACAD_REACTORS
330
9
102
}
330
9
100
AcDbDictionary
281
     1
  3
CANNOSCALE
350
440
  3
CMLEADERSTYLE
350
4B3
  3
CTABLESTYLE
350
4B9
  3
DIMASSOC
350
4BA
  3
HIDETEXT
350
4BB
  3
MSLTSCALE
350
4C2
  3
XCLIPFRAME
350
443
  0
XRECORD
  5
4BF
102
{ACAD_REACTORS
330
9
102
}
330
9
100
AcDbXrecord
280
     1
  1
DWGPROPS COOKIE
  2

  3

  4

  6

  7

  8
sg-d04
  9

300
=
301
=
302
=
303
=
304
=
305
=
306
=
307
=
308
=
309
=
 40
0.0
 41
2457438.474019479
 42
2457871.435159734
  1

 90
        0
  0
XRECORD
  5
4C1
102
{ACAD_REACTORS
330
4C0
102
}
330
4C0
100
AcDbXrecord
280
     1
102
VTR_0.000_0.000_1.000_1.000_VISUALSTYLE
340
44A
102
VTR_0.000_0.000_1.000_1.000_GRIDDISPLAY
 70
     3
102
VTR_0.000_0.000_1.000_1.000_GRIDMAJOR
 70
     5
102
VTR_0.000_0.000_1.000_1.000_DEFAULTLIGHTING
280
     1
102
VTR_0.000_0.000_1.000_1.000_DEFAULTLIGHTINGTYPE
 70
     1
102
VTR_0.000_0.000_1.000_1.000_BRIGHTNESS
141
0.0
102
VTR_0.000_0.000_1.000_1.000_CONTRAST
142
0.0
  0
DICTIONARY
  5
4
102
{ACAD_REACTORS
330
3
102
}
330
3
100
AcDbDictionary
281
     1
  0
XRECORD
  5
21
102
{ACAD_REACTORS
330
20
102
}
330
20
100
AcDbXrecord
280
     1
290
     1
  0
XRECORD
  5
D8
102
{ACAD_REACTORS
330
D7
102
}
330
D7
100
AcDbXrecord
280
     1
290
     1
  0
XRECORD
  5
6
102
{ACAD_REACTORS
330
5
102
}
330
5
100
AcDbXrecord
280
     1
290
     1
  0
XRECORD
  5
66
102
{ACAD_REACTORS
330
65
102
}
330
65
100
AcDbXrecord
280
     1
290
     1
  0
XRECORD
  5
A0
102
{ACAD_REACTORS
330
9F
102
}
330
9F
100
AcDbXrecord
280
     1
290
     1
  0
XRECORD
  5
5C
102
{ACAD_REACTORS
330
5B
102
}
330
5B
100
AcDbXrecord
280
     1
290
     1
  0
SORTENTSTABLE
  5
1D
102
{ACAD_REACTORS
330
1C
102
}
330
1C
100
AcDbSortentsTable
330
1B
331
0
  5
26F
331
63
  5
268
331
67
  5
267
331
68
  5
266
331
69
  5
265
331
6A
  5
264
331
6B
  5
263
331
6C
  5
262
331
1AB
  5
12B
331
1AC
  5
12A
331
1AD
  5
129
331
1AF
  5
127
331
1B0
  5
126
331
1B1
  5
125
331
1B2
  5
124
331
1B3
  5
123
331
1B4
  5
122
331
1B9
  5
11D
331
1BA
  5
11C
331
1BB
  5
11B
331
1BC
  5
11A
331
1BD
  5
119
331
1BE
  5
118
331
1BF
  5
117
331
1C6
  5
110
331
1C7
  5
10F
331
1C8
  5
10E
331
1C9
  5
10D
331
1CA
  5
10C
331
1CB
  5
10B
331
1CC
  5
10A
331
1CD
  5
109
331
1CE
  5
108
331
1CF
  5
107
331
1D0
  5
106
331
1D1
  5
105
331
1D2
  5
104
331
1D3
  5
103
331
1D4
  5
102
331
1D5
  5
101
331
1D6
  5
100
331
1DF
  5
F7
331
1E0
  5
F6
331
1E2
  5
F4
331
1E4
  5
F2
331
1E5
  5
F1
331
1E6
  5
F0
331
1E8
  5
EE
331
1E9
  5
ED
331
1EA
  5
EC
331
1EB
  5
EB
331
1EC
  5
EA
331
1ED
  5
E9
331
1EE
  5
E8
331
1EF
  5
E7
331
1F0
  5
E6
331
1F1
  5
E5
331
1F2
  5
E4
331
1F3
  5
E3
331
1F4
  5
E2
331
1F5
  5
E1
331
1F6
  5
E0
331
1F7
  5
DF
331
1F8
  5
DE
331
1F9
  5
DD
331
1FA
  5
DC
331
1FB
  5
DB
331
1FC
  5
DA
331
1FD
  5
D9
331
1FE
  5
D5
331
1FF
  5
D4
331
200
  5
D3
331
201
  5
D2
331
202
  5
D1
331
203
  5
D0
331
204
  5
CF
331
205
  5
CD
331
206
  5
CC
331
207
  5
CB
331
208
  5
CA
331
209
  5
C9
331
20A
  5
C8
331
20B
  5
C7
331
20C
  5
C6
331
20D
  5
C5
331
210
  5
C2
331
212
  5
C0
331
217
  5
BB
331
218
  5
BA
331
219
  5
B9
331
21A
  5
B8
331
21B
  5
B7
331
21C
  5
B6
331
21D
  5
B5
331
21E
  5
B4
331
21F
  5
B3
331
220
  5
B2
331
221
  5
B1
331
222
  5
B0
331
223
  5
AF
331
224
  5
AE
331
225
  5
AD
331
226
  5
AC
331
229
  5
A9
331
22A
  5
A8
331
22B
  5
A7
331
22C
  5
A6
331
22D
  5
A5
331
230
  5
A2
331
231
  5
9D
331
232
  5
9C
331
234
  5
9A
331
235
  5
99
331
236
  5
98
331
237
  5
97
331
238
  5
96
331
244
  5
8A
331
24F
  5
7F
331
253
  5
7B
331
257
  5
77
331
259
  5
75
331
25A
  5
74
331
25B
  5
73
331
25C
  5
72
331
25D
  5
71
331
25E
  5
70
331
25F
  5
6F
331
260
  5
6E
331
262
  5
6C
331
263
  5
6B
331
266
  5
68
331
267
  5
67
331
268
  5
63
331
269
  5
62
331
26C
  5
5F
331
26D
  5
5E
331
26E
  5
5D
331
26F
  5
59
331
3CD
  5
3CE
331
3CE
  5
3CF
331
3CF
  5
3D0
331
3D0
  5
3D1
331
3D1
  5
3D2
331
3D2
  5
3D3
331
3D3
  5
3D4
331
3D4
  5
3D5
331
3D5
  5
3D6
331
3D6
  5
3D7
331
3D7
  5
3D8
331
3D8
  5
3D9
331
3DA
  5
3DB
331
3DB
  5
3DC
331
3DC
  5
3DD
331
3DD
  5
3DE
331
3E5
  5
3E6
331
3E8
  5
3E9
331
3EA
  5
3EB
331
3EB
  5
3EC
331
3ED
  5
3EE
331
3F8
  5
3F9
331
3F9
  5
3FA
331
403
  5
404
331
404
  5
405
331
405
  5
406
331
406
  5
407
331
407
  5
408
331
408
  5
409
331
409
  5
40A
331
40A
  5
40B
331
40B
  5
40C
331
40E
  5
40F
331
40F
  5
410
331
410
  5
411
331
412
  5
413
331
416
  5
417
331
418
  5
419
331
419
  5
41A
331
41B
  5
41C
331
41C
  5
41D
331
42A
  5
42B
331
42B
  5
42C
331
42C
  5
42D
331
42D
  5
42E
331
431
  5
432
331
433
  5
434
331
434
  5
435
331
435
  5
436
331
436
  5
437
331
437
  5
438
331
438
  5
43A
331
43A
  5
43B
331
43B
  5
43C
331
43C
  5
43D
331
43D
  5
45E
331
462
  5
463
331
463
  5
464
331
464
  5
465
331
465
  5
466
331
466
  5
467
331
467
  5
468
331
468
  5
469
331
469
  5
46A
331
46A
  5
46C
331
46B
  5
46E
331
46C
  5
46F
331
485
  5
487
331
486
  5
488
331
487
  5
489
331
488
  5
48A
331
489
  5
48B
331
48A
  5
48C
331
48B
  5
48D
331
48C
  5
48E
331
48D
  5
48F
331
48E
  5
490
331
48F
  5
491
331
490
  5
492
331
491
  5
493
331
492
  5
4A0
331
493
  5
4A1
331
4B4
  5
3CD
  0
LAYOUT
  5
23
102
{ACAD_REACTORS
330
24
102
}
102
{ACAD_XDICTIONARY
360
25
102
}
330
24
100
AcDbPlotSettings
  1

  2
Brother MFC-J6973CDW Printer
  4
User256
  6

 40
2.9
 41
3.0
 42
3.0
 43
2.9
 44
88.9
 45
127.0
 46
25.0
 47
12.0
 48
45.99999990666663
 49
10.0
140
809.9999981566668
141
554.9999987283333
142
1.0
143
2.0
 70
 11936
 72
     1
 73
     1
 74
     4
  7
monochrome.ctb
 75
    17
147
0.5
148
-45.99999990666663
149
-10.0
100
AcDbLayout
  1
Model
 70
     0
 71
     0
 10
0.0
 20
0.0
 11
12.0
 21
9.0
 12
0.0
 22
0.0
 32
0.0
 14
95.70368460855434
 24
36.29769260039598
 34
0.0
 15
784.6819709281336
 25
614.2049975549764
 35
0.0
146
0.0
 13
0.0
 23
0.0
 33
0.0
 16
1.0
 26
0.0
 36
0.0
 17
0.0
 27
1.0
 37
0.0
 76
     0
330
1B
331
32
1001
ACAD_PSEXT
1000
Brother MFC-J6973CDW Printer
1000
Brother MFC-J6973CDW Printer
1000
BRN30055CE7E60D
1000
MFC-J6973CDW LAN
1070
     0
  0
LAYOUT
  5
2A
102
{ACAD_REACTORS
330
24
102
}
330
24
100
AcDbPlotSettings
  1

  2
C:\Program Files\ACAD LT 2000\plotters\Draftpro-DXL (7575A).pc3
  4

  6

 40
0.0
 41
0.0
 42
0.0
 43
0.0
 44
0.0
 45
0.0
 46
0.0
 47
0.0
 48
0.0
 49
0.0
140
0.0
141
0.0
142
1.0
143
1.0
 70
   688
 72
     0
 73
     0
 74
     5
  7
monochrome.ctb
 75
    16
147
1.0
148
0.0
149
0.0
100
AcDbLayout
  1
ﾚｲｱｳﾄ1
 70
     0
 71
     1
 10
0.0
 20
0.0
 11
12.0
 21
9.0
 12
0.0
 22
0.0
 32
0.0
 14
1.000000000000000E+20
 24
1.000000000000000E+20
 34
1.000000000000000E+20
 15
-1.000000000000000E+20
 25
-1.000000000000000E+20
 35
-1.000000000000000E+20
146
0.0
 13
0.0
 23
0.0
 33
0.0
 16
1.0
 26
0.0
 36
0.0
 17
0.0
 27
1.0
 37
0.0
 76
     0
330
27
  0
MATERIAL
  5
58
102
{ACAD_REACTORS
330
B
102
}
102
{ACAD_XDICTIONARY
360
4C7
102
}
330
B
100
AcDbMaterial
  1
ByBlock
 72
     0
 73
     2
 43
0.0208333333333333
 43
0.0
 43
0.0
 43
0.0
 43
0.0
 43
0.0208333333333333
 43
0.0
 43
0.0
 43
0.0
 43
0.0
 43
1.0
 43
0.0
 43
0.0
 43
0.0
 43
0.0
 43
1.0
 77
     0
 78
     2
 47
0.0208333333333333
 47
0.0
 47
0.0
 47
0.0
 47
0.0
 47
0.0208333333333333
 47
0.0
 47
0.0
 47
0.0
 47
0.0
 47
1.0
 47
0.0
 47
0.0
 47
0.0
 47
0.0
 47
1.0
171
     0
172
     2
 49
0.0208333333333333
 49
0.0
 49
0.0
 49
0.0
 49
0.0
 49
0.0208333333333333
 49
0.0
 49
0.0
 49
0.0
 49
0.0
 49
1.0
 49
0.0
 49
0.0
 49
0.0
 49
0.0
 49
1.0
175
     0
176
     2
142
0.0208333333333333
142
0.0
142
0.0
142
0.0
142
0.0
142
0.0208333333333333
142
0.0
142
0.0
142
0.0
142
0.0
142
1.0
142
0.0
142
0.0
142
0.0
142
0.0
142
1.0
179
     0
270
     2
144
0.0208333333333333
144
0.0
144
0.0
144
0.0
144
0.0
144
0.0208333333333333
144
0.0
144
0.0
144
0.0
144
0.0
144
1.0
144
0.0
144
0.0
144
0.0
144
0.0
144
1.0
274
     2
147
0.0208333333333333
147
0.0
147
0.0
147
0.0
147
0.0
147
0.0208333333333333
147
0.0
147
0.0
147
0.0
147
0.0
147
1.0
147
0.0
147
0.0
147
0.0
147
0.0
147
1.0
  0
MATERIAL
  5
14
102
{ACAD_REACTORS
330
B
102
}
102
{ACAD_XDICTIONARY
360
4C3
102
}
330
B
100
AcDbMaterial
  1
ByLayer
 72
     0
 73
     2
 43
0.0208333333333333
 43
0.0
 43
0.0
 43
0.0
 43
0.0
 43
0.0208333333333333
 43
0.0
 43
0.0
 43
0.0
 43
0.0
 43
1.0
 43
0.0
 43
0.0
 43
0.0
 43
0.0
 43
1.0
 77
     0
 78
     2
 47
0.0208333333333333
 47
0.0
 47
0.0
 47
0.0
 47
0.0
 47
0.0208333333333333
 47
0.0
 47
0.0
 47
0.0
 47
0.0
 47
1.0
 47
0.0
 47
0.0
 47
0.0
 47
0.0
 47
1.0
171
     0
172
     2
 49
0.0208333333333333
 49
0.0
 49
0.0
 49
0.0
 49
0.0
 49
0.0208333333333333
 49
0.0
 49
0.0
 49
0.0
 49
0.0
 49
1.0
 49
0.0
 49
0.0
 49
0.0
 49
0.0
 49
1.0
175
     0
176
     2
142
0.0208333333333333
142
0.0
142
0.0
142
0.0
142
0.0
142
0.0208333333333333
142
0.0
142
0.0
142
0.0
142
0.0
142
1.0
142
0.0
142
0.0
142
0.0
142
0.0
142
1.0
179
     0
270
     2
144
0.0208333333333333
144
0.0
144
0.0
144
0.0
144
0.0
144
0.0208333333333333
144
0.0
144
0.0
144
0.0
144
0.0
144
1.0
144
0.0
144
0.0
144
0.0
144
0.0
144
1.0
274
     2
147
0.0208333333333333
147
0.0
147
0.0
147
0.0
147
0.0
147
0.0208333333333333
147
0.0
147
0.0
147
0.0
147
0.0
147
1.0
147
0.0
147
0.0
147
0.0
147
0.0
147
1.0
  0
MATERIAL
  5
A
102
{ACAD_REACTORS
330
B
102
}
102
{ACAD_XDICTIONARY
360
4C5
102
}
330
B
100
AcDbMaterial
  1
Global
 72
     0
 73
     2
 43
0.0208333333333333
 43
0.0
 43
0.0
 43
0.0
 43
0.0
 43
0.0208333333333333
 43
0.0
 43
0.0
 43
0.0
 43
0.0
 43
1.0
 43
0.0
 43
0.0
 43
0.0
 43
0.0
 43
1.0
 77
     0
 78
     2
 47
0.0208333333333333
 47
0.0
 47
0.0
 47
0.0
 47
0.0
 47
0.0208333333333333
 47
0.0
 47
0.0
 47
0.0
 47
0.0
 47
1.0
 47
0.0
 47
0.0
 47
0.0
 47
0.0
 47
1.0
171
     0
172
     2
 49
0.0208333333333333
 49
0.0
 49
0.0
 49
0.0
 49
0.0
 49
0.0208333333333333
 49
0.0
 49
0.0
 49
0.0
 49
0.0
 49
1.0
 49
0.0
 49
0.0
 49
0.0
 49
0.0
 49
1.0
175
     0
176
     2
142
0.0208333333333333
142
0.0
142
0.0
142
0.0
142
0.0
142
0.0208333333333333
142
0.0
142
0.0
142
0.0
142
0.0
142
1.0
142
0.0
142
0.0
142
0.0
142
0.0
142
1.0
179
     0
270
     2
144
0.0208333333333333
144
0.0
144
0.0
144
0.0
144
0.0
144
0.0208333333333333
144
0.0
144
0.0
144
0.0
144
0.0
144
1.0
144
0.0
144
0.0
144
0.0
144
0.0
144
1.0
274
     2
147
0.0208333333333333
147
0.0
147
0.0
147
0.0
147
0.0
147
0.0208333333333333
147
0.0
147
0.0
147
0.0
147
0.0
147
1.0
147
0.0
147
0.0
147
0.0
147
0.0
147
1.0
1001
ACAD
1070
    -1
1070
     3
1070
     0
1000

1071
        0
  0
MLEADERSTYLE
  5
4B0
102
{ACAD_REACTORS
330
442
102
}
102
{ACAD_XDICTIONARY
360
4F9
102
}
330
442
100
AcDbMLeaderStyle
170
     2
171
     1
172
     0
 90
        2
 40
0.0
 41
0.0
173
     1
 91
-1056964608
340
11
 92
       -2
290
     1
 42
0.09
291
     1
 43
0.36
  3
Standard
341
0
 44
0.18
300

342
12
174
     1
178
     6
175
     1
176
     0
 93
-1056964608
 45
0.18
292
     0
297
     0
 46
0.18
343
0
 94
-1056964608
 47
1.0
 49
1.0
140
1.0
293
     1
141
0.0
294
     1
177
     0
142
1.0
295
     0
296
     0
143
0.125
1001
ACAD_MLEADERVER
1070
     2
  0
MLINESTYLE
  5
18
102
{ACAD_REACTORS
330
19
102
}
330
19
100
AcDbMlineStyle
  2
STANDARD
 70
     0
  3

 62
     0
 51
90.0
 52
90.0
 71
     2
 49
0.5
 62
   256
  6
BYLAYER
 49
-0.5
 62
   256
  6
BYLAYER
  0
ACDBPLACEHOLDER
  5
7
102
{ACAD_REACTORS
330
8
102
}
330
8
  0
SCALE
  5
57
102
{ACAD_REACTORS
330
35
102
}
330
35
100
AcDbScale
 70
     0
300
1:1
140
1.0
141
1.0
290
     1
  0
TABLESTYLE
  5
4B8
102
{ACAD_REACTORS
330
441
102
}
330
441
100
AcDbTableStyle
  3
Standard
 70
     0
 71
     0
 40
0.06
 41
0.06
280
     0
281
     0
  7
STANDARD
140
0.18
170
     2
 62
     0
 63
   257
283
     0
274
    -2
284
     1
 64
     0
275
    -2
285
     1
 65
     0
276
    -2
286
     1
 66
     0
277
    -2
287
     1
 67
     0
278
    -2
288
     1
 68
     0
279
    -2
289
     1
 69
     0
  7
STANDARD
140
0.25
170
     5
 62
     0
 63
   257
283
     0
274
    -2
284
     1
 64
     0
275
    -2
285
     1
 65
     0
276
    -2
286
     1
 66
     0
277
    -2
287
     1
 67
     0
278
    -2
288
     1
 68
     0
279
    -2
289
     1
 69
     0
  7
STANDARD
140
0.18
170
     5
 62
     0
 63
   257
283
     0
274
    -2
284
     1
 64
     0
275
    -2
285
     1
 65
     0
276
    -2
286
     1
 66
     0
277
    -2
287
     1
 67
     0
278
    -2
288
     1
 68
     0
279
    -2
289
     1
 69
     0
  0
VISUALSTYLE
  5
44A
102
{ACAD_REACTORS
330
31
102
}
102
{ACAD_XDICTIONARY
360
4D1
102
}
330
31
100
AcDbVisualStyle
  2
2dWireframe
 70
     4
 71
     0
 72
     2
 73
     0
 90
        0
 40
0.6
 41
30.0
 62
     5
 63
     7
 74
     1
 91
        4
 64
     7
 65
   257
 75
     1
175
     1
 42
1.0
 92
        0
 66
   257
 43
1.0
 76
     1
 77
     6
 78
     2
 67
     7
 79
     5
170
     0
171
     0
290
     0
174
     0
 93
        1
 44
0.0
173
     0
291
     0
 45
0.0
1001
ACAD
1000
AcDbSavedByObjectVersion
1070
     0
  0
VISUALSTYLE
  5
44D
102
{ACAD_REACTORS
330
31
102
}
102
{ACAD_XDICTIONARY
360
4D7
102
}
330
31
100
AcDbVisualStyle
  2
Basic
 70
     7
 71
     1
 72
     0
 73
     1
 90
        0
 40
0.6
 41
30.0
 62
     5
 63
     7
 74
     0
 91
        4
 64
     7
 65
   257
 75
     1
175
     1
 42
1.0
 92
        8
 66
     7
 43
1.0
 76
     1
 77
     6
 78
     2
 67
     7
 79
     5
170
     0
171
     0
290
     0
174
     0
 93
        1
 44
0.0
173
     0
291
     1
 45
0.0
1001
ACAD
1000
AcDbSavedByObjectVersion
1070
     0
  0
VISUALSTYLE
  5
451
102
{ACAD_REACTORS
330
31
102
}
102
{ACAD_XDICTIONARY
360
4DF
102
}
330
31
100
AcDbVisualStyle
  2
Brighten
 70
    12
 71
     2
 72
     2
 73
     0
 90
        0
 40
0.6
 41
30.0
 62
     5
 63
     7
 74
     1
 91
        4
 64
     7
 65
   257
 75
     1
175
     1
 42
1.0
 92
        8
 66
     7
 43
1.0
 76
     1
 77
     6
 78
     2
 67
     7
 79
     5
170
     0
171
     0
290
     0
174
     0
 93
        1
 44
50.0
173
     0
291
     1
 45
0.0
1001
ACAD
1000
AcDbSavedByObjectVersion
1070
     0
  0
VISUALSTYLE
  5
455
102
{ACAD_REACTORS
330
31
102
}
102
{ACAD_XDICTIONARY
360
4E7
102
}
330
31
100
AcDbVisualStyle
  2
ColorChange
 70
    16
 71
     2
 72
     2
 73
     3
 90
        0
 40
0.6
 41
30.0
 62
     5
 63
     8
 74
     1
 91
        4
 64
     7
 65
   257
 75
     1
175
     1
 42
1.0
 92
        8
 66
     8
 43
1.0
 76
     1
 77
     6
 78
     2
 67
     7
 79
     5
170
     0
171
     0
290
     0
174
     0
 93
        1
 44
0.0
173
     0
291
     1
 45
0.0
1001
ACAD
1000
AcDbSavedByObjectVersion
1070
     0
  0
VISUALSTYLE
  5
44F
102
{ACAD_REACTORS
330
31
102
}
102
{ACAD_XDICTIONARY
360
4DB
102
}
330
31
100
AcDbVisualStyle
  2
Conceptual
 70
     9
 71
     3
 72
     2
 73
     0
 90
        0
 40
0.6
 41
30.0
 62
     5
 63
     7
 74
     2
 91
        2
 64
     7
 65
   257
 75
     1
175
     1
 42
40.0
 92
        8
 66
     7
 43
1.0
 76
     1
 77
     6
 78
     2
 67
     7
 79
     3
170
     0
171
     0
290
     0
174
     0
 93
        1
 44
0.0
173
     0
291
     0
 45
0.0
1001
ACAD
1000
AcDbSavedByObjectVersion
1070
     0
  0
VISUALSTYLE
  5
450
102
{ACAD_REACTORS
330
31
102
}
102
{ACAD_XDICTIONARY
360
4DD
102
}
330
31
100
AcDbVisualStyle
  2
Dim
 70
    11
 71
     2
 72
     2
 73
     0
 90
        0
 40
0.6
 41
30.0
 62
     5
 63
     7
 74
     1
 91
        4
 64
     7
 65
   257
 75
     1
175
     1
 42
1.0
 92
        8
 66
     7
 43
1.0
 76
     1
 77
     6
 78
     2
 67
     7
 79
     5
170
     0
171
     0
290
     0
174
     0
 93
        1
 44
-50.0
173
     0
291
     1
 45
0.0
1001
ACAD
1000
AcDbSavedByObjectVersion
1070
     0
  0
VISUALSTYLE
  5
458
102
{ACAD_REACTORS
330
31
102
}
102
{ACAD_XDICTIONARY
360
4ED
102
}
330
31
100
AcDbVisualStyle
  2
EdgeColorOff
 70
    22
 71
     2
 72
     2
 73
     0
 90
        0
 40
0.6
 41
30.0
 62
     5
 63
     7
 74
     1
 91
        4
 64
     7
 65
   257
 75
     1
175
     1
 42
1.0
 92
        8
 66
     7
 43
1.0
 76
     1
 77
     6
 78
     2
 67
     7
 79
     5
170
     0
171
     0
290
     0
174
     0
 93
        1
 44
0.0
173
     0
291
     1
 45
0.0
1001
ACAD
1000
AcDbSavedByObjectVersion
1070
     0
  0
VISUALSTYLE
  5
454
102
{ACAD_REACTORS
330
31
102
}
102
{ACAD_XDICTIONARY
360
4E5
102
}
330
31
100
AcDbVisualStyle
  2
Facepattern
 70
    15
 71
     2
 72
     2
 73
     0
 90
        0
 40
0.6
 41
30.0
 62
     5
 63
     7
 74
     1
 91
        4
 64
     7
 65
   257
 75
     1
175
     1
 42
1.0
 92
        8
 66
     7
 43
1.0
 76
     1
 77
     6
 78
     2
 67
     7
 79
     5
170
     0
171
     0
290
     0
174
     0
 93
        1
 44
0.0
173
     0
291
     1
 45
0.0
1001
ACAD
1000
AcDbSavedByObjectVersion
1070
     0
  0
VISUALSTYLE
  5
446
102
{ACAD_REACTORS
330
31
102
}
102
{ACAD_XDICTIONARY
360
4C9
102
}
330
31
100
AcDbVisualStyle
  2
Flat
 70
     0
 71
     2
 72
     1
 73
     1
 90
        2
 40
0.6
 41
30.0
 62
     5
 63
     7
 74
     0
 91
        4
 64
     7
 65
   257
 75
     1
175
     1
 42
1.0
 92
        8
 66
     7
 43
1.0
 76
     1
 77
     6
 78
     2
 67
     7
 79
     5
170
     0
171
     0
290
     0
174
     0
 93
       13
 44
0.0
173
     0
291
     1
 45
0.0
1001
ACAD
1000
AcDbSavedByObjectVersion
1070
     0
  0
VISUALSTYLE
  5
447
102
{ACAD_REACTORS
330
31
102
}
102
{ACAD_XDICTIONARY
360
4CB
102
}
330
31
100
AcDbVisualStyle
  2
FlatWithEdges
 70
     1
 71
     2
 72
     1
 73
     1
 90
        2
 40
0.6
 41
30.0
 62
     5
 63
     7
 74
     1
 91
        4
 64
     7
 65
   257
 75
     1
175
     1
 42
1.0
 92
        0
 66
   257
 43
1.0
 76
     1
 77
     6
 78
     2
 67
     7
 79
     5
170
     0
171
     0
290
     0
174
     0
 93
       13
 44
0.0
173
     0
291
     1
 45
0.0
1001
ACAD
1000
AcDbSavedByObjectVersion
1070
     0
  0
VISUALSTYLE
  5
448
102
{ACAD_REACTORS
330
31
102
}
102
{ACAD_XDICTIONARY
360
4CD
102
}
330
31
100
AcDbVisualStyle
  2
Gouraud
 70
     2
 71
     2
 72
     2
 73
     1
 90
        2
 40
0.6
 41
30.0
 62
     5
 63
     7
 74
     0
 91
        4
 64
     7
 65
   257
 75
     1
175
     1
 42
1.0
 92
        0
 66
     7
 43
1.0
 76
     1
 77
     6
 78
     2
 67
     7
 79
     5
170
     0
171
     0
290
     0
174
     0
 93
       13
 44
0.0
173
     0
291
     1
 45
0.0
1001
ACAD
1000
AcDbSavedByObjectVersion
1070
     0
  0
VISUALSTYLE
  5
449
102
{ACAD_REACTORS
330
31
102
}
102
{ACAD_XDICTIONARY
360
4CF
102
}
330
31
100
AcDbVisualStyle
  2
GouraudWithEdges
 70
     3
 71
     2
 72
     2
 73
     1
 90
        2
 40
0.6
 41
30.0
 62
     5
 63
     7
 74
     1
 91
        4
 64
     7
 65
   257
 75
     1
175
     1
 42
1.0
 92
        0
 66
   257
 43
1.0
 76
     1
 77
     6
 78
     2
 67
     7
 79
     5
170
     0
171
     0
290
     0
174
     0
 93
       13
 44
0.0
173
     0
291
     1
 45
0.0
1001
ACAD
1000
AcDbSavedByObjectVersion
1070
     0
  0
VISUALSTYLE
  5
44C
102
{ACAD_REACTORS
330
31
102
}
102
{ACAD_XDICTIONARY
360
4D5
102
}
330
31
100
AcDbVisualStyle
  2
Hidden
 70
     6
 71
     1
 72
     2
 73
     2
 90
        0
 40
0.6
 41
30.0
 62
     5
 63
     7
 74
     2
 91
        2
 64
     7
 65
   257
 75
     2
175
     1
 42
40.0
 92
        0
 66
   257
 43
1.0
 76
     1
 77
     6
 78
     2
 67
     7
 79
     3
170
     0
171
     0
290
     0
174
     0
 93
        1
 44
0.0
173
     0
291
     0
 45
0.0
1001
ACAD
1000
AcDbSavedByObjectVersion
1070
     0
  0
VISUALSTYLE
  5
456
102
{ACAD_REACTORS
330
31
102
}
102
{ACAD_XDICTIONARY
360
4E9
102
}
330
31
100
AcDbVisualStyle
  2
JitterOff
 70
    20
 71
     2
 72
     2
 73
     0
 90
        0
 40
0.6
 41
30.0
 62
     5
 63
     7
 74
     1
 91
        4
 64
     7
 65
   257
 75
     1
175
     1
 42
1.0
 92
       10
 66
     7
 43
1.0
 76
     1
 77
     6
 78
     2
 67
     7
 79
     5
170
     0
171
     0
290
     0
174
     0
 93
        1
 44
0.0
173
     0
291
     1
 45
0.0
1001
ACAD
1000
AcDbSavedByObjectVersion
1070
     0
  0
VISUALSTYLE
  5
453
102
{ACAD_REACTORS
330
31
102
}
102
{ACAD_XDICTIONARY
360
4E3
102
}
330
31
100
AcDbVisualStyle
  2
Linepattern
 70
    14
 71
     2
 72
     2
 73
     0
 90
        0
 40
0.6
 41
30.0
 62
     5
 63
     7
 74
     1
 91
        4
 64
     7
 65
   257
 75
     7
175
     7
 42
1.0
 92
        8
 66
     7
 43
1.0
 76
     1
 77
     6
 78
     2
 67
     7
 79
     5
170
     0
171
     0
290
     0
174
     0
 93
        1
 44
0.0
173
     0
291
     1
 45
0.0
1001
ACAD
1000
AcDbSavedByObjectVersion
1070
     0
  0
VISUALSTYLE
  5
457
102
{ACAD_REACTORS
330
31
102
}
102
{ACAD_XDICTIONARY
360
4EB
102
}
330
31
100
AcDbVisualStyle
  2
OverhangOff
 70
    21
 71
     2
 72
     2
 73
     0
 90
        0
 40
0.6
 41
30.0
 62
     5
 63
     7
 74
     1
 91
        4
 64
     7
 65
   257
 75
     1
175
     1
 42
1.0
 92
        9
 66
     7
 43
1.0
 76
     1
 77
     6
 78
     2
 67
     7
 79
     5
170
     0
171
     0
290
     0
174
     0
 93
        1
 44
0.0
173
     0
291
     1
 45
0.0
1001
ACAD
1000
AcDbSavedByObjectVersion
1070
     0
  0
VISUALSTYLE
  5
44E
102
{ACAD_REACTORS
330
31
102
}
102
{ACAD_XDICTIONARY
360
4D9
102
}
330
31
100
AcDbVisualStyle
  2
Realistic
 70
     8
 71
     2
 72
     3
 73
     0
 90
        2
 40
0.6
 41
30.0
 62
     5
 63
     7
 74
     0
 91
        0
 64
     7
 65
   257
 75
     1
175
     1
 42
1.0
 92
        8
 66
   257
 43
1.0
 76
     1
 77
     6
 78
     2
 67
     7
 79
     3
170
     0
171
     0
290
     0
174
     0
 93
       13
 44
0.0
173
     0
291
     0
 45
0.0
1001
ACAD
1000
AcDbSavedByObjectVersion
1070
     0
  0
VISUALSTYLE
  5
45D
102
{ACAD_REACTORS
330
31
102
}
102
{ACAD_XDICTIONARY
360
4F7
102
}
330
31
100
AcDbVisualStyle
  2
Shaded
 70
    27
 71
     2
 72
     2
 73
     1
 90
        2
 40
0.6
 41
30.0
 62
     5
 63
     7
 74
     0
 91
        4
 64
     7
 65
   257
 75
     1
175
     1
 42
1.0
 92
        8
 66
   257
 43
1.0
 76
     1
 77
     6
 78
     2
 67
   251
 79
     3
170
     0
171
     0
290
     0
174
     0
 93
        5
 44
0.0
173
     0
291
     0
 45
0.0
1001
ACAD
1000
AcDbSavedByObjectVersion
1070
     0
  0
VISUALSTYLE
  5
45C
102
{ACAD_REACTORS
330
31
102
}
102
{ACAD_XDICTIONARY
360
4F5
102
}
330
31
100
AcDbVisualStyle
  2
Shaded with edges
 70
    26
 71
     2
 72
     2
 73
     1
 90
        2
 40
0.6
 41
30.0
 62
     5
 63
     7
 74
     1
 91
       10
 64
     7
 65
   257
 75
     2
175
     1
 42
1.0
 92
        8
 66
   257
 43
1.0
 76
     1
 77
     6
 78
     2
 67
     7
 79
     3
170
     0
171
     0
290
     0
174
     0
 93
        5
 44
0.0
173
     0
291
     0
 45
0.0
1001
ACAD
1000
AcDbSavedByObjectVersion
1070
     0
  0
VISUALSTYLE
  5
459
102
{ACAD_REACTORS
330
31
102
}
102
{ACAD_XDICTIONARY
360
4EF
102
}
330
31
100
AcDbVisualStyle
  2
Shades of Gray
 70
    23
 71
     2
 72
     2
 73
     3
 90
        0
 40
0.6
 41
30.0
 62
     5
 63
     7
 74
     2
 91
        2
 64
     7
 65
     7
 75
     1
175
     1
 42
40.0
 92
        8
 66
     7
 43
1.0
 76
     1
 77
     6
 78
     2
 67
     7
 79
     3
170
     0
171
     0
290
     0
174
     0
 93
        1
 44
0.0
173
     0
291
     0
 45
0.0
1001
ACAD
1000
AcDbSavedByObjectVersion
1070
     0
  0
VISUALSTYLE
  5
45A
102
{ACAD_REACTORS
330
31
102
}
102
{ACAD_XDICTIONARY
360
4F1
102
}
330
31
100
AcDbVisualStyle
  2
Sketchy
 70
    24
 71
     1
 72
     2
 73
     2
 90
        0
 40
0.6
 41
30.0
 62
     5
 63
     7
 74
     2
 91
        2
 64
     7
 65
     7
 75
     1
175
     1
 42
40.0
 92
       11
 66
     7
 43
1.0
 76
     1
 77
     6
 78
     2
 67
     7
 79
     6
170
     0
171
     0
290
     0
174
     0
 93
        1
 44
0.0
173
     0
291
     0
 45
0.0
1001
ACAD
1000
AcDbSavedByObjectVersion
1070
     0
  0
VISUALSTYLE
  5
452
102
{ACAD_REACTORS
330
31
102
}
102
{ACAD_XDICTIONARY
360
4E1
102
}
330
31
100
AcDbVisualStyle
  2
Thicken
 70
    13
 71
     2
 72
     2
 73
     0
 90
        0
 40
0.6
 41
30.0
 62
     5
 63
     7
 74
     1
 91
        4
 64
     7
 65
   257
 75
     1
175
     1
 42
1.0
 92
       12
 66
     7
 43
1.0
 76
     1
 77
     6
 78
     2
 67
     7
 79
     5
170
     0
171
     0
290
     0
174
     0
 93
        1
 44
0.0
173
     0
291
     1
 45
0.0
1001
ACAD
1000
AcDbSavedByObjectVersion
1070
     0
  0
VISUALSTYLE
  5
44B
102
{ACAD_REACTORS
330
31
102
}
102
{ACAD_XDICTIONARY
360
4D3
102
}
330
31
100
AcDbVisualStyle
  2
Wireframe
 70
     5
 71
     0
 72
     2
 73
     0
 90
        0
 40
0.6
 41
30.0
 62
     5
 63
     7
 74
     1
 91
        4
 64
     7
 65
   257
 75
     1
175
     1
 42
1.0
 92
        0
 66
   257
 43
1.0
 76
     1
 77
     6
 78
     2
 67
     7
 79
     5
170
     0
171
     0
290
     0
174
     0
 93
        1
 44
0.0
173
     0
291
     0
 45
0.0
1001
ACAD
1000
AcDbSavedByObjectVersion
1070
     0
  0
VISUALSTYLE
  5
45B
102
{ACAD_REACTORS
330
31
102
}
102
{ACAD_XDICTIONARY
360
4F3
102
}
330
31
100
AcDbVisualStyle
  2
X-Ray
 70
    25
 71
     2
 72
     2
 73
     1
 90
        1
 40
0.5
 41
30.0
 62
     5
 63
     7
 74
     1
 91
        0
 64
     7
 65
   257
 75
     1
175
     1
 42
1.0
 92
        8
 66
     7
 43
1.0
 76
     1
 77
     6
 78
     2
 67
     7
 79
     3
170
     0
171
     0
290
     0
174
     0
 93
       13
 44
0.0
173
     0
291
     0
 45
0.0
1001
ACAD
1000
AcDbSavedByObjectVersion
1070
     0
  0
XRECORD
  5
4BD
102
{ACAD_REACTORS
330
4BC
102
}
330
4BC
100
AcDbXrecord
280
     1
340
30
  0
XRECORD
  5
4BE
102
{ACAD_REACTORS
330
4BC
102
}
330
4BC
100
AcDbXrecord
280
     1
340
B
  0
DICTIONARYVAR
  5
440
102
{ACAD_REACTORS
330
43F
102
}
330
43F
100
DictionaryVariables
280
     0
  1
1:1
  0
DICTIONARYVAR
  5
4B3
102
{ACAD_REACTORS
330
43F
102
}
330
43F
100
DictionaryVariables
280
     0
  1
Standard
  0
DICTIONARYVAR
  5
4B9
102
{ACAD_REACTORS
330
43F
102
}
330
43F
100
DictionaryVariables
280
     0
  1
Standard
  0
DICTIONARYVAR
  5
4BA
102
{ACAD_REACTORS
330
43F
102
}
330
43F
100
DictionaryVariables
280
     0
  1
0
  0
DICTIONARYVAR
  5
4BB
102
{ACAD_REACTORS
330
43F
102
}
330
43F
100
DictionaryVariables
280
     0
  1
1
  0
DICTIONARYVAR
  5
4C2
102
{ACAD_REACTORS
330
43F
102
}
330
43F
100
DictionaryVariables
280
     0
  1
1
  0
DICTIONARYVAR
  5
443
102
{ACAD_REACTORS
330
43F
102
}
330
43F
100
DictionaryVariables
280
     0
  1
0
  0
DICTIONARY
  5
25
330
23
100
AcDbDictionary
280
     1
281
     1
  0
DICTIONARY
  5
4C7
330
58
100
AcDbDictionary
280
     1
281
     1
  3
ACAD_XREC_ROUNDTRIP
360
4C8
  0
DICTIONARY
  5
4C3
330
14
100
AcDbDictionary
280
     1
281
     1
  3
ACAD_XREC_ROUNDTRIP
360
4C4
  0
DICTIONARY
  5
4C5
330
A
100
AcDbDictionary
280
     1
281
     1
  3
ACAD_XREC_ROUNDTRIP
360
4C6
  0
DICTIONARY
  5
4F9
330
4B0
100
AcDbDictionary
280
     1
281
     1
  3
ACAD_XREC_ROUNDTRIP
360
4FA
  0
DICTIONARY
  5
4D1
330
44A
100
AcDbDictionary
280
     1
281
     1
  3
ACAD_XREC_ROUNDTRIP
360
4D2
  0
DICTIONARY
  5
4D7
330
44D
100
AcDbDictionary
280
     1
281
     1
  3
ACAD_XREC_ROUNDTRIP
360
4D8
  0
DICTIONARY
  5
4DF
330
451
100
AcDbDictionary
280
     1
281
     1
  3
ACAD_XREC_ROUNDTRIP
360
4E0
  0
DICTIONARY
  5
4E7
330
455
100
AcDbDictionary
280
     1
281
     1
  3
ACAD_XREC_ROUNDTRIP
360
4E8
  0
DICTIONARY
  5
4DB
330
44F
100
AcDbDictionary
280
     1
281
     1
  3
ACAD_XREC_ROUNDTRIP
360
4DC
  0
DICTIONARY
  5
4DD
330
450
100
AcDbDictionary
280
     1
281
     1
  3
ACAD_XREC_ROUNDTRIP
360
4DE
  0
DICTIONARY
  5
4ED
330
458
100
AcDbDictionary
280
     1
281
     1
  3
ACAD_XREC_ROUNDTRIP
360
4EE
  0
DICTIONARY
  5
4E5
330
454
100
AcDbDictionary
280
     1
281
     1
  3
ACAD_XREC_ROUNDTRIP
360
4E6
  0
DICTIONARY
  5
4C9
330
446
100
AcDbDictionary
280
     1
281
     1
  3
ACAD_XREC_ROUNDTRIP
360
4CA
  0
DICTIONARY
  5
4CB
330
447
100
AcDbDictionary
280
     1
281
     1
  3
ACAD_XREC_ROUNDTRIP
360
4CC
  0
DICTIONARY
  5
4CD
330
448
100
AcDbDictionary
280
     1
281
     1
  3
ACAD_XREC_ROUNDTRIP
360
4CE
  0
DICTIONARY
  5
4CF
330
449
100
AcDbDictionary
280
     1
281
     1
  3
ACAD_XREC_ROUNDTRIP
360
4D0
  0
DICTIONARY
  5
4D5
330
44C
100
AcDbDictionary
280
     1
281
     1
  3
ACAD_XREC_ROUNDTRIP
360
4D6
  0
DICTIONARY
  5
4E9
330
456
100
AcDbDictionary
280
     1
281
     1
  3
ACAD_XREC_ROUNDTRIP
360
4EA
  0
DICTIONARY
  5
4E3
330
453
100
AcDbDictionary
280
     1
281
     1
  3
ACAD_XREC_ROUNDTRIP
360
4E4
  0
DICTIONARY
  5
4EB
330
457
100
AcDbDictionary
280
     1
281
     1
  3
ACAD_XREC_ROUNDTRIP
360
4EC
  0
DICTIONARY
  5
4D9
330
44E
100
AcDbDictionary
280
     1
281
     1
  3
ACAD_XREC_ROUNDTRIP
360
4DA
  0
DICTIONARY
  5
4F7
330
45D
100
AcDbDictionary
280
     1
281
     1
  3
ACAD_XREC_ROUNDTRIP
360
4F8
  0
DICTIONARY
  5
4F5
330
45C
100
AcDbDictionary
280
     1
281
     1
  3
ACAD_XREC_ROUNDTRIP
360
4F6
  0
DICTIONARY
  5
4EF
330
459
100
AcDbDictionary
280
     1
281
     1
  3
ACAD_XREC_ROUNDTRIP
360
4F0
  0
DICTIONARY
  5
4F1
330
45A
100
AcDbDictionary
280
     1
281
     1
  3
ACAD_XREC_ROUNDTRIP
360
4F2
  0
DICTIONARY
  5
4E1
330
452
100
AcDbDictionary
280
     1
281
     1
  3
ACAD_XREC_ROUNDTRIP
360
4E2
  0
DICTIONARY
  5
4D3
330
44B
100
AcDbDictionary
280
     1
281
     1
  3
ACAD_XREC_ROUNDTRIP
360
4D4
  0
DICTIONARY
  5
4F3
330
45B
100
AcDbDictionary
280
     1
281
     1
  3
ACAD_XREC_ROUNDTRIP
360
4F4
  0
XRECORD
  5
4C8
102
{ACAD_REACTORS
330
4C7
102
}
330
4C7
100
AcDbXrecord
280
     1
102
MATERIAL
148
0.0
149
0.0
149
0.0
 93
        0
 94
      127
282
     0
 72
     0
 77
     0
171
     0
175
     0
179
     0
273
     0
  0
XRECORD
  5
4C4
102
{ACAD_REACTORS
330
4C3
102
}
330
4C3
100
AcDbXrecord
280
     1
102
MATERIAL
148
0.0
149
0.0
149
0.0
 93
        0
 94
      127
282
     0
 72
     0
 77
     0
171
     0
175
     0
179
     0
273
     0
  0
XRECORD
  5
4C6
102
{ACAD_REACTORS
330
4C5
102
}
330
4C5
100
AcDbXrecord
280
     1
102
MATERIAL
148
0.0
149
0.0
149
0.0
 93
        0
 94
      127
282
     0
 72
     0
 77
     0
171
     0
175
     0
179
     0
273
     0
  0
XRECORD
  5
4FA
102
{ACAD_REACTORS
330
4F9
102
}
330
4F9
100
AcDbXrecord
280
     1
102
ACAD_ROUNDTRIP_2010_MLEADER_STYLE
  0
XRECORD
  5
4D2
102
{ACAD_REACTORS
330
4D1
102
}
330
4D1
100
AcDbXrecord
280
     1
102
RTVSPropertyOp0
 70
     1
102
RTVSPropertyOp1
 70
     1
102
RTVSPropertyOp2
 70
     1
102
RTVSPropertyOp3
 70
     1
102
RTVSPropertyOp4
 70
     1
102
RTVSPropertyOp5
 70
     1
102
RTVSPropertyOp6
 70
     1
102
RTVSPropertyOp7
 70
     1
102
RTVSPropertyOp8
 70
     1
102
RTVSPropertyOp9
 70
     1
102
RTVSPropertyOp10
 70
     1
102
RTVSPropertyOp11
 70
     1
102
RTVSPropertyOp12
 70
     1
102
RTVSPropertyOp13
 70
     1
102
RTVSPropertyOp14
 70
     1
102
RTVSPropertyOp15
 70
     1
102
RTVSPropertyOp16
 70
     1
102
RTVSPropertyOp17
 70
     1
102
RTVSPropertyOp18
 70
     1
102
RTVSPropertyOp19
 70
     1
102
RTVSPropertyOp20
 70
     1
102
RTVSPropertyOp21
 70
     1
102
RTVSPropertyOp22
 70
     1
102
RTVSPropertyOp23
 70
     1
102
RTVSPropertyOp24
 70
     1
102
RTVSPropertyOp25
 70
     1
102
RTVSPropertyOp26
 70
     1
102
RTVSPropertyOp27
 70
     1
102
RTVSPropertyOp28
 70
     1
102
RTVSPropertyOp29
 70
     1
102
RTVSPropertyOp30
 70
     1
102
RTVSPropertyOp31
 70
     1
102
RTVSPropertyOp32
 70
     1
102
RTVSPropertyOp33
 70
     1
102
RTVSPropertyOp34
 70
     1
102
RTVSPropertyOp35
 70
     1
102
RTVSPropertyOp36
 70
     1
102
RTVSPropertyOp37
 70
     1
102
RTVSPropertyOp38
 70
     1
102
RTVSPropertyOp39
 70
     1
102
RTVSPropertyOp40
 70
     1
102
RTVSPropertyOp41
 70
     1
102
RTVSPropertyOp42
 70
     1
102
RTVSPropertyOp43
 70
     1
102
RTVSPropertyOp44
 70
     1
102
RTVSPropertyOp45
 70
     1
102
RTVSPropertyOp46
 70
     1
102
RTVSPropertyOp47
 70
     1
102
RTVSPropertyOp48
 70
     1
102
RTVSPropertyOp49
 70
     1
102
RTVSPropertyOp50
 70
     1
102
RTVSPropertyOp51
 70
     0
102
RTVSPropertyOp52
 70
     0
102
RTVSPropertyOp53
 70
     1
102
RTVSPropertyOp54
 70
     1
102
RTVSPropertyOp55
 70
     1
102
RTVSPropertyOp56
 70
     1
102
RTVSPropertyOp57
 70
     1
102
RTVSPost2010Prop28
280
     1
102
RTVSPost2010PropOp28
 70
     1
102
RTVSPost2010Prop29
280
     1
102
RTVSPost2010PropOp29
 70
     1
102
RTVSPost2010Prop30
280
     0
102
RTVSPost2010PropOp30
 70
     1
102
RTVSPost2010Prop31
280
     0
102
RTVSPost2010PropOp31
 70
     1
102
RTVSPost2010Prop32
280
     0
102
RTVSPost2010PropOp32
 70
     1
102
RTVSPost2010Prop33
280
     0
102
RTVSPost2010PropOp33
 70
     1
102
RTVSPost2010Prop34
280
     0
102
RTVSPost2010PropOp34
 70
     1
102
RTVSPost2010Prop35
280
     0
102
RTVSPost2010PropOp35
 70
     1
102
RTVSPost2010Prop36
280
     0
102
RTVSPost2010PropOp36
 70
     1
102
RTVSPost2010Prop37
 90
       50
102
RTVSPost2010PropOp37
 70
     1
102
RTVSPost2010Prop38
140
0.0
102
RTVSPost2010PropOp38
 70
     1
102
RTVSPost2010Prop39
140
1.0
102
RTVSPost2010PropOp39
 70
     1
102
RTVSPost2010Prop40
 90
        0
102
RTVSPost2010PropOp40
 70
     1
102
RTVSPost2010Prop41ColorIndex
 90
       18
102
RTVSPost2010Prop41ColorRGB
 90
        0
102
RTVSPost2010PropOp41
 70
     1
102
RTVSPost2010Prop42
 90
       50
102
RTVSPost2010PropOp42
 70
     1
102
RTVSPost2010Prop43
 90
        3
102
RTVSPost2010PropOp43
 70
     1
102
RTVSPost2010Prop44ColorIndex
 90
        5
102
RTVSPost2010Prop44ColorRGB
 90
      255
102
RTVSPost2010PropOp44
 70
     1
102
RTVSPost2010Prop45
280
     0
102
RTVSPost2010PropOp45
 70
     1
102
RTVSPost2010Prop46
 90
       50
102
RTVSPost2010PropOp46
 70
     1
102
RTVSPost2010Prop47
 90
       50
102
RTVSPost2010PropOp47
 70
     1
102
RTVSPost2010Prop48
 90
       50
102
RTVSPost2010PropOp48
 70
     1
102
RTVSPost2010Prop49
280
     0
102
RTVSPost2010PropOp49
 70
     1
102
RTVSPost2010Prop50
 90
       50
102
RTVSPost2010PropOp50
 70
     1
102
RTVSPost2010Prop51ColorIndex
 90
      256
102
RTVSPost2010Prop51ColorRGB
 90
-16777216
102
RTVSPost2010PropOp51
 70
     0
102
RTVSPost2010Prop52
140
1.0
102
RTVSPost2010PropOp52
 70
     0
102
RTVSPost2010Prop53
 90
        2
102
RTVSPost2010PropOp53
 70
     1
102
RTVSPost2010Prop54
  1
strokes_ogs.tif
102
RTVSPost2010PropOp54
 70
     1
102
RTVSPost2010Prop55
280
     0
102
RTVSPost2010PropOp55
 70
     1
102
RTVSPost2010Prop56
140
1.0
102
RTVSPost2010PropOp56
 70
     1
102
RTVSPost2010Prop57
140
1.0
102
RTVSPost2010PropOp57
 70
     1
  0
XRECORD
  5
4D8
102
{ACAD_REACTORS
330
4D7
102
}
330
4D7
100
AcDbXrecord
280
     1
102
RTVSPropertyOp0
 70
     1
102
RTVSPropertyOp1
 70
     1
102
RTVSPropertyOp2
 70
     1
102
RTVSPropertyOp3
 70
     1
102
RTVSPropertyOp4
 70
     1
102
RTVSPropertyOp5
 70
     1
102
RTVSPropertyOp6
 70
     1
102
RTVSPropertyOp7
 70
     1
102
RTVSPropertyOp8
 70
     1
102
RTVSPropertyOp9
 70
     1
102
RTVSPropertyOp10
 70
     1
102
RTVSPropertyOp11
 70
     1
102
RTVSPropertyOp12
 70
     1
102
RTVSPropertyOp13
 70
     1
102
RTVSPropertyOp14
 70
     1
102
RTVSPropertyOp15
 70
     1
102
RTVSPropertyOp16
 70
     1
102
RTVSPropertyOp17
 70
     1
102
RTVSPropertyOp18
 70
     1
102
RTVSPropertyOp19
 70
     1
102
RTVSPropertyOp20
 70
     1
102
RTVSPropertyOp21
 70
     1
102
RTVSPropertyOp22
 70
     1
102
RTVSPropertyOp23
 70
     1
102
RTVSPropertyOp24
 70
     1
102
RTVSPropertyOp25
 70
     1
102
RTVSPropertyOp26
 70
     1
102
RTVSPropertyOp27
 70
     1
102
RTVSPropertyOp28
 70
     1
102
RTVSPropertyOp29
 70
     1
102
RTVSPropertyOp30
 70
     1
102
RTVSPropertyOp31
 70
     1
102
RTVSPropertyOp32
 70
     1
102
RTVSPropertyOp33
 70
     1
102
RTVSPropertyOp34
 70
     1
102
RTVSPropertyOp35
 70
     1
102
RTVSPropertyOp36
 70
     1
102
RTVSPropertyOp37
 70
     1
102
RTVSPropertyOp38
 70
     1
102
RTVSPropertyOp39
 70
     1
102
RTVSPropertyOp40
 70
     1
102
RTVSPropertyOp41
 70
     1
102
RTVSPropertyOp42
 70
     1
102
RTVSPropertyOp43
 70
     1
102
RTVSPropertyOp44
 70
     1
102
RTVSPropertyOp45
 70
     1
102
RTVSPropertyOp46
 70
     1
102
RTVSPropertyOp47
 70
     1
102
RTVSPropertyOp48
 70
     1
102
RTVSPropertyOp49
 70
     1
102
RTVSPropertyOp50
 70
     1
102
RTVSPropertyOp51
 70
     0
102
RTVSPropertyOp52
 70
     0
102
RTVSPropertyOp53
 70
     1
102
RTVSPropertyOp54
 70
     1
102
RTVSPropertyOp55
 70
     1
102
RTVSPropertyOp56
 70
     1
102
RTVSPropertyOp57
 70
     1
102
RTVSPost2010Prop28
280
     0
102
RTVSPost2010PropOp28
 70
     1
102
RTVSPost2010Prop29
280
     1
102
RTVSPost2010PropOp29
 70
     1
102
RTVSPost2010Prop30
280
     1
102
RTVSPost2010PropOp30
 70
     1
102
RTVSPost2010Prop31
280
     0
102
RTVSPost2010PropOp31
 70
     1
102
RTVSPost2010Prop32
280
     0
102
RTVSPost2010PropOp32
 70
     1
102
RTVSPost2010Prop33
280
     0
102
RTVSPost2010PropOp33
 70
     1
102
RTVSPost2010Prop34
280
     0
102
RTVSPost2010PropOp34
 70
     1
102
RTVSPost2010Prop35
280
     0
102
RTVSPost2010PropOp35
 70
     1
102
RTVSPost2010Prop36
280
     0
102
RTVSPost2010PropOp36
 70
     1
102
RTVSPost2010Prop37
 90
       50
102
RTVSPost2010PropOp37
 70
     1
102
RTVSPost2010Prop38
140
0.0
102
RTVSPost2010PropOp38
 70
     1
102
RTVSPost2010Prop39
140
1.0
102
RTVSPost2010PropOp39
 70
     1
102
RTVSPost2010Prop40
 90
        0
102
RTVSPost2010PropOp40
 70
     1
102
RTVSPost2010Prop41ColorIndex
 90
       18
102
RTVSPost2010Prop41ColorRGB
 90
        0
102
RTVSPost2010PropOp41
 70
     1
102
RTVSPost2010Prop42
 90
       50
102
RTVSPost2010PropOp42
 70
     1
102
RTVSPost2010Prop43
 90
        3
102
RTVSPost2010PropOp43
 70
     1
102
RTVSPost2010Prop44ColorIndex
 90
        5
102
RTVSPost2010Prop44ColorRGB
 90
      255
102
RTVSPost2010PropOp44
 70
     1
102
RTVSPost2010Prop45
280
     0
102
RTVSPost2010PropOp45
 70
     1
102
RTVSPost2010Prop46
 90
       50
102
RTVSPost2010PropOp46
 70
     1
102
RTVSPost2010Prop47
 90
       50
102
RTVSPost2010PropOp47
 70
     1
102
RTVSPost2010Prop48
 90
       50
102
RTVSPost2010PropOp48
 70
     1
102
RTVSPost2010Prop49
280
     0
102
RTVSPost2010PropOp49
 70
     1
102
RTVSPost2010Prop50
 90
       50
102
RTVSPost2010PropOp50
 70
     1
102
RTVSPost2010Prop51ColorIndex
 90
      256
102
RTVSPost2010Prop51ColorRGB
 90
-16777216
102
RTVSPost2010PropOp51
 70
     0
102
RTVSPost2010Prop52
140
1.0
102
RTVSPost2010PropOp52
 70
     0
102
RTVSPost2010Prop53
 90
        2
102
RTVSPost2010PropOp53
 70
     1
102
RTVSPost2010Prop54
  1
strokes_ogs.tif
102
RTVSPost2010PropOp54
 70
     1
102
RTVSPost2010Prop55
280
     0
102
RTVSPost2010PropOp55
 70
     1
102
RTVSPost2010Prop56
140
1.0
102
RTVSPost2010PropOp56
 70
     1
102
RTVSPost2010Prop57
140
1.0
102
RTVSPost2010PropOp57
 70
     1
  0
XRECORD
  5
4E0
102
{ACAD_REACTORS
330
4DF
102
}
330
4DF
100
AcDbXrecord
280
     1
102
RTVSPropertyOp0
 70
     1
102
RTVSPropertyOp1
 70
     1
102
RTVSPropertyOp2
 70
     1
102
RTVSPropertyOp3
 70
     1
102
RTVSPropertyOp4
 70
     1
102
RTVSPropertyOp5
 70
     1
102
RTVSPropertyOp6
 70
     1
102
RTVSPropertyOp7
 70
     1
102
RTVSPropertyOp8
 70
     1
102
RTVSPropertyOp9
 70
     1
102
RTVSPropertyOp10
 70
     1
102
RTVSPropertyOp11
 70
     1
102
RTVSPropertyOp12
 70
     1
102
RTVSPropertyOp13
 70
     1
102
RTVSPropertyOp14
 70
     1
102
RTVSPropertyOp15
 70
     1
102
RTVSPropertyOp16
 70
     1
102
RTVSPropertyOp17
 70
     1
102
RTVSPropertyOp18
 70
     1
102
RTVSPropertyOp19
 70
     1
102
RTVSPropertyOp20
 70
     1
102
RTVSPropertyOp21
 70
     1
102
RTVSPropertyOp22
 70
     1
102
RTVSPropertyOp23
 70
     1
102
RTVSPropertyOp24
 70
     1
102
RTVSPropertyOp25
 70
     1
102
RTVSPropertyOp26
 70
     1
102
RTVSPropertyOp27
 70
     1
102
RTVSPropertyOp28
 70
     1
102
RTVSPropertyOp29
 70
     1
102
RTVSPropertyOp30
 70
     1
102
RTVSPropertyOp31
 70
     1
102
RTVSPropertyOp32
 70
     1
102
RTVSPropertyOp33
 70
     1
102
RTVSPropertyOp34
 70
     1
102
RTVSPropertyOp35
 70
     1
102
RTVSPropertyOp36
 70
     1
102
RTVSPropertyOp37
 70
     1
102
RTVSPropertyOp38
 70
     1
102
RTVSPropertyOp39
 70
     1
102
RTVSPropertyOp40
 70
     1
102
RTVSPropertyOp41
 70
     1
102
RTVSPropertyOp42
 70
     1
102
RTVSPropertyOp43
 70
     1
102
RTVSPropertyOp44
 70
     1
102
RTVSPropertyOp45
 70
     1
102
RTVSPropertyOp46
 70
     1
102
RTVSPropertyOp47
 70
     1
102
RTVSPropertyOp48
 70
     1
102
RTVSPropertyOp49
 70
     1
102
RTVSPropertyOp50
 70
     1
102
RTVSPropertyOp51
 70
     0
102
RTVSPropertyOp52
 70
     0
102
RTVSPropertyOp53
 70
     1
102
RTVSPropertyOp54
 70
     1
102
RTVSPropertyOp55
 70
     1
102
RTVSPropertyOp56
 70
     1
102
RTVSPropertyOp57
 70
     1
102
RTVSPost2010Prop28
280
     0
102
RTVSPost2010PropOp28
 70
     1
102
RTVSPost2010Prop29
280
     1
102
RTVSPost2010PropOp29
 70
     1
102
RTVSPost2010Prop30
280
     1
102
RTVSPost2010PropOp30
 70
     1
102
RTVSPost2010Prop31
280
     0
102
RTVSPost2010PropOp31
 70
     1
102
RTVSPost2010Prop32
280
     0
102
RTVSPost2010PropOp32
 70
     1
102
RTVSPost2010Prop33
280
     0
102
RTVSPost2010PropOp33
 70
     1
102
RTVSPost2010Prop34
280
     0
102
RTVSPost2010PropOp34
 70
     1
102
RTVSPost2010Prop35
280
     0
102
RTVSPost2010PropOp35
 70
     1
102
RTVSPost2010Prop36
280
     0
102
RTVSPost2010PropOp36
 70
     1
102
RTVSPost2010Prop37
 90
       50
102
RTVSPost2010PropOp37
 70
     1
102
RTVSPost2010Prop38
140
0.0
102
RTVSPost2010PropOp38
 70
     1
102
RTVSPost2010Prop39
140
1.0
102
RTVSPost2010PropOp39
 70
     1
102
RTVSPost2010Prop40
 90
        0
102
RTVSPost2010PropOp40
 70
     1
102
RTVSPost2010Prop41ColorIndex
 90
       18
102
RTVSPost2010Prop41ColorRGB
 90
        0
102
RTVSPost2010PropOp41
 70
     1
102
RTVSPost2010Prop42
 90
       50
102
RTVSPost2010PropOp42
 70
     1
102
RTVSPost2010Prop43
 90
        3
102
RTVSPost2010PropOp43
 70
     1
102
RTVSPost2010Prop44ColorIndex
 90
        5
102
RTVSPost2010Prop44ColorRGB
 90
      255
102
RTVSPost2010PropOp44
 70
     1
102
RTVSPost2010Prop45
280
     0
102
RTVSPost2010PropOp45
 70
     1
102
RTVSPost2010Prop46
 90
       50
102
RTVSPost2010PropOp46
 70
     1
102
RTVSPost2010Prop47
 90
       50
102
RTVSPost2010PropOp47
 70
     1
102
RTVSPost2010Prop48
 90
       50
102
RTVSPost2010PropOp48
 70
     1
102
RTVSPost2010Prop49
280
     0
102
RTVSPost2010PropOp49
 70
     1
102
RTVSPost2010Prop50
 90
       50
102
RTVSPost2010PropOp50
 70
     1
102
RTVSPost2010Prop51ColorIndex
 90
      256
102
RTVSPost2010Prop51ColorRGB
 90
-16777216
102
RTVSPost2010PropOp51
 70
     0
102
RTVSPost2010Prop52
140
1.0
102
RTVSPost2010PropOp52
 70
     0
102
RTVSPost2010Prop53
 90
        2
102
RTVSPost2010PropOp53
 70
     1
102
RTVSPost2010Prop54
  1
strokes_ogs.tif
102
RTVSPost2010PropOp54
 70
     1
102
RTVSPost2010Prop55
280
     0
102
RTVSPost2010PropOp55
 70
     1
102
RTVSPost2010Prop56
140
1.0
102
RTVSPost2010PropOp56
 70
     1
102
RTVSPost2010Prop57
140
1.0
102
RTVSPost2010PropOp57
 70
     1
  0
XRECORD
  5
4E8
102
{ACAD_REACTORS
330
4E7
102
}
330
4E7
100
AcDbXrecord
280
     1
102
RTVSPropertyOp0
 70
     1
102
RTVSPropertyOp1
 70
     1
102
RTVSPropertyOp2
 70
     1
102
RTVSPropertyOp3
 70
     1
102
RTVSPropertyOp4
 70
     1
102
RTVSPropertyOp5
 70
     1
102
RTVSPropertyOp6
 70
     1
102
RTVSPropertyOp7
 70
     1
102
RTVSPropertyOp8
 70
     1
102
RTVSPropertyOp9
 70
     1
102
RTVSPropertyOp10
 70
     1
102
RTVSPropertyOp11
 70
     1
102
RTVSPropertyOp12
 70
     1
102
RTVSPropertyOp13
 70
     1
102
RTVSPropertyOp14
 70
     1
102
RTVSPropertyOp15
 70
     1
102
RTVSPropertyOp16
 70
     1
102
RTVSPropertyOp17
 70
     1
102
RTVSPropertyOp18
 70
     1
102
RTVSPropertyOp19
 70
     1
102
RTVSPropertyOp20
 70
     1
102
RTVSPropertyOp21
 70
     1
102
RTVSPropertyOp22
 70
     1
102
RTVSPropertyOp23
 70
     1
102
RTVSPropertyOp24
 70
     1
102
RTVSPropertyOp25
 70
     1
102
RTVSPropertyOp26
 70
     1
102
RTVSPropertyOp27
 70
     1
102
RTVSPropertyOp28
 70
     1
102
RTVSPropertyOp29
 70
     1
102
RTVSPropertyOp30
 70
     1
102
RTVSPropertyOp31
 70
     1
102
RTVSPropertyOp32
 70
     1
102
RTVSPropertyOp33
 70
     1
102
RTVSPropertyOp34
 70
     1
102
RTVSPropertyOp35
 70
     1
102
RTVSPropertyOp36
 70
     1
102
RTVSPropertyOp37
 70
     1
102
RTVSPropertyOp38
 70
     1
102
RTVSPropertyOp39
 70
     1
102
RTVSPropertyOp40
 70
     1
102
RTVSPropertyOp41
 70
     1
102
RTVSPropertyOp42
 70
     1
102
RTVSPropertyOp43
 70
     1
102
RTVSPropertyOp44
 70
     1
102
RTVSPropertyOp45
 70
     1
102
RTVSPropertyOp46
 70
     1
102
RTVSPropertyOp47
 70
     1
102
RTVSPropertyOp48
 70
     1
102
RTVSPropertyOp49
 70
     1
102
RTVSPropertyOp50
 70
     1
102
RTVSPropertyOp51
 70
     0
102
RTVSPropertyOp52
 70
     0
102
RTVSPropertyOp53
 70
     1
102
RTVSPropertyOp54
 70
     1
102
RTVSPropertyOp55
 70
     1
102
RTVSPropertyOp56
 70
     1
102
RTVSPropertyOp57
 70
     1
102
RTVSPost2010Prop28
280
     0
102
RTVSPost2010PropOp28
 70
     1
102
RTVSPost2010Prop29
280
     1
102
RTVSPost2010PropOp29
 70
     1
102
RTVSPost2010Prop30
280
     1
102
RTVSPost2010PropOp30
 70
     1
102
RTVSPost2010Prop31
280
     0
102
RTVSPost2010PropOp31
 70
     1
102
RTVSPost2010Prop32
280
     0
102
RTVSPost2010PropOp32
 70
     1
102
RTVSPost2010Prop33
280
     0
102
RTVSPost2010PropOp33
 70
     1
102
RTVSPost2010Prop34
280
     0
102
RTVSPost2010PropOp34
 70
     1
102
RTVSPost2010Prop35
280
     0
102
RTVSPost2010PropOp35
 70
     1
102
RTVSPost2010Prop36
280
     0
102
RTVSPost2010PropOp36
 70
     1
102
RTVSPost2010Prop37
 90
       50
102
RTVSPost2010PropOp37
 70
     1
102
RTVSPost2010Prop38
140
0.0
102
RTVSPost2010PropOp38
 70
     1
102
RTVSPost2010Prop39
140
1.0
102
RTVSPost2010PropOp39
 70
     1
102
RTVSPost2010Prop40
 90
        0
102
RTVSPost2010PropOp40
 70
     1
102
RTVSPost2010Prop41ColorIndex
 90
       18
102
RTVSPost2010Prop41ColorRGB
 90
        0
102
RTVSPost2010PropOp41
 70
     1
102
RTVSPost2010Prop42
 90
       50
102
RTVSPost2010PropOp42
 70
     1
102
RTVSPost2010Prop43
 90
        3
102
RTVSPost2010PropOp43
 70
     1
102
RTVSPost2010Prop44ColorIndex
 90
        5
102
RTVSPost2010Prop44ColorRGB
 90
      255
102
RTVSPost2010PropOp44
 70
     1
102
RTVSPost2010Prop45
280
     0
102
RTVSPost2010PropOp45
 70
     1
102
RTVSPost2010Prop46
 90
       50
102
RTVSPost2010PropOp46
 70
     1
102
RTVSPost2010Prop47
 90
       50
102
RTVSPost2010PropOp47
 70
     1
102
RTVSPost2010Prop48
 90
       50
102
RTVSPost2010PropOp48
 70
     1
102
RTVSPost2010Prop49
280
     0
102
RTVSPost2010PropOp49
 70
     1
102
RTVSPost2010Prop50
 90
       50
102
RTVSPost2010PropOp50
 70
     1
102
RTVSPost2010Prop51ColorIndex
 90
      256
102
RTVSPost2010Prop51ColorRGB
 90
-16777216
102
RTVSPost2010PropOp51
 70
     0
102
RTVSPost2010Prop52
140
1.0
102
RTVSPost2010PropOp52
 70
     0
102
RTVSPost2010Prop53
 90
        2
102
RTVSPost2010PropOp53
 70
     1
102
RTVSPost2010Prop54
  1
strokes_ogs.tif
102
RTVSPost2010PropOp54
 70
     1
102
RTVSPost2010Prop55
280
     0
102
RTVSPost2010PropOp55
 70
     1
102
RTVSPost2010Prop56
140
1.0
102
RTVSPost2010PropOp56
 70
     1
102
RTVSPost2010Prop57
140
1.0
102
RTVSPost2010PropOp57
 70
     1
  0
XRECORD
  5
4DC
102
{ACAD_REACTORS
330
4DB
102
}
330
4DB
100
AcDbXrecord
280
     1
102
RTVSPropertyOp0
 70
     1
102
RTVSPropertyOp1
 70
     1
102
RTVSPropertyOp2
 70
     1
102
RTVSPropertyOp3
 70
     1
102
RTVSPropertyOp4
 70
     1
102
RTVSPropertyOp5
 70
     1
102
RTVSPropertyOp6
 70
     1
102
RTVSPropertyOp7
 70
     1
102
RTVSPropertyOp8
 70
     1
102
RTVSPropertyOp9
 70
     1
102
RTVSPropertyOp10
 70
     1
102
RTVSPropertyOp11
 70
     1
102
RTVSPropertyOp12
 70
     1
102
RTVSPropertyOp13
 70
     1
102
RTVSPropertyOp14
 70
     1
102
RTVSPropertyOp15
 70
     1
102
RTVSPropertyOp16
 70
     1
102
RTVSPropertyOp17
 70
     1
102
RTVSPropertyOp18
 70
     1
102
RTVSPropertyOp19
 70
     1
102
RTVSPropertyOp20
 70
     1
102
RTVSPropertyOp21
 70
     1
102
RTVSPropertyOp22
 70
     1
102
RTVSPropertyOp23
 70
     1
102
RTVSPropertyOp24
 70
     1
102
RTVSPropertyOp25
 70
     1
102
RTVSPropertyOp26
 70
     1
102
RTVSPropertyOp27
 70
     1
102
RTVSPropertyOp28
 70
     1
102
RTVSPropertyOp29
 70
     1
102
RTVSPropertyOp30
 70
     1
102
RTVSPropertyOp31
 70
     1
102
RTVSPropertyOp32
 70
     1
102
RTVSPropertyOp33
 70
     1
102
RTVSPropertyOp34
 70
     1
102
RTVSPropertyOp35
 70
     1
102
RTVSPropertyOp36
 70
     1
102
RTVSPropertyOp37
 70
     1
102
RTVSPropertyOp38
 70
     1
102
RTVSPropertyOp39
 70
     1
102
RTVSPropertyOp40
 70
     1
102
RTVSPropertyOp41
 70
     1
102
RTVSPropertyOp42
 70
     1
102
RTVSPropertyOp43
 70
     1
102
RTVSPropertyOp44
 70
     1
102
RTVSPropertyOp45
 70
     1
102
RTVSPropertyOp46
 70
     1
102
RTVSPropertyOp47
 70
     1
102
RTVSPropertyOp48
 70
     1
102
RTVSPropertyOp49
 70
     1
102
RTVSPropertyOp50
 70
     1
102
RTVSPropertyOp51
 70
     0
102
RTVSPropertyOp52
 70
     0
102
RTVSPropertyOp53
 70
     1
102
RTVSPropertyOp54
 70
     1
102
RTVSPropertyOp55
 70
     1
102
RTVSPropertyOp56
 70
     1
102
RTVSPropertyOp57
 70
     1
102
RTVSPost2010Prop28
280
     0
102
RTVSPost2010PropOp28
 70
     1
102
RTVSPost2010Prop29
280
     1
102
RTVSPost2010PropOp29
 70
     1
102
RTVSPost2010Prop30
280
     1
102
RTVSPost2010PropOp30
 70
     1
102
RTVSPost2010Prop31
280
     0
102
RTVSPost2010PropOp31
 70
     1
102
RTVSPost2010Prop32
280
     0
102
RTVSPost2010PropOp32
 70
     1
102
RTVSPost2010Prop33
280
     0
102
RTVSPost2010PropOp33
 70
     1
102
RTVSPost2010Prop34
280
     0
102
RTVSPost2010PropOp34
 70
     1
102
RTVSPost2010Prop35
280
     0
102
RTVSPost2010PropOp35
 70
     1
102
RTVSPost2010Prop36
280
     0
102
RTVSPost2010PropOp36
 70
     1
102
RTVSPost2010Prop37
 90
       50
102
RTVSPost2010PropOp37
 70
     1
102
RTVSPost2010Prop38
140
0.0
102
RTVSPost2010PropOp38
 70
     1
102
RTVSPost2010Prop39
140
1.0
102
RTVSPost2010PropOp39
 70
     1
102
RTVSPost2010Prop40
 90
        0
102
RTVSPost2010PropOp40
 70
     1
102
RTVSPost2010Prop41ColorIndex
 90
       18
102
RTVSPost2010Prop41ColorRGB
 90
        0
102
RTVSPost2010PropOp41
 70
     1
102
RTVSPost2010Prop42
 90
       50
102
RTVSPost2010PropOp42
 70
     1
102
RTVSPost2010Prop43
 90
        3
102
RTVSPost2010PropOp43
 70
     1
102
RTVSPost2010Prop44ColorIndex
 90
        5
102
RTVSPost2010Prop44ColorRGB
 90
      255
102
RTVSPost2010PropOp44
 70
     1
102
RTVSPost2010Prop45
280
     0
102
RTVSPost2010PropOp45
 70
     1
102
RTVSPost2010Prop46
 90
       50
102
RTVSPost2010PropOp46
 70
     1
102
RTVSPost2010Prop47
 90
       50
102
RTVSPost2010PropOp47
 70
     1
102
RTVSPost2010Prop48
 90
       50
102
RTVSPost2010PropOp48
 70
     1
102
RTVSPost2010Prop49
280
     0
102
RTVSPost2010PropOp49
 70
     1
102
RTVSPost2010Prop50
 90
       50
102
RTVSPost2010PropOp50
 70
     1
102
RTVSPost2010Prop51ColorIndex
 90
      256
102
RTVSPost2010Prop51ColorRGB
 90
-16777216
102
RTVSPost2010PropOp51
 70
     0
102
RTVSPost2010Prop52
140
1.0
102
RTVSPost2010PropOp52
 70
     0
102
RTVSPost2010Prop53
 90
        2
102
RTVSPost2010PropOp53
 70
     1
102
RTVSPost2010Prop54
  1
strokes_ogs.tif
102
RTVSPost2010PropOp54
 70
     1
102
RTVSPost2010Prop55
280
     0
102
RTVSPost2010PropOp55
 70
     1
102
RTVSPost2010Prop56
140
1.0
102
RTVSPost2010PropOp56
 70
     1
102
RTVSPost2010Prop57
140
1.0
102
RTVSPost2010PropOp57
 70
     1
  0
XRECORD
  5
4DE
102
{ACAD_REACTORS
330
4DD
102
}
330
4DD
100
AcDbXrecord
280
     1
102
RTVSPropertyOp0
 70
     1
102
RTVSPropertyOp1
 70
     1
102
RTVSPropertyOp2
 70
     1
102
RTVSPropertyOp3
 70
     1
102
RTVSPropertyOp4
 70
     1
102
RTVSPropertyOp5
 70
     1
102
RTVSPropertyOp6
 70
     1
102
RTVSPropertyOp7
 70
     1
102
RTVSPropertyOp8
 70
     1
102
RTVSPropertyOp9
 70
     1
102
RTVSPropertyOp10
 70
     1
102
RTVSPropertyOp11
 70
     1
102
RTVSPropertyOp12
 70
     1
102
RTVSPropertyOp13
 70
     1
102
RTVSPropertyOp14
 70
     1
102
RTVSPropertyOp15
 70
     1
102
RTVSPropertyOp16
 70
     1
102
RTVSPropertyOp17
 70
     1
102
RTVSPropertyOp18
 70
     1
102
RTVSPropertyOp19
 70
     1
102
RTVSPropertyOp20
 70
     1
102
RTVSPropertyOp21
 70
     1
102
RTVSPropertyOp22
 70
     1
102
RTVSPropertyOp23
 70
     1
102
RTVSPropertyOp24
 70
     1
102
RTVSPropertyOp25
 70
     1
102
RTVSPropertyOp26
 70
     1
102
RTVSPropertyOp27
 70
     1
102
RTVSPropertyOp28
 70
     1
102
RTVSPropertyOp29
 70
     1
102
RTVSPropertyOp30
 70
     1
102
RTVSPropertyOp31
 70
     1
102
RTVSPropertyOp32
 70
     1
102
RTVSPropertyOp33
 70
     1
102
RTVSPropertyOp34
 70
     1
102
RTVSPropertyOp35
 70
     1
102
RTVSPropertyOp36
 70
     1
102
RTVSPropertyOp37
 70
     1
102
RTVSPropertyOp38
 70
     1
102
RTVSPropertyOp39
 70
     1
102
RTVSPropertyOp40
 70
     1
102
RTVSPropertyOp41
 70
     1
102
RTVSPropertyOp42
 70
     1
102
RTVSPropertyOp43
 70
     1
102
RTVSPropertyOp44
 70
     1
102
RTVSPropertyOp45
 70
     1
102
RTVSPropertyOp46
 70
     1
102
RTVSPropertyOp47
 70
     1
102
RTVSPropertyOp48
 70
     1
102
RTVSPropertyOp49
 70
     1
102
RTVSPropertyOp50
 70
     1
102
RTVSPropertyOp51
 70
     0
102
RTVSPropertyOp52
 70
     0
102
RTVSPropertyOp53
 70
     1
102
RTVSPropertyOp54
 70
     1
102
RTVSPropertyOp55
 70
     1
102
RTVSPropertyOp56
 70
     1
102
RTVSPropertyOp57
 70
     1
102
RTVSPost2010Prop28
280
     0
102
RTVSPost2010PropOp28
 70
     1
102
RTVSPost2010Prop29
280
     1
102
RTVSPost2010PropOp29
 70
     1
102
RTVSPost2010Prop30
280
     1
102
RTVSPost2010PropOp30
 70
     1
102
RTVSPost2010Prop31
280
     0
102
RTVSPost2010PropOp31
 70
     1
102
RTVSPost2010Prop32
280
     0
102
RTVSPost2010PropOp32
 70
     1
102
RTVSPost2010Prop33
280
     0
102
RTVSPost2010PropOp33
 70
     1
102
RTVSPost2010Prop34
280
     0
102
RTVSPost2010PropOp34
 70
     1
102
RTVSPost2010Prop35
280
     0
102
RTVSPost2010PropOp35
 70
     1
102
RTVSPost2010Prop36
280
     0
102
RTVSPost2010PropOp36
 70
     1
102
RTVSPost2010Prop37
 90
       50
102
RTVSPost2010PropOp37
 70
     1
102
RTVSPost2010Prop38
140
0.0
102
RTVSPost2010PropOp38
 70
     1
102
RTVSPost2010Prop39
140
1.0
102
RTVSPost2010PropOp39
 70
     1
102
RTVSPost2010Prop40
 90
        0
102
RTVSPost2010PropOp40
 70
     1
102
RTVSPost2010Prop41ColorIndex
 90
       18
102
RTVSPost2010Prop41ColorRGB
 90
        0
102
RTVSPost2010PropOp41
 70
     1
102
RTVSPost2010Prop42
 90
       50
102
RTVSPost2010PropOp42
 70
     1
102
RTVSPost2010Prop43
 90
        3
102
RTVSPost2010PropOp43
 70
     1
102
RTVSPost2010Prop44ColorIndex
 90
        5
102
RTVSPost2010Prop44ColorRGB
 90
      255
102
RTVSPost2010PropOp44
 70
     1
102
RTVSPost2010Prop45
280
     0
102
RTVSPost2010PropOp45
 70
     1
102
RTVSPost2010Prop46
 90
       50
102
RTVSPost2010PropOp46
 70
     1
102
RTVSPost2010Prop47
 90
       50
102
RTVSPost2010PropOp47
 70
     1
102
RTVSPost2010Prop48
 90
       50
102
RTVSPost2010PropOp48
 70
     1
102
RTVSPost2010Prop49
280
     0
102
RTVSPost2010PropOp49
 70
     1
102
RTVSPost2010Prop50
 90
       50
102
RTVSPost2010PropOp50
 70
     1
102
RTVSPost2010Prop51ColorIndex
 90
      256
102
RTVSPost2010Prop51ColorRGB
 90
-16777216
102
RTVSPost2010PropOp51
 70
     0
102
RTVSPost2010Prop52
140
1.0
102
RTVSPost2010PropOp52
 70
     0
102
RTVSPost2010Prop53
 90
        2
102
RTVSPost2010PropOp53
 70
     1
102
RTVSPost2010Prop54
  1
strokes_ogs.tif
102
RTVSPost2010PropOp54
 70
     1
102
RTVSPost2010Prop55
280
     0
102
RTVSPost2010PropOp55
 70
     1
102
RTVSPost2010Prop56
140
1.0
102
RTVSPost2010PropOp56
 70
     1
102
RTVSPost2010Prop57
140
1.0
102
RTVSPost2010PropOp57
 70
     1
  0
XRECORD
  5
4EE
102
{ACAD_REACTORS
330
4ED
102
}
330
4ED
100
AcDbXrecord
280
     1
102
RTVSPropertyOp0
 70
     0
102
RTVSPropertyOp1
 70
     0
102
RTVSPropertyOp2
 70
     0
102
RTVSPropertyOp3
 70
     0
102
RTVSPropertyOp4
 70
     0
102
RTVSPropertyOp5
 70
     0
102
RTVSPropertyOp6
 70
     0
102
RTVSPropertyOp7
 70
     0
102
RTVSPropertyOp8
 70
     0
102
RTVSPropertyOp9
 70
     0
102
RTVSPropertyOp10
 70
     0
102
RTVSPropertyOp11
 70
     0
102
RTVSPropertyOp12
 70
     0
102
RTVSPropertyOp13
 70
     0
102
RTVSPropertyOp14
 70
     0
102
RTVSPropertyOp15
 70
     0
102
RTVSPropertyOp16
 70
     0
102
RTVSPropertyOp17
 70
     0
102
RTVSPropertyOp18
 70
     0
102
RTVSPropertyOp19
 70
     0
102
RTVSPropertyOp20
 70
     0
102
RTVSPropertyOp21
 70
     0
102
RTVSPropertyOp22
 70
     0
102
RTVSPropertyOp23
 70
     0
102
RTVSPropertyOp24
 70
     0
102
RTVSPropertyOp25
 70
     0
102
RTVSPropertyOp26
 70
     0
102
RTVSPropertyOp27
 70
     0
102
RTVSPropertyOp28
 70
     1
102
RTVSPropertyOp29
 70
     1
102
RTVSPropertyOp30
 70
     1
102
RTVSPropertyOp31
 70
     1
102
RTVSPropertyOp32
 70
     1
102
RTVSPropertyOp33
 70
     1
102
RTVSPropertyOp34
 70
     1
102
RTVSPropertyOp35
 70
     1
102
RTVSPropertyOp36
 70
     1
102
RTVSPropertyOp37
 70
     1
102
RTVSPropertyOp38
 70
     1
102
RTVSPropertyOp39
 70
     1
102
RTVSPropertyOp40
 70
     1
102
RTVSPropertyOp41
 70
     1
102
RTVSPropertyOp42
 70
     1
102
RTVSPropertyOp43
 70
     1
102
RTVSPropertyOp44
 70
     1
102
RTVSPropertyOp45
 70
     1
102
RTVSPropertyOp46
 70
     1
102
RTVSPropertyOp47
 70
     1
102
RTVSPropertyOp48
 70
     1
102
RTVSPropertyOp49
 70
     1
102
RTVSPropertyOp50
 70
     1
102
RTVSPropertyOp51
 70
     0
102
RTVSPropertyOp52
 70
     0
102
RTVSPropertyOp53
 70
     1
102
RTVSPropertyOp54
 70
     1
102
RTVSPropertyOp55
 70
     1
102
RTVSPropertyOp56
 70
     1
102
RTVSPropertyOp57
 70
     1
102
RTVSPost2010Prop28
280
     0
102
RTVSPost2010PropOp28
 70
     1
102
RTVSPost2010Prop29
280
     1
102
RTVSPost2010PropOp29
 70
     1
102
RTVSPost2010Prop30
280
     1
102
RTVSPost2010PropOp30
 70
     1
102
RTVSPost2010Prop31
280
     0
102
RTVSPost2010PropOp31
 70
     1
102
RTVSPost2010Prop32
280
     0
102
RTVSPost2010PropOp32
 70
     1
102
RTVSPost2010Prop33
280
     0
102
RTVSPost2010PropOp33
 70
     1
102
RTVSPost2010Prop34
280
     0
102
RTVSPost2010PropOp34
 70
     1
102
RTVSPost2010Prop35
280
     0
102
RTVSPost2010PropOp35
 70
     1
102
RTVSPost2010Prop36
280
     0
102
RTVSPost2010PropOp36
 70
     1
102
RTVSPost2010Prop37
 90
       50
102
RTVSPost2010PropOp37
 70
     1
102
RTVSPost2010Prop38
140
0.0
102
RTVSPost2010PropOp38
 70
     1
102
RTVSPost2010Prop39
140
1.0
102
RTVSPost2010PropOp39
 70
     1
102
RTVSPost2010Prop40
 90
        0
102
RTVSPost2010PropOp40
 70
     1
102
RTVSPost2010Prop41ColorIndex
 90
       18
102
RTVSPost2010Prop41ColorRGB
 90
        0
102
RTVSPost2010PropOp41
 70
     1
102
RTVSPost2010Prop42
 90
       50
102
RTVSPost2010PropOp42
 70
     1
102
RTVSPost2010Prop43
 90
        3
102
RTVSPost2010PropOp43
 70
     1
102
RTVSPost2010Prop44ColorIndex
 90
        5
102
RTVSPost2010Prop44ColorRGB
 90
      255
102
RTVSPost2010PropOp44
 70
     1
102
RTVSPost2010Prop45
280
     0
102
RTVSPost2010PropOp45
 70
     1
102
RTVSPost2010Prop46
 90
       50
102
RTVSPost2010PropOp46
 70
     1
102
RTVSPost2010Prop47
 90
       50
102
RTVSPost2010PropOp47
 70
     1
102
RTVSPost2010Prop48
 90
       50
102
RTVSPost2010PropOp48
 70
     1
102
RTVSPost2010Prop49
280
     0
102
RTVSPost2010PropOp49
 70
     1
102
RTVSPost2010Prop50
 90
       50
102
RTVSPost2010PropOp50
 70
     1
102
RTVSPost2010Prop51ColorIndex
 90
      256
102
RTVSPost2010Prop51ColorRGB
 90
-16777216
102
RTVSPost2010PropOp51
 70
     0
102
RTVSPost2010Prop52
140
1.0
102
RTVSPost2010PropOp52
 70
     0
102
RTVSPost2010Prop53
 90
        2
102
RTVSPost2010PropOp53
 70
     1
102
RTVSPost2010Prop54
  1
strokes_ogs.tif
102
RTVSPost2010PropOp54
 70
     1
102
RTVSPost2010Prop55
280
     0
102
RTVSPost2010PropOp55
 70
     1
102
RTVSPost2010Prop56
140
1.0
102
RTVSPost2010PropOp56
 70
     1
102
RTVSPost2010Prop57
140
1.0
102
RTVSPost2010PropOp57
 70
     1
  0
XRECORD
  5
4E6
102
{ACAD_REACTORS
330
4E5
102
}
330
4E5
100
AcDbXrecord
280
     1
102
RTVSPropertyOp0
 70
     1
102
RTVSPropertyOp1
 70
     1
102
RTVSPropertyOp2
 70
     1
102
RTVSPropertyOp3
 70
     1
102
RTVSPropertyOp4
 70
     1
102
RTVSPropertyOp5
 70
     1
102
RTVSPropertyOp6
 70
     1
102
RTVSPropertyOp7
 70
     1
102
RTVSPropertyOp8
 70
     1
102
RTVSPropertyOp9
 70
     1
102
RTVSPropertyOp10
 70
     1
102
RTVSPropertyOp11
 70
     1
102
RTVSPropertyOp12
 70
     1
102
RTVSPropertyOp13
 70
     1
102
RTVSPropertyOp14
 70
     1
102
RTVSPropertyOp15
 70
     1
102
RTVSPropertyOp16
 70
     1
102
RTVSPropertyOp17
 70
     1
102
RTVSPropertyOp18
 70
     1
102
RTVSPropertyOp19
 70
     1
102
RTVSPropertyOp20
 70
     1
102
RTVSPropertyOp21
 70
     1
102
RTVSPropertyOp22
 70
     1
102
RTVSPropertyOp23
 70
     1
102
RTVSPropertyOp24
 70
     1
102
RTVSPropertyOp25
 70
     1
102
RTVSPropertyOp26
 70
     1
102
RTVSPropertyOp27
 70
     1
102
RTVSPropertyOp28
 70
     1
102
RTVSPropertyOp29
 70
     1
102
RTVSPropertyOp30
 70
     1
102
RTVSPropertyOp31
 70
     1
102
RTVSPropertyOp32
 70
     1
102
RTVSPropertyOp33
 70
     1
102
RTVSPropertyOp34
 70
     1
102
RTVSPropertyOp35
 70
     1
102
RTVSPropertyOp36
 70
     1
102
RTVSPropertyOp37
 70
     1
102
RTVSPropertyOp38
 70
     1
102
RTVSPropertyOp39
 70
     1
102
RTVSPropertyOp40
 70
     1
102
RTVSPropertyOp41
 70
     1
102
RTVSPropertyOp42
 70
     1
102
RTVSPropertyOp43
 70
     1
102
RTVSPropertyOp44
 70
     1
102
RTVSPropertyOp45
 70
     1
102
RTVSPropertyOp46
 70
     1
102
RTVSPropertyOp47
 70
     1
102
RTVSPropertyOp48
 70
     1
102
RTVSPropertyOp49
 70
     1
102
RTVSPropertyOp50
 70
     1
102
RTVSPropertyOp51
 70
     0
102
RTVSPropertyOp52
 70
     0
102
RTVSPropertyOp53
 70
     1
102
RTVSPropertyOp54
 70
     1
102
RTVSPropertyOp55
 70
     1
102
RTVSPropertyOp56
 70
     1
102
RTVSPropertyOp57
 70
     1
102
RTVSPost2010Prop28
280
     0
102
RTVSPost2010PropOp28
 70
     1
102
RTVSPost2010Prop29
280
     1
102
RTVSPost2010PropOp29
 70
     1
102
RTVSPost2010Prop30
280
     1
102
RTVSPost2010PropOp30
 70
     1
102
RTVSPost2010Prop31
280
     0
102
RTVSPost2010PropOp31
 70
     1
102
RTVSPost2010Prop32
280
     0
102
RTVSPost2010PropOp32
 70
     1
102
RTVSPost2010Prop33
280
     0
102
RTVSPost2010PropOp33
 70
     1
102
RTVSPost2010Prop34
280
     0
102
RTVSPost2010PropOp34
 70
     1
102
RTVSPost2010Prop35
280
     0
102
RTVSPost2010PropOp35
 70
     1
102
RTVSPost2010Prop36
280
     0
102
RTVSPost2010PropOp36
 70
     1
102
RTVSPost2010Prop37
 90
       50
102
RTVSPost2010PropOp37
 70
     1
102
RTVSPost2010Prop38
140
0.0
102
RTVSPost2010PropOp38
 70
     1
102
RTVSPost2010Prop39
140
1.0
102
RTVSPost2010PropOp39
 70
     1
102
RTVSPost2010Prop40
 90
        0
102
RTVSPost2010PropOp40
 70
     1
102
RTVSPost2010Prop41ColorIndex
 90
       18
102
RTVSPost2010Prop41ColorRGB
 90
        0
102
RTVSPost2010PropOp41
 70
     1
102
RTVSPost2010Prop42
 90
       50
102
RTVSPost2010PropOp42
 70
     1
102
RTVSPost2010Prop43
 90
        3
102
RTVSPost2010PropOp43
 70
     1
102
RTVSPost2010Prop44ColorIndex
 90
        5
102
RTVSPost2010Prop44ColorRGB
 90
      255
102
RTVSPost2010PropOp44
 70
     1
102
RTVSPost2010Prop45
280
     0
102
RTVSPost2010PropOp45
 70
     1
102
RTVSPost2010Prop46
 90
       50
102
RTVSPost2010PropOp46
 70
     1
102
RTVSPost2010Prop47
 90
       50
102
RTVSPost2010PropOp47
 70
     1
102
RTVSPost2010Prop48
 90
       50
102
RTVSPost2010PropOp48
 70
     1
102
RTVSPost2010Prop49
280
     0
102
RTVSPost2010PropOp49
 70
     1
102
RTVSPost2010Prop50
 90
       50
102
RTVSPost2010PropOp50
 70
     1
102
RTVSPost2010Prop51ColorIndex
 90
      256
102
RTVSPost2010Prop51ColorRGB
 90
-16777216
102
RTVSPost2010PropOp51
 70
     0
102
RTVSPost2010Prop52
140
1.0
102
RTVSPost2010PropOp52
 70
     0
102
RTVSPost2010Prop53
 90
        2
102
RTVSPost2010PropOp53
 70
     1
102
RTVSPost2010Prop54
  1
strokes_ogs.tif
102
RTVSPost2010PropOp54
 70
     1
102
RTVSPost2010Prop55
280
     0
102
RTVSPost2010PropOp55
 70
     1
102
RTVSPost2010Prop56
140
1.0
102
RTVSPost2010PropOp56
 70
     1
102
RTVSPost2010Prop57
140
1.0
102
RTVSPost2010PropOp57
 70
     1
  0
XRECORD
  5
4CA
102
{ACAD_REACTORS
330
4C9
102
}
330
4C9
100
AcDbXrecord
280
     1
102
RTVSPropertyOp0
 70
     1
102
RTVSPropertyOp1
 70
     1
102
RTVSPropertyOp2
 70
     1
102
RTVSPropertyOp3
 70
     1
102
RTVSPropertyOp4
 70
     1
102
RTVSPropertyOp5
 70
     1
102
RTVSPropertyOp6
 70
     1
102
RTVSPropertyOp7
 70
     1
102
RTVSPropertyOp8
 70
     1
102
RTVSPropertyOp9
 70
     1
102
RTVSPropertyOp10
 70
     1
102
RTVSPropertyOp11
 70
     1
102
RTVSPropertyOp12
 70
     1
102
RTVSPropertyOp13
 70
     1
102
RTVSPropertyOp14
 70
     1
102
RTVSPropertyOp15
 70
     1
102
RTVSPropertyOp16
 70
     1
102
RTVSPropertyOp17
 70
     1
102
RTVSPropertyOp18
 70
     1
102
RTVSPropertyOp19
 70
     1
102
RTVSPropertyOp20
 70
     1
102
RTVSPropertyOp21
 70
     1
102
RTVSPropertyOp22
 70
     1
102
RTVSPropertyOp23
 70
     1
102
RTVSPropertyOp24
 70
     1
102
RTVSPropertyOp25
 70
     1
102
RTVSPropertyOp26
 70
     1
102
RTVSPropertyOp27
 70
     1
102
RTVSPropertyOp28
 70
     1
102
RTVSPropertyOp29
 70
     1
102
RTVSPropertyOp30
 70
     1
102
RTVSPropertyOp31
 70
     1
102
RTVSPropertyOp32
 70
     1
102
RTVSPropertyOp33
 70
     1
102
RTVSPropertyOp34
 70
     1
102
RTVSPropertyOp35
 70
     1
102
RTVSPropertyOp36
 70
     1
102
RTVSPropertyOp37
 70
     1
102
RTVSPropertyOp38
 70
     1
102
RTVSPropertyOp39
 70
     1
102
RTVSPropertyOp40
 70
     1
102
RTVSPropertyOp41
 70
     1
102
RTVSPropertyOp42
 70
     1
102
RTVSPropertyOp43
 70
     1
102
RTVSPropertyOp44
 70
     1
102
RTVSPropertyOp45
 70
     1
102
RTVSPropertyOp46
 70
     1
102
RTVSPropertyOp47
 70
     1
102
RTVSPropertyOp48
 70
     1
102
RTVSPropertyOp49
 70
     1
102
RTVSPropertyOp50
 70
     1
102
RTVSPropertyOp51
 70
     0
102
RTVSPropertyOp52
 70
     0
102
RTVSPropertyOp53
 70
     1
102
RTVSPropertyOp54
 70
     1
102
RTVSPropertyOp55
 70
     1
102
RTVSPropertyOp56
 70
     1
102
RTVSPropertyOp57
 70
     1
102
RTVSPost2010Prop28
280
     0
102
RTVSPost2010PropOp28
 70
     1
102
RTVSPost2010Prop29
280
     1
102
RTVSPost2010PropOp29
 70
     1
102
RTVSPost2010Prop30
280
     1
102
RTVSPost2010PropOp30
 70
     1
102
RTVSPost2010Prop31
280
     0
102
RTVSPost2010PropOp31
 70
     1
102
RTVSPost2010Prop32
280
     0
102
RTVSPost2010PropOp32
 70
     1
102
RTVSPost2010Prop33
280
     0
102
RTVSPost2010PropOp33
 70
     1
102
RTVSPost2010Prop34
280
     0
102
RTVSPost2010PropOp34
 70
     1
102
RTVSPost2010Prop35
280
     0
102
RTVSPost2010PropOp35
 70
     1
102
RTVSPost2010Prop36
280
     0
102
RTVSPost2010PropOp36
 70
     1
102
RTVSPost2010Prop37
 90
       50
102
RTVSPost2010PropOp37
 70
     1
102
RTVSPost2010Prop38
140
0.0
102
RTVSPost2010PropOp38
 70
     1
102
RTVSPost2010Prop39
140
1.0
102
RTVSPost2010PropOp39
 70
     1
102
RTVSPost2010Prop40
 90
        0
102
RTVSPost2010PropOp40
 70
     1
102
RTVSPost2010Prop41ColorIndex
 90
       18
102
RTVSPost2010Prop41ColorRGB
 90
        0
102
RTVSPost2010PropOp41
 70
     1
102
RTVSPost2010Prop42
 90
       50
102
RTVSPost2010PropOp42
 70
     1
102
RTVSPost2010Prop43
 90
        3
102
RTVSPost2010PropOp43
 70
     1
102
RTVSPost2010Prop44ColorIndex
 90
        5
102
RTVSPost2010Prop44ColorRGB
 90
      255
102
RTVSPost2010PropOp44
 70
     1
102
RTVSPost2010Prop45
280
     0
102
RTVSPost2010PropOp45
 70
     1
102
RTVSPost2010Prop46
 90
       50
102
RTVSPost2010PropOp46
 70
     1
102
RTVSPost2010Prop47
 90
       50
102
RTVSPost2010PropOp47
 70
     1
102
RTVSPost2010Prop48
 90
       50
102
RTVSPost2010PropOp48
 70
     1
102
RTVSPost2010Prop49
280
     0
102
RTVSPost2010PropOp49
 70
     1
102
RTVSPost2010Prop50
 90
       50
102
RTVSPost2010PropOp50
 70
     1
102
RTVSPost2010Prop51ColorIndex
 90
      256
102
RTVSPost2010Prop51ColorRGB
 90
-16777216
102
RTVSPost2010PropOp51
 70
     0
102
RTVSPost2010Prop52
140
1.0
102
RTVSPost2010PropOp52
 70
     0
102
RTVSPost2010Prop53
 90
        2
102
RTVSPost2010PropOp53
 70
     1
102
RTVSPost2010Prop54
  1
strokes_ogs.tif
102
RTVSPost2010PropOp54
 70
     1
102
RTVSPost2010Prop55
280
     0
102
RTVSPost2010PropOp55
 70
     1
102
RTVSPost2010Prop56
140
1.0
102
RTVSPost2010PropOp56
 70
     1
102
RTVSPost2010Prop57
140
1.0
102
RTVSPost2010PropOp57
 70
     1
  0
XRECORD
  5
4CC
102
{ACAD_REACTORS
330
4CB
102
}
330
4CB
100
AcDbXrecord
280
     1
102
RTVSPropertyOp0
 70
     1
102
RTVSPropertyOp1
 70
     1
102
RTVSPropertyOp2
 70
     1
102
RTVSPropertyOp3
 70
     1
102
RTVSPropertyOp4
 70
     1
102
RTVSPropertyOp5
 70
     1
102
RTVSPropertyOp6
 70
     1
102
RTVSPropertyOp7
 70
     1
102
RTVSPropertyOp8
 70
     1
102
RTVSPropertyOp9
 70
     1
102
RTVSPropertyOp10
 70
     1
102
RTVSPropertyOp11
 70
     1
102
RTVSPropertyOp12
 70
     1
102
RTVSPropertyOp13
 70
     1
102
RTVSPropertyOp14
 70
     1
102
RTVSPropertyOp15
 70
     1
102
RTVSPropertyOp16
 70
     1
102
RTVSPropertyOp17
 70
     1
102
RTVSPropertyOp18
 70
     1
102
RTVSPropertyOp19
 70
     1
102
RTVSPropertyOp20
 70
     1
102
RTVSPropertyOp21
 70
     1
102
RTVSPropertyOp22
 70
     1
102
RTVSPropertyOp23
 70
     1
102
RTVSPropertyOp24
 70
     1
102
RTVSPropertyOp25
 70
     1
102
RTVSPropertyOp26
 70
     1
102
RTVSPropertyOp27
 70
     1
102
RTVSPropertyOp28
 70
     1
102
RTVSPropertyOp29
 70
     1
102
RTVSPropertyOp30
 70
     1
102
RTVSPropertyOp31
 70
     1
102
RTVSPropertyOp32
 70
     1
102
RTVSPropertyOp33
 70
     1
102
RTVSPropertyOp34
 70
     1
102
RTVSPropertyOp35
 70
     1
102
RTVSPropertyOp36
 70
     1
102
RTVSPropertyOp37
 70
     1
102
RTVSPropertyOp38
 70
     1
102
RTVSPropertyOp39
 70
     1
102
RTVSPropertyOp40
 70
     1
102
RTVSPropertyOp41
 70
     1
102
RTVSPropertyOp42
 70
     1
102
RTVSPropertyOp43
 70
     1
102
RTVSPropertyOp44
 70
     1
102
RTVSPropertyOp45
 70
     1
102
RTVSPropertyOp46
 70
     1
102
RTVSPropertyOp47
 70
     1
102
RTVSPropertyOp48
 70
     1
102
RTVSPropertyOp49
 70
     1
102
RTVSPropertyOp50
 70
     1
102
RTVSPropertyOp51
 70
     0
102
RTVSPropertyOp52
 70
     0
102
RTVSPropertyOp53
 70
     1
102
RTVSPropertyOp54
 70
     1
102
RTVSPropertyOp55
 70
     1
102
RTVSPropertyOp56
 70
     1
102
RTVSPropertyOp57
 70
     1
102
RTVSPost2010Prop28
280
     0
102
RTVSPost2010PropOp28
 70
     1
102
RTVSPost2010Prop29
280
     1
102
RTVSPost2010PropOp29
 70
     1
102
RTVSPost2010Prop30
280
     1
102
RTVSPost2010PropOp30
 70
     1
102
RTVSPost2010Prop31
280
     0
102
RTVSPost2010PropOp31
 70
     1
102
RTVSPost2010Prop32
280
     0
102
RTVSPost2010PropOp32
 70
     1
102
RTVSPost2010Prop33
280
     0
102
RTVSPost2010PropOp33
 70
     1
102
RTVSPost2010Prop34
280
     0
102
RTVSPost2010PropOp34
 70
     1
102
RTVSPost2010Prop35
280
     0
102
RTVSPost2010PropOp35
 70
     1
102
RTVSPost2010Prop36
280
     0
102
RTVSPost2010PropOp36
 70
     1
102
RTVSPost2010Prop37
 90
       50
102
RTVSPost2010PropOp37
 70
     1
102
RTVSPost2010Prop38
140
0.0
102
RTVSPost2010PropOp38
 70
     1
102
RTVSPost2010Prop39
140
1.0
102
RTVSPost2010PropOp39
 70
     1
102
RTVSPost2010Prop40
 90
        0
102
RTVSPost2010PropOp40
 70
     1
102
RTVSPost2010Prop41ColorIndex
 90
       18
102
RTVSPost2010Prop41ColorRGB
 90
        0
102
RTVSPost2010PropOp41
 70
     1
102
RTVSPost2010Prop42
 90
       50
102
RTVSPost2010PropOp42
 70
     1
102
RTVSPost2010Prop43
 90
        3
102
RTVSPost2010PropOp43
 70
     1
102
RTVSPost2010Prop44ColorIndex
 90
        5
102
RTVSPost2010Prop44ColorRGB
 90
      255
102
RTVSPost2010PropOp44
 70
     1
102
RTVSPost2010Prop45
280
     0
102
RTVSPost2010PropOp45
 70
     1
102
RTVSPost2010Prop46
 90
       50
102
RTVSPost2010PropOp46
 70
     1
102
RTVSPost2010Prop47
 90
       50
102
RTVSPost2010PropOp47
 70
     1
102
RTVSPost2010Prop48
 90
       50
102
RTVSPost2010PropOp48
 70
     1
102
RTVSPost2010Prop49
280
     0
102
RTVSPost2010PropOp49
 70
     1
102
RTVSPost2010Prop50
 90
       50
102
RTVSPost2010PropOp50
 70
     1
102
RTVSPost2010Prop51ColorIndex
 90
      256
102
RTVSPost2010Prop51ColorRGB
 90
-16777216
102
RTVSPost2010PropOp51
 70
     0
102
RTVSPost2010Prop52
140
1.0
102
RTVSPost2010PropOp52
 70
     0
102
RTVSPost2010Prop53
 90
        2
102
RTVSPost2010PropOp53
 70
     1
102
RTVSPost2010Prop54
  1
strokes_ogs.tif
102
RTVSPost2010PropOp54
 70
     1
102
RTVSPost2010Prop55
280
     0
102
RTVSPost2010PropOp55
 70
     1
102
RTVSPost2010Prop56
140
1.0
102
RTVSPost2010PropOp56
 70
     1
102
RTVSPost2010Prop57
140
1.0
102
RTVSPost2010PropOp57
 70
     1
  0
XRECORD
  5
4CE
102
{ACAD_REACTORS
330
4CD
102
}
330
4CD
100
AcDbXrecord
280
     1
102
RTVSPropertyOp0
 70
     1
102
RTVSPropertyOp1
 70
     1
102
RTVSPropertyOp2
 70
     1
102
RTVSPropertyOp3
 70
     1
102
RTVSPropertyOp4
 70
     1
102
RTVSPropertyOp5
 70
     1
102
RTVSPropertyOp6
 70
     1
102
RTVSPropertyOp7
 70
     1
102
RTVSPropertyOp8
 70
     1
102
RTVSPropertyOp9
 70
     1
102
RTVSPropertyOp10
 70
     1
102
RTVSPropertyOp11
 70
     1
102
RTVSPropertyOp12
 70
     1
102
RTVSPropertyOp13
 70
     1
102
RTVSPropertyOp14
 70
     1
102
RTVSPropertyOp15
 70
     1
102
RTVSPropertyOp16
 70
     1
102
RTVSPropertyOp17
 70
     1
102
RTVSPropertyOp18
 70
     1
102
RTVSPropertyOp19
 70
     1
102
RTVSPropertyOp20
 70
     1
102
RTVSPropertyOp21
 70
     1
102
RTVSPropertyOp22
 70
     1
102
RTVSPropertyOp23
 70
     1
102
RTVSPropertyOp24
 70
     1
102
RTVSPropertyOp25
 70
     1
102
RTVSPropertyOp26
 70
     1
102
RTVSPropertyOp27
 70
     1
102
RTVSPropertyOp28
 70
     1
102
RTVSPropertyOp29
 70
     1
102
RTVSPropertyOp30
 70
     1
102
RTVSPropertyOp31
 70
     1
102
RTVSPropertyOp32
 70
     1
102
RTVSPropertyOp33
 70
     1
102
RTVSPropertyOp34
 70
     1
102
RTVSPropertyOp35
 70
     1
102
RTVSPropertyOp36
 70
     1
102
RTVSPropertyOp37
 70
     1
102
RTVSPropertyOp38
 70
     1
102
RTVSPropertyOp39
 70
     1
102
RTVSPropertyOp40
 70
     1
102
RTVSPropertyOp41
 70
     1
102
RTVSPropertyOp42
 70
     1
102
RTVSPropertyOp43
 70
     1
102
RTVSPropertyOp44
 70
     1
102
RTVSPropertyOp45
 70
     1
102
RTVSPropertyOp46
 70
     1
102
RTVSPropertyOp47
 70
     1
102
RTVSPropertyOp48
 70
     1
102
RTVSPropertyOp49
 70
     1
102
RTVSPropertyOp50
 70
     1
102
RTVSPropertyOp51
 70
     0
102
RTVSPropertyOp52
 70
     0
102
RTVSPropertyOp53
 70
     1
102
RTVSPropertyOp54
 70
     1
102
RTVSPropertyOp55
 70
     1
102
RTVSPropertyOp56
 70
     1
102
RTVSPropertyOp57
 70
     1
102
RTVSPost2010Prop28
280
     0
102
RTVSPost2010PropOp28
 70
     1
102
RTVSPost2010Prop29
280
     1
102
RTVSPost2010PropOp29
 70
     1
102
RTVSPost2010Prop30
280
     1
102
RTVSPost2010PropOp30
 70
     1
102
RTVSPost2010Prop31
280
     0
102
RTVSPost2010PropOp31
 70
     1
102
RTVSPost2010Prop32
280
     0
102
RTVSPost2010PropOp32
 70
     1
102
RTVSPost2010Prop33
280
     0
102
RTVSPost2010PropOp33
 70
     1
102
RTVSPost2010Prop34
280
     0
102
RTVSPost2010PropOp34
 70
     1
102
RTVSPost2010Prop35
280
     0
102
RTVSPost2010PropOp35
 70
     1
102
RTVSPost2010Prop36
280
     0
102
RTVSPost2010PropOp36
 70
     1
102
RTVSPost2010Prop37
 90
       50
102
RTVSPost2010PropOp37
 70
     1
102
RTVSPost2010Prop38
140
0.0
102
RTVSPost2010PropOp38
 70
     1
102
RTVSPost2010Prop39
140
1.0
102
RTVSPost2010PropOp39
 70
     1
102
RTVSPost2010Prop40
 90
        0
102
RTVSPost2010PropOp40
 70
     1
102
RTVSPost2010Prop41ColorIndex
 90
       18
102
RTVSPost2010Prop41ColorRGB
 90
        0
102
RTVSPost2010PropOp41
 70
     1
102
RTVSPost2010Prop42
 90
       50
102
RTVSPost2010PropOp42
 70
     1
102
RTVSPost2010Prop43
 90
        3
102
RTVSPost2010PropOp43
 70
     1
102
RTVSPost2010Prop44ColorIndex
 90
        5
102
RTVSPost2010Prop44ColorRGB
 90
      255
102
RTVSPost2010PropOp44
 70
     1
102
RTVSPost2010Prop45
280
     0
102
RTVSPost2010PropOp45
 70
     1
102
RTVSPost2010Prop46
 90
       50
102
RTVSPost2010PropOp46
 70
     1
102
RTVSPost2010Prop47
 90
       50
102
RTVSPost2010PropOp47
 70
     1
102
RTVSPost2010Prop48
 90
       50
102
RTVSPost2010PropOp48
 70
     1
102
RTVSPost2010Prop49
280
     0
102
RTVSPost2010PropOp49
 70
     1
102
RTVSPost2010Prop50
 90
       50
102
RTVSPost2010PropOp50
 70
     1
102
RTVSPost2010Prop51ColorIndex
 90
      256
102
RTVSPost2010Prop51ColorRGB
 90
-16777216
102
RTVSPost2010PropOp51
 70
     0
102
RTVSPost2010Prop52
140
1.0
102
RTVSPost2010PropOp52
 70
     0
102
RTVSPost2010Prop53
 90
        2
102
RTVSPost2010PropOp53
 70
     1
102
RTVSPost2010Prop54
  1
strokes_ogs.tif
102
RTVSPost2010PropOp54
 70
     1
102
RTVSPost2010Prop55
280
     0
102
RTVSPost2010PropOp55
 70
     1
102
RTVSPost2010Prop56
140
1.0
102
RTVSPost2010PropOp56
 70
     1
102
RTVSPost2010Prop57
140
1.0
102
RTVSPost2010PropOp57
 70
     1
  0
XRECORD
  5
4D0
102
{ACAD_REACTORS
330
4CF
102
}
330
4CF
100
AcDbXrecord
280
     1
102
RTVSPropertyOp0
 70
     1
102
RTVSPropertyOp1
 70
     1
102
RTVSPropertyOp2
 70
     1
102
RTVSPropertyOp3
 70
     1
102
RTVSPropertyOp4
 70
     1
102
RTVSPropertyOp5
 70
     1
102
RTVSPropertyOp6
 70
     1
102
RTVSPropertyOp7
 70
     1
102
RTVSPropertyOp8
 70
     1
102
RTVSPropertyOp9
 70
     1
102
RTVSPropertyOp10
 70
     1
102
RTVSPropertyOp11
 70
     1
102
RTVSPropertyOp12
 70
     1
102
RTVSPropertyOp13
 70
     1
102
RTVSPropertyOp14
 70
     1
102
RTVSPropertyOp15
 70
     1
102
RTVSPropertyOp16
 70
     1
102
RTVSPropertyOp17
 70
     1
102
RTVSPropertyOp18
 70
     1
102
RTVSPropertyOp19
 70
     1
102
RTVSPropertyOp20
 70
     1
102
RTVSPropertyOp21
 70
     1
102
RTVSPropertyOp22
 70
     1
102
RTVSPropertyOp23
 70
     1
102
RTVSPropertyOp24
 70
     1
102
RTVSPropertyOp25
 70
     1
102
RTVSPropertyOp26
 70
     1
102
RTVSPropertyOp27
 70
     1
102
RTVSPropertyOp28
 70
     1
102
RTVSPropertyOp29
 70
     1
102
RTVSPropertyOp30
 70
     1
102
RTVSPropertyOp31
 70
     1
102
RTVSPropertyOp32
 70
     1
102
RTVSPropertyOp33
 70
     1
102
RTVSPropertyOp34
 70
     1
102
RTVSPropertyOp35
 70
     1
102
RTVSPropertyOp36
 70
     1
102
RTVSPropertyOp37
 70
     1
102
RTVSPropertyOp38
 70
     1
102
RTVSPropertyOp39
 70
     1
102
RTVSPropertyOp40
 70
     1
102
RTVSPropertyOp41
 70
     1
102
RTVSPropertyOp42
 70
     1
102
RTVSPropertyOp43
 70
     1
102
RTVSPropertyOp44
 70
     1
102
RTVSPropertyOp45
 70
     1
102
RTVSPropertyOp46
 70
     1
102
RTVSPropertyOp47
 70
     1
102
RTVSPropertyOp48
 70
     1
102
RTVSPropertyOp49
 70
     1
102
RTVSPropertyOp50
 70
     1
102
RTVSPropertyOp51
 70
     0
102
RTVSPropertyOp52
 70
     0
102
RTVSPropertyOp53
 70
     1
102
RTVSPropertyOp54
 70
     1
102
RTVSPropertyOp55
 70
     1
102
RTVSPropertyOp56
 70
     1
102
RTVSPropertyOp57
 70
     1
102
RTVSPost2010Prop28
280
     0
102
RTVSPost2010PropOp28
 70
     1
102
RTVSPost2010Prop29
280
     1
102
RTVSPost2010PropOp29
 70
     1
102
RTVSPost2010Prop30
280
     1
102
RTVSPost2010PropOp30
 70
     1
102
RTVSPost2010Prop31
280
     0
102
RTVSPost2010PropOp31
 70
     1
102
RTVSPost2010Prop32
280
     0
102
RTVSPost2010PropOp32
 70
     1
102
RTVSPost2010Prop33
280
     0
102
RTVSPost2010PropOp33
 70
     1
102
RTVSPost2010Prop34
280
     0
102
RTVSPost2010PropOp34
 70
     1
102
RTVSPost2010Prop35
280
     0
102
RTVSPost2010PropOp35
 70
     1
102
RTVSPost2010Prop36
280
     0
102
RTVSPost2010PropOp36
 70
     1
102
RTVSPost2010Prop37
 90
       50
102
RTVSPost2010PropOp37
 70
     1
102
RTVSPost2010Prop38
140
0.0
102
RTVSPost2010PropOp38
 70
     1
102
RTVSPost2010Prop39
140
1.0
102
RTVSPost2010PropOp39
 70
     1
102
RTVSPost2010Prop40
 90
        0
102
RTVSPost2010PropOp40
 70
     1
102
RTVSPost2010Prop41ColorIndex
 90
       18
102
RTVSPost2010Prop41ColorRGB
 90
        0
102
RTVSPost2010PropOp41
 70
     1
102
RTVSPost2010Prop42
 90
       50
102
RTVSPost2010PropOp42
 70
     1
102
RTVSPost2010Prop43
 90
        3
102
RTVSPost2010PropOp43
 70
     1
102
RTVSPost2010Prop44ColorIndex
 90
        5
102
RTVSPost2010Prop44ColorRGB
 90
      255
102
RTVSPost2010PropOp44
 70
     1
102
RTVSPost2010Prop45
280
     0
102
RTVSPost2010PropOp45
 70
     1
102
RTVSPost2010Prop46
 90
       50
102
RTVSPost2010PropOp46
 70
     1
102
RTVSPost2010Prop47
 90
       50
102
RTVSPost2010PropOp47
 70
     1
102
RTVSPost2010Prop48
 90
       50
102
RTVSPost2010PropOp48
 70
     1
102
RTVSPost2010Prop49
280
     0
102
RTVSPost2010PropOp49
 70
     1
102
RTVSPost2010Prop50
 90
       50
102
RTVSPost2010PropOp50
 70
     1
102
RTVSPost2010Prop51ColorIndex
 90
      256
102
RTVSPost2010Prop51ColorRGB
 90
-16777216
102
RTVSPost2010PropOp51
 70
     0
102
RTVSPost2010Prop52
140
1.0
102
RTVSPost2010PropOp52
 70
     0
102
RTVSPost2010Prop53
 90
        2
102
RTVSPost2010PropOp53
 70
     1
102
RTVSPost2010Prop54
  1
strokes_ogs.tif
102
RTVSPost2010PropOp54
 70
     1
102
RTVSPost2010Prop55
280
     0
102
RTVSPost2010PropOp55
 70
     1
102
RTVSPost2010Prop56
140
1.0
102
RTVSPost2010PropOp56
 70
     1
102
RTVSPost2010Prop57
140
1.0
102
RTVSPost2010PropOp57
 70
     1
  0
XRECORD
  5
4D6
102
{ACAD_REACTORS
330
4D5
102
}
330
4D5
100
AcDbXrecord
280
     1
102
RTVSPropertyOp0
 70
     1
102
RTVSPropertyOp1
 70
     1
102
RTVSPropertyOp2
 70
     1
102
RTVSPropertyOp3
 70
     1
102
RTVSPropertyOp4
 70
     1
102
RTVSPropertyOp5
 70
     1
102
RTVSPropertyOp6
 70
     1
102
RTVSPropertyOp7
 70
     1
102
RTVSPropertyOp8
 70
     1
102
RTVSPropertyOp9
 70
     1
102
RTVSPropertyOp10
 70
     1
102
RTVSPropertyOp11
 70
     1
102
RTVSPropertyOp12
 70
     1
102
RTVSPropertyOp13
 70
     1
102
RTVSPropertyOp14
 70
     1
102
RTVSPropertyOp15
 70
     1
102
RTVSPropertyOp16
 70
     1
102
RTVSPropertyOp17
 70
     1
102
RTVSPropertyOp18
 70
     1
102
RTVSPropertyOp19
 70
     1
102
RTVSPropertyOp20
 70
     1
102
RTVSPropertyOp21
 70
     1
102
RTVSPropertyOp22
 70
     1
102
RTVSPropertyOp23
 70
     1
102
RTVSPropertyOp24
 70
     1
102
RTVSPropertyOp25
 70
     1
102
RTVSPropertyOp26
 70
     1
102
RTVSPropertyOp27
 70
     1
102
RTVSPropertyOp28
 70
     1
102
RTVSPropertyOp29
 70
     1
102
RTVSPropertyOp30
 70
     1
102
RTVSPropertyOp31
 70
     1
102
RTVSPropertyOp32
 70
     1
102
RTVSPropertyOp33
 70
     1
102
RTVSPropertyOp34
 70
     1
102
RTVSPropertyOp35
 70
     1
102
RTVSPropertyOp36
 70
     1
102
RTVSPropertyOp37
 70
     1
102
RTVSPropertyOp38
 70
     1
102
RTVSPropertyOp39
 70
     1
102
RTVSPropertyOp40
 70
     1
102
RTVSPropertyOp41
 70
     1
102
RTVSPropertyOp42
 70
     1
102
RTVSPropertyOp43
 70
     1
102
RTVSPropertyOp44
 70
     1
102
RTVSPropertyOp45
 70
     1
102
RTVSPropertyOp46
 70
     1
102
RTVSPropertyOp47
 70
     1
102
RTVSPropertyOp48
 70
     1
102
RTVSPropertyOp49
 70
     1
102
RTVSPropertyOp50
 70
     1
102
RTVSPropertyOp51
 70
     0
102
RTVSPropertyOp52
 70
     0
102
RTVSPropertyOp53
 70
     1
102
RTVSPropertyOp54
 70
     1
102
RTVSPropertyOp55
 70
     1
102
RTVSPropertyOp56
 70
     1
102
RTVSPropertyOp57
 70
     1
102
RTVSPost2010Prop28
280
     0
102
RTVSPost2010PropOp28
 70
     1
102
RTVSPost2010Prop29
280
     1
102
RTVSPost2010PropOp29
 70
     1
102
RTVSPost2010Prop30
280
     1
102
RTVSPost2010PropOp30
 70
     1
102
RTVSPost2010Prop31
280
     0
102
RTVSPost2010PropOp31
 70
     1
102
RTVSPost2010Prop32
280
     0
102
RTVSPost2010PropOp32
 70
     1
102
RTVSPost2010Prop33
280
     0
102
RTVSPost2010PropOp33
 70
     1
102
RTVSPost2010Prop34
280
     0
102
RTVSPost2010PropOp34
 70
     1
102
RTVSPost2010Prop35
280
     0
102
RTVSPost2010PropOp35
 70
     1
102
RTVSPost2010Prop36
280
     0
102
RTVSPost2010PropOp36
 70
     1
102
RTVSPost2010Prop37
 90
       50
102
RTVSPost2010PropOp37
 70
     1
102
RTVSPost2010Prop38
140
0.0
102
RTVSPost2010PropOp38
 70
     1
102
RTVSPost2010Prop39
140
1.0
102
RTVSPost2010PropOp39
 70
     1
102
RTVSPost2010Prop40
 90
        0
102
RTVSPost2010PropOp40
 70
     1
102
RTVSPost2010Prop41ColorIndex
 90
       18
102
RTVSPost2010Prop41ColorRGB
 90
        0
102
RTVSPost2010PropOp41
 70
     1
102
RTVSPost2010Prop42
 90
       50
102
RTVSPost2010PropOp42
 70
     1
102
RTVSPost2010Prop43
 90
        3
102
RTVSPost2010PropOp43
 70
     1
102
RTVSPost2010Prop44ColorIndex
 90
        5
102
RTVSPost2010Prop44ColorRGB
 90
      255
102
RTVSPost2010PropOp44
 70
     1
102
RTVSPost2010Prop45
280
     0
102
RTVSPost2010PropOp45
 70
     1
102
RTVSPost2010Prop46
 90
       50
102
RTVSPost2010PropOp46
 70
     1
102
RTVSPost2010Prop47
 90
       50
102
RTVSPost2010PropOp47
 70
     1
102
RTVSPost2010Prop48
 90
       50
102
RTVSPost2010PropOp48
 70
     1
102
RTVSPost2010Prop49
280
     0
102
RTVSPost2010PropOp49
 70
     1
102
RTVSPost2010Prop50
 90
       50
102
RTVSPost2010PropOp50
 70
     1
102
RTVSPost2010Prop51ColorIndex
 90
      256
102
RTVSPost2010Prop51ColorRGB
 90
-16777216
102
RTVSPost2010PropOp51
 70
     0
102
RTVSPost2010Prop52
140
1.0
102
RTVSPost2010PropOp52
 70
     0
102
RTVSPost2010Prop53
 90
        2
102
RTVSPost2010PropOp53
 70
     1
102
RTVSPost2010Prop54
  1
strokes_ogs.tif
102
RTVSPost2010PropOp54
 70
     1
102
RTVSPost2010Prop55
280
     0
102
RTVSPost2010PropOp55
 70
     1
102
RTVSPost2010Prop56
140
1.0
102
RTVSPost2010PropOp56
 70
     1
102
RTVSPost2010Prop57
140
1.0
102
RTVSPost2010PropOp57
 70
     1
  0
XRECORD
  5
4EA
102
{ACAD_REACTORS
330
4E9
102
}
330
4E9
100
AcDbXrecord
280
     1
102
RTVSPropertyOp0
 70
     0
102
RTVSPropertyOp1
 70
     0
102
RTVSPropertyOp2
 70
     0
102
RTVSPropertyOp3
 70
     0
102
RTVSPropertyOp4
 70
     0
102
RTVSPropertyOp5
 70
     0
102
RTVSPropertyOp6
 70
     0
102
RTVSPropertyOp7
 70
     0
102
RTVSPropertyOp8
 70
     0
102
RTVSPropertyOp9
 70
     0
102
RTVSPropertyOp10
 70
     0
102
RTVSPropertyOp11
 70
     0
102
RTVSPropertyOp12
 70
     0
102
RTVSPropertyOp13
 70
     0
102
RTVSPropertyOp14
 70
     0
102
RTVSPropertyOp15
 70
     0
102
RTVSPropertyOp16
 70
     0
102
RTVSPropertyOp17
 70
     0
102
RTVSPropertyOp18
 70
     0
102
RTVSPropertyOp19
 70
     0
102
RTVSPropertyOp20
 70
     0
102
RTVSPropertyOp21
 70
     0
102
RTVSPropertyOp22
 70
     0
102
RTVSPropertyOp23
 70
     0
102
RTVSPropertyOp24
 70
     0
102
RTVSPropertyOp25
 70
     0
102
RTVSPropertyOp26
 70
     0
102
RTVSPropertyOp27
 70
     0
102
RTVSPropertyOp28
 70
     1
102
RTVSPropertyOp29
 70
     1
102
RTVSPropertyOp30
 70
     1
102
RTVSPropertyOp31
 70
     1
102
RTVSPropertyOp32
 70
     1
102
RTVSPropertyOp33
 70
     1
102
RTVSPropertyOp34
 70
     1
102
RTVSPropertyOp35
 70
     1
102
RTVSPropertyOp36
 70
     1
102
RTVSPropertyOp37
 70
     1
102
RTVSPropertyOp38
 70
     1
102
RTVSPropertyOp39
 70
     1
102
RTVSPropertyOp40
 70
     1
102
RTVSPropertyOp41
 70
     1
102
RTVSPropertyOp42
 70
     1
102
RTVSPropertyOp43
 70
     1
102
RTVSPropertyOp44
 70
     1
102
RTVSPropertyOp45
 70
     1
102
RTVSPropertyOp46
 70
     1
102
RTVSPropertyOp47
 70
     1
102
RTVSPropertyOp48
 70
     1
102
RTVSPropertyOp49
 70
     1
102
RTVSPropertyOp50
 70
     1
102
RTVSPropertyOp51
 70
     0
102
RTVSPropertyOp52
 70
     0
102
RTVSPropertyOp53
 70
     1
102
RTVSPropertyOp54
 70
     1
102
RTVSPropertyOp55
 70
     1
102
RTVSPropertyOp56
 70
     1
102
RTVSPropertyOp57
 70
     1
102
RTVSPost2010Prop28
280
     0
102
RTVSPost2010PropOp28
 70
     1
102
RTVSPost2010Prop29
280
     1
102
RTVSPost2010PropOp29
 70
     1
102
RTVSPost2010Prop30
280
     1
102
RTVSPost2010PropOp30
 70
     1
102
RTVSPost2010Prop31
280
     0
102
RTVSPost2010PropOp31
 70
     1
102
RTVSPost2010Prop32
280
     0
102
RTVSPost2010PropOp32
 70
     1
102
RTVSPost2010Prop33
280
     0
102
RTVSPost2010PropOp33
 70
     1
102
RTVSPost2010Prop34
280
     0
102
RTVSPost2010PropOp34
 70
     1
102
RTVSPost2010Prop35
280
     0
102
RTVSPost2010PropOp35
 70
     1
102
RTVSPost2010Prop36
280
     0
102
RTVSPost2010PropOp36
 70
     1
102
RTVSPost2010Prop37
 90
       50
102
RTVSPost2010PropOp37
 70
     1
102
RTVSPost2010Prop38
140
0.0
102
RTVSPost2010PropOp38
 70
     1
102
RTVSPost2010Prop39
140
1.0
102
RTVSPost2010PropOp39
 70
     1
102
RTVSPost2010Prop40
 90
        0
102
RTVSPost2010PropOp40
 70
     1
102
RTVSPost2010Prop41ColorIndex
 90
       18
102
RTVSPost2010Prop41ColorRGB
 90
        0
102
RTVSPost2010PropOp41
 70
     1
102
RTVSPost2010Prop42
 90
       50
102
RTVSPost2010PropOp42
 70
     1
102
RTVSPost2010Prop43
 90
        3
102
RTVSPost2010PropOp43
 70
     1
102
RTVSPost2010Prop44ColorIndex
 90
        5
102
RTVSPost2010Prop44ColorRGB
 90
      255
102
RTVSPost2010PropOp44
 70
     1
102
RTVSPost2010Prop45
280
     0
102
RTVSPost2010PropOp45
 70
     1
102
RTVSPost2010Prop46
 90
       50
102
RTVSPost2010PropOp46
 70
     1
102
RTVSPost2010Prop47
 90
       50
102
RTVSPost2010PropOp47
 70
     1
102
RTVSPost2010Prop48
 90
       50
102
RTVSPost2010PropOp48
 70
     1
102
RTVSPost2010Prop49
280
     0
102
RTVSPost2010PropOp49
 70
     1
102
RTVSPost2010Prop50
 90
       50
102
RTVSPost2010PropOp50
 70
     1
102
RTVSPost2010Prop51ColorIndex
 90
      256
102
RTVSPost2010Prop51ColorRGB
 90
-16777216
102
RTVSPost2010PropOp51
 70
     0
102
RTVSPost2010Prop52
140
1.0
102
RTVSPost2010PropOp52
 70
     0
102
RTVSPost2010Prop53
 90
        2
102
RTVSPost2010PropOp53
 70
     1
102
RTVSPost2010Prop54
  1
strokes_ogs.tif
102
RTVSPost2010PropOp54
 70
     1
102
RTVSPost2010Prop55
280
     0
102
RTVSPost2010PropOp55
 70
     1
102
RTVSPost2010Prop56
140
1.0
102
RTVSPost2010PropOp56
 70
     1
102
RTVSPost2010Prop57
140
1.0
102
RTVSPost2010PropOp57
 70
     1
  0
XRECORD
  5
4E4
102
{ACAD_REACTORS
330
4E3
102
}
330
4E3
100
AcDbXrecord
280
     1
102
RTVSPropertyOp0
 70
     1
102
RTVSPropertyOp1
 70
     1
102
RTVSPropertyOp2
 70
     1
102
RTVSPropertyOp3
 70
     1
102
RTVSPropertyOp4
 70
     1
102
RTVSPropertyOp5
 70
     1
102
RTVSPropertyOp6
 70
     1
102
RTVSPropertyOp7
 70
     1
102
RTVSPropertyOp8
 70
     1
102
RTVSPropertyOp9
 70
     1
102
RTVSPropertyOp10
 70
     1
102
RTVSPropertyOp11
 70
     1
102
RTVSPropertyOp12
 70
     1
102
RTVSPropertyOp13
 70
     1
102
RTVSPropertyOp14
 70
     1
102
RTVSPropertyOp15
 70
     1
102
RTVSPropertyOp16
 70
     1
102
RTVSPropertyOp17
 70
     1
102
RTVSPropertyOp18
 70
     1
102
RTVSPropertyOp19
 70
     1
102
RTVSPropertyOp20
 70
     1
102
RTVSPropertyOp21
 70
     1
102
RTVSPropertyOp22
 70
     1
102
RTVSPropertyOp23
 70
     1
102
RTVSPropertyOp24
 70
     1
102
RTVSPropertyOp25
 70
     1
102
RTVSPropertyOp26
 70
     1
102
RTVSPropertyOp27
 70
     1
102
RTVSPropertyOp28
 70
     1
102
RTVSPropertyOp29
 70
     1
102
RTVSPropertyOp30
 70
     1
102
RTVSPropertyOp31
 70
     1
102
RTVSPropertyOp32
 70
     1
102
RTVSPropertyOp33
 70
     1
102
RTVSPropertyOp34
 70
     1
102
RTVSPropertyOp35
 70
     1
102
RTVSPropertyOp36
 70
     1
102
RTVSPropertyOp37
 70
     1
102
RTVSPropertyOp38
 70
     1
102
RTVSPropertyOp39
 70
     1
102
RTVSPropertyOp40
 70
     1
102
RTVSPropertyOp41
 70
     1
102
RTVSPropertyOp42
 70
     1
102
RTVSPropertyOp43
 70
     1
102
RTVSPropertyOp44
 70
     1
102
RTVSPropertyOp45
 70
     1
102
RTVSPropertyOp46
 70
     1
102
RTVSPropertyOp47
 70
     1
102
RTVSPropertyOp48
 70
     1
102
RTVSPropertyOp49
 70
     1
102
RTVSPropertyOp50
 70
     1
102
RTVSPropertyOp51
 70
     0
102
RTVSPropertyOp52
 70
     0
102
RTVSPropertyOp53
 70
     1
102
RTVSPropertyOp54
 70
     1
102
RTVSPropertyOp55
 70
     1
102
RTVSPropertyOp56
 70
     1
102
RTVSPropertyOp57
 70
     1
102
RTVSPost2010Prop28
280
     0
102
RTVSPost2010PropOp28
 70
     1
102
RTVSPost2010Prop29
280
     1
102
RTVSPost2010PropOp29
 70
     1
102
RTVSPost2010Prop30
280
     1
102
RTVSPost2010PropOp30
 70
     1
102
RTVSPost2010Prop31
280
     0
102
RTVSPost2010PropOp31
 70
     1
102
RTVSPost2010Prop32
280
     0
102
RTVSPost2010PropOp32
 70
     1
102
RTVSPost2010Prop33
280
     0
102
RTVSPost2010PropOp33
 70
     1
102
RTVSPost2010Prop34
280
     0
102
RTVSPost2010PropOp34
 70
     1
102
RTVSPost2010Prop35
280
     0
102
RTVSPost2010PropOp35
 70
     1
102
RTVSPost2010Prop36
280
     0
102
RTVSPost2010PropOp36
 70
     1
102
RTVSPost2010Prop37
 90
       50
102
RTVSPost2010PropOp37
 70
     1
102
RTVSPost2010Prop38
140
0.0
102
RTVSPost2010PropOp38
 70
     1
102
RTVSPost2010Prop39
140
1.0
102
RTVSPost2010PropOp39
 70
     1
102
RTVSPost2010Prop40
 90
        0
102
RTVSPost2010PropOp40
 70
     1
102
RTVSPost2010Prop41ColorIndex
 90
       18
102
RTVSPost2010Prop41ColorRGB
 90
        0
102
RTVSPost2010PropOp41
 70
     1
102
RTVSPost2010Prop42
 90
       50
102
RTVSPost2010PropOp42
 70
     1
102
RTVSPost2010Prop43
 90
        3
102
RTVSPost2010PropOp43
 70
     1
102
RTVSPost2010Prop44ColorIndex
 90
        5
102
RTVSPost2010Prop44ColorRGB
 90
      255
102
RTVSPost2010PropOp44
 70
     1
102
RTVSPost2010Prop45
280
     0
102
RTVSPost2010PropOp45
 70
     1
102
RTVSPost2010Prop46
 90
       50
102
RTVSPost2010PropOp46
 70
     1
102
RTVSPost2010Prop47
 90
       50
102
RTVSPost2010PropOp47
 70
     1
102
RTVSPost2010Prop48
 90
       50
102
RTVSPost2010PropOp48
 70
     1
102
RTVSPost2010Prop49
280
     0
102
RTVSPost2010PropOp49
 70
     1
102
RTVSPost2010Prop50
 90
       50
102
RTVSPost2010PropOp50
 70
     1
102
RTVSPost2010Prop51ColorIndex
 90
      256
102
RTVSPost2010Prop51ColorRGB
 90
-16777216
102
RTVSPost2010PropOp51
 70
     0
102
RTVSPost2010Prop52
140
1.0
102
RTVSPost2010PropOp52
 70
     0
102
RTVSPost2010Prop53
 90
        2
102
RTVSPost2010PropOp53
 70
     1
102
RTVSPost2010Prop54
  1
strokes_ogs.tif
102
RTVSPost2010PropOp54
 70
     1
102
RTVSPost2010Prop55
280
     0
102
RTVSPost2010PropOp55
 70
     1
102
RTVSPost2010Prop56
140
1.0
102
RTVSPost2010PropOp56
 70
     1
102
RTVSPost2010Prop57
140
1.0
102
RTVSPost2010PropOp57
 70
     1
  0
XRECORD
  5
4EC
102
{ACAD_REACTORS
330
4EB
102
}
330
4EB
100
AcDbXrecord
280
     1
102
RTVSPropertyOp0
 70
     0
102
RTVSPropertyOp1
 70
     0
102
RTVSPropertyOp2
 70
     0
102
RTVSPropertyOp3
 70
     0
102
RTVSPropertyOp4
 70
     0
102
RTVSPropertyOp5
 70
     0
102
RTVSPropertyOp6
 70
     0
102
RTVSPropertyOp7
 70
     0
102
RTVSPropertyOp8
 70
     0
102
RTVSPropertyOp9
 70
     0
102
RTVSPropertyOp10
 70
     0
102
RTVSPropertyOp11
 70
     0
102
RTVSPropertyOp12
 70
     0
102
RTVSPropertyOp13
 70
     0
102
RTVSPropertyOp14
 70
     0
102
RTVSPropertyOp15
 70
     0
102
RTVSPropertyOp16
 70
     0
102
RTVSPropertyOp17
 70
     0
102
RTVSPropertyOp18
 70
     0
102
RTVSPropertyOp19
 70
     0
102
RTVSPropertyOp20
 70
     0
102
RTVSPropertyOp21
 70
     0
102
RTVSPropertyOp22
 70
     0
102
RTVSPropertyOp23
 70
     0
102
RTVSPropertyOp24
 70
     0
102
RTVSPropertyOp25
 70
     0
102
RTVSPropertyOp26
 70
     0
102
RTVSPropertyOp27
 70
     0
102
RTVSPropertyOp28
 70
     1
102
RTVSPropertyOp29
 70
     1
102
RTVSPropertyOp30
 70
     1
102
RTVSPropertyOp31
 70
     1
102
RTVSPropertyOp32
 70
     1
102
RTVSPropertyOp33
 70
     1
102
RTVSPropertyOp34
 70
     1
102
RTVSPropertyOp35
 70
     1
102
RTVSPropertyOp36
 70
     1
102
RTVSPropertyOp37
 70
     1
102
RTVSPropertyOp38
 70
     1
102
RTVSPropertyOp39
 70
     1
102
RTVSPropertyOp40
 70
     1
102
RTVSPropertyOp41
 70
     1
102
RTVSPropertyOp42
 70
     1
102
RTVSPropertyOp43
 70
     1
102
RTVSPropertyOp44
 70
     1
102
RTVSPropertyOp45
 70
     1
102
RTVSPropertyOp46
 70
     1
102
RTVSPropertyOp47
 70
     1
102
RTVSPropertyOp48
 70
     1
102
RTVSPropertyOp49
 70
     1
102
RTVSPropertyOp50
 70
     1
102
RTVSPropertyOp51
 70
     0
102
RTVSPropertyOp52
 70
     0
102
RTVSPropertyOp53
 70
     1
102
RTVSPropertyOp54
 70
     1
102
RTVSPropertyOp55
 70
     1
102
RTVSPropertyOp56
 70
     1
102
RTVSPropertyOp57
 70
     1
102
RTVSPost2010Prop28
280
     0
102
RTVSPost2010PropOp28
 70
     1
102
RTVSPost2010Prop29
280
     1
102
RTVSPost2010PropOp29
 70
     1
102
RTVSPost2010Prop30
280
     1
102
RTVSPost2010PropOp30
 70
     1
102
RTVSPost2010Prop31
280
     0
102
RTVSPost2010PropOp31
 70
     1
102
RTVSPost2010Prop32
280
     0
102
RTVSPost2010PropOp32
 70
     1
102
RTVSPost2010Prop33
280
     0
102
RTVSPost2010PropOp33
 70
     1
102
RTVSPost2010Prop34
280
     0
102
RTVSPost2010PropOp34
 70
     1
102
RTVSPost2010Prop35
280
     0
102
RTVSPost2010PropOp35
 70
     1
102
RTVSPost2010Prop36
280
     0
102
RTVSPost2010PropOp36
 70
     1
102
RTVSPost2010Prop37
 90
       50
102
RTVSPost2010PropOp37
 70
     1
102
RTVSPost2010Prop38
140
0.0
102
RTVSPost2010PropOp38
 70
     1
102
RTVSPost2010Prop39
140
1.0
102
RTVSPost2010PropOp39
 70
     1
102
RTVSPost2010Prop40
 90
        0
102
RTVSPost2010PropOp40
 70
     1
102
RTVSPost2010Prop41ColorIndex
 90
       18
102
RTVSPost2010Prop41ColorRGB
 90
        0
102
RTVSPost2010PropOp41
 70
     1
102
RTVSPost2010Prop42
 90
       50
102
RTVSPost2010PropOp42
 70
     1
102
RTVSPost2010Prop43
 90
        3
102
RTVSPost2010PropOp43
 70
     1
102
RTVSPost2010Prop44ColorIndex
 90
        5
102
RTVSPost2010Prop44ColorRGB
 90
      255
102
RTVSPost2010PropOp44
 70
     1
102
RTVSPost2010Prop45
280
     0
102
RTVSPost2010PropOp45
 70
     1
102
RTVSPost2010Prop46
 90
       50
102
RTVSPost2010PropOp46
 70
     1
102
RTVSPost2010Prop47
 90
       50
102
RTVSPost2010PropOp47
 70
     1
102
RTVSPost2010Prop48
 90
       50
102
RTVSPost2010PropOp48
 70
     1
102
RTVSPost2010Prop49
280
     0
102
RTVSPost2010PropOp49
 70
     1
102
RTVSPost2010Prop50
 90
       50
102
RTVSPost2010PropOp50
 70
     1
102
RTVSPost2010Prop51ColorIndex
 90
      256
102
RTVSPost2010Prop51ColorRGB
 90
-16777216
102
RTVSPost2010PropOp51
 70
     0
102
RTVSPost2010Prop52
140
1.0
102
RTVSPost2010PropOp52
 70
     0
102
RTVSPost2010Prop53
 90
        2
102
RTVSPost2010PropOp53
 70
     1
102
RTVSPost2010Prop54
  1
strokes_ogs.tif
102
RTVSPost2010PropOp54
 70
     1
102
RTVSPost2010Prop55
280
     0
102
RTVSPost2010PropOp55
 70
     1
102
RTVSPost2010Prop56
140
1.0
102
RTVSPost2010PropOp56
 70
     1
102
RTVSPost2010Prop57
140
1.0
102
RTVSPost2010PropOp57
 70
     1
  0
XRECORD
  5
4DA
102
{ACAD_REACTORS
330
4D9
102
}
330
4D9
100
AcDbXrecord
280
     1
102
RTVSPropertyOp0
 70
     1
102
RTVSPropertyOp1
 70
     1
102
RTVSPropertyOp2
 70
     1
102
RTVSPropertyOp3
 70
     1
102
RTVSPropertyOp4
 70
     1
102
RTVSPropertyOp5
 70
     1
102
RTVSPropertyOp6
 70
     1
102
RTVSPropertyOp7
 70
     1
102
RTVSPropertyOp8
 70
     1
102
RTVSPropertyOp9
 70
     1
102
RTVSPropertyOp10
 70
     1
102
RTVSPropertyOp11
 70
     1
102
RTVSPropertyOp12
 70
     1
102
RTVSPropertyOp13
 70
     1
102
RTVSPropertyOp14
 70
     1
102
RTVSPropertyOp15
 70
     1
102
RTVSPropertyOp16
 70
     1
102
RTVSPropertyOp17
 70
     1
102
RTVSPropertyOp18
 70
     1
102
RTVSPropertyOp19
 70
     1
102
RTVSPropertyOp20
 70
     1
102
RTVSPropertyOp21
 70
     1
102
RTVSPropertyOp22
 70
     1
102
RTVSPropertyOp23
 70
     1
102
RTVSPropertyOp24
 70
     1
102
RTVSPropertyOp25
 70
     1
102
RTVSPropertyOp26
 70
     1
102
RTVSPropertyOp27
 70
     1
102
RTVSPropertyOp28
 70
     1
102
RTVSPropertyOp29
 70
     1
102
RTVSPropertyOp30
 70
     1
102
RTVSPropertyOp31
 70
     1
102
RTVSPropertyOp32
 70
     1
102
RTVSPropertyOp33
 70
     1
102
RTVSPropertyOp34
 70
     1
102
RTVSPropertyOp35
 70
     1
102
RTVSPropertyOp36
 70
     1
102
RTVSPropertyOp37
 70
     1
102
RTVSPropertyOp38
 70
     1
102
RTVSPropertyOp39
 70
     1
102
RTVSPropertyOp40
 70
     1
102
RTVSPropertyOp41
 70
     1
102
RTVSPropertyOp42
 70
     1
102
RTVSPropertyOp43
 70
     1
102
RTVSPropertyOp44
 70
     1
102
RTVSPropertyOp45
 70
     1
102
RTVSPropertyOp46
 70
     1
102
RTVSPropertyOp47
 70
     1
102
RTVSPropertyOp48
 70
     1
102
RTVSPropertyOp49
 70
     1
102
RTVSPropertyOp50
 70
     1
102
RTVSPropertyOp51
 70
     0
102
RTVSPropertyOp52
 70
     0
102
RTVSPropertyOp53
 70
     1
102
RTVSPropertyOp54
 70
     1
102
RTVSPropertyOp55
 70
     1
102
RTVSPropertyOp56
 70
     1
102
RTVSPropertyOp57
 70
     1
102
RTVSPost2010Prop28
280
     0
102
RTVSPost2010PropOp28
 70
     1
102
RTVSPost2010Prop29
280
     1
102
RTVSPost2010PropOp29
 70
     1
102
RTVSPost2010Prop30
280
     1
102
RTVSPost2010PropOp30
 70
     1
102
RTVSPost2010Prop31
280
     0
102
RTVSPost2010PropOp31
 70
     1
102
RTVSPost2010Prop32
280
     0
102
RTVSPost2010PropOp32
 70
     1
102
RTVSPost2010Prop33
280
     0
102
RTVSPost2010PropOp33
 70
     1
102
RTVSPost2010Prop34
280
     0
102
RTVSPost2010PropOp34
 70
     1
102
RTVSPost2010Prop35
280
     0
102
RTVSPost2010PropOp35
 70
     1
102
RTVSPost2010Prop36
280
     0
102
RTVSPost2010PropOp36
 70
     1
102
RTVSPost2010Prop37
 90
       50
102
RTVSPost2010PropOp37
 70
     1
102
RTVSPost2010Prop38
140
0.0
102
RTVSPost2010PropOp38
 70
     1
102
RTVSPost2010Prop39
140
1.0
102
RTVSPost2010PropOp39
 70
     1
102
RTVSPost2010Prop40
 90
        0
102
RTVSPost2010PropOp40
 70
     1
102
RTVSPost2010Prop41ColorIndex
 90
       18
102
RTVSPost2010Prop41ColorRGB
 90
        0
102
RTVSPost2010PropOp41
 70
     1
102
RTVSPost2010Prop42
 90
       50
102
RTVSPost2010PropOp42
 70
     1
102
RTVSPost2010Prop43
 90
        3
102
RTVSPost2010PropOp43
 70
     1
102
RTVSPost2010Prop44ColorIndex
 90
        5
102
RTVSPost2010Prop44ColorRGB
 90
      255
102
RTVSPost2010PropOp44
 70
     1
102
RTVSPost2010Prop45
280
     0
102
RTVSPost2010PropOp45
 70
     1
102
RTVSPost2010Prop46
 90
       50
102
RTVSPost2010PropOp46
 70
     1
102
RTVSPost2010Prop47
 90
       50
102
RTVSPost2010PropOp47
 70
     1
102
RTVSPost2010Prop48
 90
       50
102
RTVSPost2010PropOp48
 70
     1
102
RTVSPost2010Prop49
280
     0
102
RTVSPost2010PropOp49
 70
     1
102
RTVSPost2010Prop50
 90
       50
102
RTVSPost2010PropOp50
 70
     1
102
RTVSPost2010Prop51ColorIndex
 90
      256
102
RTVSPost2010Prop51ColorRGB
 90
-16777216
102
RTVSPost2010PropOp51
 70
     0
102
RTVSPost2010Prop52
140
1.0
102
RTVSPost2010PropOp52
 70
     0
102
RTVSPost2010Prop53
 90
        2
102
RTVSPost2010PropOp53
 70
     1
102
RTVSPost2010Prop54
  1
strokes_ogs.tif
102
RTVSPost2010PropOp54
 70
     1
102
RTVSPost2010Prop55
280
     0
102
RTVSPost2010PropOp55
 70
     1
102
RTVSPost2010Prop56
140
1.0
102
RTVSPost2010PropOp56
 70
     1
102
RTVSPost2010Prop57
140
1.0
102
RTVSPost2010PropOp57
 70
     1
  0
XRECORD
  5
4F8
102
{ACAD_REACTORS
330
4F7
102
}
330
4F7
100
AcDbXrecord
280
     1
102
RTVSPropertyOp0
 70
     1
102
RTVSPropertyOp1
 70
     1
102
RTVSPropertyOp2
 70
     1
102
RTVSPropertyOp3
 70
     1
102
RTVSPropertyOp4
 70
     1
102
RTVSPropertyOp5
 70
     1
102
RTVSPropertyOp6
 70
     1
102
RTVSPropertyOp7
 70
     1
102
RTVSPropertyOp8
 70
     1
102
RTVSPropertyOp9
 70
     1
102
RTVSPropertyOp10
 70
     1
102
RTVSPropertyOp11
 70
     1
102
RTVSPropertyOp12
 70
     1
102
RTVSPropertyOp13
 70
     1
102
RTVSPropertyOp14
 70
     1
102
RTVSPropertyOp15
 70
     1
102
RTVSPropertyOp16
 70
     1
102
RTVSPropertyOp17
 70
     1
102
RTVSPropertyOp18
 70
     1
102
RTVSPropertyOp19
 70
     1
102
RTVSPropertyOp20
 70
     1
102
RTVSPropertyOp21
 70
     1
102
RTVSPropertyOp22
 70
     1
102
RTVSPropertyOp23
 70
     1
102
RTVSPropertyOp24
 70
     1
102
RTVSPropertyOp25
 70
     1
102
RTVSPropertyOp26
 70
     1
102
RTVSPropertyOp27
 70
     1
102
RTVSPropertyOp28
 70
     1
102
RTVSPropertyOp29
 70
     1
102
RTVSPropertyOp30
 70
     1
102
RTVSPropertyOp31
 70
     1
102
RTVSPropertyOp32
 70
     1
102
RTVSPropertyOp33
 70
     1
102
RTVSPropertyOp34
 70
     1
102
RTVSPropertyOp35
 70
     1
102
RTVSPropertyOp36
 70
     1
102
RTVSPropertyOp37
 70
     1
102
RTVSPropertyOp38
 70
     1
102
RTVSPropertyOp39
 70
     1
102
RTVSPropertyOp40
 70
     1
102
RTVSPropertyOp41
 70
     1
102
RTVSPropertyOp42
 70
     1
102
RTVSPropertyOp43
 70
     1
102
RTVSPropertyOp44
 70
     1
102
RTVSPropertyOp45
 70
     1
102
RTVSPropertyOp46
 70
     1
102
RTVSPropertyOp47
 70
     1
102
RTVSPropertyOp48
 70
     1
102
RTVSPropertyOp49
 70
     1
102
RTVSPropertyOp50
 70
     1
102
RTVSPropertyOp51
 70
     0
102
RTVSPropertyOp52
 70
     0
102
RTVSPropertyOp53
 70
     1
102
RTVSPropertyOp54
 70
     1
102
RTVSPropertyOp55
 70
     1
102
RTVSPropertyOp56
 70
     1
102
RTVSPropertyOp57
 70
     1
102
RTVSPost2010Prop28
280
     0
102
RTVSPost2010PropOp28
 70
     1
102
RTVSPost2010Prop29
280
     1
102
RTVSPost2010PropOp29
 70
     1
102
RTVSPost2010Prop30
280
     1
102
RTVSPost2010PropOp30
 70
     1
102
RTVSPost2010Prop31
280
     0
102
RTVSPost2010PropOp31
 70
     1
102
RTVSPost2010Prop32
280
     0
102
RTVSPost2010PropOp32
 70
     1
102
RTVSPost2010Prop33
280
     0
102
RTVSPost2010PropOp33
 70
     1
102
RTVSPost2010Prop34
280
     0
102
RTVSPost2010PropOp34
 70
     1
102
RTVSPost2010Prop35
280
     0
102
RTVSPost2010PropOp35
 70
     1
102
RTVSPost2010Prop36
280
     0
102
RTVSPost2010PropOp36
 70
     1
102
RTVSPost2010Prop37
 90
       50
102
RTVSPost2010PropOp37
 70
     1
102
RTVSPost2010Prop38
140
0.0
102
RTVSPost2010PropOp38
 70
     1
102
RTVSPost2010Prop39
140
1.0
102
RTVSPost2010PropOp39
 70
     1
102
RTVSPost2010Prop40
 90
        0
102
RTVSPost2010PropOp40
 70
     1
102
RTVSPost2010Prop41ColorIndex
 90
       18
102
RTVSPost2010Prop41ColorRGB
 90
        0
102
RTVSPost2010PropOp41
 70
     1
102
RTVSPost2010Prop42
 90
       50
102
RTVSPost2010PropOp42
 70
     1
102
RTVSPost2010Prop43
 90
        3
102
RTVSPost2010PropOp43
 70
     1
102
RTVSPost2010Prop44ColorIndex
 90
        5
102
RTVSPost2010Prop44ColorRGB
 90
      255
102
RTVSPost2010PropOp44
 70
     1
102
RTVSPost2010Prop45
280
     0
102
RTVSPost2010PropOp45
 70
     1
102
RTVSPost2010Prop46
 90
       50
102
RTVSPost2010PropOp46
 70
     1
102
RTVSPost2010Prop47
 90
       50
102
RTVSPost2010PropOp47
 70
     1
102
RTVSPost2010Prop48
 90
       50
102
RTVSPost2010PropOp48
 70
     1
102
RTVSPost2010Prop49
280
     0
102
RTVSPost2010PropOp49
 70
     1
102
RTVSPost2010Prop50
 90
       50
102
RTVSPost2010PropOp50
 70
     1
102
RTVSPost2010Prop51ColorIndex
 90
      256
102
RTVSPost2010Prop51ColorRGB
 90
-16777216
102
RTVSPost2010PropOp51
 70
     0
102
RTVSPost2010Prop52
140
1.0
102
RTVSPost2010PropOp52
 70
     0
102
RTVSPost2010Prop53
 90
        2
102
RTVSPost2010PropOp53
 70
     1
102
RTVSPost2010Prop54
  1
strokes_ogs.tif
102
RTVSPost2010PropOp54
 70
     1
102
RTVSPost2010Prop55
280
     0
102
RTVSPost2010PropOp55
 70
     1
102
RTVSPost2010Prop56
140
1.0
102
RTVSPost2010PropOp56
 70
     1
102
RTVSPost2010Prop57
140
1.0
102
RTVSPost2010PropOp57
 70
     1
  0
XRECORD
  5
4F6
102
{ACAD_REACTORS
330
4F5
102
}
330
4F5
100
AcDbXrecord
280
     1
102
RTVSPropertyOp0
 70
     1
102
RTVSPropertyOp1
 70
     1
102
RTVSPropertyOp2
 70
     1
102
RTVSPropertyOp3
 70
     1
102
RTVSPropertyOp4
 70
     1
102
RTVSPropertyOp5
 70
     1
102
RTVSPropertyOp6
 70
     1
102
RTVSPropertyOp7
 70
     1
102
RTVSPropertyOp8
 70
     1
102
RTVSPropertyOp9
 70
     1
102
RTVSPropertyOp10
 70
     1
102
RTVSPropertyOp11
 70
     1
102
RTVSPropertyOp12
 70
     1
102
RTVSPropertyOp13
 70
     1
102
RTVSPropertyOp14
 70
     1
102
RTVSPropertyOp15
 70
     1
102
RTVSPropertyOp16
 70
     1
102
RTVSPropertyOp17
 70
     1
102
RTVSPropertyOp18
 70
     1
102
RTVSPropertyOp19
 70
     1
102
RTVSPropertyOp20
 70
     1
102
RTVSPropertyOp21
 70
     1
102
RTVSPropertyOp22
 70
     1
102
RTVSPropertyOp23
 70
     1
102
RTVSPropertyOp24
 70
     1
102
RTVSPropertyOp25
 70
     1
102
RTVSPropertyOp26
 70
     1
102
RTVSPropertyOp27
 70
     1
102
RTVSPropertyOp28
 70
     1
102
RTVSPropertyOp29
 70
     1
102
RTVSPropertyOp30
 70
     1
102
RTVSPropertyOp31
 70
     1
102
RTVSPropertyOp32
 70
     1
102
RTVSPropertyOp33
 70
     1
102
RTVSPropertyOp34
 70
     1
102
RTVSPropertyOp35
 70
     1
102
RTVSPropertyOp36
 70
     1
102
RTVSPropertyOp37
 70
     1
102
RTVSPropertyOp38
 70
     1
102
RTVSPropertyOp39
 70
     1
102
RTVSPropertyOp40
 70
     1
102
RTVSPropertyOp41
 70
     1
102
RTVSPropertyOp42
 70
     1
102
RTVSPropertyOp43
 70
     1
102
RTVSPropertyOp44
 70
     1
102
RTVSPropertyOp45
 70
     1
102
RTVSPropertyOp46
 70
     1
102
RTVSPropertyOp47
 70
     1
102
RTVSPropertyOp48
 70
     1
102
RTVSPropertyOp49
 70
     1
102
RTVSPropertyOp50
 70
     1
102
RTVSPropertyOp51
 70
     0
102
RTVSPropertyOp52
 70
     0
102
RTVSPropertyOp53
 70
     1
102
RTVSPropertyOp54
 70
     1
102
RTVSPropertyOp55
 70
     1
102
RTVSPropertyOp56
 70
     1
102
RTVSPropertyOp57
 70
     1
102
RTVSPost2010Prop28
280
     0
102
RTVSPost2010PropOp28
 70
     1
102
RTVSPost2010Prop29
280
     1
102
RTVSPost2010PropOp29
 70
     1
102
RTVSPost2010Prop30
280
     1
102
RTVSPost2010PropOp30
 70
     1
102
RTVSPost2010Prop31
280
     0
102
RTVSPost2010PropOp31
 70
     1
102
RTVSPost2010Prop32
280
     0
102
RTVSPost2010PropOp32
 70
     1
102
RTVSPost2010Prop33
280
     0
102
RTVSPost2010PropOp33
 70
     1
102
RTVSPost2010Prop34
280
     0
102
RTVSPost2010PropOp34
 70
     1
102
RTVSPost2010Prop35
280
     0
102
RTVSPost2010PropOp35
 70
     1
102
RTVSPost2010Prop36
280
     0
102
RTVSPost2010PropOp36
 70
     1
102
RTVSPost2010Prop37
 90
       50
102
RTVSPost2010PropOp37
 70
     1
102
RTVSPost2010Prop38
140
0.0
102
RTVSPost2010PropOp38
 70
     1
102
RTVSPost2010Prop39
140
1.0
102
RTVSPost2010PropOp39
 70
     1
102
RTVSPost2010Prop40
 90
        0
102
RTVSPost2010PropOp40
 70
     1
102
RTVSPost2010Prop41ColorIndex
 90
       18
102
RTVSPost2010Prop41ColorRGB
 90
        0
102
RTVSPost2010PropOp41
 70
     1
102
RTVSPost2010Prop42
 90
       50
102
RTVSPost2010PropOp42
 70
     1
102
RTVSPost2010Prop43
 90
        3
102
RTVSPost2010PropOp43
 70
     1
102
RTVSPost2010Prop44ColorIndex
 90
        5
102
RTVSPost2010Prop44ColorRGB
 90
      255
102
RTVSPost2010PropOp44
 70
     1
102
RTVSPost2010Prop45
280
     0
102
RTVSPost2010PropOp45
 70
     1
102
RTVSPost2010Prop46
 90
       50
102
RTVSPost2010PropOp46
 70
     1
102
RTVSPost2010Prop47
 90
       50
102
RTVSPost2010PropOp47
 70
     1
102
RTVSPost2010Prop48
 90
       50
102
RTVSPost2010PropOp48
 70
     1
102
RTVSPost2010Prop49
280
     0
102
RTVSPost2010PropOp49
 70
     1
102
RTVSPost2010Prop50
 90
       50
102
RTVSPost2010PropOp50
 70
     1
102
RTVSPost2010Prop51ColorIndex
 90
      256
102
RTVSPost2010Prop51ColorRGB
 90
-16777216
102
RTVSPost2010PropOp51
 70
     0
102
RTVSPost2010Prop52
140
1.0
102
RTVSPost2010PropOp52
 70
     0
102
RTVSPost2010Prop53
 90
        2
102
RTVSPost2010PropOp53
 70
     1
102
RTVSPost2010Prop54
  1
strokes_ogs.tif
102
RTVSPost2010PropOp54
 70
     1
102
RTVSPost2010Prop55
280
     0
102
RTVSPost2010PropOp55
 70
     1
102
RTVSPost2010Prop56
140
1.0
102
RTVSPost2010PropOp56
 70
     1
102
RTVSPost2010Prop57
140
1.0
102
RTVSPost2010PropOp57
 70
     1
  0
XRECORD
  5
4F0
102
{ACAD_REACTORS
330
4EF
102
}
330
4EF
100
AcDbXrecord
280
     1
102
RTVSPropertyOp0
 70
     1
102
RTVSPropertyOp1
 70
     1
102
RTVSPropertyOp2
 70
     1
102
RTVSPropertyOp3
 70
     1
102
RTVSPropertyOp4
 70
     1
102
RTVSPropertyOp5
 70
     1
102
RTVSPropertyOp6
 70
     1
102
RTVSPropertyOp7
 70
     1
102
RTVSPropertyOp8
 70
     1
102
RTVSPropertyOp9
 70
     1
102
RTVSPropertyOp10
 70
     1
102
RTVSPropertyOp11
 70
     1
102
RTVSPropertyOp12
 70
     1
102
RTVSPropertyOp13
 70
     1
102
RTVSPropertyOp14
 70
     1
102
RTVSPropertyOp15
 70
     1
102
RTVSPropertyOp16
 70
     1
102
RTVSPropertyOp17
 70
     1
102
RTVSPropertyOp18
 70
     1
102
RTVSPropertyOp19
 70
     1
102
RTVSPropertyOp20
 70
     1
102
RTVSPropertyOp21
 70
     1
102
RTVSPropertyOp22
 70
     1
102
RTVSPropertyOp23
 70
     1
102
RTVSPropertyOp24
 70
     1
102
RTVSPropertyOp25
 70
     1
102
RTVSPropertyOp26
 70
     1
102
RTVSPropertyOp27
 70
     1
102
RTVSPropertyOp28
 70
     1
102
RTVSPropertyOp29
 70
     1
102
RTVSPropertyOp30
 70
     1
102
RTVSPropertyOp31
 70
     1
102
RTVSPropertyOp32
 70
     1
102
RTVSPropertyOp33
 70
     1
102
RTVSPropertyOp34
 70
     1
102
RTVSPropertyOp35
 70
     1
102
RTVSPropertyOp36
 70
     1
102
RTVSPropertyOp37
 70
     1
102
RTVSPropertyOp38
 70
     1
102
RTVSPropertyOp39
 70
     1
102
RTVSPropertyOp40
 70
     1
102
RTVSPropertyOp41
 70
     1
102
RTVSPropertyOp42
 70
     1
102
RTVSPropertyOp43
 70
     1
102
RTVSPropertyOp44
 70
     1
102
RTVSPropertyOp45
 70
     1
102
RTVSPropertyOp46
 70
     1
102
RTVSPropertyOp47
 70
     1
102
RTVSPropertyOp48
 70
     1
102
RTVSPropertyOp49
 70
     1
102
RTVSPropertyOp50
 70
     1
102
RTVSPropertyOp51
 70
     0
102
RTVSPropertyOp52
 70
     0
102
RTVSPropertyOp53
 70
     1
102
RTVSPropertyOp54
 70
     1
102
RTVSPropertyOp55
 70
     1
102
RTVSPropertyOp56
 70
     1
102
RTVSPropertyOp57
 70
     1
102
RTVSPost2010Prop28
280
     0
102
RTVSPost2010PropOp28
 70
     1
102
RTVSPost2010Prop29
280
     1
102
RTVSPost2010PropOp29
 70
     1
102
RTVSPost2010Prop30
280
     1
102
RTVSPost2010PropOp30
 70
     1
102
RTVSPost2010Prop31
280
     0
102
RTVSPost2010PropOp31
 70
     1
102
RTVSPost2010Prop32
280
     0
102
RTVSPost2010PropOp32
 70
     1
102
RTVSPost2010Prop33
280
     0
102
RTVSPost2010PropOp33
 70
     1
102
RTVSPost2010Prop34
280
     0
102
RTVSPost2010PropOp34
 70
     1
102
RTVSPost2010Prop35
280
     0
102
RTVSPost2010PropOp35
 70
     1
102
RTVSPost2010Prop36
280
     0
102
RTVSPost2010PropOp36
 70
     1
102
RTVSPost2010Prop37
 90
       50
102
RTVSPost2010PropOp37
 70
     1
102
RTVSPost2010Prop38
140
0.0
102
RTVSPost2010PropOp38
 70
     1
102
RTVSPost2010Prop39
140
1.0
102
RTVSPost2010PropOp39
 70
     1
102
RTVSPost2010Prop40
 90
        0
102
RTVSPost2010PropOp40
 70
     1
102
RTVSPost2010Prop41ColorIndex
 90
       18
102
RTVSPost2010Prop41ColorRGB
 90
        0
102
RTVSPost2010PropOp41
 70
     1
102
RTVSPost2010Prop42
 90
       50
102
RTVSPost2010PropOp42
 70
     1
102
RTVSPost2010Prop43
 90
        3
102
RTVSPost2010PropOp43
 70
     1
102
RTVSPost2010Prop44ColorIndex
 90
        5
102
RTVSPost2010Prop44ColorRGB
 90
      255
102
RTVSPost2010PropOp44
 70
     1
102
RTVSPost2010Prop45
280
     0
102
RTVSPost2010PropOp45
 70
     1
102
RTVSPost2010Prop46
 90
       50
102
RTVSPost2010PropOp46
 70
     1
102
RTVSPost2010Prop47
 90
       50
102
RTVSPost2010PropOp47
 70
     1
102
RTVSPost2010Prop48
 90
       50
102
RTVSPost2010PropOp48
 70
     1
102
RTVSPost2010Prop49
280
     0
102
RTVSPost2010PropOp49
 70
     1
102
RTVSPost2010Prop50
 90
       50
102
RTVSPost2010PropOp50
 70
     1
102
RTVSPost2010Prop51ColorIndex
 90
      256
102
RTVSPost2010Prop51ColorRGB
 90
-16777216
102
RTVSPost2010PropOp51
 70
     0
102
RTVSPost2010Prop52
140
1.0
102
RTVSPost2010PropOp52
 70
     0
102
RTVSPost2010Prop53
 90
        2
102
RTVSPost2010PropOp53
 70
     1
102
RTVSPost2010Prop54
  1
strokes_ogs.tif
102
RTVSPost2010PropOp54
 70
     1
102
RTVSPost2010Prop55
280
     0
102
RTVSPost2010PropOp55
 70
     1
102
RTVSPost2010Prop56
140
1.0
102
RTVSPost2010PropOp56
 70
     1
102
RTVSPost2010Prop57
140
1.0
102
RTVSPost2010PropOp57
 70
     1
  0
XRECORD
  5
4F2
102
{ACAD_REACTORS
330
4F1
102
}
330
4F1
100
AcDbXrecord
280
     1
102
RTVSPropertyOp0
 70
     1
102
RTVSPropertyOp1
 70
     1
102
RTVSPropertyOp2
 70
     1
102
RTVSPropertyOp3
 70
     1
102
RTVSPropertyOp4
 70
     1
102
RTVSPropertyOp5
 70
     1
102
RTVSPropertyOp6
 70
     1
102
RTVSPropertyOp7
 70
     1
102
RTVSPropertyOp8
 70
     1
102
RTVSPropertyOp9
 70
     1
102
RTVSPropertyOp10
 70
     1
102
RTVSPropertyOp11
 70
     1
102
RTVSPropertyOp12
 70
     1
102
RTVSPropertyOp13
 70
     1
102
RTVSPropertyOp14
 70
     1
102
RTVSPropertyOp15
 70
     1
102
RTVSPropertyOp16
 70
     1
102
RTVSPropertyOp17
 70
     1
102
RTVSPropertyOp18
 70
     1
102
RTVSPropertyOp19
 70
     1
102
RTVSPropertyOp20
 70
     1
102
RTVSPropertyOp21
 70
     1
102
RTVSPropertyOp22
 70
     1
102
RTVSPropertyOp23
 70
     1
102
RTVSPropertyOp24
 70
     1
102
RTVSPropertyOp25
 70
     1
102
RTVSPropertyOp26
 70
     1
102
RTVSPropertyOp27
 70
     1
102
RTVSPropertyOp28
 70
     1
102
RTVSPropertyOp29
 70
     1
102
RTVSPropertyOp30
 70
     1
102
RTVSPropertyOp31
 70
     1
102
RTVSPropertyOp32
 70
     1
102
RTVSPropertyOp33
 70
     1
102
RTVSPropertyOp34
 70
     1
102
RTVSPropertyOp35
 70
     1
102
RTVSPropertyOp36
 70
     1
102
RTVSPropertyOp37
 70
     1
102
RTVSPropertyOp38
 70
     1
102
RTVSPropertyOp39
 70
     1
102
RTVSPropertyOp40
 70
     1
102
RTVSPropertyOp41
 70
     1
102
RTVSPropertyOp42
 70
     1
102
RTVSPropertyOp43
 70
     1
102
RTVSPropertyOp44
 70
     1
102
RTVSPropertyOp45
 70
     1
102
RTVSPropertyOp46
 70
     1
102
RTVSPropertyOp47
 70
     1
102
RTVSPropertyOp48
 70
     1
102
RTVSPropertyOp49
 70
     1
102
RTVSPropertyOp50
 70
     1
102
RTVSPropertyOp51
 70
     0
102
RTVSPropertyOp52
 70
     0
102
RTVSPropertyOp53
 70
     1
102
RTVSPropertyOp54
 70
     1
102
RTVSPropertyOp55
 70
     1
102
RTVSPropertyOp56
 70
     1
102
RTVSPropertyOp57
 70
     1
102
RTVSPost2010Prop28
280
     0
102
RTVSPost2010PropOp28
 70
     1
102
RTVSPost2010Prop29
280
     1
102
RTVSPost2010PropOp29
 70
     1
102
RTVSPost2010Prop30
280
     1
102
RTVSPost2010PropOp30
 70
     1
102
RTVSPost2010Prop31
280
     0
102
RTVSPost2010PropOp31
 70
     1
102
RTVSPost2010Prop32
280
     0
102
RTVSPost2010PropOp32
 70
     1
102
RTVSPost2010Prop33
280
     0
102
RTVSPost2010PropOp33
 70
     1
102
RTVSPost2010Prop34
280
     0
102
RTVSPost2010PropOp34
 70
     1
102
RTVSPost2010Prop35
280
     0
102
RTVSPost2010PropOp35
 70
     1
102
RTVSPost2010Prop36
280
     0
102
RTVSPost2010PropOp36
 70
     1
102
RTVSPost2010Prop37
 90
       50
102
RTVSPost2010PropOp37
 70
     1
102
RTVSPost2010Prop38
140
0.0
102
RTVSPost2010PropOp38
 70
     1
102
RTVSPost2010Prop39
140
1.0
102
RTVSPost2010PropOp39
 70
     1
102
RTVSPost2010Prop40
 90
        0
102
RTVSPost2010PropOp40
 70
     1
102
RTVSPost2010Prop41ColorIndex
 90
       18
102
RTVSPost2010Prop41ColorRGB
 90
        0
102
RTVSPost2010PropOp41
 70
     1
102
RTVSPost2010Prop42
 90
       50
102
RTVSPost2010PropOp42
 70
     1
102
RTVSPost2010Prop43
 90
        3
102
RTVSPost2010PropOp43
 70
     1
102
RTVSPost2010Prop44ColorIndex
 90
        5
102
RTVSPost2010Prop44ColorRGB
 90
      255
102
RTVSPost2010PropOp44
 70
     1
102
RTVSPost2010Prop45
280
     0
102
RTVSPost2010PropOp45
 70
     1
102
RTVSPost2010Prop46
 90
       50
102
RTVSPost2010PropOp46
 70
     1
102
RTVSPost2010Prop47
 90
       50
102
RTVSPost2010PropOp47
 70
     1
102
RTVSPost2010Prop48
 90
       50
102
RTVSPost2010PropOp48
 70
     1
102
RTVSPost2010Prop49
280
     0
102
RTVSPost2010PropOp49
 70
     1
102
RTVSPost2010Prop50
 90
       50
102
RTVSPost2010PropOp50
 70
     1
102
RTVSPost2010Prop51ColorIndex
 90
      256
102
RTVSPost2010Prop51ColorRGB
 90
-16777216
102
RTVSPost2010PropOp51
 70
     0
102
RTVSPost2010Prop52
140
1.0
102
RTVSPost2010PropOp52
 70
     0
102
RTVSPost2010Prop53
 90
        2
102
RTVSPost2010PropOp53
 70
     1
102
RTVSPost2010Prop54
  1
strokes_ogs.tif
102
RTVSPost2010PropOp54
 70
     1
102
RTVSPost2010Prop55
280
     0
102
RTVSPost2010PropOp55
 70
     1
102
RTVSPost2010Prop56
140
1.0
102
RTVSPost2010PropOp56
 70
     1
102
RTVSPost2010Prop57
140
1.0
102
RTVSPost2010PropOp57
 70
     1
  0
XRECORD
  5
4E2
102
{ACAD_REACTORS
330
4E1
102
}
330
4E1
100
AcDbXrecord
280
     1
102
RTVSPropertyOp0
 70
     1
102
RTVSPropertyOp1
 70
     1
102
RTVSPropertyOp2
 70
     1
102
RTVSPropertyOp3
 70
     1
102
RTVSPropertyOp4
 70
     1
102
RTVSPropertyOp5
 70
     1
102
RTVSPropertyOp6
 70
     1
102
RTVSPropertyOp7
 70
     1
102
RTVSPropertyOp8
 70
     1
102
RTVSPropertyOp9
 70
     1
102
RTVSPropertyOp10
 70
     1
102
RTVSPropertyOp11
 70
     1
102
RTVSPropertyOp12
 70
     1
102
RTVSPropertyOp13
 70
     1
102
RTVSPropertyOp14
 70
     1
102
RTVSPropertyOp15
 70
     1
102
RTVSPropertyOp16
 70
     1
102
RTVSPropertyOp17
 70
     1
102
RTVSPropertyOp18
 70
     1
102
RTVSPropertyOp19
 70
     1
102
RTVSPropertyOp20
 70
     1
102
RTVSPropertyOp21
 70
     1
102
RTVSPropertyOp22
 70
     1
102
RTVSPropertyOp23
 70
     1
102
RTVSPropertyOp24
 70
     1
102
RTVSPropertyOp25
 70
     1
102
RTVSPropertyOp26
 70
     1
102
RTVSPropertyOp27
 70
     1
102
RTVSPropertyOp28
 70
     1
102
RTVSPropertyOp29
 70
     1
102
RTVSPropertyOp30
 70
     1
102
RTVSPropertyOp31
 70
     1
102
RTVSPropertyOp32
 70
     1
102
RTVSPropertyOp33
 70
     1
102
RTVSPropertyOp34
 70
     1
102
RTVSPropertyOp35
 70
     1
102
RTVSPropertyOp36
 70
     1
102
RTVSPropertyOp37
 70
     1
102
RTVSPropertyOp38
 70
     1
102
RTVSPropertyOp39
 70
     1
102
RTVSPropertyOp40
 70
     1
102
RTVSPropertyOp41
 70
     1
102
RTVSPropertyOp42
 70
     1
102
RTVSPropertyOp43
 70
     1
102
RTVSPropertyOp44
 70
     1
102
RTVSPropertyOp45
 70
     1
102
RTVSPropertyOp46
 70
     1
102
RTVSPropertyOp47
 70
     1
102
RTVSPropertyOp48
 70
     1
102
RTVSPropertyOp49
 70
     1
102
RTVSPropertyOp50
 70
     1
102
RTVSPropertyOp51
 70
     0
102
RTVSPropertyOp52
 70
     0
102
RTVSPropertyOp53
 70
     1
102
RTVSPropertyOp54
 70
     1
102
RTVSPropertyOp55
 70
     1
102
RTVSPropertyOp56
 70
     1
102
RTVSPropertyOp57
 70
     1
102
RTVSPost2010Prop28
280
     0
102
RTVSPost2010PropOp28
 70
     1
102
RTVSPost2010Prop29
280
     1
102
RTVSPost2010PropOp29
 70
     1
102
RTVSPost2010Prop30
280
     1
102
RTVSPost2010PropOp30
 70
     1
102
RTVSPost2010Prop31
280
     0
102
RTVSPost2010PropOp31
 70
     1
102
RTVSPost2010Prop32
280
     0
102
RTVSPost2010PropOp32
 70
     1
102
RTVSPost2010Prop33
280
     0
102
RTVSPost2010PropOp33
 70
     1
102
RTVSPost2010Prop34
280
     0
102
RTVSPost2010PropOp34
 70
     1
102
RTVSPost2010Prop35
280
     0
102
RTVSPost2010PropOp35
 70
     1
102
RTVSPost2010Prop36
280
     0
102
RTVSPost2010PropOp36
 70
     1
102
RTVSPost2010Prop37
 90
       50
102
RTVSPost2010PropOp37
 70
     1
102
RTVSPost2010Prop38
140
0.0
102
RTVSPost2010PropOp38
 70
     1
102
RTVSPost2010Prop39
140
1.0
102
RTVSPost2010PropOp39
 70
     1
102
RTVSPost2010Prop40
 90
        0
102
RTVSPost2010PropOp40
 70
     1
102
RTVSPost2010Prop41ColorIndex
 90
       18
102
RTVSPost2010Prop41ColorRGB
 90
        0
102
RTVSPost2010PropOp41
 70
     1
102
RTVSPost2010Prop42
 90
       50
102
RTVSPost2010PropOp42
 70
     1
102
RTVSPost2010Prop43
 90
        3
102
RTVSPost2010PropOp43
 70
     1
102
RTVSPost2010Prop44ColorIndex
 90
        5
102
RTVSPost2010Prop44ColorRGB
 90
      255
102
RTVSPost2010PropOp44
 70
     1
102
RTVSPost2010Prop45
280
     0
102
RTVSPost2010PropOp45
 70
     1
102
RTVSPost2010Prop46
 90
       50
102
RTVSPost2010PropOp46
 70
     1
102
RTVSPost2010Prop47
 90
       50
102
RTVSPost2010PropOp47
 70
     1
102
RTVSPost2010Prop48
 90
       50
102
RTVSPost2010PropOp48
 70
     1
102
RTVSPost2010Prop49
280
     0
102
RTVSPost2010PropOp49
 70
     1
102
RTVSPost2010Prop50
 90
       50
102
RTVSPost2010PropOp50
 70
     1
102
RTVSPost2010Prop51ColorIndex
 90
      256
102
RTVSPost2010Prop51ColorRGB
 90
-16777216
102
RTVSPost2010PropOp51
 70
     0
102
RTVSPost2010Prop52
140
1.0
102
RTVSPost2010PropOp52
 70
     0
102
RTVSPost2010Prop53
 90
        2
102
RTVSPost2010PropOp53
 70
     1
102
RTVSPost2010Prop54
  1
strokes_ogs.tif
102
RTVSPost2010PropOp54
 70
     1
102
RTVSPost2010Prop55
280
     0
102
RTVSPost2010PropOp55
 70
     1
102
RTVSPost2010Prop56
140
1.0
102
RTVSPost2010PropOp56
 70
     1
102
RTVSPost2010Prop57
140
1.0
102
RTVSPost2010PropOp57
 70
     1
  0
XRECORD
  5
4D4
102
{ACAD_REACTORS
330
4D3
102
}
330
4D3
100
AcDbXrecord
280
     1
102
RTVSPropertyOp0
 70
     1
102
RTVSPropertyOp1
 70
     1
102
RTVSPropertyOp2
 70
     1
102
RTVSPropertyOp3
 70
     1
102
RTVSPropertyOp4
 70
     1
102
RTVSPropertyOp5
 70
     1
102
RTVSPropertyOp6
 70
     1
102
RTVSPropertyOp7
 70
     1
102
RTVSPropertyOp8
 70
     1
102
RTVSPropertyOp9
 70
     1
102
RTVSPropertyOp10
 70
     1
102
RTVSPropertyOp11
 70
     1
102
RTVSPropertyOp12
 70
     1
102
RTVSPropertyOp13
 70
     1
102
RTVSPropertyOp14
 70
     1
102
RTVSPropertyOp15
 70
     1
102
RTVSPropertyOp16
 70
     1
102
RTVSPropertyOp17
 70
     1
102
RTVSPropertyOp18
 70
     1
102
RTVSPropertyOp19
 70
     1
102
RTVSPropertyOp20
 70
     1
102
RTVSPropertyOp21
 70
     1
102
RTVSPropertyOp22
 70
     1
102
RTVSPropertyOp23
 70
     1
102
RTVSPropertyOp24
 70
     1
102
RTVSPropertyOp25
 70
     1
102
RTVSPropertyOp26
 70
     1
102
RTVSPropertyOp27
 70
     1
102
RTVSPropertyOp28
 70
     1
102
RTVSPropertyOp29
 70
     1
102
RTVSPropertyOp30
 70
     1
102
RTVSPropertyOp31
 70
     1
102
RTVSPropertyOp32
 70
     1
102
RTVSPropertyOp33
 70
     1
102
RTVSPropertyOp34
 70
     1
102
RTVSPropertyOp35
 70
     1
102
RTVSPropertyOp36
 70
     1
102
RTVSPropertyOp37
 70
     1
102
RTVSPropertyOp38
 70
     1
102
RTVSPropertyOp39
 70
     1
102
RTVSPropertyOp40
 70
     1
102
RTVSPropertyOp41
 70
     1
102
RTVSPropertyOp42
 70
     1
102
RTVSPropertyOp43
 70
     1
102
RTVSPropertyOp44
 70
     1
102
RTVSPropertyOp45
 70
     1
102
RTVSPropertyOp46
 70
     1
102
RTVSPropertyOp47
 70
     1
102
RTVSPropertyOp48
 70
     1
102
RTVSPropertyOp49
 70
     1
102
RTVSPropertyOp50
 70
     1
102
RTVSPropertyOp51
 70
     0
102
RTVSPropertyOp52
 70
     0
102
RTVSPropertyOp53
 70
     1
102
RTVSPropertyOp54
 70
     1
102
RTVSPropertyOp55
 70
     1
102
RTVSPropertyOp56
 70
     1
102
RTVSPropertyOp57
 70
     1
102
RTVSPost2010Prop28
280
     0
102
RTVSPost2010PropOp28
 70
     1
102
RTVSPost2010Prop29
280
     1
102
RTVSPost2010PropOp29
 70
     1
102
RTVSPost2010Prop30
280
     1
102
RTVSPost2010PropOp30
 70
     1
102
RTVSPost2010Prop31
280
     0
102
RTVSPost2010PropOp31
 70
     1
102
RTVSPost2010Prop32
280
     0
102
RTVSPost2010PropOp32
 70
     1
102
RTVSPost2010Prop33
280
     0
102
RTVSPost2010PropOp33
 70
     1
102
RTVSPost2010Prop34
280
     0
102
RTVSPost2010PropOp34
 70
     1
102
RTVSPost2010Prop35
280
     0
102
RTVSPost2010PropOp35
 70
     1
102
RTVSPost2010Prop36
280
     0
102
RTVSPost2010PropOp36
 70
     1
102
RTVSPost2010Prop37
 90
       50
102
RTVSPost2010PropOp37
 70
     1
102
RTVSPost2010Prop38
140
0.0
102
RTVSPost2010PropOp38
 70
     1
102
RTVSPost2010Prop39
140
1.0
102
RTVSPost2010PropOp39
 70
     1
102
RTVSPost2010Prop40
 90
        0
102
RTVSPost2010PropOp40
 70
     1
102
RTVSPost2010Prop41ColorIndex
 90
       18
102
RTVSPost2010Prop41ColorRGB
 90
        0
102
RTVSPost2010PropOp41
 70
     1
102
RTVSPost2010Prop42
 90
       50
102
RTVSPost2010PropOp42
 70
     1
102
RTVSPost2010Prop43
 90
        3
102
RTVSPost2010PropOp43
 70
     1
102
RTVSPost2010Prop44ColorIndex
 90
        5
102
RTVSPost2010Prop44ColorRGB
 90
      255
102
RTVSPost2010PropOp44
 70
     1
102
RTVSPost2010Prop45
280
     0
102
RTVSPost2010PropOp45
 70
     1
102
RTVSPost2010Prop46
 90
       50
102
RTVSPost2010PropOp46
 70
     1
102
RTVSPost2010Prop47
 90
       50
102
RTVSPost2010PropOp47
 70
     1
102
RTVSPost2010Prop48
 90
       50
102
RTVSPost2010PropOp48
 70
     1
102
RTVSPost2010Prop49
280
     0
102
RTVSPost2010PropOp49
 70
     1
102
RTVSPost2010Prop50
 90
       50
102
RTVSPost2010PropOp50
 70
     1
102
RTVSPost2010Prop51ColorIndex
 90
      256
102
RTVSPost2010Prop51ColorRGB
 90
-16777216
102
RTVSPost2010PropOp51
 70
     0
102
RTVSPost2010Prop52
140
1.0
102
RTVSPost2010PropOp52
 70
     0
102
RTVSPost2010Prop53
 90
        2
102
RTVSPost2010PropOp53
 70
     1
102
RTVSPost2010Prop54
  1
strokes_ogs.tif
102
RTVSPost2010PropOp54
 70
     1
102
RTVSPost2010Prop55
280
     0
102
RTVSPost2010PropOp55
 70
     1
102
RTVSPost2010Prop56
140
1.0
102
RTVSPost2010PropOp56
 70
     1
102
RTVSPost2010Prop57
140
1.0
102
RTVSPost2010PropOp57
 70
     1
  0
XRECORD
  5
4F4
102
{ACAD_REACTORS
330
4F3
102
}
330
4F3
100
AcDbXrecord
280
     1
102
RTVSPropertyOp0
 70
     1
102
RTVSPropertyOp1
 70
     1
102
RTVSPropertyOp2
 70
     1
102
RTVSPropertyOp3
 70
     1
102
RTVSPropertyOp4
 70
     1
102
RTVSPropertyOp5
 70
     1
102
RTVSPropertyOp6
 70
     1
102
RTVSPropertyOp7
 70
     1
102
RTVSPropertyOp8
 70
     1
102
RTVSPropertyOp9
 70
     1
102
RTVSPropertyOp10
 70
     1
102
RTVSPropertyOp11
 70
     1
102
RTVSPropertyOp12
 70
     1
102
RTVSPropertyOp13
 70
     1
102
RTVSPropertyOp14
 70
     1
102
RTVSPropertyOp15
 70
     1
102
RTVSPropertyOp16
 70
     1
102
RTVSPropertyOp17
 70
     1
102
RTVSPropertyOp18
 70
     1
102
RTVSPropertyOp19
 70
     1
102
RTVSPropertyOp20
 70
     1
102
RTVSPropertyOp21
 70
     1
102
RTVSPropertyOp22
 70
     1
102
RTVSPropertyOp23
 70
     1
102
RTVSPropertyOp24
 70
     1
102
RTVSPropertyOp25
 70
     1
102
RTVSPropertyOp26
 70
     1
102
RTVSPropertyOp27
 70
     1
102
RTVSPropertyOp28
 70
     1
102
RTVSPropertyOp29
 70
     1
102
RTVSPropertyOp30
 70
     1
102
RTVSPropertyOp31
 70
     1
102
RTVSPropertyOp32
 70
     1
102
RTVSPropertyOp33
 70
     1
102
RTVSPropertyOp34
 70
     1
102
RTVSPropertyOp35
 70
     1
102
RTVSPropertyOp36
 70
     1
102
RTVSPropertyOp37
 70
     1
102
RTVSPropertyOp38
 70
     1
102
RTVSPropertyOp39
 70
     1
102
RTVSPropertyOp40
 70
     1
102
RTVSPropertyOp41
 70
     1
102
RTVSPropertyOp42
 70
     1
102
RTVSPropertyOp43
 70
     1
102
RTVSPropertyOp44
 70
     1
102
RTVSPropertyOp45
 70
     1
102
RTVSPropertyOp46
 70
     1
102
RTVSPropertyOp47
 70
     1
102
RTVSPropertyOp48
 70
     1
102
RTVSPropertyOp49
 70
     1
102
RTVSPropertyOp50
 70
     1
102
RTVSPropertyOp51
 70
     0
102
RTVSPropertyOp52
 70
     0
102
RTVSPropertyOp53
 70
     1
102
RTVSPropertyOp54
 70
     1
102
RTVSPropertyOp55
 70
     1
102
RTVSPropertyOp56
 70
     1
102
RTVSPropertyOp57
 70
     1
102
RTVSPost2010Prop28
280
     0
102
RTVSPost2010PropOp28
 70
     1
102
RTVSPost2010Prop29
280
     1
102
RTVSPost2010PropOp29
 70
     1
102
RTVSPost2010Prop30
280
     1
102
RTVSPost2010PropOp30
 70
     1
102
RTVSPost2010Prop31
280
     0
102
RTVSPost2010PropOp31
 70
     1
102
RTVSPost2010Prop32
280
     0
102
RTVSPost2010PropOp32
 70
     1
102
RTVSPost2010Prop33
280
     0
102
RTVSPost2010PropOp33
 70
     1
102
RTVSPost2010Prop34
280
     0
102
RTVSPost2010PropOp34
 70
     1
102
RTVSPost2010Prop35
280
     0
102
RTVSPost2010PropOp35
 70
     1
102
RTVSPost2010Prop36
280
     0
102
RTVSPost2010PropOp36
 70
     1
102
RTVSPost2010Prop37
 90
       50
102
RTVSPost2010PropOp37
 70
     1
102
RTVSPost2010Prop38
140
0.0
102
RTVSPost2010PropOp38
 70
     1
102
RTVSPost2010Prop39
140
1.0
102
RTVSPost2010PropOp39
 70
     1
102
RTVSPost2010Prop40
 90
        0
102
RTVSPost2010PropOp40
 70
     1
102
RTVSPost2010Prop41ColorIndex
 90
       18
102
RTVSPost2010Prop41ColorRGB
 90
        0
102
RTVSPost2010PropOp41
 70
     1
102
RTVSPost2010Prop42
 90
       50
102
RTVSPost2010PropOp42
 70
     1
102
RTVSPost2010Prop43
 90
        3
102
RTVSPost2010PropOp43
 70
     1
102
RTVSPost2010Prop44ColorIndex
 90
        5
102
RTVSPost2010Prop44ColorRGB
 90
      255
102
RTVSPost2010PropOp44
 70
     1
102
RTVSPost2010Prop45
280
     0
102
RTVSPost2010PropOp45
 70
     1
102
RTVSPost2010Prop46
 90
       50
102
RTVSPost2010PropOp46
 70
     1
102
RTVSPost2010Prop47
 90
       50
102
RTVSPost2010PropOp47
 70
     1
102
RTVSPost2010Prop48
 90
       50
102
RTVSPost2010PropOp48
 70
     1
102
RTVSPost2010Prop49
280
     0
102
RTVSPost2010PropOp49
 70
     1
102
RTVSPost2010Prop50
 90
       50
102
RTVSPost2010PropOp50
 70
     1
102
RTVSPost2010Prop51ColorIndex
 90
      256
102
RTVSPost2010Prop51ColorRGB
 90
-16777216
102
RTVSPost2010PropOp51
 70
     0
102
RTVSPost2010Prop52
140
1.0
102
RTVSPost2010PropOp52
 70
     0
102
RTVSPost2010Prop53
 90
        2
102
RTVSPost2010PropOp53
 70
     1
102
RTVSPost2010Prop54
  1
strokes_ogs.tif
102
RTVSPost2010PropOp54
 70
     1
102
RTVSPost2010Prop55
280
     0
102
RTVSPost2010PropOp55
 70
     1
102
RTVSPost2010Prop56
140
1.0
102
RTVSPost2010PropOp56
 70
     1
102
RTVSPost2010Prop57
140
1.0
102
RTVSPost2010PropOp57
 70
     1
  0
ENDSEC
  0
EOF
