  0
SECTION
  2
HEADER
  9
$ACADVER
  1
AC1015
  9
$ACADMAINTVER
 70
     6
  9
$DWGCODEPAGE
  3
ANSI_932
  9
$INSBASE
 10
738.4108056006454
 20
373.8615229815953
 30
0.0
  9
$EXTMIN
 10
136.7116262334461
 20
13.01835362438609
 30
0.0
  9
$EXTMAX
 10
687.5643312973883
 20
578.9957916186877
 30
0.0
  9
$LIMMIN
 10
0.0
 20
0.0
  9
$LIMMAX
 10
816.5000000000001
 20
565.0
  9
$ORTHOMODE
 70
     1
  9
$REGENMODE
 70
     1
  9
$FILLMODE
 70
     1
  9
$QTEXTMODE
 70
     0
  9
$MIRRTEXT
 70
     1
  9
$LTSCALE
 40
5.0
  9
$ATTMODE
 70
     1
  9
$TEXTSIZE
 40
6.0
  9
$TRACEWID
 40
0.05
  9
$TEXTSTYLE
  7
KANJI
  9
$CLAYER
  8
2
  9
$CELTYPE
  6
BYLAYER
  9
$CECOLOR
 62
   256
  9
$CELTSCALE
 40
1.0
  9
$DISPSILH
 70
     0
  9
$DIMSCALE
 40
2.0
  9
$DIMASZ
 40
2.0
  9
$DIMEXO
 40
0.5
  9
$DIMDLI
 40
0.0
  9
$DIMRND
 40
0.0
  9
$DIMDLE
 40
0.0
  9
$DIMEXE
 40
1.0
  9
$DIMTP
 40
0.0
  9
$DIMTM
 40
0.0
  9
$DIMTXT
 40
3.0
  9
$DIMCEN
 40
0.09
  9
$DIMTSZ
 40
0.0
  9
$DIMTOL
 70
     0
  9
$DIMLIM
 70
     0
  9
$DIMTIH
 70
     0
  9
$DIMTOH
 70
     0
  9
$DIMSE1
 70
     0
  9
$DIMSE2
 70
     0
  9
$DIMTAD
 70
     0
  9
$DIMZIN
 70
     8
  9
$DIMBLK
  1

  9
$DIMASO
 70
     0
  9
$DIMSHO
 70
     0
  9
$DIMPOST
  1

  9
$DIMAPOST
  1

  9
$DIMALT
 70
     0
  9
$DIMALTD
 70
     2
  9
$DIMALTF
 40
25.4
  9
$DIMLFAC
 40
1.0
  9
$DIMTOFL
 70
     1
  9
$DIMTVP
 40
1.0
  9
$DIMTIX
 70
     1
  9
$DIMSOXD
 70
     1
  9
$DIMSAH
 70
     0
  9
$DIMBLK1
  1

  9
$DIMBLK2
  1

  9
$DIMSTYLE
  2
STANDARD
  9
$DIMCLRD
 70
   256
  9
$DIMCLRE
 70
   256
  9
$DIMCLRT
 70
     2
  9
$DIMTFAC
 40
1.0
  9
$DIMGAP
 40
0.09
  9
$DIMJUST
 70
     0
  9
$DIMSD1
 70
     0
  9
$DIMSD2
 70
     0
  9
$DIMTOLJ
 70
     1
  9
$DIMTZIN
 70
     0
  9
$DIMALTZ
 70
     0
  9
$DIMALTTZ
 70
     0
  9
$DIMUPT
 70
     0
  9
$DIMDEC
 70
     1
  9
$DIMTDEC
 70
     4
  9
$DIMALTU
 70
     2
  9
$DIMALTTD
 70
     2
  9
$DIMTXSTY
  7
STANDARD
  9
$DIMAUNIT
 70
     0
  9
$DIMADEC
 70
     0
  9
$DIMALTRND
 40
0.0
  9
$DIMAZIN
 70
     0
  9
$DIMDSEP
 70
    46
  9
$DIMATFIT
 70
     3
  9
$DIMFRAC
 70
     0
  9
$DIMLDRBLK
  1

  9
$DIMLUNIT
 70
     2
  9
$DIMLWD
 70
    -2
  9
$DIMLWE
 70
    -2
  9
$DIMTMOVE
 70
     0
  9
$LUNITS
 70
     2
  9
$LUPREC
 70
     3
  9
$SKETCHINC
 40
0.1
  9
$FILLETRAD
 40
2.0
  9
$AUNITS
 70
     0
  9
$AUPREC
 70
     3
  9
$MENU
  1
C:\R13\WIN\SUPPORT\ACADFULL
  9
$ELEVATION
 40
0.0
  9
$PELEVATION
 40
0.0
  9
$THICKNESS
 40
0.0
  9
$LIMCHECK
 70
     0
  9
$CHAMFERA
 40
0.0
  9
$CHAMFERB
 40
0.0
  9
$CHAMFERC
 40
0.0
  9
$CHAMFERD
 40
0.0
  9
$SKPOLY
 70
     0
  9
$TDCREATE
 40
2457456.651021528
  9
$TDUCREATE
 40
2457456.276021528
  9
$TDUPDATE
 40
2457870.596912407
  9
$TDUUPDATE
 40
2457870.221912407
  9
$TDINDWG
 40
0.006377338
  9
$TDUSRTIMER
 40
0.0063768056
  9
$USRTIMER
 70
     1
  9
$ANGBASE
 50
0.0
  9
$ANGDIR
 70
     0
  9
$PDMODE
 70
     0
  9
$PDSIZE
 40
0.0
  9
$PLINEWID
 40
0.0
  9
$SPLFRAME
 70
     0
  9
$SPLINETYPE
 70
     6
  9
$SPLINESEGS
 70
     8
  9
$HANDSEED
  5
52A
  9
$SURFTAB1
 70
     6
  9
$SURFTAB2
 70
     6
  9
$SURFTYPE
 70
     6
  9
$SURFU
 70
     6
  9
$SURFV
 70
     6
  9
$UCSBASE
  2

  9
$UCSNAME
  2

  9
$UCSORG
 10
0.0
 20
0.0
 30
0.0
  9
$UCSXDIR
 10
1.0
 20
0.0
 30
0.0
  9
$UCSYDIR
 10
0.0
 20
1.0
 30
0.0
  9
$UCSORTHOREF
  2

  9
$UCSORTHOVIEW
 70
     0
  9
$UCSORGTOP
 10
0.0
 20
0.0
 30
0.0
  9
$UCSORGBOTTOM
 10
0.0
 20
0.0
 30
0.0
  9
$UCSORGLEFT
 10
0.0
 20
0.0
 30
0.0
  9
$UCSORGRIGHT
 10
0.0
 20
0.0
 30
0.0
  9
$UCSORGFRONT
 10
0.0
 20
0.0
 30
0.0
  9
$UCSORGBACK
 10
0.0
 20
0.0
 30
0.0
  9
$PUCSBASE
  2

  9
$PUCSNAME
  2

  9
$PUCSORG
 10
0.0
 20
0.0
 30
0.0
  9
$PUCSXDIR
 10
1.0
 20
0.0
 30
0.0
  9
$PUCSYDIR
 10
0.0
 20
1.0
 30
0.0
  9
$PUCSORTHOREF
  2

  9
$PUCSORTHOVIEW
 70
     0
  9
$PUCSORGTOP
 10
0.0
 20
0.0
 30
0.0
  9
$PUCSORGBOTTOM
 10
0.0
 20
0.0
 30
0.0
  9
$PUCSORGLEFT
 10
0.0
 20
0.0
 30
0.0
  9
$PUCSORGRIGHT
 10
0.0
 20
0.0
 30
0.0
  9
$PUCSORGFRONT
 10
0.0
 20
0.0
 30
0.0
  9
$PUCSORGBACK
 10
0.0
 20
0.0
 30
0.0
  9
$USERI1
 70
     0
  9
$USERI2
 70
     0
  9
$USERI3
 70
     0
  9
$USERI4
 70
     0
  9
$USERI5
 70
     0
  9
$USERR1
 40
0.0
  9
$USERR2
 40
0.0
  9
$USERR3
 40
0.0
  9
$USERR4
 40
2448925.372986111
  9
$USERR5
 40
0.04166667
  9
$WORLDVIEW
 70
     1
  9
$SHADEDGE
 70
     3
  9
$SHADEDIF
 70
    70
  9
$TILEMODE
 70
     1
  9
$MAXACTVP
 70
    16
  9
$PINSBASE
 10
0.0
 20
0.0
 30
0.0
  9
$PLIMCHECK
 70
     0
  9
$PEXTMIN
 10
1.000000000000000E+20
 20
1.000000000000000E+20
 30
1.000000000000000E+20
  9
$PEXTMAX
 10
-1.000000000000000E+20
 20
-1.000000000000000E+20
 30
-1.000000000000000E+20
  9
$PLIMMIN
 10
0.0
 20
0.0
  9
$PLIMMAX
 10
12.0
 20
9.0
  9
$UNITMODE
 70
     0
  9
$VISRETAIN
 70
     0
  9
$PLINEGEN
 70
     0
  9
$PSLTSCALE
 70
     0
  9
$TREEDEPTH
 70
  3020
  9
$CMLSTYLE
  2
STANDARD
  9
$CMLJUST
 70
     0
  9
$CMLSCALE
 40
1.0
  9
$PROXYGRAPHICS
 70
     1
  9
$MEASUREMENT
 70
     0
  9
$CELWEIGHT
370
    -1
  9
$ENDCAPS
280
     0
  9
$JOINSTYLE
280
     0
  9
$LWDISPLAY
290
     0
  9
$INSUNITS
 70
     0
  9
$HYPERLINKBASE
  1

  9
$STYLESHEET
  1
monochrome.ctb
  9
$XEDIT
290
     1
  9
$CEPSNTYPE
380
     0
  9
$PSTYLEMODE
290
     1
  9
$FINGERPRINTGUID
  2
{A858D34B-D842-4D5A-A1AD-66F4B283E07F}
  9
$VERSIONGUID
  2
{A3BD5B3C-1553-4E09-9FC2-2D5922DFBEDA}
  9
$EXTNAMES
290
     1
  9
$PSVPSCALE
 40
0.0
  9
$OLESTARTUP
290
     0
  0
ENDSEC
  0
SECTION
  2
CLASSES
  0
CLASS
  1
ACDBDICTIONARYWDFLT
  2
AcDbDictionaryWithDefault
  3
ObjectDBX Classes
 90
        0
280
     0
281
     0
  0
CLASS
  1
MATERIAL
  2
AcDbMaterial
  3
ObjectDBX Classes
 90
     1153
280
     0
281
     0
  0
CLASS
  1
SORTENTSTABLE
  2
AcDbSortentsTable
  3
ObjectDBX Classes
 90
        0
280
     0
281
     0
  0
CLASS
  1
SCALE
  2
AcDbScale
  3
ObjectDBX Classes
 90
     1153
280
     0
281
     0
  0
CLASS
  1
DICTIONARYVAR
  2
AcDbDictionaryVar
  3
ObjectDBX Classes
 90
        0
280
     0
281
     0
  0
CLASS
  1
VISUALSTYLE
  2
AcDbVisualStyle
  3
ObjectDBX Classes
 90
     4095
280
     0
281
     0
  0
CLASS
  1
MLEADERSTYLE
  2
AcDbMLeaderStyle
  3
ACDB_MLEADERSTYLE_CLASS
 90
     4095
280
     0
281
     0
  0
CLASS
  1
TABLESTYLE
  2
AcDbTableStyle
  3
ObjectDBX Classes
 90
     4095
280
     0
281
     0
  0
CLASS
  1
ACDBPLACEHOLDER
  2
AcDbPlaceHolder
  3
ObjectDBX Classes
 90
        0
280
     0
281
     0
  0
CLASS
  1
LAYOUT
  2
AcDbLayout
  3
ObjectDBX Classes
 90
        0
280
     0
281
     0
  0
ENDSEC
  0
SECTION
  2
TABLES
  0
TABLE
  2
VPORT
  5
2D
102
{ACAD_XDICTIONARY
360
4EF
102
}
330
0
100
AcDbSymbolTable
 70
     1
  0
VPORT
  5
32
330
2D
100
AcDbSymbolTableRecord
100
AcDbViewportTableRecord
  2
*ACTIVE
 70
     0
 10
0.0
 20
0.0
 11
1.0
 21
1.0
 12
570.9550972340455
 22
269.2511518511126
 13
0.0
 23
0.0
 14
1.0
 24
1.0
 15
50.0
 25
50.0
 16
0.0
 26
0.0
 36
1.0
 17
0.0
 27
0.0
 37
0.0
 40
760.4522156921729
 41
2.177611940298507
 42
50.0
 43
0.0
 44
0.0
 50
0.0
 51
0.0
 71
     0
 72
  5000
 73
     1
 74
     0
 75
     0
 76
     0
 77
     0
 78
     0
281
     0
 65
     1
110
0.0
120
0.0
130
0.0
111
1.0
121
0.0
131
0.0
112
0.0
122
1.0
132
0.0
 79
     0
146
0.0
1001
ACAD_NAV_VCDISPLAY
1070
     3
  0
ENDTAB
  0
TABLE
  2
LTYPE
  5
F
330
0
100
AcDbSymbolTable
 70
     2
  0
LTYPE
  5
10
330
F
100
AcDbSymbolTableRecord
100
AcDbLinetypeTableRecord
  2
BYBLOCK
 70
     0
  3

 72
    65
 73
     0
 40
0.0
  0
LTYPE
  5
11
330
F
100
AcDbSymbolTableRecord
100
AcDbLinetypeTableRecord
  2
BYLAYER
 70
     0
  3

 72
    65
 73
     0
 40
0.0
  0
LTYPE
  5
E
330
F
100
AcDbSymbolTableRecord
100
AcDbLinetypeTableRecord
  2
CONTINUOUS
 70
     0
  3
Solid line
 72
    65
 73
     0
 40
0.0
  0
LTYPE
  5
9B
330
F
100
AcDbSymbolTableRecord
100
AcDbLinetypeTableRecord
  2
CENTER
 70
     0
  3
____ _ ____ _ ____ _ ____ _ ____ _ ____ _ ____
 72
    65
 73
     4
 40
2.0
 49
1.25
 74
     0
 49
-0.25
 74
     0
 49
0.25
 74
     0
 49
-0.25
 74
     0
  0
ENDTAB
  0
TABLE
  2
LAYER
  5
2
102
{ACAD_XDICTIONARY
360
3
102
}
330
0
100
AcDbSymbolTable
 70
     8
  0
LAYER
  5
1F
102
{ACAD_XDICTIONARY
360
20
102
}
330
2
100
AcDbSymbolTableRecord
100
AcDbLayerTableRecord
  2
0
 70
     0
 62
     7
  6
CONTINUOUS
370
    -3
390
7
  0
LAYER
  5
CF
102
{ACAD_XDICTIONARY
360
D0
102
}
330
2
100
AcDbSymbolTableRecord
100
AcDbLayerTableRecord
  2
1
 70
     0
 62
     9
  6
CONTINUOUS
370
    -3
390
7
  0
LAYER
  5
1
102
{ACAD_XDICTIONARY
360
5
102
}
330
2
100
AcDbSymbolTableRecord
100
AcDbLayerTableRecord
  2
2
 70
     0
 62
     4
  6
CONTINUOUS
370
    -3
390
7
  0
LAYER
  5
CA
102
{ACAD_XDICTIONARY
360
CB
102
}
330
2
100
AcDbSymbolTableRecord
100
AcDbLayerTableRecord
  2
4
 70
     0
 62
     3
  6
CONTINUOUS
370
    -3
390
7
  0
LAYER
  5
98
102
{ACAD_XDICTIONARY
360
99
102
}
330
2
100
AcDbSymbolTableRecord
100
AcDbLayerTableRecord
  2
L-CENTER
 70
     0
 62
     1
  6
CENTER
370
    -3
390
7
  0
LAYER
  5
5C
102
{ACAD_XDICTIONARY
360
5D
102
}
330
2
100
AcDbSymbolTableRecord
100
AcDbLayerTableRecord
  2
3
 70
     0
 62
     2
  6
CONTINUOUS
370
    -3
390
7
  0
LAYER
  5
C5
330
2
100
AcDbSymbolTableRecord
100
AcDbLayerTableRecord
  2
5
 70
     0
 62
     6
  6
CONTINUOUS
370
    -3
390
7
  0
LAYER
  5
47D
330
2
100
AcDbSymbolTableRecord
100
AcDbLayerTableRecord
  2
Defpoints
 70
     0
 62
     7
  6
CONTINUOUS
290
     0
370
    -3
390
7
  0
ENDTAB
  0
TABLE
  2
STYLE
  5
13
330
0
100
AcDbSymbolTable
 70
     2
  0
STYLE
  5
17
330
13
100
AcDbSymbolTableRecord
100
AcDbTextStyleTableRecord
  2
STANDARD
 70
     0
 40
0.0
 41
1.0
 50
0.0
 71
     0
 42
3.6
  3
TXT
  4

  0
STYLE
  5
12
330
13
100
AcDbSymbolTableRecord
100
AcDbTextStyleTableRecord
  2
KANJI
 70
     0
 40
0.0
 41
1.0
 50
0.0
 71
     0
 42
6.0
  3
TXT
  4
BIGFONT
  0
ENDTAB
  0
TABLE
  2
VIEW
  5
2B
330
0
100
AcDbSymbolTable
 70
     0
  0
ENDTAB
  0
TABLE
  2
UCS
  5
2C
330
0
100
AcDbSymbolTable
 70
     0
  0
ENDTAB
  0
TABLE
  2
APPID
  5
D
330
0
100
AcDbSymbolTable
 70
     5
  0
APPID
  5
C
330
D
100
AcDbSymbolTableRecord
100
AcDbRegAppTableRecord
  2
ACAD
 70
     0
  0
APPID
  5
33
330
D
100
AcDbSymbolTableRecord
100
AcDbRegAppTableRecord
  2
ACAD_NAV_VCDISPLAY
 70
     0
  0
APPID
  5
45B
330
D
100
AcDbSymbolTableRecord
100
AcDbRegAppTableRecord
  2
ACAD_PSEXT
 70
     0
  0
APPID
  5
4E5
330
D
100
AcDbSymbolTableRecord
100
AcDbRegAppTableRecord
  2
ACAD_MLEADERVER
 70
     0
  0
ENDTAB
  0
TABLE
  2
DIMSTYLE
  5
16
330
0
100
AcDbSymbolTable
 70
     1
100
AcDbDimStyleTable
  0
DIMSTYLE
105
15
330
16
100
AcDbSymbolTableRecord
100
AcDbDimStyleTableRecord
  2
STANDARD
 70
     0
178
     0
340
17
  0
ENDTAB
  0
TABLE
  2
BLOCK_RECORD
  5
1A
330
0
100
AcDbSymbolTable
 70
     0
  0
BLOCK_RECORD
  5
1B
102
{ACAD_XDICTIONARY
360
1C
102
}
330
1A
100
AcDbSymbolTableRecord
100
AcDbBlockTableRecord
  2
*MODEL_SPACE
340
23
  0
BLOCK_RECORD
  5
27
330
1A
100
AcDbSymbolTableRecord
100
AcDbBlockTableRecord
  2
*PAPER_SPACE
340
2A
  0
ENDTAB
  0
ENDSEC
  0
SECTION
  2
BLOCKS
  0
BLOCK
  5
1E
330
1B
100
AcDbEntity
  8
0
100
AcDbBlockBegin
  2
*MODEL_SPACE
 70
     0
 10
0.0
 20
0.0
 30
0.0
  3
*MODEL_SPACE
  1

  0
ENDBLK
  5
22
330
1B
100
AcDbEntity
  8
0
100
AcDbBlockEnd
  0
BLOCK
  5
28
330
27
100
AcDbEntity
 67
     1
  8
0
100
AcDbBlockBegin
  2
*PAPER_SPACE
 70
     0
 10
0.0
 20
0.0
 30
0.0
  3
*PAPER_SPACE
  1

  0
ENDBLK
  5
29
330
27
100
AcDbEntity
 67
     1
  8
0
100
AcDbBlockEnd
  0
ENDSEC
  0
SECTION
  2
ENTITIES
  0
LINE
  5
1A1
330
1B
100
AcDbEntity
  8
4
100
AcDbLine
 10
680.9534912973883
 20
200.6289832786661
 30
0.0
 11
681.9534912973883
 21
199.6289832786661
 31
0.0
  0
LINE
  5
1A4
330
1B
100
AcDbEntity
  8
4
100
AcDbLine
 10
627.0533952973882
 20
256.0989552786663
 30
0.0
 11
627.0533952973884
 21
247.5989552786663
 31
0.0
  0
LINE
  5
1A6
330
1B
100
AcDbEntity
  8
4
100
AcDbLine
 10
644.9534912973883
 20
200.6289832786661
 30
0.0
 11
644.9534912973883
 21
203.6289832786661
 31
0.0
  0
LINE
  5
1A8
330
1B
100
AcDbEntity
  8
4
100
AcDbLine
 10
628.8534912973881
 20
212.1289832786661
 30
0.0
 11
629.8534912973881
 21
212.1289832786661
 31
0.0
  0
LINE
  5
1A9
330
1B
100
AcDbEntity
  8
4
100
AcDbLine
 10
629.8534912973881
 20
201.1289832786661
 30
0.0
 11
641.9534912973883
 21
201.1289832786661
 31
0.0
  0
LINE
  5
1AB
330
1B
100
AcDbEntity
  8
4
100
AcDbLine
 10
680.9534912973883
 20
200.6289832786661
 30
0.0
 11
641.9534912973883
 21
200.6289832786661
 31
0.0
  0
LINE
  5
1AC
330
1B
100
AcDbEntity
  8
4
100
AcDbLine
 10
681.9534912973883
 20
203.6289832786661
 30
0.0
 11
644.9534912973883
 21
203.6289832786661
 31
0.0
  0
ARC
  5
1AF
330
1B
100
AcDbEntity
  8
4
100
AcDbCircle
 10
619.7533952973882
 20
265.6289832786661
 30
0.0
 40
1.0
100
AcDbArc
 50
0.0
 51
90.0
  0
LINE
  5
1B0
330
1B
100
AcDbEntity
  8
4
100
AcDbLine
 10
619.7533952973882
 20
266.6289832786661
 30
0.0
 11
610.9534912973883
 21
266.6289832786661
 31
0.0
  0
ARC
  5
1B2
330
1B
100
AcDbEntity
  8
4
100
AcDbCircle
 10
604.9534912973883
 20
267.6289832786661
 30
0.0
 40
1.0
100
AcDbArc
 50
0.0
 51
90.0
  0
LINE
  5
1B3
330
1B
100
AcDbEntity
  8
4
100
AcDbLine
 10
610.9534912973883
 20
266.6289832786661
 30
0.0
 11
605.9534912973883
 21
266.6289832786661
 31
0.0
  0
LINE
  5
1B8
330
1B
100
AcDbEntity
  8
4
100
AcDbLine
 10
584.4534912973883
 20
271.1289832786661
 30
0.0
 11
584.4534912973883
 21
273.1289832786661
 31
0.0
  0
LINE
  5
1B9
330
1B
100
AcDbEntity
  8
4
100
AcDbLine
 10
585.9534912973883
 20
268.6289832786661
 30
0.0
 11
585.9534912973883
 21
269.6289832786661
 31
0.0
  0
LINE
  5
1BA
330
1B
100
AcDbEntity
  8
4
100
AcDbLine
 10
583.4534912973883
 20
269.6289832786661
 30
0.0
 11
583.4534912973883
 21
271.1289832786661
 31
0.0
  0
LINE
  5
1BB
330
1B
100
AcDbEntity
  8
4
100
AcDbLine
 10
582.7786872973883
 20
273.1289832786661
 30
0.0
 11
582.7786872973883
 21
277.1289832786661
 31
0.0
  0
LINE
  5
1BC
330
1B
100
AcDbEntity
  8
4
100
AcDbLine
 10
560.4534912973883
 20
269.6289832786661
 30
0.0
 11
560.4534912973883
 21
271.1289832786661
 31
0.0
  0
LINE
  5
1BD
330
1B
100
AcDbEntity
  8
4
100
AcDbLine
 10
561.1280532973882
 20
273.1289832786661
 30
0.0
 11
561.1280532973882
 21
277.1289832786661
 31
0.0
  0
LINE
  5
1BE
330
1B
100
AcDbEntity
  8
4
100
AcDbLine
 10
582.7786872973883
 20
277.1289832786661
 30
0.0
 11
561.1280532973882
 21
277.1289832786661
 31
0.0
  0
LINE
  5
1C1
330
1B
100
AcDbEntity
  8
4
100
AcDbLine
 10
622.0533952973882
 20
256.0989552786663
 30
0.0
 11
622.0533952973884
 21
247.5989552786663
 31
0.0
  0
LINE
  5
1C2
330
1B
100
AcDbEntity
  8
2
100
AcDbLine
 10
620.7533952973882
 20
251.8489552786662
 30
0.0
 11
622.0533952973882
 21
253.1489552786662
 31
0.0
  0
LINE
  5
1C3
330
1B
100
AcDbEntity
  8
2
100
AcDbLine
 10
620.7533952973882
 20
250.0104776475812
 30
0.0
 11
622.0533952973882
 21
251.3104776475812
 31
0.0
  0
LINE
  5
1C5
330
1B
100
AcDbEntity
  8
4
100
AcDbLine
 10
559.4534912973883
 20
271.1289832786661
 30
0.0
 11
559.4534912973883
 21
273.1289832786661
 31
0.0
  0
LINE
  5
1C6
330
1B
100
AcDbEntity
  8
4
100
AcDbLine
 10
557.9537372973881
 20
268.6289832786661
 30
0.0
 11
557.9537372973881
 21
269.6289832786661
 31
0.0
  0
ARC
  5
1C7
330
1B
100
AcDbEntity
  8
4
100
AcDbCircle
 10
538.9534912973883
 20
267.6289832786661
 30
0.0
 40
1.0
100
AcDbArc
 50
90.0
 51
180.0
  0
ARC
  5
1C9
330
1B
100
AcDbEntity
  8
4
100
AcDbCircle
 10
531.9534912973883
 20
265.6289832786661
 30
0.0
 40
1.0
100
AcDbArc
 50
90.0
 51
180.0
  0
LINE
  5
1CA
330
1B
100
AcDbEntity
  8
4
100
AcDbLine
 10
531.9534912973883
 20
266.6289832786661
 30
0.0
 11
537.9534912973883
 21
266.6289832786661
 31
0.0
  0
ARC
  5
1CE
330
1B
100
AcDbEntity
  8
4
100
AcDbCircle
 10
528.6576188627413
 20
242.1289832786661
 30
0.0
 40
1.0
100
AcDbArc
 50
270.0
 51
350.4068654588375
  0
ARC
  5
1CF
330
1B
100
AcDbEntity
  8
4
100
AcDbCircle
 10
526.9534912973883
 20
240.1289832786661
 30
0.0
 40
1.0
100
AcDbArc
 50
90.0
 51
180.0
  0
ARC
  5
1D0
330
1B
100
AcDbEntity
  8
4
100
AcDbCircle
 10
524.2189573249537
 20
221.8674817933597
 30
0.0
 40
2.0
100
AcDbArc
 50
279.462322208034
 51
350.4068654588381
  0
LINE
  5
1D1
330
1B
100
AcDbEntity
  8
4
100
AcDbLine
 10
516.9534912973883
 20
218.6289832786661
 30
0.0
 11
524.5477552995648
 21
219.8946939456955
 31
0.0
  0
LINE
  5
1D2
330
1B
100
AcDbEntity
  8
4
100
AcDbLine
 10
525.9534912973883
 20
221.8232372786661
 30
0.0
 11
525.9534912973883
 21
240.1289832786661
 31
0.0
  0
LINE
  5
1D3
330
1B
100
AcDbEntity
  8
4
100
AcDbLine
 10
526.9534912973883
 20
241.1289832786661
 30
0.0
 11
528.6576188627413
 21
241.1289832786661
 31
0.0
  0
LINE
  5
1D4
330
1B
100
AcDbEntity
  8
4
100
AcDbLine
 10
525.9534912973883
 20
206.1289832786661
 30
0.0
 11
530.9534912973883
 21
204.1289832786661
 31
0.0
  0
LINE
  5
1D5
330
1B
100
AcDbEntity
  8
4
100
AcDbLine
 10
530.9534912973883
 20
249.7123162786662
 30
0.0
 11
526.1909893510218
 21
221.5341805959983
 31
0.0
  0
LINE
  5
1D8
330
1B
100
AcDbEntity
  8
4
100
AcDbLine
 10
584.4534912973883
 20
273.1289832786661
 30
0.0
 11
559.4534912973883
 21
273.1289832786661
 31
0.0
  0
LINE
  5
1D9
330
1B
100
AcDbEntity
  8
4
100
AcDbLine
 10
584.4534912973883
 20
271.1289832786661
 30
0.0
 11
559.4534912973883
 21
271.1289832786661
 31
0.0
  0
LINE
  5
1DA
330
1B
100
AcDbEntity
  8
4
100
AcDbLine
 10
585.9534912973883
 20
269.6289832786661
 30
0.0
 11
557.9537372973881
 21
269.6289832786661
 31
0.0
  0
LINE
  5
1DB
330
1B
100
AcDbEntity
  8
4
100
AcDbLine
 10
604.9534912973883
 20
268.6289832786661
 30
0.0
 11
538.9534912973883
 21
268.6289832786661
 31
0.0
  0
LINE
  5
1E2
330
1B
100
AcDbEntity
  8
4
100
AcDbLine
 10
620.7533952973882
 20
219.9790812786662
 30
0.0
 11
628.8534912973881
 21
218.6289832786661
 31
0.0
  0
LINE
  5
1E3
330
1B
100
AcDbEntity
  8
L-CENTER
 48
2.0
100
AcDbLine
 10
628.8547132973882
 20
251.8489552786662
 30
0.0
 11
600.1273212973882
 21
251.8489552786662
 31
0.0
  0
LINE
  5
1E6
330
1B
100
AcDbEntity
  8
4
100
AcDbLine
 10
627.0533952973882
 20
256.0989552786663
 30
0.0
 11
620.7533952973885
 21
256.0989552786663
 31
0.0
  0
LINE
  5
1E7
330
1B
100
AcDbEntity
  8
4
100
AcDbLine
 10
627.0533952973882
 20
247.5989552786662
 30
0.0
 11
620.7533952973885
 21
247.5989552786663
 31
0.0
  0
LINE
  5
1EA
330
1B
100
AcDbEntity
  8
4
100
AcDbLine
 10
681.9534912973883
 20
177.6289832786661
 30
0.0
 11
680.9534912973883
 21
176.6289832786661
 31
0.0
  0
LINE
  5
1EB
330
1B
100
AcDbEntity
  8
4
100
AcDbLine
 10
627.0533952973882
 20
192.8789832786662
 30
0.0
 11
627.0533952973884
 21
184.3789832786662
 31
0.0
  0
LINE
  5
1EC
330
1B
100
AcDbEntity
  8
4
100
AcDbLine
 10
628.8534912973881
 20
165.1289832786661
 30
0.0
 11
629.8534912973881
 21
165.1289832786661
 31
0.0
  0
LINE
  5
1ED
330
1B
100
AcDbEntity
  8
4
100
AcDbLine
 10
629.8534912973881
 20
176.1289832786661
 30
0.0
 11
641.9534912973883
 21
176.1289832786661
 31
0.0
  0
LINE
  5
1EE
330
1B
100
AcDbEntity
  8
4
100
AcDbLine
 10
628.8534912973881
 20
188.6289832786661
 30
0.0
 11
628.8534912973881
 21
158.6289832786661
 31
0.0
  0
LINE
  5
1EF
330
1B
100
AcDbEntity
  8
4
100
AcDbLine
 10
680.9534912973883
 20
176.6289832786661
 30
0.0
 11
641.9534912973883
 21
176.6289832786661
 31
0.0
  0
LINE
  5
1F0
330
1B
100
AcDbEntity
  8
4
100
AcDbLine
 10
627.0533952973882
 20
121.159011278666
 30
0.0
 11
627.0533952973884
 21
129.659011278666
 31
0.0
  0
LINE
  5
1F1
330
1B
100
AcDbEntity
  8
4
100
AcDbLine
 10
639.9534912973883
 20
42.62915127866614
 30
0.0
 11
639.9534912973883
 21
61.62915127866614
 31
0.0
  0
ARC
  5
1F2
330
1B
100
AcDbEntity
  8
4
100
AcDbCircle
 10
638.9534912973883
 20
61.62915127866614
 30
0.0
 40
1.0
100
AcDbArc
 50
0.0
 51
90.0
  0
LINE
  5
1F5
330
1B
100
AcDbEntity
  8
4
100
AcDbLine
 10
622.0533952973882
 20
192.8789832786662
 30
0.0
 11
622.0533952973884
 21
184.3789832786662
 31
0.0
  0
LINE
  5
1F6
330
1B
100
AcDbEntity
  8
2
100
AcDbLine
 10
620.7533952973882
 20
186.7905056475811
 30
0.0
 11
622.0533952973882
 21
188.0905056475811
 31
0.0
  0
LINE
  5
1F7
330
1B
100
AcDbEntity
  8
2
100
AcDbLine
 10
620.7533952973882
 20
188.6289832786661
 30
0.0
 11
622.0533952973882
 21
189.9289832786661
 31
0.0
  0
LINE
  5
1F8
330
1B
100
AcDbEntity
  8
4
100
AcDbLine
 10
622.0533952973882
 20
121.159011278666
 30
0.0
 11
622.0533952973884
 21
129.6590112786659
 31
0.0
  0
LINE
  5
1F9
330
1B
100
AcDbEntity
  8
2
100
AcDbLine
 10
620.7533952973882
 20
127.247488909751
 30
0.0
 11
622.0533952973882
 21
125.947488909751
 31
0.0
  0
LINE
  5
1FA
330
1B
100
AcDbEntity
  8
2
100
AcDbLine
 10
620.7533952973882
 20
125.409011278666
 30
0.0
 11
622.0533952973882
 21
124.1090112786661
 31
0.0
  0
ARC
  5
1FB
330
1B
100
AcDbEntity
  8
4
100
AcDbCircle
 10
619.7533952973882
 20
111.6289832786661
 30
0.0
 40
1.0
100
AcDbArc
 50
270.0
 51
0.0
  0
LINE
  5
1FC
330
1B
100
AcDbEntity
  8
4
100
AcDbLine
 10
619.7533952973882
 20
110.6289832786661
 30
0.0
 11
610.9534912973883
 21
110.6289832786661
 31
0.0
  0
LINE
  5
1FD
330
1B
100
AcDbEntity
  8
4
100
AcDbLine
 10
605.9534912973883
 20
107.6289832786661
 30
0.0
 11
604.4534912973883
 21
107.6289832786661
 31
0.0
  0
LINE
  5
1FE
330
1B
100
AcDbEntity
  8
4
100
AcDbLine
 10
610.9534912973883
 20
110.6289832786661
 30
0.0
 11
605.9534912973883
 21
110.6289832786661
 31
0.0
  0
LINE
  5
1FF
330
1B
100
AcDbEntity
  8
4
100
AcDbLine
 10
574.4534912973883
 20
123.6289832786661
 30
0.0
 11
569.4534912973883
 21
123.6289832786661
 31
0.0
  0
LINE
  5
200
330
1B
100
AcDbEntity
  8
4
100
AcDbLine
 10
574.4534912973883
 20
118.6289832786661
 30
0.0
 11
569.4534912973883
 21
118.6289832786661
 31
0.0
  0
LINE
  5
201
330
1B
100
AcDbEntity
  8
4
100
AcDbLine
 10
574.4534912973883
 20
123.6289832786661
 30
0.0
 11
574.4534912973883
 21
118.6289832786661
 31
0.0
  0
LINE
  5
202
330
1B
100
AcDbEntity
  8
4
100
AcDbLine
 10
569.4534912973883
 20
118.6289832786661
 30
0.0
 11
569.4534912973883
 21
123.6289832786661
 31
0.0
  0
ARC
  5
203
330
1B
100
AcDbEntity
  8
4
100
AcDbCircle
 10
571.9534912973883
 20
112.6289832786661
 30
0.0
 40
9.000002
100
AcDbArc
 50
106.1276165314944
 51
73.87238800000068
  0
LINE
  5
204
330
1B
100
AcDbEntity
  8
4
100
AcDbLine
 10
620.7533952973882
 20
111.6289832786661
 30
0.0
 11
620.7533952973882
 21
188.6289832786661
 31
0.0
  0
ARC
  5
205
330
1B
100
AcDbEntity
  8
4
100
AcDbCircle
 10
524.218957324954
 20
155.3904847639723
 30
0.0
 40
2.0
100
AcDbArc
 50
9.593134541164105
 51
80.5376777919725
  0
LINE
  5
206
330
1B
100
AcDbEntity
  8
4
100
AcDbLine
 10
516.9534912973883
 20
158.6289832786661
 30
0.0
 11
524.5477552995648
 21
157.3632726116366
 31
0.0
  0
LINE
  5
207
330
1B
100
AcDbEntity
  8
4
100
AcDbLine
 10
525.9534912973883
 20
171.1289832786661
 30
0.0
 11
530.9534912973883
 21
173.1289832786661
 31
0.0
  0
LINE
  5
208
330
1B
100
AcDbEntity
  8
4
100
AcDbLine
 10
530.9534912973883
 20
125.1289832786661
 30
0.0
 11
528.4534912973883
 21
125.1289832786661
 31
0.0
  0
LINE
  5
209
330
1B
100
AcDbEntity
  8
4
100
AcDbLine
 10
530.9534912973883
 20
118.8789832786661
 30
0.0
 11
528.4534912973883
 21
118.8789832786661
 31
0.0
  0
LINE
  5
20A
330
1B
100
AcDbEntity
  8
4
100
AcDbLine
 10
537.9534912973883
 20
107.6289832786661
 30
0.0
 11
539.4534912973883
 21
107.6289832786661
 31
0.0
  0
LINE
  5
20B
330
1B
100
AcDbEntity
  8
4
100
AcDbLine
 10
536.9534912973883
 20
102.0697932279721
 30
0.0
 11
536.9534912973883
 21
110.6289832786661
 31
0.0
  0
LINE
  5
20C
330
1B
100
AcDbEntity
  8
4
100
AcDbLine
 10
533.453491297388
 20
100.1289832786661
 30
0.0
 11
528.4534912973883
 21
100.1289832786661
 31
0.0
  0
LINE
  5
20D
330
1B
100
AcDbEntity
  8
4
100
AcDbLine
 10
533.4534912973883
 20
106.3789832786661
 30
0.0
 11
528.4534912973883
 21
106.3789832786661
 31
0.0
  0
ARC
  5
20E
330
1B
100
AcDbEntity
  8
4
100
AcDbCircle
 10
531.9534912973883
 20
111.6289832786661
 30
0.0
 40
1.0
100
AcDbArc
 50
180.0
 51
270.0
  0
LINE
  5
20F
330
1B
100
AcDbEntity
  8
4
100
AcDbLine
 10
535.453491297388
 20
101.1289832786661
 30
0.0
 11
535.4534912973883
 21
110.6289832786661
 31
0.0
  0
LINE
  5
210
330
1B
100
AcDbEntity
  8
4
100
AcDbLine
 10
533.4534912973883
 20
110.6289832786661
 30
0.0
 11
533.4534912973883
 21
100.1289832786661
 31
0.0
  0
LINE
  5
211
330
1B
100
AcDbEntity
  8
4
100
AcDbLine
 10
531.9534912973883
 20
110.6289832786661
 30
0.0
 11
537.9534912973883
 21
110.6289832786661
 31
0.0
  0
LINE
  5
212
330
1B
100
AcDbEntity
  8
4
100
AcDbLine
 10
536.5949066466789
 20
101.1289832786661
 30
0.0
 11
533.4534912973883
 21
101.1289832786661
 31
0.0
  0
LINE
  5
213
330
1B
100
AcDbEntity
  8
4
100
AcDbLine
 10
528.4534912973883
 20
100.1289832786661
 30
0.0
 11
528.4534912973883
 21
125.1289832786661
 31
0.0
  0
LINE
  5
214
330
1B
100
AcDbEntity
  8
4
100
AcDbLine
 10
530.9534912973883
 20
127.5456502786661
 30
0.0
 11
526.1909893510218
 21
155.7237859613338
 31
0.0
  0
LINE
  5
215
330
1B
100
AcDbEntity
  8
L-CENTER
 48
2.0
100
AcDbLine
 10
522.8768312973883
 20
112.6289832786661
 30
0.0
 11
608.4916548683635
 21
112.6289832786661
 31
0.0
  0
CIRCLE
  5
216
330
1B
100
AcDbEntity
  8
4
100
AcDbCircle
 10
571.9534912973883
 20
112.6289832786661
 30
0.0
 40
23.5
  0
CIRCLE
  5
217
330
1B
100
AcDbEntity
  8
4
100
AcDbCircle
 10
571.9534912973883
 20
112.6289832786661
 30
0.0
 40
32.5
  0
ARC
  5
21C
330
1B
100
AcDbEntity
  8
4
100
AcDbCircle
 10
519.8540782973881
 20
65.62898327866611
 30
0.0
 40
3.0
100
AcDbArc
 50
270.0
 51
339.9689880000004
  0
ARC
  5
21D
330
1B
100
AcDbEntity
  8
4
100
AcDbCircle
 10
504.9534912973883
 20
61.62915127866614
 30
0.0
 40
1.0
100
AcDbArc
 50
90.0
 51
180.000858999821
  0
LINE
  5
21E
330
1B
100
AcDbEntity
  8
4
100
AcDbLine
 10
503.9534912973883
 20
42.62915127866614
 30
0.0
 11
503.9534912973883
 21
61.62915127866614
 31
0.0
  0
LINE
  5
223
330
1B
100
AcDbEntity
  8
4
100
AcDbLine
 10
571.9534912973883
 20
42.62915127866614
 30
0.0
 11
503.9534912973883
 21
42.62915127866614
 31
0.0
  0
LINE
  5
224
330
1B
100
AcDbEntity
  8
4
100
AcDbLine
 10
571.9534912973883
 20
62.62915127866614
 30
0.0
 11
504.9534912973883
 21
62.62915127866614
 31
0.0
  0
ARC
  5
226
330
1B
100
AcDbEntity
  8
4
100
AcDbCircle
 10
609.4534912973883
 20
67.62915127866614
 30
0.0
 40
5.0
100
AcDbArc
 50
180.0005270003848
 51
270.0
  0
LINE
  5
227
330
1B
100
AcDbEntity
  8
L-CENTER
 48
2.0
100
AcDbLine
 10
621.9534912973883
 20
67.62915127866614
 30
0.0
 11
621.9534912973883
 21
37.62915127866614
 31
0.0
  0
ARC
  5
228
330
1B
100
AcDbEntity
  8
4
100
AcDbCircle
 10
534.4534912973883
 20
67.62915127866614
 30
0.0
 40
5.0
100
AcDbArc
 50
270.0
 51
0.0
  0
LINE
  5
229
330
1B
100
AcDbEntity
  8
L-CENTER
 48
2.0
100
AcDbLine
 10
521.9534912973883
 20
67.62915127866614
 30
0.0
 11
521.9534912973883
 21
37.62915127866614
 31
0.0
  0
LINE
  5
22A
330
1B
100
AcDbEntity
  8
4
100
AcDbLine
 10
621.2343822973884
 20
64.60139727866607
 30
0.0
 11
604.6178292973881
 21
108.1782272786662
 31
0.0
  0
LINE
  5
22B
330
1B
100
AcDbEntity
  8
4
100
AcDbLine
 10
522.6723039786092
 20
64.60058451859965
 30
0.0
 11
539.0723466772937
 21
107.6289832786661
 31
0.0
  0
LINE
  5
243
330
1B
100
AcDbEntity
  8
4
100
AcDbLine
 10
620.7533952973882
 20
157.2788872786662
 30
0.0
 11
628.8534912973881
 21
158.6289832786661
 31
0.0
  0
LINE
  5
244
330
1B
100
AcDbEntity
  8
L-CENTER
 48
2.0
100
AcDbLine
 10
687.5643312973883
 20
188.6289832786661
 30
0.0
 11
456.3426512973882
 21
188.6289832786661
 31
0.0
  0
ARC
  5
245
330
1B
100
AcDbEntity
  8
4
100
AcDbCircle
 10
624.0529042973884
 20
65.62898327866611
 30
0.0
 40
3.0
100
AcDbArc
 50
200.031012999998
 51
270.0
  0
LINE
  5
246
330
1B
100
AcDbEntity
  8
4
100
AcDbLine
 10
571.9534912973883
 20
62.62915127866614
 30
0.0
 11
638.9534912973883
 21
62.62915127866614
 31
0.0
  0
LINE
  5
247
330
1B
100
AcDbEntity
  8
4
100
AcDbLine
 10
571.9534912973883
 20
42.62915127866614
 30
0.0
 11
639.9534912973883
 21
42.62915127866614
 31
0.0
  0
LINE
  5
249
330
1B
100
AcDbEntity
  8
4
100
AcDbLine
 10
627.0533952973882
 20
192.8789832786662
 30
0.0
 11
620.7533952973885
 21
192.8789832786662
 31
0.0
  0
LINE
  5
24A
330
1B
100
AcDbEntity
  8
4
100
AcDbLine
 10
627.0533952973882
 20
184.3789832786661
 30
0.0
 11
620.7533952973885
 21
184.3789832786662
 31
0.0
  0
LINE
  5
24B
330
1B
100
AcDbEntity
  8
4
100
AcDbLine
 10
627.0533952973882
 20
121.159011278666
 30
0.0
 11
620.7533952973885
 21
121.159011278666
 31
0.0
  0
LINE
  5
24C
330
1B
100
AcDbEntity
  8
4
100
AcDbLine
 10
627.0533952973882
 20
129.659011278666
 30
0.0
 11
620.7533952973885
 21
129.659011278666
 31
0.0
  0
LINE
  5
24D
330
1B
100
AcDbEntity
  8
L-CENTER
 48
2.0
100
AcDbLine
 10
628.8547132973882
 20
125.409011278666
 30
0.0
 11
600.1273212973882
 21
125.409011278666
 31
0.0
  0
LINE
  5
24F
330
1B
100
AcDbEntity
  8
4
100
AcDbLine
 10
628.8534912973881
 20
188.6289832786661
 30
0.0
 11
628.8534912973881
 21
218.6289832786661
 31
0.0
  0
LINE
  5
250
330
1B
100
AcDbEntity
  8
4
100
AcDbLine
 10
680.9534912973883
 20
200.6289832786661
 30
0.0
 11
680.9534912973883
 21
176.6289832786661
 31
0.0
  0
LINE
  5
251
330
1B
100
AcDbEntity
  8
4
100
AcDbLine
 10
681.9534912973883
 20
177.6289832786661
 30
0.0
 11
681.9534912973883
 21
203.6289832786661
 31
0.0
  0
LINE
  5
252
330
1B
100
AcDbEntity
  8
4
100
AcDbLine
 10
641.9534912973883
 20
201.1289832786661
 30
0.0
 11
641.9534912973883
 21
176.1289832786661
 31
0.0
  0
LINE
  5
253
330
1B
100
AcDbEntity
  8
4
100
AcDbLine
 10
629.8534912973881
 20
165.1289832786661
 30
0.0
 11
629.8534912973881
 21
212.1289832786661
 31
0.0
  0
LINE
  5
254
330
1B
100
AcDbEntity
  8
4
100
AcDbLine
 10
620.7533952973882
 20
265.6289832786661
 30
0.0
 11
620.7533952973882
 21
188.6289832786661
 31
0.0
  0
LINE
  5
255
330
1B
100
AcDbEntity
  8
4
100
AcDbLine
 10
610.9534912973883
 20
110.6289832786661
 30
0.0
 11
610.9534912973883
 21
266.6289832786661
 31
0.0
  0
LINE
  5
256
330
1B
100
AcDbEntity
  8
4
100
AcDbLine
 10
605.9534912973883
 20
107.6289832786661
 30
0.0
 11
605.9534912973883
 21
267.6289832786661
 31
0.0
  0
LINE
  5
257
330
1B
100
AcDbEntity
  8
4
100
AcDbLine
 10
516.9534912973883
 20
218.6289832786661
 30
0.0
 11
516.9534912973883
 21
158.6289832786661
 31
0.0
  0
LINE
  5
258
330
1B
100
AcDbEntity
  8
4
100
AcDbLine
 10
530.9534912973883
 20
111.6289832786661
 30
0.0
 11
530.9534912973883
 21
265.6289832786661
 31
0.0
  0
LINE
  5
259
330
1B
100
AcDbEntity
  8
4
100
AcDbLine
 10
537.9534912973883
 20
107.6289832786661
 30
0.0
 11
537.9534912973883
 21
267.6289832786661
 31
0.0
  0
LINE
  5
25A
330
1B
100
AcDbEntity
  8
4
100
AcDbLine
 10
525.9534912973883
 20
156.3861714106998
 30
0.0
 11
525.9534912973883
 21
221.8232372786661
 31
0.0
  0
LINE
  5
25C
330
1B
100
AcDbEntity
  8
4
100
AcDbLine
 10
604.4534912973883
 20
188.6289832786661
 30
0.0
 11
604.4534912973883
 21
67.62915127866614
 31
0.0
  0
LINE
  5
25D
330
1B
100
AcDbEntity
  8
4
100
AcDbLine
 10
539.4534912973883
 20
188.6289832786661
 30
0.0
 11
539.4534912973883
 21
67.62915127866614
 31
0.0
  0
LINE
  5
25E
330
1B
100
AcDbEntity
  8
L-CENTER
 48
2.0
100
AcDbLine
 10
571.9534912973883
 20
280.3122678687236
 30
0.0
 11
571.9534912973883
 21
38.68256761865388
 31
0.0
  0
LINE
  5
260
330
1B
100
AcDbEntity
  8
4
100
AcDbLine
 10
350.6176363445105
 20
474.9597584088921
 30
0.0
 11
351.6176363445105
 21
473.9597584088921
 31
0.0
  0
LINE
  5
261
330
1B
100
AcDbEntity
  8
4
100
AcDbLine
 10
350.6176363445105
 20
474.9597584088921
 30
0.0
 11
350.6176363445105
 21
468.4597584088921
 31
0.0
  0
LINE
  5
262
330
1B
100
AcDbEntity
  8
4
100
AcDbLine
 10
351.6176363445105
 20
457.9597584088921
 30
0.0
 11
350.6176363445105
 21
456.9597584088921
 31
0.0
  0
LINE
  5
263
330
1B
100
AcDbEntity
  8
4
100
AcDbLine
 10
351.6176363445105
 20
457.9597584088921
 30
0.0
 11
351.6176363445105
 21
473.9597584088921
 31
0.0
  0
LINE
  5
264
330
1B
100
AcDbEntity
  8
4
100
AcDbLine
 10
350.6176363445105
 20
463.4597584088921
 30
0.0
 11
350.6176363445105
 21
456.9597584088921
 31
0.0
  0
ARC
  5
265
330
1B
100
AcDbEntity
  8
4
100
AcDbCircle
 10
295.6176363445105
 20
530.9597584088922
 30
0.0
 40
3.0
100
AcDbArc
 50
0.0
 51
90.0
  0
ARC
  5
266
330
1B
100
AcDbEntity
  8
4
100
AcDbCircle
 10
298.6176363445105
 20
513.7597584088921
 30
0.0
 40
1.0
100
AcDbArc
 50
0.0
 51
90.0
  0
LINE
  5
267
330
1B
100
AcDbEntity
  8
4
100
AcDbLine
 10
298.8675143450463
 20
521.0597584088923
 30
0.0
 11
298.8675143450463
 21
514.7597584088924
 31
0.0
  0
LINE
  5
268
330
1B
100
AcDbEntity
  8
4
100
AcDbLine
 10
290.3675143450463
 20
521.0597584088921
 30
0.0
 11
290.3675143450463
 21
514.7597584088924
 31
0.0
  0
LINE
  5
269
330
1B
100
AcDbEntity
  8
4
100
AcDbLine
 10
290.3675143450463
 20
516.0597584088923
 30
0.0
 11
298.8675143450461
 21
516.0597584088923
 31
0.0
  0
LINE
  5
26A
330
1B
100
AcDbEntity
  8
4
100
AcDbLine
 10
290.3675143450463
 20
521.0597584088923
 30
0.0
 11
298.8675143450463
 21
521.0597584088923
 31
0.0
  0
LINE
  5
26B
330
1B
100
AcDbEntity
  8
4
100
AcDbLine
 10
299.6176363445105
 20
499.9597584088921
 30
0.0
 11
299.6176363445101
 21
504.9597584088924
 31
0.0
  0
LINE
  5
26C
330
1B
100
AcDbEntity
  8
L-CENTER
 48
2.0
100
AcDbLine
 10
294.6175143450463
 20
522.8610764088921
 30
0.0
 11
294.6175143450463
 21
494.1336844088921
 31
0.0
  0
LINE
  5
26D
330
1B
100
AcDbEntity
  8
4
100
AcDbLine
 10
299.6176363445105
 20
513.7597584088921
 30
0.0
 11
299.6176363445105
 21
505.2597584088921
 31
0.0
  0
ARC
  5
26E
330
1B
100
AcDbEntity
  8
4
100
AcDbCircle
 10
276.6176363445105
 20
515.9597584088922
 30
0.0
 40
5.5
100
AcDbArc
 50
347.3977351585344
 51
192.6022648414655
  0
LINE
  5
26F
330
1B
100
AcDbEntity
  8
L-CENTER
 48
2.0
100
AcDbLine
 10
276.6176363445105
 20
502.1685294088922
 30
0.0
 11
276.6176363445105
 21
529.7509874088921
 31
0.0
  0
LINE
  5
270
330
1B
100
AcDbEntity
  8
4
100
AcDbLine
 10
298.6176363445105
 20
521.0597584088923
 30
0.0
 11
298.6176363445105
 21
530.9597584088922
 31
0.0
  0
ARC
  5
271
330
1B
100
AcDbEntity
  8
4
100
AcDbCircle
 10
322.1176363445105
 20
465.9597584088921
 30
0.0
 40
2.5
100
AcDbArc
 50
90.0
 51
270.0
  0
LINE
  5
272
330
1B
100
AcDbEntity
  8
4
100
AcDbLine
 10
302.6176363445105
 20
475.9597584088921
 30
0.0
 11
316.6176363445105
 21
475.9597584088921
 31
0.0
  0
LINE
  5
273
330
1B
100
AcDbEntity
  8
4
100
AcDbLine
 10
302.6176363445105
 20
455.9597584088921
 30
0.0
 11
316.6176363445105
 21
455.9597584088921
 31
0.0
  0
LINE
  5
274
330
1B
100
AcDbEntity
  8
4
100
AcDbLine
 10
316.6176363445105
 20
475.9597584088921
 30
0.0
 11
316.6176363445105
 21
455.9597584088921
 31
0.0
  0
LINE
  5
275
330
1B
100
AcDbEntity
  8
4
100
AcDbLine
 10
302.6173923445102
 20
489.4597584088921
 30
0.0
 11
302.6173923445102
 21
442.4597584088921
 31
0.0
  0
ARC
  5
276
330
1B
100
AcDbEntity
  8
4
100
AcDbCircle
 10
300.6176363445105
 20
430.9597584088921
 30
0.0
 40
1.0
100
AcDbArc
 50
90.00000700000332
 51
180.0000069360899
  0
LINE
  5
277
330
1B
100
AcDbEntity
  8
4
100
AcDbLine
 10
302.6173923445102
 20
489.4597584088921
 30
0.0
 11
301.6173923445102
 21
489.4597584088921
 31
0.0
  0
LINE
  5
278
330
1B
100
AcDbEntity
  8
4
100
AcDbLine
 10
302.6176363445105
 20
489.4597584088921
 30
0.0
 11
301.6176363445105
 21
489.4597584088921
 31
0.0
  0
LINE
  5
279
330
1B
100
AcDbEntity
  8
4
100
AcDbLine
 10
302.6173923445102
 20
442.4597584088921
 30
0.0
 11
301.6173923445102
 21
442.4597584088921
 31
0.0
  0
LINE
  5
27A
330
1B
100
AcDbEntity
  8
4
100
AcDbLine
 10
302.6176363445105
 20
442.4597584088921
 30
0.0
 11
301.6176363445105
 21
442.4597584088921
 31
0.0
  0
LINE
  5
27B
330
1B
100
AcDbEntity
  8
4
100
AcDbLine
 10
301.6176363445105
 20
431.9597584672599
 30
0.0
 11
301.6176363445105
 21
499.9597584088921
 31
0.0
  0
LINE
  5
27C
330
1B
100
AcDbEntity
  8
4
100
AcDbLine
 10
316.6176363445105
 20
456.9597584088921
 30
0.0
 11
350.6176363445105
 21
456.9597584088921
 31
0.0
  0
LINE
  5
27D
330
1B
100
AcDbEntity
  8
4
100
AcDbLine
 10
316.6176363445105
 20
474.9597584088921
 30
0.0
 11
350.6176363445105
 21
474.9597584088921
 31
0.0
  0
LINE
  5
27E
330
1B
100
AcDbEntity
  8
4
100
AcDbLine
 10
322.1176363445105
 20
463.4597584088921
 30
0.0
 11
351.6176363445105
 21
463.4597584088921
 31
0.0
  0
LINE
  5
27F
330
1B
100
AcDbEntity
  8
4
100
AcDbLine
 10
322.1176363445105
 20
468.4597584088921
 30
0.0
 11
351.6176363445105
 21
468.4597584088921
 31
0.0
  0
LINE
  5
280
330
1B
100
AcDbEntity
  8
4
100
AcDbLine
 10
232.6176363445105
 20
575.9597584088922
 30
0.0
 11
233.6176363445105
 21
574.9597584088922
 31
0.0
  0
LINE
  5
281
330
1B
100
AcDbEntity
  8
4
100
AcDbLine
 10
225.1176363445105
 20
574.959758408892
 30
0.0
 11
233.6176363445105
 21
574.9597584088922
 31
0.0
  0
LINE
  5
282
330
1B
100
AcDbEntity
  8
4
100
AcDbLine
 10
209.6176363445105
 20
574.9597584088922
 30
0.0
 11
210.6176363445105
 21
575.9597584088922
 31
0.0
  0
LINE
  5
283
330
1B
100
AcDbEntity
  8
4
100
AcDbLine
 10
209.6176363445105
 20
574.9597584088922
 30
0.0
 11
218.1176363445105
 21
574.959758408892
 31
0.0
  0
LINE
  5
284
330
1B
100
AcDbEntity
  8
4
100
AcDbLine
 10
232.6176363445105
 20
575.9597584088922
 30
0.0
 11
210.6176363445105
 21
575.9597584088922
 31
0.0
  0
ARC
  5
285
330
1B
100
AcDbEntity
  8
4
100
AcDbCircle
 10
253.6176363445105
 20
530.9597584088922
 30
0.0
 40
3.0
100
AcDbArc
 50
90.0
 51
180.0
  0
LINE
  5
286
330
1B
100
AcDbEntity
  8
4
100
AcDbLine
 10
264.661032725125
 20
514.7597584088921
 30
0.0
 11
262.3676363445105
 21
514.9591841811198
 31
0.0
  0
LINE
  5
287
330
1B
100
AcDbEntity
  8
4
100
AcDbLine
 10
262.3676363445105
 20
521.0597584088923
 30
0.0
 11
262.3676363445105
 21
514.7597584088924
 31
0.0
  0
LINE
  5
288
330
1B
100
AcDbEntity
  8
L-CENTER
 48
2.0
100
AcDbLine
 10
258.1176363445105
 20
522.8610764218347
 30
0.0
 11
258.1176363445105
 21
494.1336844218346
 31
0.0
  0
LINE
  5
289
330
1B
100
AcDbEntity
  8
4
100
AcDbLine
 10
253.8676363445105
 20
515.6983146159025
 30
0.0
 11
252.9949090698173
 21
515.7742039441364
 31
0.0
  0
ARC
  5
28A
330
1B
100
AcDbEntity
  8
4
100
AcDbCircle
 10
250.785819291344
 20
521.859758408892
 30
0.0
 40
1.0
100
AcDbArc
 50
10.49147701234075
 51
90.0
  0
ARC
  5
28B
330
1B
100
AcDbEntity
  8
4
100
AcDbCircle
 10
254.8070780014995
 20
516.6203976353477
 30
0.0
 40
2.0
100
AcDbArc
 50
190.4914770123276
 51
205.0302592718731
  0
LINE
  5
28C
330
1B
100
AcDbEntity
  8
4
100
AcDbLine
 10
252.8405139915307
 20
516.2562191149832
 30
0.0
 11
251.7691012963286
 21
522.0418476690743
 31
0.0
  0
LINE
  5
28D
330
1B
100
AcDbEntity
  8
4
100
AcDbLine
 10
253.8676363445105
 20
521.0597584088921
 30
0.0
 11
253.8676363445105
 21
514.7597584088924
 31
0.0
  0
LINE
  5
28E
330
1B
100
AcDbEntity
  8
4
100
AcDbLine
 10
245.1176363445105
 20
522.859758408892
 30
0.0
 11
245.1176363445105
 21
523.859758408892
 31
0.0
  0
LINE
  5
28F
330
1B
100
AcDbEntity
  8
4
100
AcDbLine
 10
253.8676363445105
 20
521.0597584088923
 30
0.0
 11
262.3676363445105
 21
521.0597584088923
 31
0.0
  0
LINE
  5
290
330
1B
100
AcDbEntity
  8
4
100
AcDbLine
 10
253.8676363445105
 20
516.0597584088923
 30
0.0
 11
262.3676363445103
 21
516.0597584088923
 31
0.0
  0
LINE
  5
291
330
1B
100
AcDbEntity
  8
4
100
AcDbLine
 10
250.6176363445105
 20
522.859758408892
 30
0.0
 11
250.6176363445105
 21
530.9597584088922
 31
0.0
  0
LINE
  5
292
330
1B
100
AcDbEntity
  8
4
100
AcDbLine
 10
209.1176363445105
 20
535.9597584088922
 30
0.0
 11
234.1176363445105
 21
535.9597584088922
 31
0.0
  0
ARC
  5
293
330
1B
100
AcDbEntity
  8
4
100
AcDbCircle
 10
221.6176363445105
 20
542.4597584088922
 30
0.0
 40
3.5
100
AcDbArc
 50
180.0
 51
0.0
  0
LINE
  5
294
330
1B
100
AcDbEntity
  8
4
100
AcDbLine
 10
209.1176363445105
 20
523.859758408892
 30
0.0
 11
209.1176363445105
 21
535.9597584088922
 31
0.0
  0
LINE
  5
295
330
1B
100
AcDbEntity
  8
4
100
AcDbLine
 10
234.1176363445105
 20
523.859758408892
 30
0.0
 11
234.1176363445105
 21
535.9597584088922
 31
0.0
  0
CIRCLE
  5
296
330
1B
100
AcDbEntity
  8
4
100
AcDbCircle
 10
221.6176363445105
 20
465.9597584088921
 30
0.0
 40
14.0
  0
CIRCLE
  5
297
330
1B
100
AcDbEntity
  8
4
100
AcDbCircle
 10
221.6176363445105
 20
465.9597584088921
 30
0.0
 40
12.5
  0
LWPOLYLINE
  5
298
330
1B
100
AcDbEntity
  8
4
100
AcDbPolyline
 90
        6
 70
     1
 43
0.0
 10
234.1176363445105
 20
465.9597584088921
 10
227.8676363445105
 20
476.7850759561977
 10
215.3676363445105
 20
476.7850759561977
 10
209.1176363445105
 20
465.9597584088921
 10
215.3676363445105
 20
455.1344408615866
 10
227.8676363445105
 20
455.1344408615866
  0
ARC
  5
299
330
1B
100
AcDbEntity
  8
4
100
AcDbCircle
 10
189.6176363445105
 20
530.9597584088922
 30
0.0
 40
3.0
100
AcDbArc
 50
0.0
 51
90.0
  0
LINE
  5
29A
330
1B
100
AcDbEntity
  8
4
100
AcDbLine
 10
198.1176363445105
 20
522.859758408892
 30
0.0
 11
198.1176363445105
 21
523.859758408892
 31
0.0
  0
ARC
  5
29B
330
1B
100
AcDbEntity
  8
4
100
AcDbCircle
 10
192.4494533976766
 20
521.859758408892
 30
0.0
 40
1.0
100
AcDbArc
 50
90.0
 51
169.5085229876593
  0
LINE
  5
29C
330
1B
100
AcDbEntity
  8
4
100
AcDbLine
 10
190.3947586974904
 20
516.2562191149832
 30
0.0
 11
191.4661713926924
 21
522.0418476690743
 31
0.0
  0
LINE
  5
29D
330
1B
100
AcDbEntity
  8
4
  6
Continuous
 62
     3
100
AcDbLine
 10
189.3676363445105
 20
515.6983146159021
 30
0.0
 11
190.2403636192033
 21
515.7742039441364
 31
0.0
  0
LINE
  5
29E
330
1B
100
AcDbEntity
  8
4
100
AcDbLine
 10
189.3676363445105
 20
521.0597584088921
 30
0.0
 11
189.3676363445105
 21
514.7597584088924
 31
0.0
  0
LINE
  5
29F
330
1B
100
AcDbEntity
  8
4
  6
Continuous
 62
     3
100
AcDbLine
 10
178.5742399638979
 20
514.7597584088921
 30
0.0
 11
180.8676363445105
 21
514.9591841811193
 31
0.0
  0
LINE
  5
2A0
330
1B
100
AcDbEntity
  8
4
100
AcDbLine
 10
180.8676363445105
 20
521.0597584088923
 30
0.0
 11
180.8676363445105
 21
514.7597584088924
 31
0.0
  0
LINE
  5
2A1
330
1B
100
AcDbEntity
  8
4
100
AcDbLine
 10
189.3676363445105
 20
521.0597584088923
 30
0.0
 11
180.8676363445105
 21
521.0597584088923
 31
0.0
  0
LINE
  5
2A2
330
1B
100
AcDbEntity
  8
4
100
AcDbLine
 10
189.3676363445105
 20
516.0597584088923
 30
0.0
 11
180.8676363445105
 21
516.0597584088923
 31
0.0
  0
LINE
  5
2A3
330
1B
100
AcDbEntity
  8
L-CENTER
 48
2.0
100
AcDbLine
 10
185.1176363445105
 20
522.8610764218347
 30
0.0
 11
185.1176363445105
 21
494.1336844218346
 31
0.0
  0
ARC
  5
2A4
330
1B
100
AcDbEntity
  8
4
100
AcDbCircle
 10
188.4281946875216
 20
516.6203976353479
 30
0.0
 40
2.0
100
AcDbArc
 50
334.9697407280988
 51
349.5085229876724
  0
LINE
  5
2A5
330
1B
100
AcDbEntity
  8
4
100
AcDbLine
 10
192.6176363445105
 20
522.859758408892
 30
0.0
 11
192.6176363445105
 21
530.9597584088922
 31
0.0
  0
ARC
  5
2A6
330
1B
100
AcDbEntity
  8
4
100
AcDbCircle
 10
147.6176363445105
 20
530.9597584088922
 30
0.0
 40
3.0
100
AcDbArc
 50
90.0
 51
180.0
  0
ARC
  5
2A7
330
1B
100
AcDbEntity
  8
4
100
AcDbCircle
 10
166.6176363445105
 20
515.9597584088922
 30
0.0
 40
5.5
100
AcDbArc
 50
357.9160576653913
 51
182.0839423346087
  0
LINE
  5
2A8
330
1B
100
AcDbEntity
  8
4
100
AcDbLine
 10
157.6176363445105
 20
515.7597584088921
 30
0.0
 11
157.6176363445105
 21
514.7597584088921
 31
0.0
  0
LINE
  5
2A9
330
1B
100
AcDbEntity
  8
4
100
AcDbLine
 10
152.8677583439747
 20
521.0597584088921
 30
0.0
 11
152.8677583439747
 21
514.7597584088924
 31
0.0
  0
ARC
  5
2AA
330
1B
100
AcDbEntity
  8
4
100
AcDbCircle
 10
144.6176363445105
 20
513.7597584088921
 30
0.0
 40
1.0
100
AcDbArc
 50
90.0
 51
180.0
  0
LINE
  5
2AB
330
1B
100
AcDbEntity
  8
4
100
AcDbLine
 10
144.3677583439747
 20
521.0597584088923
 30
0.0
 11
144.3677583439747
 21
514.7597584088924
 31
0.0
  0
LINE
  5
2AC
330
1B
100
AcDbEntity
  8
4
100
AcDbLine
 10
152.8677583439747
 20
521.0597584088923
 30
0.0
 11
144.3677583439747
 21
521.0597584088923
 31
0.0
  0
LINE
  5
2AD
330
1B
100
AcDbEntity
  8
4
100
AcDbLine
 10
152.8677583439747
 20
516.0597584088923
 30
0.0
 11
144.3677583439747
 21
516.0597584088923
 31
0.0
  0
LINE
  5
2AE
330
1B
100
AcDbEntity
  8
4
100
AcDbLine
 10
143.6176363445101
 20
499.9597584088921
 30
0.0
 11
143.6176363445101
 21
504.9597584088921
 31
0.0
  0
LINE
  5
2AF
330
1B
100
AcDbEntity
  8
L-CENTER
 48
2.0
100
AcDbLine
 10
148.6177583439747
 20
522.8610764088921
 30
0.0
 11
148.6177583439747
 21
494.1336844088921
 31
0.0
  0
LINE
  5
2B0
330
1B
100
AcDbEntity
  8
4
100
AcDbLine
 10
143.6176363445105
 20
513.7597584088921
 30
0.0
 11
143.6176363445105
 21
505.2597584088921
 31
0.0
  0
LINE
  5
2B1
330
1B
100
AcDbEntity
  8
L-CENTER
 48
2.0
100
AcDbLine
 10
166.6176363445105
 20
502.1685294088922
 30
0.0
 11
166.6176363445105
 21
529.7509874088921
 31
0.0
  0
LINE
  5
2B2
330
1B
100
AcDbEntity
  8
4
100
AcDbLine
 10
144.6176363445105
 20
521.0597584088923
 30
0.0
 11
144.6176363445105
 21
530.9597584088922
 31
0.0
  0
LINE
  5
2B3
330
1B
100
AcDbEntity
  8
4
100
AcDbLine
 10
147.6176363445105
 20
533.9597584088922
 30
0.0
 11
189.6176363445105
 21
533.9597584088924
 31
0.0
  0
LINE
  5
2B4
330
1B
100
AcDbEntity
  8
L-CENTER
 48
2.0
100
AcDbLine
 10
152.8264073445106
 20
515.9597584088922
 30
0.0
 11
180.4088653445104
 21
515.9597584088922
 31
0.0
  0
LINE
  5
2B5
330
1B
100
AcDbEntity
  8
4
100
AcDbLine
 10
157.6176363445105
 20
515.7597584088921
 30
0.0
 11
180.8676363445105
 21
515.7597584088921
 31
0.0
  0
ARC
  5
2B6
330
1B
100
AcDbEntity
  8
4
100
AcDbCircle
 10
142.6176363445105
 20
430.9597584088921
 30
0.0
 40
1.0
100
AcDbArc
 50
359.9999930639101
 51
89.99999300000971
  0
LINE
  5
2B7
330
1B
100
AcDbEntity
  8
4
100
AcDbLine
 10
192.4494533976766
 20
522.859758408892
 30
0.0
 11
250.785819291344
 21
522.859758408892
 31
0.0
  0
LINE
  5
2B8
330
1B
100
AcDbEntity
  8
4
100
AcDbLine
 10
245.1176363445105
 20
523.859758408892
 30
0.0
 11
198.1176363445105
 21
523.859758408892
 31
0.0
  0
LINE
  5
2B9
330
1B
100
AcDbEntity
  8
4
100
AcDbLine
 10
209.6176363445105
 20
574.9597584088922
 30
0.0
 11
209.6176363445105
 21
535.9597584088922
 31
0.0
  0
LINE
  5
2BA
330
1B
100
AcDbEntity
  8
4
100
AcDbLine
 10
233.6176363445105
 20
574.9597584088922
 30
0.0
 11
233.6176363445105
 21
535.9597584088922
 31
0.0
  0
LINE
  5
2BB
330
1B
100
AcDbEntity
  8
4
100
AcDbLine
 10
225.1176363445105
 20
542.4597584088922
 30
0.0
 11
225.1176363445105
 21
575.9597584088922
 31
0.0
  0
LINE
  5
2BC
330
1B
100
AcDbEntity
  8
4
100
AcDbLine
 10
218.1176363445105
 20
542.4597584088922
 30
0.0
 11
218.1176363445105
 21
575.9597584088922
 31
0.0
  0
LINE
  5
2BD
330
1B
100
AcDbEntity
  8
4
100
AcDbLine
 10
253.6176363445105
 20
533.9597584088922
 30
0.0
 11
295.6176363445105
 21
533.9597584088922
 31
0.0
  0
LINE
  5
2BE
330
1B
100
AcDbEntity
  8
L-CENTER
 48
2.0
100
AcDbLine
 10
262.8264073445106
 20
515.9597584088922
 30
0.0
 11
290.4088653445104
 21
515.9597584088922
 31
0.0
  0
LINE
  5
2BF
330
1B
100
AcDbEntity
  8
4
100
AcDbLine
 10
299.6176363445101
 20
504.9597584088924
 30
0.0
 11
143.6176363445101
 21
504.9597584088921
 31
0.0
  0
LINE
  5
2C0
330
1B
100
AcDbEntity
  8
4
100
AcDbLine
 10
143.6176363445105
 20
505.2597584088921
 30
0.0
 11
299.6176363445105
 21
505.2597584088921
 31
0.0
  0
LINE
  5
2C1
330
1B
100
AcDbEntity
  8
4
100
AcDbLine
 10
144.6176363445105
 20
514.7597584088921
 30
0.0
 11
298.6176363445105
 21
514.7597584088921
 31
0.0
  0
ARC
  5
2C2
330
1B
100
AcDbEntity
  8
4
100
AcDbCircle
 10
298.6176363445105
 20
425.9597584088921
 30
0.0
 40
1.0
100
AcDbArc
 50
269.9999969999893
 51
359.9999970424414
  0
ARC
  5
2C3
330
1B
100
AcDbEntity
  8
4
100
AcDbCircle
 10
295.6176363445105
 20
400.9597584088921
 30
0.0
 40
3.0
100
AcDbArc
 50
270.0
 51
0.0
  0
LINE
  5
2C4
330
1B
100
AcDbEntity
  8
4
100
AcDbLine
 10
298.6176363445105
 20
400.9597584088921
 30
0.0
 11
298.6176363445105
 21
424.9597584088921
 31
0.0
  0
CIRCLE
  5
2C5
330
1B
100
AcDbEntity
  8
4
100
AcDbCircle
 10
276.6176363445105
 20
415.9597584088921
 30
0.0
 40
5.5
  0
LINE
  5
2C6
330
1B
100
AcDbEntity
  8
L-CENTER
 48
2.0
100
AcDbLine
 10
276.6176363445105
 20
402.1685294088922
 30
0.0
 11
276.6176363445105
 21
429.7509874088921
 31
0.0
  0
ARC
  5
2CB
330
1B
100
AcDbEntity
  8
4
100
AcDbCircle
 10
289.7724203445104
 20
256.7837692786662
 30
0.0
 40
3.00004
100
AcDbArc
 50
14.79056800000033
 51
75.20943200000102
  0
ARC
  5
2CC
330
1B
100
AcDbEntity
  8
4
100
AcDbCircle
 10
281.7648523445104
 20
207.3721472786661
 30
0.0
 40
3.000006
100
AcDbArc
 50
266.6034269999985
 51
17.30842400000173
  0
ARC
  5
2CD
330
1B
100
AcDbEntity
  8
4
100
AcDbCircle
 10
250.7705093445105
 20
411.9597584088921
 30
0.0
 40
1.0
100
AcDbArc
 50
270.0
 51
350.5376780000065
  0
LINE
  5
2CE
330
1B
100
AcDbEntity
  8
4
100
AcDbLine
 10
251.7569033445105
 20
411.7953594088921
 30
0.0
 11
252.70941748044
 21
417.5104433788756
 31
0.0
  0
ARC
  5
2CF
330
1B
100
AcDbEntity
  8
4
100
AcDbCircle
 10
253.6176363445105
 20
400.9597584088921
 30
0.0
 40
3.0
100
AcDbArc
 50
180.0
 51
270.0
  0
LINE
  5
2D0
330
1B
100
AcDbEntity
  8
4
100
AcDbLine
 10
250.6176363445105
 20
400.9597584088921
 30
0.0
 11
250.6176363445105
 21
410.9597584088921
 31
0.0
  0
ARC
  5
2D1
330
1B
100
AcDbEntity
  8
4
100
AcDbCircle
 10
254.6822053445106
 20
417.1816454088921
 30
0.0
 40
2.0
100
AcDbArc
 50
99.5931340000056
 51
170.537678
  0
LINE
  5
2D2
330
1B
100
AcDbEntity
  8
4
100
AcDbLine
 10
191.4783693445105
 20
411.7953594088921
 30
0.0
 11
190.525855208581
 21
417.5104433788756
 31
0.0
  0
ARC
  5
2D3
330
1B
100
AcDbEntity
  8
4
100
AcDbCircle
 10
192.4647633445105
 20
411.9597584088921
 30
0.0
 40
1.0
100
AcDbArc
 50
189.4623219999935
 51
270.0
  0
LINE
  5
2D4
330
1B
100
AcDbEntity
  8
4
100
AcDbLine
 10
192.6176363445105
 20
400.9597584088921
 30
0.0
 11
192.6176363445105
 21
410.9597584088921
 31
0.0
  0
ARC
  5
2D5
330
1B
100
AcDbEntity
  8
4
100
AcDbCircle
 10
188.5530673445104
 20
417.1816454088921
 30
0.0
 40
2.0
100
AcDbArc
 50
9.462321999999995
 51
80.40686600000083
  0
ARC
  5
2D6
330
1B
100
AcDbEntity
  8
4
100
AcDbCircle
 10
189.6176363445105
 20
400.9597584088921
 30
0.0
 40
3.0
100
AcDbArc
 50
270.0
 51
0.0
  0
CIRCLE
  5
2D7
330
1B
100
AcDbEntity
  8
4
100
AcDbCircle
 10
166.6176363445105
 20
415.9597584088921
 30
0.0
 40
5.5
  0
LINE
  5
2D8
330
1B
100
AcDbEntity
  8
L-CENTER
 48
2.0
100
AcDbLine
 10
166.6176363445105
 20
402.1685294088922
 30
0.0
 11
166.6176363445105
 21
429.7509874088921
 31
0.0
  0
ARC
  5
2D9
330
1B
100
AcDbEntity
  8
4
100
AcDbCircle
 10
144.6176363445105
 20
425.9597584088921
 30
0.0
 40
1.0
100
AcDbArc
 50
180.0000029575587
 51
270.0000029999977
  0
ARC
  5
2DA
330
1B
100
AcDbEntity
  8
4
100
AcDbCircle
 10
147.6176363445105
 20
400.9597584088921
 30
0.0
 40
3.0
100
AcDbArc
 50
180.0
 51
270.0
  0
LINE
  5
2DB
330
1B
100
AcDbEntity
  8
4
100
AcDbLine
 10
144.6176363445105
 20
400.9597584088921
 30
0.0
 11
144.6176363445105
 21
424.9597647149839
 31
0.0
  0
LINE
  5
2DC
330
1B
100
AcDbEntity
  8
L-CENTER
 48
2.0
100
AcDbLine
 10
152.8264073445106
 20
415.9597584088921
 30
0.0
 11
180.4088653445104
 21
415.9597584088921
 31
0.0
  0
LINE
  5
2DD
330
1B
100
AcDbEntity
  8
4
100
AcDbLine
 10
147.6176363445105
 20
397.9597584088921
 30
0.0
 11
189.6176363445105
 21
397.9597584088921
 31
0.0
  0
LINE
  5
2DE
330
1B
100
AcDbEntity
  8
4
100
AcDbLine
 10
154.5337243445105
 20
424.9597584088921
 30
0.0
 11
188.8863683445105
 21
419.1536774088922
 31
0.0
  0
LINE
  5
2DF
330
1B
100
AcDbEntity
  8
4
100
AcDbLine
 10
250.7705093445105
 20
410.9597584088921
 30
0.0
 11
192.6176363445105
 21
410.9597584088921
 31
0.0
  0
LINE
  5
2E0
330
1B
100
AcDbEntity
  8
4
100
AcDbLine
 10
253.1176363445105
 20
419.9597584088921
 30
0.0
 11
190.2081375547886
 21
419.9597584088921
 31
0.0
  0
LINE
  5
2E6
330
1B
100
AcDbEntity
  8
4
100
AcDbLine
 10
234.1176363445103
 20
271.1289832786661
 30
0.0
 11
234.1176363445103
 21
277.1289832786661
 31
0.0
  0
LINE
  5
2E7
330
1B
100
AcDbEntity
  8
4
100
AcDbLine
 10
233.1176363445103
 20
269.6289832786661
 30
0.0
 11
233.1176363445103
 21
271.1289832786661
 31
0.0
  0
LINE
  5
2E8
330
1B
100
AcDbEntity
  8
4
100
AcDbLine
 10
235.6176363445103
 20
269.6289832786661
 30
0.0
 11
235.6176363445103
 21
268.2657032786661
 31
0.0
  0
LINE
  5
2E9
330
1B
100
AcDbEntity
  8
4
100
AcDbLine
 10
227.8676363445103
 20
273.1289832786661
 30
0.0
 11
227.8676363445103
 21
277.1289832786661
 31
0.0
  0
LINE
  5
2EA
330
1B
100
AcDbEntity
  8
4
100
AcDbLine
 10
215.3676363445103
 20
273.1289832786661
 30
0.0
 11
215.3676363445103
 21
277.1289832786661
 31
0.0
  0
LINE
  5
2EB
330
1B
100
AcDbEntity
  8
4
100
AcDbLine
 10
209.1177123445103
 20
271.1289832786661
 30
0.0
 11
209.1177123445103
 21
277.1289832786661
 31
0.0
  0
LINE
  5
2EC
330
1B
100
AcDbEntity
  8
4
100
AcDbLine
 10
210.1176363445103
 20
269.6289832786661
 30
0.0
 11
210.1176363445103
 21
271.1289832786661
 31
0.0
  0
LINE
  5
2ED
330
1B
100
AcDbEntity
  8
4
100
AcDbLine
 10
207.6178803445104
 20
269.6289832786661
 30
0.0
 11
207.6178803445104
 21
268.2657032786661
 31
0.0
  0
LINE
  5
2EE
330
1B
100
AcDbEntity
  8
4
100
AcDbLine
 10
209.1177123445103
 20
271.1289832786661
 30
0.0
 11
234.1176363445103
 21
271.1289832786661
 31
0.0
  0
LINE
  5
2EF
330
1B
100
AcDbEntity
  8
4
100
AcDbLine
 10
209.1177123445103
 20
273.1289832786661
 30
0.0
 11
234.1176363445103
 21
273.1289832786661
 31
0.0
  0
LINE
  5
2F0
330
1B
100
AcDbEntity
  8
4
100
AcDbLine
 10
209.1177123445103
 20
277.1289832786661
 30
0.0
 11
234.1176363445103
 21
277.1289832786661
 31
0.0
  0
LINE
  5
2F1
330
1B
100
AcDbEntity
  8
4
100
AcDbLine
 10
235.6176363445103
 20
269.6289832786661
 30
0.0
 11
207.6178803445104
 21
269.6289832786661
 31
0.0
  0
ARC
  5
2F4
330
1B
100
AcDbEntity
  8
4
100
AcDbCircle
 10
239.3405013445102
 20
233.644736278666
 30
0.0
 40
3.0
100
AcDbArc
 50
315.0000069999997
 51
30.52252100000042
  0
ARC
  5
2F5
330
1B
100
AcDbEntity
  8
4
100
AcDbCircle
 10
243.1176363445103
 20
238.1289832786661
 30
0.0
 40
3.0
100
AcDbArc
 50
0.0
 51
90.0
  0
ARC
  5
2F6
330
1B
100
AcDbEntity
  8
4
100
AcDbCircle
 10
246.4970303445103
 20
213.5083792786662
 30
0.0
 40
3.000056
100
AcDbArc
 50
9.740570999999697
 51
80.25483600000106
  0
ARC
  5
2F7
330
1B
100
AcDbEntity
  8
4
100
AcDbCircle
 10
247.7721763445103
 20
214.7835252786663
 30
0.0
 40
3.000002
100
AcDbArc
 50
10.24730299999999
 51
79.75269700000108
  0
LINE
  5
2F8
330
1B
100
AcDbEntity
  8
4
100
AcDbLine
 10
240.6887083445102
 20
227.128982278666
 30
0.0
 11
242.1176423445103
 21
227.128982278666
 31
0.0
  0
ARC
  5
2F9
330
1B
100
AcDbEntity
  8
4
100
AcDbCircle
 10
240.6887083445102
 20
228.628982278666
 30
0.0
 40
1.5
100
AcDbArc
 50
135.0000070000005
 51
270.0
  0
LINE
  5
2FA
330
1B
100
AcDbEntity
  8
4
100
AcDbLine
 10
242.6176423445103
 20
224.128982278666
 30
0.0
 11
242.6176423445103
 21
226.628982278666
 31
0.0
  0
ARC
  5
2FB
330
1B
100
AcDbEntity
  8
4
100
AcDbCircle
 10
242.1176423445103
 20
226.628982278666
 30
0.0
 40
0.5
100
AcDbArc
 50
0.0
 51
90.0
  0
ARC
  5
2FC
330
1B
100
AcDbEntity
  8
4
100
AcDbCircle
 10
242.1176423445103
 20
224.128982278666
 30
0.0
 40
0.5
100
AcDbArc
 50
270.0
 51
0.0
  0
ARC
  5
2FD
330
1B
100
AcDbEntity
  8
4
100
AcDbCircle
 10
249.1176363445103
 20
220.6307372786662
 30
0.0
 40
3.0
100
AcDbArc
 50
180.0
 51
257.0417299999992
  0
ARC
  5
2FE
330
1B
100
AcDbEntity
  8
4
100
AcDbCircle
 10
254.7585043445102
 20
208.9759072786663
 30
0.0
 40
2.999964
100
AcDbArc
 50
187.6414830000002
 51
266.6034269999987
  0
LINE
  5
2FF
330
1B
100
AcDbEntity
  8
4
100
AcDbLine
 10
239.6280483445101
 20
229.6896422786661
 30
0.0
 11
241.4618223445103
 21
231.5234162786663
 31
0.0
  0
LINE
  5
300
330
1B
100
AcDbEntity
  8
4
100
AcDbLine
 10
246.1176363445103
 20
238.1289832786661
 30
0.0
 11
246.1176363445103
 21
220.6307372786662
 31
0.0
  0
ARC
  5
301
330
1B
100
AcDbEntity
  8
4
100
AcDbCircle
 10
237.1176423445103
 20
232.628982278666
 30
0.0
 40
5.0
100
AcDbArc
 50
90.0
 51
176.8152310000004
  0
LINE
  5
302
330
1B
100
AcDbEntity
  8
4
100
AcDbLine
 10
232.6245923445102
 20
232.3789842786662
 30
0.0
 11
233.7463233445104
 21
232.3789842786662
 31
0.0
  0
ARC
  5
303
330
1B
100
AcDbEntity
  8
4
100
AcDbCircle
 10
232.6245923445102
 20
232.8789842786662
 30
0.0
 40
0.5
100
AcDbArc
 50
176.815230999999
 51
270.0
  0
LINE
  5
304
330
1B
100
AcDbEntity
  8
4
100
AcDbLine
 10
229.1176423445103
 20
232.3789842786662
 30
0.0
 11
226.6176423445103
 21
232.3789842786662
 31
0.0
  0
ARC
  5
305
330
1B
100
AcDbEntity
  8
4
100
AcDbCircle
 10
226.6176423445103
 20
231.8789842786662
 30
0.0
 40
0.5
100
AcDbArc
 50
90.0
 51
180.0
  0
ARC
  5
306
330
1B
100
AcDbEntity
  8
4
100
AcDbCircle
 10
229.1176423445103
 20
231.8789842786662
 30
0.0
 40
0.5
100
AcDbArc
 50
0.0
 51
90.0
  0
LINE
  5
307
330
1B
100
AcDbEntity
  8
4
100
AcDbLine
 10
237.6421233445102
 20
243.9511412786661
 30
0.0
 11
237.3661463445104
 21
248.5983872786661
 31
0.0
  0
LINE
  5
308
330
1B
100
AcDbEntity
  8
4
100
AcDbLine
 10
217.0080263445103
 20
237.6289832786661
 30
0.0
 11
219.7272503445103
 21
237.6289832786661
 31
0.0
  0
ARC
  5
309
330
1B
100
AcDbEntity
  8
4
100
AcDbCircle
 10
219.7272503445103
 20
237.1289832786661
 30
0.0
 40
0.5
100
AcDbArc
 50
14.03624700000331
 51
90.0
  0
ARC
  5
30A
330
1B
100
AcDbEntity
  8
4
100
AcDbCircle
 10
217.0080263445103
 20
237.1289832786661
 30
0.0
 40
0.5
100
AcDbArc
 50
90.0
 51
165.9637529999967
  0
LINE
  5
30B
330
1B
100
AcDbEntity
  8
4
100
AcDbLine
 10
232.1176423445103
 20
226.9218752786661
 30
0.0
 11
232.1176423445103
 21
224.128982278666
 31
0.0
  0
ARC
  5
30C
330
1B
100
AcDbEntity
  8
4
100
AcDbCircle
 10
232.6176423445103
 20
226.9218752786661
 30
0.0
 40
0.5
100
AcDbArc
 50
135.000006999999
 51
180.0
  0
ARC
  5
30D
330
1B
100
AcDbEntity
  8
4
100
AcDbCircle
 10
232.6176423445103
 20
224.128982278666
 30
0.0
 40
0.5
100
AcDbArc
 50
180.0
 51
270.0
  0
LINE
  5
30E
330
1B
100
AcDbEntity
  8
4
100
AcDbLine
 10
232.2640883445102
 20
227.2754282786662
 30
0.0
 11
234.8069833445103
 21
229.8183242786661
 31
0.0
  0
ARC
  5
30F
330
1B
100
AcDbEntity
  8
4
100
AcDbCircle
 10
222.9772513445104
 20
224.1289832786661
 30
0.0
 40
0.5
100
AcDbArc
 50
270.0
 51
14.03624700000331
  0
LINE
  5
310
330
1B
100
AcDbEntity
  8
4
100
AcDbLine
 10
229.1176423445103
 20
228.8789842786662
 30
0.0
 11
226.6176423445103
 21
228.8789842786662
 31
0.0
  0
ARC
  5
311
330
1B
100
AcDbEntity
  8
4
100
AcDbCircle
 10
229.1176423445103
 20
229.3789842786662
 30
0.0
 40
0.5
100
AcDbArc
 50
270.0
 51
0.0
  0
ARC
  5
312
330
1B
100
AcDbEntity
  8
4
100
AcDbCircle
 10
226.6176423445103
 20
229.3789842786662
 30
0.0
 40
0.5
100
AcDbArc
 50
180.0
 51
270.0
  0
ARC
  5
313
330
1B
100
AcDbEntity
  8
4
100
AcDbCircle
 10
216.2848123445104
 20
224.1289832786661
 30
0.0
 40
0.5
100
AcDbArc
 50
270.0
 51
346.5010999999996
  0
ARC
  5
314
330
1B
100
AcDbEntity
  8
4
100
AcDbCircle
 10
218.3676383445103
 20
223.6289832786661
 30
0.0
 40
1.642
100
AcDbArc
 50
13.49890000000064
 51
166.5010999999994
  0
ARC
  5
315
330
1B
100
AcDbEntity
  8
4
100
AcDbCircle
 10
220.4504643445104
 20
224.1289832786661
 30
0.0
 40
0.5
100
AcDbArc
 50
193.4988999999933
 51
270.0
  0
LINE
  5
316
330
1B
100
AcDbEntity
  8
4
100
AcDbLine
 10
210.6176303445103
 20
224.1289842786662
 30
0.0
 11
210.6176303445103
 21
226.6289842786662
 31
0.0
  0
ARC
  5
317
330
1B
100
AcDbEntity
  8
4
100
AcDbCircle
 10
210.1176303445103
 20
226.6289842786662
 30
0.0
 40
0.5
100
AcDbArc
 50
0.0
 51
90.0
  0
ARC
  5
318
330
1B
100
AcDbEntity
  8
4
100
AcDbCircle
 10
210.1176303445103
 20
224.1289842786662
 30
0.0
 40
0.5
100
AcDbArc
 50
270.0
 51
0.0
  0
ARC
  5
319
330
1B
100
AcDbEntity
  8
4
100
AcDbCircle
 10
213.7580263445103
 20
224.1289832786661
 30
0.0
 40
0.5
100
AcDbArc
 50
165.9637529999967
 51
270.0
  0
LINE
  5
31A
330
1B
100
AcDbEntity
  8
4
100
AcDbLine
 10
213.7580263445103
 20
223.6289832786661
 30
0.0
 11
216.2848123445104
 21
223.6289832786661
 31
0.0
  0
LINE
  5
31B
330
1B
100
AcDbEntity
  8
4
100
AcDbLine
 10
220.4504643445104
 20
223.6289832786661
 30
0.0
 11
222.9772513445104
 21
223.6289832786661
 31
0.0
  0
LINE
  5
31C
330
1B
100
AcDbEntity
  8
4
100
AcDbLine
 10
229.6176423445103
 20
229.3789842786662
 30
0.0
 11
229.6176423445103
 21
231.8789842786662
 31
0.0
  0
LINE
  5
31D
330
1B
100
AcDbEntity
  8
4
100
AcDbLine
 10
226.1176423445103
 20
229.3789842786662
 30
0.0
 11
226.1176423445103
 21
231.8789842786662
 31
0.0
  0
LINE
  5
31E
330
1B
100
AcDbEntity
  8
4
100
AcDbLine
 10
220.2123213445103
 20
237.2502512786662
 30
0.0
 11
223.4624300801205
 21
224.2498203363587
 31
0.0
  0
ARC
  5
31F
330
1B
100
AcDbEntity
  8
4
100
AcDbCircle
 10
233.7463233445104
 20
230.8789842786662
 30
0.0
 40
1.5
100
AcDbArc
 50
315.0000070000004
 51
90.0
  0
LINE
  5
320
330
1B
100
AcDbEntity
  8
4
100
AcDbLine
 10
216.5229553445103
 20
237.2502512786662
 30
0.0
 11
213.2756206653015
 21
224.2609165585498
 31
0.0
  0
ARC
  5
321
330
1B
100
AcDbEntity
  8
4
100
AcDbCircle
 10
240.3608703445103
 20
248.7762292786661
 30
0.0
 40
3.0
100
AcDbArc
 50
72.69179199999905
 51
183.3985279999996
  0
ARC
  5
322
330
1B
100
AcDbEntity
  8
4
100
AcDbCircle
 10
237.6176423445103
 20
232.628982278666
 30
0.0
 40
5.0
100
AcDbArc
 50
30.52252099999851
 51
90.0
  0
ARC
  5
323
330
1B
100
AcDbEntity
  8
4
100
AcDbCircle
 10
240.6368473445103
 20
244.1289832786661
 30
0.0
 40
3.0
100
AcDbArc
 50
183.3985279999996
 51
270.0
  0
ARC
  5
324
330
1B
100
AcDbEntity
  8
4
100
AcDbCircle
 10
221.6176363445103
 20
70.12898327866611
 30
0.0
 40
149.999994
100
AcDbArc
 50
79.75128
 51
90.0
  0
LINE
  5
325
330
1B
100
AcDbEntity
  8
4
100
AcDbLine
 10
232.6176423445103
 20
223.628982278666
 30
0.0
 11
242.1176423445103
 21
223.628982278666
 31
0.0
  0
ARC
  5
326
330
1B
100
AcDbEntity
  8
4
100
AcDbCircle
 10
221.6176363445103
 20
68.62873927866627
 30
0.0
 40
149.999958
100
AcDbArc
 50
80.25589300000006
 51
90.0
  0
LINE
  5
328
330
1B
100
AcDbEntity
  8
4
100
AcDbLine
 10
201.1176583445102
 20
237.6289842786662
 30
0.0
 11
203.6176573445103
 21
237.6289842786662
 31
0.0
  0
ARC
  5
329
330
1B
100
AcDbEntity
  8
4
100
AcDbCircle
 10
201.1176583445102
 20
237.1289842786662
 30
0.0
 40
0.5
100
AcDbArc
 50
90.0
 51
180.0
  0
ARC
  5
32A
330
1B
100
AcDbEntity
  8
4
100
AcDbCircle
 10
203.6176573445103
 20
237.1289842786662
 30
0.0
 40
0.5
100
AcDbArc
 50
0.0
 51
90.0
  0
ARC
  5
32B
330
1B
100
AcDbEntity
  8
4
100
AcDbCircle
 10
202.5984253445102
 20
244.1289832786661
 30
0.0
 40
3.0
100
AcDbArc
 50
270.0
 51
356.6014720000004
  0
ARC
  5
32C
330
1B
100
AcDbEntity
  8
4
100
AcDbCircle
 10
200.1176363445103
 20
238.1289832786661
 30
0.0
 40
3.0
100
AcDbArc
 50
90.0
 51
180.0
  0
LINE
  5
32D
330
1B
100
AcDbEntity
  8
4
100
AcDbLine
 10
205.5931493445104
 20
243.9511412786661
 30
0.0
 11
205.8691263445102
 21
248.5983872786661
 31
0.0
  0
ARC
  5
32E
330
1B
100
AcDbEntity
  8
4
100
AcDbCircle
 10
204.6176323445103
 20
227.6289842786662
 30
0.0
 40
0.5
100
AcDbArc
 50
180.0
 51
270.0
  0
ARC
  5
32F
330
1B
100
AcDbEntity
  8
4
100
AcDbCircle
 10
201.1176313445102
 20
224.1289842786662
 30
0.0
 40
0.5
100
AcDbArc
 50
179.9998799999956
 51
269.9998800000139
  0
ARC
  5
330
330
1B
100
AcDbEntity
  8
4
100
AcDbCircle
 10
196.7384863445103
 20
213.5083792786662
 30
0.0
 40
3.000038
100
AcDbArc
 50
99.74431700000112
 51
170.2593320000005
  0
ARC
  5
331
330
1B
100
AcDbEntity
  8
4
100
AcDbCircle
 10
195.4633383445101
 20
214.7835252786663
 30
0.0
 40
3.000008
100
AcDbArc
 50
100.2487129999964
 51
169.7526940000006
  0
ARC
  5
332
330
1B
100
AcDbEntity
  8
4
100
AcDbCircle
 10
194.1176363445103
 20
220.6307372786662
 30
0.0
 40
3.0
100
AcDbArc
 50
282.9582700000008
 51
0.0
  0
ARC
  5
333
330
1B
100
AcDbEntity
  8
4
100
AcDbCircle
 10
188.4770103445102
 20
208.9759072786663
 30
0.0
 40
2.999962
100
AcDbArc
 50
273.3994900000036
 51
352.3584810000007
  0
LINE
  5
334
330
1B
100
AcDbEntity
  8
4
100
AcDbLine
 10
197.1176363445103
 20
238.1289832786661
 30
0.0
 11
197.1176363445103
 21
220.6307372786662
 31
0.0
  0
LINE
  5
335
330
1B
100
AcDbEntity
  8
4
100
AcDbLine
 10
200.6176313445102
 20
224.1289852786661
 30
0.0
 11
200.6176593445103
 21
237.1289842786662
 31
0.0
  0
LINE
  5
336
330
1B
100
AcDbEntity
  8
4
100
AcDbLine
 10
204.1176303445103
 20
227.6289842786662
 30
0.0
 11
204.1176593445103
 21
237.1289842786662
 31
0.0
  0
ARC
  5
337
330
1B
100
AcDbEntity
  8
4
100
AcDbCircle
 10
153.4630943445103
 20
256.7837692786662
 30
0.0
 40
3.000014
100
AcDbArc
 50
104.7888499999998
 51
165.2092810000005
  0
ARC
  5
338
330
1B
100
AcDbEntity
  8
4
100
AcDbCircle
 10
161.4706643445103
 20
207.3721472786661
 30
0.0
 40
2.999966
100
AcDbArc
 50
162.6910589999998
 51
273.3994899999973
  0
LINE
  5
339
330
1B
100
AcDbEntity
  8
4
100
AcDbLine
 10
161.6483983445104
 20
204.3775192786662
 30
0.0
 11
188.6547463445103
 21
205.9812792786661
 31
0.0
  0
ARC
  5
33B
330
1B
100
AcDbEntity
  8
4
100
AcDbCircle
 10
202.8744023445103
 20
248.7762292786661
 30
0.0
 40
3.0
100
AcDbArc
 50
356.6014720000004
 51
107.3082079999965
  0
LINE
  5
33C
330
1B
100
AcDbEntity
  8
4
100
AcDbLine
 10
201.1176303445103
 20
223.6289832786661
 30
0.0
 11
210.1176303445103
 21
223.6289842786662
 31
0.0
  0
LINE
  5
33D
330
1B
100
AcDbEntity
  8
4
100
AcDbLine
 10
204.6176323445103
 20
227.1289842786662
 30
0.0
 11
210.1176303445103
 21
227.1289842786662
 31
0.0
  0
ARC
  5
33E
330
1B
100
AcDbEntity
  8
4
100
AcDbCircle
 10
221.6178803445104
 20
70.12898327866611
 30
0.0
 40
150.000004
100
AcDbArc
 50
90.0
 51
100.2487600000001
  0
LINE
  5
33F
330
1B
100
AcDbEntity
  8
4
100
AcDbLine
 10
200.1176363445103
 20
241.1289832786661
 30
0.0
 11
243.1176363445103
 21
241.1289832786661
 31
0.0
  0
ARC
  5
340
330
1B
100
AcDbEntity
  8
4
100
AcDbCircle
 10
221.6178803445104
 20
-1.371016721333888
 30
0.0
 40
270.00002
100
AcDbArc
 50
90.0
 51
104.789143
  0
ARC
  5
341
330
1B
100
AcDbEntity
  8
4
100
AcDbCircle
 10
221.6178803445104
 20
68.62873927866627
 30
0.0
 40
149.999968
100
AcDbArc
 50
90.0
 51
99.74415300000004
  0
LINE
  5
342
330
1B
100
AcDbEntity
  8
L-CENTER
 48
2.0
100
AcDbLine
 10
262.8264073445106
 20
415.9597584088921
 30
0.0
 11
290.4088653445104
 21
415.9597584088921
 31
0.0
  0
LINE
  5
343
330
1B
100
AcDbEntity
  8
4
100
AcDbLine
 10
253.6176363445105
 20
397.9597584088921
 30
0.0
 11
295.6176363445105
 21
397.9597584088921
 31
0.0
  0
LINE
  5
344
330
1B
100
AcDbEntity
  8
4
100
AcDbLine
 10
288.7015483445106
 20
424.9597584088921
 30
0.0
 11
254.3489043445105
 21
419.1536774088922
 31
0.0
  0
LINE
  5
345
330
1B
100
AcDbEntity
  8
4
100
AcDbLine
 10
298.6176363445105
 20
424.9597584088921
 30
0.0
 11
144.6140849455613
 21
424.9597647151292
 31
0.0
  0
LINE
  5
348
330
1B
100
AcDbEntity
  8
4
100
AcDbLine
 10
281.5871183445103
 20
204.3775192786662
 30
0.0
 11
254.5807703445101
 21
205.9812792786661
 31
0.0
  0
ARC
  5
349
330
1B
100
AcDbEntity
  8
4
100
AcDbCircle
 10
221.6176363445103
 20
-1.371016721333888
 30
0.0
 40
270.00002
100
AcDbArc
 50
75.210857
 51
90.0
  0
LINE
  5
34A
330
1B
100
AcDbEntity
  8
4
100
AcDbLine
 10
299.6176363445105
 20
430.9597584088921
 30
0.0
 11
299.6176363445105
 21
425.9597584088921
 31
0.0
  0
LINE
  5
34B
330
1B
100
AcDbEntity
  8
4
100
AcDbLine
 10
143.6176363445105
 20
430.9597584088921
 30
0.0
 11
143.6176363445105
 21
425.9597584088921
 31
0.0
  0
LINE
  5
34C
330
1B
100
AcDbEntity
  8
L-CENTER
 48
2.0
100
AcDbLine
 10
221.6176363445105
 20
352.9237251990965
 30
0.0
 11
221.6176363445105
 21
578.9957916186877
 31
0.0
  0
LINE
  5
34D
330
1B
100
AcDbEntity
  8
4
100
AcDbLine
 10
140.6178803445104
 20
489.4597584088921
 30
0.0
 11
141.6178803445104
 21
489.4597584088921
 31
0.0
  0
LINE
  5
34E
330
1B
100
AcDbEntity
  8
4
100
AcDbLine
 10
140.6176363445105
 20
489.4597584088921
 30
0.0
 11
141.6176363445105
 21
489.4597584088921
 31
0.0
  0
LINE
  5
34F
330
1B
100
AcDbEntity
  8
4
100
AcDbLine
 10
140.6178803445104
 20
442.4597584088921
 30
0.0
 11
141.6178803445104
 21
442.4597584088921
 31
0.0
  0
LINE
  5
350
330
1B
100
AcDbEntity
  8
4
100
AcDbLine
 10
140.6176363445105
 20
442.4597584088921
 30
0.0
 11
141.6176363445105
 21
442.4597584088921
 31
0.0
  0
LINE
  5
351
330
1B
100
AcDbEntity
  8
4
100
AcDbLine
 10
140.6178803445104
 20
489.4597584088921
 30
0.0
 11
140.6178803445104
 21
442.4597584088921
 31
0.0
  0
LINE
  5
352
330
1B
100
AcDbEntity
  8
4
100
AcDbLine
 10
140.6176363445105
 20
489.4597584088921
 30
0.0
 11
140.6176363445105
 21
442.4597584088921
 31
0.0
  0
LINE
  5
353
330
1B
100
AcDbEntity
  8
4
100
AcDbLine
 10
141.6176363445105
 20
431.9597394084578
 30
0.0
 11
141.6176363445105
 21
499.9597584088921
 31
0.0
  0
LINE
  5
355
330
1B
100
AcDbEntity
  8
4
100
AcDbLine
 10
141.6176363445105
 20
499.9597584088921
 30
0.0
 11
301.6176363445105
 21
499.9597584088921
 31
0.0
  0
LINE
  5
356
330
1B
100
AcDbEntity
  8
L-CENTER
 48
2.0
100
AcDbLine
 10
136.8346588184824
 20
465.9597584088921
 30
0.0
 11
353.8947890958785
 21
465.9597584088921
 31
0.0
  0
LINE
  5
357
330
1B
100
AcDbEntity
  8
4
100
AcDbLine
 10
141.6176363445105
 20
431.9597394084578
 30
0.0
 11
301.6176363445105
 21
431.9597584672599
 31
0.0
  0
LINE
  5
35D
330
1B
100
AcDbEntity
  8
4
100
AcDbLine
 10
350.6176363445103
 20
121.6289832786661
 30
0.0
 11
351.6176363445103
 21
120.6289832786661
 31
0.0
  0
LINE
  5
35E
330
1B
100
AcDbEntity
  8
4
100
AcDbLine
 10
351.6176363445103
 20
104.6289832786661
 30
0.0
 11
350.6176363445103
 21
103.6289832786661
 31
0.0
  0
LINE
  5
35F
330
1B
100
AcDbEntity
  8
4
100
AcDbLine
 10
351.6176363445103
 20
104.6289832786661
 30
0.0
 11
351.6176363445103
 21
123.6289832786661
 31
0.0
  0
LINE
  5
360
330
1B
100
AcDbEntity
  8
4
100
AcDbLine
 10
350.6176363445103
 20
121.6289832786661
 30
0.0
 11
350.6176363445103
 21
103.6289832786661
 31
0.0
  0
ARC
  5
364
330
1B
100
AcDbEntity
  8
4
100
AcDbCircle
 10
281.7648523445104
 20
169.8858192786661
 30
0.0
 40
3.000006
100
AcDbArc
 50
342.6915949999989
 51
93.39657300000155
  0
LINE
  5
365
330
1B
100
AcDbEntity
  8
4
100
AcDbLine
 10
301.6176363445103
 20
145.1289832786661
 30
0.0
 11
300.7472743445104
 21
145.1289832786661
 31
0.0
  0
LINE
  5
366
330
1B
100
AcDbEntity
  8
4
100
AcDbLine
 10
302.6173923445102
 20
136.1289832786661
 30
0.0
 11
301.6173923445102
 21
136.1289832786661
 31
0.0
  0
LINE
  5
367
330
1B
100
AcDbEntity
  8
4
100
AcDbLine
 10
302.6176363445103
 20
136.1289832786661
 30
0.0
 11
301.6176363445103
 21
136.1289832786661
 31
0.0
  0
LINE
  5
368
330
1B
100
AcDbEntity
  8
4
100
AcDbLine
 10
319.6176363445103
 20
123.6289832786661
 30
0.0
 11
319.6176363445103
 21
121.6289832786661
 31
0.0
  0
LINE
  5
369
330
1B
100
AcDbEntity
  8
4
100
AcDbLine
 10
302.6176363445103
 20
122.6289832786661
 30
0.0
 11
316.6176363445103
 21
122.6289832786661
 31
0.0
  0
LINE
  5
36A
330
1B
100
AcDbEntity
  8
4
100
AcDbLine
 10
302.6176363445103
 20
102.6289832786661
 30
0.0
 11
316.6176363445103
 21
102.6289832786661
 31
0.0
  0
LINE
  5
36B
330
1B
100
AcDbEntity
  8
4
100
AcDbLine
 10
316.6176363445103
 20
122.6289832786661
 30
0.0
 11
316.6176363445103
 21
102.6289832786661
 31
0.0
  0
ARC
  5
36C
330
1B
100
AcDbEntity
  8
4
100
AcDbCircle
 10
289.7724203445104
 20
120.4739552786662
 30
0.0
 40
3.000008
100
AcDbArc
 50
284.790568000001
 51
345.2139560000001
  0
LINE
  5
36D
330
1B
100
AcDbEntity
  8
4
100
AcDbLine
 10
297.7004003445103
 20
80.12898327866611
 30
0.0
 11
301.6176363445103
 21
80.12898327866611
 31
0.0
  0
ARC
  5
36E
330
1B
100
AcDbEntity
  8
4
100
AcDbCircle
 10
297.7004003445103
 20
78.12898327866611
 30
0.0
 40
2.000046
100
AcDbArc
 50
90.0
 51
173.7702520000005
  0
LINE
  5
36F
330
1B
100
AcDbEntity
  8
4
100
AcDbLine
 10
302.6173923445102
 20
89.12898327866611
 30
0.0
 11
301.6173923445102
 21
89.12898327866611
 31
0.0
  0
LINE
  5
370
330
1B
100
AcDbEntity
  8
4
100
AcDbLine
 10
302.6176363445103
 20
89.12898327866611
 30
0.0
 11
301.6176363445103
 21
89.12898327866611
 31
0.0
  0
LINE
  5
372
330
1B
100
AcDbEntity
  8
4
100
AcDbLine
 10
302.6173923445102
 20
136.1289832786661
 30
0.0
 11
302.6173923445102
 21
89.12898327866611
 31
0.0
  0
ARC
  5
373
330
1B
100
AcDbEntity
  8
4
100
AcDbCircle
 10
31.61771234451032
 20
188.6289832786661
 30
0.0
 40
270.000016
100
AcDbArc
 50
345.212361
 51
0.0
  0
LINE
  5
374
330
1B
100
AcDbEntity
  8
4
100
AcDbLine
 10
301.6176363445103
 20
80.12898327866611
 30
0.0
 11
301.6176363445103
 21
145.1289832786661
 31
0.0
  0
LINE
  5
377
330
1B
100
AcDbEntity
  8
4
100
AcDbLine
 10
316.6176363445103
 20
103.6289832786661
 30
0.0
 11
350.6176363445103
 21
103.6289832786661
 31
0.0
  0
LINE
  5
378
330
1B
100
AcDbEntity
  8
4
100
AcDbLine
 10
316.6176363445103
 20
121.6289832786661
 30
0.0
 11
350.6176363445103
 21
121.6289832786661
 31
0.0
  0
LINE
  5
379
330
1B
100
AcDbEntity
  8
4
100
AcDbLine
 10
351.6176363445103
 20
123.6289832786661
 30
0.0
 11
319.6176363445103
 21
123.6289832786661
 31
0.0
  0
ARC
  5
37E
330
1B
100
AcDbEntity
  8
4
100
AcDbCircle
 10
297.6176363445103
 20
61.62915127866614
 30
0.0
 40
1.0
100
AcDbArc
 50
0.0
 51
90.0
  0
ARC
  5
37F
330
1B
100
AcDbEntity
  8
4
100
AcDbCircle
 10
297.0177823445102
 20
65.62915127866614
 30
0.0
 40
3.000014
100
AcDbArc
 50
172.9423519999993
 51
270.0
  0
LINE
  5
380
330
1B
100
AcDbEntity
  8
4
100
AcDbLine
 10
298.6176363445103
 20
42.62915127866614
 30
0.0
 11
298.6176363445103
 21
61.62915127866614
 31
0.0
  0
LINE
  5
382
330
1B
100
AcDbEntity
  8
4
100
AcDbLine
 10
271.1176363445103
 20
62.62915127866614
 30
0.0
 11
271.1176363445103
 21
42.62915127866614
 31
0.0
  0
LINE
  5
383
330
1B
100
AcDbEntity
  8
4
100
AcDbLine
 10
282.1176363445103
 20
62.62915127866614
 30
0.0
 11
282.1176363445103
 21
42.62915127866614
 31
0.0
  0
LINE
  5
384
330
1B
100
AcDbEntity
  8
L-CENTER
 48
2.0
100
AcDbLine
 10
276.6176363445103
 20
67.62915127866614
 30
0.0
 11
276.6176363445103
 21
37.62915127866614
 31
0.0
  0
TEXT
  5
38D
330
1B
100
AcDbEntity
  8
2
 62
     2
100
AcDbText
 10
395.0293396399977
 20
13.01835362438609
 30
0.0
 40
6.0
  1
LA2-05
  7
KANJI
 72
     1
 11
411.5293396399977
 21
13.01835362438609
 31
0.0
100
AcDbText
  0
ARC
  5
38E
330
1B
100
AcDbEntity
  8
4
100
AcDbCircle
 10
-698.3806556554898
 20
188.8789832786661
 30
0.0
 40
1000.00006
100
AcDbArc
 50
352.9439589999999
 51
0.1002680000016312
  0
ARC
  5
38F
330
1B
100
AcDbEntity
  8
4
100
AcDbCircle
 10
254.7585043445102
 20
168.2820612786662
 30
0.0
 40
2.999964
100
AcDbArc
 50
93.39657399999744
 51
172.3585359999996
  0
ARC
  5
390
330
1B
100
AcDbEntity
  8
4
100
AcDbCircle
 10
246.4970303445103
 20
163.7498332786664
 30
0.0
 40
3.000056
100
AcDbArc
 50
279.745163999999
 51
350.2594290000003
  0
ARC
  5
391
330
1B
100
AcDbEntity
  8
4
100
AcDbCircle
 10
247.7721763445103
 20
162.4744432786661
 30
0.0
 40
3.000022
100
AcDbArc
 50
280.2518919999991
 51
349.7527160000005
  0
ARC
  5
392
330
1B
100
AcDbEntity
  8
4
100
AcDbCircle
 10
241.9648043445103
 20
155.4881152786662
 30
0.0
 40
2.999964
100
AcDbArc
 50
97.64146199999891
 51
176.603408
  0
ARC
  5
393
330
1B
100
AcDbEntity
  8
4
100
AcDbCircle
 10
221.6176363445103
 20
307.1289832786661
 30
0.0
 40
149.999972
100
AcDbArc
 50
270.0012119999999
 51
280.2496709999999
  0
ARC
  5
394
330
1B
100
AcDbEntity
  8
4
100
AcDbCircle
 10
221.6176363445103
 20
308.6292272786662
 30
0.0
 40
150.000064
100
AcDbArc
 50
270.001212
 51
279.745134
  0
ARC
  5
395
330
1B
100
AcDbEntity
  8
4
100
AcDbCircle
 10
257.6176363445103
 20
109.0218072786661
 30
0.0
 40
2.000004
100
AcDbArc
 50
97.60387800000028
 51
180.0
  0
ARC
  5
396
330
1B
100
AcDbEntity
  8
4
100
AcDbCircle
 10
248.6176363445103
 20
107.9722452786662
 30
0.0
 40
2.000054
100
AcDbArc
 50
0.0
 51
95.695274999998
  0
LINE
  5
397
330
1B
100
AcDbEntity
  8
4
100
AcDbLine
 10
255.6176363445103
 20
109.0218072786661
 30
0.0
 11
255.6176363445103
 21
67.62915127866614
 31
0.0
  0
ARC
  5
398
330
1B
100
AcDbEntity
  8
4
100
AcDbCircle
 10
238.4741663445103
 20
110.4250332786663
 30
0.0
 40
2.0
100
AcDbArc
 50
102.1637649999977
 51
172.5509689999999
  0
LINE
  5
399
330
1B
100
AcDbEntity
  8
4
100
AcDbLine
 10
232.4428323445103
 20
106.3789832786661
 30
0.0
 11
232.4428323445103
 21
118.8789832786661
 31
0.0
  0
LINE
  5
39A
330
1B
100
AcDbEntity
  8
4
100
AcDbLine
 10
221.6176363445103
 20
125.1289832786661
 30
0.0
 11
210.7921963445104
 21
118.8789832786661
 31
0.0
  0
LINE
  5
39B
330
1B
100
AcDbEntity
  8
4
100
AcDbLine
 10
210.7921963445104
 20
106.3789832786661
 30
0.0
 11
221.6176363445103
 21
100.1289832786661
 31
0.0
  0
LINE
  5
39C
330
1B
100
AcDbEntity
  8
4
100
AcDbLine
 10
210.7921963445104
 20
106.3789832786661
 30
0.0
 11
210.7921963445104
 21
118.8789832786661
 31
0.0
  0
LINE
  5
39D
330
1B
100
AcDbEntity
  8
4
100
AcDbLine
 10
232.4428323445103
 20
118.8789832786661
 30
0.0
 11
221.6176363445103
 21
125.1289832786661
 31
0.0
  0
LINE
  5
39E
330
1B
100
AcDbEntity
  8
4
100
AcDbLine
 10
221.6176363445103
 20
100.1289832786661
 30
0.0
 11
232.4428323445103
 21
106.3789832786661
 31
0.0
  0
CIRCLE
  5
39F
330
1B
100
AcDbEntity
  8
4
100
AcDbCircle
 10
221.6176363445103
 20
112.6289832786661
 30
0.0
 40
12.5
  0
LINE
  5
3A0
330
1B
100
AcDbEntity
  8
2
100
AcDbLine
 10
221.6176363445103
 20
69.2244512786661
 30
0.0
 11
218.5040163445104
 21
67.42680127866612
 31
0.0
  0
LINE
  5
3A1
330
1B
100
AcDbEntity
  8
2
100
AcDbLine
 10
224.7312563445101
 20
67.42680127866612
 30
0.0
 11
221.6176363445103
 21
69.2244512786661
 31
0.0
  0
ARC
  5
3A2
330
1B
100
AcDbEntity
  8
4
100
AcDbCircle
 10
221.6176363445103
 20
112.6289832786661
 30
0.0
 40
15.0
100
AcDbArc
 50
187.4490310000001
 51
352.5509689999999
  0
ARC
  5
3A3
330
1B
100
AcDbEntity
  8
4
100
AcDbCircle
 10
240.3610443445103
 20
128.4817672786663
 30
0.0
 40
2.999888
100
AcDbArc
 50
176.6034270000002
 51
287.3097919999977
  0
LINE
  5
3A4
330
1B
100
AcDbEntity
  8
4
100
AcDbLine
 10
237.3664163445104
 20
128.6597452786662
 30
0.0
 11
238.9701743445102
 21
155.6658492786663
 31
0.0
  0
ARC
  5
3A5
330
1B
100
AcDbEntity
  8
4
100
AcDbCircle
 10
188.4770103445102
 20
168.2820612786662
 30
0.0
 40
2.999952
100
AcDbArc
 50
7.641540999999807
 51
86.60136699999815
  0
ARC
  5
3A6
330
1B
100
AcDbEntity
  8
4
100
AcDbCircle
 10
201.2707123445103
 20
155.4881152786662
 30
0.0
 40
3.00001
100
AcDbArc
 50
3.396489000000044
 51
82.35853800000156
  0
ARC
  5
3A7
330
1B
100
AcDbEntity
  8
4
100
AcDbCircle
 10
196.7384863445103
 20
163.7498332786664
 30
0.0
 40
3.00004
100
AcDbArc
 50
189.7453799999998
 51
260.2565489999977
  0
ARC
  5
3A8
330
1B
100
AcDbEntity
  8
4
100
AcDbCircle
 10
195.4633383445101
 20
162.4744432786661
 30
0.0
 40
2.999998
100
AcDbArc
 50
190.2473389999999
 51
259.7518479999998
  0
ARC
  5
3A9
330
1B
100
AcDbEntity
  8
4
100
AcDbCircle
 10
161.4706643445103
 20
169.8858192786661
 30
0.0
 40
2.999958
100
AcDbArc
 50
86.60138700000086
 51
197.3090130000006
  0
LINE
  5
3AA
330
1B
100
AcDbEntity
  8
4
100
AcDbLine
 10
161.6483983445104
 20
172.8804492786663
 30
0.0
 11
188.6547463445103
 21
171.2766892786663
 31
0.0
  0
ARC
  5
3AB
330
1B
100
AcDbEntity
  8
4
100
AcDbCircle
 10
194.6178803445104
 20
107.9722452786662
 30
0.0
 40
2.000056
100
AcDbArc
 50
84.30338500000131
 51
180.0
  0
ARC
  5
3AC
330
1B
100
AcDbEntity
  8
4
100
AcDbCircle
 10
185.6178803445104
 20
109.0218072786661
 30
0.0
 40
2.000008
100
AcDbArc
 50
0.0
 51
82.39436200000533
  0
LINE
  5
3AD
330
1B
100
AcDbEntity
  8
4
100
AcDbLine
 10
187.6178803445104
 20
109.0218072786661
 30
0.0
 11
187.6178803445104
 21
67.62915127866614
 31
0.0
  0
ARC
  5
3AE
330
1B
100
AcDbEntity
  8
4
100
AcDbCircle
 10
153.4630943445103
 20
120.4739552786662
 30
0.0
 40
3.000014
100
AcDbArc
 50
194.7906269999996
 51
255.2119990000024
  0
ARC
  5
3AF
330
1B
100
AcDbEntity
  8
4
100
AcDbCircle
 10
145.7555183445103
 20
78.12898327866611
 30
0.0
 40
2.0
100
AcDbArc
 50
6.345808000000548
 51
90.0
  0
LINE
  5
3B0
330
1B
100
AcDbEntity
  8
4
100
AcDbLine
 10
205.8691003445102
 20
128.6597452786662
 30
0.0
 11
204.2653403445103
 21
155.6658492786663
 31
0.0
  0
ARC
  5
3B1
330
1B
100
AcDbEntity
  8
4
100
AcDbCircle
 10
202.8744723445103
 20
128.4817672786663
 30
0.0
 40
3.000048
100
AcDbArc
 50
252.6918680000007
 51
3.396468999999846
  0
ARC
  5
3B2
330
1B
100
AcDbEntity
  8
4
100
AcDbCircle
 10
221.6178803445104
 20
307.1289832786661
 30
0.0
 40
149.999964
100
AcDbArc
 50
259.751928
 51
270.001119
  0
ARC
  5
3B3
330
1B
100
AcDbEntity
  8
4
100
AcDbCircle
 10
221.6178803445104
 20
308.6292272786662
 30
0.0
 40
150.000044
100
AcDbArc
 50
260.256608
 51
270.001119
  0
ARC
  5
3B4
330
1B
100
AcDbEntity
  8
4
100
AcDbCircle
 10
204.7611063445103
 20
110.4250332786663
 30
0.0
 40
2.0
100
AcDbArc
 50
7.449031000000089
 51
77.83623500000233
  0
ARC
  5
3B5
330
1B
100
AcDbEntity
  8
4
100
AcDbCircle
 10
221.6178803445104
 20
378.6289832786661
 30
0.0
 40
269.999994
100
AcDbArc
 50
255.2117119999999
 51
266.909915
  0
ARC
  5
3B6
330
1B
100
AcDbEntity
  8
4
100
AcDbCircle
 10
221.6176363445103
 20
112.6289832786661
 30
0.0
 40
19.999932
100
AcDbArc
 50
1.733417999999876
 51
178.267291
  0
LWPOLYLINE
  5
3B7
330
1B
100
AcDbEntity
  8
4
100
AcDbPolyline
 90
       44
 70
     0
 43
0.0
 10
265.2119583445104
 20
62.63121927866615
 10
264.8715143445103
 20
62.31370927866629
 10
264.5818343445102
 20
61.99004927866628
 10
264.3536523445104
 20
61.65894127866619
 10
264.1976963445103
 20
61.31908527866614
 10
264.1246983445102
 20
60.96917927866622
 10
264.1453843445103
 20
60.6079272786663
 10
264.2345623445102
 20
60.30616327866625
 10
264.3755323445101
 20
59.99775727866614
 10
264.5514363445103
 20
59.68438127866631
 10
265.1201383445103
 20
58.73117927866616
 10
265.2671623445102
 20
58.41466527866629
 10
265.3648143445101
 20
58.10155127866625
 10
265.3962323445102
 20
57.79351127866636
 10
265.3333163445103
 20
57.43679927866611
 10
265.1779283445102
 20
57.08740327866627
 10
264.9541043445103
 20
56.7431792786661
 10
264.1123583445104
 20
55.72009727866617
 10
263.8551363445102
 20
55.37511927866632
 10
263.6496523445102
 20
55.02459327866615
 10
263.5199423445102
 20
54.66637527866629
 10
263.4835783445104
 20
54.28954327866614
 10
263.5347843445103
 20
53.90397727866622
 10
263.6562203445104
 20
53.51128727866632
 10
264.2685363445102
 20
52.30652327866625
 10
264.8887623445102
 20
51.09546327866616
 10
265.0163503445102
 20
50.69787327866612
 10
265.0754683445103
 20
50.30601127866618
 10
265.0487743445102
 20
49.92148327866613
 10
264.7891063445103
 20
49.28487527866633
 10
264.3420843445102
 20
48.66701727866626
 10
263.8201463445104
 20
48.06067327866623
 10
263.3357363445103
 20
47.45861327866629
 10
263.0012963445103
 20
46.8536032786663
 10
262.9292663445102
 20
46.23840727866633
 10
263.1001843445102
 20
45.75558927866615
 10
263.4070083445102
 20
45.27018727866613
 10
263.7638803445103
 20
44.78992527866632
 10
264.0849463445103
 20
44.32252327866632
 10
264.2843463445103
 20
43.87570327866621
 10
264.3087643445102
 20
43.54164727866629
 10
264.2175603445102
 20
43.22336127866635
 10
264.0244323445103
 20
42.91897727866632
 10
263.7430763445103
 20
42.62662527866615
  0
LINE
  5
3B8
330
1B
100
AcDbEntity
  8
4
100
AcDbLine
 10
256.6176363445103
 20
42.62915127866614
 30
0.0
 11
253.6176363445103
 21
50.62915127866614
 31
0.0
  0
LINE
  5
3B9
330
1B
100
AcDbEntity
  8
2
100
AcDbLine
 10
218.5040163445104
 20
63.83150127866617
 30
0.0
 11
221.6176363445103
 21
62.03385127866619
 31
0.0
  0
LINE
  5
3BA
330
1B
100
AcDbEntity
  8
L-CENTER
 48
2.0
100
AcDbLine
 10
209.193186065115
 20
65.62915127866614
 30
0.0
 11
234.0420866239055
 21
65.62915127866614
 31
0.0
  0
LINE
  5
3BB
330
1B
100
AcDbEntity
  8
2
100
AcDbLine
 10
221.6176363445103
 20
62.03385127866619
 30
0.0
 11
224.7312563445101
 21
63.83150127866617
 31
0.0
  0
ARC
  5
3BC
330
1B
100
AcDbEntity
  8
4
100
AcDbCircle
 10
221.6176363445103
 20
65.62915127866614
 30
0.0
 40
10.0
100
AcDbArc
 50
180.0006129993705
 51
0.0000860025989019
  0
LINE
  5
3BE
330
1B
100
AcDbEntity
  8
4
100
AcDbLine
 10
253.6176363445103
 20
50.62915127866614
 30
0.0
 11
221.6176363445103
 21
50.62915127866614
 31
0.0
  0
LINE
  5
3C1
330
1B
100
AcDbEntity
  8
4
100
AcDbLine
 10
186.6178803445104
 20
42.62915127866614
 30
0.0
 11
189.6178803445104
 21
50.62915127866614
 31
0.0
  0
LINE
  5
3C2
330
1B
100
AcDbEntity
  8
L-CENTER
 48
2.0
100
AcDbLine
 10
166.6178803445104
 20
67.62915127866614
 30
0.0
 11
166.6178803445104
 21
37.62915127866614
 31
0.0
  0
ARC
  5
3C3
330
1B
100
AcDbEntity
  8
4
100
AcDbCircle
 10
145.6178803445104
 20
61.62915127866614
 30
0.0
 40
1.0
100
AcDbArc
 50
90.0
 51
180.000858999821
  0
ARC
  5
3C4
330
1B
100
AcDbEntity
  8
4
100
AcDbCircle
 10
146.2177343445104
 20
65.62915127866614
 30
0.0
 40
3.0
100
AcDbArc
 50
270.0011649999957
 51
7.058289000000078
  0
LINE
  5
3C5
330
1B
100
AcDbEntity
  8
4
100
AcDbLine
 10
144.6178803445104
 20
42.62915127866614
 30
0.0
 11
144.6178803445104
 21
61.62915127866614
 31
0.0
  0
LINE
  5
3C8
330
1B
100
AcDbEntity
  8
4
100
AcDbLine
 10
145.6178803445104
 20
62.62915127866614
 30
0.0
 11
182.6178803445104
 21
62.62915127866614
 31
0.0
  0
LINE
  5
3C9
330
1B
100
AcDbEntity
  8
4
100
AcDbLine
 10
144.6178803445104
 20
42.62915127866614
 30
0.0
 11
186.6178803445104
 21
42.62915127866614
 31
0.0
  0
LINE
  5
3CC
330
1B
100
AcDbEntity
  8
4
100
AcDbLine
 10
189.6178803445104
 20
50.62915127866614
 30
0.0
 11
221.6178803445104
 21
50.62915127866614
 31
0.0
  0
ARC
  5
3CD
330
1B
100
AcDbEntity
  8
4
100
AcDbCircle
 10
260.6176363445103
 20
67.62915127866614
 30
0.0
 40
5.0
100
AcDbArc
 50
180.0006989997668
 51
270.0
  0
LINE
  5
3CE
330
1B
100
AcDbEntity
  8
2
100
AcDbLine
 10
224.7312563445101
 20
63.83150127866617
 30
0.0
 11
224.7312563445101
 21
67.42680127866612
 31
0.0
  0
LINE
  5
3CF
330
1B
100
AcDbEntity
  8
2
100
AcDbLine
 10
218.5040163445104
 20
67.42680127866612
 30
0.0
 11
218.5040163445104
 21
63.83150127866617
 31
0.0
  0
CIRCLE
  5
3D0
330
1B
100
AcDbEntity
  8
4
100
AcDbCircle
 10
221.6176363445103
 20
65.62915127866614
 30
0.0
 40
7.5
  0
CIRCLE
  5
3D1
330
1B
100
AcDbEntity
  8
4
100
AcDbCircle
 10
221.6176363445103
 20
65.62915127866614
 30
0.0
 40
5.75
  0
CIRCLE
  5
3D2
330
1B
100
AcDbEntity
  8
2
100
AcDbCircle
 10
221.6176363445103
 20
65.62915127866614
 30
0.0
 40
4.75
  0
ARC
  5
3D3
330
1B
100
AcDbEntity
  8
4
100
AcDbCircle
 10
182.6178803445104
 20
67.62915127866614
 30
0.0
 40
5.0
100
AcDbArc
 50
270.0010539999993
 51
0.0
  0
LINE
  5
3D4
330
1B
100
AcDbEntity
  8
4
100
AcDbLine
 10
231.6176363445103
 20
101.4488072786663
 30
0.0
 11
231.6176363445103
 21
65.62915127866614
 31
0.0
  0
LINE
  5
3D5
330
1B
100
AcDbEntity
  8
4
100
AcDbLine
 10
211.6178803445104
 20
101.4488072786663
 30
0.0
 11
211.6178803445104
 21
65.62915127866614
 31
0.0
  0
LINE
  5
3D6
330
1B
100
AcDbEntity
  8
4
100
AcDbLine
 10
192.6178803445104
 20
107.9722452786662
 30
0.0
 11
192.6178803445104
 21
50.62915127866614
 31
0.0
  0
LINE
  5
3D7
330
1B
100
AcDbEntity
  8
4
100
AcDbLine
 10
250.6176363445103
 20
107.9722452786662
 30
0.0
 11
250.6176363445103
 21
50.62915127866614
 31
0.0
  0
LINE
  5
3D8
330
1B
100
AcDbEntity
  8
4
100
AcDbLine
 10
281.5871183445103
 20
172.8804492786663
 30
0.0
 11
254.5807703445101
 21
171.2766892786663
 31
0.0
  0
ARC
  5
3D9
330
1B
100
AcDbEntity
  8
4
100
AcDbCircle
 10
221.6176363445103
 20
378.6289832786661
 30
0.0
 40
269.99996
100
AcDbArc
 50
273.092018
 51
284.7900609999999
  0
LINE
  5
3DA
330
1B
100
AcDbEntity
  8
4
100
AcDbLine
 10
298.6176363445103
 20
42.62915127866614
 30
0.0
 11
256.6176363445103
 21
42.62915127866614
 31
0.0
  0
LINE
  5
3DB
330
1B
100
AcDbEntity
  8
4
100
AcDbLine
 10
297.6176363445103
 20
62.62915127866614
 30
0.0
 11
260.6176363445103
 21
62.62915127866614
 31
0.0
  0
LINE
  5
3FE
330
1B
100
AcDbEntity
  8
4
100
AcDbLine
 10
141.6178803445104
 20
145.1289832786661
 30
0.0
 11
141.6178803445104
 21
145.1289832786661
 31
0.0
  0
LINE
  5
3FF
330
1B
100
AcDbEntity
  8
4
100
AcDbLine
 10
140.6178803445104
 20
136.1289832786661
 30
0.0
 11
141.6178803445104
 21
136.1289832786661
 31
0.0
  0
LINE
  5
400
330
1B
100
AcDbEntity
  8
4
100
AcDbLine
 10
140.6176363445103
 20
136.1289832786661
 30
0.0
 11
141.6176363445103
 21
136.1289832786661
 31
0.0
  0
LINE
  5
401
330
1B
100
AcDbEntity
  8
4
100
AcDbLine
 10
140.6178803445104
 20
89.12898327866611
 30
0.0
 11
141.6178803445104
 21
89.12898327866611
 31
0.0
  0
LINE
  5
402
330
1B
100
AcDbEntity
  8
4
100
AcDbLine
 10
140.6176363445103
 20
89.12898327866611
 30
0.0
 11
141.6176363445103
 21
89.12898327866611
 31
0.0
  0
LINE
  5
403
330
1B
100
AcDbEntity
  8
4
100
AcDbLine
 10
140.6178803445104
 20
136.1289832786661
 30
0.0
 11
140.6178803445104
 21
89.12898327866611
 31
0.0
  0
LINE
  5
404
330
1B
100
AcDbEntity
  8
4
100
AcDbLine
 10
140.6176363445103
 20
136.1289832786661
 30
0.0
 11
140.6176363445103
 21
89.12898327866611
 31
0.0
  0
LINE
  5
405
330
1B
100
AcDbEntity
  8
4
100
AcDbLine
 10
141.6178803445104
 20
80.12898327866611
 30
0.0
 11
141.6178803445104
 21
145.1289832786661
 31
0.0
  0
ARC
  5
427
330
1B
100
AcDbEntity
  8
4
100
AcDbCircle
 10
141.6178803445104
 20
147.1289832786661
 30
0.0
 40
2.0
100
AcDbArc
 50
270.0
 51
298.2098539999968
  0
ARC
  5
428
330
1B
100
AcDbEntity
  8
4
100
AcDbCircle
 10
411.6176363445103
 20
188.6289832786661
 30
0.0
 40
270.000014
100
AcDbArc
 50
180.0006219997374
 51
194.789144
  0
LINE
  5
429
330
1B
100
AcDbEntity
  8
L-CENTER
 48
2.0
100
AcDbLine
 10
306.3734883445103
 20
188.6289832786661
 30
0.0
 11
136.8617843445103
 21
188.6289832786661
 31
0.0
  0
LINE
  5
42A
330
1B
100
AcDbEntity
  8
L-CENTER
 48
2.0
100
AcDbLine
 10
354.7227147536172
 20
112.6289832786661
 30
0.0
 11
136.7116262334461
 21
112.6289832786661
 31
0.0
  0
LINE
  5
42B
330
1B
100
AcDbEntity
  8
4
100
AcDbLine
 10
145.7555183445103
 20
80.12898327866611
 30
0.0
 11
141.6178803445104
 21
80.12898327866611
 31
0.0
  0
ARC
  5
42C
330
1B
100
AcDbEntity
  8
4
100
AcDbCircle
 10
1141.616172344511
 20
188.8789832786661
 30
0.0
 40
1000.000002
100
AcDbArc
 50
179.9010050000083
 51
187.060472
  0
ARC
  5
42E
330
1B
100
AcDbEntity
  8
4
100
AcDbCircle
 10
31.61771234451032
 20
188.6289832786661
 30
0.0
 40
270.0
100
AcDbArc
 50
0.0
 51
14.78903400000002
  0
ARC
  5
42F
330
1B
100
AcDbEntity
  8
4
100
AcDbCircle
 10
103.1177123445103
 20
188.6289832786661
 30
0.0
 40
149.99997
100
AcDbArc
 50
349.7526089999999
 51
10.24872599999999
  0
ARC
  5
430
330
1B
100
AcDbEntity
  8
4
100
AcDbCircle
 10
101.6176963445104
 20
188.6289832786661
 30
0.0
 40
150.000006
100
AcDbArc
 50
350.257407
 51
9.744094999999994
  0
ARC
  5
431
330
1B
100
AcDbEntity
  8
4
100
AcDbCircle
 10
341.6178803445104
 20
188.6289832786661
 30
0.0
 40
149.999998
100
AcDbArc
 50
170.25675
 51
189.743819
  0
ARC
  5
432
330
1B
100
AcDbEntity
  8
4
100
AcDbCircle
 10
340.1178803445104
 20
188.6289832786661
 30
0.0
 40
149.999986
100
AcDbArc
 50
169.752038
 51
190.24872
  0
ARC
  5
433
330
1B
100
AcDbEntity
  8
4
100
AcDbCircle
 10
221.6176363445103
 20
188.6289832786661
 30
0.0
 40
78.000004
100
AcDbArc
 50
282.1637650000001
 51
257.8362349999999
  0
ARC
  5
434
330
1B
100
AcDbEntity
  8
4
100
AcDbCircle
 10
221.6176363445103
 20
188.6289832786661
 30
0.0
 40
65.999998
100
AcDbArc
 50
284.048477
 51
255.9533859999999
  0
ARC
  5
436
330
1B
100
AcDbEntity
  8
4
100
AcDbCircle
 10
411.6176363445103
 20
188.6289832786661
 30
0.0
 40
270.000014
100
AcDbArc
 50
165.211821
 51
180.0006219997374
  0
LINE
  5
437
330
1B
100
AcDbEntity
  8
L-CENTER
 48
2.0
100
AcDbLine
 10
221.6176363445103
 20
280.3122678687236
 30
0.0
 11
221.6176363445103
 21
46.86409094615908
 31
0.0
  0
LINE
  5
498
330
1B
100
AcDbEntity
  8
4
100
AcDbLine
 10
515.9534912973883
 20
165.1289832786661
 30
0.0
 11
515.9534912973883
 21
212.1289832786661
 31
0.0
  0
LINE
  5
499
330
1B
100
AcDbEntity
  8
4
100
AcDbLine
 10
501.9534912973883
 20
201.1289832786661
 30
0.0
 11
501.9534912973883
 21
176.1289832786661
 31
0.0
  0
LINE
  5
49A
330
1B
100
AcDbEntity
  8
4
100
AcDbLine
 10
461.9534912973883
 20
177.6289832786661
 30
0.0
 11
461.9534912973883
 21
203.6289832786661
 31
0.0
  0
LINE
  5
49B
330
1B
100
AcDbEntity
  8
4
100
AcDbLine
 10
462.9534912973883
 20
200.6289832786661
 30
0.0
 11
462.9534912973883
 21
176.6289832786661
 31
0.0
  0
LINE
  5
49C
330
1B
100
AcDbEntity
  8
4
100
AcDbLine
 10
462.9534912973883
 20
176.6289832786661
 30
0.0
 11
501.9534912973883
 21
176.6289832786661
 31
0.0
  0
LINE
  5
49D
330
1B
100
AcDbEntity
  8
4
100
AcDbLine
 10
515.9534912973883
 20
176.1289832786661
 30
0.0
 11
501.9534912973883
 21
176.1289832786661
 31
0.0
  0
LINE
  5
49E
330
1B
100
AcDbEntity
  8
4
100
AcDbLine
 10
516.9534912973883
 20
165.1289832786661
 30
0.0
 11
515.9534912973883
 21
165.1289832786661
 31
0.0
  0
LINE
  5
4A0
330
1B
100
AcDbEntity
  8
4
100
AcDbLine
 10
461.9534912973883
 20
177.6289832786661
 30
0.0
 11
462.9534912973883
 21
176.6289832786661
 31
0.0
  0
LINE
  5
4A1
330
1B
100
AcDbEntity
  8
4
100
AcDbLine
 10
461.9534912973883
 20
203.6289832786661
 30
0.0
 11
498.9534912973883
 21
203.6289832786661
 31
0.0
  0
LINE
  5
4A2
330
1B
100
AcDbEntity
  8
4
100
AcDbLine
 10
462.9534912973883
 20
200.6289832786661
 30
0.0
 11
501.9534912973883
 21
200.6289832786661
 31
0.0
  0
LINE
  5
4A3
330
1B
100
AcDbEntity
  8
4
100
AcDbLine
 10
515.9534912973883
 20
201.1289832786661
 30
0.0
 11
501.9534912973883
 21
201.1289832786661
 31
0.0
  0
LINE
  5
4A4
330
1B
100
AcDbEntity
  8
4
100
AcDbLine
 10
516.9534912973883
 20
212.1289832786661
 30
0.0
 11
515.9534912973883
 21
212.1289832786661
 31
0.0
  0
LINE
  5
4A5
330
1B
100
AcDbEntity
  8
4
100
AcDbLine
 10
498.9534912973883
 20
200.6289832786661
 30
0.0
 11
498.9534912973883
 21
203.6289832786661
 31
0.0
  0
LINE
  5
4A6
330
1B
100
AcDbEntity
  8
4
100
AcDbLine
 10
462.9534912973883
 20
200.6289832786661
 30
0.0
 11
461.9534912973883
 21
199.6289832786661
 31
0.0
  0
LINE
  5
4AC
330
1B
100
AcDbEntity
  8
4
100
AcDbLine
 10
225.1176363445103
 20
203.6289832786661
 30
0.0
 11
218.1176363445103
 21
203.6289832786661
 31
0.0
  0
LINE
  5
4AD
330
1B
100
AcDbEntity
  8
4
100
AcDbLine
 10
225.1176363445103
 20
196.6289832786661
 30
0.0
 11
218.1176363445103
 21
196.6289832786661
 31
0.0
  0
LINE
  5
4AE
330
1B
100
AcDbEntity
  8
4
100
AcDbLine
 10
225.1176363445103
 20
203.6289832786661
 30
0.0
 11
225.1176363445103
 21
196.6289832786661
 31
0.0
  0
LINE
  5
4AF
330
1B
100
AcDbEntity
  8
4
100
AcDbLine
 10
218.1176363445103
 20
196.6289832786661
 30
0.0
 11
218.1176363445103
 21
203.6289832786661
 31
0.0
  0
ARC
  5
4B0
330
1B
100
AcDbEntity
  8
4
100
AcDbCircle
 10
221.6176363445103
 20
188.6289832786661
 30
0.0
 40
12.0
100
AcDbArc
 50
106.9577633000041
 51
73.0422380000001
  0
CIRCLE
  5
4B2
330
1B
100
AcDbEntity
  8
4
100
AcDbCircle
 10
221.6176363445103
 20
188.6289832786661
 30
0.0
 40
23.5
  0
LINE
  5
4B3
330
1B
100
AcDbEntity
  8
4
100
AcDbLine
 10
218.1176363445105
 20
389.4597584088921
 30
0.0
 11
218.1176363445105
 21
355.9597584088921
 31
0.0
  0
LINE
  5
4B4
330
1B
100
AcDbEntity
  8
4
100
AcDbLine
 10
225.1176363445105
 20
389.4597584088921
 30
0.0
 11
225.1176363445105
 21
355.9597584088921
 31
0.0
  0
LINE
  5
4B5
330
1B
100
AcDbEntity
  8
4
100
AcDbLine
 10
233.6176363445105
 20
356.9597584088921
 30
0.0
 11
233.6176363445105
 21
395.9597584088921
 31
0.0
  0
LINE
  5
4B6
330
1B
100
AcDbEntity
  8
4
100
AcDbLine
 10
209.6176363445105
 20
356.9597584088921
 30
0.0
 11
209.6176363445105
 21
395.9597584088921
 31
0.0
  0
LINE
  5
4B7
330
1B
100
AcDbEntity
  8
4
100
AcDbLine
 10
245.1176363445105
 20
408.0597584088923
 30
0.0
 11
198.1176363445105
 21
408.0597584088923
 31
0.0
  0
LINE
  5
4B8
330
1B
100
AcDbEntity
  8
4
100
AcDbLine
 10
198.1176363445105
 20
409.0597584088923
 30
0.0
 11
198.1176363445105
 21
408.0597584088923
 31
0.0
  0
LINE
  5
4B9
330
1B
100
AcDbEntity
  8
4
100
AcDbLine
 10
234.1176363445105
 20
408.0597584088923
 30
0.0
 11
234.1176363445105
 21
395.9597584088921
 31
0.0
  0
LINE
  5
4BA
330
1B
100
AcDbEntity
  8
4
100
AcDbLine
 10
209.1176363445105
 20
408.0597584088923
 30
0.0
 11
209.1176363445105
 21
395.9597584088921
 31
0.0
  0
ARC
  5
4BB
330
1B
100
AcDbEntity
  8
4
100
AcDbCircle
 10
221.6176363445105
 20
389.4597584088921
 30
0.0
 40
3.5
100
AcDbArc
 50
0.0
 51
180.0
  0
LINE
  5
4BC
330
1B
100
AcDbEntity
  8
4
100
AcDbLine
 10
209.1176363445105
 20
395.9597584088921
 30
0.0
 11
234.1176363445105
 21
395.9597584088921
 31
0.0
  0
LINE
  5
4BD
330
1B
100
AcDbEntity
  8
4
100
AcDbLine
 10
245.1176363445105
 20
409.0597584088923
 30
0.0
 11
245.1176363445105
 21
408.0597584088923
 31
0.0
  0
LINE
  5
4BE
330
1B
100
AcDbEntity
  8
4
100
AcDbLine
 10
232.6176363445105
 20
355.9597584088921
 30
0.0
 11
210.6176363445105
 21
355.9597584088921
 31
0.0
  0
LINE
  5
4BF
330
1B
100
AcDbEntity
  8
4
100
AcDbLine
 10
209.6176363445105
 20
356.9597584088921
 30
0.0
 11
218.1176363445105
 21
356.9597584088924
 31
0.0
  0
LINE
  5
4C0
330
1B
100
AcDbEntity
  8
4
100
AcDbLine
 10
209.6176363445105
 20
356.9597584088921
 30
0.0
 11
210.6176363445105
 21
355.9597584088921
 31
0.0
  0
LINE
  5
4C1
330
1B
100
AcDbEntity
  8
4
100
AcDbLine
 10
225.1176363445105
 20
356.9597584088924
 30
0.0
 11
233.6176363445105
 21
356.9597584088921
 31
0.0
  0
LINE
  5
4C2
330
1B
100
AcDbEntity
  8
4
100
AcDbLine
 10
232.6176363445105
 20
355.9597584088921
 30
0.0
 11
233.6176363445105
 21
356.9597584088921
 31
0.0
  0
ENDSEC
  0
SECTION
  2
OBJECTS
  0
DICTIONARY
  5
9
330
0
100
AcDbDictionary
281
     1
  3
ACAD_COLOR
350
30
  3
ACAD_GROUP
350
2E
  3
ACAD_LAYOUT
350
24
  3
ACAD_MATERIAL
350
B
  3
ACAD_MLEADERSTYLE
350
43B
  3
ACAD_MLINESTYLE
350
19
  3
ACAD_PLOTSETTINGS
350
2F
  3
ACAD_PLOTSTYLENAME
350
8
  3
ACAD_SCALELIST
350
35
  3
ACAD_TABLESTYLE
350
43A
  3
ACAD_VISUALSTYLE
350
31
  3
ACDBHEADERROUNDTRIPXREC
350
4EB
  3
AcDbVariableDictionary
350
438
  3
DWGPROPS
350
4EE
  0
DICTIONARY
  5
4EF
330
2D
100
AcDbDictionary
280
     1
281
     1
  3
ACAD_XREC_ROUNDTRIP
360
4F0
  0
DICTIONARY
  5
3
330
2
100
AcDbDictionary
280
     1
281
     1
  3
ACAD_LAYERSTATES
360
4
  0
DICTIONARY
  5
20
330
1F
100
AcDbDictionary
280
     1
281
     1
  3
ADSK_XREC_LAYER_RECONCILED
360
21
  0
DICTIONARY
  5
D0
330
CF
100
AcDbDictionary
280
     1
281
     1
  3
ADSK_XREC_LAYER_RECONCILED
360
D1
  0
DICTIONARY
  5
5
330
1
100
AcDbDictionary
280
     1
281
     1
  3
ADSK_XREC_LAYER_RECONCILED
360
6
  0
DICTIONARY
  5
CB
330
CA
100
AcDbDictionary
280
     1
281
     1
  3
ADSK_XREC_LAYER_RECONCILED
360
CC
  0
DICTIONARY
  5
99
330
98
100
AcDbDictionary
280
     1
281
     1
  3
ADSK_XREC_LAYER_RECONCILED
360
9A
  0
DICTIONARY
  5
5D
330
5C
100
AcDbDictionary
280
     1
281
     1
  3
ADSK_XREC_LAYER_RECONCILED
360
5E
  0
DICTIONARY
  5
1C
330
1B
100
AcDbDictionary
280
     1
281
     1
  3
ACAD_SORTENTS
360
1D
  0
DICTIONARY
  5
30
102
{ACAD_REACTORS
330
9
102
}
330
9
100
AcDbDictionary
281
     1
  0
DICTIONARY
  5
2E
102
{ACAD_REACTORS
330
9
102
}
330
9
100
AcDbDictionary
281
     1
  0
DICTIONARY
  5
24
102
{ACAD_REACTORS
330
9
102
}
330
9
100
AcDbDictionary
281
     1
  3
Model
350
23
  3
ﾚｲｱｳﾄ1
350
2A
  0
DICTIONARY
  5
B
102
{ACAD_REACTORS
330
9
102
}
330
9
100
AcDbDictionary
281
     1
  3
ByBlock
350
58
  3
ByLayer
350
14
  3
Global
350
A
  0
DICTIONARY
  5
43B
102
{ACAD_REACTORS
330
9
102
}
330
9
100
AcDbDictionary
281
     1
  3
Standard
350
4E4
  0
DICTIONARY
  5
19
102
{ACAD_REACTORS
330
9
102
}
330
9
100
AcDbDictionary
281
     1
  3
STANDARD
350
18
  0
DICTIONARY
  5
2F
102
{ACAD_REACTORS
330
9
102
}
330
9
100
AcDbDictionary
281
     1
  0
ACDBDICTIONARYWDFLT
  5
8
102
{ACAD_REACTORS
330
9
102
}
330
9
100
AcDbDictionary
281
     1
  3
Normal
350
7
100
AcDbDictionaryWithDefault
340
7
  0
DICTIONARY
  5
35
102
{ACAD_REACTORS
330
9
102
}
330
9
100
AcDbDictionary
281
     1
  3
*A1
350
57
  0
DICTIONARY
  5
43A
102
{ACAD_REACTORS
330
9
102
}
330
9
100
AcDbDictionary
281
     1
  3
Standard
350
4E7
  0
DICTIONARY
  5
31
102
{ACAD_REACTORS
330
9
102
}
330
9
100
AcDbDictionary
281
     1
  3
2dWireframe
350
443
  3
Basic
350
446
  3
Brighten
350
44A
  3
ColorChange
350
44E
  3
Conceptual
350
448
  3
Dim
350
449
  3
EdgeColorOff
350
451
  3
Facepattern
350
44D
  3
Flat
350
43F
  3
FlatWithEdges
350
440
  3
Gouraud
350
441
  3
GouraudWithEdges
350
442
  3
Hidden
350
445
  3
JitterOff
350
44F
  3
Linepattern
350
44C
  3
OverhangOff
350
450
  3
Realistic
350
447
  3
Shaded
350
456
  3
Shaded with edges
350
455
  3
Shades of Gray
350
452
  3
Sketchy
350
453
  3
Thicken
350
44B
  3
Wireframe
350
444
  3
X-Ray
350
454
  0
DICTIONARY
  5
4EB
102
{ACAD_REACTORS
330
9
102
}
330
9
100
AcDbDictionary
281
     1
  3
COLORDICT
350
4EC
  3
MATERIALDICT
350
4ED
  0
DICTIONARY
  5
438
102
{ACAD_REACTORS
330
9
102
}
330
9
100
AcDbDictionary
281
     1
  3
CANNOSCALE
350
439
  3
CMLEADERSTYLE
350
4E6
  3
CTABLESTYLE
350
4E8
  3
DIMASSOC
350
4E9
  3
HIDETEXT
350
4EA
  3
MSLTSCALE
350
4F1
  3
XCLIPFRAME
350
43C
  0
XRECORD
  5
4EE
102
{ACAD_REACTORS
330
9
102
}
330
9
100
AcDbXrecord
280
     1
  1
DWGPROPS COOKIE
  2

  3

  4

  6

  7

  8
sg-d04
  9

300
=
301
=
302
=
303
=
304
=
305
=
306
=
307
=
308
=
309
=
 40
0.0
 41
2457456.276021528
 42
2457870.221912407
  1

 90
        0
  0
XRECORD
  5
4F0
102
{ACAD_REACTORS
330
4EF
102
}
330
4EF
100
AcDbXrecord
280
     1
102
VTR_0.000_0.000_1.000_1.000_VISUALSTYLE
340
443
102
VTR_0.000_0.000_1.000_1.000_GRIDDISPLAY
 70
     3
102
VTR_0.000_0.000_1.000_1.000_GRIDMAJOR
 70
     5
102
VTR_0.000_0.000_1.000_1.000_DEFAULTLIGHTING
280
     1
102
VTR_0.000_0.000_1.000_1.000_DEFAULTLIGHTINGTYPE
 70
     1
102
VTR_0.000_0.000_1.000_1.000_BRIGHTNESS
141
0.0
102
VTR_0.000_0.000_1.000_1.000_CONTRAST
142
0.0
  0
DICTIONARY
  5
4
102
{ACAD_REACTORS
330
3
102
}
330
3
100
AcDbDictionary
281
     1
  0
XRECORD
  5
21
102
{ACAD_REACTORS
330
20
102
}
330
20
100
AcDbXrecord
280
     1
290
     1
  0
XRECORD
  5
D1
102
{ACAD_REACTORS
330
D0
102
}
330
D0
100
AcDbXrecord
280
     1
290
     1
  0
XRECORD
  5
6
102
{ACAD_REACTORS
330
5
102
}
330
5
100
AcDbXrecord
280
     1
290
     1
  0
XRECORD
  5
CC
102
{ACAD_REACTORS
330
CB
102
}
330
CB
100
AcDbXrecord
280
     1
290
     1
  0
XRECORD
  5
9A
102
{ACAD_REACTORS
330
99
102
}
330
99
100
AcDbXrecord
280
     1
290
     1
  0
XRECORD
  5
5E
102
{ACAD_REACTORS
330
5D
102
}
330
5D
100
AcDbXrecord
280
     1
290
     1
  0
SORTENTSTABLE
  5
1D
102
{ACAD_REACTORS
330
1C
102
}
330
1C
100
AcDbSortentsTable
330
1B
331
0
  5
171
331
1A1
  5
297
331
1A4
  5
294
331
1A6
  5
292
331
1A8
  5
290
331
1A9
  5
28F
331
1AB
  5
28D
331
1AC
  5
28C
331
1AF
  5
289
331
1B0
  5
288
331
1B2
  5
286
331
1B3
  5
285
331
1B8
  5
280
331
1B9
  5
27F
331
1BA
  5
27E
331
1BB
  5
27D
331
1BC
  5
27C
331
1BD
  5
27B
331
1BE
  5
27A
331
1C1
  5
277
331
1C2
  5
276
331
1C3
  5
275
331
1C5
  5
273
331
1C6
  5
272
331
1C7
  5
271
331
1C9
  5
26F
331
1CA
  5
26E
331
1CE
  5
26A
331
1CF
  5
269
331
1D0
  5
268
331
1D1
  5
267
331
1D2
  5
266
331
1D3
  5
265
331
1D4
  5
264
331
1D5
  5
263
331
1D8
  5
260
331
1D9
  5
25F
331
1DA
  5
25E
331
1DB
  5
25D
331
1E2
  5
256
331
1E3
  5
255
331
1E6
  5
252
331
1E7
  5
251
331
1EA
  5
24E
331
1EB
  5
24D
331
1EC
  5
24C
331
1ED
  5
24B
331
1EE
  5
24A
331
1EF
  5
249
331
1F0
  5
248
331
1F1
  5
247
331
1F2
  5
246
331
1F5
  5
243
331
1F6
  5
242
331
1F7
  5
241
331
1F8
  5
240
331
1F9
  5
23F
331
1FA
  5
23E
331
1FB
  5
23D
331
1FC
  5
23C
331
1FD
  5
23B
331
1FE
  5
23A
331
1FF
  5
239
331
200
  5
238
331
201
  5
237
331
202
  5
236
331
203
  5
235
331
204
  5
234
331
205
  5
233
331
206
  5
232
331
207
  5
231
331
208
  5
230
331
209
  5
22F
331
20A
  5
22E
331
20B
  5
22D
331
20C
  5
22C
331
20D
  5
22B
331
20E
  5
22A
331
20F
  5
229
331
210
  5
228
331
211
  5
227
331
212
  5
226
331
213
  5
225
331
214
  5
224
331
215
  5
223
331
216
  5
222
331
217
  5
221
331
21D
  5
21B
331
21E
  5
21A
331
223
  5
215
331
224
  5
214
331
226
  5
212
331
227
  5
211
331
228
  5
210
331
229
  5
20F
331
22A
  5
20E
331
22B
  5
20D
331
243
  5
1F5
331
244
  5
1F4
331
245
  5
1F3
331
246
  5
1F2
331
247
  5
1F1
331
249
  5
1EF
331
24A
  5
1EE
331
24B
  5
1ED
331
24C
  5
1EC
331
24D
  5
1EB
331
24F
  5
1E9
331
250
  5
1E8
331
251
  5
1E7
331
252
  5
1E6
331
253
  5
1E5
331
254
  5
1E4
331
255
  5
1E3
331
256
  5
1E2
331
257
  5
1E1
331
258
  5
1E0
331
259
  5
1DF
331
25A
  5
1DE
331
25C
  5
1DC
331
25D
  5
1DB
331
25E
  5
1DA
331
260
  5
1D8
331
261
  5
1D7
331
262
  5
1D6
331
263
  5
1D5
331
264
  5
1D4
331
265
  5
1D3
331
266
  5
1D2
331
267
  5
1D1
331
268
  5
1D0
331
269
  5
1CF
331
26A
  5
1CE
331
26B
  5
1CD
331
26C
  5
1CC
331
26D
  5
1CB
331
26E
  5
1CA
331
26F
  5
1C9
331
270
  5
1C8
331
271
  5
1C7
331
272
  5
1C6
331
273
  5
1C5
331
274
  5
1C4
331
275
  5
1C3
331
276
  5
1C2
331
277
  5
1C1
331
278
  5
1C0
331
279
  5
1BF
331
27A
  5
1BE
331
27B
  5
1BD
331
27C
  5
1BC
331
27D
  5
1BB
331
27E
  5
1BA
331
27F
  5
1B9
331
280
  5
1B8
331
281
  5
1B7
331
282
  5
1B6
331
283
  5
1B5
331
284
  5
1B4
331
285
  5
1B3
331
286
  5
1B2
331
287
  5
1B1
331
288
  5
1B0
331
289
  5
1AF
331
28A
  5
1AE
331
28B
  5
1AD
331
28C
  5
1AC
331
28D
  5
1AB
331
28E
  5
1AA
331
28F
  5
1A9
331
290
  5
1A8
331
291
  5
1A7
331
292
  5
1A6
331
293
  5
1A5
331
294
  5
1A4
331
295
  5
1A3
331
296
  5
1A2
331
297
  5
1A1
331
298
  5
1A0
331
299
  5
19F
331
29A
  5
19E
331
29B
  5
19D
331
29C
  5
19C
331
29D
  5
19B
331
29E
  5
19A
331
29F
  5
199
331
2A0
  5
198
331
2A1
  5
197
331
2A2
  5
196
331
2A3
  5
195
331
2A4
  5
194
331
2A5
  5
193
331
2A6
  5
192
331
2A7
  5
191
331
2A8
  5
190
331
2A9
  5
18F
331
2AA
  5
18E
331
2AB
  5
18D
331
2AC
  5
18C
331
2AD
  5
18B
331
2AE
  5
18A
331
2AF
  5
189
331
2B0
  5
188
331
2B1
  5
187
331
2B2
  5
186
331
2B3
  5
185
331
2B4
  5
184
331
2B5
  5
183
331
2B6
  5
182
331
2B7
  5
181
331
2B8
  5
180
331
2B9
  5
17F
331
2BA
  5
17E
331
2BB
  5
17D
331
2BC
  5
17C
331
2BD
  5
17B
331
2BE
  5
17A
331
2BF
  5
179
331
2C0
  5
178
331
2C1
  5
177
331
2C2
  5
176
331
2C3
  5
175
331
2C4
  5
174
331
2C5
  5
173
331
2C6
  5
172
331
2CB
  5
16D
331
2CC
  5
16C
331
2CD
  5
16B
331
2CE
  5
16A
331
2CF
  5
169
331
2D0
  5
168
331
2D1
  5
167
331
2D2
  5
166
331
2D3
  5
165
331
2D4
  5
164
331
2D5
  5
163
331
2D6
  5
162
331
2D7
  5
161
331
2D8
  5
160
331
2D9
  5
15F
331
2DA
  5
15E
331
2DB
  5
15D
331
2DC
  5
15C
331
2DD
  5
15B
331
2DE
  5
15A
331
2DF
  5
159
331
2E0
  5
158
331
2E6
  5
152
331
2E7
  5
151
331
2E8
  5
150
331
2E9
  5
14F
331
2EA
  5
14E
331
2EB
  5
14D
331
2EC
  5
14C
331
2ED
  5
14B
331
2EE
  5
14A
331
2EF
  5
149
331
2F0
  5
148
331
2F1
  5
147
331
2F4
  5
144
331
2F5
  5
143
331
2F6
  5
142
331
2F7
  5
141
331
2F8
  5
140
331
2F9
  5
13F
331
2FA
  5
13E
331
2FB
  5
13D
331
2FC
  5
13C
331
2FD
  5
13B
331
2FE
  5
13A
331
2FF
  5
139
331
300
  5
138
331
301
  5
137
331
302
  5
136
331
303
  5
135
331
304
  5
134
331
305
  5
133
331
306
  5
132
331
307
  5
131
331
308
  5
130
331
309
  5
12F
331
30A
  5
12E
331
30B
  5
12D
331
30C
  5
12C
331
30D
  5
12B
331
30E
  5
12A
331
30F
  5
129
331
310
  5
128
331
311
  5
127
331
312
  5
126
331
313
  5
125
331
314
  5
124
331
315
  5
123
331
316
  5
122
331
317
  5
121
331
318
  5
120
331
319
  5
11F
331
31A
  5
11E
331
31B
  5
11D
331
31C
  5
11C
331
31D
  5
11B
331
31E
  5
11A
331
31F
  5
119
331
320
  5
118
331
321
  5
117
331
322
  5
116
331
323
  5
115
331
324
  5
114
331
325
  5
113
331
326
  5
112
331
328
  5
110
331
329
  5
10F
331
32A
  5
10E
331
32B
  5
10D
331
32C
  5
10C
331
32D
  5
10B
331
32E
  5
10A
331
32F
  5
109
331
330
  5
108
331
331
  5
107
331
332
  5
106
331
333
  5
105
331
334
  5
104
331
335
  5
103
331
336
  5
102
331
337
  5
101
331
338
  5
100
331
339
  5
FF
331
33B
  5
FD
331
33C
  5
FC
331
33D
  5
FB
331
33E
  5
FA
331
33F
  5
F9
331
340
  5
F8
331
341
  5
F7
331
342
  5
F6
331
343
  5
F5
331
344
  5
F4
331
345
  5
F3
331
348
  5
F0
331
349
  5
EF
331
34A
  5
EE
331
34B
  5
ED
331
34C
  5
EC
331
34D
  5
EB
331
34E
  5
EA
331
34F
  5
E9
331
350
  5
E8
331
351
  5
E7
331
352
  5
E6
331
353
  5
E5
331
355
  5
E3
331
356
  5
E2
331
357
  5
E1
331
35D
  5
DB
331
35E
  5
DA
331
35F
  5
D9
331
360
  5
D8
331
364
  5
D4
331
365
  5
D3
331
366
  5
D2
331
367
  5
CE
331
368
  5
CD
331
369
  5
C9
331
36A
  5
C8
331
36B
  5
C7
331
36C
  5
C6
331
36D
  5
C4
331
36E
  5
C3
331
36F
  5
C2
331
370
  5
C1
331
372
  5
BF
331
373
  5
BE
331
374
  5
BD
331
377
  5
BA
331
378
  5
B9
331
379
  5
B8
331
37E
  5
B3
331
37F
  5
B2
331
380
  5
B1
331
382
  5
AF
331
383
  5
AE
331
384
  5
AD
331
38D
  5
A4
331
38E
  5
A3
331
38F
  5
A2
331
390
  5
A1
331
391
  5
A0
331
392
  5
9F
331
393
  5
9E
331
394
  5
9D
331
395
  5
9C
331
396
  5
97
331
397
  5
96
331
398
  5
95
331
399
  5
94
331
39A
  5
93
331
39B
  5
92
331
39C
  5
91
331
39D
  5
90
331
39E
  5
8F
331
39F
  5
8E
331
3A0
  5
8D
331
3A1
  5
8C
331
3A2
  5
8B
331
3A3
  5
8A
331
3A4
  5
89
331
3A5
  5
88
331
3A6
  5
87
331
3A7
  5
86
331
3A8
  5
85
331
3A9
  5
84
331
3AA
  5
83
331
3AB
  5
82
331
3AC
  5
81
331
3AD
  5
80
331
3AE
  5
7F
331
3AF
  5
7E
331
3B0
  5
7D
331
3B1
  5
7C
331
3B2
  5
7B
331
3B3
  5
7A
331
3B4
  5
79
331
3B5
  5
78
331
3B6
  5
77
331
3B7
  5
76
331
3B8
  5
75
331
3B9
  5
74
331
3BA
  5
73
331
3BB
  5
72
331
3BC
  5
71
331
3BE
  5
6F
331
3C1
  5
6C
331
3C2
  5
6B
331
3C3
  5
6A
331
3C4
  5
69
331
3C5
  5
68
331
3C8
  5
65
331
3C9
  5
64
331
3CC
  5
61
331
3CD
  5
60
331
3CE
  5
5F
331
3CF
  5
5B
331
3D0
  5
5A
331
3D1
  5
59
  0
LAYOUT
  5
23
102
{ACAD_REACTORS
330
24
102
}
102
{ACAD_XDICTIONARY
360
25
102
}
330
24
100
AcDbPlotSettings
  1

  2
Bullzip PDF Printer.pc3
  4
A3
  6

 40
0.2
 41
0.0
 42
0.0
 43
0.0
 44
420.2
 45
297.1
 46
25.0
 47
12.0
 48
39.99999990666663
 49
0.0
140
803.999998156667
141
544.9999987283333
142
1.0
143
2.0
 70
 11936
 72
     1
 73
     0
 74
     4
  7
monochrome.ctb
 75
    17
147
0.5
148
-39.99999990666663
149
0.0
100
AcDbLayout
  1
Model
 70
     0
 71
     0
 10
0.0
 20
0.0
 11
12.0
 21
9.0
 12
0.0
 22
0.0
 32
0.0
 14
136.7116262334461
 24
13.01835362438609
 34
0.0
 15
687.5643312973883
 25
578.9957916186877
 35
0.0
146
0.0
 13
0.0
 23
0.0
 33
0.0
 16
1.0
 26
0.0
 36
0.0
 17
0.0
 27
1.0
 37
0.0
 76
     0
330
1B
331
32
1001
ACAD_PSEXT
1000
Bullzip PDF Printer.pc3
1000
Bullzip PDF Printer
1000
BULLZIP
1000
Bullzip PDF Printer 10.1.0.1871
1070
     0
  0
LAYOUT
  5
2A
102
{ACAD_REACTORS
330
24
102
}
330
24
100
AcDbPlotSettings
  1

  2
C:\Program Files\ACAD LT 2000\plotters\Draftpro-DXL (7575A).pc3
  4

  6

 40
0.0
 41
0.0
 42
0.0
 43
0.0
 44
0.0
 45
0.0
 46
0.0
 47
0.0
 48
0.0
 49
0.0
140
0.0
141
0.0
142
1.0
143
1.0
 70
   688
 72
     0
 73
     0
 74
     5
  7
monochrome.ctb
 75
    16
147
1.0
148
0.0
149
0.0
100
AcDbLayout
  1
ﾚｲｱｳﾄ1
 70
     0
 71
     1
 10
0.0
 20
0.0
 11
12.0
 21
9.0
 12
0.0
 22
0.0
 32
0.0
 14
1.000000000000000E+20
 24
1.000000000000000E+20
 34
1.000000000000000E+20
 15
-1.000000000000000E+20
 25
-1.000000000000000E+20
 35
-1.000000000000000E+20
146
0.0
 13
0.0
 23
0.0
 33
0.0
 16
1.0
 26
0.0
 36
0.0
 17
0.0
 27
1.0
 37
0.0
 76
     0
330
27
  0
MATERIAL
  5
58
102
{ACAD_REACTORS
330
B
102
}
102
{ACAD_XDICTIONARY
360
4F6
102
}
330
B
100
AcDbMaterial
  1
ByBlock
 72
     0
 73
     2
 43
0.0208333333333333
 43
0.0
 43
0.0
 43
0.0
 43
0.0
 43
0.0208333333333333
 43
0.0
 43
0.0
 43
0.0
 43
0.0
 43
1.0
 43
0.0
 43
0.0
 43
0.0
 43
0.0
 43
1.0
 77
     0
 78
     2
 47
0.0208333333333333
 47
0.0
 47
0.0
 47
0.0
 47
0.0
 47
0.0208333333333333
 47
0.0
 47
0.0
 47
0.0
 47
0.0
 47
1.0
 47
0.0
 47
0.0
 47
0.0
 47
0.0
 47
1.0
171
     0
172
     2
 49
0.0208333333333333
 49
0.0
 49
0.0
 49
0.0
 49
0.0
 49
0.0208333333333333
 49
0.0
 49
0.0
 49
0.0
 49
0.0
 49
1.0
 49
0.0
 49
0.0
 49
0.0
 49
0.0
 49
1.0
175
     0
176
     2
142
0.0208333333333333
142
0.0
142
0.0
142
0.0
142
0.0
142
0.0208333333333333
142
0.0
142
0.0
142
0.0
142
0.0
142
1.0
142
0.0
142
0.0
142
0.0
142
0.0
142
1.0
179
     0
270
     2
144
0.0208333333333333
144
0.0
144
0.0
144
0.0
144
0.0
144
0.0208333333333333
144
0.0
144
0.0
144
0.0
144
0.0
144
1.0
144
0.0
144
0.0
144
0.0
144
0.0
144
1.0
274
     2
147
0.0208333333333333
147
0.0
147
0.0
147
0.0
147
0.0
147
0.0208333333333333
147
0.0
147
0.0
147
0.0
147
0.0
147
1.0
147
0.0
147
0.0
147
0.0
147
0.0
147
1.0
  0
MATERIAL
  5
14
102
{ACAD_REACTORS
330
B
102
}
102
{ACAD_XDICTIONARY
360
4F2
102
}
330
B
100
AcDbMaterial
  1
ByLayer
 72
     0
 73
     2
 43
0.0208333333333333
 43
0.0
 43
0.0
 43
0.0
 43
0.0
 43
0.0208333333333333
 43
0.0
 43
0.0
 43
0.0
 43
0.0
 43
1.0
 43
0.0
 43
0.0
 43
0.0
 43
0.0
 43
1.0
 77
     0
 78
     2
 47
0.0208333333333333
 47
0.0
 47
0.0
 47
0.0
 47
0.0
 47
0.0208333333333333
 47
0.0
 47
0.0
 47
0.0
 47
0.0
 47
1.0
 47
0.0
 47
0.0
 47
0.0
 47
0.0
 47
1.0
171
     0
172
     2
 49
0.0208333333333333
 49
0.0
 49
0.0
 49
0.0
 49
0.0
 49
0.0208333333333333
 49
0.0
 49
0.0
 49
0.0
 49
0.0
 49
1.0
 49
0.0
 49
0.0
 49
0.0
 49
0.0
 49
1.0
175
     0
176
     2
142
0.0208333333333333
142
0.0
142
0.0
142
0.0
142
0.0
142
0.0208333333333333
142
0.0
142
0.0
142
0.0
142
0.0
142
1.0
142
0.0
142
0.0
142
0.0
142
0.0
142
1.0
179
     0
270
     2
144
0.0208333333333333
144
0.0
144
0.0
144
0.0
144
0.0
144
0.0208333333333333
144
0.0
144
0.0
144
0.0
144
0.0
144
1.0
144
0.0
144
0.0
144
0.0
144
0.0
144
1.0
274
     2
147
0.0208333333333333
147
0.0
147
0.0
147
0.0
147
0.0
147
0.0208333333333333
147
0.0
147
0.0
147
0.0
147
0.0
147
1.0
147
0.0
147
0.0
147
0.0
147
0.0
147
1.0
  0
MATERIAL
  5
A
102
{ACAD_REACTORS
330
B
102
}
102
{ACAD_XDICTIONARY
360
4F4
102
}
330
B
100
AcDbMaterial
  1
Global
 72
     0
 73
     2
 43
0.0208333333333333
 43
0.0
 43
0.0
 43
0.0
 43
0.0
 43
0.0208333333333333
 43
0.0
 43
0.0
 43
0.0
 43
0.0
 43
1.0
 43
0.0
 43
0.0
 43
0.0
 43
0.0
 43
1.0
 77
     0
 78
     2
 47
0.0208333333333333
 47
0.0
 47
0.0
 47
0.0
 47
0.0
 47
0.0208333333333333
 47
0.0
 47
0.0
 47
0.0
 47
0.0
 47
1.0
 47
0.0
 47
0.0
 47
0.0
 47
0.0
 47
1.0
171
     0
172
     2
 49
0.0208333333333333
 49
0.0
 49
0.0
 49
0.0
 49
0.0
 49
0.0208333333333333
 49
0.0
 49
0.0
 49
0.0
 49
0.0
 49
1.0
 49
0.0
 49
0.0
 49
0.0
 49
0.0
 49
1.0
175
     0
176
     2
142
0.0208333333333333
142
0.0
142
0.0
142
0.0
142
0.0
142
0.0208333333333333
142
0.0
142
0.0
142
0.0
142
0.0
142
1.0
142
0.0
142
0.0
142
0.0
142
0.0
142
1.0
179
     0
270
     2
144
0.0208333333333333
144
0.0
144
0.0
144
0.0
144
0.0
144
0.0208333333333333
144
0.0
144
0.0
144
0.0
144
0.0
144
1.0
144
0.0
144
0.0
144
0.0
144
0.0
144
1.0
274
     2
147
0.0208333333333333
147
0.0
147
0.0
147
0.0
147
0.0
147
0.0208333333333333
147
0.0
147
0.0
147
0.0
147
0.0
147
1.0
147
0.0
147
0.0
147
0.0
147
0.0
147
1.0
1001
ACAD
1070
    -1
1070
     3
1070
     0
1000

1071
        0
  0
MLEADERSTYLE
  5
4E4
102
{ACAD_REACTORS
330
43B
102
}
102
{ACAD_XDICTIONARY
360
528
102
}
330
43B
100
AcDbMLeaderStyle
170
     2
171
     1
172
     0
 90
        2
 40
0.0
 41
0.0
173
     1
 91
-1056964608
340
11
 92
       -2
290
     1
 42
0.09
291
     1
 43
0.36
  3
Standard
341
0
 44
0.18
300

342
12
174
     1
178
     6
175
     1
176
     0
 93
-1056964608
 45
0.18
292
     0
297
     0
 46
0.18
343
0
 94
-1056964608
 47
1.0
 49
1.0
140
1.0
293
     1
141
0.0
294
     1
177
     0
142
1.0
295
     0
296
     0
143
0.125
1001
ACAD_MLEADERVER
1070
     2
  0
MLINESTYLE
  5
18
102
{ACAD_REACTORS
330
19
102
}
330
19
100
AcDbMlineStyle
  2
STANDARD
 70
     0
  3

 62
     0
 51
90.0
 52
90.0
 71
     2
 49
0.5
 62
   256
  6
BYLAYER
 49
-0.5
 62
   256
  6
BYLAYER
  0
ACDBPLACEHOLDER
  5
7
102
{ACAD_REACTORS
330
8
102
}
330
8
  0
SCALE
  5
57
102
{ACAD_REACTORS
330
35
102
}
330
35
100
AcDbScale
 70
     0
300
1:1
140
1.0
141
1.0
290
     1
  0
TABLESTYLE
  5
4E7
102
{ACAD_REACTORS
330
43A
102
}
330
43A
100
AcDbTableStyle
  3
Standard
 70
     0
 71
     0
 40
0.06
 41
0.06
280
     0
281
     0
  7
STANDARD
140
0.18
170
     2
 62
     0
 63
   257
283
     0
274
    -2
284
     1
 64
     0
275
    -2
285
     1
 65
     0
276
    -2
286
     1
 66
     0
277
    -2
287
     1
 67
     0
278
    -2
288
     1
 68
     0
279
    -2
289
     1
 69
     0
  7
STANDARD
140
0.25
170
     5
 62
     0
 63
   257
283
     0
274
    -2
284
     1
 64
     0
275
    -2
285
     1
 65
     0
276
    -2
286
     1
 66
     0
277
    -2
287
     1
 67
     0
278
    -2
288
     1
 68
     0
279
    -2
289
     1
 69
     0
  7
STANDARD
140
0.18
170
     5
 62
     0
 63
   257
283
     0
274
    -2
284
     1
 64
     0
275
    -2
285
     1
 65
     0
276
    -2
286
     1
 66
     0
277
    -2
287
     1
 67
     0
278
    -2
288
     1
 68
     0
279
    -2
289
     1
 69
     0
  0
VISUALSTYLE
  5
443
102
{ACAD_REACTORS
330
31
102
}
102
{ACAD_XDICTIONARY
360
500
102
}
330
31
100
AcDbVisualStyle
  2
2dWireframe
 70
     4
 71
     0
 72
     2
 73
     0
 90
        0
 40
0.6
 41
30.0
 62
     5
 63
     7
 74
     1
 91
        4
 64
     7
 65
   257
 75
     1
175
     1
 42
1.0
 92
        0
 66
   257
 43
1.0
 76
     1
 77
     6
 78
     2
 67
     7
 79
     5
170
     0
171
     0
290
     0
174
     0
 93
        1
 44
0.0
173
     0
291
     0
 45
0.0
1001
ACAD
1000
AcDbSavedByObjectVersion
1070
     0
  0
VISUALSTYLE
  5
446
102
{ACAD_REACTORS
330
31
102
}
102
{ACAD_XDICTIONARY
360
506
102
}
330
31
100
AcDbVisualStyle
  2
Basic
 70
     7
 71
     1
 72
     0
 73
     1
 90
        0
 40
0.6
 41
30.0
 62
     5
 63
     7
 74
     0
 91
        4
 64
     7
 65
   257
 75
     1
175
     1
 42
1.0
 92
        8
 66
     7
 43
1.0
 76
     1
 77
     6
 78
     2
 67
     7
 79
     5
170
     0
171
     0
290
     0
174
     0
 93
        1
 44
0.0
173
     0
291
     1
 45
0.0
1001
ACAD
1000
AcDbSavedByObjectVersion
1070
     0
  0
VISUALSTYLE
  5
44A
102
{ACAD_REACTORS
330
31
102
}
102
{ACAD_XDICTIONARY
360
50E
102
}
330
31
100
AcDbVisualStyle
  2
Brighten
 70
    12
 71
     2
 72
     2
 73
     0
 90
        0
 40
0.6
 41
30.0
 62
     5
 63
     7
 74
     1
 91
        4
 64
     7
 65
   257
 75
     1
175
     1
 42
1.0
 92
        8
 66
     7
 43
1.0
 76
     1
 77
     6
 78
     2
 67
     7
 79
     5
170
     0
171
     0
290
     0
174
     0
 93
        1
 44
50.0
173
     0
291
     1
 45
0.0
1001
ACAD
1000
AcDbSavedByObjectVersion
1070
     0
  0
VISUALSTYLE
  5
44E
102
{ACAD_REACTORS
330
31
102
}
102
{ACAD_XDICTIONARY
360
516
102
}
330
31
100
AcDbVisualStyle
  2
ColorChange
 70
    16
 71
     2
 72
     2
 73
     3
 90
        0
 40
0.6
 41
30.0
 62
     5
 63
     8
 74
     1
 91
        4
 64
     7
 65
   257
 75
     1
175
     1
 42
1.0
 92
        8
 66
     8
 43
1.0
 76
     1
 77
     6
 78
     2
 67
     7
 79
     5
170
     0
171
     0
290
     0
174
     0
 93
        1
 44
0.0
173
     0
291
     1
 45
0.0
1001
ACAD
1000
AcDbSavedByObjectVersion
1070
     0
  0
VISUALSTYLE
  5
448
102
{ACAD_REACTORS
330
31
102
}
102
{ACAD_XDICTIONARY
360
50A
102
}
330
31
100
AcDbVisualStyle
  2
Conceptual
 70
     9
 71
     3
 72
     2
 73
     0
 90
        0
 40
0.6
 41
30.0
 62
     5
 63
     7
 74
     2
 91
        2
 64
     7
 65
   257
 75
     1
175
     1
 42
40.0
 92
        8
 66
     7
 43
1.0
 76
     1
 77
     6
 78
     2
 67
     7
 79
     3
170
     0
171
     0
290
     0
174
     0
 93
        1
 44
0.0
173
     0
291
     0
 45
0.0
1001
ACAD
1000
AcDbSavedByObjectVersion
1070
     0
  0
VISUALSTYLE
  5
449
102
{ACAD_REACTORS
330
31
102
}
102
{ACAD_XDICTIONARY
360
50C
102
}
330
31
100
AcDbVisualStyle
  2
Dim
 70
    11
 71
     2
 72
     2
 73
     0
 90
        0
 40
0.6
 41
30.0
 62
     5
 63
     7
 74
     1
 91
        4
 64
     7
 65
   257
 75
     1
175
     1
 42
1.0
 92
        8
 66
     7
 43
1.0
 76
     1
 77
     6
 78
     2
 67
     7
 79
     5
170
     0
171
     0
290
     0
174
     0
 93
        1
 44
-50.0
173
     0
291
     1
 45
0.0
1001
ACAD
1000
AcDbSavedByObjectVersion
1070
     0
  0
VISUALSTYLE
  5
451
102
{ACAD_REACTORS
330
31
102
}
102
{ACAD_XDICTIONARY
360
51C
102
}
330
31
100
AcDbVisualStyle
  2
EdgeColorOff
 70
    22
 71
     2
 72
     2
 73
     0
 90
        0
 40
0.6
 41
30.0
 62
     5
 63
     7
 74
     1
 91
        4
 64
     7
 65
   257
 75
     1
175
     1
 42
1.0
 92
        8
 66
     7
 43
1.0
 76
     1
 77
     6
 78
     2
 67
     7
 79
     5
170
     0
171
     0
290
     0
174
     0
 93
        1
 44
0.0
173
     0
291
     1
 45
0.0
1001
ACAD
1000
AcDbSavedByObjectVersion
1070
     0
  0
VISUALSTYLE
  5
44D
102
{ACAD_REACTORS
330
31
102
}
102
{ACAD_XDICTIONARY
360
514
102
}
330
31
100
AcDbVisualStyle
  2
Facepattern
 70
    15
 71
     2
 72
     2
 73
     0
 90
        0
 40
0.6
 41
30.0
 62
     5
 63
     7
 74
     1
 91
        4
 64
     7
 65
   257
 75
     1
175
     1
 42
1.0
 92
        8
 66
     7
 43
1.0
 76
     1
 77
     6
 78
     2
 67
     7
 79
     5
170
     0
171
     0
290
     0
174
     0
 93
        1
 44
0.0
173
     0
291
     1
 45
0.0
1001
ACAD
1000
AcDbSavedByObjectVersion
1070
     0
  0
VISUALSTYLE
  5
43F
102
{ACAD_REACTORS
330
31
102
}
102
{ACAD_XDICTIONARY
360
4F8
102
}
330
31
100
AcDbVisualStyle
  2
Flat
 70
     0
 71
     2
 72
     1
 73
     1
 90
        2
 40
0.6
 41
30.0
 62
     5
 63
     7
 74
     0
 91
        4
 64
     7
 65
   257
 75
     1
175
     1
 42
1.0
 92
        8
 66
     7
 43
1.0
 76
     1
 77
     6
 78
     2
 67
     7
 79
     5
170
     0
171
     0
290
     0
174
     0
 93
       13
 44
0.0
173
     0
291
     1
 45
0.0
1001
ACAD
1000
AcDbSavedByObjectVersion
1070
     0
  0
VISUALSTYLE
  5
440
102
{ACAD_REACTORS
330
31
102
}
102
{ACAD_XDICTIONARY
360
4FA
102
}
330
31
100
AcDbVisualStyle
  2
FlatWithEdges
 70
     1
 71
     2
 72
     1
 73
     1
 90
        2
 40
0.6
 41
30.0
 62
     5
 63
     7
 74
     1
 91
        4
 64
     7
 65
   257
 75
     1
175
     1
 42
1.0
 92
        0
 66
   257
 43
1.0
 76
     1
 77
     6
 78
     2
 67
     7
 79
     5
170
     0
171
     0
290
     0
174
     0
 93
       13
 44
0.0
173
     0
291
     1
 45
0.0
1001
ACAD
1000
AcDbSavedByObjectVersion
1070
     0
  0
VISUALSTYLE
  5
441
102
{ACAD_REACTORS
330
31
102
}
102
{ACAD_XDICTIONARY
360
4FC
102
}
330
31
100
AcDbVisualStyle
  2
Gouraud
 70
     2
 71
     2
 72
     2
 73
     1
 90
        2
 40
0.6
 41
30.0
 62
     5
 63
     7
 74
     0
 91
        4
 64
     7
 65
   257
 75
     1
175
     1
 42
1.0
 92
        0
 66
     7
 43
1.0
 76
     1
 77
     6
 78
     2
 67
     7
 79
     5
170
     0
171
     0
290
     0
174
     0
 93
       13
 44
0.0
173
     0
291
     1
 45
0.0
1001
ACAD
1000
AcDbSavedByObjectVersion
1070
     0
  0
VISUALSTYLE
  5
442
102
{ACAD_REACTORS
330
31
102
}
102
{ACAD_XDICTIONARY
360
4FE
102
}
330
31
100
AcDbVisualStyle
  2
GouraudWithEdges
 70
     3
 71
     2
 72
     2
 73
     1
 90
        2
 40
0.6
 41
30.0
 62
     5
 63
     7
 74
     1
 91
        4
 64
     7
 65
   257
 75
     1
175
     1
 42
1.0
 92
        0
 66
   257
 43
1.0
 76
     1
 77
     6
 78
     2
 67
     7
 79
     5
170
     0
171
     0
290
     0
174
     0
 93
       13
 44
0.0
173
     0
291
     1
 45
0.0
1001
ACAD
1000
AcDbSavedByObjectVersion
1070
     0
  0
VISUALSTYLE
  5
445
102
{ACAD_REACTORS
330
31
102
}
102
{ACAD_XDICTIONARY
360
504
102
}
330
31
100
AcDbVisualStyle
  2
Hidden
 70
     6
 71
     1
 72
     2
 73
     2
 90
        0
 40
0.6
 41
30.0
 62
     5
 63
     7
 74
     2
 91
        2
 64
     7
 65
   257
 75
     2
175
     1
 42
40.0
 92
        0
 66
   257
 43
1.0
 76
     1
 77
     6
 78
     2
 67
     7
 79
     3
170
     0
171
     0
290
     0
174
     0
 93
        1
 44
0.0
173
     0
291
     0
 45
0.0
1001
ACAD
1000
AcDbSavedByObjectVersion
1070
     0
  0
VISUALSTYLE
  5
44F
102
{ACAD_REACTORS
330
31
102
}
102
{ACAD_XDICTIONARY
360
518
102
}
330
31
100
AcDbVisualStyle
  2
JitterOff
 70
    20
 71
     2
 72
     2
 73
     0
 90
        0
 40
0.6
 41
30.0
 62
     5
 63
     7
 74
     1
 91
        4
 64
     7
 65
   257
 75
     1
175
     1
 42
1.0
 92
       10
 66
     7
 43
1.0
 76
     1
 77
     6
 78
     2
 67
     7
 79
     5
170
     0
171
     0
290
     0
174
     0
 93
        1
 44
0.0
173
     0
291
     1
 45
0.0
1001
ACAD
1000
AcDbSavedByObjectVersion
1070
     0
  0
VISUALSTYLE
  5
44C
102
{ACAD_REACTORS
330
31
102
}
102
{ACAD_XDICTIONARY
360
512
102
}
330
31
100
AcDbVisualStyle
  2
Linepattern
 70
    14
 71
     2
 72
     2
 73
     0
 90
        0
 40
0.6
 41
30.0
 62
     5
 63
     7
 74
     1
 91
        4
 64
     7
 65
   257
 75
     7
175
     7
 42
1.0
 92
        8
 66
     7
 43
1.0
 76
     1
 77
     6
 78
     2
 67
     7
 79
     5
170
     0
171
     0
290
     0
174
     0
 93
        1
 44
0.0
173
     0
291
     1
 45
0.0
1001
ACAD
1000
AcDbSavedByObjectVersion
1070
     0
  0
VISUALSTYLE
  5
450
102
{ACAD_REACTORS
330
31
102
}
102
{ACAD_XDICTIONARY
360
51A
102
}
330
31
100
AcDbVisualStyle
  2
OverhangOff
 70
    21
 71
     2
 72
     2
 73
     0
 90
        0
 40
0.6
 41
30.0
 62
     5
 63
     7
 74
     1
 91
        4
 64
     7
 65
   257
 75
     1
175
     1
 42
1.0
 92
        9
 66
     7
 43
1.0
 76
     1
 77
     6
 78
     2
 67
     7
 79
     5
170
     0
171
     0
290
     0
174
     0
 93
        1
 44
0.0
173
     0
291
     1
 45
0.0
1001
ACAD
1000
AcDbSavedByObjectVersion
1070
     0
  0
VISUALSTYLE
  5
447
102
{ACAD_REACTORS
330
31
102
}
102
{ACAD_XDICTIONARY
360
508
102
}
330
31
100
AcDbVisualStyle
  2
Realistic
 70
     8
 71
     2
 72
     3
 73
     0
 90
        2
 40
0.6
 41
30.0
 62
     5
 63
     7
 74
     0
 91
        0
 64
     7
 65
   257
 75
     1
175
     1
 42
1.0
 92
        8
 66
   257
 43
1.0
 76
     1
 77
     6
 78
     2
 67
     7
 79
     3
170
     0
171
     0
290
     0
174
     0
 93
       13
 44
0.0
173
     0
291
     0
 45
0.0
1001
ACAD
1000
AcDbSavedByObjectVersion
1070
     0
  0
VISUALSTYLE
  5
456
102
{ACAD_REACTORS
330
31
102
}
102
{ACAD_XDICTIONARY
360
526
102
}
330
31
100
AcDbVisualStyle
  2
Shaded
 70
    27
 71
     2
 72
     2
 73
     1
 90
        2
 40
0.6
 41
30.0
 62
     5
 63
     7
 74
     0
 91
        4
 64
     7
 65
   257
 75
     1
175
     1
 42
1.0
 92
        8
 66
   257
 43
1.0
 76
     1
 77
     6
 78
     2
 67
   251
 79
     3
170
     0
171
     0
290
     0
174
     0
 93
        5
 44
0.0
173
     0
291
     0
 45
0.0
1001
ACAD
1000
AcDbSavedByObjectVersion
1070
     0
  0
VISUALSTYLE
  5
455
102
{ACAD_REACTORS
330
31
102
}
102
{ACAD_XDICTIONARY
360
524
102
}
330
31
100
AcDbVisualStyle
  2
Shaded with edges
 70
    26
 71
     2
 72
     2
 73
     1
 90
        2
 40
0.6
 41
30.0
 62
     5
 63
     7
 74
     1
 91
       10
 64
     7
 65
   257
 75
     2
175
     1
 42
1.0
 92
        8
 66
   257
 43
1.0
 76
     1
 77
     6
 78
     2
 67
     7
 79
     3
170
     0
171
     0
290
     0
174
     0
 93
        5
 44
0.0
173
     0
291
     0
 45
0.0
1001
ACAD
1000
AcDbSavedByObjectVersion
1070
     0
  0
VISUALSTYLE
  5
452
102
{ACAD_REACTORS
330
31
102
}
102
{ACAD_XDICTIONARY
360
51E
102
}
330
31
100
AcDbVisualStyle
  2
Shades of Gray
 70
    23
 71
     2
 72
     2
 73
     3
 90
        0
 40
0.6
 41
30.0
 62
     5
 63
     7
 74
     2
 91
        2
 64
     7
 65
     7
 75
     1
175
     1
 42
40.0
 92
        8
 66
     7
 43
1.0
 76
     1
 77
     6
 78
     2
 67
     7
 79
     3
170
     0
171
     0
290
     0
174
     0
 93
        1
 44
0.0
173
     0
291
     0
 45
0.0
1001
ACAD
1000
AcDbSavedByObjectVersion
1070
     0
  0
VISUALSTYLE
  5
453
102
{ACAD_REACTORS
330
31
102
}
102
{ACAD_XDICTIONARY
360
520
102
}
330
31
100
AcDbVisualStyle
  2
Sketchy
 70
    24
 71
     1
 72
     2
 73
     2
 90
        0
 40
0.6
 41
30.0
 62
     5
 63
     7
 74
     2
 91
        2
 64
     7
 65
     7
 75
     1
175
     1
 42
40.0
 92
       11
 66
     7
 43
1.0
 76
     1
 77
     6
 78
     2
 67
     7
 79
     6
170
     0
171
     0
290
     0
174
     0
 93
        1
 44
0.0
173
     0
291
     0
 45
0.0
1001
ACAD
1000
AcDbSavedByObjectVersion
1070
     0
  0
VISUALSTYLE
  5
44B
102
{ACAD_REACTORS
330
31
102
}
102
{ACAD_XDICTIONARY
360
510
102
}
330
31
100
AcDbVisualStyle
  2
Thicken
 70
    13
 71
     2
 72
     2
 73
     0
 90
        0
 40
0.6
 41
30.0
 62
     5
 63
     7
 74
     1
 91
        4
 64
     7
 65
   257
 75
     1
175
     1
 42
1.0
 92
       12
 66
     7
 43
1.0
 76
     1
 77
     6
 78
     2
 67
     7
 79
     5
170
     0
171
     0
290
     0
174
     0
 93
        1
 44
0.0
173
     0
291
     1
 45
0.0
1001
ACAD
1000
AcDbSavedByObjectVersion
1070
     0
  0
VISUALSTYLE
  5
444
102
{ACAD_REACTORS
330
31
102
}
102
{ACAD_XDICTIONARY
360
502
102
}
330
31
100
AcDbVisualStyle
  2
Wireframe
 70
     5
 71
     0
 72
     2
 73
     0
 90
        0
 40
0.6
 41
30.0
 62
     5
 63
     7
 74
     1
 91
        4
 64
     7
 65
   257
 75
     1
175
     1
 42
1.0
 92
        0
 66
   257
 43
1.0
 76
     1
 77
     6
 78
     2
 67
     7
 79
     5
170
     0
171
     0
290
     0
174
     0
 93
        1
 44
0.0
173
     0
291
     0
 45
0.0
1001
ACAD
1000
AcDbSavedByObjectVersion
1070
     0
  0
VISUALSTYLE
  5
454
102
{ACAD_REACTORS
330
31
102
}
102
{ACAD_XDICTIONARY
360
522
102
}
330
31
100
AcDbVisualStyle
  2
X-Ray
 70
    25
 71
     2
 72
     2
 73
     1
 90
        1
 40
0.5
 41
30.0
 62
     5
 63
     7
 74
     1
 91
        0
 64
     7
 65
   257
 75
     1
175
     1
 42
1.0
 92
        8
 66
     7
 43
1.0
 76
     1
 77
     6
 78
     2
 67
     7
 79
     3
170
     0
171
     0
290
     0
174
     0
 93
       13
 44
0.0
173
     0
291
     0
 45
0.0
1001
ACAD
1000
AcDbSavedByObjectVersion
1070
     0
  0
XRECORD
  5
4EC
102
{ACAD_REACTORS
330
4EB
102
}
330
4EB
100
AcDbXrecord
280
     1
340
30
  0
XRECORD
  5
4ED
102
{ACAD_REACTORS
330
4EB
102
}
330
4EB
100
AcDbXrecord
280
     1
340
B
  0
DICTIONARYVAR
  5
439
102
{ACAD_REACTORS
330
438
102
}
330
438
100
DictionaryVariables
280
     0
  1
1:1
  0
DICTIONARYVAR
  5
4E6
102
{ACAD_REACTORS
330
438
102
}
330
438
100
DictionaryVariables
280
     0
  1
Standard
  0
DICTIONARYVAR
  5
4E8
102
{ACAD_REACTORS
330
438
102
}
330
438
100
DictionaryVariables
280
     0
  1
Standard
  0
DICTIONARYVAR
  5
4E9
102
{ACAD_REACTORS
330
438
102
}
330
438
100
DictionaryVariables
280
     0
  1
0
  0
DICTIONARYVAR
  5
4EA
102
{ACAD_REACTORS
330
438
102
}
330
438
100
DictionaryVariables
280
     0
  1
1
  0
DICTIONARYVAR
  5
4F1
102
{ACAD_REACTORS
330
438
102
}
330
438
100
DictionaryVariables
280
     0
  1
1
  0
DICTIONARYVAR
  5
43C
102
{ACAD_REACTORS
330
438
102
}
330
438
100
DictionaryVariables
280
     0
  1
0
  0
DICTIONARY
  5
25
330
23
100
AcDbDictionary
280
     1
281
     1
  3
ADSK_XREC_LAYOUTTHUMBNAIL
360
26
  0
DICTIONARY
  5
4F6
330
58
100
AcDbDictionary
280
     1
281
     1
  3
ACAD_XREC_ROUNDTRIP
360
4F7
  0
DICTIONARY
  5
4F2
330
14
100
AcDbDictionary
280
     1
281
     1
  3
ACAD_XREC_ROUNDTRIP
360
4F3
  0
DICTIONARY
  5
4F4
330
A
100
AcDbDictionary
280
     1
281
     1
  3
ACAD_XREC_ROUNDTRIP
360
4F5
  0
DICTIONARY
  5
528
330
4E4
100
AcDbDictionary
280
     1
281
     1
  3
ACAD_XREC_ROUNDTRIP
360
529
  0
DICTIONARY
  5
500
330
443
100
AcDbDictionary
280
     1
281
     1
  3
ACAD_XREC_ROUNDTRIP
360
501
  0
DICTIONARY
  5
506
330
446
100
AcDbDictionary
280
     1
281
     1
  3
ACAD_XREC_ROUNDTRIP
360
507
  0
DICTIONARY
  5
50E
330
44A
100
AcDbDictionary
280
     1
281
     1
  3
ACAD_XREC_ROUNDTRIP
360
50F
  0
DICTIONARY
  5
516
330
44E
100
AcDbDictionary
280
     1
281
     1
  3
ACAD_XREC_ROUNDTRIP
360
517
  0
DICTIONARY
  5
50A
330
448
100
AcDbDictionary
280
     1
281
     1
  3
ACAD_XREC_ROUNDTRIP
360
50B
  0
DICTIONARY
  5
50C
330
449
100
AcDbDictionary
280
     1
281
     1
  3
ACAD_XREC_ROUNDTRIP
360
50D
  0
DICTIONARY
  5
51C
330
451
100
AcDbDictionary
280
     1
281
     1
  3
ACAD_XREC_ROUNDTRIP
360
51D
  0
DICTIONARY
  5
514
330
44D
100
AcDbDictionary
280
     1
281
     1
  3
ACAD_XREC_ROUNDTRIP
360
515
  0
DICTIONARY
  5
4F8
330
43F
100
AcDbDictionary
280
     1
281
     1
  3
ACAD_XREC_ROUNDTRIP
360
4F9
  0
DICTIONARY
  5
4FA
330
440
100
AcDbDictionary
280
     1
281
     1
  3
ACAD_XREC_ROUNDTRIP
360
4FB
  0
DICTIONARY
  5
4FC
330
441
100
AcDbDictionary
280
     1
281
     1
  3
ACAD_XREC_ROUNDTRIP
360
4FD
  0
DICTIONARY
  5
4FE
330
442
100
AcDbDictionary
280
     1
281
     1
  3
ACAD_XREC_ROUNDTRIP
360
4FF
  0
DICTIONARY
  5
504
330
445
100
AcDbDictionary
280
     1
281
     1
  3
ACAD_XREC_ROUNDTRIP
360
505
  0
DICTIONARY
  5
518
330
44F
100
AcDbDictionary
280
     1
281
     1
  3
ACAD_XREC_ROUNDTRIP
360
519
  0
DICTIONARY
  5
512
330
44C
100
AcDbDictionary
280
     1
281
     1
  3
ACAD_XREC_ROUNDTRIP
360
513
  0
DICTIONARY
  5
51A
330
450
100
AcDbDictionary
280
     1
281
     1
  3
ACAD_XREC_ROUNDTRIP
360
51B
  0
DICTIONARY
  5
508
330
447
100
AcDbDictionary
280
     1
281
     1
  3
ACAD_XREC_ROUNDTRIP
360
509
  0
DICTIONARY
  5
526
330
456
100
AcDbDictionary
280
     1
281
     1
  3
ACAD_XREC_ROUNDTRIP
360
527
  0
DICTIONARY
  5
524
330
455
100
AcDbDictionary
280
     1
281
     1
  3
ACAD_XREC_ROUNDTRIP
360
525
  0
DICTIONARY
  5
51E
330
452
100
AcDbDictionary
280
     1
281
     1
  3
ACAD_XREC_ROUNDTRIP
360
51F
  0
DICTIONARY
  5
520
330
453
100
AcDbDictionary
280
     1
281
     1
  3
ACAD_XREC_ROUNDTRIP
360
521
  0
DICTIONARY
  5
510
330
44B
100
AcDbDictionary
280
     1
281
     1
  3
ACAD_XREC_ROUNDTRIP
360
511
  0
DICTIONARY
  5
502
330
444
100
AcDbDictionary
280
     1
281
     1
  3
ACAD_XREC_ROUNDTRIP
360
503
  0
DICTIONARY
  5
522
330
454
100
AcDbDictionary
280
     1
281
     1
  3
ACAD_XREC_ROUNDTRIP
360
523
  0
XRECORD
  5
26
102
{ACAD_REACTORS
330
25
102
}
330
25
100
AcDbXrecord
280
     1
310
280000000001000070000000010008000000000000700000000000000000000000010000000000000000000000000000C8C8C8000000000000000000000000000000000000000000000000000000000000000000330000006600000099000000CC000000FF00000000330000333300006633000099330000CC330000FF3300
310
0000660000336600006666000099660000CC660000FF66000000990000339900006699000099990000CC990000FF99000000CC000033CC000066CC000099CC0000CCCC0000FFCC000000FF000033FF000066FF000099FF0000CCFF0000FFFF000000003300330033006600330099003300CC003300FF003300003333003333
310
33006633330099333300CC333300FF33330000663300336633006666330099663300CC663300FF66330000993300339933006699330099993300CC993300FF99330000CC330033CC330066CC330099CC3300CCCC3300FFCC330000FF330033FF330066FF330099FF3300CCFF3300FFFF330000006600330066006600660099
310
006600CC006600FF00660000336600333366006633660099336600CC336600FF33660000666600336666006666660099666600CC666600FF66660000996600339966006699660099996600CC996600FF99660000CC660033CC660066CC660099CC6600CCCC6600FFCC660000FF660033FF660066FF660099FF6600CCFF6600
310
FFFF660000009900330099006600990099009900CC009900FF00990000339900333399006633990099339900CC339900FF33990000669900336699006666990099669900CC669900FF66990000999900339999006699990099999900CC999900FF99990000CC990033CC990066CC990099CC9900CCCC9900FFCC990000FF99
310
0033FF990066FF990099FF9900CCFF9900FFFF99000000CC003300CC006600CC009900CC00CC00CC00FF00CC000033CC003333CC006633CC009933CC00CC33CC00FF33CC000066CC003366CC006666CC009966CC00CC66CC00FF66CC000099CC003399CC006699CC009999CC00CC99CC00FF99CC0000CCCC0033CCCC0066CC
310
CC0099CCCC00CCCCCC00FFCCCC0000FFCC0033FFCC0066FFCC0099FFCC00CCFFCC00FFFFCC000000FF003300FF006600FF009900FF00CC00FF00FF00FF000033FF003333FF006633FF009933FF00CC33FF00FF33FF000066FF003366FF006666FF009966FF00CC66FF00FF66FF000099FF003399FF006699FF009999FF00CC
310
99FF00FF99FF0000CCFF0033CCFF0066CCFF0099CCFF00CCCCFF00FFCCFF0000FFFF0033FFFF0066FFFF0099FFFF00CCFFFF00FFFFFF00000000000D0D0D001A1A1A00282828003535350043434300505050005D5D5D006B6B6B00787878008686860093939300A1A1A100AEAEAE00BBBBBB00C9C9C900D6D6D600E4E4E400
310
F1F1F100FFFFFF000000000000000000000000000000000000000000000000000000000000000000000000000000000000000000000000000000000000000000000000000000000000000000000000000000000000000000000000000000000000000000000000000000000000000000000000000000000000000000000000
310
00000000000000000000000000000000000000000000000000000000000000000000000000000000000000000000000000000000000000000000000000000000000000000000000000000000000000000000000000000000000000000000000000000000000000000000000000000000000000000000000000000000000000
310
00000000000000000000000000000000000000000000000000000000000000000000000000000000000000000000000000000000000000000000000000000000000000000000000000000000000000000000000000000000000000000000000000000000000000000000000000000000000000000000000000000000000000
310
00000000000000000000000000000000000000000000000000000000000000000000000000000000000000000000000000000000000000000000000000000000000000000000000000000000000000000000000000000000000000000000000000000000000000000000000000000000000000000000000000000000000000
310
00000000000000000000000000000000000000000000000000000000000000000000000000000000000000000000000000000000000000000000000000000000000000000000000000000000000000000000000000000000000000000000000000000000000000000000000000000000000000000000000000000000000000
310
00000000000000000000000000000000000000000000000000000000000000000000000000000000000000000000000000000000000000000000000000000000000000000000000000000000000000000000000000000000000000000000000000000000000000000000000000000000000000000000000000000000000000
310
00000000000000000000000000000000000000000000000000000000000000000000000000000000000000000000000000000000000000000000000000000000000000000000000000000000000000000000000000000000000000000000000000000000000000000000000000000000000000000000000000000000000000
310
00000000000000000000000000000000000000000000000000000000000000000000000000000000000000000000000000000000000000000000000000000000000000000000000000000000000000000000000000000000000000000000000000000000000000000000000000000000000000000000000000000000000000
310
00000000000000000000000000000000000000000000000000000000000000000000000000000000000000000000000000000000000000000000000000000000000000000000000000000000000000000000000000000000000000000000000000000000000000000000000000000000000000000000000000000000000000
310
00000000000000000000000000000000000000000000000000000000000000000000000000000000000000000000000000000000000000000000000000000000000000000000000000000000000000000000000000000000000000000000000000000000000000000000000000000000000000000000000000000000000000
310
00000000000000000000000000000000000000000000000000000000000000000000000000000000000000000000000000000000000000000000000000000000000000000000000000000000000000000000000000000000000000000000000000000000000000000000000000000000000000000000000000000000000000
310
00000000000000000000000000000000000000000000000000000000000000000000000000000000000000000000000000000000000000000000000000000000000000000000000000000000000000000000000000000000000000000000000000000000000000000000000000000000000000000000000000000000000000
310
00000000000000000000000000000000000000000000000000000000000000000000000000000000000000000000000000000000000000000000000000000000000000000000000000000000000000000000000000000000000000000000000000000000000000000000000000000000000000000000000000000000000000
310
00000000000000000000000000000000000000000000000000000000000000000000000000000000000000000000000000000000000000000000000000000000000000000000000000000000000000000000000000000000000000000000000000000000000000000000000000000000000000000000000000000000000000
310
00000000000000000000000000000000000000000000000000000000000000000000000000000000000000000000000000000000000000000000000000000000000000000000000000000000000000000000000000000000000000000000000000000000000000000000000000000000000000000000000000000000000000
310
00000000000000000000000000000000000000000000000000000000000000000000000000000000000000000000000000000000000000000000000000000000000000000000000000000000000000000000000000000000000000000000000000000000000000000000000000000000000000000000000000000000000000
310
00000000000000000000000000000000000000000000000000000000000000000000000000000000000000000000000000000000000000000000000000000000000000000000000000000000000000000000000000000000000000000000000000000000000000000000000000000000000000000000000000000000000000
310
00000000000000000000000000000000000000000000000000000000000000000000000000000000000000000000000000000000000000000000000000000000000000000000000000000000000000000000000000000000000000000000000000000000000000000000000000000000000000000000000000000000000000
310
00000000000000000000000000000000000000000000000000000000000000000000000000000000000000000000000000000000000000000000000000000000000000000000000000000000000000000000000000000000000000000000000000000000000000000000000000000000000000000000000000000000000000
310
00000000000000000000000000000000000000000000000000000000000000000000000000000000000000000000000000000000000000000000000000000000000000000000000000000000000000000000000000000000000000000000000000000000000000000000000000000000000000000000000000000000000000
310
00000000000000000000000000000000000000000000000000000000000000000000000000000000000000000000000000000000000000000000000000000000000000000000000000000000000000000000000000000000000000000000000000000000000000000000000000000000000000000000000000000000000000
310
00000000000000000000000000000000000000000000000000000000000000000000000000000000000000000000000000000000000000000000000000000000000000000000000000000000000000000000000000000000000000000000000000000000000000000000000000000000000000000000000000000000000000
310
00000000000000000000000000000000000000000000000000000000000000000000000000000000000000000000000000000000000000000000000000000000000000000000000000000000000000000000000000000000000000000000000000000000000000000000000000000000000000000000000000000000000000
310
00000000000000000000000000000000000000000000000000000000000000000000000000000000000000000000000000000000000000000000000000000000000000000000000000000000000000000000000000000000000000000000000000000000000000000000000000000000000000000000000000000000000000
310
00000000000000000000000000000000000000000000000000000000000000000000000000000000000000000000000000000000000000000000000000000000000000000000000000000000000000000000000000000000000000000000000000000000000000000000000000000000000000000000000000000000000000
310
00000000000000000000000000000000000000000000000000000000000000000000000000000000000000000000000000000000000000000000000000000000000000000000000000000000000000000000000000000000000000000000000000000000000000000000000000000000000000000000000000000000000000
310
00000000000000000000000000000000000000000000000000000000000000000000000000000000000000000000000000000000000000000000000000000000000000000000000000000000000000000000000000000000000000000000000000000000000000000000000000000000000000000000000000000000000000
310
00000000000000000000000000000000000000000000000000000000000000000000000000000000000000000000000000000000000000000000000000000000000000000000000000000000000000000000000000000000000000000000000000000000000000000000000000000000000000000000000000000000000000
310
00000000000000000000000000000000000000000000000000000000000000000000000000000000000000000000000000000000000000000000000000000000000000000000000000000000000000000000000000000000000000000000000000000000000000000000000000000000000000000000000000000000000000
310
00000000000000000000000000000000000000000000000000000000000000000000000000000000000000000000000000000000000000000000000000000000000000000000000000000000000000000000000000000000000000000000000000000000000000000000000000000000000000000000000000000000000000
310
00000000000000000000000000000000000000000000000000000000000000000000000000000000000000000000000000000000000000000000000000000000000000000000000000000000000000000000000000000000000000000000000000000000000000000000000000000000000000000000000000000000000000
310
00000000000000000000000000000000000000000000000000000000000000000000000000000000000000000000000000000000000000000000000000000000000000000000000000000000000000000000000000000000000000000000000000000000000000000000000000000000000000000000000000000000000000
310
00000000000000000000000000000000000000000000000000000000000000000000000000000000000000000000000000000000000000000000000000000000000000000000000000000000000000000000000000000000000000000000000000000000000000000000000000000000000000000000000000000000000000
310
00000000000000000000000000000000000000000000000000000000000000000000000000000000000000000000000000000000000000000000000000000000000000000000000000000000000000000000000000000000000000000000000000000000000000000000000000000000000000000000000000000000000000
310
00000000000000000000000000000000000000000000000000000000000000000000000000000000000000000000000000000000000000000000000000000000000000000000000000000000000000000000000000000000000000000000000000000000000000000000000000000000000000000000000000000000000000
310
00000000000000000000000000000000000000000000000000000000000000000000000000000000000000000000000000000000000000000000000000000000000000000000000000000000000000000000000000000000000000000000000000000000000000000000000000000000000000000000000000000000000000
310
00000000000000000000000000000000000000000000000000000000000000000000000000000000000000000000000000000000000000000000000000000000000000000000000000000000000000000000000000000000000000000000000000000000000000000000000000000000000000000000000000000000000000
310
00000000000000000000000000000000000000000000000000000000000000000000000000000000000000000000000000000000000000000000000000000000000000000000000000000000000000000000000000000000000000000000000000000000000000000000000000000000000000000000000000000000000000
310
00000000000000000000000000000000000000000000000000000000000000000000000000000000000000000000000000000000000000000000000000000000000000000000000000000000000000000000000000000000000000000000000000000000000000000000000000000000000000000000000000000000000000
310
00000000000000000000000000000000000000000000000000000000000000000000000000000000000000000000000000000000000000000000000000000000000000000000000000000000000000000000000000000000000000000000000000000000000000000000000000000000000000000000000000000000000000
310
00000000000000000000000000000000000000000000000000000000000000000000000000000000000000000000000000000000000000000000000000000000000000000000000000000000000000000000000000000000000000000000000000000000000000000000000000000000000000000000000000000000000000
310
00000000000000000000000000000000000000000000000000000000000000000000000000000000000000000000000000000000000000000000000000000000000000000000000000000000000000000000000000000000000000000000000000000000000000000000000000000000000000000000000000000000000000
310
00000000000000000000000000000000000000000000000000000000000000000000000000000000000000000000000000000000000000000000000000000000000000000000000000000000000000000000000000000000000000000000000000000000000000000000000000000000000000000000000000000000000000
310
00000000000000000000000000000000000000000000000000000000000000000000000000000000000000000000000000000000000000000000000000000000000000000000000000000000000000000000000000000000000000000000000000000000000000000000000000000000000000000000000000000000000000
310
00000000000000000000000000000000000000000000000000000000000000000000000000000000000000000000000000000000000000000000000000000000000000000000000000000000000000000000000000000000000000000000000000000000000000000000000000000000000000000000000000000000000000
310
00000000000000000000000000000000000000000000000000000000000000000000000000000000000000000000000000000000000000000000000000000000000000000000000000000000000000000000000000000000000000000000000000000000000000000000000000000000000000000000000000000000000000
310
00000000000000000000000000000000000000000000000000000000000000000000000000000000000000000000000000000000000000000000000000000000000000000000000000000000000000000000000000000000000000000000000000000000000000000000000000000000000000000000000000000000000000
310
00000000000000000000000000000000000000000000000000000000000000000000000000000000000000000000000000000000000000000000000000000000000000000000000000000000000000000000000000000000000028282828282828282828282828282800000000000000000000000000000000000000000000
310
00000000000000000000000000000000000000000000000000000000000000000000000000000000000000000000000000000000000000000000000000000000000000000000000000000000000000000000000000000000000000000000000000000000000000000000000000000000000000000000000000000000000000
310
00000000000000000000000000000000000000000000000000000000000000000000000000000000000000000000000000000000000000000000000000000000000000000000000000000000000000000000000000000000000000000000000000000000000000000000280000000000000000000000000000000000000000
310
00000000000000000000000000000000000000000000000000000000000000000000000000000000000000000000000000000000000000000000000000000000000000000000000000000000000000000000000000000000000000000000000000000000000000000000000000000000000000000000000000000000000000
310
00000000000000000000000000000000000000000000000000000000000000000000000000000000000000000000000000000000000000000000000000000000000000000000000000000000000000282828282828282828282828282800282828282828282828282828282828000000000000000000000000000000000000
310
00000000000000000000000000000000000000000000000000000000000000000000000000000000000000000000000000000000000000000000000000000000000000000000000000000000000000000000000000000000000000000000000000000000000000000000000000000000000000000000000000000000000000
310
000000000000000000000000000000000000000000000000000000000000000000000000000000000000000000000000000000000000000000000000000000000000000000000000000000000000000000280000F0F000F00000F0F00000280028F0F0F0F0F00000F0F000F0F0282800000000000000000000000000000000
310
00000000000000000000000000000000000000000000000000000000000000000000000000000000000000000000000000000000000000000000000000000000000000000000000000000000000000000000000000000000000000000000000000000000000000000000000000000000000000000000000000000000000000
310
00000000000000000000000000000000000000000000000000000000000000000000000000000000000000000000000000000000000000000000000000000000000000000000000000000000000000000000002828282828282828282828282828002828282828282828282828282828280000000000000000000000000000
310
00000000000000000000000000000000000000000000000000000000000000000000000000000000000000000000000000000000000000000000000000000000000000000000000000000000000000000000000000000000000000000000000000000000000000000000000000000000000000000000000000000000000000
310
00000000000000000000000000000000000000000000000000000000000000000000000000000000000000000000000000000000000000000000000000000000000000000000000000000000000000000000000000000000000000000000000000000000000000000000000000000000000000000000000000000000000000
310
00000000000000000000000000000000000000000000000000000000000000000000000000000000000000000000000000000000000000000000000000000000000000000000000000000000000000000000000000000000000000000000000000000000000000000000000000000000000000000000000000000000000000
310
00000000000000000000000000000000000000000000000000000000000000000000000000000000000000000000000000000000000000000000000000000000000000000000000000000000000000000000000000000000000000000000000000000000000000000000000000000000000000000000000000000000000000
310
00000000000000000000000000000000000000000000000000000000000000000000000000000000000000000000000000000000000000000000000000000000000000000000000000000000000000000000000000000000000000000000000000000000000000000000000000000000000000000000000000000000000000
310
00000000000000000000000000000000000000000000000000F0F0F0F0F0F0F0F0F0F0F0F0F0F0F0F0F0F0F0F0F0F0F0F0F0F0F0F0F0F0F0F0F0F0F0F0F0F0F0F0F0F0F0F0F0F0F0F0F0F0BEBEF0F0F0F0F0F0F0F0F0F0F0F0F0F0F0F0F0F0F0F0F0F0F0BE2828F0282828282828F0282828BEF028F0F00000000000000000
310
00000000000000000000000000000000000000000000000000000000000000000000000000000000000000000000000000000000000000000000000000000000000000000000000000000000000000000000000000000000000000000000000000000000000000000000000000000000000000000000000000000000000000
310
000000000000000000000000000000000000000000000000000000F000000000000000000000000000000000000000000000000000000000F000000000000000F0000000000000F0000000F000BEBEF0F0F0F0F0F0F0F0F0F0F0F0F0F0F0F0F0F0F0F0F0F000BE28282828282828282828282828BE002800F0000000000000
310
00000000000000000000000000000000000000000000000000000000000000000000000000000000000000000000000000000000000000000000000000000000000000000000000000000000000000000000000000000000000000000000000000000000000000000000000000000000000000000000000000000000000000
310
0000000000000000000000000000000000000000000000000000000000F000000000000000000000000000000000000000000000000000000000F000000000000000F0BEBEBEBEBEBEF0BEBEBEF000BEBEF0F0F0F0F0F0F0F0F0F0F0F0F0F0F0F0F0F0F0F0F0F000BEBEBE0000000000000000000000BEBEBEBEBE00000000
310
00000000000000000000000000000000000000000000000000000000000000000000000000000000000000000000000000000000000000000000000000000000000000000000000000000000000000000000000000000000000000000000000000000000000000000000000000000000000000000000000000000000000000
310
00000000000000000000000000000000000000000000000000000000000000F000000000000000000000000000000000000000000000000000000000F000000000000000BEBEBEBEBEBEBEF0BEBEBEF0F0BEF0BEBEBEF0BEF0F0F0BEF0F0F0F0BEF0F0F0F0BEF0F0F0F0BEBEBEF0F0F0F0F0F0F0F0F0F0F0BEBEBEBEF00000
310
00000000000000000000000000000000000000000000000000000000000000000000000000000000000000000000000000000000000000000000000000000000000000000000000000000000000000000000000000000000000000000000000000000000000000000000000000000000000000000000000000000000000000
310
000000000000000000000000000000000000000000000000000000000000000000F000002D2D2D2D2D2D2D2D2D000000002D2D2D2D2D2D2D2D2D00000000F0BEBEBEBEBEBEBEF0BEBEBEBE0000F0000000F0BEBEBEBEBEBEBEBE2D0000BEBEBEBEBEBEBEBEBEBEBEBEBEBEBEBE0000002828282828282800000000000000F0
310
00000000000000000000000000000000000000000000000000000000000000000000000000000000000000000000000000000000000000000000000000000000000000000000000000000000000000000000000000000000000000000000000000000000000000000000000000000000000000000000000000000000000000
310
0000000000000000000000000000000000000000000000000000000000000000000000F0000000DCDC00DCDCDCDC000000000000DCDCDCDCDCDCDC0000000000F0BEBEBEBEBEBEBEF0BEBEBEBEBEF0F0BEBEBEF0BEBEBEBEBE0000BE002D00BEBEBEBEBEBEBEBEBEBEBEBEBEBEBEBEBEBE0028002828282828000000000000
310
00F00000000000000000000000000000000000000000000000000000000000000000000000000000000000000000000000000000000000000000000000000000000000000000000000000000000000000000000000000000000000000000000000000000000000000000000000000000000000000000000000000000000000
310
00000000000000000000000000000000000000000000000000000000000000000000000000F000002D0000000000000000000000DCDC000000000000000000000000F0F0F0BEF0BEBEF0F0F0BEBEBEBEF0F0BEBEBEF0BEBEBEBEF0F0F0BE00002DBE00BEBEBEBE00BEBEBEBE00BEBEBEBEBEBE2828282828BEBEBE282828BE
310
BEBE28BE000000000000000000000000000000000000000000000000000000000000000000000000000000000000000000000000000000000000000000000000000000000000000000000000000000000000000000000000000000000000000000000000000000000000000000000000000000000000000000000000000000
310
000000000000000000000000000000000000000000000000000000000000000000000000000000F000DCDC2D2D000000000000000000DCDC2D0000BE0000000000000000F0F0BEBEBEBEBEF0F0F0BEBEBEBEBEF0BEBEBEBEBEF0F0BEBEBEBEBEBEBEBEBEBEBEBEBEBEBEBEBEBEBEBEBEBEBEBEBEBE28282828282828282828
310
2828282828F000000000000000000000000000000000000000000000000000000000000000000000000000000000000000000000000000000000000000000000000000000000000000000000000000000000000000000000000000000000000000000000000000000000000000000000000000000000000000000000000000
310
0000000000000000000000000000000000000000000000000000000000000000000000000000000000F00000DCDCDCDC28BE00000000000000DCDC2D2DBE2800000000000000F0F0BEBEBEBEBEBEF0BEBEBEBEBEBEF0F0F0F0F0BEF0BEBEBEBEBEBEBEBEBEBEF0BEBEBEBEF0BEBEBEBEF0BEBEBEBEBEBEBEF0F0F0BEF0F0F0
310
F0F0F0F0F0F0F0F00000000000000000000000000000000000000000000000000000000000000000000000000000000000000000000000000000000000000000000000000000000000000000000000000000000000000000000000000000000000000000000000000000000000000000000000000000000000000000000000
310
00000000000000000000000000000000000000000000000000000000000000000000000000000000000000F0000000DC2DDC2DBEBEDCDC00000000002D282DBE28BEDC2D00000000F0000000BEBE0000F00000BEBE0000F0BEBEBEF0BEBEBEBEBEBEBEBE0000BE000000BE0000BEBE0000BE00BEBEBEBEBEBEBEBE00BEBE00
310
00BEBE00BEBE000000F0000000000000000000000000000000000000000000000000000000000000000000000000000000000000000000000000000000000000000000000000000000000000000000000000000000000000000000000000000000000000000000000000000000000000000000000000000000000000000000
310
000000000000000000000000000000000000000000000000000000000000000000000000000000000000000000F0000000002D2D28282D2D2D000000002D2D2828282D2DDC2D00000000F0F0F0F0BEF0F0F0F0F0F0F0BEF0F0F0F0BEBEF0F0F0BEF0F0F0F0F0F0F0BEF0F0F0F0F0F0F0F0F0F0BEF0F0F0F0BEF0F0BEF0F0F0
310
BEF0F0F0F0F0F0F0F0F0F0F000000000000000000000000000000000000000000000000000000000000000000000000000000000000000000000000000000000000000000000000000000000000000000000000000000000000000000000000000000000000000000000000000000000000000000000000000000000000000
310
0000000000000000000000000000000000000000000000000000000000000000000000000000000000000000000000F0000000DCDC0028282D2D2D000000002D2D2D28282D2D2D2D0000000000000000000000000000000000000000000000F0BEBEBEBEBEBEBEBEBEBEBEBEBEBEBEBEBEBEBEBEBEBEBEBEBEBEBEBEBEBEBE
310
BEBEBEBEBEBEBEBEBEBEBEBEBEBE0000000000000000000000000000000000000000000000000000000000000000000000000000000000000000000000000000000000000000000000000000000000000000000000000000000000000000000000000000000000000000000000000000000000000000000000000000000000
310
00000000000000000000000000000000000000000000000000000000000000000000000000000000000000000000000000F0000000DCDC002D2D00002D000000DCDC2D002DBE2D00002D0000000000000000000000000000000000000000000000000000000000000000000000000000000000000000000000000000000000
310
002828282828282828282828282828F0000000000000000000000000000000000000000000000000000000000000000000000000000000000000000000000000000000000000000000000000000000000000000000000000000000000000000000000000000000000000000000000000000000000000000000000000000000
310
000000000000000000000000000000000000000000000000000000000000000000000000000000000000000000000000000000F000000000002D2D2DDC0000000000000000002D2DDC2D0000000000000000000000000000000000000000000000000000000000000000000000000000000000000000000000000000000000
310
00000028F0F0F0F0F0F0F0F0F0F0F0F028F000000000000000000000000000000000000000000000000000000000000000000000000000000000000000000000000000000000000000000000000000000000000000000000000000000000000000000000000000000000000000000000000000000000000000000000000000
310
0000000000000000000000000000000000000000000000000000000000000000000000000000000000000000000000000000000000F00000000000000000DC0000000000000000000000DCDC000000000000000000000000000000000000000000000000000000000000000000000000000000000000000000000000000000
310
000000000028F0F0F0F0F0F0F0F0F0F0F0F028F00000000000000000000000000000000000000000000000000000000000000000000000000000000000000000000000000000000000000000000000000000000000000000000000000000000000000000000000000000000000000000000000000000000000000000000000
310
00000000000000000000000000000000000000000000000000000000000000000000000000000000000000000000000000000000000000F00000000000000000000000000000000000000000000000000000000000000000000000000000000000000000000000000000000000000000000000000000000000000000000000
310
000000000000002828282828282828282828282828F0000000000000000000000000000000000000000000000000000000000000000000000000000000000000000000000000000000000000000000000000000000000000000000000000000000000000000000000000000000000000000000000000000000000000000000
310
000000000000000000000000000000000000000000000000000000000000000000000000000000000000000000000000000000000000000000F0000000000000000000000000000000000000000000000000000000000000000000000000000000000000000000000000000000000000000000000000000000000000000000
310
0000000000000000000000000000000000000000000000F000000000000000000000000000000000000000000000000000000000000000000000000000000000000000000000000000000000000000000000000000000000000000000000000000000000000000000000000000000000000000000000000000000000000000
310
0000000000000000000000000000000000000000000000000000000000000000000000000000000000000000000000000000000000000000000000F000000000000000000000000000000000000000000000000000000000000000000000000000000000000000000000000000000000000000000000000000000000000000
310
00000000000000000000000000000000000000000000000000F00000000000000000000000000000000000000000000000000000000000000000000000000000000000000000000000000000000000000000000000000000000000000000000000000000000000000000000000000000000000000000000000000000000000
310
00000000000000000000000000000000000000000000000000000000000000000000000000000000000000000000000000000000000000000000000000F00000000000000000000000000000000000000000000000000000000000000000000000000000000000000000000000000000000000000000000000000000000000
310
000000000000000000000000000000000000000000000000000000F0000000000000000000000000000000000000000000000000000000000000000000000000000000000000000000000000000000000000000000000000000000000000000000000000000000000000000000000000000000000000000000000000000000
310
000000000000000000000000000000000000000000000000000000000000000000000000000000000000000000000000000000000000000000000000000000F0000000000000000000000000000000000000000000000000000000000000000000000000000000000000000000000000000000000000000000000000000000
310
0000000000000000000000000000000000000000000000000000000000F000000000000000000000000000000000000000000000000000000000000000000000000000000000000000000000000000000000000000000000000000000000000000000000000000000000000000000000000000000000000000000000000000
310
0000000000000000000000000000000000000000000000000000000000000000000000000000000000000000000000000000000000000000000000000000000000F0000000000000000000000000002D2D2D2D2D2D2D2D2D2D2D2D2D2D2D2D2D2D2D2D00000000000000000000000000000000000000000000000000000000
310
2D2D2D2D2D2D2D2D2D2D2D2D2D2D2D2D2D2D00000000000000000000000000F00000000000000000000000000000000000000000000000000000000000000000000000000000000000000000000000000000000000000000000000000000000000000000000000000000000000000000000000000000000000000000000000
310
00000000000000000000000000000000000000000000000000000000000000000000000000000000000000000000000000000000000000000000000000000000000000F0000000000000000000000000002D0000000000000000DCDC00000000000000002D0000000000000000000000000000000000000000000000000000
310
00002D00000000000000DCDCDC0000000000002D00000000000000000000000000F0000000000000000000000000000000000000000000000000000000000000000000000000000000000000000000000000000000000000000000000000000000000000000000000000000000000000000000000000000000000000000000
310
000000000000000000000000000000000000000000000000000000000000000000000000000000000000000000000000000000000000000000000000000000000000000000F0000000000000000000000000002D00002D2D2D2D2D2D2D2D2D2D2D2D2D2D00002DDC2D2D2D2D00000000000000000000000000000000000000
310
000000002D002D2D2D2D2D2D2D2D2D2D2D2D2D2D002D00000000000000000000000000F000000000000000000000000000000000000000000000000000000000000000000000000000000000000000000000000000000000000000000000000000000000000000000000000000000000000000000000000000000000000000
310
0000000000000000000000000000000000000000000000000000000000000000000000000000000000000000000000000000000000000000000000000000000000000000000000F0000000000000000000000000002D00002D0000000000DCDC00000000002D00002D2DDCDCDCDC0000000000000000000000000000000000
310
0000000000002D002D0000000000DCDC00000000002D002D00000000000000000000000000F00000000000000000000000000000000000000000000000000000000000000000000000000000000000000000000000000000000000000000000000000000000000000000000000000000000000000000000000000000000000
310
00000000000000000000000000000000000000000000000000000000000000000000000000000000000000000000000000000000000000000000000000000000000000000000000000F0000000000000000000000000002D00002D0000000000000000000000002D002D2D0000000000000000000000000000000000000000
310
00000000000000002D002D0000000000000000000000002D002D00000000000000000000000000F0000000000000000000000000000000000000000000000000000000000000000000000000000000000000000000000000000000000000000000000000000000000000000000000000000000000000000000000000000000
310
000000000000000000000000000000000000000000000000000000000000000000000000000000000000000000000000000000000000000000000000000000000000000000000000000000F0000000000000000000000000002D0000BE000000000000000000000000BE2D002D000000000000000000000000000000000000
310
000000000000000000002D002D000000000000BE00000000002D002D00000000000000000000000000F000000000000000000000000000000000000000000000000000000000000000000000000000000000000000000000000000000000000000000000000000000000000000000000000000000000000000000000000000
310
0000000000000000000000000000000000000000000000000000000000000000000000000000000000000000000000000000000000000000000000000000000000000000000000000000000000F000000000000000000000000000282828BE2828000000BE0000000028282D2D28282DDC2D2D000000000000000000000000
310
0000002D2D2D2D2D2D2D2D2D282828282828282828282828282828BE282800000000000000000000000000F00000000000000000000000000000000000000000000000000000000000000000000000000000000000000000000000000000000000000000000000000000000000000000000000000000000000000000000000
310
00000000000000000000000000000000000000000000000000000000000000000000000000000000000000000000000000000000000000000000000000000000000000000000000000000000000000F000000000000000000000000000280000BE0028282828282828282800282828002800DC2D0000000000000000000000
310
00000000002D002D002D000000002800BE000000000000BE0000000000BE002800000000000000000000000000F0000000000000000000000000000000000000000000000000000000000000000000000000000000000000000000000000000000000000000000000000000000000000000000000000000000000000000000
310
000000000000000000000000000000000000000000000000000000000000000000000000000000000000000000000000000000000000000000000000000000000000000000000000000000000000000000F000000000000000000000000000282828BE282828002828282800282828282828282DDC2D2D0000000000000000
310
000000000000002D002D002D00000000282828282828282828282828282828BE282800000000000000000000000000F000000000000000000000000000000000000000000000000000000000000000000000000000000000000000000000000000000000000000000000000000000000000000000000000000000000000000
310
0000000000000000000000000000000000000000000000000000000000000000000000000000000000000000000000000000000000000000000000000000000000000000000000000000000000000000000000F000000000000000000000000000280000BE00282800BE2828BE00282800BE00280000000000000000000000
310
0000000000000000002D002D002D000000000000BE282828000000BE0000002800BE000000000000000000000000000000F00000000000000000000000000000000000000000000000000000000000000000000000000000000000000000000000000000000000000000000000000000000000000000000000000000000000
310
00000000000000000000000000000000000000000000000000000000000000000000000000000000000000000000000000000000000000000000000000000000000000000000000000000000000000000000000000F00000000000000000000000002828000000002828002828282800282800000000280000000000000000
310
00000000000000000000002D002DDCDC0000000000000028002800002828000000280028000000000000000000000000000000F0000000000000000000000000000000000000000000000000000000000000000000000000000000000000000000000000000000000000000000000000000000000000000000000000000000
310
000000000000000000000000000000000000000000000000000000000000000000000000000000000000000000000000000000000000000000000000000000000000000000000000000000000000000000000000000000F000000000000000000000000028280000000028280028BE00280028280000000028000000000000
310
000000000000000000000000002D002DDCDC00000000000000002828282828BE282800282800000000000000000000000000000000F000000000000000000000000000000000000000000000000000000000000000000000000000000000000000000000000000000000000000000000000000000000000000000000000000
310
0000000000000000000000000000000000000000000000000000000000000000000000000000000000000000000000000000000000000000000000000000000000000000000000000000000000000000000000000000000000F000000000000000000000000028280000000028280028BE0028002828000000002828000000
310
0000000000000000000000000000002D002D002D0000000000000000282828282828282828282800000000000000000000000000000000F00000000000000000000000000000000000000000000000000000000000000000000000000000000000000000000000000000000000000000000000000000000000000000000000
310
00000000000000000000000000000000000000000000000000000000000000000000000000000000000000000000000000000000000000000000000000000000000000000000000000000000000000000000000000000000000000F00000000000000000000000002828000000002828002828282800282800000000282828
310
28282828280000000000000000000000002D002D002D0000000000000028282828002828002828280000000000000000000000000000000000F0000000000000000000000000000000000000000000000000000000000000000000000000000000000000000000000000000000000000000000000000000000000000000000
310
000000000000000000000000000000000000000000000000000000000000000000000000000000000000000000000000000000000000000000000000000000000000000000000000000000000000000000000000000000000000000000F000000000000000000000000028BEBEBEBE2828282828BE282828282828BEBEBE28
310
2828BEBEBE28282D2D2D0000000000000000002DDCDC002D2D2D2D2D2D2D2D282828BEBE282828BEBE282828000000000000000000000000000000F000000000000000000000000000000000000000000000000000000000000000000000000000000000000000000000000000000000000000000000000000000000000000
310
0000000000000000000000000000000000000000000000000000000000000000000000000000000000000000000000000000000000000000000000000000000000000000000000000000000000000000000000000000000000000000000000F000000000000000000000000028282828280028282828BE0028282828002828
310
282828280000002828DCDC000000000000000000002DDCDC002D0000000000000028282828002828282828280028000000000000000000000000000000F00000000000000000000000000000000000000000000000000000000000000000000000000000000000000000000000000000000000000000000000000000000000
310
00000000000000000000000000000000000000000000000000000000000000000000000000000000000000000000000000000000000000000000000000000000000000000000000000000000000000000000000000000000000000000000000000F00000000000000000000000002828000028280028282828282828280028
310
280028282828282828282800DC000000000000000000002DDCDC002D000000000000002828282800282800282828BE28BE0000000000000000000000000000F0000000000000000000000000000000000000000000000000000000000000000000000000000000000000000000000000000000000000000000000000000000
310
000000000000000000000000000000000000000000000000000000000000000000000000000000000000000000000000000000000000000000000000000000000000000000000000000000000000000000000000000000000000000000000000000000F0000000000000000000000000282800282828282828282828280028
310
280028280028282D000000002D0000000000000000000000002D002D002D0000000000000000282828282828282828280028000000000000000000000000000000F000000000000000000000000000000000000000000000000000000000000000000000000000000000000000000000000000000000000000000000000000
310
0000000000000000000000000000000000000000000000000000000000000000000000000000000000000000000000000000000000000000000000000000000000000000000000000000000000000000000000000000000000000000000000000000000000F000000000000000000000000028282828282800002800BE0000
310
2800002828280028002D000000002D0000000000000000000000002D002DDC2D0000000000000000282828282828282800280028000000000000000000000000000000F00000000000000000000000000000000000000000000000000000000000000000000000000000000000000000000000000000000000000000000000
310
00000000000000000000000000000000000000000000000000000000000000000000000000000000000000000000000000000000000000000000000000000000000000000000000000000000000000000000000000000000000000000000000000000000000000F00000000000000000000000002D282800280000002800BE
310
00002800000028002828002D2DDCDC2D2D0000000000000000000000DC2D002DDCDC00000000000000282828000000BE000000280028000000000000000000000000000000F0000000000000000000000000000000000000000000000000000000000000000000000000000000000000000000000000000000000000000000
310
000000000000000000000000000000000000000000000000000000000000000000000000000000000000000000000000000000000000000000000000000000000000000000000000000000000000000000000000000000000000000000000000000000000000000000F00000000000000000000000002D2828280000002828
310
282828282828000028282828000000DCDC002D0000000000000000000000DC2D002DDCDC00000000000028282828000000BE000000280028280000000000000000000000000000F000000000000000000000000000000000000000000000000000000000000000000000000000000000000000000000000000000000000000
310
0000000000000000000000000000000000000000000000000000000000000000000000000000000000000000000000000000000000000000000000000000000000000000000000000000000000000000000000000000000000000000000000000000000000000000000000F00000000000000000000000002D280028000000
310
280000BE000000280000002800280000000000002D0000000000000000000000DC2D002D002D00000000000028282828000000BE000000280028280000000000000000000000000000F00000000000000000000000000000000000000000000000000000000000000000000000000000000000000000000000000000000000
310
00000000000000000000000000000000000000000000000000000000000000000000000000000000000000000000000000000000000000000000000000000000000000000000000000000000000000000000000000000000000000000000000000000000000000000000000000F00000000000000000000000002D28282828
310
2828280000BE000000282828282828280000000000002D0000000000000000000000002D002D002D00000000000028282828000000BE000000280028282828282828280000000000000000F0000000000000000000000000000000000000000000000000000000000000000000000000000000000000000000000000000000
310
000000000000000000000000000000000000000000000000000000000000000000000000000000000000000000000000000000000000000000000000000000000000000000000000000000000000000000000000000000000000000000000000000000000000000000000000000000F00000000000000000000000002D2828
310
00000000280000BE000000280000000028280000000000002D0000000000000000000000002D002D002D00000000000028282828000000BE000000280028282800000000280000000000000000F000000000000000000000000000000000000000000000000000000000000000000000000000000000000000000000000000
310
0000000000000000000000000000000000000000000000000000000000000000000000000000000000000000000000000000000000000000000000000000000000000000000000000000000000000000000000000000000000000000000000000000000000000000000000000000000000F000000000000000000000000028
310
BEBEBEBEBEBEBEBEBEBEBEBEBEBEBEBEBEBEBE28BE00000000002D0000000000000000000000002D002D2D2D2D2D2D2D2D2DBEBEBEBEBEBEBEBEBEBEBEBEBE2828BEBEBEBEBEBEBE2D2D2D00000000F00000000000000000000000000000000000000000000000000000000000000000000000000000000000000000000000
310
00000000000000000000000000000000000000000000000000000000000000000000000000000000000000000000000000000000000000000000000000000000000000000000000000000000000000000000000000000000000000000000000000000000000000000000000000000000000000F00000000000000000000000
310
002D282800000000280000BE000000280000002828280000000000002D0000000000000000000000002D002D000000000000000028282828000000BE000000280028282D28282828280000DCDC00000000F0000000000000000000000000000000000000000000000000000000000000000000000000000000000000000000
310
000000000000000000000000000000000000000000000000000000000000000000000000000000000000000000000000000000000000000000000000000000000000000000000000000000000000000000000000000000000000000000000000000000000000000000000000000000000000000000F0000000000000000000
310
0000002D282828282828280000BE000000282828282800280000000000002D0000000000000000000000002D002D000000000000000028282828000000BE000000280028282D282828282D0000000000000000F000000000000000000000000000000000000000000000000000000000000000000000000000000000000000
310
0000000000000000000000000000000000000000000000000000000000000000000000000000000000000000000000000000000000000000000000000000000000000000000000000000000000000000000000000000000000000000000000000000000000000000000000000000000000000000000000F000000000000000
310
00000000002D28002800000028282828282828280000002800280000000000002D0000000000000000000000002D002D000000000000000028282828000000BE000000280028282D000000002D0000000000000000F00000000000000000000000000000000000000000000000000000000000000000000000000000000000
310
00000000000000000000000000000000000000000000000000000000000000000000000000000000000000000000000000000000000000000000000000000000000000000000000000000000000000000000000000000000000000000000000000000000000000000000000000000000000000000000000000F00000000000
310
000000000000002D28282828000028282828282828280000282828280000000000002D0000000000000000000000002D002D00000000000000002D282828000000BE000000280028002D2D2D2D2D2D0000000000000000F0000000000000000000000000000000000000000000000000000000000000000000000000000000
310
000000000000000000000000000000000000000000000000000000000000000000000000000000000000000000000000000000000000000000000000000000000000000000000000000000000000000000000000000000000000000000000000000000000000000000000000000000000000000000000000000000F0000000
310
0000000000000000002D28282828280028280028282828000028282828280000000000002D0000000000000000000000002DDCDC00000000000000002D282828000000BE000000280028002D00DCDC002D0000000000000000F000000000000000000000000000000000000000000000000000000000000000000000000000
310
0000000000000000000000000000000000000000000000000000000000000000000000000000000000000000000000000000000000000000000000000000000000000000000000000000000000000000000000000000000000000000000000000000000000000000000000000000000000000000000000000000000000F000
310
00000000000000000000002D28002800282828282828282828002828002800280000000000002D0000000000000000000000002DDCDC00000000000000002D282828000000BE0000002800280000000000002D0000000000000000F00000000000000000000000000000000000000000000000000000000000000000000000
310
00000000000000000000000000000000000000000000000000000000000000000000000000000000000000000000000000000000000000000000000000000000000000000000000000000000000000000000000000000000000000000000000000000000000000000000000000000000000000000000000000000000000000
310
F00000000000000000000000002D280000282828282800BE002828282828280000280000000000002D0000000000000000000000002D002D00000000000000002D002828000000BE0000002800280000000000002D0000000000000000F0000000000000000000000000000000000000000000000000000000000000000000
310
00000000000000000000000000000000000000000000000000000000000000000000000000000000000000000000000000000000000000000000000000000000000000000000000000000000000000000000000000000000000000000000000000000000000000000000000000000000000000000000000000000000000000
310
0000F00000000000000000000000002D28280000282800282828282828002828000028000000000000002D0000000000000000000000002D002D00000000000000002D002828000000BE0000BEBEBE28BE00000000002D0000000000000000F000000000000000000000000000000000000000000000000000000000000000
310
00000000000000000000000000000000000000000000000000000000000000000000000000000000000000000000000000000000000000000000000000000000000000000000000000000000000000000000000000000000000000000000000000000000000000000000000000000000000000000000000000000000000000
310
00000000F00000000000000000000000002D00002828282828282828282828282828282800000000000000002D0000000000000000000000002D002D00000000000000002D002828000000BE0000002828280000000000002D0000000000000000F00000000000000000000000000000000000000000000000000000000000
310
00000000000000000000000000000000000000000000000000000000000000000000000000000000000000000000000000000000000000000000000000000000000000000000000000000000000000000000000000000000000000000000000000000000000000000000000000000000000000000000000000000000000000
310
000000000000F00000000000000000000000002D00000000000000282828282828000000000000000000000000002D0000000000000000000000002D002D00000000000000002D002828282828282828282800000000000000002D0000000000000000F0000000000000000000000000000000000000000000000000000000
310
00000000000000000000000000000000000000000000000000000000000000000000000000000000000000000000000000000000000000000000000000000000000000000000000000000000000000000000000000000000000000000000000000000000000000000000000000000000000000000000000000000000000000
310
0000000000000000F00000000000000000000000002D00000000000000002828282800000000000000000000000000002D0000000000000000000000002D2D2D2D2D2D2D2D2D2D2D2D2D2D2D2D2828282800000000000000000000002D0000000000000000F000000000000000000000000000000000000000000000000000
310
00000000000000000000000000000000000000000000000000000000000000000000000000000000000000000000000000000000000000000000000000000000000000000000000000000000000000000000000000000000000000000000000000000000000000000000000000000000000000000000000000000000000000
310
00000000000000000000F00000000000000000000000002D0000000000000000002D000000000000000000000000000000002D00000000000000000000000000000000000000000000002D0000000000002D0000000000000000000000002D0000000000000000F00000000000000000000000000000000000000000000000
310
00000000000000000000000000000000000000000000000000000000000000000000000000000000000000000000000000000000000000000000000000000000000000000000000000000000000000000000000000000000000000000000000000000000000000000000000000000000000000000000000000000000000000
310
000000000000000000000000F00000000000000000000000002D2D00000000000000002D2D00000000000000000000000000002D2D00000000000000000000000000000000000000000000002D0000000000002D0000000000000000000000002D0000000000000000F0000000000000000000000000000000000000000000
310
00000000000000000000000000000000000000000000000000000000000000000000000000000000000000000000000000000000000000000000000000000000000000000000000000000000000000000000000000000000000000000000000000000000000000000000000000000000000000000000000000000000000000
310
0000000000000000000000000000F00000000000000000000000002D2D2D2D2DDCDC2D2D2D2D2D2D2D2D2D2D2DDCDC2D2D2D2D2D2D2D2D00000000000000000000000000000000000000000000002D2D2DDCDC2D2D2D2D2D2D2D2DDCDC2D2D2D2D2D2D0000000000000000F000000000000000000000000000000000000000
310
00000000000000000000000000000000000000000000000000000000000000000000000000000000000000000000000000000000000000000000000000000000000000000000000000000000000000000000000000000000000000000000000000000000000000000000000000000000000000000000000000000000000000
310
00000000000000000000000000000000F00000000000000000000000002D00000000DCDC0000000000000000000000DCDC000000000000002D00000000000000000000000000000000000000000000002D0000DCDC0000000000000000DCDC00000000002D0000000000000000F00000000000000000000000000000000000
310
00000000000000000000000000000000000000000000000000000000000000000000000000000000000000000000000000000000000000000000000000000000000000000000000000000000000000000000000000000000000000000000000000000000000000000000000000000000000000000000000000000000000000
310
000000000000000000000000000000000000F00000000000000000000000002D2D2D2D2D2D2D2D2D2D2D2D2DDCDC2D2D2D2D2D2D2D2D2D2D2D2D2D00000000000000000000000000000000000000000000002D2D2D2D2D2D2D2D2DDCDCDC2D2D2D2D2D2D2D2D2D0000000000000000F0000000000000000000000000000000
310
00000000000000000000000000000000000000000000000000000000000000000000000000000000000000000000000000000000000000000000000000000000000000000000000000000000000000000000000000000000000000000000000000000000000000000000000000000000000000000000000000000000000000
310
0000000000000000000000000000000000000000F000000000000000000000000000000000000000000000000000DCDC000000000000000000000000000000000000000000000000000000000000000000000000000000000000000000DCDCDC0000000000000000000000000000000000F000000000000000000000000000
310
00000000000000000000000000000000000000000000000000000000000000000000000000000000000000000000000000000000000000000000000000000000000000000000000000000000000000000000000000000000000000000000000000000000000000000000000000000000000000000000000000000000000000
310
00000000000000000000000000000000000000000000F00000000000000000000000000000000000000000000000000000000000000000000000000000000000000000000000000000000000000000000000000000000000000000000000000000000000000000000000000000000000000000F00000000000000000000000
310
00000000000000000000000000000000000000000000000000000000000000000000000000000000000000000000000000000000000000000000000000000000000000000000000000000000000000000000000000000000000000000000000000000000000000000000000000000000000000000000000000000000000000
310
000000000000000000000000000000000000000000000000F00000000000000000000000000000000000000000000000000000000000000000000000000000000000000000000000000000000000000000000000000000000000000000000000000000000000000000000000000000000000000000F0000000000000000000
310
00000000000000000000000000000000000000000000000000000000000000000000000000000000000000000000000000000000000000000000000000000000000000000000000000000000000000000000000000000000000000000000000000000000000000000000000000000000000000000000000000000000000000
310
0000000000000000000000000000000000000000000000000000F00000000000000000000000000000000000000000000000000000000000000000000000000000000000000000000000000000000000000000000000000000000000000000000000000000000000000000000000000000000000000000F000000000000000
310
00000000000000000000000000000000000000000000000000000000000000000000000000000000000000000000000000000000000000000000000000000000000000000000000000000000000000000000000000000000000000000000000000000000000000000000000000000000000000000000000000000000000000
310
00000000000000000000000000000000000000000000000000000000F00000000000000000000000000000000000000000000000000000000000000000000000000000000000000000000000000000000000000000000000000000000000000000000000000000000000000000000000000000000000000000F00000000000
310
00000000000000000000000000000000000000000000000000000000000000000000000000000000000000000000000000000000000000000000000000000000000000000000000000000000000000000000000000000000000000000000000000000000000000000000000000000000000000000000000000000000000000
310
000000000000000000000000000000000000000000000000000000000000F00000000000000000000000000000000000000000000000000000000000000000000000000000000000000000000000000000000000000000000000000000000000000000000000000000000000000000000000000000000000000000F0000000
310
00000000000000000000000000000000000000000000000000000000000000000000000000000000000000000000000000000000000000000000000000000000000000000000000000000000000000000000000000000000000000000000000000000000000000000000000000000000000000000000000000000000000000
310
0000000000000000000000000000000000000000000000000000000000000000F0F0F0F0F0F0F0F0F0F0F0F0F0F0F0F0F0F0F0F0F0F0F0F0F0F0F0F0F0F0F0F0F0F0F0F0F0F0F0F0F0F0F0F0F0F0F0F0F0F0F0F0F0F0F0F0F0F0F0F0F0F0F0F0F0F0F0F0F0F0F0F0F0F0F0F0F0F0F0F0F0F0F0F0F0F0F0F0F0F0F0F0F0F000
310
00000000000000000000000000000000000000000000000000000000000000000000000000000000000000000000000000000000000000000000000000000000000000000000000000000000000000000000000000000000000000000000000000000000000000000000000000000000000000000000000000000000000000
310
00000000000000000000000000000000000000000000000000000000000000000000000000000000000000000000000000000000000000000000000000000000000000000000000000000000000000000000000000000000000000000000000000000000000000000000000000000000000000000000000000000000000000
310
00000000000000000000000000000000000000000000000000000000000000000000000000000000000000000000000000000000000000000000000000000000000000000000000000000000000000000000000000000000000000000000000000000000000000000000000000000000000000000000000000000000000000
310
00000000000000000000000000000000000000000000000000000000000000000000000000000000000000000000000000000000000000000000000000000000000000000000000000000000000000000000000000000000000000000000000000000000000000000000000000000000000000000000000000000000000000
310
00000000000000000000000000000000000000000000000000000000000000000000000000000000000000000000000000000000000000000000000000000000000000000000000000000000000000000000000000000000000000000000000000000000000000000000000000000000000000000000000000000000000000
310
00000000000000000000000000000000000000000000000000000000000000000000000000000000000000000000000000000000000000000000000000000000000000000000000000000000000000000000000000000000000000000000000000000000000000000000000000000000000000000000000000000000000000
310
00000000000000000000000000000000000000000000000000000000000000000000000000000000000000000000000000000000000000000000000000000000000000000000000000000000000000000000000000000000000000000000000000000000000000000000000000000000000000000000000000000000000000
310
00000000000000000000000000000000000000000000000000000000000000000000000000000000000000000000000000000000000000000000000000000000000000000000000000000000000000000000000000000000000000000000000000000000000000000000000000000000000000000000000000000000000000
310
00000000000000000000000000000000000000000000000000000000000000000000000000000000000000000000000000000000000000000000000000000000000000000000000000000000000000000000000000000000000000000000000000000000000000000000000000000000000000000000000000000000000000
310
00000000000000000000000000000000000000000000000000000000000000000000000000000000000000000000000000000000000000000000000000000000000000000000000000000000000000000000000000000000000000000000000000000000000000000000000000000000000000000000000000000000000000
310
00000000000000000000000000000000000000000000000000000000000000000000000000000000000000000000000000000000000000000000000000000000000000000000000000000000000000000000000000000000000000000000000000000000000000000000000000000000000000000000000000000000000000
310
00000000000000000000000000000000000000000000000000000000000000000000000000000000000000000000000000000000000000000000282828282828280000000000002828282828282800000000000000000000000000000000000000000000000000000000000000000000000000000000000000000000000000
310
00000000000000000000000000000000000000000000000000000000000000000000000000000000000000000000000000000000000000000000000000000000000000000000000000000000000000000000000000000000000000000000000000000000000000000000000000000000000000000000000000000000000000
310
000000000000000000000000000000000000000000000000000000000000000000000000000000000000000000000000000000000000000000000000280000BE000028000000000000280000BE0000280000000000000000000000000000000000000000000000000000000000000000000000000000000000000000000000
310
00000000000000000000000000000000000000000000000000000000000000000000000000000000000000000000000000000000000000000000000000000000000000000000000000000000000000000000000000000000000000000000000000000000000000000000000000000000000000000000000000000000000000
310
00000000000000000000000000000000000000000000000000000000000000000000000000000000000000000000000000000000000000000000000000002800282800002828282828282828000028280028000000000000000000000000000000000000000000000000000000000000000000000000000000000000000000
310
00000000000000000000000000000000000000000000000000000000000000000000000000000000000000000000000000000000000000000000000000000000000000000000000000000000000000000000000000000000000000000000000000000000000000000000000000000000000000000000000000000000000000
310
0000000000000000000000000000000000000000000000000000000000000000000000000000000000000000000000000000000000000000000000000000000028BE2828BE28282828282828282828BE2828BE2800000000000000000000000000000000000000000000000000000000000000000000000000000000000000
310
00000000000000000000000000000000000000000000000000000000000000000000000000000000000000000000000000000000000000000000000000000000000000000000000000000000000000000000000000000000000000000000000000000000000000000000000000000000000000000000000000000000000000
310
000000000000000000000000000000000000000000000000000000000000000000000000000000000000000000000000000000000000000000000000000000000000282828BE282828282828282828282828BE2828280000000000000000000000000000000000000000000000000000000000000000000000000000000000
310
00000000000000000000000000000000000000000000000000000000000000000000000000000000000000000000000000000000000000000000000000000000000000000000000000000000000000000000000000000000000000000000000000000000000000000000000000000000000000000000000000000000000000
310
0000000000000000000000000000000000000000000000000000000000000000000000000000000000000000000000000000000000000000000000000000000000000028282828282828282828BE28282828282828282828000000000000000000000000000000000000000000000000000000000000000000000000000000
310
00000000000000000000000000000000000000000000000000000000000000000000000000000000000000000000000000000000000000000000000000000000000000000000000000000000000000000000000000000000000000000000000000000000000000000000000000000000000000000000000000000000000000
310
00000000000000000000000000000000000000000000000000000000000000000000000000000000000000000000000000000000000000000000000000000000000000000028000000000000000000BE0000000000000000002828000000000000000000000000000000000000000000000000000000000000000000000000
310
00000000000000000000000000000000000000000000000000000000000000000000000000000000000000000000000000000000000000000000000000000000000000000000000000000000000000000000000000000000000000000000000000000000000000000000000000000000000000000000000000000000000000
310
00000000000000000000000000000000000000000000000000000000000000000000000000000000000000000000000000000000000000000000000000000000000000000000002800000000000000002828282800000000000000282828000000000000000000000000000000000000000000000000000000000000000000
310
00000000000000000000000000000000000000000000000000000000000000000000000000000000000000000000000000000000000000000000000000000000000000000000000000000000000000000000000000000000000000000000000000000000000000000000000000000000000000000000000000000000000000
310
00000000000000000000000000000000000000000000000000000000000000000000000000000000000000000000000000000000000000000000000000000000000000000000000000280000000000000000282828280000000000000028282828282828280000000000000000000000000000000000000000000000000000
310
00000000000000000000000000000000000000000000000000000000000000000000000000000000000000000000000000000000000000000000000000000000000000000000000000000000000000000000000000000000000000000000000000000000000000000000000000000000000000000000000000000000000000
310
000000000000000000000000000000000000
  0
XRECORD
  5
4F7
102
{ACAD_REACTORS
330
4F6
102
}
330
4F6
100
AcDbXrecord
280
     1
102
MATERIAL
148
0.0
149
0.0
149
0.0
 93
        0
 94
      127
282
     0
 72
     0
 77
     0
171
     0
175
     0
179
     0
273
     0
  0
XRECORD
  5
4F3
102
{ACAD_REACTORS
330
4F2
102
}
330
4F2
100
AcDbXrecord
280
     1
102
MATERIAL
148
0.0
149
0.0
149
0.0
 93
        0
 94
      127
282
     0
 72
     0
 77
     0
171
     0
175
     0
179
     0
273
     0
  0
XRECORD
  5
4F5
102
{ACAD_REACTORS
330
4F4
102
}
330
4F4
100
AcDbXrecord
280
     1
102
MATERIAL
148
0.0
149
0.0
149
0.0
 93
        0
 94
      127
282
     0
 72
     0
 77
     0
171
     0
175
     0
179
     0
273
     0
  0
XRECORD
  5
529
102
{ACAD_REACTORS
330
528
102
}
330
528
100
AcDbXrecord
280
     1
102
ACAD_ROUNDTRIP_2010_MLEADER_STYLE
  0
XRECORD
  5
501
102
{ACAD_REACTORS
330
500
102
}
330
500
100
AcDbXrecord
280
     1
102
RTVSPropertyOp0
 70
     1
102
RTVSPropertyOp1
 70
     1
102
RTVSPropertyOp2
 70
     1
102
RTVSPropertyOp3
 70
     1
102
RTVSPropertyOp4
 70
     1
102
RTVSPropertyOp5
 70
     1
102
RTVSPropertyOp6
 70
     1
102
RTVSPropertyOp7
 70
     1
102
RTVSPropertyOp8
 70
     1
102
RTVSPropertyOp9
 70
     1
102
RTVSPropertyOp10
 70
     1
102
RTVSPropertyOp11
 70
     1
102
RTVSPropertyOp12
 70
     1
102
RTVSPropertyOp13
 70
     1
102
RTVSPropertyOp14
 70
     1
102
RTVSPropertyOp15
 70
     1
102
RTVSPropertyOp16
 70
     1
102
RTVSPropertyOp17
 70
     1
102
RTVSPropertyOp18
 70
     1
102
RTVSPropertyOp19
 70
     1
102
RTVSPropertyOp20
 70
     1
102
RTVSPropertyOp21
 70
     1
102
RTVSPropertyOp22
 70
     1
102
RTVSPropertyOp23
 70
     1
102
RTVSPropertyOp24
 70
     1
102
RTVSPropertyOp25
 70
     1
102
RTVSPropertyOp26
 70
     1
102
RTVSPropertyOp27
 70
     1
102
RTVSPropertyOp28
 70
     1
102
RTVSPropertyOp29
 70
     1
102
RTVSPropertyOp30
 70
     1
102
RTVSPropertyOp31
 70
     1
102
RTVSPropertyOp32
 70
     1
102
RTVSPropertyOp33
 70
     1
102
RTVSPropertyOp34
 70
     1
102
RTVSPropertyOp35
 70
     1
102
RTVSPropertyOp36
 70
     1
102
RTVSPropertyOp37
 70
     1
102
RTVSPropertyOp38
 70
     1
102
RTVSPropertyOp39
 70
     1
102
RTVSPropertyOp40
 70
     1
102
RTVSPropertyOp41
 70
     1
102
RTVSPropertyOp42
 70
     1
102
RTVSPropertyOp43
 70
     1
102
RTVSPropertyOp44
 70
     1
102
RTVSPropertyOp45
 70
     1
102
RTVSPropertyOp46
 70
     1
102
RTVSPropertyOp47
 70
     1
102
RTVSPropertyOp48
 70
     1
102
RTVSPropertyOp49
 70
     1
102
RTVSPropertyOp50
 70
     1
102
RTVSPropertyOp51
 70
     0
102
RTVSPropertyOp52
 70
     0
102
RTVSPropertyOp53
 70
     1
102
RTVSPropertyOp54
 70
     1
102
RTVSPropertyOp55
 70
     1
102
RTVSPropertyOp56
 70
     1
102
RTVSPropertyOp57
 70
     1
102
RTVSPost2010Prop28
280
     1
102
RTVSPost2010PropOp28
 70
     1
102
RTVSPost2010Prop29
280
     1
102
RTVSPost2010PropOp29
 70
     1
102
RTVSPost2010Prop30
280
     0
102
RTVSPost2010PropOp30
 70
     1
102
RTVSPost2010Prop31
280
     0
102
RTVSPost2010PropOp31
 70
     1
102
RTVSPost2010Prop32
280
     0
102
RTVSPost2010PropOp32
 70
     1
102
RTVSPost2010Prop33
280
     0
102
RTVSPost2010PropOp33
 70
     1
102
RTVSPost2010Prop34
280
     0
102
RTVSPost2010PropOp34
 70
     1
102
RTVSPost2010Prop35
280
     0
102
RTVSPost2010PropOp35
 70
     1
102
RTVSPost2010Prop36
280
     0
102
RTVSPost2010PropOp36
 70
     1
102
RTVSPost2010Prop37
 90
       50
102
RTVSPost2010PropOp37
 70
     1
102
RTVSPost2010Prop38
140
0.0
102
RTVSPost2010PropOp38
 70
     1
102
RTVSPost2010Prop39
140
1.0
102
RTVSPost2010PropOp39
 70
     1
102
RTVSPost2010Prop40
 90
        0
102
RTVSPost2010PropOp40
 70
     1
102
RTVSPost2010Prop41ColorIndex
 90
       18
102
RTVSPost2010Prop41ColorRGB
 90
        0
102
RTVSPost2010PropOp41
 70
     1
102
RTVSPost2010Prop42
 90
       50
102
RTVSPost2010PropOp42
 70
     1
102
RTVSPost2010Prop43
 90
        3
102
RTVSPost2010PropOp43
 70
     1
102
RTVSPost2010Prop44ColorIndex
 90
        5
102
RTVSPost2010Prop44ColorRGB
 90
      255
102
RTVSPost2010PropOp44
 70
     1
102
RTVSPost2010Prop45
280
     0
102
RTVSPost2010PropOp45
 70
     1
102
RTVSPost2010Prop46
 90
       50
102
RTVSPost2010PropOp46
 70
     1
102
RTVSPost2010Prop47
 90
       50
102
RTVSPost2010PropOp47
 70
     1
102
RTVSPost2010Prop48
 90
       50
102
RTVSPost2010PropOp48
 70
     1
102
RTVSPost2010Prop49
280
     0
102
RTVSPost2010PropOp49
 70
     1
102
RTVSPost2010Prop50
 90
       50
102
RTVSPost2010PropOp50
 70
     1
102
RTVSPost2010Prop51ColorIndex
 90
      256
102
RTVSPost2010Prop51ColorRGB
 90
-16777216
102
RTVSPost2010PropOp51
 70
     0
102
RTVSPost2010Prop52
140
1.0
102
RTVSPost2010PropOp52
 70
     0
102
RTVSPost2010Prop53
 90
        2
102
RTVSPost2010PropOp53
 70
     1
102
RTVSPost2010Prop54
  1
strokes_ogs.tif
102
RTVSPost2010PropOp54
 70
     1
102
RTVSPost2010Prop55
280
     0
102
RTVSPost2010PropOp55
 70
     1
102
RTVSPost2010Prop56
140
1.0
102
RTVSPost2010PropOp56
 70
     1
102
RTVSPost2010Prop57
140
1.0
102
RTVSPost2010PropOp57
 70
     1
  0
XRECORD
  5
507
102
{ACAD_REACTORS
330
506
102
}
330
506
100
AcDbXrecord
280
     1
102
RTVSPropertyOp0
 70
     1
102
RTVSPropertyOp1
 70
     1
102
RTVSPropertyOp2
 70
     1
102
RTVSPropertyOp3
 70
     1
102
RTVSPropertyOp4
 70
     1
102
RTVSPropertyOp5
 70
     1
102
RTVSPropertyOp6
 70
     1
102
RTVSPropertyOp7
 70
     1
102
RTVSPropertyOp8
 70
     1
102
RTVSPropertyOp9
 70
     1
102
RTVSPropertyOp10
 70
     1
102
RTVSPropertyOp11
 70
     1
102
RTVSPropertyOp12
 70
     1
102
RTVSPropertyOp13
 70
     1
102
RTVSPropertyOp14
 70
     1
102
RTVSPropertyOp15
 70
     1
102
RTVSPropertyOp16
 70
     1
102
RTVSPropertyOp17
 70
     1
102
RTVSPropertyOp18
 70
     1
102
RTVSPropertyOp19
 70
     1
102
RTVSPropertyOp20
 70
     1
102
RTVSPropertyOp21
 70
     1
102
RTVSPropertyOp22
 70
     1
102
RTVSPropertyOp23
 70
     1
102
RTVSPropertyOp24
 70
     1
102
RTVSPropertyOp25
 70
     1
102
RTVSPropertyOp26
 70
     1
102
RTVSPropertyOp27
 70
     1
102
RTVSPropertyOp28
 70
     1
102
RTVSPropertyOp29
 70
     1
102
RTVSPropertyOp30
 70
     1
102
RTVSPropertyOp31
 70
     1
102
RTVSPropertyOp32
 70
     1
102
RTVSPropertyOp33
 70
     1
102
RTVSPropertyOp34
 70
     1
102
RTVSPropertyOp35
 70
     1
102
RTVSPropertyOp36
 70
     1
102
RTVSPropertyOp37
 70
     1
102
RTVSPropertyOp38
 70
     1
102
RTVSPropertyOp39
 70
     1
102
RTVSPropertyOp40
 70
     1
102
RTVSPropertyOp41
 70
     1
102
RTVSPropertyOp42
 70
     1
102
RTVSPropertyOp43
 70
     1
102
RTVSPropertyOp44
 70
     1
102
RTVSPropertyOp45
 70
     1
102
RTVSPropertyOp46
 70
     1
102
RTVSPropertyOp47
 70
     1
102
RTVSPropertyOp48
 70
     1
102
RTVSPropertyOp49
 70
     1
102
RTVSPropertyOp50
 70
     1
102
RTVSPropertyOp51
 70
     0
102
RTVSPropertyOp52
 70
     0
102
RTVSPropertyOp53
 70
     1
102
RTVSPropertyOp54
 70
     1
102
RTVSPropertyOp55
 70
     1
102
RTVSPropertyOp56
 70
     1
102
RTVSPropertyOp57
 70
     1
102
RTVSPost2010Prop28
280
     0
102
RTVSPost2010PropOp28
 70
     1
102
RTVSPost2010Prop29
280
     1
102
RTVSPost2010PropOp29
 70
     1
102
RTVSPost2010Prop30
280
     1
102
RTVSPost2010PropOp30
 70
     1
102
RTVSPost2010Prop31
280
     0
102
RTVSPost2010PropOp31
 70
     1
102
RTVSPost2010Prop32
280
     0
102
RTVSPost2010PropOp32
 70
     1
102
RTVSPost2010Prop33
280
     0
102
RTVSPost2010PropOp33
 70
     1
102
RTVSPost2010Prop34
280
     0
102
RTVSPost2010PropOp34
 70
     1
102
RTVSPost2010Prop35
280
     0
102
RTVSPost2010PropOp35
 70
     1
102
RTVSPost2010Prop36
280
     0
102
RTVSPost2010PropOp36
 70
     1
102
RTVSPost2010Prop37
 90
       50
102
RTVSPost2010PropOp37
 70
     1
102
RTVSPost2010Prop38
140
0.0
102
RTVSPost2010PropOp38
 70
     1
102
RTVSPost2010Prop39
140
1.0
102
RTVSPost2010PropOp39
 70
     1
102
RTVSPost2010Prop40
 90
        0
102
RTVSPost2010PropOp40
 70
     1
102
RTVSPost2010Prop41ColorIndex
 90
       18
102
RTVSPost2010Prop41ColorRGB
 90
        0
102
RTVSPost2010PropOp41
 70
     1
102
RTVSPost2010Prop42
 90
       50
102
RTVSPost2010PropOp42
 70
     1
102
RTVSPost2010Prop43
 90
        3
102
RTVSPost2010PropOp43
 70
     1
102
RTVSPost2010Prop44ColorIndex
 90
        5
102
RTVSPost2010Prop44ColorRGB
 90
      255
102
RTVSPost2010PropOp44
 70
     1
102
RTVSPost2010Prop45
280
     0
102
RTVSPost2010PropOp45
 70
     1
102
RTVSPost2010Prop46
 90
       50
102
RTVSPost2010PropOp46
 70
     1
102
RTVSPost2010Prop47
 90
       50
102
RTVSPost2010PropOp47
 70
     1
102
RTVSPost2010Prop48
 90
       50
102
RTVSPost2010PropOp48
 70
     1
102
RTVSPost2010Prop49
280
     0
102
RTVSPost2010PropOp49
 70
     1
102
RTVSPost2010Prop50
 90
       50
102
RTVSPost2010PropOp50
 70
     1
102
RTVSPost2010Prop51ColorIndex
 90
      256
102
RTVSPost2010Prop51ColorRGB
 90
-16777216
102
RTVSPost2010PropOp51
 70
     0
102
RTVSPost2010Prop52
140
1.0
102
RTVSPost2010PropOp52
 70
     0
102
RTVSPost2010Prop53
 90
        2
102
RTVSPost2010PropOp53
 70
     1
102
RTVSPost2010Prop54
  1
strokes_ogs.tif
102
RTVSPost2010PropOp54
 70
     1
102
RTVSPost2010Prop55
280
     0
102
RTVSPost2010PropOp55
 70
     1
102
RTVSPost2010Prop56
140
1.0
102
RTVSPost2010PropOp56
 70
     1
102
RTVSPost2010Prop57
140
1.0
102
RTVSPost2010PropOp57
 70
     1
  0
XRECORD
  5
50F
102
{ACAD_REACTORS
330
50E
102
}
330
50E
100
AcDbXrecord
280
     1
102
RTVSPropertyOp0
 70
     1
102
RTVSPropertyOp1
 70
     1
102
RTVSPropertyOp2
 70
     1
102
RTVSPropertyOp3
 70
     1
102
RTVSPropertyOp4
 70
     1
102
RTVSPropertyOp5
 70
     1
102
RTVSPropertyOp6
 70
     1
102
RTVSPropertyOp7
 70
     1
102
RTVSPropertyOp8
 70
     1
102
RTVSPropertyOp9
 70
     1
102
RTVSPropertyOp10
 70
     1
102
RTVSPropertyOp11
 70
     1
102
RTVSPropertyOp12
 70
     1
102
RTVSPropertyOp13
 70
     1
102
RTVSPropertyOp14
 70
     1
102
RTVSPropertyOp15
 70
     1
102
RTVSPropertyOp16
 70
     1
102
RTVSPropertyOp17
 70
     1
102
RTVSPropertyOp18
 70
     1
102
RTVSPropertyOp19
 70
     1
102
RTVSPropertyOp20
 70
     1
102
RTVSPropertyOp21
 70
     1
102
RTVSPropertyOp22
 70
     1
102
RTVSPropertyOp23
 70
     1
102
RTVSPropertyOp24
 70
     1
102
RTVSPropertyOp25
 70
     1
102
RTVSPropertyOp26
 70
     1
102
RTVSPropertyOp27
 70
     1
102
RTVSPropertyOp28
 70
     1
102
RTVSPropertyOp29
 70
     1
102
RTVSPropertyOp30
 70
     1
102
RTVSPropertyOp31
 70
     1
102
RTVSPropertyOp32
 70
     1
102
RTVSPropertyOp33
 70
     1
102
RTVSPropertyOp34
 70
     1
102
RTVSPropertyOp35
 70
     1
102
RTVSPropertyOp36
 70
     1
102
RTVSPropertyOp37
 70
     1
102
RTVSPropertyOp38
 70
     1
102
RTVSPropertyOp39
 70
     1
102
RTVSPropertyOp40
 70
     1
102
RTVSPropertyOp41
 70
     1
102
RTVSPropertyOp42
 70
     1
102
RTVSPropertyOp43
 70
     1
102
RTVSPropertyOp44
 70
     1
102
RTVSPropertyOp45
 70
     1
102
RTVSPropertyOp46
 70
     1
102
RTVSPropertyOp47
 70
     1
102
RTVSPropertyOp48
 70
     1
102
RTVSPropertyOp49
 70
     1
102
RTVSPropertyOp50
 70
     1
102
RTVSPropertyOp51
 70
     0
102
RTVSPropertyOp52
 70
     0
102
RTVSPropertyOp53
 70
     1
102
RTVSPropertyOp54
 70
     1
102
RTVSPropertyOp55
 70
     1
102
RTVSPropertyOp56
 70
     1
102
RTVSPropertyOp57
 70
     1
102
RTVSPost2010Prop28
280
     0
102
RTVSPost2010PropOp28
 70
     1
102
RTVSPost2010Prop29
280
     1
102
RTVSPost2010PropOp29
 70
     1
102
RTVSPost2010Prop30
280
     1
102
RTVSPost2010PropOp30
 70
     1
102
RTVSPost2010Prop31
280
     0
102
RTVSPost2010PropOp31
 70
     1
102
RTVSPost2010Prop32
280
     0
102
RTVSPost2010PropOp32
 70
     1
102
RTVSPost2010Prop33
280
     0
102
RTVSPost2010PropOp33
 70
     1
102
RTVSPost2010Prop34
280
     0
102
RTVSPost2010PropOp34
 70
     1
102
RTVSPost2010Prop35
280
     0
102
RTVSPost2010PropOp35
 70
     1
102
RTVSPost2010Prop36
280
     0
102
RTVSPost2010PropOp36
 70
     1
102
RTVSPost2010Prop37
 90
       50
102
RTVSPost2010PropOp37
 70
     1
102
RTVSPost2010Prop38
140
0.0
102
RTVSPost2010PropOp38
 70
     1
102
RTVSPost2010Prop39
140
1.0
102
RTVSPost2010PropOp39
 70
     1
102
RTVSPost2010Prop40
 90
        0
102
RTVSPost2010PropOp40
 70
     1
102
RTVSPost2010Prop41ColorIndex
 90
       18
102
RTVSPost2010Prop41ColorRGB
 90
        0
102
RTVSPost2010PropOp41
 70
     1
102
RTVSPost2010Prop42
 90
       50
102
RTVSPost2010PropOp42
 70
     1
102
RTVSPost2010Prop43
 90
        3
102
RTVSPost2010PropOp43
 70
     1
102
RTVSPost2010Prop44ColorIndex
 90
        5
102
RTVSPost2010Prop44ColorRGB
 90
      255
102
RTVSPost2010PropOp44
 70
     1
102
RTVSPost2010Prop45
280
     0
102
RTVSPost2010PropOp45
 70
     1
102
RTVSPost2010Prop46
 90
       50
102
RTVSPost2010PropOp46
 70
     1
102
RTVSPost2010Prop47
 90
       50
102
RTVSPost2010PropOp47
 70
     1
102
RTVSPost2010Prop48
 90
       50
102
RTVSPost2010PropOp48
 70
     1
102
RTVSPost2010Prop49
280
     0
102
RTVSPost2010PropOp49
 70
     1
102
RTVSPost2010Prop50
 90
       50
102
RTVSPost2010PropOp50
 70
     1
102
RTVSPost2010Prop51ColorIndex
 90
      256
102
RTVSPost2010Prop51ColorRGB
 90
-16777216
102
RTVSPost2010PropOp51
 70
     0
102
RTVSPost2010Prop52
140
1.0
102
RTVSPost2010PropOp52
 70
     0
102
RTVSPost2010Prop53
 90
        2
102
RTVSPost2010PropOp53
 70
     1
102
RTVSPost2010Prop54
  1
strokes_ogs.tif
102
RTVSPost2010PropOp54
 70
     1
102
RTVSPost2010Prop55
280
     0
102
RTVSPost2010PropOp55
 70
     1
102
RTVSPost2010Prop56
140
1.0
102
RTVSPost2010PropOp56
 70
     1
102
RTVSPost2010Prop57
140
1.0
102
RTVSPost2010PropOp57
 70
     1
  0
XRECORD
  5
517
102
{ACAD_REACTORS
330
516
102
}
330
516
100
AcDbXrecord
280
     1
102
RTVSPropertyOp0
 70
     1
102
RTVSPropertyOp1
 70
     1
102
RTVSPropertyOp2
 70
     1
102
RTVSPropertyOp3
 70
     1
102
RTVSPropertyOp4
 70
     1
102
RTVSPropertyOp5
 70
     1
102
RTVSPropertyOp6
 70
     1
102
RTVSPropertyOp7
 70
     1
102
RTVSPropertyOp8
 70
     1
102
RTVSPropertyOp9
 70
     1
102
RTVSPropertyOp10
 70
     1
102
RTVSPropertyOp11
 70
     1
102
RTVSPropertyOp12
 70
     1
102
RTVSPropertyOp13
 70
     1
102
RTVSPropertyOp14
 70
     1
102
RTVSPropertyOp15
 70
     1
102
RTVSPropertyOp16
 70
     1
102
RTVSPropertyOp17
 70
     1
102
RTVSPropertyOp18
 70
     1
102
RTVSPropertyOp19
 70
     1
102
RTVSPropertyOp20
 70
     1
102
RTVSPropertyOp21
 70
     1
102
RTVSPropertyOp22
 70
     1
102
RTVSPropertyOp23
 70
     1
102
RTVSPropertyOp24
 70
     1
102
RTVSPropertyOp25
 70
     1
102
RTVSPropertyOp26
 70
     1
102
RTVSPropertyOp27
 70
     1
102
RTVSPropertyOp28
 70
     1
102
RTVSPropertyOp29
 70
     1
102
RTVSPropertyOp30
 70
     1
102
RTVSPropertyOp31
 70
     1
102
RTVSPropertyOp32
 70
     1
102
RTVSPropertyOp33
 70
     1
102
RTVSPropertyOp34
 70
     1
102
RTVSPropertyOp35
 70
     1
102
RTVSPropertyOp36
 70
     1
102
RTVSPropertyOp37
 70
     1
102
RTVSPropertyOp38
 70
     1
102
RTVSPropertyOp39
 70
     1
102
RTVSPropertyOp40
 70
     1
102
RTVSPropertyOp41
 70
     1
102
RTVSPropertyOp42
 70
     1
102
RTVSPropertyOp43
 70
     1
102
RTVSPropertyOp44
 70
     1
102
RTVSPropertyOp45
 70
     1
102
RTVSPropertyOp46
 70
     1
102
RTVSPropertyOp47
 70
     1
102
RTVSPropertyOp48
 70
     1
102
RTVSPropertyOp49
 70
     1
102
RTVSPropertyOp50
 70
     1
102
RTVSPropertyOp51
 70
     0
102
RTVSPropertyOp52
 70
     0
102
RTVSPropertyOp53
 70
     1
102
RTVSPropertyOp54
 70
     1
102
RTVSPropertyOp55
 70
     1
102
RTVSPropertyOp56
 70
     1
102
RTVSPropertyOp57
 70
     1
102
RTVSPost2010Prop28
280
     0
102
RTVSPost2010PropOp28
 70
     1
102
RTVSPost2010Prop29
280
     1
102
RTVSPost2010PropOp29
 70
     1
102
RTVSPost2010Prop30
280
     1
102
RTVSPost2010PropOp30
 70
     1
102
RTVSPost2010Prop31
280
     0
102
RTVSPost2010PropOp31
 70
     1
102
RTVSPost2010Prop32
280
     0
102
RTVSPost2010PropOp32
 70
     1
102
RTVSPost2010Prop33
280
     0
102
RTVSPost2010PropOp33
 70
     1
102
RTVSPost2010Prop34
280
     0
102
RTVSPost2010PropOp34
 70
     1
102
RTVSPost2010Prop35
280
     0
102
RTVSPost2010PropOp35
 70
     1
102
RTVSPost2010Prop36
280
     0
102
RTVSPost2010PropOp36
 70
     1
102
RTVSPost2010Prop37
 90
       50
102
RTVSPost2010PropOp37
 70
     1
102
RTVSPost2010Prop38
140
0.0
102
RTVSPost2010PropOp38
 70
     1
102
RTVSPost2010Prop39
140
1.0
102
RTVSPost2010PropOp39
 70
     1
102
RTVSPost2010Prop40
 90
        0
102
RTVSPost2010PropOp40
 70
     1
102
RTVSPost2010Prop41ColorIndex
 90
       18
102
RTVSPost2010Prop41ColorRGB
 90
        0
102
RTVSPost2010PropOp41
 70
     1
102
RTVSPost2010Prop42
 90
       50
102
RTVSPost2010PropOp42
 70
     1
102
RTVSPost2010Prop43
 90
        3
102
RTVSPost2010PropOp43
 70
     1
102
RTVSPost2010Prop44ColorIndex
 90
        5
102
RTVSPost2010Prop44ColorRGB
 90
      255
102
RTVSPost2010PropOp44
 70
     1
102
RTVSPost2010Prop45
280
     0
102
RTVSPost2010PropOp45
 70
     1
102
RTVSPost2010Prop46
 90
       50
102
RTVSPost2010PropOp46
 70
     1
102
RTVSPost2010Prop47
 90
       50
102
RTVSPost2010PropOp47
 70
     1
102
RTVSPost2010Prop48
 90
       50
102
RTVSPost2010PropOp48
 70
     1
102
RTVSPost2010Prop49
280
     0
102
RTVSPost2010PropOp49
 70
     1
102
RTVSPost2010Prop50
 90
       50
102
RTVSPost2010PropOp50
 70
     1
102
RTVSPost2010Prop51ColorIndex
 90
      256
102
RTVSPost2010Prop51ColorRGB
 90
-16777216
102
RTVSPost2010PropOp51
 70
     0
102
RTVSPost2010Prop52
140
1.0
102
RTVSPost2010PropOp52
 70
     0
102
RTVSPost2010Prop53
 90
        2
102
RTVSPost2010PropOp53
 70
     1
102
RTVSPost2010Prop54
  1
strokes_ogs.tif
102
RTVSPost2010PropOp54
 70
     1
102
RTVSPost2010Prop55
280
     0
102
RTVSPost2010PropOp55
 70
     1
102
RTVSPost2010Prop56
140
1.0
102
RTVSPost2010PropOp56
 70
     1
102
RTVSPost2010Prop57
140
1.0
102
RTVSPost2010PropOp57
 70
     1
  0
XRECORD
  5
50B
102
{ACAD_REACTORS
330
50A
102
}
330
50A
100
AcDbXrecord
280
     1
102
RTVSPropertyOp0
 70
     1
102
RTVSPropertyOp1
 70
     1
102
RTVSPropertyOp2
 70
     1
102
RTVSPropertyOp3
 70
     1
102
RTVSPropertyOp4
 70
     1
102
RTVSPropertyOp5
 70
     1
102
RTVSPropertyOp6
 70
     1
102
RTVSPropertyOp7
 70
     1
102
RTVSPropertyOp8
 70
     1
102
RTVSPropertyOp9
 70
     1
102
RTVSPropertyOp10
 70
     1
102
RTVSPropertyOp11
 70
     1
102
RTVSPropertyOp12
 70
     1
102
RTVSPropertyOp13
 70
     1
102
RTVSPropertyOp14
 70
     1
102
RTVSPropertyOp15
 70
     1
102
RTVSPropertyOp16
 70
     1
102
RTVSPropertyOp17
 70
     1
102
RTVSPropertyOp18
 70
     1
102
RTVSPropertyOp19
 70
     1
102
RTVSPropertyOp20
 70
     1
102
RTVSPropertyOp21
 70
     1
102
RTVSPropertyOp22
 70
     1
102
RTVSPropertyOp23
 70
     1
102
RTVSPropertyOp24
 70
     1
102
RTVSPropertyOp25
 70
     1
102
RTVSPropertyOp26
 70
     1
102
RTVSPropertyOp27
 70
     1
102
RTVSPropertyOp28
 70
     1
102
RTVSPropertyOp29
 70
     1
102
RTVSPropertyOp30
 70
     1
102
RTVSPropertyOp31
 70
     1
102
RTVSPropertyOp32
 70
     1
102
RTVSPropertyOp33
 70
     1
102
RTVSPropertyOp34
 70
     1
102
RTVSPropertyOp35
 70
     1
102
RTVSPropertyOp36
 70
     1
102
RTVSPropertyOp37
 70
     1
102
RTVSPropertyOp38
 70
     1
102
RTVSPropertyOp39
 70
     1
102
RTVSPropertyOp40
 70
     1
102
RTVSPropertyOp41
 70
     1
102
RTVSPropertyOp42
 70
     1
102
RTVSPropertyOp43
 70
     1
102
RTVSPropertyOp44
 70
     1
102
RTVSPropertyOp45
 70
     1
102
RTVSPropertyOp46
 70
     1
102
RTVSPropertyOp47
 70
     1
102
RTVSPropertyOp48
 70
     1
102
RTVSPropertyOp49
 70
     1
102
RTVSPropertyOp50
 70
     1
102
RTVSPropertyOp51
 70
     0
102
RTVSPropertyOp52
 70
     0
102
RTVSPropertyOp53
 70
     1
102
RTVSPropertyOp54
 70
     1
102
RTVSPropertyOp55
 70
     1
102
RTVSPropertyOp56
 70
     1
102
RTVSPropertyOp57
 70
     1
102
RTVSPost2010Prop28
280
     0
102
RTVSPost2010PropOp28
 70
     1
102
RTVSPost2010Prop29
280
     1
102
RTVSPost2010PropOp29
 70
     1
102
RTVSPost2010Prop30
280
     1
102
RTVSPost2010PropOp30
 70
     1
102
RTVSPost2010Prop31
280
     0
102
RTVSPost2010PropOp31
 70
     1
102
RTVSPost2010Prop32
280
     0
102
RTVSPost2010PropOp32
 70
     1
102
RTVSPost2010Prop33
280
     0
102
RTVSPost2010PropOp33
 70
     1
102
RTVSPost2010Prop34
280
     0
102
RTVSPost2010PropOp34
 70
     1
102
RTVSPost2010Prop35
280
     0
102
RTVSPost2010PropOp35
 70
     1
102
RTVSPost2010Prop36
280
     0
102
RTVSPost2010PropOp36
 70
     1
102
RTVSPost2010Prop37
 90
       50
102
RTVSPost2010PropOp37
 70
     1
102
RTVSPost2010Prop38
140
0.0
102
RTVSPost2010PropOp38
 70
     1
102
RTVSPost2010Prop39
140
1.0
102
RTVSPost2010PropOp39
 70
     1
102
RTVSPost2010Prop40
 90
        0
102
RTVSPost2010PropOp40
 70
     1
102
RTVSPost2010Prop41ColorIndex
 90
       18
102
RTVSPost2010Prop41ColorRGB
 90
        0
102
RTVSPost2010PropOp41
 70
     1
102
RTVSPost2010Prop42
 90
       50
102
RTVSPost2010PropOp42
 70
     1
102
RTVSPost2010Prop43
 90
        3
102
RTVSPost2010PropOp43
 70
     1
102
RTVSPost2010Prop44ColorIndex
 90
        5
102
RTVSPost2010Prop44ColorRGB
 90
      255
102
RTVSPost2010PropOp44
 70
     1
102
RTVSPost2010Prop45
280
     0
102
RTVSPost2010PropOp45
 70
     1
102
RTVSPost2010Prop46
 90
       50
102
RTVSPost2010PropOp46
 70
     1
102
RTVSPost2010Prop47
 90
       50
102
RTVSPost2010PropOp47
 70
     1
102
RTVSPost2010Prop48
 90
       50
102
RTVSPost2010PropOp48
 70
     1
102
RTVSPost2010Prop49
280
     0
102
RTVSPost2010PropOp49
 70
     1
102
RTVSPost2010Prop50
 90
       50
102
RTVSPost2010PropOp50
 70
     1
102
RTVSPost2010Prop51ColorIndex
 90
      256
102
RTVSPost2010Prop51ColorRGB
 90
-16777216
102
RTVSPost2010PropOp51
 70
     0
102
RTVSPost2010Prop52
140
1.0
102
RTVSPost2010PropOp52
 70
     0
102
RTVSPost2010Prop53
 90
        2
102
RTVSPost2010PropOp53
 70
     1
102
RTVSPost2010Prop54
  1
strokes_ogs.tif
102
RTVSPost2010PropOp54
 70
     1
102
RTVSPost2010Prop55
280
     0
102
RTVSPost2010PropOp55
 70
     1
102
RTVSPost2010Prop56
140
1.0
102
RTVSPost2010PropOp56
 70
     1
102
RTVSPost2010Prop57
140
1.0
102
RTVSPost2010PropOp57
 70
     1
  0
XRECORD
  5
50D
102
{ACAD_REACTORS
330
50C
102
}
330
50C
100
AcDbXrecord
280
     1
102
RTVSPropertyOp0
 70
     1
102
RTVSPropertyOp1
 70
     1
102
RTVSPropertyOp2
 70
     1
102
RTVSPropertyOp3
 70
     1
102
RTVSPropertyOp4
 70
     1
102
RTVSPropertyOp5
 70
     1
102
RTVSPropertyOp6
 70
     1
102
RTVSPropertyOp7
 70
     1
102
RTVSPropertyOp8
 70
     1
102
RTVSPropertyOp9
 70
     1
102
RTVSPropertyOp10
 70
     1
102
RTVSPropertyOp11
 70
     1
102
RTVSPropertyOp12
 70
     1
102
RTVSPropertyOp13
 70
     1
102
RTVSPropertyOp14
 70
     1
102
RTVSPropertyOp15
 70
     1
102
RTVSPropertyOp16
 70
     1
102
RTVSPropertyOp17
 70
     1
102
RTVSPropertyOp18
 70
     1
102
RTVSPropertyOp19
 70
     1
102
RTVSPropertyOp20
 70
     1
102
RTVSPropertyOp21
 70
     1
102
RTVSPropertyOp22
 70
     1
102
RTVSPropertyOp23
 70
     1
102
RTVSPropertyOp24
 70
     1
102
RTVSPropertyOp25
 70
     1
102
RTVSPropertyOp26
 70
     1
102
RTVSPropertyOp27
 70
     1
102
RTVSPropertyOp28
 70
     1
102
RTVSPropertyOp29
 70
     1
102
RTVSPropertyOp30
 70
     1
102
RTVSPropertyOp31
 70
     1
102
RTVSPropertyOp32
 70
     1
102
RTVSPropertyOp33
 70
     1
102
RTVSPropertyOp34
 70
     1
102
RTVSPropertyOp35
 70
     1
102
RTVSPropertyOp36
 70
     1
102
RTVSPropertyOp37
 70
     1
102
RTVSPropertyOp38
 70
     1
102
RTVSPropertyOp39
 70
     1
102
RTVSPropertyOp40
 70
     1
102
RTVSPropertyOp41
 70
     1
102
RTVSPropertyOp42
 70
     1
102
RTVSPropertyOp43
 70
     1
102
RTVSPropertyOp44
 70
     1
102
RTVSPropertyOp45
 70
     1
102
RTVSPropertyOp46
 70
     1
102
RTVSPropertyOp47
 70
     1
102
RTVSPropertyOp48
 70
     1
102
RTVSPropertyOp49
 70
     1
102
RTVSPropertyOp50
 70
     1
102
RTVSPropertyOp51
 70
     0
102
RTVSPropertyOp52
 70
     0
102
RTVSPropertyOp53
 70
     1
102
RTVSPropertyOp54
 70
     1
102
RTVSPropertyOp55
 70
     1
102
RTVSPropertyOp56
 70
     1
102
RTVSPropertyOp57
 70
     1
102
RTVSPost2010Prop28
280
     0
102
RTVSPost2010PropOp28
 70
     1
102
RTVSPost2010Prop29
280
     1
102
RTVSPost2010PropOp29
 70
     1
102
RTVSPost2010Prop30
280
     1
102
RTVSPost2010PropOp30
 70
     1
102
RTVSPost2010Prop31
280
     0
102
RTVSPost2010PropOp31
 70
     1
102
RTVSPost2010Prop32
280
     0
102
RTVSPost2010PropOp32
 70
     1
102
RTVSPost2010Prop33
280
     0
102
RTVSPost2010PropOp33
 70
     1
102
RTVSPost2010Prop34
280
     0
102
RTVSPost2010PropOp34
 70
     1
102
RTVSPost2010Prop35
280
     0
102
RTVSPost2010PropOp35
 70
     1
102
RTVSPost2010Prop36
280
     0
102
RTVSPost2010PropOp36
 70
     1
102
RTVSPost2010Prop37
 90
       50
102
RTVSPost2010PropOp37
 70
     1
102
RTVSPost2010Prop38
140
0.0
102
RTVSPost2010PropOp38
 70
     1
102
RTVSPost2010Prop39
140
1.0
102
RTVSPost2010PropOp39
 70
     1
102
RTVSPost2010Prop40
 90
        0
102
RTVSPost2010PropOp40
 70
     1
102
RTVSPost2010Prop41ColorIndex
 90
       18
102
RTVSPost2010Prop41ColorRGB
 90
        0
102
RTVSPost2010PropOp41
 70
     1
102
RTVSPost2010Prop42
 90
       50
102
RTVSPost2010PropOp42
 70
     1
102
RTVSPost2010Prop43
 90
        3
102
RTVSPost2010PropOp43
 70
     1
102
RTVSPost2010Prop44ColorIndex
 90
        5
102
RTVSPost2010Prop44ColorRGB
 90
      255
102
RTVSPost2010PropOp44
 70
     1
102
RTVSPost2010Prop45
280
     0
102
RTVSPost2010PropOp45
 70
     1
102
RTVSPost2010Prop46
 90
       50
102
RTVSPost2010PropOp46
 70
     1
102
RTVSPost2010Prop47
 90
       50
102
RTVSPost2010PropOp47
 70
     1
102
RTVSPost2010Prop48
 90
       50
102
RTVSPost2010PropOp48
 70
     1
102
RTVSPost2010Prop49
280
     0
102
RTVSPost2010PropOp49
 70
     1
102
RTVSPost2010Prop50
 90
       50
102
RTVSPost2010PropOp50
 70
     1
102
RTVSPost2010Prop51ColorIndex
 90
      256
102
RTVSPost2010Prop51ColorRGB
 90
-16777216
102
RTVSPost2010PropOp51
 70
     0
102
RTVSPost2010Prop52
140
1.0
102
RTVSPost2010PropOp52
 70
     0
102
RTVSPost2010Prop53
 90
        2
102
RTVSPost2010PropOp53
 70
     1
102
RTVSPost2010Prop54
  1
strokes_ogs.tif
102
RTVSPost2010PropOp54
 70
     1
102
RTVSPost2010Prop55
280
     0
102
RTVSPost2010PropOp55
 70
     1
102
RTVSPost2010Prop56
140
1.0
102
RTVSPost2010PropOp56
 70
     1
102
RTVSPost2010Prop57
140
1.0
102
RTVSPost2010PropOp57
 70
     1
  0
XRECORD
  5
51D
102
{ACAD_REACTORS
330
51C
102
}
330
51C
100
AcDbXrecord
280
     1
102
RTVSPropertyOp0
 70
     0
102
RTVSPropertyOp1
 70
     0
102
RTVSPropertyOp2
 70
     0
102
RTVSPropertyOp3
 70
     0
102
RTVSPropertyOp4
 70
     0
102
RTVSPropertyOp5
 70
     0
102
RTVSPropertyOp6
 70
     0
102
RTVSPropertyOp7
 70
     0
102
RTVSPropertyOp8
 70
     0
102
RTVSPropertyOp9
 70
     0
102
RTVSPropertyOp10
 70
     0
102
RTVSPropertyOp11
 70
     0
102
RTVSPropertyOp12
 70
     0
102
RTVSPropertyOp13
 70
     0
102
RTVSPropertyOp14
 70
     0
102
RTVSPropertyOp15
 70
     0
102
RTVSPropertyOp16
 70
     0
102
RTVSPropertyOp17
 70
     0
102
RTVSPropertyOp18
 70
     0
102
RTVSPropertyOp19
 70
     0
102
RTVSPropertyOp20
 70
     0
102
RTVSPropertyOp21
 70
     0
102
RTVSPropertyOp22
 70
     0
102
RTVSPropertyOp23
 70
     0
102
RTVSPropertyOp24
 70
     0
102
RTVSPropertyOp25
 70
     0
102
RTVSPropertyOp26
 70
     0
102
RTVSPropertyOp27
 70
     0
102
RTVSPropertyOp28
 70
     1
102
RTVSPropertyOp29
 70
     1
102
RTVSPropertyOp30
 70
     1
102
RTVSPropertyOp31
 70
     1
102
RTVSPropertyOp32
 70
     1
102
RTVSPropertyOp33
 70
     1
102
RTVSPropertyOp34
 70
     1
102
RTVSPropertyOp35
 70
     1
102
RTVSPropertyOp36
 70
     1
102
RTVSPropertyOp37
 70
     1
102
RTVSPropertyOp38
 70
     1
102
RTVSPropertyOp39
 70
     1
102
RTVSPropertyOp40
 70
     1
102
RTVSPropertyOp41
 70
     1
102
RTVSPropertyOp42
 70
     1
102
RTVSPropertyOp43
 70
     1
102
RTVSPropertyOp44
 70
     1
102
RTVSPropertyOp45
 70
     1
102
RTVSPropertyOp46
 70
     1
102
RTVSPropertyOp47
 70
     1
102
RTVSPropertyOp48
 70
     1
102
RTVSPropertyOp49
 70
     1
102
RTVSPropertyOp50
 70
     1
102
RTVSPropertyOp51
 70
     0
102
RTVSPropertyOp52
 70
     0
102
RTVSPropertyOp53
 70
     1
102
RTVSPropertyOp54
 70
     1
102
RTVSPropertyOp55
 70
     1
102
RTVSPropertyOp56
 70
     1
102
RTVSPropertyOp57
 70
     1
102
RTVSPost2010Prop28
280
     0
102
RTVSPost2010PropOp28
 70
     1
102
RTVSPost2010Prop29
280
     1
102
RTVSPost2010PropOp29
 70
     1
102
RTVSPost2010Prop30
280
     1
102
RTVSPost2010PropOp30
 70
     1
102
RTVSPost2010Prop31
280
     0
102
RTVSPost2010PropOp31
 70
     1
102
RTVSPost2010Prop32
280
     0
102
RTVSPost2010PropOp32
 70
     1
102
RTVSPost2010Prop33
280
     0
102
RTVSPost2010PropOp33
 70
     1
102
RTVSPost2010Prop34
280
     0
102
RTVSPost2010PropOp34
 70
     1
102
RTVSPost2010Prop35
280
     0
102
RTVSPost2010PropOp35
 70
     1
102
RTVSPost2010Prop36
280
     0
102
RTVSPost2010PropOp36
 70
     1
102
RTVSPost2010Prop37
 90
       50
102
RTVSPost2010PropOp37
 70
     1
102
RTVSPost2010Prop38
140
0.0
102
RTVSPost2010PropOp38
 70
     1
102
RTVSPost2010Prop39
140
1.0
102
RTVSPost2010PropOp39
 70
     1
102
RTVSPost2010Prop40
 90
        0
102
RTVSPost2010PropOp40
 70
     1
102
RTVSPost2010Prop41ColorIndex
 90
       18
102
RTVSPost2010Prop41ColorRGB
 90
        0
102
RTVSPost2010PropOp41
 70
     1
102
RTVSPost2010Prop42
 90
       50
102
RTVSPost2010PropOp42
 70
     1
102
RTVSPost2010Prop43
 90
        3
102
RTVSPost2010PropOp43
 70
     1
102
RTVSPost2010Prop44ColorIndex
 90
        5
102
RTVSPost2010Prop44ColorRGB
 90
      255
102
RTVSPost2010PropOp44
 70
     1
102
RTVSPost2010Prop45
280
     0
102
RTVSPost2010PropOp45
 70
     1
102
RTVSPost2010Prop46
 90
       50
102
RTVSPost2010PropOp46
 70
     1
102
RTVSPost2010Prop47
 90
       50
102
RTVSPost2010PropOp47
 70
     1
102
RTVSPost2010Prop48
 90
       50
102
RTVSPost2010PropOp48
 70
     1
102
RTVSPost2010Prop49
280
     0
102
RTVSPost2010PropOp49
 70
     1
102
RTVSPost2010Prop50
 90
       50
102
RTVSPost2010PropOp50
 70
     1
102
RTVSPost2010Prop51ColorIndex
 90
      256
102
RTVSPost2010Prop51ColorRGB
 90
-16777216
102
RTVSPost2010PropOp51
 70
     0
102
RTVSPost2010Prop52
140
1.0
102
RTVSPost2010PropOp52
 70
     0
102
RTVSPost2010Prop53
 90
        2
102
RTVSPost2010PropOp53
 70
     1
102
RTVSPost2010Prop54
  1
strokes_ogs.tif
102
RTVSPost2010PropOp54
 70
     1
102
RTVSPost2010Prop55
280
     0
102
RTVSPost2010PropOp55
 70
     1
102
RTVSPost2010Prop56
140
1.0
102
RTVSPost2010PropOp56
 70
     1
102
RTVSPost2010Prop57
140
1.0
102
RTVSPost2010PropOp57
 70
     1
  0
XRECORD
  5
515
102
{ACAD_REACTORS
330
514
102
}
330
514
100
AcDbXrecord
280
     1
102
RTVSPropertyOp0
 70
     1
102
RTVSPropertyOp1
 70
     1
102
RTVSPropertyOp2
 70
     1
102
RTVSPropertyOp3
 70
     1
102
RTVSPropertyOp4
 70
     1
102
RTVSPropertyOp5
 70
     1
102
RTVSPropertyOp6
 70
     1
102
RTVSPropertyOp7
 70
     1
102
RTVSPropertyOp8
 70
     1
102
RTVSPropertyOp9
 70
     1
102
RTVSPropertyOp10
 70
     1
102
RTVSPropertyOp11
 70
     1
102
RTVSPropertyOp12
 70
     1
102
RTVSPropertyOp13
 70
     1
102
RTVSPropertyOp14
 70
     1
102
RTVSPropertyOp15
 70
     1
102
RTVSPropertyOp16
 70
     1
102
RTVSPropertyOp17
 70
     1
102
RTVSPropertyOp18
 70
     1
102
RTVSPropertyOp19
 70
     1
102
RTVSPropertyOp20
 70
     1
102
RTVSPropertyOp21
 70
     1
102
RTVSPropertyOp22
 70
     1
102
RTVSPropertyOp23
 70
     1
102
RTVSPropertyOp24
 70
     1
102
RTVSPropertyOp25
 70
     1
102
RTVSPropertyOp26
 70
     1
102
RTVSPropertyOp27
 70
     1
102
RTVSPropertyOp28
 70
     1
102
RTVSPropertyOp29
 70
     1
102
RTVSPropertyOp30
 70
     1
102
RTVSPropertyOp31
 70
     1
102
RTVSPropertyOp32
 70
     1
102
RTVSPropertyOp33
 70
     1
102
RTVSPropertyOp34
 70
     1
102
RTVSPropertyOp35
 70
     1
102
RTVSPropertyOp36
 70
     1
102
RTVSPropertyOp37
 70
     1
102
RTVSPropertyOp38
 70
     1
102
RTVSPropertyOp39
 70
     1
102
RTVSPropertyOp40
 70
     1
102
RTVSPropertyOp41
 70
     1
102
RTVSPropertyOp42
 70
     1
102
RTVSPropertyOp43
 70
     1
102
RTVSPropertyOp44
 70
     1
102
RTVSPropertyOp45
 70
     1
102
RTVSPropertyOp46
 70
     1
102
RTVSPropertyOp47
 70
     1
102
RTVSPropertyOp48
 70
     1
102
RTVSPropertyOp49
 70
     1
102
RTVSPropertyOp50
 70
     1
102
RTVSPropertyOp51
 70
     0
102
RTVSPropertyOp52
 70
     0
102
RTVSPropertyOp53
 70
     1
102
RTVSPropertyOp54
 70
     1
102
RTVSPropertyOp55
 70
     1
102
RTVSPropertyOp56
 70
     1
102
RTVSPropertyOp57
 70
     1
102
RTVSPost2010Prop28
280
     0
102
RTVSPost2010PropOp28
 70
     1
102
RTVSPost2010Prop29
280
     1
102
RTVSPost2010PropOp29
 70
     1
102
RTVSPost2010Prop30
280
     1
102
RTVSPost2010PropOp30
 70
     1
102
RTVSPost2010Prop31
280
     0
102
RTVSPost2010PropOp31
 70
     1
102
RTVSPost2010Prop32
280
     0
102
RTVSPost2010PropOp32
 70
     1
102
RTVSPost2010Prop33
280
     0
102
RTVSPost2010PropOp33
 70
     1
102
RTVSPost2010Prop34
280
     0
102
RTVSPost2010PropOp34
 70
     1
102
RTVSPost2010Prop35
280
     0
102
RTVSPost2010PropOp35
 70
     1
102
RTVSPost2010Prop36
280
     0
102
RTVSPost2010PropOp36
 70
     1
102
RTVSPost2010Prop37
 90
       50
102
RTVSPost2010PropOp37
 70
     1
102
RTVSPost2010Prop38
140
0.0
102
RTVSPost2010PropOp38
 70
     1
102
RTVSPost2010Prop39
140
1.0
102
RTVSPost2010PropOp39
 70
     1
102
RTVSPost2010Prop40
 90
        0
102
RTVSPost2010PropOp40
 70
     1
102
RTVSPost2010Prop41ColorIndex
 90
       18
102
RTVSPost2010Prop41ColorRGB
 90
        0
102
RTVSPost2010PropOp41
 70
     1
102
RTVSPost2010Prop42
 90
       50
102
RTVSPost2010PropOp42
 70
     1
102
RTVSPost2010Prop43
 90
        3
102
RTVSPost2010PropOp43
 70
     1
102
RTVSPost2010Prop44ColorIndex
 90
        5
102
RTVSPost2010Prop44ColorRGB
 90
      255
102
RTVSPost2010PropOp44
 70
     1
102
RTVSPost2010Prop45
280
     0
102
RTVSPost2010PropOp45
 70
     1
102
RTVSPost2010Prop46
 90
       50
102
RTVSPost2010PropOp46
 70
     1
102
RTVSPost2010Prop47
 90
       50
102
RTVSPost2010PropOp47
 70
     1
102
RTVSPost2010Prop48
 90
       50
102
RTVSPost2010PropOp48
 70
     1
102
RTVSPost2010Prop49
280
     0
102
RTVSPost2010PropOp49
 70
     1
102
RTVSPost2010Prop50
 90
       50
102
RTVSPost2010PropOp50
 70
     1
102
RTVSPost2010Prop51ColorIndex
 90
      256
102
RTVSPost2010Prop51ColorRGB
 90
-16777216
102
RTVSPost2010PropOp51
 70
     0
102
RTVSPost2010Prop52
140
1.0
102
RTVSPost2010PropOp52
 70
     0
102
RTVSPost2010Prop53
 90
        2
102
RTVSPost2010PropOp53
 70
     1
102
RTVSPost2010Prop54
  1
strokes_ogs.tif
102
RTVSPost2010PropOp54
 70
     1
102
RTVSPost2010Prop55
280
     0
102
RTVSPost2010PropOp55
 70
     1
102
RTVSPost2010Prop56
140
1.0
102
RTVSPost2010PropOp56
 70
     1
102
RTVSPost2010Prop57
140
1.0
102
RTVSPost2010PropOp57
 70
     1
  0
XRECORD
  5
4F9
102
{ACAD_REACTORS
330
4F8
102
}
330
4F8
100
AcDbXrecord
280
     1
102
RTVSPropertyOp0
 70
     1
102
RTVSPropertyOp1
 70
     1
102
RTVSPropertyOp2
 70
     1
102
RTVSPropertyOp3
 70
     1
102
RTVSPropertyOp4
 70
     1
102
RTVSPropertyOp5
 70
     1
102
RTVSPropertyOp6
 70
     1
102
RTVSPropertyOp7
 70
     1
102
RTVSPropertyOp8
 70
     1
102
RTVSPropertyOp9
 70
     1
102
RTVSPropertyOp10
 70
     1
102
RTVSPropertyOp11
 70
     1
102
RTVSPropertyOp12
 70
     1
102
RTVSPropertyOp13
 70
     1
102
RTVSPropertyOp14
 70
     1
102
RTVSPropertyOp15
 70
     1
102
RTVSPropertyOp16
 70
     1
102
RTVSPropertyOp17
 70
     1
102
RTVSPropertyOp18
 70
     1
102
RTVSPropertyOp19
 70
     1
102
RTVSPropertyOp20
 70
     1
102
RTVSPropertyOp21
 70
     1
102
RTVSPropertyOp22
 70
     1
102
RTVSPropertyOp23
 70
     1
102
RTVSPropertyOp24
 70
     1
102
RTVSPropertyOp25
 70
     1
102
RTVSPropertyOp26
 70
     1
102
RTVSPropertyOp27
 70
     1
102
RTVSPropertyOp28
 70
     1
102
RTVSPropertyOp29
 70
     1
102
RTVSPropertyOp30
 70
     1
102
RTVSPropertyOp31
 70
     1
102
RTVSPropertyOp32
 70
     1
102
RTVSPropertyOp33
 70
     1
102
RTVSPropertyOp34
 70
     1
102
RTVSPropertyOp35
 70
     1
102
RTVSPropertyOp36
 70
     1
102
RTVSPropertyOp37
 70
     1
102
RTVSPropertyOp38
 70
     1
102
RTVSPropertyOp39
 70
     1
102
RTVSPropertyOp40
 70
     1
102
RTVSPropertyOp41
 70
     1
102
RTVSPropertyOp42
 70
     1
102
RTVSPropertyOp43
 70
     1
102
RTVSPropertyOp44
 70
     1
102
RTVSPropertyOp45
 70
     1
102
RTVSPropertyOp46
 70
     1
102
RTVSPropertyOp47
 70
     1
102
RTVSPropertyOp48
 70
     1
102
RTVSPropertyOp49
 70
     1
102
RTVSPropertyOp50
 70
     1
102
RTVSPropertyOp51
 70
     0
102
RTVSPropertyOp52
 70
     0
102
RTVSPropertyOp53
 70
     1
102
RTVSPropertyOp54
 70
     1
102
RTVSPropertyOp55
 70
     1
102
RTVSPropertyOp56
 70
     1
102
RTVSPropertyOp57
 70
     1
102
RTVSPost2010Prop28
280
     0
102
RTVSPost2010PropOp28
 70
     1
102
RTVSPost2010Prop29
280
     1
102
RTVSPost2010PropOp29
 70
     1
102
RTVSPost2010Prop30
280
     1
102
RTVSPost2010PropOp30
 70
     1
102
RTVSPost2010Prop31
280
     0
102
RTVSPost2010PropOp31
 70
     1
102
RTVSPost2010Prop32
280
     0
102
RTVSPost2010PropOp32
 70
     1
102
RTVSPost2010Prop33
280
     0
102
RTVSPost2010PropOp33
 70
     1
102
RTVSPost2010Prop34
280
     0
102
RTVSPost2010PropOp34
 70
     1
102
RTVSPost2010Prop35
280
     0
102
RTVSPost2010PropOp35
 70
     1
102
RTVSPost2010Prop36
280
     0
102
RTVSPost2010PropOp36
 70
     1
102
RTVSPost2010Prop37
 90
       50
102
RTVSPost2010PropOp37
 70
     1
102
RTVSPost2010Prop38
140
0.0
102
RTVSPost2010PropOp38
 70
     1
102
RTVSPost2010Prop39
140
1.0
102
RTVSPost2010PropOp39
 70
     1
102
RTVSPost2010Prop40
 90
        0
102
RTVSPost2010PropOp40
 70
     1
102
RTVSPost2010Prop41ColorIndex
 90
       18
102
RTVSPost2010Prop41ColorRGB
 90
        0
102
RTVSPost2010PropOp41
 70
     1
102
RTVSPost2010Prop42
 90
       50
102
RTVSPost2010PropOp42
 70
     1
102
RTVSPost2010Prop43
 90
        3
102
RTVSPost2010PropOp43
 70
     1
102
RTVSPost2010Prop44ColorIndex
 90
        5
102
RTVSPost2010Prop44ColorRGB
 90
      255
102
RTVSPost2010PropOp44
 70
     1
102
RTVSPost2010Prop45
280
     0
102
RTVSPost2010PropOp45
 70
     1
102
RTVSPost2010Prop46
 90
       50
102
RTVSPost2010PropOp46
 70
     1
102
RTVSPost2010Prop47
 90
       50
102
RTVSPost2010PropOp47
 70
     1
102
RTVSPost2010Prop48
 90
       50
102
RTVSPost2010PropOp48
 70
     1
102
RTVSPost2010Prop49
280
     0
102
RTVSPost2010PropOp49
 70
     1
102
RTVSPost2010Prop50
 90
       50
102
RTVSPost2010PropOp50
 70
     1
102
RTVSPost2010Prop51ColorIndex
 90
      256
102
RTVSPost2010Prop51ColorRGB
 90
-16777216
102
RTVSPost2010PropOp51
 70
     0
102
RTVSPost2010Prop52
140
1.0
102
RTVSPost2010PropOp52
 70
     0
102
RTVSPost2010Prop53
 90
        2
102
RTVSPost2010PropOp53
 70
     1
102
RTVSPost2010Prop54
  1
strokes_ogs.tif
102
RTVSPost2010PropOp54
 70
     1
102
RTVSPost2010Prop55
280
     0
102
RTVSPost2010PropOp55
 70
     1
102
RTVSPost2010Prop56
140
1.0
102
RTVSPost2010PropOp56
 70
     1
102
RTVSPost2010Prop57
140
1.0
102
RTVSPost2010PropOp57
 70
     1
  0
XRECORD
  5
4FB
102
{ACAD_REACTORS
330
4FA
102
}
330
4FA
100
AcDbXrecord
280
     1
102
RTVSPropertyOp0
 70
     1
102
RTVSPropertyOp1
 70
     1
102
RTVSPropertyOp2
 70
     1
102
RTVSPropertyOp3
 70
     1
102
RTVSPropertyOp4
 70
     1
102
RTVSPropertyOp5
 70
     1
102
RTVSPropertyOp6
 70
     1
102
RTVSPropertyOp7
 70
     1
102
RTVSPropertyOp8
 70
     1
102
RTVSPropertyOp9
 70
     1
102
RTVSPropertyOp10
 70
     1
102
RTVSPropertyOp11
 70
     1
102
RTVSPropertyOp12
 70
     1
102
RTVSPropertyOp13
 70
     1
102
RTVSPropertyOp14
 70
     1
102
RTVSPropertyOp15
 70
     1
102
RTVSPropertyOp16
 70
     1
102
RTVSPropertyOp17
 70
     1
102
RTVSPropertyOp18
 70
     1
102
RTVSPropertyOp19
 70
     1
102
RTVSPropertyOp20
 70
     1
102
RTVSPropertyOp21
 70
     1
102
RTVSPropertyOp22
 70
     1
102
RTVSPropertyOp23
 70
     1
102
RTVSPropertyOp24
 70
     1
102
RTVSPropertyOp25
 70
     1
102
RTVSPropertyOp26
 70
     1
102
RTVSPropertyOp27
 70
     1
102
RTVSPropertyOp28
 70
     1
102
RTVSPropertyOp29
 70
     1
102
RTVSPropertyOp30
 70
     1
102
RTVSPropertyOp31
 70
     1
102
RTVSPropertyOp32
 70
     1
102
RTVSPropertyOp33
 70
     1
102
RTVSPropertyOp34
 70
     1
102
RTVSPropertyOp35
 70
     1
102
RTVSPropertyOp36
 70
     1
102
RTVSPropertyOp37
 70
     1
102
RTVSPropertyOp38
 70
     1
102
RTVSPropertyOp39
 70
     1
102
RTVSPropertyOp40
 70
     1
102
RTVSPropertyOp41
 70
     1
102
RTVSPropertyOp42
 70
     1
102
RTVSPropertyOp43
 70
     1
102
RTVSPropertyOp44
 70
     1
102
RTVSPropertyOp45
 70
     1
102
RTVSPropertyOp46
 70
     1
102
RTVSPropertyOp47
 70
     1
102
RTVSPropertyOp48
 70
     1
102
RTVSPropertyOp49
 70
     1
102
RTVSPropertyOp50
 70
     1
102
RTVSPropertyOp51
 70
     0
102
RTVSPropertyOp52
 70
     0
102
RTVSPropertyOp53
 70
     1
102
RTVSPropertyOp54
 70
     1
102
RTVSPropertyOp55
 70
     1
102
RTVSPropertyOp56
 70
     1
102
RTVSPropertyOp57
 70
     1
102
RTVSPost2010Prop28
280
     0
102
RTVSPost2010PropOp28
 70
     1
102
RTVSPost2010Prop29
280
     1
102
RTVSPost2010PropOp29
 70
     1
102
RTVSPost2010Prop30
280
     1
102
RTVSPost2010PropOp30
 70
     1
102
RTVSPost2010Prop31
280
     0
102
RTVSPost2010PropOp31
 70
     1
102
RTVSPost2010Prop32
280
     0
102
RTVSPost2010PropOp32
 70
     1
102
RTVSPost2010Prop33
280
     0
102
RTVSPost2010PropOp33
 70
     1
102
RTVSPost2010Prop34
280
     0
102
RTVSPost2010PropOp34
 70
     1
102
RTVSPost2010Prop35
280
     0
102
RTVSPost2010PropOp35
 70
     1
102
RTVSPost2010Prop36
280
     0
102
RTVSPost2010PropOp36
 70
     1
102
RTVSPost2010Prop37
 90
       50
102
RTVSPost2010PropOp37
 70
     1
102
RTVSPost2010Prop38
140
0.0
102
RTVSPost2010PropOp38
 70
     1
102
RTVSPost2010Prop39
140
1.0
102
RTVSPost2010PropOp39
 70
     1
102
RTVSPost2010Prop40
 90
        0
102
RTVSPost2010PropOp40
 70
     1
102
RTVSPost2010Prop41ColorIndex
 90
       18
102
RTVSPost2010Prop41ColorRGB
 90
        0
102
RTVSPost2010PropOp41
 70
     1
102
RTVSPost2010Prop42
 90
       50
102
RTVSPost2010PropOp42
 70
     1
102
RTVSPost2010Prop43
 90
        3
102
RTVSPost2010PropOp43
 70
     1
102
RTVSPost2010Prop44ColorIndex
 90
        5
102
RTVSPost2010Prop44ColorRGB
 90
      255
102
RTVSPost2010PropOp44
 70
     1
102
RTVSPost2010Prop45
280
     0
102
RTVSPost2010PropOp45
 70
     1
102
RTVSPost2010Prop46
 90
       50
102
RTVSPost2010PropOp46
 70
     1
102
RTVSPost2010Prop47
 90
       50
102
RTVSPost2010PropOp47
 70
     1
102
RTVSPost2010Prop48
 90
       50
102
RTVSPost2010PropOp48
 70
     1
102
RTVSPost2010Prop49
280
     0
102
RTVSPost2010PropOp49
 70
     1
102
RTVSPost2010Prop50
 90
       50
102
RTVSPost2010PropOp50
 70
     1
102
RTVSPost2010Prop51ColorIndex
 90
      256
102
RTVSPost2010Prop51ColorRGB
 90
-16777216
102
RTVSPost2010PropOp51
 70
     0
102
RTVSPost2010Prop52
140
1.0
102
RTVSPost2010PropOp52
 70
     0
102
RTVSPost2010Prop53
 90
        2
102
RTVSPost2010PropOp53
 70
     1
102
RTVSPost2010Prop54
  1
strokes_ogs.tif
102
RTVSPost2010PropOp54
 70
     1
102
RTVSPost2010Prop55
280
     0
102
RTVSPost2010PropOp55
 70
     1
102
RTVSPost2010Prop56
140
1.0
102
RTVSPost2010PropOp56
 70
     1
102
RTVSPost2010Prop57
140
1.0
102
RTVSPost2010PropOp57
 70
     1
  0
XRECORD
  5
4FD
102
{ACAD_REACTORS
330
4FC
102
}
330
4FC
100
AcDbXrecord
280
     1
102
RTVSPropertyOp0
 70
     1
102
RTVSPropertyOp1
 70
     1
102
RTVSPropertyOp2
 70
     1
102
RTVSPropertyOp3
 70
     1
102
RTVSPropertyOp4
 70
     1
102
RTVSPropertyOp5
 70
     1
102
RTVSPropertyOp6
 70
     1
102
RTVSPropertyOp7
 70
     1
102
RTVSPropertyOp8
 70
     1
102
RTVSPropertyOp9
 70
     1
102
RTVSPropertyOp10
 70
     1
102
RTVSPropertyOp11
 70
     1
102
RTVSPropertyOp12
 70
     1
102
RTVSPropertyOp13
 70
     1
102
RTVSPropertyOp14
 70
     1
102
RTVSPropertyOp15
 70
     1
102
RTVSPropertyOp16
 70
     1
102
RTVSPropertyOp17
 70
     1
102
RTVSPropertyOp18
 70
     1
102
RTVSPropertyOp19
 70
     1
102
RTVSPropertyOp20
 70
     1
102
RTVSPropertyOp21
 70
     1
102
RTVSPropertyOp22
 70
     1
102
RTVSPropertyOp23
 70
     1
102
RTVSPropertyOp24
 70
     1
102
RTVSPropertyOp25
 70
     1
102
RTVSPropertyOp26
 70
     1
102
RTVSPropertyOp27
 70
     1
102
RTVSPropertyOp28
 70
     1
102
RTVSPropertyOp29
 70
     1
102
RTVSPropertyOp30
 70
     1
102
RTVSPropertyOp31
 70
     1
102
RTVSPropertyOp32
 70
     1
102
RTVSPropertyOp33
 70
     1
102
RTVSPropertyOp34
 70
     1
102
RTVSPropertyOp35
 70
     1
102
RTVSPropertyOp36
 70
     1
102
RTVSPropertyOp37
 70
     1
102
RTVSPropertyOp38
 70
     1
102
RTVSPropertyOp39
 70
     1
102
RTVSPropertyOp40
 70
     1
102
RTVSPropertyOp41
 70
     1
102
RTVSPropertyOp42
 70
     1
102
RTVSPropertyOp43
 70
     1
102
RTVSPropertyOp44
 70
     1
102
RTVSPropertyOp45
 70
     1
102
RTVSPropertyOp46
 70
     1
102
RTVSPropertyOp47
 70
     1
102
RTVSPropertyOp48
 70
     1
102
RTVSPropertyOp49
 70
     1
102
RTVSPropertyOp50
 70
     1
102
RTVSPropertyOp51
 70
     0
102
RTVSPropertyOp52
 70
     0
102
RTVSPropertyOp53
 70
     1
102
RTVSPropertyOp54
 70
     1
102
RTVSPropertyOp55
 70
     1
102
RTVSPropertyOp56
 70
     1
102
RTVSPropertyOp57
 70
     1
102
RTVSPost2010Prop28
280
     0
102
RTVSPost2010PropOp28
 70
     1
102
RTVSPost2010Prop29
280
     1
102
RTVSPost2010PropOp29
 70
     1
102
RTVSPost2010Prop30
280
     1
102
RTVSPost2010PropOp30
 70
     1
102
RTVSPost2010Prop31
280
     0
102
RTVSPost2010PropOp31
 70
     1
102
RTVSPost2010Prop32
280
     0
102
RTVSPost2010PropOp32
 70
     1
102
RTVSPost2010Prop33
280
     0
102
RTVSPost2010PropOp33
 70
     1
102
RTVSPost2010Prop34
280
     0
102
RTVSPost2010PropOp34
 70
     1
102
RTVSPost2010Prop35
280
     0
102
RTVSPost2010PropOp35
 70
     1
102
RTVSPost2010Prop36
280
     0
102
RTVSPost2010PropOp36
 70
     1
102
RTVSPost2010Prop37
 90
       50
102
RTVSPost2010PropOp37
 70
     1
102
RTVSPost2010Prop38
140
0.0
102
RTVSPost2010PropOp38
 70
     1
102
RTVSPost2010Prop39
140
1.0
102
RTVSPost2010PropOp39
 70
     1
102
RTVSPost2010Prop40
 90
        0
102
RTVSPost2010PropOp40
 70
     1
102
RTVSPost2010Prop41ColorIndex
 90
       18
102
RTVSPost2010Prop41ColorRGB
 90
        0
102
RTVSPost2010PropOp41
 70
     1
102
RTVSPost2010Prop42
 90
       50
102
RTVSPost2010PropOp42
 70
     1
102
RTVSPost2010Prop43
 90
        3
102
RTVSPost2010PropOp43
 70
     1
102
RTVSPost2010Prop44ColorIndex
 90
        5
102
RTVSPost2010Prop44ColorRGB
 90
      255
102
RTVSPost2010PropOp44
 70
     1
102
RTVSPost2010Prop45
280
     0
102
RTVSPost2010PropOp45
 70
     1
102
RTVSPost2010Prop46
 90
       50
102
RTVSPost2010PropOp46
 70
     1
102
RTVSPost2010Prop47
 90
       50
102
RTVSPost2010PropOp47
 70
     1
102
RTVSPost2010Prop48
 90
       50
102
RTVSPost2010PropOp48
 70
     1
102
RTVSPost2010Prop49
280
     0
102
RTVSPost2010PropOp49
 70
     1
102
RTVSPost2010Prop50
 90
       50
102
RTVSPost2010PropOp50
 70
     1
102
RTVSPost2010Prop51ColorIndex
 90
      256
102
RTVSPost2010Prop51ColorRGB
 90
-16777216
102
RTVSPost2010PropOp51
 70
     0
102
RTVSPost2010Prop52
140
1.0
102
RTVSPost2010PropOp52
 70
     0
102
RTVSPost2010Prop53
 90
        2
102
RTVSPost2010PropOp53
 70
     1
102
RTVSPost2010Prop54
  1
strokes_ogs.tif
102
RTVSPost2010PropOp54
 70
     1
102
RTVSPost2010Prop55
280
     0
102
RTVSPost2010PropOp55
 70
     1
102
RTVSPost2010Prop56
140
1.0
102
RTVSPost2010PropOp56
 70
     1
102
RTVSPost2010Prop57
140
1.0
102
RTVSPost2010PropOp57
 70
     1
  0
XRECORD
  5
4FF
102
{ACAD_REACTORS
330
4FE
102
}
330
4FE
100
AcDbXrecord
280
     1
102
RTVSPropertyOp0
 70
     1
102
RTVSPropertyOp1
 70
     1
102
RTVSPropertyOp2
 70
     1
102
RTVSPropertyOp3
 70
     1
102
RTVSPropertyOp4
 70
     1
102
RTVSPropertyOp5
 70
     1
102
RTVSPropertyOp6
 70
     1
102
RTVSPropertyOp7
 70
     1
102
RTVSPropertyOp8
 70
     1
102
RTVSPropertyOp9
 70
     1
102
RTVSPropertyOp10
 70
     1
102
RTVSPropertyOp11
 70
     1
102
RTVSPropertyOp12
 70
     1
102
RTVSPropertyOp13
 70
     1
102
RTVSPropertyOp14
 70
     1
102
RTVSPropertyOp15
 70
     1
102
RTVSPropertyOp16
 70
     1
102
RTVSPropertyOp17
 70
     1
102
RTVSPropertyOp18
 70
     1
102
RTVSPropertyOp19
 70
     1
102
RTVSPropertyOp20
 70
     1
102
RTVSPropertyOp21
 70
     1
102
RTVSPropertyOp22
 70
     1
102
RTVSPropertyOp23
 70
     1
102
RTVSPropertyOp24
 70
     1
102
RTVSPropertyOp25
 70
     1
102
RTVSPropertyOp26
 70
     1
102
RTVSPropertyOp27
 70
     1
102
RTVSPropertyOp28
 70
     1
102
RTVSPropertyOp29
 70
     1
102
RTVSPropertyOp30
 70
     1
102
RTVSPropertyOp31
 70
     1
102
RTVSPropertyOp32
 70
     1
102
RTVSPropertyOp33
 70
     1
102
RTVSPropertyOp34
 70
     1
102
RTVSPropertyOp35
 70
     1
102
RTVSPropertyOp36
 70
     1
102
RTVSPropertyOp37
 70
     1
102
RTVSPropertyOp38
 70
     1
102
RTVSPropertyOp39
 70
     1
102
RTVSPropertyOp40
 70
     1
102
RTVSPropertyOp41
 70
     1
102
RTVSPropertyOp42
 70
     1
102
RTVSPropertyOp43
 70
     1
102
RTVSPropertyOp44
 70
     1
102
RTVSPropertyOp45
 70
     1
102
RTVSPropertyOp46
 70
     1
102
RTVSPropertyOp47
 70
     1
102
RTVSPropertyOp48
 70
     1
102
RTVSPropertyOp49
 70
     1
102
RTVSPropertyOp50
 70
     1
102
RTVSPropertyOp51
 70
     0
102
RTVSPropertyOp52
 70
     0
102
RTVSPropertyOp53
 70
     1
102
RTVSPropertyOp54
 70
     1
102
RTVSPropertyOp55
 70
     1
102
RTVSPropertyOp56
 70
     1
102
RTVSPropertyOp57
 70
     1
102
RTVSPost2010Prop28
280
     0
102
RTVSPost2010PropOp28
 70
     1
102
RTVSPost2010Prop29
280
     1
102
RTVSPost2010PropOp29
 70
     1
102
RTVSPost2010Prop30
280
     1
102
RTVSPost2010PropOp30
 70
     1
102
RTVSPost2010Prop31
280
     0
102
RTVSPost2010PropOp31
 70
     1
102
RTVSPost2010Prop32
280
     0
102
RTVSPost2010PropOp32
 70
     1
102
RTVSPost2010Prop33
280
     0
102
RTVSPost2010PropOp33
 70
     1
102
RTVSPost2010Prop34
280
     0
102
RTVSPost2010PropOp34
 70
     1
102
RTVSPost2010Prop35
280
     0
102
RTVSPost2010PropOp35
 70
     1
102
RTVSPost2010Prop36
280
     0
102
RTVSPost2010PropOp36
 70
     1
102
RTVSPost2010Prop37
 90
       50
102
RTVSPost2010PropOp37
 70
     1
102
RTVSPost2010Prop38
140
0.0
102
RTVSPost2010PropOp38
 70
     1
102
RTVSPost2010Prop39
140
1.0
102
RTVSPost2010PropOp39
 70
     1
102
RTVSPost2010Prop40
 90
        0
102
RTVSPost2010PropOp40
 70
     1
102
RTVSPost2010Prop41ColorIndex
 90
       18
102
RTVSPost2010Prop41ColorRGB
 90
        0
102
RTVSPost2010PropOp41
 70
     1
102
RTVSPost2010Prop42
 90
       50
102
RTVSPost2010PropOp42
 70
     1
102
RTVSPost2010Prop43
 90
        3
102
RTVSPost2010PropOp43
 70
     1
102
RTVSPost2010Prop44ColorIndex
 90
        5
102
RTVSPost2010Prop44ColorRGB
 90
      255
102
RTVSPost2010PropOp44
 70
     1
102
RTVSPost2010Prop45
280
     0
102
RTVSPost2010PropOp45
 70
     1
102
RTVSPost2010Prop46
 90
       50
102
RTVSPost2010PropOp46
 70
     1
102
RTVSPost2010Prop47
 90
       50
102
RTVSPost2010PropOp47
 70
     1
102
RTVSPost2010Prop48
 90
       50
102
RTVSPost2010PropOp48
 70
     1
102
RTVSPost2010Prop49
280
     0
102
RTVSPost2010PropOp49
 70
     1
102
RTVSPost2010Prop50
 90
       50
102
RTVSPost2010PropOp50
 70
     1
102
RTVSPost2010Prop51ColorIndex
 90
      256
102
RTVSPost2010Prop51ColorRGB
 90
-16777216
102
RTVSPost2010PropOp51
 70
     0
102
RTVSPost2010Prop52
140
1.0
102
RTVSPost2010PropOp52
 70
     0
102
RTVSPost2010Prop53
 90
        2
102
RTVSPost2010PropOp53
 70
     1
102
RTVSPost2010Prop54
  1
strokes_ogs.tif
102
RTVSPost2010PropOp54
 70
     1
102
RTVSPost2010Prop55
280
     0
102
RTVSPost2010PropOp55
 70
     1
102
RTVSPost2010Prop56
140
1.0
102
RTVSPost2010PropOp56
 70
     1
102
RTVSPost2010Prop57
140
1.0
102
RTVSPost2010PropOp57
 70
     1
  0
XRECORD
  5
505
102
{ACAD_REACTORS
330
504
102
}
330
504
100
AcDbXrecord
280
     1
102
RTVSPropertyOp0
 70
     1
102
RTVSPropertyOp1
 70
     1
102
RTVSPropertyOp2
 70
     1
102
RTVSPropertyOp3
 70
     1
102
RTVSPropertyOp4
 70
     1
102
RTVSPropertyOp5
 70
     1
102
RTVSPropertyOp6
 70
     1
102
RTVSPropertyOp7
 70
     1
102
RTVSPropertyOp8
 70
     1
102
RTVSPropertyOp9
 70
     1
102
RTVSPropertyOp10
 70
     1
102
RTVSPropertyOp11
 70
     1
102
RTVSPropertyOp12
 70
     1
102
RTVSPropertyOp13
 70
     1
102
RTVSPropertyOp14
 70
     1
102
RTVSPropertyOp15
 70
     1
102
RTVSPropertyOp16
 70
     1
102
RTVSPropertyOp17
 70
     1
102
RTVSPropertyOp18
 70
     1
102
RTVSPropertyOp19
 70
     1
102
RTVSPropertyOp20
 70
     1
102
RTVSPropertyOp21
 70
     1
102
RTVSPropertyOp22
 70
     1
102
RTVSPropertyOp23
 70
     1
102
RTVSPropertyOp24
 70
     1
102
RTVSPropertyOp25
 70
     1
102
RTVSPropertyOp26
 70
     1
102
RTVSPropertyOp27
 70
     1
102
RTVSPropertyOp28
 70
     1
102
RTVSPropertyOp29
 70
     1
102
RTVSPropertyOp30
 70
     1
102
RTVSPropertyOp31
 70
     1
102
RTVSPropertyOp32
 70
     1
102
RTVSPropertyOp33
 70
     1
102
RTVSPropertyOp34
 70
     1
102
RTVSPropertyOp35
 70
     1
102
RTVSPropertyOp36
 70
     1
102
RTVSPropertyOp37
 70
     1
102
RTVSPropertyOp38
 70
     1
102
RTVSPropertyOp39
 70
     1
102
RTVSPropertyOp40
 70
     1
102
RTVSPropertyOp41
 70
     1
102
RTVSPropertyOp42
 70
     1
102
RTVSPropertyOp43
 70
     1
102
RTVSPropertyOp44
 70
     1
102
RTVSPropertyOp45
 70
     1
102
RTVSPropertyOp46
 70
     1
102
RTVSPropertyOp47
 70
     1
102
RTVSPropertyOp48
 70
     1
102
RTVSPropertyOp49
 70
     1
102
RTVSPropertyOp50
 70
     1
102
RTVSPropertyOp51
 70
     0
102
RTVSPropertyOp52
 70
     0
102
RTVSPropertyOp53
 70
     1
102
RTVSPropertyOp54
 70
     1
102
RTVSPropertyOp55
 70
     1
102
RTVSPropertyOp56
 70
     1
102
RTVSPropertyOp57
 70
     1
102
RTVSPost2010Prop28
280
     0
102
RTVSPost2010PropOp28
 70
     1
102
RTVSPost2010Prop29
280
     1
102
RTVSPost2010PropOp29
 70
     1
102
RTVSPost2010Prop30
280
     1
102
RTVSPost2010PropOp30
 70
     1
102
RTVSPost2010Prop31
280
     0
102
RTVSPost2010PropOp31
 70
     1
102
RTVSPost2010Prop32
280
     0
102
RTVSPost2010PropOp32
 70
     1
102
RTVSPost2010Prop33
280
     0
102
RTVSPost2010PropOp33
 70
     1
102
RTVSPost2010Prop34
280
     0
102
RTVSPost2010PropOp34
 70
     1
102
RTVSPost2010Prop35
280
     0
102
RTVSPost2010PropOp35
 70
     1
102
RTVSPost2010Prop36
280
     0
102
RTVSPost2010PropOp36
 70
     1
102
RTVSPost2010Prop37
 90
       50
102
RTVSPost2010PropOp37
 70
     1
102
RTVSPost2010Prop38
140
0.0
102
RTVSPost2010PropOp38
 70
     1
102
RTVSPost2010Prop39
140
1.0
102
RTVSPost2010PropOp39
 70
     1
102
RTVSPost2010Prop40
 90
        0
102
RTVSPost2010PropOp40
 70
     1
102
RTVSPost2010Prop41ColorIndex
 90
       18
102
RTVSPost2010Prop41ColorRGB
 90
        0
102
RTVSPost2010PropOp41
 70
     1
102
RTVSPost2010Prop42
 90
       50
102
RTVSPost2010PropOp42
 70
     1
102
RTVSPost2010Prop43
 90
        3
102
RTVSPost2010PropOp43
 70
     1
102
RTVSPost2010Prop44ColorIndex
 90
        5
102
RTVSPost2010Prop44ColorRGB
 90
      255
102
RTVSPost2010PropOp44
 70
     1
102
RTVSPost2010Prop45
280
     0
102
RTVSPost2010PropOp45
 70
     1
102
RTVSPost2010Prop46
 90
       50
102
RTVSPost2010PropOp46
 70
     1
102
RTVSPost2010Prop47
 90
       50
102
RTVSPost2010PropOp47
 70
     1
102
RTVSPost2010Prop48
 90
       50
102
RTVSPost2010PropOp48
 70
     1
102
RTVSPost2010Prop49
280
     0
102
RTVSPost2010PropOp49
 70
     1
102
RTVSPost2010Prop50
 90
       50
102
RTVSPost2010PropOp50
 70
     1
102
RTVSPost2010Prop51ColorIndex
 90
      256
102
RTVSPost2010Prop51ColorRGB
 90
-16777216
102
RTVSPost2010PropOp51
 70
     0
102
RTVSPost2010Prop52
140
1.0
102
RTVSPost2010PropOp52
 70
     0
102
RTVSPost2010Prop53
 90
        2
102
RTVSPost2010PropOp53
 70
     1
102
RTVSPost2010Prop54
  1
strokes_ogs.tif
102
RTVSPost2010PropOp54
 70
     1
102
RTVSPost2010Prop55
280
     0
102
RTVSPost2010PropOp55
 70
     1
102
RTVSPost2010Prop56
140
1.0
102
RTVSPost2010PropOp56
 70
     1
102
RTVSPost2010Prop57
140
1.0
102
RTVSPost2010PropOp57
 70
     1
  0
XRECORD
  5
519
102
{ACAD_REACTORS
330
518
102
}
330
518
100
AcDbXrecord
280
     1
102
RTVSPropertyOp0
 70
     0
102
RTVSPropertyOp1
 70
     0
102
RTVSPropertyOp2
 70
     0
102
RTVSPropertyOp3
 70
     0
102
RTVSPropertyOp4
 70
     0
102
RTVSPropertyOp5
 70
     0
102
RTVSPropertyOp6
 70
     0
102
RTVSPropertyOp7
 70
     0
102
RTVSPropertyOp8
 70
     0
102
RTVSPropertyOp9
 70
     0
102
RTVSPropertyOp10
 70
     0
102
RTVSPropertyOp11
 70
     0
102
RTVSPropertyOp12
 70
     0
102
RTVSPropertyOp13
 70
     0
102
RTVSPropertyOp14
 70
     0
102
RTVSPropertyOp15
 70
     0
102
RTVSPropertyOp16
 70
     0
102
RTVSPropertyOp17
 70
     0
102
RTVSPropertyOp18
 70
     0
102
RTVSPropertyOp19
 70
     0
102
RTVSPropertyOp20
 70
     0
102
RTVSPropertyOp21
 70
     0
102
RTVSPropertyOp22
 70
     0
102
RTVSPropertyOp23
 70
     0
102
RTVSPropertyOp24
 70
     0
102
RTVSPropertyOp25
 70
     0
102
RTVSPropertyOp26
 70
     0
102
RTVSPropertyOp27
 70
     0
102
RTVSPropertyOp28
 70
     1
102
RTVSPropertyOp29
 70
     1
102
RTVSPropertyOp30
 70
     1
102
RTVSPropertyOp31
 70
     1
102
RTVSPropertyOp32
 70
     1
102
RTVSPropertyOp33
 70
     1
102
RTVSPropertyOp34
 70
     1
102
RTVSPropertyOp35
 70
     1
102
RTVSPropertyOp36
 70
     1
102
RTVSPropertyOp37
 70
     1
102
RTVSPropertyOp38
 70
     1
102
RTVSPropertyOp39
 70
     1
102
RTVSPropertyOp40
 70
     1
102
RTVSPropertyOp41
 70
     1
102
RTVSPropertyOp42
 70
     1
102
RTVSPropertyOp43
 70
     1
102
RTVSPropertyOp44
 70
     1
102
RTVSPropertyOp45
 70
     1
102
RTVSPropertyOp46
 70
     1
102
RTVSPropertyOp47
 70
     1
102
RTVSPropertyOp48
 70
     1
102
RTVSPropertyOp49
 70
     1
102
RTVSPropertyOp50
 70
     1
102
RTVSPropertyOp51
 70
     0
102
RTVSPropertyOp52
 70
     0
102
RTVSPropertyOp53
 70
     1
102
RTVSPropertyOp54
 70
     1
102
RTVSPropertyOp55
 70
     1
102
RTVSPropertyOp56
 70
     1
102
RTVSPropertyOp57
 70
     1
102
RTVSPost2010Prop28
280
     0
102
RTVSPost2010PropOp28
 70
     1
102
RTVSPost2010Prop29
280
     1
102
RTVSPost2010PropOp29
 70
     1
102
RTVSPost2010Prop30
280
     1
102
RTVSPost2010PropOp30
 70
     1
102
RTVSPost2010Prop31
280
     0
102
RTVSPost2010PropOp31
 70
     1
102
RTVSPost2010Prop32
280
     0
102
RTVSPost2010PropOp32
 70
     1
102
RTVSPost2010Prop33
280
     0
102
RTVSPost2010PropOp33
 70
     1
102
RTVSPost2010Prop34
280
     0
102
RTVSPost2010PropOp34
 70
     1
102
RTVSPost2010Prop35
280
     0
102
RTVSPost2010PropOp35
 70
     1
102
RTVSPost2010Prop36
280
     0
102
RTVSPost2010PropOp36
 70
     1
102
RTVSPost2010Prop37
 90
       50
102
RTVSPost2010PropOp37
 70
     1
102
RTVSPost2010Prop38
140
0.0
102
RTVSPost2010PropOp38
 70
     1
102
RTVSPost2010Prop39
140
1.0
102
RTVSPost2010PropOp39
 70
     1
102
RTVSPost2010Prop40
 90
        0
102
RTVSPost2010PropOp40
 70
     1
102
RTVSPost2010Prop41ColorIndex
 90
       18
102
RTVSPost2010Prop41ColorRGB
 90
        0
102
RTVSPost2010PropOp41
 70
     1
102
RTVSPost2010Prop42
 90
       50
102
RTVSPost2010PropOp42
 70
     1
102
RTVSPost2010Prop43
 90
        3
102
RTVSPost2010PropOp43
 70
     1
102
RTVSPost2010Prop44ColorIndex
 90
        5
102
RTVSPost2010Prop44ColorRGB
 90
      255
102
RTVSPost2010PropOp44
 70
     1
102
RTVSPost2010Prop45
280
     0
102
RTVSPost2010PropOp45
 70
     1
102
RTVSPost2010Prop46
 90
       50
102
RTVSPost2010PropOp46
 70
     1
102
RTVSPost2010Prop47
 90
       50
102
RTVSPost2010PropOp47
 70
     1
102
RTVSPost2010Prop48
 90
       50
102
RTVSPost2010PropOp48
 70
     1
102
RTVSPost2010Prop49
280
     0
102
RTVSPost2010PropOp49
 70
     1
102
RTVSPost2010Prop50
 90
       50
102
RTVSPost2010PropOp50
 70
     1
102
RTVSPost2010Prop51ColorIndex
 90
      256
102
RTVSPost2010Prop51ColorRGB
 90
-16777216
102
RTVSPost2010PropOp51
 70
     0
102
RTVSPost2010Prop52
140
1.0
102
RTVSPost2010PropOp52
 70
     0
102
RTVSPost2010Prop53
 90
        2
102
RTVSPost2010PropOp53
 70
     1
102
RTVSPost2010Prop54
  1
strokes_ogs.tif
102
RTVSPost2010PropOp54
 70
     1
102
RTVSPost2010Prop55
280
     0
102
RTVSPost2010PropOp55
 70
     1
102
RTVSPost2010Prop56
140
1.0
102
RTVSPost2010PropOp56
 70
     1
102
RTVSPost2010Prop57
140
1.0
102
RTVSPost2010PropOp57
 70
     1
  0
XRECORD
  5
513
102
{ACAD_REACTORS
330
512
102
}
330
512
100
AcDbXrecord
280
     1
102
RTVSPropertyOp0
 70
     1
102
RTVSPropertyOp1
 70
     1
102
RTVSPropertyOp2
 70
     1
102
RTVSPropertyOp3
 70
     1
102
RTVSPropertyOp4
 70
     1
102
RTVSPropertyOp5
 70
     1
102
RTVSPropertyOp6
 70
     1
102
RTVSPropertyOp7
 70
     1
102
RTVSPropertyOp8
 70
     1
102
RTVSPropertyOp9
 70
     1
102
RTVSPropertyOp10
 70
     1
102
RTVSPropertyOp11
 70
     1
102
RTVSPropertyOp12
 70
     1
102
RTVSPropertyOp13
 70
     1
102
RTVSPropertyOp14
 70
     1
102
RTVSPropertyOp15
 70
     1
102
RTVSPropertyOp16
 70
     1
102
RTVSPropertyOp17
 70
     1
102
RTVSPropertyOp18
 70
     1
102
RTVSPropertyOp19
 70
     1
102
RTVSPropertyOp20
 70
     1
102
RTVSPropertyOp21
 70
     1
102
RTVSPropertyOp22
 70
     1
102
RTVSPropertyOp23
 70
     1
102
RTVSPropertyOp24
 70
     1
102
RTVSPropertyOp25
 70
     1
102
RTVSPropertyOp26
 70
     1
102
RTVSPropertyOp27
 70
     1
102
RTVSPropertyOp28
 70
     1
102
RTVSPropertyOp29
 70
     1
102
RTVSPropertyOp30
 70
     1
102
RTVSPropertyOp31
 70
     1
102
RTVSPropertyOp32
 70
     1
102
RTVSPropertyOp33
 70
     1
102
RTVSPropertyOp34
 70
     1
102
RTVSPropertyOp35
 70
     1
102
RTVSPropertyOp36
 70
     1
102
RTVSPropertyOp37
 70
     1
102
RTVSPropertyOp38
 70
     1
102
RTVSPropertyOp39
 70
     1
102
RTVSPropertyOp40
 70
     1
102
RTVSPropertyOp41
 70
     1
102
RTVSPropertyOp42
 70
     1
102
RTVSPropertyOp43
 70
     1
102
RTVSPropertyOp44
 70
     1
102
RTVSPropertyOp45
 70
     1
102
RTVSPropertyOp46
 70
     1
102
RTVSPropertyOp47
 70
     1
102
RTVSPropertyOp48
 70
     1
102
RTVSPropertyOp49
 70
     1
102
RTVSPropertyOp50
 70
     1
102
RTVSPropertyOp51
 70
     0
102
RTVSPropertyOp52
 70
     0
102
RTVSPropertyOp53
 70
     1
102
RTVSPropertyOp54
 70
     1
102
RTVSPropertyOp55
 70
     1
102
RTVSPropertyOp56
 70
     1
102
RTVSPropertyOp57
 70
     1
102
RTVSPost2010Prop28
280
     0
102
RTVSPost2010PropOp28
 70
     1
102
RTVSPost2010Prop29
280
     1
102
RTVSPost2010PropOp29
 70
     1
102
RTVSPost2010Prop30
280
     1
102
RTVSPost2010PropOp30
 70
     1
102
RTVSPost2010Prop31
280
     0
102
RTVSPost2010PropOp31
 70
     1
102
RTVSPost2010Prop32
280
     0
102
RTVSPost2010PropOp32
 70
     1
102
RTVSPost2010Prop33
280
     0
102
RTVSPost2010PropOp33
 70
     1
102
RTVSPost2010Prop34
280
     0
102
RTVSPost2010PropOp34
 70
     1
102
RTVSPost2010Prop35
280
     0
102
RTVSPost2010PropOp35
 70
     1
102
RTVSPost2010Prop36
280
     0
102
RTVSPost2010PropOp36
 70
     1
102
RTVSPost2010Prop37
 90
       50
102
RTVSPost2010PropOp37
 70
     1
102
RTVSPost2010Prop38
140
0.0
102
RTVSPost2010PropOp38
 70
     1
102
RTVSPost2010Prop39
140
1.0
102
RTVSPost2010PropOp39
 70
     1
102
RTVSPost2010Prop40
 90
        0
102
RTVSPost2010PropOp40
 70
     1
102
RTVSPost2010Prop41ColorIndex
 90
       18
102
RTVSPost2010Prop41ColorRGB
 90
        0
102
RTVSPost2010PropOp41
 70
     1
102
RTVSPost2010Prop42
 90
       50
102
RTVSPost2010PropOp42
 70
     1
102
RTVSPost2010Prop43
 90
        3
102
RTVSPost2010PropOp43
 70
     1
102
RTVSPost2010Prop44ColorIndex
 90
        5
102
RTVSPost2010Prop44ColorRGB
 90
      255
102
RTVSPost2010PropOp44
 70
     1
102
RTVSPost2010Prop45
280
     0
102
RTVSPost2010PropOp45
 70
     1
102
RTVSPost2010Prop46
 90
       50
102
RTVSPost2010PropOp46
 70
     1
102
RTVSPost2010Prop47
 90
       50
102
RTVSPost2010PropOp47
 70
     1
102
RTVSPost2010Prop48
 90
       50
102
RTVSPost2010PropOp48
 70
     1
102
RTVSPost2010Prop49
280
     0
102
RTVSPost2010PropOp49
 70
     1
102
RTVSPost2010Prop50
 90
       50
102
RTVSPost2010PropOp50
 70
     1
102
RTVSPost2010Prop51ColorIndex
 90
      256
102
RTVSPost2010Prop51ColorRGB
 90
-16777216
102
RTVSPost2010PropOp51
 70
     0
102
RTVSPost2010Prop52
140
1.0
102
RTVSPost2010PropOp52
 70
     0
102
RTVSPost2010Prop53
 90
        2
102
RTVSPost2010PropOp53
 70
     1
102
RTVSPost2010Prop54
  1
strokes_ogs.tif
102
RTVSPost2010PropOp54
 70
     1
102
RTVSPost2010Prop55
280
     0
102
RTVSPost2010PropOp55
 70
     1
102
RTVSPost2010Prop56
140
1.0
102
RTVSPost2010PropOp56
 70
     1
102
RTVSPost2010Prop57
140
1.0
102
RTVSPost2010PropOp57
 70
     1
  0
XRECORD
  5
51B
102
{ACAD_REACTORS
330
51A
102
}
330
51A
100
AcDbXrecord
280
     1
102
RTVSPropertyOp0
 70
     0
102
RTVSPropertyOp1
 70
     0
102
RTVSPropertyOp2
 70
     0
102
RTVSPropertyOp3
 70
     0
102
RTVSPropertyOp4
 70
     0
102
RTVSPropertyOp5
 70
     0
102
RTVSPropertyOp6
 70
     0
102
RTVSPropertyOp7
 70
     0
102
RTVSPropertyOp8
 70
     0
102
RTVSPropertyOp9
 70
     0
102
RTVSPropertyOp10
 70
     0
102
RTVSPropertyOp11
 70
     0
102
RTVSPropertyOp12
 70
     0
102
RTVSPropertyOp13
 70
     0
102
RTVSPropertyOp14
 70
     0
102
RTVSPropertyOp15
 70
     0
102
RTVSPropertyOp16
 70
     0
102
RTVSPropertyOp17
 70
     0
102
RTVSPropertyOp18
 70
     0
102
RTVSPropertyOp19
 70
     0
102
RTVSPropertyOp20
 70
     0
102
RTVSPropertyOp21
 70
     0
102
RTVSPropertyOp22
 70
     0
102
RTVSPropertyOp23
 70
     0
102
RTVSPropertyOp24
 70
     0
102
RTVSPropertyOp25
 70
     0
102
RTVSPropertyOp26
 70
     0
102
RTVSPropertyOp27
 70
     0
102
RTVSPropertyOp28
 70
     1
102
RTVSPropertyOp29
 70
     1
102
RTVSPropertyOp30
 70
     1
102
RTVSPropertyOp31
 70
     1
102
RTVSPropertyOp32
 70
     1
102
RTVSPropertyOp33
 70
     1
102
RTVSPropertyOp34
 70
     1
102
RTVSPropertyOp35
 70
     1
102
RTVSPropertyOp36
 70
     1
102
RTVSPropertyOp37
 70
     1
102
RTVSPropertyOp38
 70
     1
102
RTVSPropertyOp39
 70
     1
102
RTVSPropertyOp40
 70
     1
102
RTVSPropertyOp41
 70
     1
102
RTVSPropertyOp42
 70
     1
102
RTVSPropertyOp43
 70
     1
102
RTVSPropertyOp44
 70
     1
102
RTVSPropertyOp45
 70
     1
102
RTVSPropertyOp46
 70
     1
102
RTVSPropertyOp47
 70
     1
102
RTVSPropertyOp48
 70
     1
102
RTVSPropertyOp49
 70
     1
102
RTVSPropertyOp50
 70
     1
102
RTVSPropertyOp51
 70
     0
102
RTVSPropertyOp52
 70
     0
102
RTVSPropertyOp53
 70
     1
102
RTVSPropertyOp54
 70
     1
102
RTVSPropertyOp55
 70
     1
102
RTVSPropertyOp56
 70
     1
102
RTVSPropertyOp57
 70
     1
102
RTVSPost2010Prop28
280
     0
102
RTVSPost2010PropOp28
 70
     1
102
RTVSPost2010Prop29
280
     1
102
RTVSPost2010PropOp29
 70
     1
102
RTVSPost2010Prop30
280
     1
102
RTVSPost2010PropOp30
 70
     1
102
RTVSPost2010Prop31
280
     0
102
RTVSPost2010PropOp31
 70
     1
102
RTVSPost2010Prop32
280
     0
102
RTVSPost2010PropOp32
 70
     1
102
RTVSPost2010Prop33
280
     0
102
RTVSPost2010PropOp33
 70
     1
102
RTVSPost2010Prop34
280
     0
102
RTVSPost2010PropOp34
 70
     1
102
RTVSPost2010Prop35
280
     0
102
RTVSPost2010PropOp35
 70
     1
102
RTVSPost2010Prop36
280
     0
102
RTVSPost2010PropOp36
 70
     1
102
RTVSPost2010Prop37
 90
       50
102
RTVSPost2010PropOp37
 70
     1
102
RTVSPost2010Prop38
140
0.0
102
RTVSPost2010PropOp38
 70
     1
102
RTVSPost2010Prop39
140
1.0
102
RTVSPost2010PropOp39
 70
     1
102
RTVSPost2010Prop40
 90
        0
102
RTVSPost2010PropOp40
 70
     1
102
RTVSPost2010Prop41ColorIndex
 90
       18
102
RTVSPost2010Prop41ColorRGB
 90
        0
102
RTVSPost2010PropOp41
 70
     1
102
RTVSPost2010Prop42
 90
       50
102
RTVSPost2010PropOp42
 70
     1
102
RTVSPost2010Prop43
 90
        3
102
RTVSPost2010PropOp43
 70
     1
102
RTVSPost2010Prop44ColorIndex
 90
        5
102
RTVSPost2010Prop44ColorRGB
 90
      255
102
RTVSPost2010PropOp44
 70
     1
102
RTVSPost2010Prop45
280
     0
102
RTVSPost2010PropOp45
 70
     1
102
RTVSPost2010Prop46
 90
       50
102
RTVSPost2010PropOp46
 70
     1
102
RTVSPost2010Prop47
 90
       50
102
RTVSPost2010PropOp47
 70
     1
102
RTVSPost2010Prop48
 90
       50
102
RTVSPost2010PropOp48
 70
     1
102
RTVSPost2010Prop49
280
     0
102
RTVSPost2010PropOp49
 70
     1
102
RTVSPost2010Prop50
 90
       50
102
RTVSPost2010PropOp50
 70
     1
102
RTVSPost2010Prop51ColorIndex
 90
      256
102
RTVSPost2010Prop51ColorRGB
 90
-16777216
102
RTVSPost2010PropOp51
 70
     0
102
RTVSPost2010Prop52
140
1.0
102
RTVSPost2010PropOp52
 70
     0
102
RTVSPost2010Prop53
 90
        2
102
RTVSPost2010PropOp53
 70
     1
102
RTVSPost2010Prop54
  1
strokes_ogs.tif
102
RTVSPost2010PropOp54
 70
     1
102
RTVSPost2010Prop55
280
     0
102
RTVSPost2010PropOp55
 70
     1
102
RTVSPost2010Prop56
140
1.0
102
RTVSPost2010PropOp56
 70
     1
102
RTVSPost2010Prop57
140
1.0
102
RTVSPost2010PropOp57
 70
     1
  0
XRECORD
  5
509
102
{ACAD_REACTORS
330
508
102
}
330
508
100
AcDbXrecord
280
     1
102
RTVSPropertyOp0
 70
     1
102
RTVSPropertyOp1
 70
     1
102
RTVSPropertyOp2
 70
     1
102
RTVSPropertyOp3
 70
     1
102
RTVSPropertyOp4
 70
     1
102
RTVSPropertyOp5
 70
     1
102
RTVSPropertyOp6
 70
     1
102
RTVSPropertyOp7
 70
     1
102
RTVSPropertyOp8
 70
     1
102
RTVSPropertyOp9
 70
     1
102
RTVSPropertyOp10
 70
     1
102
RTVSPropertyOp11
 70
     1
102
RTVSPropertyOp12
 70
     1
102
RTVSPropertyOp13
 70
     1
102
RTVSPropertyOp14
 70
     1
102
RTVSPropertyOp15
 70
     1
102
RTVSPropertyOp16
 70
     1
102
RTVSPropertyOp17
 70
     1
102
RTVSPropertyOp18
 70
     1
102
RTVSPropertyOp19
 70
     1
102
RTVSPropertyOp20
 70
     1
102
RTVSPropertyOp21
 70
     1
102
RTVSPropertyOp22
 70
     1
102
RTVSPropertyOp23
 70
     1
102
RTVSPropertyOp24
 70
     1
102
RTVSPropertyOp25
 70
     1
102
RTVSPropertyOp26
 70
     1
102
RTVSPropertyOp27
 70
     1
102
RTVSPropertyOp28
 70
     1
102
RTVSPropertyOp29
 70
     1
102
RTVSPropertyOp30
 70
     1
102
RTVSPropertyOp31
 70
     1
102
RTVSPropertyOp32
 70
     1
102
RTVSPropertyOp33
 70
     1
102
RTVSPropertyOp34
 70
     1
102
RTVSPropertyOp35
 70
     1
102
RTVSPropertyOp36
 70
     1
102
RTVSPropertyOp37
 70
     1
102
RTVSPropertyOp38
 70
     1
102
RTVSPropertyOp39
 70
     1
102
RTVSPropertyOp40
 70
     1
102
RTVSPropertyOp41
 70
     1
102
RTVSPropertyOp42
 70
     1
102
RTVSPropertyOp43
 70
     1
102
RTVSPropertyOp44
 70
     1
102
RTVSPropertyOp45
 70
     1
102
RTVSPropertyOp46
 70
     1
102
RTVSPropertyOp47
 70
     1
102
RTVSPropertyOp48
 70
     1
102
RTVSPropertyOp49
 70
     1
102
RTVSPropertyOp50
 70
     1
102
RTVSPropertyOp51
 70
     0
102
RTVSPropertyOp52
 70
     0
102
RTVSPropertyOp53
 70
     1
102
RTVSPropertyOp54
 70
     1
102
RTVSPropertyOp55
 70
     1
102
RTVSPropertyOp56
 70
     1
102
RTVSPropertyOp57
 70
     1
102
RTVSPost2010Prop28
280
     0
102
RTVSPost2010PropOp28
 70
     1
102
RTVSPost2010Prop29
280
     1
102
RTVSPost2010PropOp29
 70
     1
102
RTVSPost2010Prop30
280
     1
102
RTVSPost2010PropOp30
 70
     1
102
RTVSPost2010Prop31
280
     0
102
RTVSPost2010PropOp31
 70
     1
102
RTVSPost2010Prop32
280
     0
102
RTVSPost2010PropOp32
 70
     1
102
RTVSPost2010Prop33
280
     0
102
RTVSPost2010PropOp33
 70
     1
102
RTVSPost2010Prop34
280
     0
102
RTVSPost2010PropOp34
 70
     1
102
RTVSPost2010Prop35
280
     0
102
RTVSPost2010PropOp35
 70
     1
102
RTVSPost2010Prop36
280
     0
102
RTVSPost2010PropOp36
 70
     1
102
RTVSPost2010Prop37
 90
       50
102
RTVSPost2010PropOp37
 70
     1
102
RTVSPost2010Prop38
140
0.0
102
RTVSPost2010PropOp38
 70
     1
102
RTVSPost2010Prop39
140
1.0
102
RTVSPost2010PropOp39
 70
     1
102
RTVSPost2010Prop40
 90
        0
102
RTVSPost2010PropOp40
 70
     1
102
RTVSPost2010Prop41ColorIndex
 90
       18
102
RTVSPost2010Prop41ColorRGB
 90
        0
102
RTVSPost2010PropOp41
 70
     1
102
RTVSPost2010Prop42
 90
       50
102
RTVSPost2010PropOp42
 70
     1
102
RTVSPost2010Prop43
 90
        3
102
RTVSPost2010PropOp43
 70
     1
102
RTVSPost2010Prop44ColorIndex
 90
        5
102
RTVSPost2010Prop44ColorRGB
 90
      255
102
RTVSPost2010PropOp44
 70
     1
102
RTVSPost2010Prop45
280
     0
102
RTVSPost2010PropOp45
 70
     1
102
RTVSPost2010Prop46
 90
       50
102
RTVSPost2010PropOp46
 70
     1
102
RTVSPost2010Prop47
 90
       50
102
RTVSPost2010PropOp47
 70
     1
102
RTVSPost2010Prop48
 90
       50
102
RTVSPost2010PropOp48
 70
     1
102
RTVSPost2010Prop49
280
     0
102
RTVSPost2010PropOp49
 70
     1
102
RTVSPost2010Prop50
 90
       50
102
RTVSPost2010PropOp50
 70
     1
102
RTVSPost2010Prop51ColorIndex
 90
      256
102
RTVSPost2010Prop51ColorRGB
 90
-16777216
102
RTVSPost2010PropOp51
 70
     0
102
RTVSPost2010Prop52
140
1.0
102
RTVSPost2010PropOp52
 70
     0
102
RTVSPost2010Prop53
 90
        2
102
RTVSPost2010PropOp53
 70
     1
102
RTVSPost2010Prop54
  1
strokes_ogs.tif
102
RTVSPost2010PropOp54
 70
     1
102
RTVSPost2010Prop55
280
     0
102
RTVSPost2010PropOp55
 70
     1
102
RTVSPost2010Prop56
140
1.0
102
RTVSPost2010PropOp56
 70
     1
102
RTVSPost2010Prop57
140
1.0
102
RTVSPost2010PropOp57
 70
     1
  0
XRECORD
  5
527
102
{ACAD_REACTORS
330
526
102
}
330
526
100
AcDbXrecord
280
     1
102
RTVSPropertyOp0
 70
     1
102
RTVSPropertyOp1
 70
     1
102
RTVSPropertyOp2
 70
     1
102
RTVSPropertyOp3
 70
     1
102
RTVSPropertyOp4
 70
     1
102
RTVSPropertyOp5
 70
     1
102
RTVSPropertyOp6
 70
     1
102
RTVSPropertyOp7
 70
     1
102
RTVSPropertyOp8
 70
     1
102
RTVSPropertyOp9
 70
     1
102
RTVSPropertyOp10
 70
     1
102
RTVSPropertyOp11
 70
     1
102
RTVSPropertyOp12
 70
     1
102
RTVSPropertyOp13
 70
     1
102
RTVSPropertyOp14
 70
     1
102
RTVSPropertyOp15
 70
     1
102
RTVSPropertyOp16
 70
     1
102
RTVSPropertyOp17
 70
     1
102
RTVSPropertyOp18
 70
     1
102
RTVSPropertyOp19
 70
     1
102
RTVSPropertyOp20
 70
     1
102
RTVSPropertyOp21
 70
     1
102
RTVSPropertyOp22
 70
     1
102
RTVSPropertyOp23
 70
     1
102
RTVSPropertyOp24
 70
     1
102
RTVSPropertyOp25
 70
     1
102
RTVSPropertyOp26
 70
     1
102
RTVSPropertyOp27
 70
     1
102
RTVSPropertyOp28
 70
     1
102
RTVSPropertyOp29
 70
     1
102
RTVSPropertyOp30
 70
     1
102
RTVSPropertyOp31
 70
     1
102
RTVSPropertyOp32
 70
     1
102
RTVSPropertyOp33
 70
     1
102
RTVSPropertyOp34
 70
     1
102
RTVSPropertyOp35
 70
     1
102
RTVSPropertyOp36
 70
     1
102
RTVSPropertyOp37
 70
     1
102
RTVSPropertyOp38
 70
     1
102
RTVSPropertyOp39
 70
     1
102
RTVSPropertyOp40
 70
     1
102
RTVSPropertyOp41
 70
     1
102
RTVSPropertyOp42
 70
     1
102
RTVSPropertyOp43
 70
     1
102
RTVSPropertyOp44
 70
     1
102
RTVSPropertyOp45
 70
     1
102
RTVSPropertyOp46
 70
     1
102
RTVSPropertyOp47
 70
     1
102
RTVSPropertyOp48
 70
     1
102
RTVSPropertyOp49
 70
     1
102
RTVSPropertyOp50
 70
     1
102
RTVSPropertyOp51
 70
     0
102
RTVSPropertyOp52
 70
     0
102
RTVSPropertyOp53
 70
     1
102
RTVSPropertyOp54
 70
     1
102
RTVSPropertyOp55
 70
     1
102
RTVSPropertyOp56
 70
     1
102
RTVSPropertyOp57
 70
     1
102
RTVSPost2010Prop28
280
     0
102
RTVSPost2010PropOp28
 70
     1
102
RTVSPost2010Prop29
280
     1
102
RTVSPost2010PropOp29
 70
     1
102
RTVSPost2010Prop30
280
     1
102
RTVSPost2010PropOp30
 70
     1
102
RTVSPost2010Prop31
280
     0
102
RTVSPost2010PropOp31
 70
     1
102
RTVSPost2010Prop32
280
     0
102
RTVSPost2010PropOp32
 70
     1
102
RTVSPost2010Prop33
280
     0
102
RTVSPost2010PropOp33
 70
     1
102
RTVSPost2010Prop34
280
     0
102
RTVSPost2010PropOp34
 70
     1
102
RTVSPost2010Prop35
280
     0
102
RTVSPost2010PropOp35
 70
     1
102
RTVSPost2010Prop36
280
     0
102
RTVSPost2010PropOp36
 70
     1
102
RTVSPost2010Prop37
 90
       50
102
RTVSPost2010PropOp37
 70
     1
102
RTVSPost2010Prop38
140
0.0
102
RTVSPost2010PropOp38
 70
     1
102
RTVSPost2010Prop39
140
1.0
102
RTVSPost2010PropOp39
 70
     1
102
RTVSPost2010Prop40
 90
        0
102
RTVSPost2010PropOp40
 70
     1
102
RTVSPost2010Prop41ColorIndex
 90
       18
102
RTVSPost2010Prop41ColorRGB
 90
        0
102
RTVSPost2010PropOp41
 70
     1
102
RTVSPost2010Prop42
 90
       50
102
RTVSPost2010PropOp42
 70
     1
102
RTVSPost2010Prop43
 90
        3
102
RTVSPost2010PropOp43
 70
     1
102
RTVSPost2010Prop44ColorIndex
 90
        5
102
RTVSPost2010Prop44ColorRGB
 90
      255
102
RTVSPost2010PropOp44
 70
     1
102
RTVSPost2010Prop45
280
     0
102
RTVSPost2010PropOp45
 70
     1
102
RTVSPost2010Prop46
 90
       50
102
RTVSPost2010PropOp46
 70
     1
102
RTVSPost2010Prop47
 90
       50
102
RTVSPost2010PropOp47
 70
     1
102
RTVSPost2010Prop48
 90
       50
102
RTVSPost2010PropOp48
 70
     1
102
RTVSPost2010Prop49
280
     0
102
RTVSPost2010PropOp49
 70
     1
102
RTVSPost2010Prop50
 90
       50
102
RTVSPost2010PropOp50
 70
     1
102
RTVSPost2010Prop51ColorIndex
 90
      256
102
RTVSPost2010Prop51ColorRGB
 90
-16777216
102
RTVSPost2010PropOp51
 70
     0
102
RTVSPost2010Prop52
140
1.0
102
RTVSPost2010PropOp52
 70
     0
102
RTVSPost2010Prop53
 90
        2
102
RTVSPost2010PropOp53
 70
     1
102
RTVSPost2010Prop54
  1
strokes_ogs.tif
102
RTVSPost2010PropOp54
 70
     1
102
RTVSPost2010Prop55
280
     0
102
RTVSPost2010PropOp55
 70
     1
102
RTVSPost2010Prop56
140
1.0
102
RTVSPost2010PropOp56
 70
     1
102
RTVSPost2010Prop57
140
1.0
102
RTVSPost2010PropOp57
 70
     1
  0
XRECORD
  5
525
102
{ACAD_REACTORS
330
524
102
}
330
524
100
AcDbXrecord
280
     1
102
RTVSPropertyOp0
 70
     1
102
RTVSPropertyOp1
 70
     1
102
RTVSPropertyOp2
 70
     1
102
RTVSPropertyOp3
 70
     1
102
RTVSPropertyOp4
 70
     1
102
RTVSPropertyOp5
 70
     1
102
RTVSPropertyOp6
 70
     1
102
RTVSPropertyOp7
 70
     1
102
RTVSPropertyOp8
 70
     1
102
RTVSPropertyOp9
 70
     1
102
RTVSPropertyOp10
 70
     1
102
RTVSPropertyOp11
 70
     1
102
RTVSPropertyOp12
 70
     1
102
RTVSPropertyOp13
 70
     1
102
RTVSPropertyOp14
 70
     1
102
RTVSPropertyOp15
 70
     1
102
RTVSPropertyOp16
 70
     1
102
RTVSPropertyOp17
 70
     1
102
RTVSPropertyOp18
 70
     1
102
RTVSPropertyOp19
 70
     1
102
RTVSPropertyOp20
 70
     1
102
RTVSPropertyOp21
 70
     1
102
RTVSPropertyOp22
 70
     1
102
RTVSPropertyOp23
 70
     1
102
RTVSPropertyOp24
 70
     1
102
RTVSPropertyOp25
 70
     1
102
RTVSPropertyOp26
 70
     1
102
RTVSPropertyOp27
 70
     1
102
RTVSPropertyOp28
 70
     1
102
RTVSPropertyOp29
 70
     1
102
RTVSPropertyOp30
 70
     1
102
RTVSPropertyOp31
 70
     1
102
RTVSPropertyOp32
 70
     1
102
RTVSPropertyOp33
 70
     1
102
RTVSPropertyOp34
 70
     1
102
RTVSPropertyOp35
 70
     1
102
RTVSPropertyOp36
 70
     1
102
RTVSPropertyOp37
 70
     1
102
RTVSPropertyOp38
 70
     1
102
RTVSPropertyOp39
 70
     1
102
RTVSPropertyOp40
 70
     1
102
RTVSPropertyOp41
 70
     1
102
RTVSPropertyOp42
 70
     1
102
RTVSPropertyOp43
 70
     1
102
RTVSPropertyOp44
 70
     1
102
RTVSPropertyOp45
 70
     1
102
RTVSPropertyOp46
 70
     1
102
RTVSPropertyOp47
 70
     1
102
RTVSPropertyOp48
 70
     1
102
RTVSPropertyOp49
 70
     1
102
RTVSPropertyOp50
 70
     1
102
RTVSPropertyOp51
 70
     0
102
RTVSPropertyOp52
 70
     0
102
RTVSPropertyOp53
 70
     1
102
RTVSPropertyOp54
 70
     1
102
RTVSPropertyOp55
 70
     1
102
RTVSPropertyOp56
 70
     1
102
RTVSPropertyOp57
 70
     1
102
RTVSPost2010Prop28
280
     0
102
RTVSPost2010PropOp28
 70
     1
102
RTVSPost2010Prop29
280
     1
102
RTVSPost2010PropOp29
 70
     1
102
RTVSPost2010Prop30
280
     1
102
RTVSPost2010PropOp30
 70
     1
102
RTVSPost2010Prop31
280
     0
102
RTVSPost2010PropOp31
 70
     1
102
RTVSPost2010Prop32
280
     0
102
RTVSPost2010PropOp32
 70
     1
102
RTVSPost2010Prop33
280
     0
102
RTVSPost2010PropOp33
 70
     1
102
RTVSPost2010Prop34
280
     0
102
RTVSPost2010PropOp34
 70
     1
102
RTVSPost2010Prop35
280
     0
102
RTVSPost2010PropOp35
 70
     1
102
RTVSPost2010Prop36
280
     0
102
RTVSPost2010PropOp36
 70
     1
102
RTVSPost2010Prop37
 90
       50
102
RTVSPost2010PropOp37
 70
     1
102
RTVSPost2010Prop38
140
0.0
102
RTVSPost2010PropOp38
 70
     1
102
RTVSPost2010Prop39
140
1.0
102
RTVSPost2010PropOp39
 70
     1
102
RTVSPost2010Prop40
 90
        0
102
RTVSPost2010PropOp40
 70
     1
102
RTVSPost2010Prop41ColorIndex
 90
       18
102
RTVSPost2010Prop41ColorRGB
 90
        0
102
RTVSPost2010PropOp41
 70
     1
102
RTVSPost2010Prop42
 90
       50
102
RTVSPost2010PropOp42
 70
     1
102
RTVSPost2010Prop43
 90
        3
102
RTVSPost2010PropOp43
 70
     1
102
RTVSPost2010Prop44ColorIndex
 90
        5
102
RTVSPost2010Prop44ColorRGB
 90
      255
102
RTVSPost2010PropOp44
 70
     1
102
RTVSPost2010Prop45
280
     0
102
RTVSPost2010PropOp45
 70
     1
102
RTVSPost2010Prop46
 90
       50
102
RTVSPost2010PropOp46
 70
     1
102
RTVSPost2010Prop47
 90
       50
102
RTVSPost2010PropOp47
 70
     1
102
RTVSPost2010Prop48
 90
       50
102
RTVSPost2010PropOp48
 70
     1
102
RTVSPost2010Prop49
280
     0
102
RTVSPost2010PropOp49
 70
     1
102
RTVSPost2010Prop50
 90
       50
102
RTVSPost2010PropOp50
 70
     1
102
RTVSPost2010Prop51ColorIndex
 90
      256
102
RTVSPost2010Prop51ColorRGB
 90
-16777216
102
RTVSPost2010PropOp51
 70
     0
102
RTVSPost2010Prop52
140
1.0
102
RTVSPost2010PropOp52
 70
     0
102
RTVSPost2010Prop53
 90
        2
102
RTVSPost2010PropOp53
 70
     1
102
RTVSPost2010Prop54
  1
strokes_ogs.tif
102
RTVSPost2010PropOp54
 70
     1
102
RTVSPost2010Prop55
280
     0
102
RTVSPost2010PropOp55
 70
     1
102
RTVSPost2010Prop56
140
1.0
102
RTVSPost2010PropOp56
 70
     1
102
RTVSPost2010Prop57
140
1.0
102
RTVSPost2010PropOp57
 70
     1
  0
XRECORD
  5
51F
102
{ACAD_REACTORS
330
51E
102
}
330
51E
100
AcDbXrecord
280
     1
102
RTVSPropertyOp0
 70
     1
102
RTVSPropertyOp1
 70
     1
102
RTVSPropertyOp2
 70
     1
102
RTVSPropertyOp3
 70
     1
102
RTVSPropertyOp4
 70
     1
102
RTVSPropertyOp5
 70
     1
102
RTVSPropertyOp6
 70
     1
102
RTVSPropertyOp7
 70
     1
102
RTVSPropertyOp8
 70
     1
102
RTVSPropertyOp9
 70
     1
102
RTVSPropertyOp10
 70
     1
102
RTVSPropertyOp11
 70
     1
102
RTVSPropertyOp12
 70
     1
102
RTVSPropertyOp13
 70
     1
102
RTVSPropertyOp14
 70
     1
102
RTVSPropertyOp15
 70
     1
102
RTVSPropertyOp16
 70
     1
102
RTVSPropertyOp17
 70
     1
102
RTVSPropertyOp18
 70
     1
102
RTVSPropertyOp19
 70
     1
102
RTVSPropertyOp20
 70
     1
102
RTVSPropertyOp21
 70
     1
102
RTVSPropertyOp22
 70
     1
102
RTVSPropertyOp23
 70
     1
102
RTVSPropertyOp24
 70
     1
102
RTVSPropertyOp25
 70
     1
102
RTVSPropertyOp26
 70
     1
102
RTVSPropertyOp27
 70
     1
102
RTVSPropertyOp28
 70
     1
102
RTVSPropertyOp29
 70
     1
102
RTVSPropertyOp30
 70
     1
102
RTVSPropertyOp31
 70
     1
102
RTVSPropertyOp32
 70
     1
102
RTVSPropertyOp33
 70
     1
102
RTVSPropertyOp34
 70
     1
102
RTVSPropertyOp35
 70
     1
102
RTVSPropertyOp36
 70
     1
102
RTVSPropertyOp37
 70
     1
102
RTVSPropertyOp38
 70
     1
102
RTVSPropertyOp39
 70
     1
102
RTVSPropertyOp40
 70
     1
102
RTVSPropertyOp41
 70
     1
102
RTVSPropertyOp42
 70
     1
102
RTVSPropertyOp43
 70
     1
102
RTVSPropertyOp44
 70
     1
102
RTVSPropertyOp45
 70
     1
102
RTVSPropertyOp46
 70
     1
102
RTVSPropertyOp47
 70
     1
102
RTVSPropertyOp48
 70
     1
102
RTVSPropertyOp49
 70
     1
102
RTVSPropertyOp50
 70
     1
102
RTVSPropertyOp51
 70
     0
102
RTVSPropertyOp52
 70
     0
102
RTVSPropertyOp53
 70
     1
102
RTVSPropertyOp54
 70
     1
102
RTVSPropertyOp55
 70
     1
102
RTVSPropertyOp56
 70
     1
102
RTVSPropertyOp57
 70
     1
102
RTVSPost2010Prop28
280
     0
102
RTVSPost2010PropOp28
 70
     1
102
RTVSPost2010Prop29
280
     1
102
RTVSPost2010PropOp29
 70
     1
102
RTVSPost2010Prop30
280
     1
102
RTVSPost2010PropOp30
 70
     1
102
RTVSPost2010Prop31
280
     0
102
RTVSPost2010PropOp31
 70
     1
102
RTVSPost2010Prop32
280
     0
102
RTVSPost2010PropOp32
 70
     1
102
RTVSPost2010Prop33
280
     0
102
RTVSPost2010PropOp33
 70
     1
102
RTVSPost2010Prop34
280
     0
102
RTVSPost2010PropOp34
 70
     1
102
RTVSPost2010Prop35
280
     0
102
RTVSPost2010PropOp35
 70
     1
102
RTVSPost2010Prop36
280
     0
102
RTVSPost2010PropOp36
 70
     1
102
RTVSPost2010Prop37
 90
       50
102
RTVSPost2010PropOp37
 70
     1
102
RTVSPost2010Prop38
140
0.0
102
RTVSPost2010PropOp38
 70
     1
102
RTVSPost2010Prop39
140
1.0
102
RTVSPost2010PropOp39
 70
     1
102
RTVSPost2010Prop40
 90
        0
102
RTVSPost2010PropOp40
 70
     1
102
RTVSPost2010Prop41ColorIndex
 90
       18
102
RTVSPost2010Prop41ColorRGB
 90
        0
102
RTVSPost2010PropOp41
 70
     1
102
RTVSPost2010Prop42
 90
       50
102
RTVSPost2010PropOp42
 70
     1
102
RTVSPost2010Prop43
 90
        3
102
RTVSPost2010PropOp43
 70
     1
102
RTVSPost2010Prop44ColorIndex
 90
        5
102
RTVSPost2010Prop44ColorRGB
 90
      255
102
RTVSPost2010PropOp44
 70
     1
102
RTVSPost2010Prop45
280
     0
102
RTVSPost2010PropOp45
 70
     1
102
RTVSPost2010Prop46
 90
       50
102
RTVSPost2010PropOp46
 70
     1
102
RTVSPost2010Prop47
 90
       50
102
RTVSPost2010PropOp47
 70
     1
102
RTVSPost2010Prop48
 90
       50
102
RTVSPost2010PropOp48
 70
     1
102
RTVSPost2010Prop49
280
     0
102
RTVSPost2010PropOp49
 70
     1
102
RTVSPost2010Prop50
 90
       50
102
RTVSPost2010PropOp50
 70
     1
102
RTVSPost2010Prop51ColorIndex
 90
      256
102
RTVSPost2010Prop51ColorRGB
 90
-16777216
102
RTVSPost2010PropOp51
 70
     0
102
RTVSPost2010Prop52
140
1.0
102
RTVSPost2010PropOp52
 70
     0
102
RTVSPost2010Prop53
 90
        2
102
RTVSPost2010PropOp53
 70
     1
102
RTVSPost2010Prop54
  1
strokes_ogs.tif
102
RTVSPost2010PropOp54
 70
     1
102
RTVSPost2010Prop55
280
     0
102
RTVSPost2010PropOp55
 70
     1
102
RTVSPost2010Prop56
140
1.0
102
RTVSPost2010PropOp56
 70
     1
102
RTVSPost2010Prop57
140
1.0
102
RTVSPost2010PropOp57
 70
     1
  0
XRECORD
  5
521
102
{ACAD_REACTORS
330
520
102
}
330
520
100
AcDbXrecord
280
     1
102
RTVSPropertyOp0
 70
     1
102
RTVSPropertyOp1
 70
     1
102
RTVSPropertyOp2
 70
     1
102
RTVSPropertyOp3
 70
     1
102
RTVSPropertyOp4
 70
     1
102
RTVSPropertyOp5
 70
     1
102
RTVSPropertyOp6
 70
     1
102
RTVSPropertyOp7
 70
     1
102
RTVSPropertyOp8
 70
     1
102
RTVSPropertyOp9
 70
     1
102
RTVSPropertyOp10
 70
     1
102
RTVSPropertyOp11
 70
     1
102
RTVSPropertyOp12
 70
     1
102
RTVSPropertyOp13
 70
     1
102
RTVSPropertyOp14
 70
     1
102
RTVSPropertyOp15
 70
     1
102
RTVSPropertyOp16
 70
     1
102
RTVSPropertyOp17
 70
     1
102
RTVSPropertyOp18
 70
     1
102
RTVSPropertyOp19
 70
     1
102
RTVSPropertyOp20
 70
     1
102
RTVSPropertyOp21
 70
     1
102
RTVSPropertyOp22
 70
     1
102
RTVSPropertyOp23
 70
     1
102
RTVSPropertyOp24
 70
     1
102
RTVSPropertyOp25
 70
     1
102
RTVSPropertyOp26
 70
     1
102
RTVSPropertyOp27
 70
     1
102
RTVSPropertyOp28
 70
     1
102
RTVSPropertyOp29
 70
     1
102
RTVSPropertyOp30
 70
     1
102
RTVSPropertyOp31
 70
     1
102
RTVSPropertyOp32
 70
     1
102
RTVSPropertyOp33
 70
     1
102
RTVSPropertyOp34
 70
     1
102
RTVSPropertyOp35
 70
     1
102
RTVSPropertyOp36
 70
     1
102
RTVSPropertyOp37
 70
     1
102
RTVSPropertyOp38
 70
     1
102
RTVSPropertyOp39
 70
     1
102
RTVSPropertyOp40
 70
     1
102
RTVSPropertyOp41
 70
     1
102
RTVSPropertyOp42
 70
     1
102
RTVSPropertyOp43
 70
     1
102
RTVSPropertyOp44
 70
     1
102
RTVSPropertyOp45
 70
     1
102
RTVSPropertyOp46
 70
     1
102
RTVSPropertyOp47
 70
     1
102
RTVSPropertyOp48
 70
     1
102
RTVSPropertyOp49
 70
     1
102
RTVSPropertyOp50
 70
     1
102
RTVSPropertyOp51
 70
     0
102
RTVSPropertyOp52
 70
     0
102
RTVSPropertyOp53
 70
     1
102
RTVSPropertyOp54
 70
     1
102
RTVSPropertyOp55
 70
     1
102
RTVSPropertyOp56
 70
     1
102
RTVSPropertyOp57
 70
     1
102
RTVSPost2010Prop28
280
     0
102
RTVSPost2010PropOp28
 70
     1
102
RTVSPost2010Prop29
280
     1
102
RTVSPost2010PropOp29
 70
     1
102
RTVSPost2010Prop30
280
     1
102
RTVSPost2010PropOp30
 70
     1
102
RTVSPost2010Prop31
280
     0
102
RTVSPost2010PropOp31
 70
     1
102
RTVSPost2010Prop32
280
     0
102
RTVSPost2010PropOp32
 70
     1
102
RTVSPost2010Prop33
280
     0
102
RTVSPost2010PropOp33
 70
     1
102
RTVSPost2010Prop34
280
     0
102
RTVSPost2010PropOp34
 70
     1
102
RTVSPost2010Prop35
280
     0
102
RTVSPost2010PropOp35
 70
     1
102
RTVSPost2010Prop36
280
     0
102
RTVSPost2010PropOp36
 70
     1
102
RTVSPost2010Prop37
 90
       50
102
RTVSPost2010PropOp37
 70
     1
102
RTVSPost2010Prop38
140
0.0
102
RTVSPost2010PropOp38
 70
     1
102
RTVSPost2010Prop39
140
1.0
102
RTVSPost2010PropOp39
 70
     1
102
RTVSPost2010Prop40
 90
        0
102
RTVSPost2010PropOp40
 70
     1
102
RTVSPost2010Prop41ColorIndex
 90
       18
102
RTVSPost2010Prop41ColorRGB
 90
        0
102
RTVSPost2010PropOp41
 70
     1
102
RTVSPost2010Prop42
 90
       50
102
RTVSPost2010PropOp42
 70
     1
102
RTVSPost2010Prop43
 90
        3
102
RTVSPost2010PropOp43
 70
     1
102
RTVSPost2010Prop44ColorIndex
 90
        5
102
RTVSPost2010Prop44ColorRGB
 90
      255
102
RTVSPost2010PropOp44
 70
     1
102
RTVSPost2010Prop45
280
     0
102
RTVSPost2010PropOp45
 70
     1
102
RTVSPost2010Prop46
 90
       50
102
RTVSPost2010PropOp46
 70
     1
102
RTVSPost2010Prop47
 90
       50
102
RTVSPost2010PropOp47
 70
     1
102
RTVSPost2010Prop48
 90
       50
102
RTVSPost2010PropOp48
 70
     1
102
RTVSPost2010Prop49
280
     0
102
RTVSPost2010PropOp49
 70
     1
102
RTVSPost2010Prop50
 90
       50
102
RTVSPost2010PropOp50
 70
     1
102
RTVSPost2010Prop51ColorIndex
 90
      256
102
RTVSPost2010Prop51ColorRGB
 90
-16777216
102
RTVSPost2010PropOp51
 70
     0
102
RTVSPost2010Prop52
140
1.0
102
RTVSPost2010PropOp52
 70
     0
102
RTVSPost2010Prop53
 90
        2
102
RTVSPost2010PropOp53
 70
     1
102
RTVSPost2010Prop54
  1
strokes_ogs.tif
102
RTVSPost2010PropOp54
 70
     1
102
RTVSPost2010Prop55
280
     0
102
RTVSPost2010PropOp55
 70
     1
102
RTVSPost2010Prop56
140
1.0
102
RTVSPost2010PropOp56
 70
     1
102
RTVSPost2010Prop57
140
1.0
102
RTVSPost2010PropOp57
 70
     1
  0
XRECORD
  5
511
102
{ACAD_REACTORS
330
510
102
}
330
510
100
AcDbXrecord
280
     1
102
RTVSPropertyOp0
 70
     1
102
RTVSPropertyOp1
 70
     1
102
RTVSPropertyOp2
 70
     1
102
RTVSPropertyOp3
 70
     1
102
RTVSPropertyOp4
 70
     1
102
RTVSPropertyOp5
 70
     1
102
RTVSPropertyOp6
 70
     1
102
RTVSPropertyOp7
 70
     1
102
RTVSPropertyOp8
 70
     1
102
RTVSPropertyOp9
 70
     1
102
RTVSPropertyOp10
 70
     1
102
RTVSPropertyOp11
 70
     1
102
RTVSPropertyOp12
 70
     1
102
RTVSPropertyOp13
 70
     1
102
RTVSPropertyOp14
 70
     1
102
RTVSPropertyOp15
 70
     1
102
RTVSPropertyOp16
 70
     1
102
RTVSPropertyOp17
 70
     1
102
RTVSPropertyOp18
 70
     1
102
RTVSPropertyOp19
 70
     1
102
RTVSPropertyOp20
 70
     1
102
RTVSPropertyOp21
 70
     1
102
RTVSPropertyOp22
 70
     1
102
RTVSPropertyOp23
 70
     1
102
RTVSPropertyOp24
 70
     1
102
RTVSPropertyOp25
 70
     1
102
RTVSPropertyOp26
 70
     1
102
RTVSPropertyOp27
 70
     1
102
RTVSPropertyOp28
 70
     1
102
RTVSPropertyOp29
 70
     1
102
RTVSPropertyOp30
 70
     1
102
RTVSPropertyOp31
 70
     1
102
RTVSPropertyOp32
 70
     1
102
RTVSPropertyOp33
 70
     1
102
RTVSPropertyOp34
 70
     1
102
RTVSPropertyOp35
 70
     1
102
RTVSPropertyOp36
 70
     1
102
RTVSPropertyOp37
 70
     1
102
RTVSPropertyOp38
 70
     1
102
RTVSPropertyOp39
 70
     1
102
RTVSPropertyOp40
 70
     1
102
RTVSPropertyOp41
 70
     1
102
RTVSPropertyOp42
 70
     1
102
RTVSPropertyOp43
 70
     1
102
RTVSPropertyOp44
 70
     1
102
RTVSPropertyOp45
 70
     1
102
RTVSPropertyOp46
 70
     1
102
RTVSPropertyOp47
 70
     1
102
RTVSPropertyOp48
 70
     1
102
RTVSPropertyOp49
 70
     1
102
RTVSPropertyOp50
 70
     1
102
RTVSPropertyOp51
 70
     0
102
RTVSPropertyOp52
 70
     0
102
RTVSPropertyOp53
 70
     1
102
RTVSPropertyOp54
 70
     1
102
RTVSPropertyOp55
 70
     1
102
RTVSPropertyOp56
 70
     1
102
RTVSPropertyOp57
 70
     1
102
RTVSPost2010Prop28
280
     0
102
RTVSPost2010PropOp28
 70
     1
102
RTVSPost2010Prop29
280
     1
102
RTVSPost2010PropOp29
 70
     1
102
RTVSPost2010Prop30
280
     1
102
RTVSPost2010PropOp30
 70
     1
102
RTVSPost2010Prop31
280
     0
102
RTVSPost2010PropOp31
 70
     1
102
RTVSPost2010Prop32
280
     0
102
RTVSPost2010PropOp32
 70
     1
102
RTVSPost2010Prop33
280
     0
102
RTVSPost2010PropOp33
 70
     1
102
RTVSPost2010Prop34
280
     0
102
RTVSPost2010PropOp34
 70
     1
102
RTVSPost2010Prop35
280
     0
102
RTVSPost2010PropOp35
 70
     1
102
RTVSPost2010Prop36
280
     0
102
RTVSPost2010PropOp36
 70
     1
102
RTVSPost2010Prop37
 90
       50
102
RTVSPost2010PropOp37
 70
     1
102
RTVSPost2010Prop38
140
0.0
102
RTVSPost2010PropOp38
 70
     1
102
RTVSPost2010Prop39
140
1.0
102
RTVSPost2010PropOp39
 70
     1
102
RTVSPost2010Prop40
 90
        0
102
RTVSPost2010PropOp40
 70
     1
102
RTVSPost2010Prop41ColorIndex
 90
       18
102
RTVSPost2010Prop41ColorRGB
 90
        0
102
RTVSPost2010PropOp41
 70
     1
102
RTVSPost2010Prop42
 90
       50
102
RTVSPost2010PropOp42
 70
     1
102
RTVSPost2010Prop43
 90
        3
102
RTVSPost2010PropOp43
 70
     1
102
RTVSPost2010Prop44ColorIndex
 90
        5
102
RTVSPost2010Prop44ColorRGB
 90
      255
102
RTVSPost2010PropOp44
 70
     1
102
RTVSPost2010Prop45
280
     0
102
RTVSPost2010PropOp45
 70
     1
102
RTVSPost2010Prop46
 90
       50
102
RTVSPost2010PropOp46
 70
     1
102
RTVSPost2010Prop47
 90
       50
102
RTVSPost2010PropOp47
 70
     1
102
RTVSPost2010Prop48
 90
       50
102
RTVSPost2010PropOp48
 70
     1
102
RTVSPost2010Prop49
280
     0
102
RTVSPost2010PropOp49
 70
     1
102
RTVSPost2010Prop50
 90
       50
102
RTVSPost2010PropOp50
 70
     1
102
RTVSPost2010Prop51ColorIndex
 90
      256
102
RTVSPost2010Prop51ColorRGB
 90
-16777216
102
RTVSPost2010PropOp51
 70
     0
102
RTVSPost2010Prop52
140
1.0
102
RTVSPost2010PropOp52
 70
     0
102
RTVSPost2010Prop53
 90
        2
102
RTVSPost2010PropOp53
 70
     1
102
RTVSPost2010Prop54
  1
strokes_ogs.tif
102
RTVSPost2010PropOp54
 70
     1
102
RTVSPost2010Prop55
280
     0
102
RTVSPost2010PropOp55
 70
     1
102
RTVSPost2010Prop56
140
1.0
102
RTVSPost2010PropOp56
 70
     1
102
RTVSPost2010Prop57
140
1.0
102
RTVSPost2010PropOp57
 70
     1
  0
XRECORD
  5
503
102
{ACAD_REACTORS
330
502
102
}
330
502
100
AcDbXrecord
280
     1
102
RTVSPropertyOp0
 70
     1
102
RTVSPropertyOp1
 70
     1
102
RTVSPropertyOp2
 70
     1
102
RTVSPropertyOp3
 70
     1
102
RTVSPropertyOp4
 70
     1
102
RTVSPropertyOp5
 70
     1
102
RTVSPropertyOp6
 70
     1
102
RTVSPropertyOp7
 70
     1
102
RTVSPropertyOp8
 70
     1
102
RTVSPropertyOp9
 70
     1
102
RTVSPropertyOp10
 70
     1
102
RTVSPropertyOp11
 70
     1
102
RTVSPropertyOp12
 70
     1
102
RTVSPropertyOp13
 70
     1
102
RTVSPropertyOp14
 70
     1
102
RTVSPropertyOp15
 70
     1
102
RTVSPropertyOp16
 70
     1
102
RTVSPropertyOp17
 70
     1
102
RTVSPropertyOp18
 70
     1
102
RTVSPropertyOp19
 70
     1
102
RTVSPropertyOp20
 70
     1
102
RTVSPropertyOp21
 70
     1
102
RTVSPropertyOp22
 70
     1
102
RTVSPropertyOp23
 70
     1
102
RTVSPropertyOp24
 70
     1
102
RTVSPropertyOp25
 70
     1
102
RTVSPropertyOp26
 70
     1
102
RTVSPropertyOp27
 70
     1
102
RTVSPropertyOp28
 70
     1
102
RTVSPropertyOp29
 70
     1
102
RTVSPropertyOp30
 70
     1
102
RTVSPropertyOp31
 70
     1
102
RTVSPropertyOp32
 70
     1
102
RTVSPropertyOp33
 70
     1
102
RTVSPropertyOp34
 70
     1
102
RTVSPropertyOp35
 70
     1
102
RTVSPropertyOp36
 70
     1
102
RTVSPropertyOp37
 70
     1
102
RTVSPropertyOp38
 70
     1
102
RTVSPropertyOp39
 70
     1
102
RTVSPropertyOp40
 70
     1
102
RTVSPropertyOp41
 70
     1
102
RTVSPropertyOp42
 70
     1
102
RTVSPropertyOp43
 70
     1
102
RTVSPropertyOp44
 70
     1
102
RTVSPropertyOp45
 70
     1
102
RTVSPropertyOp46
 70
     1
102
RTVSPropertyOp47
 70
     1
102
RTVSPropertyOp48
 70
     1
102
RTVSPropertyOp49
 70
     1
102
RTVSPropertyOp50
 70
     1
102
RTVSPropertyOp51
 70
     0
102
RTVSPropertyOp52
 70
     0
102
RTVSPropertyOp53
 70
     1
102
RTVSPropertyOp54
 70
     1
102
RTVSPropertyOp55
 70
     1
102
RTVSPropertyOp56
 70
     1
102
RTVSPropertyOp57
 70
     1
102
RTVSPost2010Prop28
280
     0
102
RTVSPost2010PropOp28
 70
     1
102
RTVSPost2010Prop29
280
     1
102
RTVSPost2010PropOp29
 70
     1
102
RTVSPost2010Prop30
280
     1
102
RTVSPost2010PropOp30
 70
     1
102
RTVSPost2010Prop31
280
     0
102
RTVSPost2010PropOp31
 70
     1
102
RTVSPost2010Prop32
280
     0
102
RTVSPost2010PropOp32
 70
     1
102
RTVSPost2010Prop33
280
     0
102
RTVSPost2010PropOp33
 70
     1
102
RTVSPost2010Prop34
280
     0
102
RTVSPost2010PropOp34
 70
     1
102
RTVSPost2010Prop35
280
     0
102
RTVSPost2010PropOp35
 70
     1
102
RTVSPost2010Prop36
280
     0
102
RTVSPost2010PropOp36
 70
     1
102
RTVSPost2010Prop37
 90
       50
102
RTVSPost2010PropOp37
 70
     1
102
RTVSPost2010Prop38
140
0.0
102
RTVSPost2010PropOp38
 70
     1
102
RTVSPost2010Prop39
140
1.0
102
RTVSPost2010PropOp39
 70
     1
102
RTVSPost2010Prop40
 90
        0
102
RTVSPost2010PropOp40
 70
     1
102
RTVSPost2010Prop41ColorIndex
 90
       18
102
RTVSPost2010Prop41ColorRGB
 90
        0
102
RTVSPost2010PropOp41
 70
     1
102
RTVSPost2010Prop42
 90
       50
102
RTVSPost2010PropOp42
 70
     1
102
RTVSPost2010Prop43
 90
        3
102
RTVSPost2010PropOp43
 70
     1
102
RTVSPost2010Prop44ColorIndex
 90
        5
102
RTVSPost2010Prop44ColorRGB
 90
      255
102
RTVSPost2010PropOp44
 70
     1
102
RTVSPost2010Prop45
280
     0
102
RTVSPost2010PropOp45
 70
     1
102
RTVSPost2010Prop46
 90
       50
102
RTVSPost2010PropOp46
 70
     1
102
RTVSPost2010Prop47
 90
       50
102
RTVSPost2010PropOp47
 70
     1
102
RTVSPost2010Prop48
 90
       50
102
RTVSPost2010PropOp48
 70
     1
102
RTVSPost2010Prop49
280
     0
102
RTVSPost2010PropOp49
 70
     1
102
RTVSPost2010Prop50
 90
       50
102
RTVSPost2010PropOp50
 70
     1
102
RTVSPost2010Prop51ColorIndex
 90
      256
102
RTVSPost2010Prop51ColorRGB
 90
-16777216
102
RTVSPost2010PropOp51
 70
     0
102
RTVSPost2010Prop52
140
1.0
102
RTVSPost2010PropOp52
 70
     0
102
RTVSPost2010Prop53
 90
        2
102
RTVSPost2010PropOp53
 70
     1
102
RTVSPost2010Prop54
  1
strokes_ogs.tif
102
RTVSPost2010PropOp54
 70
     1
102
RTVSPost2010Prop55
280
     0
102
RTVSPost2010PropOp55
 70
     1
102
RTVSPost2010Prop56
140
1.0
102
RTVSPost2010PropOp56
 70
     1
102
RTVSPost2010Prop57
140
1.0
102
RTVSPost2010PropOp57
 70
     1
  0
XRECORD
  5
523
102
{ACAD_REACTORS
330
522
102
}
330
522
100
AcDbXrecord
280
     1
102
RTVSPropertyOp0
 70
     1
102
RTVSPropertyOp1
 70
     1
102
RTVSPropertyOp2
 70
     1
102
RTVSPropertyOp3
 70
     1
102
RTVSPropertyOp4
 70
     1
102
RTVSPropertyOp5
 70
     1
102
RTVSPropertyOp6
 70
     1
102
RTVSPropertyOp7
 70
     1
102
RTVSPropertyOp8
 70
     1
102
RTVSPropertyOp9
 70
     1
102
RTVSPropertyOp10
 70
     1
102
RTVSPropertyOp11
 70
     1
102
RTVSPropertyOp12
 70
     1
102
RTVSPropertyOp13
 70
     1
102
RTVSPropertyOp14
 70
     1
102
RTVSPropertyOp15
 70
     1
102
RTVSPropertyOp16
 70
     1
102
RTVSPropertyOp17
 70
     1
102
RTVSPropertyOp18
 70
     1
102
RTVSPropertyOp19
 70
     1
102
RTVSPropertyOp20
 70
     1
102
RTVSPropertyOp21
 70
     1
102
RTVSPropertyOp22
 70
     1
102
RTVSPropertyOp23
 70
     1
102
RTVSPropertyOp24
 70
     1
102
RTVSPropertyOp25
 70
     1
102
RTVSPropertyOp26
 70
     1
102
RTVSPropertyOp27
 70
     1
102
RTVSPropertyOp28
 70
     1
102
RTVSPropertyOp29
 70
     1
102
RTVSPropertyOp30
 70
     1
102
RTVSPropertyOp31
 70
     1
102
RTVSPropertyOp32
 70
     1
102
RTVSPropertyOp33
 70
     1
102
RTVSPropertyOp34
 70
     1
102
RTVSPropertyOp35
 70
     1
102
RTVSPropertyOp36
 70
     1
102
RTVSPropertyOp37
 70
     1
102
RTVSPropertyOp38
 70
     1
102
RTVSPropertyOp39
 70
     1
102
RTVSPropertyOp40
 70
     1
102
RTVSPropertyOp41
 70
     1
102
RTVSPropertyOp42
 70
     1
102
RTVSPropertyOp43
 70
     1
102
RTVSPropertyOp44
 70
     1
102
RTVSPropertyOp45
 70
     1
102
RTVSPropertyOp46
 70
     1
102
RTVSPropertyOp47
 70
     1
102
RTVSPropertyOp48
 70
     1
102
RTVSPropertyOp49
 70
     1
102
RTVSPropertyOp50
 70
     1
102
RTVSPropertyOp51
 70
     0
102
RTVSPropertyOp52
 70
     0
102
RTVSPropertyOp53
 70
     1
102
RTVSPropertyOp54
 70
     1
102
RTVSPropertyOp55
 70
     1
102
RTVSPropertyOp56
 70
     1
102
RTVSPropertyOp57
 70
     1
102
RTVSPost2010Prop28
280
     0
102
RTVSPost2010PropOp28
 70
     1
102
RTVSPost2010Prop29
280
     1
102
RTVSPost2010PropOp29
 70
     1
102
RTVSPost2010Prop30
280
     1
102
RTVSPost2010PropOp30
 70
     1
102
RTVSPost2010Prop31
280
     0
102
RTVSPost2010PropOp31
 70
     1
102
RTVSPost2010Prop32
280
     0
102
RTVSPost2010PropOp32
 70
     1
102
RTVSPost2010Prop33
280
     0
102
RTVSPost2010PropOp33
 70
     1
102
RTVSPost2010Prop34
280
     0
102
RTVSPost2010PropOp34
 70
     1
102
RTVSPost2010Prop35
280
     0
102
RTVSPost2010PropOp35
 70
     1
102
RTVSPost2010Prop36
280
     0
102
RTVSPost2010PropOp36
 70
     1
102
RTVSPost2010Prop37
 90
       50
102
RTVSPost2010PropOp37
 70
     1
102
RTVSPost2010Prop38
140
0.0
102
RTVSPost2010PropOp38
 70
     1
102
RTVSPost2010Prop39
140
1.0
102
RTVSPost2010PropOp39
 70
     1
102
RTVSPost2010Prop40
 90
        0
102
RTVSPost2010PropOp40
 70
     1
102
RTVSPost2010Prop41ColorIndex
 90
       18
102
RTVSPost2010Prop41ColorRGB
 90
        0
102
RTVSPost2010PropOp41
 70
     1
102
RTVSPost2010Prop42
 90
       50
102
RTVSPost2010PropOp42
 70
     1
102
RTVSPost2010Prop43
 90
        3
102
RTVSPost2010PropOp43
 70
     1
102
RTVSPost2010Prop44ColorIndex
 90
        5
102
RTVSPost2010Prop44ColorRGB
 90
      255
102
RTVSPost2010PropOp44
 70
     1
102
RTVSPost2010Prop45
280
     0
102
RTVSPost2010PropOp45
 70
     1
102
RTVSPost2010Prop46
 90
       50
102
RTVSPost2010PropOp46
 70
     1
102
RTVSPost2010Prop47
 90
       50
102
RTVSPost2010PropOp47
 70
     1
102
RTVSPost2010Prop48
 90
       50
102
RTVSPost2010PropOp48
 70
     1
102
RTVSPost2010Prop49
280
     0
102
RTVSPost2010PropOp49
 70
     1
102
RTVSPost2010Prop50
 90
       50
102
RTVSPost2010PropOp50
 70
     1
102
RTVSPost2010Prop51ColorIndex
 90
      256
102
RTVSPost2010Prop51ColorRGB
 90
-16777216
102
RTVSPost2010PropOp51
 70
     0
102
RTVSPost2010Prop52
140
1.0
102
RTVSPost2010PropOp52
 70
     0
102
RTVSPost2010Prop53
 90
        2
102
RTVSPost2010PropOp53
 70
     1
102
RTVSPost2010Prop54
  1
strokes_ogs.tif
102
RTVSPost2010PropOp54
 70
     1
102
RTVSPost2010Prop55
280
     0
102
RTVSPost2010PropOp55
 70
     1
102
RTVSPost2010Prop56
140
1.0
102
RTVSPost2010PropOp56
 70
     1
102
RTVSPost2010Prop57
140
1.0
102
RTVSPost2010PropOp57
 70
     1
  0
ENDSEC
  0
EOF
