  0
SECTION
  2
HEADER
  9
$ACADVER
  1
AC1009
  9
$DWGCODEPAGE
  3
ansi_932
  9
$INSBASE
 10
738.4108056006454
 20
373.8615229815953
 30
0.0
  9
$EXTMIN
 10
90.96220865455962
 20
26.92524644741397
 30
0.0
  9
$EXTMAX
 10
715.8022831317097
 20
535.1113837070595
 30
0.0
  9
$LIMMIN
 10
0.0
 20
0.0
  9
$LIMMAX
 10
816.5000000000001
 20
565.0
  9
$ORTHOMODE
 70
     1
  9
$REGENMODE
 70
     1
  9
$FILLMODE
 70
     1
  9
$QTEXTMODE
 70
     0
  9
$MIRRTEXT
 70
     1
  9
$DRAGMODE
 70
     2
  9
$LTSCALE
 40
5.0
  9
$OSMODE
 70
    37
  9
$ATTMODE
 70
     1
  9
$TEXTSIZE
 40
6.0
  9
$TRACEWID
 40
0.05
  9
$TEXTSTYLE
  7
KANJI
  9
$CLAYER
  8
2
  9
$CELTYPE
  6
BYLAYER
  9
$CECOLOR
 62
   256
  9
$DIMSCALE
 40
2.0
  9
$DIMASZ
 40
2.0
  9
$DIMEXO
 40
0.5
  9
$DIMDLI
 40
0.0
  9
$DIMRND
 40
0.0
  9
$DIMDLE
 40
0.0
  9
$DIMEXE
 40
1.0
  9
$DIMTP
 40
0.0
  9
$DIMTM
 40
0.0
  9
$DIMTXT
 40
3.0
  9
$DIMCEN
 40
0.09
  9
$DIMTSZ
 40
0.0
  9
$DIMTOL
 70
     0
  9
$DIMLIM
 70
     0
  9
$DIMTIH
 70
     0
  9
$DIMTOH
 70
     0
  9
$DIMSE1
 70
     0
  9
$DIMSE2
 70
     0
  9
$DIMTAD
 70
     0
  9
$DIMZIN
 70
     8
  9
$DIMBLK
  1

  9
$DIMASO
 70
     0
  9
$DIMSHO
 70
     0
  9
$DIMPOST
  1

  9
$DIMAPOST
  1

  9
$DIMALT
 70
     0
  9
$DIMALTD
 70
     2
  9
$DIMALTF
 40
25.4
  9
$DIMLFAC
 40
1.0
  9
$DIMTOFL
 70
     1
  9
$DIMTVP
 40
1.0
  9
$DIMTIX
 70
     1
  9
$DIMSOXD
 70
     1
  9
$DIMSAH
 70
     0
  9
$DIMBLK1
  1

  9
$DIMBLK2
  1

  9
$DIMSTYLE
  2
STANDARD
  9
$DIMCLRD
 70
   256
  9
$DIMCLRE
 70
   256
  9
$DIMCLRT
 70
     2
  9
$DIMTFAC
 40
1.0
  9
$DIMGAP
 40
0.09
  9
$LUNITS
 70
     2
  9
$LUPREC
 70
     3
  9
$SKETCHINC
 40
0.1
  9
$FILLETRAD
 40
2.0
  9
$AUNITS
 70
     0
  9
$AUPREC
 70
     3
  9
$MENU
  1
C:\R13\WIN\SUPPORT\ACADFULL
  9
$ELEVATION
 40
0.0
  9
$PELEVATION
 40
0.0
  9
$THICKNESS
 40
0.0
  9
$LIMCHECK
 70
     0
  9
$CHAMFERA
 40
0.0
  9
$CHAMFERB
 40
0.0
  9
$SKPOLY
 70
     0
  9
$TDCREATE
 40
2457442.378967465
  9
$TDUPDATE
 40
2457870.597701794
  9
$TDINDWG
 40
0.0439593403
  9
$TDUSRTIMER
 40
0.0439587963
  9
$USRTIMER
 70
     1
  9
$ANGBASE
 50
0.0
  9
$ANGDIR
 70
     0
  9
$PDMODE
 70
     0
  9
$PDSIZE
 40
0.0
  9
$PLINEWID
 40
0.0
  9
$COORDS
 70
     1
  9
$SPLFRAME
 70
     0
  9
$SPLINETYPE
 70
     6
  9
$SPLINESEGS
 70
     8
  9
$ATTDIA
 70
     0
  9
$ATTREQ
 70
     1
  9
$HANDLING
 70
     1
  9
$HANDSEED
  5
4BB
  9
$SURFTAB1
 70
     6
  9
$SURFTAB2
 70
     6
  9
$SURFTYPE
 70
     6
  9
$SURFU
 70
     6
  9
$SURFV
 70
     6
  9
$UCSNAME
  2

  9
$UCSORG
 10
0.0
 20
0.0
 30
0.0
  9
$UCSXDIR
 10
1.0
 20
0.0
 30
0.0
  9
$UCSYDIR
 10
0.0
 20
1.0
 30
0.0
  9
$PUCSNAME
  2

  9
$PUCSORG
 10
0.0
 20
0.0
 30
0.0
  9
$PUCSXDIR
 10
1.0
 20
0.0
 30
0.0
  9
$PUCSYDIR
 10
0.0
 20
1.0
 30
0.0
  9
$USERI1
 70
     0
  9
$USERI2
 70
     0
  9
$USERI3
 70
     0
  9
$USERI4
 70
     0
  9
$USERI5
 70
     0
  9
$USERR1
 40
0.0
  9
$USERR2
 40
0.0
  9
$USERR3
 40
0.0
  9
$USERR4
 40
2448925.372986111
  9
$USERR5
 40
0.04166667
  9
$WORLDVIEW
 70
     1
  9
$SHADEDGE
 70
     3
  9
$SHADEDIF
 70
    70
  9
$TILEMODE
 70
     1
  9
$MAXACTVP
 70
    16
  9
$PLIMCHECK
 70
     0
  9
$PEXTMIN
 10
1.000000000000000E+20
 20
1.000000000000000E+20
 30
1.000000000000000E+20
  9
$PEXTMAX
 10
-1.000000000000000E+20
 20
-1.000000000000000E+20
 30
-1.000000000000000E+20
  9
$PLIMMIN
 10
0.0
 20
0.0
  9
$PLIMMAX
 10
12.0
 20
9.0
  9
$UNITMODE
 70
     0
  9
$VISRETAIN
 70
     0
  9
$PLINEGEN
 70
     0
  9
$PSLTSCALE
 70
     0
  0
ENDSEC
  0
SECTION
  2
TABLES
  0
TABLE
  2
VPORT
 70
     1
  0
VPORT
  2
*ACTIVE
 70
     0
 10
0.0
 20
0.0
 11
1.0
 21
1.0
 12
663.7320821800256
 22
289.0307946946601
 13
0.0
 23
0.0
 14
1.0
 24
1.0
 15
50.0
 25
50.0
 16
0.0
 26
0.0
 36
1.0
 17
0.0
 27
0.0
 37
0.0
 40
681.9640174045505
 41
2.177611940298507
 42
50.0
 43
0.0
 44
0.0
 50
0.0
 51
0.0
 71
     0
 72
  5000
 73
     1
 74
     0
 75
     0
 76
     0
 77
     0
 78
     0
  0
ENDTAB
  0
TABLE
  2
LTYPE
 70
     2
  0
LTYPE
  2
CONTINUOUS
 70
     0
  3
Solid line
 72
    65
 73
     0
 40
0.0
  0
LTYPE
  2
CENTER
 70
     0
  3
____ _ ____ _ ____ _ ____ _ ____ _ ____ _ ____
 72
    65
 73
     4
 40
2.0
 49
1.25
 49
-0.25
 49
0.25
 49
-0.25
  0
ENDTAB
  0
TABLE
  2
LAYER
 70
     8
  0
LAYER
  2
0
 70
     0
 62
     7
  6
CONTINUOUS
  0
LAYER
  2
1
 70
     0
 62
     9
  6
CONTINUOUS
  0
LAYER
  2
2
 70
     0
 62
     4
  6
CONTINUOUS
  0
LAYER
  2
4
 70
     0
 62
     3
  6
CONTINUOUS
  0
LAYER
  2
L-CENTER
 70
     0
 62
     1
  6
CENTER
  0
LAYER
  2
3
 70
     0
 62
     2
  6
CONTINUOUS
  0
LAYER
  2
5
 70
     0
 62
     6
  6
CONTINUOUS
  0
LAYER
  2
DEFPOINTS
 70
     0
 62
     7
  6
CONTINUOUS
  0
ENDTAB
  0
TABLE
  2
STYLE
 70
     2
  0
STYLE
  2
STANDARD
 70
     0
 40
0.0
 41
1.0
 50
0.0
 71
     0
 42
3.6
  3
TXT
  4

  0
STYLE
  2
KANJI
 70
     0
 40
0.0
 41
1.0
 50
0.0
 71
     0
 42
6.0
  3
TXT
  4
BIGFONT
  0
ENDTAB
  0
TABLE
  2
VIEW
 70
     0
  0
ENDTAB
  0
TABLE
  2
UCS
 70
     0
  0
ENDTAB
  0
TABLE
  2
APPID
 70
     4
  0
APPID
  2
ACAD
 70
     0
  0
APPID
  2
ACAD_NAV_VCDISPLAY
 70
     0
  0
APPID
  2
ACAD_PSEXT
 70
     0
  0
APPID
  2
ACAD_MLEADERVER
 70
     0
  0
ENDTAB
  0
TABLE
  2
DIMSTYLE
 70
     1
  0
DIMSTYLE
  2
STANDARD
 70
     0
  3

  4

  5

  6

  7

 40
1.0
 41
0.18
 42
0.0625
 43
0.38
 44
0.18
 45
0.0
 46
0.0
 47
0.0
 48
0.0
140
0.18
141
0.09
142
0.0
143
25.4
144
1.0
145
0.0
146
1.0
147
0.09
 71
     0
 72
     0
 73
     1
 74
     1
 75
     0
 76
     0
 77
     0
 78
     0
170
     0
171
     2
172
     0
173
     0
174
     0
175
     0
176
     0
177
     0
178
     0
  0
ENDTAB
  0
ENDSEC
  0
SECTION
  2
BLOCKS
  0
BLOCK
  8
0
  2
$MODEL_SPACE
 70
     0
 10
0.0
 20
0.0
 30
0.0
  3
$MODEL_SPACE
  1

  0
ENDBLK
  5
22
  8
0
  0
BLOCK
 67
     1
  8
0
  2
$PAPER_SPACE
 70
     0
 10
0.0
 20
0.0
 30
0.0
  3
$PAPER_SPACE
  1

  0
ENDBLK
  5
29
 67
     1
  8
0
  0
ENDSEC
  0
SECTION
  2
ENTITIES
  0
LINE
  5
1A1
  8
4
 10
657.081025352139
 20
214.535876101694
 30
0.0
 11
658.081025352139
 21
213.535876101694
 31
0.0
  0
LINE
  5
1A4
  8
4
 10
603.180929352139
 20
270.0058481016941
 30
0.0
 11
603.1809293521392
 21
261.5058481016941
 31
0.0
  0
LINE
  5
1A6
  8
4
 10
621.081025352139
 20
214.535876101694
 30
0.0
 11
621.081025352139
 21
217.535876101694
 31
0.0
  0
LINE
  5
1A8
  8
4
 10
604.9810253521389
 20
226.035876101694
 30
0.0
 11
605.9810253521389
 21
226.035876101694
 31
0.0
  0
LINE
  5
1A9
  8
4
 10
605.9810253521389
 20
215.035876101694
 30
0.0
 11
618.081025352139
 21
215.035876101694
 31
0.0
  0
LINE
  5
1AB
  8
4
 10
657.081025352139
 20
214.535876101694
 30
0.0
 11
618.081025352139
 21
214.535876101694
 31
0.0
  0
LINE
  5
1AC
  8
4
 10
658.081025352139
 20
217.535876101694
 30
0.0
 11
621.081025352139
 21
217.535876101694
 31
0.0
  0
ARC
  5
1AF
  8
4
 10
595.880929352139
 20
279.535876101694
 30
0.0
 40
1.0
 50
0.0
 51
90.0
  0
LINE
  5
1B0
  8
4
 10
595.880929352139
 20
280.535876101694
 30
0.0
 11
587.081025352139
 21
280.535876101694
 31
0.0
  0
ARC
  5
1B2
  8
4
 10
581.081025352139
 20
281.535876101694
 30
0.0
 40
1.0
 50
0.0
 51
90.0
  0
LINE
  5
1B3
  8
4
 10
587.081025352139
 20
280.535876101694
 30
0.0
 11
582.081025352139
 21
280.535876101694
 31
0.0
  0
LINE
  5
1B8
  8
4
 10
560.581025352139
 20
285.035876101694
 30
0.0
 11
560.581025352139
 21
287.035876101694
 31
0.0
  0
LINE
  5
1B9
  8
4
 10
562.081025352139
 20
282.535876101694
 30
0.0
 11
562.081025352139
 21
283.535876101694
 31
0.0
  0
LINE
  5
1BA
  8
4
 10
559.581025352139
 20
283.535876101694
 30
0.0
 11
559.581025352139
 21
285.035876101694
 31
0.0
  0
LINE
  5
1BB
  8
4
 10
558.906221352139
 20
287.035876101694
 30
0.0
 11
558.906221352139
 21
291.035876101694
 31
0.0
  0
LINE
  5
1BC
  8
4
 10
536.581025352139
 20
283.535876101694
 30
0.0
 11
536.581025352139
 21
285.035876101694
 31
0.0
  0
LINE
  5
1BD
  8
4
 10
537.255587352139
 20
287.035876101694
 30
0.0
 11
537.255587352139
 21
291.035876101694
 31
0.0
  0
LINE
  5
1BE
  8
4
 10
558.906221352139
 20
291.035876101694
 30
0.0
 11
537.255587352139
 21
291.035876101694
 31
0.0
  0
LINE
  5
1C1
  8
4
 10
598.180929352139
 20
270.0058481016941
 30
0.0
 11
598.1809293521392
 21
261.5058481016942
 31
0.0
  0
LINE
  5
1C2
  8
2
 10
596.880929352139
 20
265.7558481016941
 30
0.0
 11
598.180929352139
 21
267.055848101694
 31
0.0
  0
LINE
  5
1C3
  8
2
 10
596.880929352139
 20
263.9173704706091
 30
0.0
 11
598.180929352139
 21
265.2173704706091
 31
0.0
  0
LINE
  5
1C5
  8
4
 10
535.581025352139
 20
285.035876101694
 30
0.0
 11
535.581025352139
 21
287.035876101694
 31
0.0
  0
LINE
  5
1C6
  8
4
 10
534.0812713521389
 20
282.535876101694
 30
0.0
 11
534.0812713521389
 21
283.535876101694
 31
0.0
  0
ARC
  5
1C7
  8
4
 10
515.081025352139
 20
281.535876101694
 30
0.0
 40
1.0
 50
90.0
 51
180.0
  0
ARC
  5
1C9
  8
4
 10
508.081025352139
 20
279.535876101694
 30
0.0
 40
1.0
 50
90.0
 51
180.0
  0
LINE
  5
1CA
  8
4
 10
508.081025352139
 20
280.535876101694
 30
0.0
 11
514.081025352139
 21
280.535876101694
 31
0.0
  0
ARC
  5
1CE
  8
4
 10
504.785152917492
 20
256.035876101694
 30
0.0
 40
1.0
 50
270.0
 51
350.4068654588381
  0
ARC
  5
1CF
  8
4
 10
503.081025352139
 20
254.035876101694
 30
0.0
 40
1.0
 50
90.0
 51
180.0
  0
ARC
  5
1D0
  8
4
 10
500.3464913797045
 20
235.7743746163876
 30
0.0
 40
2.0
 50
279.4623222080342
 51
350.4068654588377
  0
LINE
  5
1D1
  8
4
 10
493.081025352139
 20
232.535876101694
 30
0.0
 11
500.6752893543155
 21
233.8015867687233
 31
0.0
  0
LINE
  5
1D2
  8
4
 10
502.081025352139
 20
235.730130101694
 30
0.0
 11
502.081025352139
 21
254.035876101694
 31
0.0
  0
LINE
  5
1D3
  8
4
 10
503.081025352139
 20
255.035876101694
 30
0.0
 11
504.785152917492
 21
255.035876101694
 31
0.0
  0
LINE
  5
1D4
  8
4
 10
502.081025352139
 20
220.035876101694
 30
0.0
 11
507.081025352139
 21
218.035876101694
 31
0.0
  0
LINE
  5
1D5
  8
4
 10
507.081025352139
 20
263.619209101694
 30
0.0
 11
502.3185234057726
 21
235.4410734190262
 31
0.0
  0
LINE
  5
1D8
  8
4
 10
560.581025352139
 20
287.035876101694
 30
0.0
 11
535.581025352139
 21
287.035876101694
 31
0.0
  0
LINE
  5
1D9
  8
4
 10
560.581025352139
 20
285.035876101694
 30
0.0
 11
535.581025352139
 21
285.035876101694
 31
0.0
  0
LINE
  5
1DA
  8
4
 10
562.081025352139
 20
283.535876101694
 30
0.0
 11
534.0812713521389
 21
283.535876101694
 31
0.0
  0
LINE
  5
1DB
  8
4
 10
581.081025352139
 20
282.535876101694
 30
0.0
 11
515.081025352139
 21
282.535876101694
 31
0.0
  0
LINE
  5
1E2
  8
4
 10
596.880929352139
 20
233.8859741016941
 30
0.0
 11
604.9810253521389
 21
232.535876101694
 31
0.0
  0
LINE
  5
1E3
  8
L-CENTER
 10
604.982247352139
 20
265.7558481016941
 30
0.0
 11
576.254855352139
 21
265.7558481016941
 31
0.0
  0
LINE
  5
1E6
  8
4
 10
603.180929352139
 20
270.0058481016941
 30
0.0
 11
596.8809293521392
 21
270.0058481016941
 31
0.0
  0
LINE
  5
1E7
  8
4
 10
603.180929352139
 20
261.5058481016941
 30
0.0
 11
596.8809293521392
 21
261.5058481016941
 31
0.0
  0
LINE
  5
1EA
  8
4
 10
658.081025352139
 20
191.535876101694
 30
0.0
 11
657.081025352139
 21
190.535876101694
 31
0.0
  0
LINE
  5
1EB
  8
4
 10
603.180929352139
 20
206.785876101694
 30
0.0
 11
603.1809293521392
 21
198.285876101694
 31
0.0
  0
LINE
  5
1EC
  8
4
 10
604.9810253521389
 20
179.035876101694
 30
0.0
 11
605.9810253521389
 21
179.035876101694
 31
0.0
  0
LINE
  5
1ED
  8
4
 10
605.9810253521389
 20
190.035876101694
 30
0.0
 11
618.081025352139
 21
190.035876101694
 31
0.0
  0
LINE
  5
1EE
  8
4
 10
604.9810253521389
 20
202.535876101694
 30
0.0
 11
604.9810253521389
 21
172.535876101694
 31
0.0
  0
LINE
  5
1EF
  8
4
 10
657.081025352139
 20
190.535876101694
 30
0.0
 11
618.081025352139
 21
190.535876101694
 31
0.0
  0
LINE
  5
1F0
  8
4
 10
603.180929352139
 20
135.0659041016938
 30
0.0
 11
603.1809293521392
 21
143.5659041016938
 31
0.0
  0
LINE
  5
1F1
  8
4
 10
616.081025352139
 20
56.53604410169402
 30
0.0
 11
616.081025352139
 21
75.53604410169402
 31
0.0
  0
ARC
  5
1F2
  8
4
 10
615.081025352139
 20
75.53604410169402
 30
0.0
 40
1.0
 50
0.0
 51
90.0
  0
LINE
  5
1F5
  8
4
 10
598.180929352139
 20
206.785876101694
 30
0.0
 11
598.1809293521392
 21
198.2858761016941
 31
0.0
  0
LINE
  5
1F6
  8
2
 10
596.880929352139
 20
200.697398470609
 30
0.0
 11
598.180929352139
 21
201.997398470609
 31
0.0
  0
LINE
  5
1F7
  8
2
 10
596.880929352139
 20
202.535876101694
 30
0.0
 11
598.180929352139
 21
203.8358761016939
 31
0.0
  0
LINE
  5
1F8
  8
4
 10
598.180929352139
 20
135.0659041016938
 30
0.0
 11
598.1809293521392
 21
143.5659041016938
 31
0.0
  0
LINE
  5
1F9
  8
2
 10
596.880929352139
 20
141.1543817327789
 30
0.0
 11
598.180929352139
 21
139.8543817327789
 31
0.0
  0
LINE
  5
1FA
  8
2
 10
596.880929352139
 20
139.3159041016939
 30
0.0
 11
598.180929352139
 21
138.0159041016939
 31
0.0
  0
ARC
  5
1FB
  8
4
 10
595.880929352139
 20
125.535876101694
 30
0.0
 40
1.0
 50
270.0
 51
0.0
  0
LINE
  5
1FC
  8
4
 10
595.880929352139
 20
124.535876101694
 30
0.0
 11
587.081025352139
 21
124.535876101694
 31
0.0
  0
LINE
  5
1FD
  8
4
 10
582.081025352139
 20
121.535876101694
 30
0.0
 11
580.581025352139
 21
121.535876101694
 31
0.0
  0
LINE
  5
1FE
  8
4
 10
587.081025352139
 20
124.535876101694
 30
0.0
 11
582.081025352139
 21
124.535876101694
 31
0.0
  0
LINE
  5
204
  8
4
 10
596.880929352139
 20
125.535876101694
 30
0.0
 11
596.880929352139
 21
202.535876101694
 31
0.0
  0
ARC
  5
205
  8
4
 10
500.3464913797047
 20
169.2973775870002
 30
0.0
 40
2.0
 50
9.593134541163877
 51
80.5376777919725
  0
LINE
  5
206
  8
4
 10
493.081025352139
 20
172.535876101694
 30
0.0
 11
500.6752893543155
 21
171.2701654346645
 31
0.0
  0
LINE
  5
207
  8
4
 10
502.081025352139
 20
185.035876101694
 30
0.0
 11
507.081025352139
 21
187.035876101694
 31
0.0
  0
LINE
  5
208
  8
4
 10
507.081025352139
 20
139.035876101694
 30
0.0
 11
504.581025352139
 21
139.035876101694
 31
0.0
  0
LINE
  5
209
  8
4
 10
507.081025352139
 20
132.785876101694
 30
0.0
 11
504.581025352139
 21
132.785876101694
 31
0.0
  0
LINE
  5
20A
  8
4
 10
514.081025352139
 20
121.535876101694
 30
0.0
 11
515.581025352139
 21
121.535876101694
 31
0.0
  0
LINE
  5
20B
  8
4
 10
513.081025352139
 20
115.9766860509999
 30
0.0
 11
513.081025352139
 21
124.535876101694
 31
0.0
  0
LINE
  5
20C
  8
4
 10
509.5810253521388
 20
114.035876101694
 30
0.0
 11
504.581025352139
 21
114.035876101694
 31
0.0
  0
LINE
  5
20D
  8
4
 10
509.581025352139
 20
120.285876101694
 30
0.0
 11
504.581025352139
 21
120.285876101694
 31
0.0
  0
ARC
  5
20E
  8
4
 10
508.081025352139
 20
125.535876101694
 30
0.0
 40
1.0
 50
180.0
 51
270.0
  0
LINE
  5
20F
  8
4
 10
511.5810253521388
 20
115.035876101694
 30
0.0
 11
511.581025352139
 21
124.535876101694
 31
0.0
  0
LINE
  5
210
  8
4
 10
509.581025352139
 20
124.535876101694
 30
0.0
 11
509.581025352139
 21
114.035876101694
 31
0.0
  0
LINE
  5
211
  8
4
 10
508.081025352139
 20
124.535876101694
 30
0.0
 11
514.081025352139
 21
124.535876101694
 31
0.0
  0
LINE
  5
212
  8
4
 10
512.7224407014296
 20
115.035876101694
 30
0.0
 11
509.581025352139
 21
115.035876101694
 31
0.0
  0
LINE
  5
213
  8
4
 10
504.581025352139
 20
114.035876101694
 30
0.0
 11
504.581025352139
 21
139.035876101694
 31
0.0
  0
LINE
  5
214
  8
4
 10
507.081025352139
 20
141.4525431016939
 30
0.0
 11
502.3185234057726
 21
169.6306787843616
 31
0.0
  0
LINE
  5
215
  8
L-CENTER
 10
499.0043653521391
 20
126.535876101694
 30
0.0
 11
584.6191889231143
 21
126.535876101694
 31
0.0
  0
CIRCLE
  5
216
  8
4
 10
548.081025352139
 20
126.535876101694
 30
0.0
 40
23.5
  0
CIRCLE
  5
217
  8
4
 10
548.081025352139
 20
126.535876101694
 30
0.0
 40
32.5
  0
ARC
  5
21C
  8
4
 10
495.9816123521389
 20
79.53587610169399
 30
0.0
 40
3.0
 50
270.0
 51
339.968988
  0
ARC
  5
21D
  8
4
 10
481.081025352139
 20
75.53604410169402
 30
0.0
 40
1.0
 50
90.0
 51
180.000858999821
  0
LINE
  5
21E
  8
4
 10
480.081025352139
 20
56.53604410169402
 30
0.0
 11
480.081025352139
 21
75.53604410169402
 31
0.0
  0
LINE
  5
223
  8
4
 10
548.081025352139
 20
56.53604410169402
 30
0.0
 11
480.081025352139
 21
56.53604410169402
 31
0.0
  0
LINE
  5
224
  8
4
 10
548.081025352139
 20
76.53604410169402
 30
0.0
 11
481.081025352139
 21
76.53604410169402
 31
0.0
  0
ARC
  5
226
  8
4
 10
585.581025352139
 20
81.53604410169402
 30
0.0
 40
5.0
 50
180.0005270003848
 51
270.0
  0
LINE
  5
227
  8
L-CENTER
 10
598.081025352139
 20
81.53604410169402
 30
0.0
 11
598.081025352139
 21
51.53604410169402
 31
0.0
  0
ARC
  5
228
  8
4
 10
510.581025352139
 20
81.53604410169402
 30
0.0
 40
5.0
 50
270.0
 51
0.0
  0
LINE
  5
229
  8
L-CENTER
 10
498.081025352139
 20
81.53604410169402
 30
0.0
 11
498.081025352139
 21
51.53604410169402
 31
0.0
  0
LINE
  5
22A
  8
4
 10
597.3619163521391
 20
78.50829010169394
 30
0.0
 11
580.7453633521388
 21
122.085120101694
 31
0.0
  0
LINE
  5
22B
  8
4
 10
498.7998380333599
 20
78.50747734162752
 30
0.0
 11
515.1998807320444
 21
121.535876101694
 31
0.0
  0
LINE
  5
243
  8
4
 10
596.880929352139
 20
171.1857801016941
 30
0.0
 11
604.9810253521389
 21
172.535876101694
 31
0.0
  0
LINE
  5
244
  8
L-CENTER
 10
663.6918653521391
 20
202.535876101694
 30
0.0
 11
487.7163870539023
 21
202.535876101694
 31
0.0
  0
ARC
  5
245
  8
4
 10
600.1804383521392
 20
79.53587610169399
 30
0.0
 40
3.0
 50
200.0310129999983
 51
270.0
  0
LINE
  5
246
  8
4
 10
548.081025352139
 20
76.53604410169402
 30
0.0
 11
615.081025352139
 21
76.53604410169402
 31
0.0
  0
LINE
  5
247
  8
4
 10
548.081025352139
 20
56.53604410169402
 30
0.0
 11
616.081025352139
 21
56.53604410169402
 31
0.0
  0
LINE
  5
249
  8
4
 10
603.180929352139
 20
206.785876101694
 30
0.0
 11
596.8809293521392
 21
206.785876101694
 31
0.0
  0
LINE
  5
24A
  8
4
 10
603.180929352139
 20
198.285876101694
 30
0.0
 11
596.8809293521392
 21
198.285876101694
 31
0.0
  0
LINE
  5
24B
  8
4
 10
603.180929352139
 20
135.0659041016938
 30
0.0
 11
596.8809293521392
 21
135.0659041016938
 31
0.0
  0
LINE
  5
24C
  8
4
 10
603.180929352139
 20
143.5659041016939
 30
0.0
 11
596.8809293521392
 21
143.5659041016938
 31
0.0
  0
LINE
  5
24D
  8
L-CENTER
 10
604.982247352139
 20
139.3159041016939
 30
0.0
 11
576.254855352139
 21
139.3159041016939
 31
0.0
  0
LINE
  5
24F
  8
4
 10
604.9810253521389
 20
202.535876101694
 30
0.0
 11
604.9810253521389
 21
232.535876101694
 31
0.0
  0
LINE
  5
250
  8
4
 10
657.081025352139
 20
214.535876101694
 30
0.0
 11
657.081025352139
 21
190.535876101694
 31
0.0
  0
LINE
  5
251
  8
4
 10
658.081025352139
 20
191.535876101694
 30
0.0
 11
658.081025352139
 21
217.535876101694
 31
0.0
  0
LINE
  5
252
  8
4
 10
618.081025352139
 20
215.035876101694
 30
0.0
 11
618.081025352139
 21
190.035876101694
 31
0.0
  0
LINE
  5
253
  8
4
 10
605.9810253521389
 20
179.035876101694
 30
0.0
 11
605.9810253521389
 21
226.035876101694
 31
0.0
  0
LINE
  5
254
  8
4
 10
596.880929352139
 20
279.535876101694
 30
0.0
 11
596.880929352139
 21
202.535876101694
 31
0.0
  0
LINE
  5
255
  8
4
 10
587.081025352139
 20
124.535876101694
 30
0.0
 11
587.081025352139
 21
280.535876101694
 31
0.0
  0
LINE
  5
256
  8
4
 10
582.081025352139
 20
121.535876101694
 30
0.0
 11
582.081025352139
 21
281.535876101694
 31
0.0
  0
LINE
  5
257
  8
4
 10
493.081025352139
 20
232.535876101694
 30
0.0
 11
493.081025352139
 21
172.535876101694
 31
0.0
  0
LINE
  5
258
  8
4
 10
507.081025352139
 20
125.535876101694
 30
0.0
 11
507.081025352139
 21
279.535876101694
 31
0.0
  0
LINE
  5
259
  8
4
 10
514.081025352139
 20
121.535876101694
 30
0.0
 11
514.081025352139
 21
281.535876101694
 31
0.0
  0
LINE
  5
25A
  8
4
 10
502.081025352139
 20
170.2930642337276
 30
0.0
 11
502.081025352139
 21
235.730130101694
 31
0.0
  0
LINE
  5
25C
  8
4
 10
580.581025352139
 20
202.535876101694
 30
0.0
 11
580.581025352139
 21
81.53604410169402
 31
0.0
  0
LINE
  5
25D
  8
4
 10
515.581025352139
 20
202.535876101694
 30
0.0
 11
515.581025352139
 21
81.53604410169402
 31
0.0
  0
LINE
  5
25E
  8
L-CENTER
 10
548.081025352139
 20
294.2191606917514
 30
0.0
 11
548.081025352139
 21
52.58946044168175
 31
0.0
  0
LINE
  5
260
  8
4
 10
141.4747599794634
 20
431.0753504972639
 30
0.0
 11
140.4747599794634
 21
430.0753504972639
 31
0.0
  0
LINE
  5
261
  8
4
 10
141.4747599794634
 20
431.0753504972639
 30
0.0
 11
141.4747599794634
 21
424.5753504972639
 31
0.0
  0
LINE
  5
262
  8
4
 10
140.4747599794634
 20
414.0753504972639
 30
0.0
 11
141.4747599794634
 21
413.0753504972639
 31
0.0
  0
LINE
  5
263
  8
4
 10
140.4747599794634
 20
414.0753504972639
 30
0.0
 11
140.4747599794634
 21
430.0753504972639
 31
0.0
  0
LINE
  5
264
  8
4
 10
141.4747599794634
 20
419.5753504972639
 30
0.0
 11
141.4747599794634
 21
413.0753504972639
 31
0.0
  0
ARC
  5
265
  8
4
 10
344.4747599794634
 20
487.0753504972639
 30
0.0
 40
3.0
 50
0.0
 51
90.0
  0
ARC
  5
266
  8
4
 10
347.4747599794634
 20
469.8753504972639
 30
0.0
 40
1.0
 50
0.0
 51
90.0
  0
LINE
  5
267
  8
4
 10
347.7246379799992
 20
477.175350497264
 30
0.0
 11
347.7246379799992
 21
470.8753504972641
 31
0.0
  0
LINE
  5
268
  8
4
 10
339.2246379799992
 20
477.1753504972638
 30
0.0
 11
339.2246379799992
 21
470.8753504972641
 31
0.0
  0
LINE
  5
269
  8
4
 10
339.2246379799992
 20
472.175350497264
 30
0.0
 11
347.724637979999
 21
472.175350497264
 31
0.0
  0
LINE
  5
26A
  8
4
 10
339.2246379799992
 20
477.175350497264
 30
0.0
 11
347.7246379799992
 21
477.175350497264
 31
0.0
  0
LINE
  5
26B
  8
4
 10
348.4747599794634
 20
456.0753504972639
 30
0.0
 11
348.474759979463
 21
461.0753504972641
 31
0.0
  0
LINE
  5
26C
  8
L-CENTER
 10
343.4746379799992
 20
478.9766684972639
 30
0.0
 11
343.4746379799992
 21
450.2492764972638
 31
0.0
  0
LINE
  5
26D
  8
4
 10
348.4747599794634
 20
469.8753504972639
 30
0.0
 11
348.4747599794634
 21
461.3753504972639
 31
0.0
  0
ARC
  5
26E
  8
4
 10
325.4747599794634
 20
472.0753504972639
 30
0.0
 40
5.5
 50
347.3977351585344
 51
192.6022648414655
  0
LINE
  5
26F
  8
L-CENTER
 10
325.4747599794634
 20
458.284121497264
 30
0.0
 11
325.4747599794634
 21
485.8665794972638
 31
0.0
  0
LINE
  5
270
  8
4
 10
347.4747599794634
 20
477.175350497264
 30
0.0
 11
347.4747599794634
 21
487.0753504972639
 31
0.0
  0
ARC
  5
271
  8
4
 10
169.9747599794634
 20
422.0753504972639
 30
0.0
 40
2.5
 50
270.0
 51
90.0
  0
LINE
  5
272
  8
4
 10
189.4747599794634
 20
432.0753504972639
 30
0.0
 11
175.4747599794634
 21
432.0753504972639
 31
0.0
  0
LINE
  5
273
  8
4
 10
189.4747599794634
 20
412.0753504972639
 30
0.0
 11
175.4747599794634
 21
412.0753504972639
 31
0.0
  0
LINE
  5
274
  8
4
 10
175.4747599794634
 20
432.0753504972639
 30
0.0
 11
175.4747599794634
 21
412.0753504972639
 31
0.0
  0
LINE
  5
275
  8
4
 10
351.4745159794631
 20
445.5753504972639
 30
0.0
 11
351.4745159794631
 21
398.5753504972639
 31
0.0
  0
ARC
  5
276
  8
4
 10
349.4747599794634
 20
387.0753504972639
 30
0.0
 40
1.0
 50
90.00000700000332
 51
180.0000069360899
  0
LINE
  5
277
  8
4
 10
351.4745159794631
 20
445.5753504972639
 30
0.0
 11
350.4745159794631
 21
445.5753504972639
 31
0.0
  0
LINE
  5
278
  8
4
 10
351.4747599794634
 20
445.5753504972639
 30
0.0
 11
350.4747599794634
 21
445.5753504972639
 31
0.0
  0
LINE
  5
279
  8
4
 10
351.4745159794631
 20
398.5753504972639
 30
0.0
 11
350.4745159794631
 21
398.5753504972639
 31
0.0
  0
LINE
  5
27A
  8
4
 10
351.4747599794634
 20
398.5753504972639
 30
0.0
 11
350.4747599794634
 21
398.5753504972639
 31
0.0
  0
LINE
  5
27B
  8
4
 10
350.4747599794634
 20
388.0753505556316
 30
0.0
 11
350.4747599794634
 21
456.0753504972639
 31
0.0
  0
LINE
  5
27C
  8
4
 10
175.4747599794634
 20
413.0753504972639
 30
0.0
 11
141.4747599794634
 21
413.0753504972639
 31
0.0
  0
LINE
  5
27D
  8
4
 10
175.4747599794634
 20
431.0753504972639
 30
0.0
 11
141.4747599794634
 21
431.0753504972639
 31
0.0
  0
LINE
  5
27E
  8
4
 10
169.9747599794634
 20
419.5753504972639
 30
0.0
 11
140.4747599794634
 21
419.5753504972639
 31
0.0
  0
LINE
  5
27F
  8
4
 10
169.9747599794634
 20
424.5753504972639
 30
0.0
 11
140.4747599794634
 21
424.5753504972639
 31
0.0
  0
LINE
  5
280
  8
4
 10
281.4747599794634
 20
532.0753504972639
 30
0.0
 11
282.4747599794634
 21
531.0753504972639
 31
0.0
  0
LINE
  5
281
  8
4
 10
273.9747599794634
 20
531.0753504972637
 30
0.0
 11
282.4747599794634
 21
531.0753504972639
 31
0.0
  0
LINE
  5
282
  8
4
 10
258.4747599794634
 20
531.0753504972639
 30
0.0
 11
259.4747599794634
 21
532.0753504972639
 31
0.0
  0
LINE
  5
283
  8
4
 10
258.4747599794634
 20
531.0753504972639
 30
0.0
 11
266.9747599794634
 21
531.0753504972637
 31
0.0
  0
LINE
  5
284
  8
4
 10
281.4747599794634
 20
532.0753504972639
 30
0.0
 11
259.4747599794634
 21
532.0753504972639
 31
0.0
  0
ARC
  5
285
  8
4
 10
302.4747599794634
 20
487.0753504972639
 30
0.0
 40
3.0
 50
90.0
 51
180.0
  0
LINE
  5
286
  8
4
 10
313.5181563600779
 20
470.8753504972639
 30
0.0
 11
311.2247599794634
 21
471.0747762694915
 31
0.0
  0
LINE
  5
287
  8
4
 10
311.2247599794634
 20
477.175350497264
 30
0.0
 11
311.2247599794634
 21
470.8753504972641
 31
0.0
  0
LINE
  5
288
  8
L-CENTER
 10
306.9747599794634
 20
478.9766685102064
 30
0.0
 11
306.9747599794634
 21
450.2492765102064
 31
0.0
  0
LINE
  5
289
  8
4
 10
302.7247599794634
 20
471.8139067042742
 30
0.0
 11
301.8520327047702
 21
471.8897960325081
 31
0.0
  0
ARC
  5
28A
  8
4
 10
299.6429429262969
 20
477.9753504972638
 30
0.0
 40
1.0
 50
10.49147701234106
 51
90.0
  0
ARC
  5
28B
  8
4
 10
303.6642016364524
 20
472.7359897237194
 30
0.0
 40
2.0
 50
190.4914770123277
 51
205.0302592718731
  0
LINE
  5
28C
  8
4
 10
301.6976376264836
 20
472.3718112033549
 30
0.0
 11
300.6262249312815
 21
478.157439757446
 31
0.0
  0
LINE
  5
28D
  8
4
 10
302.7247599794634
 20
477.1753504972638
 30
0.0
 11
302.7247599794634
 21
470.8753504972641
 31
0.0
  0
LINE
  5
28E
  8
4
 10
293.9747599794634
 20
478.9753504972638
 30
0.0
 11
293.9747599794634
 21
479.9753504972638
 31
0.0
  0
LINE
  5
28F
  8
4
 10
302.7247599794634
 20
477.175350497264
 30
0.0
 11
311.2247599794634
 21
477.175350497264
 31
0.0
  0
LINE
  5
290
  8
4
 10
302.7247599794634
 20
472.175350497264
 30
0.0
 11
311.2247599794632
 21
472.175350497264
 31
0.0
  0
LINE
  5
291
  8
4
 10
299.4747599794634
 20
478.9753504972638
 30
0.0
 11
299.4747599794634
 21
487.0753504972639
 31
0.0
  0
LINE
  5
292
  8
4
 10
257.9747599794634
 20
492.0753504972639
 30
0.0
 11
282.9747599794634
 21
492.0753504972639
 31
0.0
  0
ARC
  5
293
  8
4
 10
270.4747599794634
 20
498.5753504972639
 30
0.0
 40
3.5
 50
180.0
 51
0.0
  0
LINE
  5
294
  8
4
 10
257.9747599794634
 20
479.9753504972638
 30
0.0
 11
257.9747599794634
 21
492.0753504972639
 31
0.0
  0
LINE
  5
295
  8
4
 10
282.9747599794634
 20
479.9753504972638
 30
0.0
 11
282.9747599794634
 21
492.0753504972639
 31
0.0
  0
CIRCLE
  5
296
  8
4
 10
270.4747599794634
 20
422.0753504972639
 30
0.0
 40
14.0
  0
CIRCLE
  5
297
  8
4
 10
270.4747599794634
 20
422.0753504972639
 30
0.0
 40
12.5
  0
POLYLINE
  5
298
  8
4
 66
     1
 10
0.0
 20
0.0
 30
0.0
 70
     1
  0
VERTEX
  5
486
  8
4
 10
282.9747599794634
 20
422.0753504972639
 30
0.0
  0
VERTEX
  5
487
  8
4
 10
276.7247599794634
 20
432.9006680445694
 30
0.0
  0
VERTEX
  5
488
  8
4
 10
264.2247599794634
 20
432.9006680445694
 30
0.0
  0
VERTEX
  5
489
  8
4
 10
257.9747599794634
 20
422.0753504972639
 30
0.0
  0
VERTEX
  5
48A
  8
4
 10
264.2247599794634
 20
411.2500329499584
 30
0.0
  0
VERTEX
  5
48B
  8
4
 10
276.7247599794634
 20
411.2500329499584
 30
0.0
  0
SEQEND
  5
4B9
  8
4
  0
ARC
  5
299
  8
4
 10
238.4747599794634
 20
487.0753504972639
 30
0.0
 40
3.0
 50
0.0
 51
90.0
  0
LINE
  5
29A
  8
4
 10
246.9747599794634
 20
478.9753504972638
 30
0.0
 11
246.9747599794634
 21
479.9753504972638
 31
0.0
  0
ARC
  5
29B
  8
4
 10
241.3065770326295
 20
477.9753504972638
 30
0.0
 40
1.0
 50
90.0
 51
169.5085229876593
  0
LINE
  5
29C
  8
4
 10
239.2518823324433
 20
472.3718112033549
 30
0.0
 11
240.3232950276454
 21
478.157439757446
 31
0.0
  0
LINE
  5
29D
  8
4
  6
CONTINUOUS
 62
     3
 10
238.2247599794634
 20
471.8139067042738
 30
0.0
 11
239.0974872541562
 21
471.8897960325081
 31
0.0
  0
LINE
  5
29E
  8
4
 10
238.2247599794634
 20
477.1753504972638
 30
0.0
 11
238.2247599794634
 21
470.8753504972641
 31
0.0
  0
LINE
  5
29F
  8
4
  6
CONTINUOUS
 62
     3
 10
227.4313635988508
 20
470.8753504972639
 30
0.0
 11
229.7247599794634
 21
471.0747762694911
 31
0.0
  0
LINE
  5
2A0
  8
4
 10
229.7247599794634
 20
477.175350497264
 30
0.0
 11
229.7247599794634
 21
470.8753504972641
 31
0.0
  0
LINE
  5
2A1
  8
4
 10
238.2247599794634
 20
477.175350497264
 30
0.0
 11
229.7247599794634
 21
477.175350497264
 31
0.0
  0
LINE
  5
2A2
  8
4
 10
238.2247599794634
 20
472.175350497264
 30
0.0
 11
229.7247599794634
 21
472.175350497264
 31
0.0
  0
LINE
  5
2A3
  8
L-CENTER
 10
233.9747599794634
 20
478.9766685102064
 30
0.0
 11
233.9747599794634
 21
450.2492765102064
 31
0.0
  0
ARC
  5
2A4
  8
4
 10
237.2853183224745
 20
472.7359897237196
 30
0.0
 40
2.0
 50
334.9697407281017
 51
349.5085229876724
  0
LINE
  5
2A5
  8
4
 10
241.4747599794634
 20
478.9753504972638
 30
0.0
 11
241.4747599794634
 21
487.0753504972639
 31
0.0
  0
ARC
  5
2A6
  8
4
 10
196.4747599794634
 20
487.0753504972639
 30
0.0
 40
3.0
 50
90.0
 51
180.0
  0
ARC
  5
2A7
  8
4
 10
215.4747599794634
 20
472.0753504972639
 30
0.0
 40
5.5
 50
357.9160576653913
 51
182.0839423346087
  0
LINE
  5
2A8
  8
4
 10
206.4747599794634
 20
471.8753504972639
 30
0.0
 11
206.4747599794634
 21
470.8753504972639
 31
0.0
  0
LINE
  5
2A9
  8
4
 10
201.7248819789277
 20
477.1753504972638
 30
0.0
 11
201.7248819789277
 21
470.8753504972641
 31
0.0
  0
ARC
  5
2AA
  8
4
 10
193.4747599794634
 20
469.8753504972639
 30
0.0
 40
1.0
 50
90.0
 51
180.0
  0
LINE
  5
2AB
  8
4
 10
193.2248819789277
 20
477.175350497264
 30
0.0
 11
193.2248819789277
 21
470.8753504972641
 31
0.0
  0
LINE
  5
2AC
  8
4
 10
201.7248819789277
 20
477.175350497264
 30
0.0
 11
193.2248819789277
 21
477.175350497264
 31
0.0
  0
LINE
  5
2AD
  8
4
 10
201.7248819789277
 20
472.175350497264
 30
0.0
 11
193.2248819789277
 21
472.175350497264
 31
0.0
  0
LINE
  5
2AE
  8
4
 10
192.474759979463
 20
456.0753504972639
 30
0.0
 11
192.474759979463
 21
461.0753504972639
 31
0.0
  0
LINE
  5
2AF
  8
L-CENTER
 10
197.4748819789277
 20
478.9766684972639
 30
0.0
 11
197.4748819789277
 21
450.2492764972638
 31
0.0
  0
LINE
  5
2B0
  8
4
 10
192.4747599794634
 20
469.8753504972639
 30
0.0
 11
192.4747599794634
 21
461.3753504972639
 31
0.0
  0
LINE
  5
2B1
  8
L-CENTER
 10
215.4747599794634
 20
458.284121497264
 30
0.0
 11
215.4747599794634
 21
485.8665794972638
 31
0.0
  0
LINE
  5
2B2
  8
4
 10
193.4747599794634
 20
477.175350497264
 30
0.0
 11
193.4747599794634
 21
487.0753504972639
 31
0.0
  0
LINE
  5
2B3
  8
4
 10
196.4747599794634
 20
490.0753504972639
 30
0.0
 11
238.4747599794634
 21
490.0753504972641
 31
0.0
  0
LINE
  5
2B4
  8
L-CENTER
 10
201.6835309794635
 20
472.0753504972639
 30
0.0
 11
229.2659889794634
 21
472.0753504972639
 31
0.0
  0
LINE
  5
2B5
  8
4
 10
206.4747599794634
 20
471.8753504972639
 30
0.0
 11
229.7247599794634
 21
471.8753504972639
 31
0.0
  0
ARC
  5
2B6
  8
4
 10
191.4747599794634
 20
387.0753504972639
 30
0.0
 40
1.0
 50
359.9999930639101
 51
89.99999300000971
  0
LINE
  5
2B7
  8
4
 10
241.3065770326295
 20
478.9753504972638
 30
0.0
 11
299.6429429262969
 21
478.9753504972638
 31
0.0
  0
LINE
  5
2B8
  8
4
 10
293.9747599794634
 20
479.9753504972638
 30
0.0
 11
246.9747599794634
 21
479.9753504972638
 31
0.0
  0
LINE
  5
2B9
  8
4
 10
258.4747599794634
 20
531.0753504972639
 30
0.0
 11
258.4747599794634
 21
492.0753504972639
 31
0.0
  0
LINE
  5
2BA
  8
4
 10
282.4747599794634
 20
531.0753504972639
 30
0.0
 11
282.4747599794634
 21
492.0753504972639
 31
0.0
  0
LINE
  5
2BB
  8
4
 10
273.9747599794634
 20
498.5753504972639
 30
0.0
 11
273.9747599794634
 21
532.0753504972639
 31
0.0
  0
LINE
  5
2BC
  8
4
 10
266.9747599794634
 20
498.5753504972639
 30
0.0
 11
266.9747599794634
 21
532.0753504972639
 31
0.0
  0
LINE
  5
2BD
  8
4
 10
302.4747599794634
 20
490.0753504972639
 30
0.0
 11
344.4747599794634
 21
490.0753504972639
 31
0.0
  0
LINE
  5
2BE
  8
L-CENTER
 10
311.6835309794635
 20
472.0753504972639
 30
0.0
 11
339.2659889794634
 21
472.0753504972639
 31
0.0
  0
LINE
  5
2BF
  8
4
 10
348.474759979463
 20
461.0753504972641
 30
0.0
 11
192.474759979463
 21
461.0753504972639
 31
0.0
  0
LINE
  5
2C0
  8
4
 10
192.4747599794634
 20
461.3753504972639
 30
0.0
 11
348.4747599794634
 21
461.3753504972639
 31
0.0
  0
LINE
  5
2C1
  8
4
 10
193.4747599794634
 20
470.8753504972639
 30
0.0
 11
347.4747599794634
 21
470.8753504972639
 31
0.0
  0
ARC
  5
2C2
  8
4
 10
347.4747599794634
 20
382.0753504972639
 30
0.0
 40
1.0
 50
269.9999969999893
 51
359.9999970424414
  0
ARC
  5
2C3
  8
4
 10
344.4747599794634
 20
357.0753504972639
 30
0.0
 40
3.0
 50
270.0
 51
0.0
  0
LINE
  5
2C4
  8
4
 10
347.4747599794634
 20
357.0753504972639
 30
0.0
 11
347.4747599794634
 21
381.0753504972639
 31
0.0
  0
CIRCLE
  5
2C5
  8
4
 10
325.4747599794634
 20
372.0753504972639
 30
0.0
 40
5.5
  0
LINE
  5
2C6
  8
L-CENTER
 10
325.4747599794634
 20
358.284121497264
 30
0.0
 11
325.4747599794634
 21
385.8665794972638
 31
0.0
  0
ARC
  5
2CB
  8
4
 10
338.6295439794633
 20
270.690662101694
 30
0.0
 40
3.00004
 50
14.79056800000033
 51
75.20943200000102
  0
ARC
  5
2CC
  8
4
 10
330.6219759794633
 20
221.279040101694
 30
0.0
 40
3.000006
 50
266.6034269999985
 51
17.30842400000173
  0
ARC
  5
2CD
  8
4
 10
299.6276329794634
 20
368.0753504972639
 30
0.0
 40
1.0
 50
270.0
 51
350.5376780000069
  0
LINE
  5
2CE
  8
4
 10
300.6140269794635
 20
367.9109514972639
 30
0.0
 11
301.566541115393
 21
373.6260354672473
 31
0.0
  0
ARC
  5
2CF
  8
4
 10
302.4747599794634
 20
357.0753504972639
 30
0.0
 40
3.0
 50
180.0
 51
270.0
  0
LINE
  5
2D0
  8
4
 10
299.4747599794634
 20
357.0753504972639
 30
0.0
 11
299.4747599794634
 21
367.0753504972639
 31
0.0
  0
ARC
  5
2D1
  8
4
 10
303.5393289794636
 20
373.2972374972638
 30
0.0
 40
2.0
 50
99.5931340000056
 51
170.5376779999999
  0
LINE
  5
2D2
  8
4
 10
240.3354929794634
 20
367.9109514972639
 30
0.0
 11
239.3829788435339
 21
373.6260354672473
 31
0.0
  0
ARC
  5
2D3
  8
4
 10
241.3218869794634
 20
368.0753504972639
 30
0.0
 40
1.0
 50
189.4623219999935
 51
270.0
  0
LINE
  5
2D4
  8
4
 10
241.4747599794634
 20
357.0753504972639
 30
0.0
 11
241.4747599794634
 21
367.0753504972639
 31
0.0
  0
ARC
  5
2D5
  8
4
 10
237.4101909794633
 20
373.2972374972638
 30
0.0
 40
2.0
 50
9.462321999999995
 51
80.40686600000083
  0
ARC
  5
2D6
  8
4
 10
238.4747599794634
 20
357.0753504972639
 30
0.0
 40
3.0
 50
270.0
 51
0.0
  0
CIRCLE
  5
2D7
  8
4
 10
215.4747599794634
 20
372.0753504972639
 30
0.0
 40
5.5
  0
LINE
  5
2D8
  8
L-CENTER
 10
215.4747599794634
 20
358.284121497264
 30
0.0
 11
215.4747599794634
 21
385.8665794972638
 31
0.0
  0
ARC
  5
2D9
  8
4
 10
193.4747599794634
 20
382.0753504972639
 30
0.0
 40
1.0
 50
180.0000029575587
 51
270.0000029999977
  0
ARC
  5
2DA
  8
4
 10
196.4747599794634
 20
357.0753504972639
 30
0.0
 40
3.0
 50
180.0
 51
270.0
  0
LINE
  5
2DB
  8
4
 10
193.4747599794634
 20
357.0753504972639
 30
0.0
 11
193.4747599794634
 21
381.0753568033557
 31
0.0
  0
LINE
  5
2DC
  8
L-CENTER
 10
201.6835309794635
 20
372.0753504972639
 30
0.0
 11
229.2659889794634
 21
372.0753504972639
 31
0.0
  0
LINE
  5
2DD
  8
4
 10
196.4747599794634
 20
354.0753504972639
 30
0.0
 11
238.4747599794634
 21
354.0753504972639
 31
0.0
  0
LINE
  5
2DE
  8
4
 10
203.3908479794634
 20
381.0753504972639
 30
0.0
 11
237.7434919794634
 21
375.269269497264
 31
0.0
  0
LINE
  5
2DF
  8
4
 10
299.6276329794634
 20
367.0753504972639
 30
0.0
 11
241.4747599794634
 21
367.0753504972639
 31
0.0
  0
LINE
  5
2E0
  8
4
 10
301.9747599794634
 20
376.0753504972639
 30
0.0
 11
239.0652611897415
 21
376.0753504972639
 31
0.0
  0
LINE
  5
2E6
  8
4
 10
282.9747599794632
 20
285.035876101694
 30
0.0
 11
282.9747599794632
 21
291.035876101694
 31
0.0
  0
LINE
  5
2E7
  8
4
 10
281.9747599794632
 20
283.535876101694
 30
0.0
 11
281.9747599794632
 21
285.035876101694
 31
0.0
  0
LINE
  5
2E8
  8
4
 10
284.4747599794632
 20
283.535876101694
 30
0.0
 11
284.4747599794632
 21
282.172596101694
 31
0.0
  0
LINE
  5
2E9
  8
4
 10
276.7247599794632
 20
287.035876101694
 30
0.0
 11
276.7247599794632
 21
291.035876101694
 31
0.0
  0
LINE
  5
2EA
  8
4
 10
264.2247599794632
 20
287.035876101694
 30
0.0
 11
264.2247599794632
 21
291.035876101694
 31
0.0
  0
LINE
  5
2EB
  8
4
 10
257.9748359794633
 20
285.035876101694
 30
0.0
 11
257.9748359794633
 21
291.035876101694
 31
0.0
  0
LINE
  5
2EC
  8
4
 10
258.9747599794632
 20
283.535876101694
 30
0.0
 11
258.9747599794632
 21
285.035876101694
 31
0.0
  0
LINE
  5
2ED
  8
4
 10
256.4750039794633
 20
283.535876101694
 30
0.0
 11
256.4750039794633
 21
282.172596101694
 31
0.0
  0
LINE
  5
2EE
  8
4
 10
257.9748359794633
 20
285.035876101694
 30
0.0
 11
282.9747599794632
 21
285.035876101694
 31
0.0
  0
LINE
  5
2EF
  8
4
 10
257.9748359794633
 20
287.035876101694
 30
0.0
 11
282.9747599794632
 21
287.035876101694
 31
0.0
  0
LINE
  5
2F0
  8
4
 10
257.9748359794633
 20
291.035876101694
 30
0.0
 11
282.9747599794632
 21
291.035876101694
 31
0.0
  0
LINE
  5
2F1
  8
4
 10
284.4747599794632
 20
283.535876101694
 30
0.0
 11
256.4750039794633
 21
283.535876101694
 31
0.0
  0
ARC
  5
2F4
  8
4
 10
288.1976249794632
 20
247.5516291016939
 30
0.0
 40
3.0
 50
315.0000069999997
 51
30.52252100000042
  0
ARC
  5
2F5
  8
4
 10
291.9747599794632
 20
252.035876101694
 30
0.0
 40
3.0
 50
0.0
 51
90.0
  0
ARC
  5
2F6
  8
4
 10
295.3541539794633
 20
227.415272101694
 30
0.0
 40
3.000056
 50
9.740570999999774
 51
80.25483600000106
  0
ARC
  5
2F7
  8
4
 10
296.6292999794632
 20
228.6904181016942
 30
0.0
 40
3.000002
 50
10.24730299999999
 51
79.75269700000108
  0
LINE
  5
2F8
  8
4
 10
289.5458319794632
 20
241.0358751016939
 30
0.0
 11
290.9747659794632
 21
241.0358751016939
 31
0.0
  0
ARC
  5
2F9
  8
4
 10
289.5458319794632
 20
242.5358751016939
 30
0.0
 40
1.5
 50
135.0000070000005
 51
270.0
  0
LINE
  5
2FA
  8
4
 10
291.4747659794632
 20
238.0358751016939
 30
0.0
 11
291.4747659794632
 21
240.5358751016939
 31
0.0
  0
ARC
  5
2FB
  8
4
 10
290.9747659794632
 20
240.5358751016939
 30
0.0
 40
0.5
 50
0.0
 51
90.0
  0
ARC
  5
2FC
  8
4
 10
290.9747659794632
 20
238.0358751016939
 30
0.0
 40
0.5
 50
270.0
 51
0.0
  0
ARC
  5
2FD
  8
4
 10
297.9747599794632
 20
234.5376301016941
 30
0.0
 40
3.0
 50
180.0
 51
257.0417299999992
  0
ARC
  5
2FE
  8
4
 10
303.6156279794632
 20
222.8828001016942
 30
0.0
 40
2.999964
 50
187.6414830000002
 51
266.6034269999987
  0
LINE
  5
2FF
  8
4
 10
288.4851719794631
 20
243.596535101694
 30
0.0
 11
290.3189459794633
 21
245.4303091016941
 31
0.0
  0
LINE
  5
300
  8
4
 10
294.9747599794632
 20
252.035876101694
 30
0.0
 11
294.9747599794632
 21
234.5376301016941
 31
0.0
  0
ARC
  5
301
  8
4
 10
285.9747659794632
 20
246.5358751016939
 30
0.0
 40
5.0
 50
90.0
 51
176.8152310000004
  0
LINE
  5
302
  8
4
 10
281.4817159794632
 20
246.2858771016941
 30
0.0
 11
282.6034469794633
 21
246.2858771016941
 31
0.0
  0
ARC
  5
303
  8
4
 10
281.4817159794632
 20
246.7858771016941
 30
0.0
 40
0.5
 50
176.8152309999994
 51
270.0
  0
LINE
  5
304
  8
4
 10
277.9747659794632
 20
246.2858771016941
 30
0.0
 11
275.4747659794632
 21
246.2858771016941
 31
0.0
  0
ARC
  5
305
  8
4
 10
275.4747659794632
 20
245.7858771016941
 30
0.0
 40
0.5
 50
90.0
 51
180.0
  0
ARC
  5
306
  8
4
 10
277.9747659794632
 20
245.7858771016941
 30
0.0
 40
0.5
 50
0.0
 51
90.0
  0
LINE
  5
307
  8
4
 10
286.4992469794631
 20
257.8580341016939
 30
0.0
 11
286.2232699794633
 21
262.5052801016939
 31
0.0
  0
LINE
  5
308
  8
4
 10
265.8651499794632
 20
251.535876101694
 30
0.0
 11
268.5843739794632
 21
251.535876101694
 31
0.0
  0
ARC
  5
309
  8
4
 10
268.5843739794632
 20
251.035876101694
 30
0.0
 40
0.5
 50
14.0362470000025
 51
90.0
  0
ARC
  5
30A
  8
4
 10
265.8651499794632
 20
251.035876101694
 30
0.0
 40
0.5
 50
90.0
 51
165.9637529999975
  0
LINE
  5
30B
  8
4
 10
280.9747659794632
 20
240.8287681016939
 30
0.0
 11
280.9747659794632
 21
238.0358751016939
 31
0.0
  0
ARC
  5
30C
  8
4
 10
281.4747659794632
 20
240.8287681016939
 30
0.0
 40
0.5
 50
135.000006999999
 51
180.0
  0
ARC
  5
30D
  8
4
 10
281.4747659794632
 20
238.0358751016939
 30
0.0
 40
0.5
 50
180.0
 51
270.0
  0
LINE
  5
30E
  8
4
 10
281.1212119794632
 20
241.1823211016941
 30
0.0
 11
283.6641069794632
 21
243.725217101694
 31
0.0
  0
ARC
  5
30F
  8
4
 10
271.8343749794633
 20
238.035876101694
 30
0.0
 40
0.5
 50
270.0
 51
14.0362470000025
  0
LINE
  5
310
  8
4
 10
277.9747659794632
 20
242.7858771016941
 30
0.0
 11
275.4747659794632
 21
242.7858771016941
 31
0.0
  0
ARC
  5
311
  8
4
 10
277.9747659794632
 20
243.2858771016941
 30
0.0
 40
0.5
 50
270.0
 51
0.0
  0
ARC
  5
312
  8
4
 10
275.4747659794632
 20
243.2858771016941
 30
0.0
 40
0.5
 50
180.0
 51
270.0
  0
ARC
  5
313
  8
4
 10
265.1419359794634
 20
238.035876101694
 30
0.0
 40
0.5
 50
270.0
 51
346.5011000000003
  0
ARC
  5
314
  8
4
 10
267.2247619794632
 20
237.535876101694
 30
0.0
 40
1.642
 50
13.49890000000086
 51
166.5010999999991
  0
ARC
  5
315
  8
4
 10
269.3075879794633
 20
238.035876101694
 30
0.0
 40
0.5
 50
193.4988999999933
 51
270.0
  0
LINE
  5
316
  8
4
 10
259.4747539794632
 20
238.0358771016941
 30
0.0
 11
259.4747539794632
 21
240.5358771016941
 31
0.0
  0
ARC
  5
317
  8
4
 10
258.9747539794632
 20
240.5358771016941
 30
0.0
 40
0.5
 50
0.0
 51
90.0
  0
ARC
  5
318
  8
4
 10
258.9747539794632
 20
238.0358771016941
 30
0.0
 40
0.5
 50
270.0
 51
0.0
  0
ARC
  5
319
  8
4
 10
262.6151499794632
 20
238.035876101694
 30
0.0
 40
0.5
 50
165.9637529999975
 51
270.0
  0
LINE
  5
31A
  8
4
 10
262.6151499794632
 20
237.535876101694
 30
0.0
 11
265.1419359794634
 21
237.535876101694
 31
0.0
  0
LINE
  5
31B
  8
4
 10
269.3075879794633
 20
237.535876101694
 30
0.0
 11
271.8343749794633
 21
237.535876101694
 31
0.0
  0
LINE
  5
31C
  8
4
 10
278.4747659794632
 20
243.2858771016941
 30
0.0
 11
278.4747659794632
 21
245.7858771016941
 31
0.0
  0
LINE
  5
31D
  8
4
 10
274.9747659794632
 20
243.2858771016941
 30
0.0
 11
274.9747659794632
 21
245.7858771016941
 31
0.0
  0
LINE
  5
31E
  8
4
 10
269.0694449794632
 20
251.1571441016941
 30
0.0
 11
272.3195537150734
 21
238.1567131593866
 31
0.0
  0
ARC
  5
31F
  8
4
 10
282.6034469794633
 20
244.7858771016941
 30
0.0
 40
1.5
 50
315.0000070000004
 51
90.0
  0
LINE
  5
320
  8
4
 10
265.3800789794632
 20
251.1571441016941
 30
0.0
 11
262.1327443002544
 21
238.1678093815777
 31
0.0
  0
ARC
  5
321
  8
4
 10
289.2179939794632
 20
262.683122101694
 30
0.0
 40
3.0
 50
72.69179199999905
 51
183.3985279999996
  0
ARC
  5
322
  8
4
 10
286.4747659794632
 20
246.5358751016939
 30
0.0
 40
5.0
 50
30.52252099999851
 51
90.0
  0
ARC
  5
323
  8
4
 10
289.4939709794633
 20
258.035876101694
 30
0.0
 40
3.0
 50
183.3985279999996
 51
270.0
  0
ARC
  5
324
  8
4
 10
270.4747599794632
 20
84.03587610169399
 30
0.0
 40
149.999994
 50
79.75128
 51
90.0
  0
LINE
  5
325
  8
4
 10
281.4747659794632
 20
237.5358751016939
 30
0.0
 11
290.9747659794632
 21
237.5358751016939
 31
0.0
  0
ARC
  5
326
  8
4
 10
270.4747599794632
 20
82.53563210169415
 30
0.0
 40
149.999958
 50
80.25589300000006
 51
90.0
  0
LINE
  5
328
  8
4
 10
249.9747819794632
 20
251.5358771016941
 30
0.0
 11
252.4747809794633
 21
251.5358771016941
 31
0.0
  0
ARC
  5
329
  8
4
 10
249.9747819794632
 20
251.0358771016941
 30
0.0
 40
0.5
 50
90.0
 51
180.0
  0
ARC
  5
32A
  8
4
 10
252.4747809794633
 20
251.0358771016941
 30
0.0
 40
0.5
 50
0.0
 51
90.0
  0
ARC
  5
32B
  8
4
 10
251.4555489794632
 20
258.035876101694
 30
0.0
 40
3.0
 50
270.0
 51
356.6014720000004
  0
ARC
  5
32C
  8
4
 10
248.9747599794632
 20
252.035876101694
 30
0.0
 40
3.0
 50
90.0
 51
180.0
  0
LINE
  5
32D
  8
4
 10
254.4502729794633
 20
257.8580341016939
 30
0.0
 11
254.7262499794631
 21
262.5052801016939
 31
0.0
  0
ARC
  5
32E
  8
4
 10
253.4747559794632
 20
241.5358771016941
 30
0.0
 40
0.5
 50
180.0
 51
270.0
  0
ARC
  5
32F
  8
4
 10
249.9747549794631
 20
238.0358771016941
 30
0.0
 40
0.5
 50
179.9998799999956
 51
269.9998800000139
  0
ARC
  5
330
  8
4
 10
245.5956099794632
 20
227.415272101694
 30
0.0
 40
3.000038
 50
99.74431700000112
 51
170.2593320000005
  0
ARC
  5
331
  8
4
 10
244.3204619794631
 20
228.6904181016942
 30
0.0
 40
3.000008
 50
100.2487129999964
 51
169.7526940000006
  0
ARC
  5
332
  8
4
 10
242.9747599794632
 20
234.5376301016941
 30
0.0
 40
3.0
 50
282.9582700000008
 51
0.0
  0
ARC
  5
333
  8
4
 10
237.3341339794631
 20
222.8828001016942
 30
0.0
 40
2.999962
 50
273.3994900000036
 51
352.3584810000007
  0
LINE
  5
334
  8
4
 10
245.9747599794632
 20
252.035876101694
 30
0.0
 11
245.9747599794632
 21
234.5376301016941
 31
0.0
  0
LINE
  5
335
  8
4
 10
249.4747549794631
 20
238.035878101694
 30
0.0
 11
249.4747829794633
 21
251.0358771016941
 31
0.0
  0
LINE
  5
336
  8
4
 10
252.9747539794632
 20
241.5358771016941
 30
0.0
 11
252.9747829794633
 21
251.0358771016941
 31
0.0
  0
ARC
  5
337
  8
4
 10
202.3202179794632
 20
270.690662101694
 30
0.0
 40
3.000014
 50
104.7888499999998
 51
165.2092810000005
  0
ARC
  5
338
  8
4
 10
210.3277879794632
 20
221.279040101694
 30
0.0
 40
2.999966
 50
162.6910589999998
 51
273.3994899999973
  0
LINE
  5
339
  8
4
 10
210.5055219794633
 20
218.284412101694
 30
0.0
 11
237.5118699794632
 21
219.888172101694
 31
0.0
  0
ARC
  5
33B
  8
4
 10
251.7315259794632
 20
262.683122101694
 30
0.0
 40
3.0
 50
356.6014720000004
 51
107.3082079999965
  0
LINE
  5
33C
  8
4
 10
249.9747539794632
 20
237.535876101694
 30
0.0
 11
258.9747539794632
 21
237.5358771016941
 31
0.0
  0
LINE
  5
33D
  8
4
 10
253.4747559794632
 20
241.0358771016941
 30
0.0
 11
258.9747539794632
 21
241.0358771016941
 31
0.0
  0
ARC
  5
33E
  8
4
 10
270.4750039794633
 20
84.03587610169399
 30
0.0
 40
150.000004
 50
90.0
 51
100.2487600000001
  0
LINE
  5
33F
  8
4
 10
248.9747599794632
 20
255.035876101694
 30
0.0
 11
291.9747599794632
 21
255.035876101694
 31
0.0
  0
ARC
  5
340
  8
4
 10
270.4750039794633
 20
12.53587610169399
 30
0.0
 40
270.00002
 50
90.0
 51
104.789143
  0
ARC
  5
341
  8
4
 10
270.4750039794633
 20
82.53563210169415
 30
0.0
 40
149.999968
 50
90.0
 51
99.74415300000004
  0
LINE
  5
342
  8
L-CENTER
 10
311.6835309794635
 20
372.0753504972639
 30
0.0
 11
339.2659889794634
 21
372.0753504972639
 31
0.0
  0
LINE
  5
343
  8
4
 10
302.4747599794634
 20
354.0753504972639
 30
0.0
 11
344.4747599794634
 21
354.0753504972639
 31
0.0
  0
LINE
  5
344
  8
4
 10
337.5586719794635
 20
381.0753504972639
 30
0.0
 11
303.2060279794634
 21
375.269269497264
 31
0.0
  0
LINE
  5
345
  8
4
 10
347.4747599794634
 20
381.0753504972639
 30
0.0
 11
193.4712085805143
 21
381.075356803501
 31
0.0
  0
LINE
  5
348
  8
4
 10
330.4442419794632
 20
218.284412101694
 30
0.0
 11
303.4378939794631
 21
219.888172101694
 31
0.0
  0
ARC
  5
349
  8
4
 10
270.4747599794632
 20
12.53587610169399
 30
0.0
 40
270.00002
 50
75.210857
 51
90.0
  0
LINE
  5
34A
  8
4
 10
348.4747599794634
 20
387.0753504972639
 30
0.0
 11
348.4747599794634
 21
382.0753504972639
 31
0.0
  0
LINE
  5
34B
  8
4
 10
192.4747599794634
 20
387.0753504972639
 30
0.0
 11
192.4747599794634
 21
382.0753504972639
 31
0.0
  0
LINE
  5
34C
  8
L-CENTER
 10
270.4747599794634
 20
363.9106026289058
 30
0.0
 11
270.4747599794634
 21
535.1113837070595
 31
0.0
  0
LINE
  5
34D
  8
4
 10
189.4750039794633
 20
445.5753504972639
 30
0.0
 11
190.4750039794633
 21
445.5753504972639
 31
0.0
  0
LINE
  5
34E
  8
4
 10
189.4747599794634
 20
445.5753504972639
 30
0.0
 11
190.4747599794634
 21
445.5753504972639
 31
0.0
  0
LINE
  5
34F
  8
4
 10
189.4750039794633
 20
398.5753504972639
 30
0.0
 11
190.4750039794633
 21
398.5753504972639
 31
0.0
  0
LINE
  5
350
  8
4
 10
189.4747599794634
 20
398.5753504972639
 30
0.0
 11
190.4747599794634
 21
398.5753504972639
 31
0.0
  0
LINE
  5
351
  8
4
 10
189.4750039794633
 20
445.5753504972639
 30
0.0
 11
189.4750039794633
 21
398.5753504972639
 31
0.0
  0
LINE
  5
352
  8
4
 10
189.4747599794634
 20
445.5753504972639
 30
0.0
 11
189.4747599794634
 21
398.5753504972639
 31
0.0
  0
LINE
  5
353
  8
4
 10
190.4747599794634
 20
388.0753314968296
 30
0.0
 11
190.4747599794634
 21
456.0753504972639
 31
0.0
  0
LINE
  5
355
  8
4
 10
190.4747599794634
 20
456.0753504972639
 30
0.0
 11
350.4747599794634
 21
456.0753504972639
 31
0.0
  0
LINE
  5
356
  8
L-CENTER
 10
356.1349504244233
 20
422.0753504972639
 30
0.0
 11
138.1976072280955
 21
422.0753504972639
 31
0.0
  0
LINE
  5
357
  8
4
 10
190.4747599794634
 20
388.0753314968296
 30
0.0
 11
350.4747599794634
 21
388.0753505556316
 31
0.0
  0
LINE
  5
35D
  8
4
 10
141.4747599794632
 20
135.5358761016942
 30
0.0
 11
140.4747599794632
 21
134.5358761016942
 31
0.0
  0
LINE
  5
35E
  8
4
 10
140.4747599794632
 20
118.5358761016942
 30
0.0
 11
141.4747599794632
 21
117.5358761016942
 31
0.0
  0
LINE
  5
35F
  8
4
 10
140.4747599794632
 20
118.5358761016942
 30
0.0
 11
140.4747599794632
 21
137.5358761016942
 31
0.0
  0
LINE
  5
360
  8
4
 10
141.4747599794632
 20
135.5358761016942
 30
0.0
 11
141.4747599794632
 21
117.5358761016942
 31
0.0
  0
ARC
  5
364
  8
4
 10
330.6219759794633
 20
183.792712101694
 30
0.0
 40
3.000006
 50
342.6915949999989
 51
93.39657300000155
  0
LINE
  5
365
  8
4
 10
350.4747599794632
 20
159.035876101694
 30
0.0
 11
349.6043979794633
 21
159.035876101694
 31
0.0
  0
LINE
  5
366
  8
4
 10
351.4745159794631
 20
150.035876101694
 30
0.0
 11
350.4745159794631
 21
150.035876101694
 31
0.0
  0
LINE
  5
367
  8
4
 10
351.4747599794632
 20
150.035876101694
 30
0.0
 11
350.4747599794632
 21
150.035876101694
 31
0.0
  0
LINE
  5
368
  8
4
 10
172.4747599794632
 20
137.5358761016941
 30
0.0
 11
172.4747599794632
 21
135.5358761016941
 31
0.0
  0
LINE
  5
369
  8
4
 10
189.4747599794632
 20
136.5358761016941
 30
0.0
 11
175.4747599794632
 21
136.5358761016941
 31
0.0
  0
LINE
  5
36A
  8
4
 10
189.4747599794632
 20
116.5358761016941
 30
0.0
 11
175.4747599794632
 21
116.5358761016941
 31
0.0
  0
LINE
  5
36B
  8
4
 10
175.4747599794632
 20
136.5358761016941
 30
0.0
 11
175.4747599794632
 21
116.5358761016941
 31
0.0
  0
ARC
  5
36C
  8
4
 10
338.6295439794633
 20
134.3808481016941
 30
0.0
 40
3.000008
 50
284.790568000001
 51
345.2139560000001
  0
LINE
  5
36D
  8
4
 10
346.5575239794632
 20
94.03587610169399
 30
0.0
 11
350.4747599794632
 21
94.03587610169399
 31
0.0
  0
ARC
  5
36E
  8
4
 10
346.5575239794632
 20
92.03587610169399
 30
0.0
 40
2.000046
 50
90.0
 51
173.7702520000005
  0
LINE
  5
36F
  8
4
 10
351.4745159794631
 20
103.035876101694
 30
0.0
 11
350.4745159794631
 21
103.035876101694
 31
0.0
  0
LINE
  5
370
  8
4
 10
351.4747599794632
 20
103.035876101694
 30
0.0
 11
350.4747599794632
 21
103.035876101694
 31
0.0
  0
LINE
  5
372
  8
4
 10
351.4745159794631
 20
150.035876101694
 30
0.0
 11
351.4745159794631
 21
103.035876101694
 31
0.0
  0
ARC
  5
373
  8
4
 10
80.47483597946325
 20
202.535876101694
 30
0.0
 40
270.000016
 50
345.212361
 51
0.0
  0
LINE
  5
374
  8
4
 10
350.4747599794632
 20
94.03587610169399
 30
0.0
 11
350.4747599794632
 21
159.035876101694
 31
0.0
  0
LINE
  5
377
  8
4
 10
175.4747599794632
 20
117.5358761016941
 30
0.0
 11
141.4747599794632
 21
117.5358761016942
 31
0.0
  0
LINE
  5
378
  8
4
 10
175.4747599794632
 20
135.5358761016941
 30
0.0
 11
141.4747599794632
 21
135.5358761016942
 31
0.0
  0
LINE
  5
379
  8
4
 10
140.4747599794632
 20
137.5358761016942
 30
0.0
 11
172.4747599794632
 21
137.5358761016941
 31
0.0
  0
ARC
  5
37E
  8
4
 10
346.4747599794632
 20
75.53604410169402
 30
0.0
 40
1.0
 50
0.0
 51
90.0
  0
ARC
  5
37F
  8
4
 10
345.8749059794632
 20
79.53604410169402
 30
0.0
 40
3.000014
 50
172.9423519999993
 51
270.0
  0
LINE
  5
380
  8
4
 10
347.4747599794632
 20
56.53604410169402
 30
0.0
 11
347.4747599794632
 21
75.53604410169402
 31
0.0
  0
LINE
  5
382
  8
4
 10
319.9747599794632
 20
76.53604410169402
 30
0.0
 11
319.9747599794632
 21
56.53604410169402
 31
0.0
  0
LINE
  5
383
  8
4
 10
330.9747599794632
 20
76.53604410169402
 30
0.0
 11
330.9747599794632
 21
56.53604410169402
 31
0.0
  0
LINE
  5
384
  8
L-CENTER
 10
325.4747599794632
 20
81.53604410169402
 30
0.0
 11
325.4747599794632
 21
51.53604410169402
 31
0.0
  0
TEXT
  5
38D
  8
2
 62
     2
 10
401.1050512067757
 20
26.92524644741397
 30
0.0
 40
6.0
  1
LA2-01
  7
KANJI
 72
     1
 11
416.6050512067757
 21
26.92524644741397
 31
0.0
  0
ARC
  5
38E
  8
4
 10
-649.5235320205369
 20
202.785876101694
 30
0.0
 40
1000.00006
 50
352.9439589999998
 51
0.1002680000016312
  0
ARC
  5
38F
  8
4
 10
303.6156279794632
 20
182.188954101694
 30
0.0
 40
2.999964
 50
93.39657399999744
 51
172.3585359999996
  0
ARC
  5
390
  8
4
 10
295.3541539794633
 20
177.6567261016942
 30
0.0
 40
3.000056
 50
279.745163999999
 51
350.2594290000002
  0
ARC
  5
391
  8
4
 10
296.6292999794632
 20
176.381336101694
 30
0.0
 40
3.000022
 50
280.251891999999
 51
349.7527160000004
  0
ARC
  5
392
  8
4
 10
290.8219279794632
 20
169.395008101694
 30
0.0
 40
2.999964
 50
97.64146199999884
 51
176.6034080000001
  0
ARC
  5
393
  8
4
 10
270.4747599794632
 20
321.035876101694
 30
0.0
 40
149.999972
 50
270.0012119999999
 51
280.2496709999999
  0
ARC
  5
394
  8
4
 10
270.4747599794632
 20
322.5361201016941
 30
0.0
 40
150.000064
 50
270.001212
 51
279.745134
  0
ARC
  5
395
  8
4
 10
306.4747599794632
 20
122.928700101694
 30
0.0
 40
2.000004
 50
97.60387800000039
 51
180.0
  0
ARC
  5
396
  8
4
 10
297.4747599794632
 20
121.8791381016941
 30
0.0
 40
2.000054
 50
0.0
 51
95.695274999998
  0
LINE
  5
397
  8
4
 10
304.4747599794632
 20
122.928700101694
 30
0.0
 11
304.4747599794632
 21
81.53604410169402
 31
0.0
  0
ARC
  5
398
  8
4
 10
287.3312899794632
 20
124.3319261016941
 30
0.0
 40
2.0
 50
102.1637649999979
 51
172.5509689999999
  0
LINE
  5
399
  8
4
 10
281.2999559794632
 20
120.285876101694
 30
0.0
 11
281.2999559794632
 21
132.785876101694
 31
0.0
  0
LINE
  5
39A
  8
4
 10
270.4747599794632
 20
139.035876101694
 30
0.0
 11
259.6493199794634
 21
132.785876101694
 31
0.0
  0
LINE
  5
39B
  8
4
 10
259.6493199794634
 20
120.285876101694
 30
0.0
 11
270.4747599794632
 21
114.035876101694
 31
0.0
  0
LINE
  5
39C
  8
4
 10
259.6493199794634
 20
120.285876101694
 30
0.0
 11
259.6493199794634
 21
132.785876101694
 31
0.0
  0
LINE
  5
39D
  8
4
 10
281.2999559794632
 20
132.785876101694
 30
0.0
 11
270.4747599794632
 21
139.035876101694
 31
0.0
  0
LINE
  5
39E
  8
4
 10
270.4747599794632
 20
114.035876101694
 30
0.0
 11
281.2999559794632
 21
120.285876101694
 31
0.0
  0
CIRCLE
  5
39F
  8
4
 10
270.4747599794632
 20
126.535876101694
 30
0.0
 40
12.5
  0
LINE
  5
3A0
  8
2
 10
270.4747599794632
 20
83.13134410169397
 30
0.0
 11
267.3611399794634
 21
81.333694101694
 31
0.0
  0
LINE
  5
3A1
  8
2
 10
273.5883799794631
 20
81.333694101694
 30
0.0
 11
270.4747599794632
 21
83.13134410169397
 31
0.0
  0
ARC
  5
3A2
  8
4
 10
270.4747599794632
 20
126.535876101694
 30
0.0
 40
15.0
 50
187.4490310000001
 51
352.5509689999999
  0
ARC
  5
3A3
  8
4
 10
289.2181679794633
 20
142.3886601016941
 30
0.0
 40
2.999888
 50
176.6034270000002
 51
287.3097919999977
  0
LINE
  5
3A4
  8
4
 10
286.2235399794633
 20
142.5666381016941
 30
0.0
 11
287.8272979794631
 21
169.5727421016941
 31
0.0
  0
ARC
  5
3A5
  8
4
 10
237.3341339794631
 20
182.188954101694
 30
0.0
 40
2.999952
 50
7.641540999999807
 51
86.60136699999818
  0
ARC
  5
3A6
  8
4
 10
250.1278359794633
 20
169.395008101694
 30
0.0
 40
3.00001
 50
3.396489000000044
 51
82.35853800000163
  0
ARC
  5
3A7
  8
4
 10
245.5956099794632
 20
177.6567261016942
 30
0.0
 40
3.00004
 50
189.7453799999998
 51
260.2565489999976
  0
ARC
  5
3A8
  8
4
 10
244.3204619794631
 20
176.381336101694
 30
0.0
 40
2.999998
 50
190.2473390000001
 51
259.7518479999999
  0
ARC
  5
3A9
  8
4
 10
210.3277879794632
 20
183.792712101694
 30
0.0
 40
2.999958
 50
86.60138700000083
 51
197.3090130000006
  0
LINE
  5
3AA
  8
4
 10
210.5055219794633
 20
186.7873421016942
 30
0.0
 11
237.5118699794632
 21
185.1835821016942
 31
0.0
  0
ARC
  5
3AB
  8
4
 10
243.4750039794633
 20
121.8791381016941
 30
0.0
 40
2.000056
 50
84.30338500000131
 51
180.0
  0
ARC
  5
3AC
  8
4
 10
234.4750039794633
 20
122.928700101694
 30
0.0
 40
2.000008
 50
0.0
 51
82.39436200000533
  0
LINE
  5
3AD
  8
4
 10
236.4750039794633
 20
122.928700101694
 30
0.0
 11
236.4750039794633
 21
81.53604410169402
 31
0.0
  0
ARC
  5
3AE
  8
4
 10
202.3202179794632
 20
134.3808481016941
 30
0.0
 40
3.000014
 50
194.7906269999996
 51
255.2119990000022
  0
ARC
  5
3AF
  8
4
 10
194.6126419794632
 20
92.03587610169399
 30
0.0
 40
2.0
 50
6.345808000000548
 51
90.0
  0
LINE
  5
3B0
  8
4
 10
254.7262239794632
 20
142.5666381016941
 30
0.0
 11
253.1224639794632
 21
169.5727421016941
 31
0.0
  0
ARC
  5
3B1
  8
4
 10
251.7315959794632
 20
142.3886601016941
 30
0.0
 40
3.000048
 50
252.6918680000007
 51
3.396468999999846
  0
ARC
  5
3B2
  8
4
 10
270.4750039794633
 20
321.035876101694
 30
0.0
 40
149.999964
 50
259.751928
 51
270.001119
  0
ARC
  5
3B3
  8
4
 10
270.4750039794633
 20
322.5361201016941
 30
0.0
 40
150.000044
 50
260.256608
 51
270.001119
  0
ARC
  5
3B4
  8
4
 10
253.6182299794632
 20
124.3319261016941
 30
0.0
 40
2.0
 50
7.449031000000089
 51
77.83623500000216
  0
ARC
  5
3B5
  8
4
 10
270.4750039794633
 20
392.5358761016939
 30
0.0
 40
269.999994
 50
255.2117119999999
 51
266.909915
  0
ARC
  5
3B6
  8
4
 10
270.4747599794632
 20
126.535876101694
 30
0.0
 40
19.999932
 50
1.733417999999876
 51
178.267291
  0
POLYLINE
  5
3B7
  8
4
 66
     1
 10
0.0
 20
0.0
 30
0.0
  0
VERTEX
  5
48C
  8
4
 10
314.0690819794634
 20
76.53811210169403
 30
0.0
  0
VERTEX
  5
48D
  8
4
 10
313.7286379794632
 20
76.22060210169417
 30
0.0
  0
VERTEX
  5
48E
  8
4
 10
313.4389579794631
 20
75.89694210169415
 30
0.0
  0
VERTEX
  5
48F
  8
4
 10
313.2107759794633
 20
75.56583410169407
 30
0.0
  0
VERTEX
  5
490
  8
4
 10
313.0548199794632
 20
75.22597810169401
 30
0.0
  0
VERTEX
  5
491
  8
4
 10
312.9818219794631
 20
74.87607210169409
 30
0.0
  0
VERTEX
  5
492
  8
4
 10
313.0025079794632
 20
74.51482010169417
 30
0.0
  0
VERTEX
  5
493
  8
4
 10
313.0916859794631
 20
74.21305610169412
 30
0.0
  0
VERTEX
  5
494
  8
4
 10
313.2326559794631
 20
73.90465010169402
 30
0.0
  0
VERTEX
  5
495
  8
4
 10
313.4085599794632
 20
73.59127410169418
 30
0.0
  0
VERTEX
  5
496
  8
4
 10
313.9772619794633
 20
72.63807210169404
 30
0.0
  0
VERTEX
  5
497
  8
4
 10
314.1242859794631
 20
72.32155810169417
 30
0.0
  0
VERTEX
  5
498
  8
4
 10
314.2219379794631
 20
72.00844410169412
 30
0.0
  0
VERTEX
  5
499
  8
4
 10
314.2533559794631
 20
71.70040410169423
 30
0.0
  0
VERTEX
  5
49A
  8
4
 10
314.1904399794632
 20
71.34369210169399
 30
0.0
  0
VERTEX
  5
49B
  8
4
 10
314.0350519794631
 20
70.99429610169415
 30
0.0
  0
VERTEX
  5
49C
  8
4
 10
313.8112279794632
 20
70.65007210169398
 30
0.0
  0
VERTEX
  5
49D
  8
4
 10
312.9694819794634
 20
69.62699010169405
 30
0.0
  0
VERTEX
  5
49E
  8
4
 10
312.7122599794632
 20
69.28201210169419
 30
0.0
  0
VERTEX
  5
49F
  8
4
 10
312.5067759794631
 20
68.93148610169402
 30
0.0
  0
VERTEX
  5
4A0
  8
4
 10
312.3770659794632
 20
68.57326810169417
 30
0.0
  0
VERTEX
  5
4A1
  8
4
 10
312.3407019794633
 20
68.19643610169402
 30
0.0
  0
VERTEX
  5
4A2
  8
4
 10
312.3919079794632
 20
67.81087010169409
 30
0.0
  0
VERTEX
  5
4A3
  8
4
 10
312.5133439794633
 20
67.41818010169419
 30
0.0
  0
VERTEX
  5
4A4
  8
4
 10
313.1256599794631
 20
66.21341610169412
 30
0.0
  0
VERTEX
  5
4A5
  8
4
 10
313.7458859794631
 20
65.00235610169403
 30
0.0
  0
VERTEX
  5
4A6
  8
4
 10
313.8734739794631
 20
64.604766101694
 30
0.0
  0
VERTEX
  5
4A7
  8
4
 10
313.9325919794633
 20
64.21290410169405
 30
0.0
  0
VERTEX
  5
4A8
  8
4
 10
313.9058979794631
 20
63.828376101694
 30
0.0
  0
VERTEX
  5
4A9
  8
4
 10
313.6462299794632
 20
63.19176810169421
 30
0.0
  0
VERTEX
  5
4AA
  8
4
 10
313.1992079794632
 20
62.57391010169414
 30
0.0
  0
VERTEX
  5
4AB
  8
4
 10
312.6772699794633
 20
61.9675661016941
 30
0.0
  0
VERTEX
  5
4AC
  8
4
 10
312.1928599794633
 20
61.36550610169417
 30
0.0
  0
VERTEX
  5
4AD
  8
4
 10
311.8584199794632
 20
60.76049610169417
 30
0.0
  0
VERTEX
  5
4AE
  8
4
 10
311.7863899794631
 20
60.1453001016942
 30
0.0
  0
VERTEX
  5
4AF
  8
4
 10
311.9573079794632
 20
59.66248210169402
 30
0.0
  0
VERTEX
  5
4B0
  8
4
 10
312.2641319794632
 20
59.177080101694
 30
0.0
  0
VERTEX
  5
4B1
  8
4
 10
312.6210039794632
 20
58.69681810169419
 30
0.0
  0
VERTEX
  5
4B2
  8
4
 10
312.9420699794632
 20
58.2294161016942
 30
0.0
  0
VERTEX
  5
4B3
  8
4
 10
313.1414699794632
 20
57.78259610169408
 30
0.0
  0
VERTEX
  5
4B4
  8
4
 10
313.1658879794632
 20
57.44854010169416
 30
0.0
  0
VERTEX
  5
4B5
  8
4
 10
313.0746839794631
 20
57.13025410169422
 30
0.0
  0
VERTEX
  5
4B6
  8
4
 10
312.8815559794632
 20
56.82587010169419
 30
0.0
  0
VERTEX
  5
4B7
  8
4
 10
312.6001999794632
 20
56.53351810169403
 30
0.0
  0
SEQEND
  5
4BA
  8
4
  0
LINE
  5
3B8
  8
4
 10
305.4747599794632
 20
56.53604410169402
 30
0.0
 11
302.4747599794632
 21
64.53604410169402
 31
0.0
  0
LINE
  5
3B9
  8
2
 10
267.3611399794634
 20
77.73839410169404
 30
0.0
 11
270.4747599794632
 21
75.94074410169407
 31
0.0
  0
LINE
  5
3BA
  8
L-CENTER
 10
258.0503097000679
 20
79.53604410169402
 30
0.0
 11
282.8992102588585
 21
79.53604410169402
 31
0.0
  0
LINE
  5
3BB
  8
2
 10
270.4747599794632
 20
75.94074410169407
 30
0.0
 11
273.5883799794631
 21
77.73839410169404
 31
0.0
  0
ARC
  5
3BC
  8
4
 10
270.4747599794632
 20
79.53604410169402
 30
0.0
 40
10.0
 50
180.0006129993705
 51
0.0000860025989019
  0
LINE
  5
3BE
  8
4
 10
302.4747599794632
 20
64.53604410169402
 30
0.0
 11
270.4747599794632
 21
64.53604410169402
 31
0.0
  0
LINE
  5
3C1
  8
4
 10
235.4750039794633
 20
56.53604410169402
 30
0.0
 11
238.4750039794633
 21
64.53604410169402
 31
0.0
  0
LINE
  5
3C2
  8
L-CENTER
 10
215.4750039794633
 20
81.53604410169402
 30
0.0
 11
215.4750039794633
 21
51.53604410169402
 31
0.0
  0
ARC
  5
3C3
  8
4
 10
194.4750039794633
 20
75.53604410169402
 30
0.0
 40
1.0
 50
90.0
 51
180.000858999821
  0
ARC
  5
3C4
  8
4
 10
195.0748579794633
 20
79.53604410169402
 30
0.0
 40
3.0
 50
270.0011649999957
 51
7.058289000000078
  0
LINE
  5
3C5
  8
4
 10
193.4750039794633
 20
56.53604410169402
 30
0.0
 11
193.4750039794633
 21
75.53604410169402
 31
0.0
  0
LINE
  5
3C8
  8
4
 10
194.4750039794633
 20
76.53604410169402
 30
0.0
 11
231.4750039794633
 21
76.53604410169402
 31
0.0
  0
LINE
  5
3C9
  8
4
 10
193.4750039794633
 20
56.53604410169402
 30
0.0
 11
235.4750039794633
 21
56.53604410169402
 31
0.0
  0
LINE
  5
3CC
  8
4
 10
238.4750039794633
 20
64.53604410169402
 30
0.0
 11
270.4750039794633
 21
64.53604410169402
 31
0.0
  0
ARC
  5
3CD
  8
4
 10
309.4747599794632
 20
81.53604410169402
 30
0.0
 40
5.0
 50
180.0006989997668
 51
270.0
  0
LINE
  5
3CE
  8
2
 10
273.5883799794631
 20
77.73839410169404
 30
0.0
 11
273.5883799794631
 21
81.333694101694
 31
0.0
  0
LINE
  5
3CF
  8
2
 10
267.3611399794634
 20
81.333694101694
 30
0.0
 11
267.3611399794634
 21
77.73839410169404
 31
0.0
  0
CIRCLE
  5
3D0
  8
4
 10
270.4747599794632
 20
79.53604410169402
 30
0.0
 40
7.5
  0
CIRCLE
  5
3D1
  8
4
 10
270.4747599794632
 20
79.53604410169402
 30
0.0
 40
5.75
  0
CIRCLE
  5
3D2
  8
2
 10
270.4747599794632
 20
79.53604410169402
 30
0.0
 40
4.75
  0
ARC
  5
3D3
  8
4
 10
231.4750039794633
 20
81.53604410169402
 30
0.0
 40
5.0
 50
270.0010539999993
 51
0.0
  0
LINE
  5
3D4
  8
4
 10
280.4747599794632
 20
115.3557001016941
 30
0.0
 11
280.4747599794632
 21
79.53604410169402
 31
0.0
  0
LINE
  5
3D5
  8
4
 10
260.4750039794633
 20
115.3557001016941
 30
0.0
 11
260.4750039794633
 21
79.53604410169402
 31
0.0
  0
LINE
  5
3D6
  8
4
 10
241.4750039794633
 20
121.8791381016941
 30
0.0
 11
241.4750039794633
 21
64.53604410169402
 31
0.0
  0
LINE
  5
3D7
  8
4
 10
299.4747599794632
 20
121.8791381016941
 30
0.0
 11
299.4747599794632
 21
64.53604410169402
 31
0.0
  0
LINE
  5
3D8
  8
4
 10
330.4442419794632
 20
186.7873421016942
 30
0.0
 11
303.4378939794631
 21
185.1835821016942
 31
0.0
  0
ARC
  5
3D9
  8
4
 10
270.4747599794632
 20
392.5358761016939
 30
0.0
 40
269.99996
 50
273.092018
 51
284.7900609999999
  0
LINE
  5
3DA
  8
4
 10
347.4747599794632
 20
56.53604410169402
 30
0.0
 11
305.4747599794632
 21
56.53604410169402
 31
0.0
  0
LINE
  5
3DB
  8
4
 10
346.4747599794632
 20
76.53604410169402
 30
0.0
 11
309.4747599794632
 21
76.53604410169402
 31
0.0
  0
LINE
  5
3E3
  8
4
 10
701.5315311317096
 20
217.535876101694
 30
0.0
 11
694.5315311317096
 21
217.535876101694
 31
0.0
  0
LINE
  5
3E4
  8
4
 10
701.5315311317096
 20
210.535876101694
 30
0.0
 11
694.5315311317096
 21
210.535876101694
 31
0.0
  0
LINE
  5
3E5
  8
4
 10
701.5315311317096
 20
217.535876101694
 30
0.0
 11
701.5315311317096
 21
210.535876101694
 31
0.0
  0
LINE
  5
3E6
  8
4
 10
694.5315311317096
 20
210.535876101694
 30
0.0
 11
694.5315311317096
 21
217.535876101694
 31
0.0
  0
LINE
  5
3E9
  8
L-CENTER
 10
698.0315311317096
 20
184.7651241016939
 30
0.0
 11
698.0315311317096
 21
220.3066281016941
 31
0.0
  0
ARC
  5
3EC
  8
4
 10
698.0315311317096
 20
202.535876101694
 30
0.0
 40
12.0
 50
106.9577633000041
 51
73.04223799999984
  0
LINE
  5
3ED
  8
L-CENTER
 10
715.8022831317097
 20
202.535876101694
 30
0.0
 11
680.2607791317095
 21
202.535876101694
 31
0.0
  0
LINE
  5
3FE
  8
4
 10
190.4750039794633
 20
159.035876101694
 30
0.0
 11
190.4750039794633
 21
159.035876101694
 31
0.0
  0
LINE
  5
3FF
  8
4
 10
189.4750039794633
 20
150.035876101694
 30
0.0
 11
190.4750039794633
 21
150.035876101694
 31
0.0
  0
LINE
  5
400
  8
4
 10
189.4747599794632
 20
150.035876101694
 30
0.0
 11
190.4747599794632
 21
150.035876101694
 31
0.0
  0
LINE
  5
401
  8
4
 10
189.4750039794633
 20
103.035876101694
 30
0.0
 11
190.4750039794633
 21
103.035876101694
 31
0.0
  0
LINE
  5
402
  8
4
 10
189.4747599794632
 20
103.035876101694
 30
0.0
 11
190.4747599794632
 21
103.035876101694
 31
0.0
  0
LINE
  5
403
  8
4
 10
189.4750039794633
 20
150.035876101694
 30
0.0
 11
189.4750039794633
 21
103.035876101694
 31
0.0
  0
LINE
  5
404
  8
4
 10
189.4747599794632
 20
150.035876101694
 30
0.0
 11
189.4747599794632
 21
103.035876101694
 31
0.0
  0
LINE
  5
405
  8
4
 10
190.4750039794633
 20
94.03587610169399
 30
0.0
 11
190.4750039794633
 21
159.035876101694
 31
0.0
  0
LINE
  5
40B
  8
4
 10
106.4890646545596
 20
137.5358761016942
 30
0.0
 11
101.4890646545596
 21
137.5358761016942
 31
0.0
  0
LINE
  5
40D
  8
4
 10
106.4890646545596
 20
132.5358761016942
 30
0.0
 11
101.4890646545596
 21
132.5358761016942
 31
0.0
  0
LINE
  5
40F
  8
4
 10
101.4890646545596
 20
132.5358761016942
 30
0.0
 11
101.4890646545596
 21
137.5358761016942
 31
0.0
  0
LINE
  5
410
  8
4
 10
106.4890646545596
 20
137.5358761016942
 30
0.0
 11
106.4890646545596
 21
132.5358761016942
 31
0.0
  0
LINE
  5
413
  8
L-CENTER
 10
103.9890646545596
 20
139.5627321016941
 30
0.0
 11
103.9890646545596
 21
113.5090201016942
 31
0.0
  0
LINE
  5
41D
  8
L-CENTER
 10
117.0159206545595
 20
126.5358761016942
 30
0.0
 11
90.96220865455962
 21
126.5358761016942
 31
0.0
  0
ARC
  5
41E
  8
4
 10
103.9890646545596
 20
126.5358761016942
 30
0.0
 40
9.000002
 50
106.1276165314944
 51
73.87238799999994
  0
ARC
  5
427
  8
4
 10
190.4750039794633
 20
161.035876101694
 30
0.0
 40
2.0
 50
270.0
 51
298.2098539999964
  0
ARC
  5
428
  8
4
 10
460.4747599794632
 20
202.535876101694
 30
0.0
 40
270.000014
 50
180.0006219997374
 51
194.789144
  0
LINE
  5
429
  8
L-CENTER
 10
355.2306119794632
 20
202.535876101694
 30
0.0
 11
185.7189079794632
 21
202.535876101694
 31
0.0
  0
LINE
  5
42A
  8
L-CENTER
 10
137.3696815703563
 20
126.5358761016942
 30
0.0
 11
354.0867418340157
 21
126.535876101694
 31
0.0
  0
LINE
  5
42B
  8
4
 10
194.6126419794632
 20
94.03587610169399
 30
0.0
 11
190.4750039794633
 21
94.03587610169399
 31
0.0
  0
ARC
  5
42C
  8
4
 10
1190.473295979464
 20
202.785876101694
 30
0.0
 40
1000.000002
 50
179.9010050000156
 51
187.060472
  0
ARC
  5
42E
  8
4
 10
80.47483597946325
 20
202.535876101694
 30
0.0
 40
270.0
 50
0.0
 51
14.78903400000002
  0
ARC
  5
42F
  8
4
 10
151.9748359794633
 20
202.535876101694
 30
0.0
 40
149.99997
 50
349.7526089999999
 51
10.24872599999999
  0
ARC
  5
430
  8
4
 10
150.4748199794633
 20
202.535876101694
 30
0.0
 40
150.000006
 50
350.257407
 51
9.744094999999994
  0
ARC
  5
431
  8
4
 10
390.4750039794633
 20
202.535876101694
 30
0.0
 40
149.999998
 50
170.25675
 51
189.743819
  0
ARC
  5
432
  8
4
 10
388.9750039794633
 20
202.535876101694
 30
0.0
 40
149.999986
 50
169.752038
 51
190.24872
  0
ARC
  5
433
  8
4
 10
270.4747599794632
 20
202.535876101694
 30
0.0
 40
78.000004
 50
282.1637650000001
 51
257.8362349999999
  0
ARC
  5
434
  8
4
 10
270.4747599794632
 20
202.535876101694
 30
0.0
 40
65.999998
 50
284.048477
 51
255.9533859999999
  0
ARC
  5
436
  8
4
 10
460.4747599794632
 20
202.535876101694
 30
0.0
 40
270.000014
 50
165.211821
 51
180.0006219997374
  0
LINE
  5
437
  8
L-CENTER
 10
270.4747599794632
 20
294.2191606917514
 30
0.0
 11
270.4747599794632
 21
60.77098376918696
 31
0.0
  0
ENDSEC
  0
EOF
