  0
SECTION
  2
HEADER
  9
$ACADVER
  1
AC1015
  9
$ACADMAINTVER
 70
     6
  9
$DWGCODEPAGE
  3
ANSI_932
  9
$INSBASE
 10
721.3290829257526
 20
259.3008357987284
 30
0.0
  9
$EXTMIN
 10
50.92842620973471
 20
12.05363872499728
 30
0.0
  9
$EXTMAX
 10
510.3155496768998
 20
466.0317655045781
 30
0.0
  9
$LIMMIN
 10
0.0
 20
0.0
  9
$LIMMAX
 10
816.5000000000001
 20
565.0
  9
$ORTHOMODE
 70
     1
  9
$REGENMODE
 70
     1
  9
$FILLMODE
 70
     1
  9
$QTEXTMODE
 70
     0
  9
$MIRRTEXT
 70
     1
  9
$LTSCALE
 40
5.0
  9
$ATTMODE
 70
     1
  9
$TEXTSIZE
 40
4.5
  9
$TRACEWID
 40
0.05
  9
$TEXTSTYLE
  7
KANJI
  9
$CLAYER
  8
2
  9
$CELTYPE
  6
BYLAYER
  9
$CECOLOR
 62
   256
  9
$CELTSCALE
 40
1.0
  9
$DISPSILH
 70
     0
  9
$DIMSCALE
 40
1.5
  9
$DIMASZ
 40
2.0
  9
$DIMEXO
 40
0.5
  9
$DIMDLI
 40
0.0
  9
$DIMRND
 40
0.0
  9
$DIMDLE
 40
0.0
  9
$DIMEXE
 40
1.0
  9
$DIMTP
 40
0.0
  9
$DIMTM
 40
0.0
  9
$DIMTXT
 40
3.0
  9
$DIMCEN
 40
0.09
  9
$DIMTSZ
 40
0.0
  9
$DIMTOL
 70
     0
  9
$DIMLIM
 70
     0
  9
$DIMTIH
 70
     0
  9
$DIMTOH
 70
     0
  9
$DIMSE1
 70
     0
  9
$DIMSE2
 70
     0
  9
$DIMTAD
 70
     0
  9
$DIMZIN
 70
     8
  9
$DIMBLK
  1

  9
$DIMASO
 70
     0
  9
$DIMSHO
 70
     0
  9
$DIMPOST
  1

  9
$DIMAPOST
  1

  9
$DIMALT
 70
     0
  9
$DIMALTD
 70
     2
  9
$DIMALTF
 40
25.4
  9
$DIMLFAC
 40
1.0
  9
$DIMTOFL
 70
     1
  9
$DIMTVP
 40
1.0
  9
$DIMTIX
 70
     1
  9
$DIMSOXD
 70
     1
  9
$DIMSAH
 70
     0
  9
$DIMBLK1
  1

  9
$DIMBLK2
  1

  9
$DIMSTYLE
  2
STANDARD
  9
$DIMCLRD
 70
   256
  9
$DIMCLRE
 70
   256
  9
$DIMCLRT
 70
   256
  9
$DIMTFAC
 40
1.0
  9
$DIMGAP
 40
0.09
  9
$DIMJUST
 70
     0
  9
$DIMSD1
 70
     0
  9
$DIMSD2
 70
     0
  9
$DIMTOLJ
 70
     1
  9
$DIMTZIN
 70
     0
  9
$DIMALTZ
 70
     0
  9
$DIMALTTZ
 70
     0
  9
$DIMUPT
 70
     0
  9
$DIMDEC
 70
     1
  9
$DIMTDEC
 70
     4
  9
$DIMALTU
 70
     2
  9
$DIMALTTD
 70
     2
  9
$DIMTXSTY
  7
STANDARD
  9
$DIMAUNIT
 70
     0
  9
$DIMADEC
 70
     0
  9
$DIMALTRND
 40
0.0
  9
$DIMAZIN
 70
     0
  9
$DIMDSEP
 70
    46
  9
$DIMATFIT
 70
     3
  9
$DIMFRAC
 70
     0
  9
$DIMLDRBLK
  1

  9
$DIMLUNIT
 70
     2
  9
$DIMLWD
 70
    -2
  9
$DIMLWE
 70
    -2
  9
$DIMTMOVE
 70
     0
  9
$LUNITS
 70
     2
  9
$LUPREC
 70
     3
  9
$SKETCHINC
 40
0.1
  9
$FILLETRAD
 40
1.0
  9
$AUNITS
 70
     0
  9
$AUPREC
 70
     3
  9
$MENU
  1
C:\R13\WIN\SUPPORT\ACADFULL
  9
$ELEVATION
 40
0.0
  9
$PELEVATION
 40
0.0
  9
$THICKNESS
 40
0.0
  9
$LIMCHECK
 70
     0
  9
$CHAMFERA
 40
0.0
  9
$CHAMFERB
 40
0.0
  9
$CHAMFERC
 40
0.0
  9
$CHAMFERD
 40
0.0
  9
$SKPOLY
 70
     0
  9
$TDCREATE
 40
2449813.131805555
  9
$TDUCREATE
 40
2449812.756805555
  9
$TDUPDATE
 40
2457870.584580799
  9
$TDUUPDATE
 40
2457870.209580799
  9
$TDINDWG
 40
1.2000080093
  9
$TDUSRTIMER
 40
1.2000077199
  9
$USRTIMER
 70
     1
  9
$ANGBASE
 50
0.0
  9
$ANGDIR
 70
     0
  9
$PDMODE
 70
     0
  9
$PDSIZE
 40
0.0
  9
$PLINEWID
 40
0.0
  9
$SPLFRAME
 70
     0
  9
$SPLINETYPE
 70
     6
  9
$SPLINESEGS
 70
     8
  9
$HANDSEED
  5
53B
  9
$SURFTAB1
 70
     6
  9
$SURFTAB2
 70
     6
  9
$SURFTYPE
 70
     6
  9
$SURFU
 70
     6
  9
$SURFV
 70
     6
  9
$UCSBASE
  2

  9
$UCSNAME
  2

  9
$UCSORG
 10
0.0
 20
0.0
 30
0.0
  9
$UCSXDIR
 10
1.0
 20
0.0
 30
0.0
  9
$UCSYDIR
 10
0.0
 20
1.0
 30
0.0
  9
$UCSORTHOREF
  2

  9
$UCSORTHOVIEW
 70
     0
  9
$UCSORGTOP
 10
0.0
 20
0.0
 30
0.0
  9
$UCSORGBOTTOM
 10
0.0
 20
0.0
 30
0.0
  9
$UCSORGLEFT
 10
0.0
 20
0.0
 30
0.0
  9
$UCSORGRIGHT
 10
0.0
 20
0.0
 30
0.0
  9
$UCSORGFRONT
 10
0.0
 20
0.0
 30
0.0
  9
$UCSORGBACK
 10
0.0
 20
0.0
 30
0.0
  9
$PUCSBASE
  2

  9
$PUCSNAME
  2

  9
$PUCSORG
 10
0.0
 20
0.0
 30
0.0
  9
$PUCSXDIR
 10
1.0
 20
0.0
 30
0.0
  9
$PUCSYDIR
 10
0.0
 20
1.0
 30
0.0
  9
$PUCSORTHOREF
  2

  9
$PUCSORTHOVIEW
 70
     0
  9
$PUCSORGTOP
 10
0.0
 20
0.0
 30
0.0
  9
$PUCSORGBOTTOM
 10
0.0
 20
0.0
 30
0.0
  9
$PUCSORGLEFT
 10
0.0
 20
0.0
 30
0.0
  9
$PUCSORGRIGHT
 10
0.0
 20
0.0
 30
0.0
  9
$PUCSORGFRONT
 10
0.0
 20
0.0
 30
0.0
  9
$PUCSORGBACK
 10
0.0
 20
0.0
 30
0.0
  9
$USERI1
 70
     0
  9
$USERI2
 70
     0
  9
$USERI3
 70
     0
  9
$USERI4
 70
     0
  9
$USERI5
 70
     0
  9
$USERR1
 40
0.0
  9
$USERR2
 40
0.0
  9
$USERR3
 40
0.0
  9
$USERR4
 40
2448925.372986111
  9
$USERR5
 40
0.04166667
  9
$WORLDVIEW
 70
     1
  9
$SHADEDGE
 70
     3
  9
$SHADEDIF
 70
    70
  9
$TILEMODE
 70
     1
  9
$MAXACTVP
 70
    16
  9
$PINSBASE
 10
0.0
 20
0.0
 30
0.0
  9
$PLIMCHECK
 70
     0
  9
$PEXTMIN
 10
1.000000000000000E+20
 20
1.000000000000000E+20
 30
1.000000000000000E+20
  9
$PEXTMAX
 10
-1.000000000000000E+20
 20
-1.000000000000000E+20
 30
-1.000000000000000E+20
  9
$PLIMMIN
 10
0.0
 20
0.0
  9
$PLIMMAX
 10
12.0
 20
9.0
  9
$UNITMODE
 70
     0
  9
$VISRETAIN
 70
     0
  9
$PLINEGEN
 70
     0
  9
$PSLTSCALE
 70
     0
  9
$TREEDEPTH
 70
  3020
  9
$CMLSTYLE
  2
STANDARD
  9
$CMLJUST
 70
     0
  9
$CMLSCALE
 40
1.0
  9
$PROXYGRAPHICS
 70
     1
  9
$MEASUREMENT
 70
     0
  9
$CELWEIGHT
370
    -1
  9
$ENDCAPS
280
     0
  9
$JOINSTYLE
280
     0
  9
$LWDISPLAY
290
     0
  9
$INSUNITS
 70
     0
  9
$HYPERLINKBASE
  1

  9
$STYLESHEET
  1

  9
$XEDIT
290
     1
  9
$CEPSNTYPE
380
     0
  9
$PSTYLEMODE
290
     1
  9
$FINGERPRINTGUID
  2
{B778E024-A8CB-4CF0-9C2A-C3BE3608A93B}
  9
$VERSIONGUID
  2
{869A1446-9F53-4657-BAB2-C0E0DC1609CA}
  9
$EXTNAMES
290
     1
  9
$PSVPSCALE
 40
0.0
  9
$OLESTARTUP
290
     0
  0
ENDSEC
  0
SECTION
  2
CLASSES
  0
CLASS
  1
ACDBDICTIONARYWDFLT
  2
AcDbDictionaryWithDefault
  3
ObjectDBX Classes
 90
        0
280
     0
281
     0
  0
CLASS
  1
MATERIAL
  2
AcDbMaterial
  3
ObjectDBX Classes
 90
     1153
280
     0
281
     0
  0
CLASS
  1
SORTENTSTABLE
  2
AcDbSortentsTable
  3
ObjectDBX Classes
 90
        0
280
     0
281
     0
  0
CLASS
  1
SCALE
  2
AcDbScale
  3
ObjectDBX Classes
 90
     1153
280
     0
281
     0
  0
CLASS
  1
DICTIONARYVAR
  2
AcDbDictionaryVar
  3
ObjectDBX Classes
 90
        0
280
     0
281
     0
  0
CLASS
  1
VISUALSTYLE
  2
AcDbVisualStyle
  3
ObjectDBX Classes
 90
     4095
280
     0
281
     0
  0
CLASS
  1
MLEADERSTYLE
  2
AcDbMLeaderStyle
  3
ACDB_MLEADERSTYLE_CLASS
 90
     4095
280
     0
281
     0
  0
CLASS
  1
TABLESTYLE
  2
AcDbTableStyle
  3
ObjectDBX Classes
 90
     4095
280
     0
281
     0
  0
CLASS
  1
ACDBPLACEHOLDER
  2
AcDbPlaceHolder
  3
ObjectDBX Classes
 90
        0
280
     0
281
     0
  0
CLASS
  1
LAYOUT
  2
AcDbLayout
  3
ObjectDBX Classes
 90
        0
280
     0
281
     0
  0
ENDSEC
  0
SECTION
  2
TABLES
  0
TABLE
  2
VPORT
  5
27
102
{ACAD_XDICTIONARY
360
500
102
}
330
0
100
AcDbSymbolTable
 70
     2
  0
VPORT
  5
2E
330
27
100
AcDbSymbolTableRecord
100
AcDbViewportTableRecord
  2
*Active
 70
     0
 10
0.0
 20
0.0
 11
1.0
 21
1.0
 12
365.5402099395878
 22
233.6728192813524
 13
0.0
 23
0.0
 14
1.0
 24
1.0
 15
50.0
 25
50.0
 16
0.0
 26
0.0
 36
1.0
 17
0.0
 27
0.0
 37
0.0
 40
506.2366205121161
 41
2.171641791044777
 42
50.0
 43
0.0
 44
0.0
 50
0.0
 51
0.0
 71
     0
 72
  5000
 73
     1
 74
     0
 75
     0
 76
     0
 77
     0
 78
     0
281
     0
 65
     1
110
0.0
120
0.0
130
0.0
111
1.0
121
0.0
131
0.0
112
0.0
122
1.0
132
0.0
 79
     0
146
0.0
  0
ENDTAB
  0
TABLE
  2
LTYPE
  5
B
330
0
100
AcDbSymbolTable
 70
     2
  0
LTYPE
  5
C
330
B
100
AcDbSymbolTableRecord
100
AcDbLinetypeTableRecord
  2
BYBLOCK
 70
     0
  3

 72
    65
 73
     0
 40
0.0
  0
LTYPE
  5
D
330
B
100
AcDbSymbolTableRecord
100
AcDbLinetypeTableRecord
  2
BYLAYER
 70
     0
  3

 72
    65
 73
     0
 40
0.0
  0
LTYPE
  5
A
330
B
100
AcDbSymbolTableRecord
100
AcDbLinetypeTableRecord
  2
CONTINUOUS
 70
     0
  3
Solid line
 72
    65
 73
     0
 40
0.0
  0
LTYPE
  5
80
330
B
100
AcDbSymbolTableRecord
100
AcDbLinetypeTableRecord
  2
CENTER
 70
     0
  3
____ _ ____ _ ____ _ ____ _ ____ _ ____ _ ____
 72
    65
 73
     4
 40
2.0
 49
1.25
 74
     0
 49
-0.25
 74
     0
 49
0.25
 74
     0
 49
-0.25
 74
     0
  0
ENDTAB
  0
TABLE
  2
LAYER
  5
2
330
0
100
AcDbSymbolTable
 70
     8
  0
LAYER
  5
1B
102
{ACAD_XDICTIONARY
360
1C
102
}
330
2
100
AcDbSymbolTableRecord
100
AcDbLayerTableRecord
  2
0
 70
     0
 62
     7
  6
CONTINUOUS
370
    -3
390
5
  0
LAYER
  5
300
102
{ACAD_XDICTIONARY
360
301
102
}
330
2
100
AcDbSymbolTableRecord
100
AcDbLayerTableRecord
  2
1
 70
     0
 62
     9
  6
CONTINUOUS
370
    -3
390
5
  0
LAYER
  5
1
102
{ACAD_XDICTIONARY
360
3
102
}
330
2
100
AcDbSymbolTableRecord
100
AcDbLayerTableRecord
  2
2
 70
     0
 62
     4
  6
CONTINUOUS
370
    -3
390
5
  0
LAYER
  5
75
102
{ACAD_XDICTIONARY
360
76
102
}
330
2
100
AcDbSymbolTableRecord
100
AcDbLayerTableRecord
  2
4
 70
     0
 62
     3
  6
CONTINUOUS
370
    -3
390
5
  0
LAYER
  5
7D
102
{ACAD_XDICTIONARY
360
7E
102
}
330
2
100
AcDbSymbolTableRecord
100
AcDbLayerTableRecord
  2
L-CENTER
 70
     0
 62
     1
  6
CENTER
370
    -3
390
5
  0
LAYER
  5
A7
330
2
100
AcDbSymbolTableRecord
100
AcDbLayerTableRecord
  2
3
 70
     0
 62
     2
  6
CONTINUOUS
370
    -3
390
5
  0
LAYER
  5
2FA
330
2
100
AcDbSymbolTableRecord
100
AcDbLayerTableRecord
  2
5
 70
     0
 62
     6
  6
CONTINUOUS
370
    -3
390
5
  0
LAYER
  5
47F
330
2
100
AcDbSymbolTableRecord
100
AcDbLayerTableRecord
  2
Defpoints
 70
     0
 62
     7
  6
CONTINUOUS
290
     0
370
    -3
390
5
  0
ENDTAB
  0
TABLE
  2
STYLE
  5
F
330
0
100
AcDbSymbolTable
 70
     2
  0
STYLE
  5
13
330
F
100
AcDbSymbolTableRecord
100
AcDbTextStyleTableRecord
  2
STANDARD
 70
     0
 40
0.0
 41
1.0
 50
0.0
 71
     0
 42
2.7
  3
TXT
  4

  0
STYLE
  5
E
330
F
100
AcDbSymbolTableRecord
100
AcDbTextStyleTableRecord
  2
KANJI
 70
     0
 40
0.0
 41
1.0
 50
0.0
 71
     0
 42
4.5
  3
TXT
  4
BIGFONT
  0
ENDTAB
  0
TABLE
  2
VIEW
  5
25
330
0
100
AcDbSymbolTable
 70
     0
  0
ENDTAB
  0
TABLE
  2
UCS
  5
26
330
0
100
AcDbSymbolTable
 70
     0
  0
ENDTAB
  0
TABLE
  2
APPID
  5
28
330
0
100
AcDbSymbolTable
 70
     3
  0
APPID
  5
2D
330
28
100
AcDbSymbolTableRecord
100
AcDbRegAppTableRecord
  2
ACAD
 70
     0
  0
APPID
  5
450
330
28
100
AcDbSymbolTableRecord
100
AcDbRegAppTableRecord
  2
ACAD_MLEADERVER
 70
     0
  0
APPID
  5
451
330
28
100
AcDbSymbolTableRecord
100
AcDbRegAppTableRecord
  2
ACAD_PSEXT
 70
     0
  0
ENDTAB
  0
TABLE
  2
DIMSTYLE
  5
12
330
0
100
AcDbSymbolTable
 70
     1
100
AcDbDimStyleTable
  0
DIMSTYLE
105
11
330
12
100
AcDbSymbolTableRecord
100
AcDbDimStyleTableRecord
  2
STANDARD
 70
     0
178
     0
340
13
  0
ENDTAB
  0
TABLE
  2
BLOCK_RECORD
  5
16
330
0
100
AcDbSymbolTable
 70
     0
  0
BLOCK_RECORD
  5
17
102
{ACAD_XDICTIONARY
360
18
102
}
330
16
100
AcDbSymbolTableRecord
100
AcDbBlockTableRecord
  2
*MODEL_SPACE
340
1F
  0
BLOCK_RECORD
  5
21
330
16
100
AcDbSymbolTableRecord
100
AcDbBlockTableRecord
  2
*PAPER_SPACE
340
24
  0
ENDTAB
  0
ENDSEC
  0
SECTION
  2
BLOCKS
  0
BLOCK
  5
1A
330
17
100
AcDbEntity
  8
0
100
AcDbBlockBegin
  2
*MODEL_SPACE
 70
     0
 10
0.0
 20
0.0
 30
0.0
  3
*MODEL_SPACE
  1

  0
ENDBLK
  5
1E
330
17
100
AcDbEntity
  8
0
100
AcDbBlockEnd
  0
BLOCK
  5
22
330
21
100
AcDbEntity
 67
     1
  8
0
100
AcDbBlockBegin
  2
*PAPER_SPACE
 70
     0
 10
0.0
 20
0.0
 30
0.0
  3
*PAPER_SPACE
  1

  0
ENDBLK
  5
23
330
21
100
AcDbEntity
 67
     1
  8
0
100
AcDbBlockEnd
  0
ENDSEC
  0
SECTION
  2
ENTITIES
  0
LINE
  5
74
330
17
100
AcDbEntity
  8
4
100
AcDbLine
 10
141.0838968235589
 20
461.5794375005856
 30
0.0
 11
141.0784903343662
 21
461.5632180330072
 31
0.0
  0
LINE
  5
78
330
17
100
AcDbEntity
  8
4
100
AcDbLine
 10
136.061820901803
 20
455.263163734569
 30
0.0
 11
136.0617527135677
 21
461.5631637341999
 31
0.0
  0
LINE
  5
79
330
17
100
AcDbEntity
  8
4
100
AcDbLine
 10
144.5618209013051
 20
455.2632557345692
 30
0.0
 11
144.5617527130698
 21
461.5632557342001
 31
0.0
  0
LINE
  5
7A
330
17
100
AcDbEntity
  8
4
100
AcDbLine
 10
144.5617527130698
 20
461.5632557342001
 30
0.0
 11
136.0617527135677
 21
461.5631637342001
 31
0.0
  0
LINE
  5
7B
330
17
100
AcDbEntity
  8
4
100
AcDbLine
 10
144.5618068307169
 20
456.563255734493
 30
0.0
 11
136.0618068312148
 21
456.563163734493
 31
0.0
  0
LINE
  5
7C
330
17
100
AcDbEntity
  8
L-CENTER
 48
1.5
100
AcDbLine
 10
140.311820901554
 20
462.8703914171982
 30
0.0
 11
140.3118209015539
 21
435.9438352216123
 31
0.0
  0
LINE
  5
81
330
17
100
AcDbEntity
  8
L-CENTER
 48
1.5
100
AcDbLine
 10
112.3118209015539
 20
462.8703914171982
 30
0.0
 11
112.3118209015538
 21
435.9438352216123
 31
0.0
  0
LINE
  5
82
330
17
100
AcDbEntity
  8
4
100
AcDbLine
 10
116.5618068307168
 20
456.5632557344932
 30
0.0
 11
108.0618068312147
 21
456.563163734493
 31
0.0
  0
LINE
  5
83
330
17
100
AcDbEntity
  8
4
100
AcDbLine
 10
116.5617527130697
 20
461.5632557342001
 30
0.0
 11
108.0617527135676
 21
461.5631637342001
 31
0.0
  0
LINE
  5
84
330
17
100
AcDbEntity
  8
4
100
AcDbLine
 10
116.5618209013049
 20
455.2632557345692
 30
0.0
 11
116.5617527130697
 21
461.5632557342001
 31
0.0
  0
LINE
  5
85
330
17
100
AcDbEntity
  8
4
100
AcDbLine
 10
108.0618209018029
 20
455.2631637345692
 30
0.0
 11
108.0617527135676
 21
461.5631637342001
 31
0.0
  0
LINE
  5
86
330
17
100
AcDbEntity
  8
L-CENTER
 48
1.5
100
AcDbLine
 10
196.3118209015528
 20
462.8703914171979
 30
0.0
 11
196.3118209015528
 21
435.9438352216121
 31
0.0
  0
LINE
  5
87
330
17
100
AcDbEntity
  8
4
100
AcDbLine
 10
192.0618349723899
 20
456.563255734493
 30
0.0
 11
200.561834971892
 21
456.5631637344928
 31
0.0
  0
LINE
  5
88
330
17
100
AcDbEntity
  8
4
100
AcDbLine
 10
192.061889090037
 20
461.5632557341999
 30
0.0
 11
200.5618890895391
 21
461.5631637341999
 31
0.0
  0
LINE
  5
89
330
17
100
AcDbEntity
  8
4
100
AcDbLine
 10
192.0618209018018
 20
455.263255734569
 30
0.0
 11
192.061889090037
 21
461.5632557341999
 31
0.0
  0
LINE
  5
8A
330
17
100
AcDbEntity
  8
4
100
AcDbLine
 10
200.5618209013038
 20
455.263163734569
 30
0.0
 11
200.5618890895391
 21
461.5631637341999
 31
0.0
  0
LINE
  5
8B
330
17
100
AcDbEntity
  8
4
100
AcDbLine
 10
228.5618209013039
 20
455.263163734569
 30
0.0
 11
228.5618890895392
 21
461.5631637341999
 31
0.0
  0
LINE
  5
8C
330
17
100
AcDbEntity
  8
4
100
AcDbLine
 10
220.0618209018019
 20
455.263255734569
 30
0.0
 11
220.0618890900371
 21
461.5632557341999
 31
0.0
  0
LINE
  5
8D
330
17
100
AcDbEntity
  8
4
100
AcDbLine
 10
220.0618890900371
 20
461.5632557341999
 30
0.0
 11
228.5618890895392
 21
461.5631637341999
 31
0.0
  0
LINE
  5
8E
330
17
100
AcDbEntity
  8
4
100
AcDbLine
 10
220.06183497239
 20
456.563255734493
 30
0.0
 11
228.5618349718922
 21
456.5631637344928
 31
0.0
  0
LINE
  5
8F
330
17
100
AcDbEntity
  8
L-CENTER
 48
1.5
100
AcDbLine
 10
481.5832468265203
 20
97.88392524982368
 30
0.0
 11
508.7592449918041
 21
97.88363110960813
 31
0.0
  0
LINE
  5
90
330
17
100
AcDbEntity
  8
4
100
AcDbLine
 10
501.4470138253569
 20
102.1337102540062
 30
0.0
 11
501.4469218253566
 21
93.63371025450414
 31
0.0
  0
LINE
  5
91
330
17
100
AcDbEntity
  8
4
100
AcDbLine
 10
506.4470138250638
 20
102.1336561363591
 30
0.0
 11
506.4469218250638
 21
93.63365613685704
 31
0.0
  0
LINE
  5
92
330
17
100
AcDbEntity
  8
4
100
AcDbLine
 10
500.1469218254329
 20
93.63372432509237
 30
0.0
 11
506.4469218250638
 21
93.63365613685704
 31
0.0
  0
LINE
  5
93
330
17
100
AcDbEntity
  8
4
100
AcDbLine
 10
500.1470138254329
 20
102.1337243245945
 30
0.0
 11
506.4470138250638
 21
102.1336561363591
 31
0.0
  0
LINE
  5
94
330
17
100
AcDbEntity
  8
2
100
AcDbLine
 10
500.1469678254327
 20
97.8837243248434
 30
0.0
 11
501.4469537547686
 21
96.58371025433127
 31
0.0
  0
LINE
  5
95
330
17
100
AcDbEntity
  8
2
100
AcDbLine
 10
500.1469877242496
 20
99.72220195582071
 30
0.0
 11
501.4469736535852
 21
98.42218788530846
 31
0.0
  0
LINE
  5
96
330
17
100
AcDbEntity
  8
4
100
AcDbLine
 10
500.8475907339323
 20
142.1306161503538
 30
0.0
 11
500.8475907339323
 21
117.3806151503537
 31
0.0
  0
LINE
  5
97
330
17
100
AcDbEntity
  8
4
100
AcDbLine
 10
501.4474927339324
 20
142.1306161503538
 30
0.0
 11
501.4474927339324
 21
150.6306161503538
 31
0.0
  0
LINE
  5
98
330
17
100
AcDbEntity
  8
4
100
AcDbLine
 10
506.4474927339324
 20
142.1306161503538
 30
0.0
 11
506.4474927339324
 21
150.6306161503538
 31
0.0
  0
LINE
  5
99
330
17
100
AcDbEntity
  8
4
100
AcDbLine
 10
500.1474927339325
 20
150.6306161503538
 30
0.0
 11
506.4474927339322
 21
150.6306161503538
 31
0.0
  0
LINE
  5
9A
330
17
100
AcDbEntity
  8
4
100
AcDbLine
 10
500.1474927339325
 20
142.1306161503538
 30
0.0
 11
506.4474927339322
 21
142.1306161503538
 31
0.0
  0
LINE
  5
9B
330
17
100
AcDbEntity
  8
2
100
AcDbLine
 10
500.1474927339323
 20
146.3806161503538
 30
0.0
 11
501.4474927339324
 21
147.6806161503538
 31
0.0
  0
LINE
  5
9C
330
17
100
AcDbEntity
  8
2
100
AcDbLine
 10
500.1474927339323
 20
144.5421385192688
 30
0.0
 11
501.4474927339324
 21
145.8421385192689
 31
0.0
  0
LINE
  5
9D
330
17
100
AcDbEntity
  8
2
100
AcDbLine
 10
500.1474927339323
 20
193.0392085192687
 30
0.0
 11
501.4474927339324
 21
194.3392085192688
 31
0.0
  0
LINE
  5
9E
330
17
100
AcDbEntity
  8
2
100
AcDbLine
 10
500.1474927339323
 20
194.8776861503537
 30
0.0
 11
501.4474927339324
 21
196.1776861503537
 31
0.0
  0
LINE
  5
9F
330
17
100
AcDbEntity
  8
4
100
AcDbLine
 10
500.1474927339325
 20
190.6276861503537
 30
0.0
 11
506.4474927339322
 21
190.6276861503537
 31
0.0
  0
LINE
  5
A0
330
17
100
AcDbEntity
  8
4
100
AcDbLine
 10
500.1474927339325
 20
199.1276861503537
 30
0.0
 11
506.4474927339322
 21
199.1276861503537
 31
0.0
  0
LINE
  5
A1
330
17
100
AcDbEntity
  8
4
100
AcDbLine
 10
506.4474927339324
 20
190.6276861503537
 30
0.0
 11
506.4474927339324
 21
199.1276861503537
 31
0.0
  0
LINE
  5
A2
330
17
100
AcDbEntity
  8
4
100
AcDbLine
 10
501.4474927339324
 20
190.6276861503537
 30
0.0
 11
501.4474927339324
 21
199.1276861503537
 31
0.0
  0
ARC
  5
A8
330
17
100
AcDbEntity
  8
4
100
AcDbCircle
 10
499.1474937339324
 20
208.3803711503537
 30
0.0
 40
1.0000005
100
AcDbArc
 50
0.0
 51
90.0
  0
LINE
  5
A9
330
17
100
AcDbEntity
  8
4
100
AcDbLine
 10
485.2475907339324
 20
209.3806161503538
 30
0.0
 11
491.2475907339324
 21
209.3806161503538
 31
0.0
  0
LINE
  5
AA
330
17
100
AcDbEntity
  8
4
100
AcDbLine
 10
499.1474937339324
 20
209.3803716503538
 30
0.0
 11
491.2475907339324
 21
209.3803716503538
 31
0.0
  0
LINE
  5
AC
330
17
100
AcDbEntity
  8
4
100
AcDbLine
 10
465.7475907339324
 20
211.3806156503537
 30
0.0
 11
465.7475907339324
 21
212.3806161503538
 31
0.0
  0
LINE
  5
AD
330
17
100
AcDbEntity
  8
4
100
AcDbLine
 10
463.2475917339323
 20
212.3806161503538
 30
0.0
 11
463.2475917339323
 21
213.8806161503538
 31
0.0
  0
LINE
  5
AE
330
17
100
AcDbEntity
  8
4
100
AcDbLine
 10
464.2475907339324
 20
213.8806161503538
 30
0.0
 11
464.2475907339324
 21
215.8806156503537
 31
0.0
  0
LINE
  5
AF
330
17
100
AcDbEntity
  8
4
100
AcDbLine
 10
462.5727867339322
 20
215.8806156503537
 30
0.0
 11
462.5727867339322
 21
219.8806161503538
 31
0.0
  0
LINE
  5
B3
330
17
100
AcDbEntity
  8
4
100
AcDbLine
 10
437.7475917339323
 20
211.3806156503537
 30
0.0
 11
437.7475917339323
 21
212.3806161503538
 31
0.0
  0
LINE
  5
B4
330
17
100
AcDbEntity
  8
4
100
AcDbLine
 10
440.2475907339324
 20
212.3806161503538
 30
0.0
 11
440.2475907339324
 21
213.8806161503538
 31
0.0
  0
LINE
  5
B5
330
17
100
AcDbEntity
  8
4
100
AcDbLine
 10
439.2475917339323
 20
213.8806161503538
 30
0.0
 11
439.2475917339323
 21
215.8806156503537
 31
0.0
  0
LINE
  5
B6
330
17
100
AcDbEntity
  8
4
100
AcDbLine
 10
440.9221512339323
 20
215.8806156503537
 30
0.0
 11
440.9221512339323
 21
219.8806161503538
 31
0.0
  0
LINE
  5
B7
330
17
100
AcDbEntity
  8
4
100
AcDbLine
 10
464.2475907339324
 20
215.8806156503537
 30
0.0
 11
439.2475917339323
 21
215.8806156503537
 31
0.0
  0
LINE
  5
B8
330
17
100
AcDbEntity
  8
4
100
AcDbLine
 10
462.5727867339322
 20
219.8806161503538
 30
0.0
 11
440.9221512339323
 21
219.8806161503538
 31
0.0
  0
LINE
  5
B9
330
17
100
AcDbEntity
  8
4
100
AcDbLine
 10
465.7475907339324
 20
212.3806161503538
 30
0.0
 11
437.7475917339323
 21
212.3806161503538
 31
0.0
  0
LINE
  5
BA
330
17
100
AcDbEntity
  8
4
100
AcDbLine
 10
464.2475907339324
 20
213.8806161503538
 30
0.0
 11
439.2475917339323
 21
213.8806161503538
 31
0.0
  0
LINE
  5
BC
330
17
100
AcDbEntity
  8
4
100
AcDbLine
 10
418.2475917339323
 20
211.3806156503537
 30
0.0
 11
485.2475907339324
 21
211.3806156503537
 31
0.0
  0
LINE
  5
CD
330
17
100
AcDbEntity
  8
L-CENTER
 48
1.5
100
AcDbLine
 10
481.5837717339323
 20
194.8776861503537
 30
0.0
 11
508.7597699008079
 21
194.8776861503537
 31
0.0
  0
LINE
  5
CE
330
17
100
AcDbEntity
  8
4
100
AcDbLine
 10
507.8475912339322
 20
169.8806151503537
 30
0.0
 11
506.8475907339323
 21
169.8806151503537
 31
0.0
  0
LINE
  5
CF
330
17
100
AcDbEntity
  8
4
100
AcDbLine
 10
506.8475907339323
 20
173.3806161503538
 30
0.0
 11
500.8475907339323
 21
175.3806156503537
 31
0.0
  0
LINE
  5
D0
330
17
100
AcDbEntity
  8
4
100
AcDbLine
 10
500.8475907339323
 20
175.3806156503537
 30
0.0
 11
500.1474927339323
 21
183.8224866503537
 31
0.0
  0
LINE
  5
D2
330
17
100
AcDbEntity
  8
4
100
AcDbLine
 10
506.8475907339323
 20
122.8806471503537
 30
0.0
 11
507.8475912339322
 21
122.8806471503537
 31
0.0
  0
LINE
  5
D3
330
17
100
AcDbEntity
  8
4
100
AcDbLine
 10
500.8475907339323
 20
117.3806151503537
 30
0.0
 11
500.1474927339323
 21
108.9387441503537
 31
0.0
  0
LINE
  5
D4
330
17
100
AcDbEntity
  8
4
100
AcDbLine
 10
506.8475907339323
 20
119.3806161503538
 30
0.0
 11
500.8475907339323
 21
117.3806151503537
 31
0.0
  0
LINE
  5
D6
330
17
100
AcDbEntity
  8
4
100
AcDbLine
 10
506.8475907339323
 20
173.3806161503538
 30
0.0
 11
506.8475907339323
 21
119.3806161503538
 31
0.0
  0
LINE
  5
D7
330
17
100
AcDbEntity
  8
4
100
AcDbLine
 10
507.8475912339322
 20
122.8806471503537
 30
0.0
 11
507.8475912339322
 21
169.8806151503537
 31
0.0
  0
LINE
  5
D8
330
17
100
AcDbEntity
  8
4
100
AcDbLine
 10
500.8475907339323
 20
175.3806156503537
 30
0.0
 11
500.8475907339323
 21
150.6306161503538
 31
0.0
  0
LINE
  5
DA
330
17
100
AcDbEntity
  8
4
100
AcDbLine
 10
454.2475917339323
 20
96.38064665035375
 30
0.0
 11
449.2475907339324
 21
96.38064665035375
 31
0.0
  0
ARC
  5
DB
330
17
100
AcDbEntity
  8
4
100
AcDbCircle
 10
499.1474937339324
 20
84.38064665035375
 30
0.0
 40
1.0000005
100
AcDbArc
 50
270.0
 51
0.0
  0
ARC
  5
DC
330
17
100
AcDbEntity
  8
4
100
AcDbCircle
 10
485.2475907339324
 20
82.3806471503537
 30
0.0
 40
1.0000005
100
AcDbArc
 50
90.0
 51
180.0
  0
LINE
  5
DD
330
17
100
AcDbEntity
  8
4
100
AcDbLine
 10
499.1474937339324
 20
83.3806461503537
 30
0.0
 11
485.2475907339324
 21
83.3806461503537
 31
0.0
  0
ARC
  5
DE
330
17
100
AcDbEntity
  8
4
100
AcDbCircle
 10
506.2475907339324
 20
44.38070715035366
 30
0.0
 40
3.0
100
AcDbArc
 50
0.0
 51
90.0
  0
LINE
  5
DF
330
17
100
AcDbEntity
  8
4
100
AcDbLine
 10
484.2475917339323
 20
82.3806471503537
 30
0.0
 11
484.2475917339323
 21
47.38070715035377
 31
0.0
  0
LINE
  5
E4
330
17
100
AcDbEntity
  8
L-CENTER
 48
1.5
100
AcDbLine
 10
494.7475917339323
 20
52.38070765035371
 30
0.0
 11
494.7475917339323
 21
21.38070765035371
 31
0.0
  0
LINE
  5
E5
330
17
100
AcDbEntity
  8
4
100
AcDbLine
 10
509.2475907339324
 20
26.38070765035371
 30
0.0
 11
509.2475907339324
 21
44.38070715035366
 31
0.0
  0
LINE
  5
E6
330
17
100
AcDbEntity
  8
4
100
AcDbLine
 10
454.2475917339323
 20
91.3806471503537
 30
0.0
 11
449.2475907339324
 21
91.3806471503537
 31
0.0
  0
LINE
  5
E7
330
17
100
AcDbEntity
  8
4
100
AcDbLine
 10
476.7475917339323
 20
65.61414815035374
 30
0.0
 11
476.7475917339323
 21
52.38070815035377
 31
0.0
  0
LINE
  5
E8
330
17
100
AcDbEntity
  8
4
100
AcDbLine
 10
419.2475907339324
 20
81.38061515035366
 30
0.0
 11
418.2475917339323
 21
81.38061515035366
 31
0.0
  0
LINE
  5
E9
330
17
100
AcDbEntity
  8
4
100
AcDbLine
 10
419.2475907339324
 20
70.38070715035366
 30
0.0
 11
417.7475907339324
 21
70.38070715035366
 31
0.0
  0
LINE
  5
EA
330
17
100
AcDbEntity
  8
4
100
AcDbLine
 10
417.7475907339324
 20
83.3808906503537
 30
0.0
 11
417.7475907339324
 21
70.38070715035366
 31
0.0
  0
LINE
  5
EB
330
17
100
AcDbEntity
  8
4
100
AcDbLine
 10
426.7475907339324
 20
65.61414815035374
 30
0.0
 11
426.7475907339322
 21
52.38070815035377
 31
0.0
  0
LINE
  5
EC
330
17
100
AcDbEntity
  8
4
100
AcDbLine
 10
419.2475907339324
 20
53.38070765035371
 30
0.0
 11
417.2475912339323
 21
53.38070765035371
 31
0.0
  0
LINE
  5
ED
330
17
100
AcDbEntity
  8
4
100
AcDbLine
 10
417.2475912339323
 20
53.38070765035371
 30
0.0
 11
417.2475912339323
 21
47.38070715035377
 31
0.0
  0
ARC
  5
EE
330
17
100
AcDbEntity
  8
4
100
AcDbCircle
 10
421.7475912339323
 20
52.38070815035377
 30
0.0
 40
4.9999995
100
AcDbArc
 50
270.0
 51
0.0
  0
LINE
  5
EF
330
17
100
AcDbEntity
  8
4
100
AcDbLine
 10
419.2475907339324
 20
86.38070765035371
 30
0.0
 11
419.2475907339324
 21
47.38070715035377
 31
0.0
  0
ARC
  5
F2
330
17
100
AcDbEntity
  8
4
100
AcDbCircle
 10
481.7475912339323
 20
52.38070815035377
 30
0.0
 40
4.9999995
100
AcDbArc
 50
180.0
 51
270.0
  0
CIRCLE
  5
F3
330
17
100
AcDbEntity
  8
4
100
AcDbCircle
 10
451.7475912339323
 20
86.38070765035371
 30
0.0
 40
32.5000005
  0
CIRCLE
  5
F4
330
17
100
AcDbEntity
  8
4
100
AcDbCircle
 10
451.7475912339323
 20
86.38070765035371
 30
0.0
 40
23.5000005
  0
ARC
  5
F5
330
17
100
AcDbEntity
  8
4
100
AcDbCircle
 10
451.7475912339323
 20
86.3806461503537
 30
0.0
 40
7.999986
100
AcDbArc
 50
108.2100089999996
 51
71.79002699999977
  0
LINE
  5
F6
330
17
100
AcDbEntity
  8
4
100
AcDbLine
 10
449.2475907339324
 20
96.38064665035375
 30
0.0
 11
449.2475907339324
 21
91.3806471503537
 31
0.0
  0
LINE
  5
F7
330
17
100
AcDbEntity
  8
4
100
AcDbLine
 10
454.2475917339323
 20
96.38064665035375
 30
0.0
 11
454.2475917339323
 21
91.3806471503537
 31
0.0
  0
LINE
  5
FC
330
17
100
AcDbEntity
  8
4
100
AcDbLine
 10
485.2475907339324
 20
211.3806156503537
 30
0.0
 11
485.2475907339324
 21
83.3806461503537
 31
0.0
  0
LINE
  5
FD
330
17
100
AcDbEntity
  8
4
100
AcDbLine
 10
418.2475917339323
 20
81.38061515035366
 30
0.0
 11
418.2475917339323
 21
211.3806156503537
 31
0.0
  0
LINE
  5
FE
330
17
100
AcDbEntity
  8
L-CENTER
 48
1.5
100
AcDbLine
 10
451.7475912339323
 20
223.2938706068937
 30
0.0
 11
451.7475912339323
 21
24.0613461503537
 31
0.0
  0
LINE
  5
FF
330
17
100
AcDbEntity
  8
4
100
AcDbLine
 10
500.1474927339323
 20
84.38064665035375
 30
0.0
 11
500.1474927339323
 21
208.3803711503537
 31
0.0
  0
LINE
  5
100
330
17
100
AcDbEntity
  8
4
100
AcDbLine
 10
491.2475907339324
 20
83.3808906503537
 30
0.0
 11
491.2475907339324
 21
209.3806161503538
 31
0.0
  0
LINE
  5
101
330
17
100
AcDbEntity
  8
4
100
AcDbLine
 10
491.2475907339324
 20
83.3806461503537
 30
0.0
 11
491.2475907339324
 21
209.3806161503538
 31
0.0
  0
LINE
  5
104
330
17
100
AcDbEntity
  8
4
100
AcDbLine
 10
283.3116534015534
 20
413.8631487345688
 30
0.0
 11
282.3116529015533
 21
414.8631492345688
 31
0.0
  0
LINE
  5
105
330
17
100
AcDbEntity
  8
4
100
AcDbLine
 10
282.3116529015533
 20
398.8631487345688
 30
0.0
 11
283.3116534015534
 21
399.8631492345688
 31
0.0
  0
LINE
  5
106
330
17
100
AcDbEntity
  8
4
100
AcDbLine
 10
282.3116529015533
 20
398.8631487345688
 30
0.0
 11
282.3116529015533
 21
404.3632097345688
 31
0.0
  0
LINE
  5
107
330
17
100
AcDbEntity
  8
4
100
AcDbLine
 10
283.3116534015534
 20
399.8631492345688
 30
0.0
 11
283.3116534015534
 21
413.8631487345688
 31
0.0
  0
LINE
  5
108
330
17
100
AcDbEntity
  8
4
100
AcDbLine
 10
282.3116529015533
 20
409.3632097345688
 30
0.0
 11
282.3116529015533
 21
414.8631492345688
 31
0.0
  0
LINE
  5
109
330
17
100
AcDbEntity
  8
4
100
AcDbLine
 10
236.3117904015534
 20
430.3631487345688
 30
0.0
 11
237.3117909015534
 21
430.3631487345688
 31
0.0
  0
LINE
  5
10A
330
17
100
AcDbEntity
  8
4
100
AcDbLine
 10
237.3117909015534
 20
416.8631487345688
 30
0.0
 11
248.3117904015534
 21
416.8631487345688
 31
0.0
  0
LINE
  5
10B
330
17
100
AcDbEntity
  8
4
100
AcDbLine
 10
237.3117909015534
 20
396.8631492345688
 30
0.0
 11
248.3117904015534
 21
396.8631492345688
 31
0.0
  0
LINE
  5
10C
330
17
100
AcDbEntity
  8
4
100
AcDbLine
 10
236.3117904015534
 20
383.3631492345688
 30
0.0
 11
237.3117909015534
 21
383.3631492345688
 31
0.0
  0
ARC
  5
10D
330
17
100
AcDbEntity
  8
4
100
AcDbCircle
 10
253.8117904015534
 20
406.8632097345688
 30
0.0
 40
2.5
100
AcDbArc
 50
90.0
 51
270.0
  0
LINE
  5
10E
330
17
100
AcDbEntity
  8
4
100
AcDbLine
 10
237.3117909015534
 20
430.3631487345688
 30
0.0
 11
237.3117909015534
 21
383.3631492345688
 31
0.0
  0
LINE
  5
10F
330
17
100
AcDbEntity
  8
4
100
AcDbLine
 10
248.3117904015534
 20
416.8631487345688
 30
0.0
 11
248.3117904015534
 21
396.8631492345688
 31
0.0
  0
LINE
  5
110
330
17
100
AcDbEntity
  8
4
100
AcDbLine
 10
282.3116529015533
 20
414.8631492345688
 30
0.0
 11
248.3117904015534
 21
414.8631492345688
 31
0.0
  0
LINE
  5
111
330
17
100
AcDbEntity
  8
4
100
AcDbLine
 10
282.3116529015533
 20
398.8631487345688
 30
0.0
 11
248.3117904015534
 21
398.8631487345688
 31
0.0
  0
LINE
  5
112
330
17
100
AcDbEntity
  8
4
100
AcDbLine
 10
253.8117904015534
 20
409.3632097345688
 30
0.0
 11
283.3116534015534
 21
409.3632097345688
 31
0.0
  0
LINE
  5
113
330
17
100
AcDbEntity
  8
4
100
AcDbLine
 10
253.8117904015534
 20
404.3632097345688
 30
0.0
 11
283.3116534015534
 21
404.3632097345688
 31
0.0
  0
ARC
  5
114
330
17
100
AcDbEntity
  8
4
100
AcDbCircle
 10
230.3118209015535
 20
454.2632097345689
 30
0.0
 40
1.0
100
AcDbArc
 50
0.0
 51
90.0
  0
ARC
  5
115
330
17
100
AcDbEntity
  8
4
100
AcDbCircle
 10
226.8118209015533
 20
459.3632097345688
 30
0.0
 40
5.0
100
AcDbArc
 50
0.0
 51
90.0
  0
LINE
  5
116
330
17
100
AcDbEntity
  8
4
100
AcDbLine
 10
231.3118209015533
 20
446.363209734569
 30
0.0
 11
231.3118209015533
 21
440.3632097345688
 31
0.0
  0
LINE
  5
117
330
17
100
AcDbEntity
  8
4
100
AcDbLine
 10
231.8118209015533
 20
459.3632097345688
 30
0.0
 11
231.8118209015533
 21
440.3632097345688
 31
0.0
  0
LINE
  5
118
330
17
100
AcDbEntity
  8
4
100
AcDbLine
 10
231.3118209015535
 20
446.6632097345687
 30
0.0
 11
231.3118209015535
 21
454.2325054789008
 31
0.0
  0
LINE
  5
119
330
17
100
AcDbEntity
  8
L-CENTER
 48
1.5
100
AcDbLine
 10
224.3118209015529
 20
462.8703914171979
 30
0.0
 11
224.3118209015529
 21
435.9438352216121
 31
0.0
  0
LINE
  5
11A
330
17
100
AcDbEntity
  8
L-CENTER
 48
1.5
100
AcDbLine
 10
208.523789154154
 20
449.8632097345688
 30
0.0
 11
228.0998526489527
 21
449.8632097345688
 31
0.0
  0
ARC
  5
11C
330
17
100
AcDbEntity
  8
4
100
AcDbCircle
 10
195.3118209015533
 20
462.3632097345688
 30
0.0
 40
2.0
100
AcDbArc
 50
90.0
 51
180.0
  0
LINE
  5
11D
330
17
100
AcDbEntity
  8
4
100
AcDbLine
 10
193.3118209015533
 20
462.3632097345688
 30
0.0
 11
193.3118209015533
 21
462.2632097345689
 31
0.0
  0
LINE
  5
11E
330
17
100
AcDbEntity
  8
4
100
AcDbLine
 10
191.8118209015535
 20
463.2632097345689
 30
0.0
 11
191.8118209015535
 21
462.2632097345689
 31
0.0
  0
ARC
  5
11F
330
17
100
AcDbEntity
  8
4
100
AcDbCircle
 10
194.5910616814973
 20
461.2632097345689
 30
0.0
 40
1.0
100
AcDbArc
 50
18.43494882291427
 51
90.0
  0
LINE
  5
120
330
17
100
AcDbEntity
  8
4
100
AcDbLine
 10
195.5397449795479
 20
461.5794375005856
 30
0.0
 11
195.5451514687406
 21
461.5632180330072
 31
0.0
  0
LINE
  5
122
330
17
100
AcDbEntity
  8
4
100
AcDbLine
 10
226.8118209015533
 20
464.3632097345688
 30
0.0
 11
195.3118209015533
 21
464.3632097345688
 31
0.0
  0
LINE
  5
123
330
17
100
AcDbEntity
  8
4
100
AcDbLine
 10
207.5356612468388
 20
455.2632097345689
 30
0.0
 11
200.5618282471028
 21
455.9418516819561
 31
0.0
  0
LINE
  5
124
330
17
100
AcDbEntity
  8
L-CENTER
 48
1.5
100
AcDbLine
 10
218.3118209015533
 20
459.6512414819682
 30
0.0
 11
218.3118209015533
 21
440.0751779871694
 31
0.0
  0
LINE
  5
125
330
17
100
AcDbEntity
  8
4
100
AcDbLine
 10
233.3118209015533
 20
439.3632097345688
 30
0.0
 11
236.3118209015533
 21
439.3632097345688
 31
0.0
  0
ARC
  5
12A
330
17
100
AcDbEntity
  8
4
100
AcDbCircle
 10
412.2475917339323
 20
208.3806156503537
 30
0.0
 40
1.0000005
100
AcDbArc
 50
90.0
 51
180.0
  0
LINE
  5
12E
330
17
100
AcDbEntity
  8
4
100
AcDbLine
 10
231.3118209015533
 20
373.3632097345688
 30
0.0
 11
231.3118209015533
 21
366.3632097345688
 31
0.0
  0
LINE
  5
12F
330
17
100
AcDbEntity
  8
4
100
AcDbLine
 10
231.8118209015533
 20
373.3632097345688
 30
0.0
 11
231.8118209015533
 21
354.3632097345688
 31
0.0
  0
LINE
  5
130
330
17
100
AcDbEntity
  8
L-CENTER
 48
1.5
100
AcDbLine
 10
218.3118209015533
 20
373.6512414819682
 30
0.0
 11
218.3118209015533
 21
354.0751779871695
 31
0.0
  0
ARC
  5
131
330
17
100
AcDbEntity
  8
4
100
AcDbCircle
 10
218.3118209015533
 20
363.8632097345688
 30
0.0
 40
5.5
100
AcDbArc
 50
161.6861917069635
 51
27.03569178941235
  0
LINE
  5
132
330
17
100
AcDbEntity
  8
L-CENTER
 48
1.5
100
AcDbLine
 10
208.523789154154
 20
363.8632097345688
 30
0.0
 11
228.0998526489527
 21
363.8632097345688
 31
0.0
  0
ARC
  5
133
330
17
100
AcDbEntity
  8
4
100
AcDbCircle
 10
226.8118209015533
 20
354.3632097345688
 30
0.0
 40
5.0
100
AcDbArc
 50
270.0
 51
0.0
  0
LINE
  5
134
330
17
100
AcDbEntity
  8
4
100
AcDbLine
 10
192.0618209015526
 20
356.3632097345688
 30
0.0
 11
192.0618209015526
 21
366.3632097345688
 31
0.0
  0
ARC
  5
135
330
17
100
AcDbEntity
  8
4
100
AcDbCircle
 10
195.3118209015536
 20
351.3632097345688
 30
0.0
 40
2.0
100
AcDbArc
 50
180.0
 51
270.0
  0
LINE
  5
136
330
17
100
AcDbEntity
  8
4
100
AcDbLine
 10
196.3118209015533
 20
356.3632097345688
 30
0.0
 11
195.3118209015533
 21
351.3632097345688
 31
0.0
  0
LINE
  5
137
330
17
100
AcDbEntity
  8
4
100
AcDbLine
 10
226.8118209015533
 20
349.3632097345688
 30
0.0
 11
195.3118209015536
 21
349.3632097345688
 31
0.0
  0
LINE
  5
138
330
17
100
AcDbEntity
  8
4
100
AcDbLine
 10
214.4936390833716
 20
366.3632097345687
 30
0.0
 11
196.3118209015533
 21
356.3632097345688
 31
0.0
  0
LINE
  5
139
330
17
100
AcDbEntity
  8
4
100
AcDbLine
 10
233.3118209015533
 20
374.3632097345688
 30
0.0
 11
236.3118209015533
 21
374.3632097345688
 31
0.0
  0
LINE
  5
13F
330
17
100
AcDbEntity
  8
4
100
AcDbLine
 10
182.3118219015532
 20
210.8901381503537
 30
0.0
 11
182.3118219015532
 21
212.3806161503538
 31
0.0
  0
LINE
  5
140
330
17
100
AcDbEntity
  8
4
100
AcDbLine
 10
179.8117899015533
 20
212.3806161503538
 30
0.0
 11
179.8117899015533
 21
213.8806161503538
 31
0.0
  0
LINE
  5
141
330
17
100
AcDbEntity
  8
4
100
AcDbLine
 10
174.5617899015533
 20
215.8806156503537
 30
0.0
 11
174.5617899015533
 21
219.8806161503538
 31
0.0
  0
LINE
  5
142
330
17
100
AcDbEntity
  8
4
100
AcDbLine
 10
180.8117904015533
 20
213.8806161503538
 30
0.0
 11
180.8117904015533
 21
219.8806161503538
 31
0.0
  0
LINE
  5
143
330
17
100
AcDbEntity
  8
4
100
AcDbLine
 10
233.3118209015533
 20
440.3632097345688
 30
0.0
 11
233.3118209015533
 21
373.3632097345688
 31
0.0
  0
LINE
  5
144
330
17
100
AcDbEntity
  8
4
100
AcDbLine
 10
236.3118209015533
 20
439.3632097345688
 30
0.0
 11
236.3118209015533
 21
374.3632097345688
 31
0.0
  0
ARC
  5
14A
330
17
100
AcDbEntity
  8
4
100
AcDbCircle
 10
141.3118209015533
 20
462.3632097345688
 30
0.0
 40
2.0
100
AcDbArc
 50
0.0
 51
90.0
  0
LINE
  5
14B
330
17
100
AcDbEntity
  8
4
100
AcDbLine
 10
143.3118209015533
 20
462.3632097345688
 30
0.0
 11
143.3118209015533
 21
462.2632097345689
 31
0.0
  0
LINE
  5
14C
330
17
100
AcDbEntity
  8
4
100
AcDbLine
 10
141.0838968235589
 20
461.5794375005856
 30
0.0
 11
141.0784903343662
 21
461.5632180330074
 31
0.0
  0
LINE
  5
14D
330
17
100
AcDbEntity
  8
4
100
AcDbLine
 10
144.8118209015533
 20
463.2632097345689
 30
0.0
 11
144.8118209015533
 21
462.2632097345689
 31
0.0
  0
ARC
  5
14E
330
17
100
AcDbEntity
  8
4
100
AcDbCircle
 10
142.0325801216095
 20
461.2632097345689
 30
0.0
 40
1.0
100
AcDbArc
 50
90.0
 51
161.5650511770857
  0
LINE
  5
150
330
17
100
AcDbEntity
  8
4
100
AcDbLine
 10
129.0879805562676
 20
455.2632097345664
 30
0.0
 11
136.061813556004
 21
455.941851681954
 31
0.0
  0
LINE
  5
151
330
17
100
AcDbEntity
  8
4
100
AcDbLine
 10
118.8118209015533
 20
455.2632097345689
 30
0.0
 11
118.8118209015533
 21
456.2632097345689
 31
0.0
  0
LINE
  5
152
330
17
100
AcDbEntity
  8
L-CENTER
 48
1.5
100
AcDbLine
 10
118.3118209015533
 20
459.6512414819682
 30
0.0
 11
118.3118209015533
 21
440.0751779871694
 31
0.0
  0
LINE
  5
153
330
17
100
AcDbEntity
  8
L-CENTER
 48
1.5
100
AcDbLine
 10
108.523789154154
 20
449.8632097345688
 30
0.0
 11
128.0998526489527
 21
449.8632097345688
 31
0.0
  0
LINE
  5
154
330
17
100
AcDbEntity
  8
4
100
AcDbLine
 10
118.8118209015533
 20
456.2632097345689
 30
0.0
 11
136.0618100777757
 21
456.2632097345689
 31
0.0
  0
LINE
  5
155
330
17
100
AcDbEntity
  8
4
100
AcDbLine
 10
109.8118209015533
 20
464.3632097345688
 30
0.0
 11
141.3118209015533
 21
464.3632097345688
 31
0.0
  0
ARC
  5
156
330
17
100
AcDbEntity
  8
4
100
AcDbCircle
 10
106.3118209015533
 20
454.2632097345689
 30
0.0
 40
1.0
100
AcDbArc
 50
90.0
 51
180.0
  0
LINE
  5
157
330
17
100
AcDbEntity
  8
4
100
AcDbLine
 10
100.3118209015533
 20
439.3632097345688
 30
0.0
 11
103.3118209015533
 21
439.3632097345688
 31
0.0
  0
LINE
  5
158
330
17
100
AcDbEntity
  8
4
100
AcDbLine
 10
105.3118209015533
 20
446.3632097345688
 30
0.0
 11
105.3118209015533
 21
440.3632097345688
 31
0.0
  0
LINE
  5
159
330
17
100
AcDbEntity
  8
4
100
AcDbLine
 10
104.8118209015533
 20
459.3632097345688
 30
0.0
 11
104.8118209015533
 21
440.3632097345688
 31
0.0
  0
LINE
  5
15A
330
17
100
AcDbEntity
  8
4
100
AcDbLine
 10
105.3118209015533
 20
446.6632097345687
 30
0.0
 11
105.3118209015533
 21
454.2325054789008
 31
0.0
  0
LINE
  5
15B
330
17
100
AcDbEntity
  8
4
100
AcDbLine
 10
100.3117899015533
 20
430.3631487345688
 30
0.0
 11
99.31179090155342
 21
430.3631487345688
 31
0.0
  0
LINE
  5
15C
330
17
100
AcDbEntity
  8
4
100
AcDbLine
 10
100.3117899015533
 20
383.3631492345688
 30
0.0
 11
99.31179090155342
 21
383.3631492345688
 31
0.0
  0
LINE
  5
15D
330
17
100
AcDbEntity
  8
4
100
AcDbLine
 10
99.31179090155342
 20
430.3631487345688
 30
0.0
 11
99.31179090155342
 21
383.3631492345688
 31
0.0
  0
ARC
  5
15E
330
17
100
AcDbEntity
  8
4
100
AcDbCircle
 10
109.8118209015533
 20
459.3632097345688
 30
0.0
 40
5.0
100
AcDbArc
 50
90.0
 51
180.0
  0
LINE
  5
162
330
17
100
AcDbEntity
  8
4
100
AcDbLine
 10
144.5618209015541
 20
356.3632097345688
 30
0.0
 11
144.5618209015541
 21
366.3632097345688
 31
0.0
  0
ARC
  5
163
330
17
100
AcDbEntity
  8
4
100
AcDbCircle
 10
141.3118209015533
 20
351.3632097345688
 30
0.0
 40
2.0
100
AcDbArc
 50
270.0
 51
0.0
  0
LINE
  5
164
330
17
100
AcDbEntity
  8
4
100
AcDbLine
 10
140.3118209015533
 20
356.3632097345688
 30
0.0
 11
141.3118209015533
 21
351.3632097345688
 31
0.0
  0
LINE
  5
165
330
17
100
AcDbEntity
  8
L-CENTER
 48
1.5
100
AcDbLine
 10
118.3118209015533
 20
373.6512414819682
 30
0.0
 11
118.3118209015533
 21
354.0751779871695
 31
0.0
  0
ARC
  5
166
330
17
100
AcDbEntity
  8
4
100
AcDbCircle
 10
118.3118209015533
 20
363.8632097345688
 30
0.0
 40
5.5
100
AcDbArc
 50
152.9643082105877
 51
18.3138082930352
  0
LINE
  5
167
330
17
100
AcDbEntity
  8
L-CENTER
 48
1.5
100
AcDbLine
 10
108.523789154154
 20
363.8632097345688
 30
0.0
 11
128.0998526489527
 21
363.8632097345688
 31
0.0
  0
LINE
  5
168
330
17
100
AcDbEntity
  8
4
100
AcDbLine
 10
109.8118209015533
 20
349.3632097345688
 30
0.0
 11
141.3118209015533
 21
349.3632097345688
 31
0.0
  0
LINE
  5
169
330
17
100
AcDbEntity
  8
4
100
AcDbLine
 10
122.1300027197352
 20
366.3632097345687
 30
0.0
 11
140.3118209015533
 21
356.3632097345688
 31
0.0
  0
LINE
  5
16A
330
17
100
AcDbEntity
  8
4
100
AcDbLine
 10
100.3118209015533
 20
374.3632097345688
 30
0.0
 11
103.3118209015533
 21
374.3632097345686
 31
0.0
  0
LINE
  5
16B
330
17
100
AcDbEntity
  8
4
100
AcDbLine
 10
105.3118209015533
 20
373.3632097345688
 30
0.0
 11
105.3118209015533
 21
366.3632097345688
 31
0.0
  0
LINE
  5
16C
330
17
100
AcDbEntity
  8
4
100
AcDbLine
 10
104.8118209015533
 20
373.3632097345688
 30
0.0
 11
104.8118209015533
 21
354.3632097345688
 31
0.0
  0
ARC
  5
16D
330
17
100
AcDbEntity
  8
4
100
AcDbCircle
 10
109.8118209015533
 20
354.3632097345688
 30
0.0
 40
5.0
100
AcDbArc
 50
180.0
 51
270.0
  0
LINE
  5
170
330
17
100
AcDbEntity
  8
4
100
AcDbLine
 10
156.8117904015533
 20
212.3806161503538
 30
0.0
 11
156.8117904015533
 21
213.8806161503538
 31
0.0
  0
LINE
  5
171
330
17
100
AcDbEntity
  8
4
100
AcDbLine
 10
162.0617904015533
 20
215.8806156503537
 30
0.0
 11
162.0617904015533
 21
219.8806161503538
 31
0.0
  0
LINE
  5
172
330
17
100
AcDbEntity
  8
4
100
AcDbLine
 10
154.3117899015533
 20
210.8901381503537
 30
0.0
 11
154.3117899015533
 21
212.3806161503538
 31
0.0
  0
LINE
  5
173
330
17
100
AcDbEntity
  8
4
100
AcDbLine
 10
155.8117899015533
 20
213.8806161503538
 30
0.0
 11
155.8117899015533
 21
219.8806161503538
 31
0.0
  0
LINE
  5
17B
330
17
100
AcDbEntity
  8
L-CENTER
 48
1.5
100
AcDbLine
 10
168.3118209015533
 20
466.0317655045781
 30
0.0
 11
168.3118209015533
 21
299.0108515970476
 31
0.0
  0
LINE
  5
17C
330
17
100
AcDbEntity
  8
4
100
AcDbLine
 10
103.3118209015533
 20
440.3632097345688
 30
0.0
 11
103.3118209015533
 21
373.3632097345688
 31
0.0
  0
LINE
  5
17D
330
17
100
AcDbEntity
  8
4
100
AcDbLine
 10
100.3118209015533
 20
439.3632097345688
 30
0.0
 11
100.3118209015533
 21
374.3632097345688
 31
0.0
  0
LINE
  5
17E
330
17
100
AcDbEntity
  8
4
100
AcDbLine
 10
155.8117899015533
 20
215.8806156503537
 30
0.0
 11
180.8117904015533
 21
215.8806156503537
 31
0.0
  0
LINE
  5
17F
330
17
100
AcDbEntity
  8
4
100
AcDbLine
 10
155.8117899015533
 20
219.8806161503538
 30
0.0
 11
180.8117904015533
 21
219.8806161503538
 31
0.0
  0
LINE
  5
180
330
17
100
AcDbEntity
  8
4
100
AcDbLine
 10
182.3118219015532
 20
212.3806161503538
 30
0.0
 11
154.3117899015533
 21
212.3806161503538
 31
0.0
  0
LINE
  5
181
330
17
100
AcDbEntity
  8
4
100
AcDbLine
 10
155.8117899015533
 20
213.8806161503538
 30
0.0
 11
180.8117904015533
 21
213.8806161503538
 31
0.0
  0
LINE
  5
184
330
17
100
AcDbEntity
  8
L-CENTER
 48
1.5
100
AcDbLine
 10
50.92845620973515
 20
406.8632097345688
 30
0.0
 11
285.6951855933715
 21
406.8632097345688
 31
0.0
  0
LINE
  5
185
330
17
100
AcDbEntity
  8
4
100
AcDbLine
 10
103.3118209015533
 20
373.3632097345688
 30
0.0
 11
233.3118209015533
 21
373.3632097345688
 31
0.0
  0
LINE
  5
186
330
17
100
AcDbEntity
  8
4
100
AcDbLine
 10
141.3118209015533
 20
351.3632097345688
 30
0.0
 11
195.3118209015533
 21
351.3632097345688
 31
0.0
  0
LINE
  5
187
330
17
100
AcDbEntity
  8
4
100
AcDbLine
 10
140.3118209015533
 20
356.3632097345688
 30
0.0
 11
196.3118209015533
 21
356.3632097345688
 31
0.0
  0
LINE
  5
188
330
17
100
AcDbEntity
  8
4
100
AcDbLine
 10
105.3118209015533
 20
366.3632097345688
 30
0.0
 11
231.3118209015533
 21
366.3632097345688
 31
0.0
  0
LINE
  5
189
330
17
100
AcDbEntity
  8
4
100
AcDbLine
 10
105.3118209015533
 20
446.3632097345688
 30
0.0
 11
231.3118209015533
 21
446.363209734569
 31
0.0
  0
LINE
  5
18A
330
17
100
AcDbEntity
  8
4
100
AcDbLine
 10
103.3118209015533
 20
440.3632097345688
 30
0.0
 11
233.3118209015533
 21
440.3632097345688
 31
0.0
  0
CIRCLE
  5
18B
330
17
100
AcDbEntity
  8
4
100
AcDbCircle
 10
168.3118209015533
 20
406.8632097345688
 30
0.0
 40
14.0
  0
LINE
  5
18C
330
17
100
AcDbEntity
  8
4
100
AcDbLine
 10
144.5618100782735
 20
456.2632097345691
 30
0.0
 11
192.0618317248333
 21
456.2632097345689
 31
0.0
  0
LINE
  5
18D
330
17
100
AcDbEntity
  8
4
100
AcDbLine
 10
144.8118209015533
 20
463.2632097345689
 30
0.0
 11
191.8118209015535
 21
463.2632097345689
 31
0.0
  0
LINE
  5
18E
330
17
100
AcDbEntity
  8
4
100
AcDbLine
 10
142.0325801216095
 20
462.2632097345689
 30
0.0
 11
194.5910616814973
 21
462.2632097345689
 31
0.0
  0
LINE
  5
18F
330
17
100
AcDbEntity
  8
4
100
AcDbLine
 10
106.3118209015533
 20
455.2632097345689
 30
0.0
 11
230.3118209015535
 21
455.2632097345689
 31
0.0
  0
LINE
  5
190
330
17
100
AcDbEntity
  8
4
100
AcDbLine
 10
105.3118209015533
 20
446.6632097345687
 30
0.0
 11
231.3118209015533
 21
446.6632097345687
 31
0.0
  0
CIRCLE
  5
194
330
17
100
AcDbEntity
  8
4
100
AcDbCircle
 10
168.3118209015533
 20
406.8632097345688
 30
0.0
 40
12.5
  0
LWPOLYLINE
  5
195
330
17
100
AcDbEntity
  8
4
100
AcDbPolyline
 90
        6
 70
     1
 43
0.0
 10
180.8118209015533
 20
406.8632097345688
 10
174.5618209015533
 20
417.6885272818743
 10
162.0618209015533
 20
417.6885272818743
 10
155.8118209015533
 20
406.8632097345688
 10
162.0618209015533
 20
396.0378921872633
 10
174.5618209015533
 20
396.0378921872633
  0
LINE
  5
196
330
17
100
AcDbEntity
  8
4
100
AcDbLine
 10
411.2475912339323
 20
192.3806151503537
 30
0.0
 11
402.2475912339323
 21
192.3806151503537
 31
0.0
  0
ARC
  5
197
330
17
100
AcDbEntity
  8
4
100
AcDbCircle
 10
402.2475912339323
 20
191.3806161503538
 30
0.0
 40
1.0000005
100
AcDbArc
 50
90.0
 51
180.0
  0
LINE
  5
198
330
17
100
AcDbEntity
  8
4
100
AcDbLine
 10
396.2475912339323
 20
173.3806161503538
 30
0.0
 11
401.2475907339324
 21
175.3806156503537
 31
0.0
  0
LINE
  5
199
330
17
100
AcDbEntity
  8
4
100
AcDbLine
 10
401.2475907339324
 20
175.3806156503537
 30
0.0
 11
411.2475912339323
 21
192.6533436503537
 31
0.0
  0
LINE
  5
19A
330
17
100
AcDbEntity
  8
4
100
AcDbLine
 10
411.2475912339323
 20
98.88070715035366
 30
0.0
 11
409.2475917339323
 21
98.88070715035366
 31
0.0
  0
LINE
  5
19B
330
17
100
AcDbEntity
  8
4
100
AcDbLine
 10
401.2475907339324
 20
117.3806151503537
 30
0.0
 11
411.2475912339323
 21
100.1078886503538
 31
0.0
  0
LINE
  5
19C
330
17
100
AcDbEntity
  8
4
100
AcDbLine
 10
396.2475912339323
 20
119.3806161503538
 30
0.0
 11
401.2475907339324
 21
117.3806151503537
 31
0.0
  0
LINE
  5
1A4
330
17
100
AcDbEntity
  8
4
100
AcDbLine
 10
401.2475907339324
 20
117.3806151503537
 30
0.0
 11
401.2475907339324
 21
191.3806161503538
 31
0.0
  0
LINE
  5
1A5
330
17
100
AcDbEntity
  8
4
100
AcDbLine
 10
396.2475912339323
 20
119.3806161503538
 30
0.0
 11
396.2475912339323
 21
173.3806161503538
 31
0.0
  0
LINE
  5
1A8
330
17
100
AcDbEntity
  8
4
100
AcDbLine
 10
414.2475912339323
 20
80.13072215035373
 30
0.0
 11
409.2475917339323
 21
80.13072215035373
 31
0.0
  0
ARC
  5
1A9
330
17
100
AcDbEntity
  8
4
100
AcDbCircle
 10
412.2475917339323
 20
84.38089115035365
 30
0.0
 40
1.0000005
100
AcDbArc
 50
180.0
 51
270.0
  0
LINE
  5
1AA
330
17
100
AcDbEntity
  8
4
100
AcDbLine
 10
411.2475912339323
 20
92.63070815035377
 30
0.0
 11
409.2475917339323
 21
92.63070815035377
 31
0.0
  0
LINE
  5
1AB
330
17
100
AcDbEntity
  8
4
100
AcDbLine
 10
409.2475917339323
 20
73.88070815035377
 30
0.0
 11
416.2475907339324
 21
73.88070815035377
 31
0.0
  0
LINE
  5
1AC
330
17
100
AcDbEntity
  8
4
100
AcDbLine
 10
416.2475907339324
 20
83.3808906503537
 30
0.0
 11
416.2475907339324
 21
73.88070815035377
 31
0.0
  0
LINE
  5
1AD
330
17
100
AcDbEntity
  8
4
100
AcDbLine
 10
414.2475912339323
 20
83.3808906503537
 30
0.0
 11
414.2475912339323
 21
73.88070815035377
 31
0.0
  0
LINE
  5
1AE
330
17
100
AcDbEntity
  8
4
100
AcDbLine
 10
415.7475912339323
 20
47.88070715035366
 30
0.0
 11
415.7475912339323
 21
47.38070715035377
 31
0.0
  0
ARC
  5
1AF
330
17
100
AcDbEntity
  8
4
100
AcDbCircle
 10
397.2475917339323
 20
44.38070715035366
 30
0.0
 40
3.0
100
AcDbArc
 50
90.0
 51
180.0005920001451
  0
LINE
  5
1BD
330
17
100
AcDbEntity
  8
L-CENTER
 48
1.5
100
AcDbLine
 10
408.7475907339324
 20
52.38070765035371
 30
0.0
 11
408.7475907339324
 21
21.38070765035371
 31
0.0
  0
LINE
  5
1BE
330
17
100
AcDbEntity
  8
4
100
AcDbLine
 10
394.2475917339323
 20
26.38070765035371
 30
0.0
 11
394.2475917339323
 21
44.38070715035366
 31
0.0
  0
LINE
  5
1C3
330
17
100
AcDbEntity
  8
4
100
AcDbLine
 10
409.2475917339323
 20
73.88070815035377
 30
0.0
 11
409.2475917339323
 21
98.88070715035366
 31
0.0
  0
LINE
  5
1C9
330
17
100
AcDbEntity
  8
4
100
AcDbLine
 10
236.3117904015533
 20
109.8806466503536
 30
0.0
 11
237.3117909015532
 21
109.8806466503536
 31
0.0
  0
LINE
  5
1CA
330
17
100
AcDbEntity
  8
4
100
AcDbLine
 10
251.3117904015533
 20
96.38064665035375
 30
0.0
 11
251.3117904015533
 21
94.3806471503537
 31
0.0
  0
LINE
  5
1CB
330
17
100
AcDbEntity
  8
4
100
AcDbLine
 10
237.3117909015532
 20
96.38064665035375
 30
0.0
 11
248.3117904015533
 21
96.38064665035375
 31
0.0
  0
LINE
  5
1CD
330
17
100
AcDbEntity
  8
4
100
AcDbLine
 10
283.3116534015533
 20
96.38064665035375
 30
0.0
 11
251.3117904015533
 21
96.38064665035375
 31
0.0
  0
LINE
  5
1CE
330
17
100
AcDbEntity
  8
4
100
AcDbLine
 10
282.3116529015533
 20
94.3806471503537
 30
0.0
 11
248.3117904015533
 21
94.3806471503537
 31
0.0
  0
ARC
  5
1D1
330
17
100
AcDbEntity
  8
4
100
AcDbCircle
 10
222.6652149015533
 20
200.7341316503537
 30
0.0
 40
2.999994
100
AcDbArc
 50
16.01441000000017
 51
73.9840320000023
  0
ARC
  5
1D2
330
17
100
AcDbEntity
  8
4
100
AcDbCircle
 10
188.5618209015536
 20
180.9736972375791
 30
0.0
 40
2.5
100
AcDbArc
 50
0.0
 51
60.00000000001174
  0
LINE
  5
1D3
330
17
100
AcDbEntity
  8
4
100
AcDbLine
 10
191.0618209015536
 20
180.9736972375794
 30
0.0
 11
191.0618209015538
 21
179.9736972375796
 31
0.0
  0
ARC
  5
1D4
330
17
100
AcDbEntity
  8
4
100
AcDbCircle
 10
190.5618209015527
 20
188.9736972375791
 30
0.0
 40
0.5
100
AcDbArc
 50
0.0
 51
90.0
  0
ARC
  5
1D5
330
17
100
AcDbEntity
  8
4
100
AcDbCircle
 10
190.5618209015529
 20
186.9736972375791
 30
0.0
 40
0.5
100
AcDbArc
 50
270.0
 51
0.0
  0
LINE
  5
1D6
330
17
100
AcDbEntity
  8
4
100
AcDbLine
 10
190.5618209015528
 20
186.4736972375791
 30
0.0
 11
190.5618209015529
 21
186.4736972375791
 31
0.0
  0
LINE
  5
1D7
330
17
100
AcDbEntity
  8
4
100
AcDbLine
 10
189.0618209015528
 20
184.9736972375789
 30
0.0
 11
189.0618209015529
 21
184.4377988527173
 31
0.0
  0
ARC
  5
1D8
330
17
100
AcDbEntity
  8
4
100
AcDbCircle
 10
190.5618209015529
 20
184.4377988527173
 30
0.0
 40
1.5
100
AcDbArc
 50
180.0
 51
240.0000000000102
  0
ARC
  5
1D9
330
17
100
AcDbEntity
  8
4
100
AcDbCircle
 10
190.5618209015528
 20
184.9736972375791
 30
0.0
 40
1.5
100
AcDbArc
 50
90.0
 51
180.0
  0
LINE
  5
1DA
330
17
100
AcDbEntity
  8
4
100
AcDbLine
 10
191.0618209015527
 20
188.9736972375794
 30
0.0
 11
191.0618209015529
 21
186.9736972375791
 31
0.0
  0
ARC
  5
1DB
330
17
100
AcDbEntity
  8
4
100
AcDbCircle
 10
193.061820901553
 20
186.3360600848167
 30
0.0
 40
1.0
100
AcDbArc
 50
58.22426975111379
 51
180.0
  0
ARC
  5
1DC
330
17
100
AcDbEntity
  8
4
100
AcDbCircle
 10
191.0618209015526
 20
191.4736972375791
 30
0.0
 40
1.0
100
AcDbArc
 50
0.0
 51
90.0
  0
ARC
  5
1DD
330
17
100
AcDbEntity
  8
4
100
AcDbCircle
 10
182.0618209015539
 20
182.4736972375791
 30
0.0
 40
2.0
100
AcDbArc
 50
281.5369590328182
 51
78.46304096719847
  0
ARC
  5
1DE
330
17
100
AcDbEntity
  8
4
100
AcDbCircle
 10
182.5618209015541
 20
180.0242074947953
 30
0.0
 40
0.5
100
AcDbArc
 50
101.5369590328181
 51
180.0
  0
LINE
  5
1DF
330
17
100
AcDbEntity
  8
4
100
AcDbLine
 10
180.061820901554
 20
178.9736972375794
 30
0.0
 11
180.061820901554
 21
177.9736972375791
 31
0.0
  0
LINE
  5
1E0
330
17
100
AcDbEntity
  8
4
100
AcDbLine
 10
182.0618209015541
 20
180.0242074947952
 30
0.0
 11
182.0618209015546
 21
177.9736972375791
 31
0.0
  0
ARC
  5
1E1
330
17
100
AcDbEntity
  8
4
100
AcDbCircle
 10
182.5618209015527
 20
188.9736972375791
 30
0.0
 40
0.5
100
AcDbArc
 50
90.0
 51
180.0
  0
ARC
  5
1E2
330
17
100
AcDbEntity
  8
4
100
AcDbCircle
 10
182.5618209015535
 20
184.9231869803631
 30
0.0
 40
0.5
100
AcDbArc
 50
180.0
 51
258.4630409671946
  0
LINE
  5
1E3
330
17
100
AcDbEntity
  8
4
100
AcDbLine
 10
182.0618209015528
 20
188.9736972375791
 30
0.0
 11
182.0618209015535
 21
184.923186980363
 31
0.0
  0
LINE
  5
1E4
330
17
100
AcDbEntity
  8
4
100
AcDbLine
 10
176.0618209015527
 20
188.9736972375794
 30
0.0
 11
176.061820901554
 21
177.9736972375791
 31
0.0
  0
LINE
  5
1E5
330
17
100
AcDbEntity
  8
4
100
AcDbLine
 10
173.0618209015529
 20
188.9736972375791
 30
0.0
 11
173.0618209015536
 21
177.9736972375791
 31
0.0
  0
LINE
  5
1E6
330
17
100
AcDbEntity
  8
4
100
AcDbLine
 10
178.5618209015538
 20
179.4736972375791
 30
0.0
 11
179.561820901554
 21
179.4736972375791
 31
0.0
  0
LINE
  5
1E7
330
17
100
AcDbEntity
  8
4
100
AcDbLine
 10
178.0618209015538
 20
178.9736972375791
 30
0.0
 11
178.0618209015538
 21
177.9736972375791
 31
0.0
  0
ARC
  5
1E8
330
17
100
AcDbEntity
  8
4
100
AcDbCircle
 10
178.5618209015538
 20
178.9736972375791
 30
0.0
 40
0.5
100
AcDbArc
 50
90.0
 51
180.0
  0
ARC
  5
1E9
330
17
100
AcDbEntity
  8
4
100
AcDbCircle
 10
175.5618209015527
 20
188.9736972375791
 30
0.0
 40
0.5
100
AcDbArc
 50
0.0
 51
90.0
  0
ARC
  5
1EA
330
17
100
AcDbEntity
  8
4
100
AcDbCircle
 10
173.5618209015529
 20
188.9736972375791
 30
0.0
 40
0.5
100
AcDbArc
 50
90.0
 51
180.0
  0
LINE
  5
1EB
330
17
100
AcDbEntity
  8
4
100
AcDbLine
 10
173.5618209015529
 20
189.4736972375791
 30
0.0
 11
175.5618209015527
 21
189.4736972375791
 31
0.0
  0
ARC
  5
1EC
330
17
100
AcDbEntity
  8
4
100
AcDbCircle
 10
179.561820901554
 20
178.9736972375791
 30
0.0
 40
0.5
100
AcDbArc
 50
0.0
 51
90.0
  0
LINE
  5
1ED
330
17
100
AcDbEntity
  8
4
100
AcDbLine
 10
182.5618209015527
 20
189.4736972375791
 30
0.0
 11
190.5618209015527
 21
189.4736972375791
 31
0.0
  0
ARC
  5
1EE
330
17
100
AcDbEntity
  8
4
100
AcDbCircle
 10
191.4995949015532
 20
169.5683601503537
 30
0.0
 40
3.0000315
100
AcDbArc
 50
13.83310300000032
 51
76.17012699999812
  0
ARC
  5
1EF
330
17
100
AcDbEntity
  8
4
100
AcDbCircle
 10
189.8829429015532
 20
167.9516601503537
 30
0.0
 40
2.9999625
100
AcDbArc
 50
12.85072700000012
 51
77.1515839999998
  0
ARC
  5
1F0
330
17
100
AcDbEntity
  8
4
100
AcDbCircle
 10
193.0618209015544
 20
173.2506475362194
 30
0.0
 40
1.0
100
AcDbArc
 50
180.0
 51
247.0102305444219
  0
LINE
  5
1F1
330
17
100
AcDbEntity
  8
4
100
AcDbLine
 10
178.5618209015538
 20
177.4736972375791
 30
0.0
 11
179.561820901554
 21
177.4736972375791
 31
0.0
  0
LINE
  5
1F2
330
17
100
AcDbEntity
  8
4
100
AcDbLine
 10
173.5618209015536
 20
177.4736972375791
 30
0.0
 11
175.561820901554
 21
177.4736972375791
 31
0.0
  0
LINE
  5
1F3
330
17
100
AcDbEntity
  8
4
100
AcDbLine
 10
182.5618209015543
 20
177.4736972375791
 30
0.0
 11
188.5618209015538
 21
177.4736972375791
 31
0.0
  0
LINE
  5
1F4
330
17
100
AcDbEntity
  8
4
100
AcDbLine
 10
192.0618209015544
 20
173.3437286234446
 30
0.0
 11
192.0618209015523
 21
191.4736972375792
 31
0.0
  0
ARC
  5
1F5
330
17
100
AcDbEntity
  8
4
100
AcDbCircle
 10
179.561820901554
 20
177.9736972375791
 30
0.0
 40
0.5
100
AcDbArc
 50
270.0
 51
0.0
  0
ARC
  5
1F6
330
17
100
AcDbEntity
  8
4
100
AcDbCircle
 10
182.5618209015543
 20
177.9736972375791
 30
0.0
 40
0.5
100
AcDbArc
 50
180.0
 51
270.0
  0
ARC
  5
1F7
330
17
100
AcDbEntity
  8
4
100
AcDbCircle
 10
188.5618209015538
 20
179.9736972375791
 30
0.0
 40
2.5
100
AcDbArc
 50
270.0
 51
0.0
  0
ARC
  5
1F8
330
17
100
AcDbEntity
  8
4
100
AcDbCircle
 10
175.561820901554
 20
177.9736972375791
 30
0.0
 40
0.5
100
AcDbArc
 50
270.0
 51
0.0
  0
ARC
  5
1F9
330
17
100
AcDbEntity
  8
4
100
AcDbCircle
 10
173.5618209015536
 20
177.9736972375791
 30
0.0
 40
0.5
100
AcDbArc
 50
180.0
 51
270.0
  0
ARC
  5
1FA
330
17
100
AcDbEntity
  8
4
100
AcDbCircle
 10
178.5618209015538
 20
177.9736972375791
 30
0.0
 40
0.5
100
AcDbArc
 50
180.0
 51
270.0
  0
ARC
  5
1FB
330
17
100
AcDbEntity
  8
4
100
AcDbCircle
 10
233.6958219015532
 20
120.8807076503537
 30
0.0
 40
1.9999995
100
AcDbArc
 50
172.7477929999999
 51
270.0
  0
ARC
  5
1FC
330
17
100
AcDbEntity
  8
4
100
AcDbCircle
 10
191.4995499015532
 20
123.1931616503537
 30
0.0
 40
2.9999985
100
AcDbArc
 50
283.8310500000015
 51
346.1707739999993
  0
ARC
  5
1FD
330
17
100
AcDbEntity
  8
4
100
AcDbCircle
 10
189.8828964015532
 20
124.8098151503537
 30
0.0
 40
2.9999985
100
AcDbArc
 50
282.849591
 51
347.152254
  0
ARC
  5
1FE
330
17
100
AcDbEntity
  8
4
100
AcDbCircle
 10
97.31182140155329
 20
146.3808606503538
 30
0.0
 40
100.000008
100
AcDbArc
 50
346.170765
 51
13.83034799999998
  0
ARC
  5
1FF
330
17
100
AcDbEntity
  8
4
100
AcDbCircle
 10
95.31182190155323
 20
146.3808606503538
 30
0.0
 40
99.999999
100
AcDbArc
 50
347.1521210000001
 51
12.848882
  0
ARC
  5
200
330
17
100
AcDbEntity
  8
4
100
AcDbCircle
 10
168.3118209015532
 20
146.3806161503537
 30
0.0
 40
48.0
100
AcDbArc
 50
287.1462699676134
 51
58.22426975110955
  0
LINE
  5
201
330
17
100
AcDbEntity
  8
4
100
AcDbLine
 10
233.6958219015532
 20
118.8807081503538
 30
0.0
 11
236.3118219015532
 21
118.8807081503538
 31
0.0
  0
LINE
  5
203
330
17
100
AcDbEntity
  8
4
100
AcDbLine
 10
282.3116529015533
 20
78.38064665035375
 30
0.0
 11
283.3116534015533
 21
79.3806471503537
 31
0.0
  0
LINE
  5
204
330
17
100
AcDbEntity
  8
4
100
AcDbLine
 10
237.3117909015532
 20
76.3806471503537
 30
0.0
 11
248.3117904015533
 21
76.3806471503537
 31
0.0
  0
LINE
  5
206
330
17
100
AcDbEntity
  8
4
100
AcDbLine
 10
236.3117904015533
 20
62.8806471503537
 30
0.0
 11
237.3117909015532
 21
62.8806471503537
 31
0.0
  0
LINE
  5
207
330
17
100
AcDbEntity
  8
4
100
AcDbLine
 10
282.3116529015533
 20
78.38064665035375
 30
0.0
 11
248.3117904015533
 21
78.38064665035375
 31
0.0
  0
TEXT
  5
20A
330
17
100
AcDbEntity
  8
3
100
AcDbText
 10
304.3659754490623
 20
12.05363872499728
 30
0.0
 40
4.5
  1
LA1.5-08
  7
KANJI
 72
     1
 11
318.9909754490623
 21
12.05363872499728
 31
0.0
100
AcDbText
  0
ARC
  5
20D
330
17
100
AcDbEntity
  8
4
100
AcDbCircle
 10
222.6652749015532
 20
92.0275281503537
 30
0.0
 40
3.0000045
100
AcDbArc
 50
286.0170880000019
 51
343.9853149999998
  0
ARC
  5
20E
330
17
100
AcDbEntity
  8
4
100
AcDbCircle
 10
228.8118219015532
 20
44.38070765035371
 30
0.0
 40
3.0
100
AcDbArc
 50
0.0
 51
90.0
  0
ARC
  5
20F
330
17
100
AcDbEntity
  8
4
100
AcDbCircle
 10
232.8843084015532
 20
51.88070765035371
 30
0.0
 40
1.9999995
100
AcDbArc
 50
90.0
 51
192.2106129999996
  0
LINE
  5
210
330
17
100
AcDbEntity
  8
4
100
AcDbLine
 10
231.8118219015532
 20
47.38070765035371
 30
0.0
 11
227.0509869015532
 21
69.38070815035377
 31
0.0
  0
LINE
  5
211
330
17
100
AcDbEntity
  8
4
100
AcDbLine
 10
179.1372309015533
 20
80.13070715035366
 30
0.0
 11
179.1372309015533
 21
92.63070815035377
 31
0.0
  0
ARC
  5
212
330
17
100
AcDbEntity
  8
4
100
AcDbCircle
 10
201.3118209015532
 20
50.38070765035371
 30
0.0
 40
3.0
100
AcDbArc
 50
180.0005920001451
 51
270.0008790000003
  0
ARC
  5
213
330
17
100
AcDbEntity
  8
4
100
AcDbCircle
 10
195.3118209015532
 20
45.38070815035377
 30
0.0
 40
1.9999995
100
AcDbArc
 50
90.0
 51
180.0
  0
LINE
  5
214
330
17
100
AcDbEntity
  8
4
100
AcDbLine
 10
198.3118209015532
 20
83.64369215035373
 30
0.0
 11
198.3118209015532
 21
50.38070765035371
 31
0.0
  0
LINE
  5
215
330
17
100
AcDbEntity
  8
4
100
AcDbLine
 10
195.3118209015532
 20
47.38070765035371
 30
0.0
 11
231.8118219015532
 21
47.38070765035371
 31
0.0
  0
ARC
  5
216
330
17
100
AcDbEntity
  8
4
100
AcDbCircle
 10
168.3117909015532
 20
281.3808606503538
 30
0.0
 40
199.999998
100
AcDbArc
 50
274.411537
 51
286.01685
  0
LINE
  5
217
330
17
100
AcDbEntity
  8
4
100
AcDbLine
 10
198.3118209015532
 20
69.38070815035377
 30
0.0
 11
227.0509869015532
 21
69.38070815035377
 31
0.0
  0
LINE
  5
21D
330
17
100
AcDbEntity
  8
4
100
AcDbLine
 10
198.3118209015532
 20
28.38070715035366
 30
0.0
 11
198.3118209015532
 21
26.38070765035371
 31
0.0
  0
ARC
  5
21E
330
17
100
AcDbEntity
  8
4
100
AcDbCircle
 10
195.3118209015532
 20
28.38070715035366
 30
0.0
 40
3.0
100
AcDbArc
 50
0.0
 51
90.0
  0
LINE
  5
21F
330
17
100
AcDbEntity
  8
4
100
AcDbLine
 10
198.3118209015532
 20
26.38070765035371
 30
0.0
 11
231.8118219015532
 21
26.38070765035371
 31
0.0
  0
LINE
  5
220
330
17
100
AcDbEntity
  8
4
100
AcDbLine
 10
193.3118214015533
 20
45.38070815035377
 30
0.0
 11
193.3118214015533
 21
31.38070715035366
 31
0.0
  0
LINE
  5
221
330
17
100
AcDbEntity
  8
L-CENTER
 48
1.5
100
AcDbLine
 10
218.3118219015532
 20
52.38070765035371
 30
0.0
 11
218.3118219015532
 21
21.38070765035371
 31
0.0
  0
LINE
  5
222
330
17
100
AcDbEntity
  8
4
100
AcDbLine
 10
231.8118219015532
 20
26.38070765035371
 30
0.0
 11
231.8118219015532
 21
47.38070765035371
 31
0.0
  0
LINE
  5
223
330
17
100
AcDbEntity
  8
4
100
AcDbLine
 10
223.8118209015532
 20
47.38070765035371
 30
0.0
 11
223.8118209015532
 21
26.38070765035371
 31
0.0
  0
LINE
  5
224
330
17
100
AcDbEntity
  8
4
100
AcDbLine
 10
212.8118214015533
 20
47.38070765035371
 30
0.0
 11
212.8118214015533
 21
26.38070765035371
 31
0.0
  0
LWPOLYLINE
  5
225
330
17
100
AcDbEntity
  8
4
100
AcDbPolyline
 90
       30
 70
     0
 43
0.0
 10
206.3169984015533
 20
47.41001915035378
 10
206.4649224015532
 20
46.99585115035376
 10
206.6086104015533
 20
46.58175365035373
 10
206.7438219015532
 20
46.1678001503538
 10
207.0562209015533
 20
44.92752815035368
 10
207.1151484015533
 20
44.51487215035371
 10
207.1444119015532
 20
44.10272165035377
 10
207.1397709015532
 20
43.69114715035374
 10
207.0985539015533
 20
43.28001215035368
 10
207.0244854015532
 20
42.86946365035379
 10
206.9228874015532
 20
42.45943865035366
 10
206.5061544015532
 20
41.23187915035379
 10
206.0333094015532
 20
40.00677365035375
 10
205.6480914015533
 20
38.78242415035373
 10
205.5640014015532
 20
38.37418415035376
 10
205.5109419015532
 20
37.96577615035375
 10
205.4942364015533
 20
37.55713865035369
 10
205.5387744015533
 20
36.97457915035369
 10
205.6536369015532
 20
36.39172565035375
 10
205.8245739015533
 20
35.80887815035368
 10
206.5313004015533
 20
34.06337465035375
 10
207.2296104015533
 20
32.32872965035375
 10
207.3939999015532
 20
31.75432715035373
 10
207.5004444015533
 20
31.18233065035366
 10
207.5346954015533
 20
30.61304165035375
 10
207.4335579015533
 20
29.76237815035375
 10
207.1760544015533
 20
28.91715365035367
 10
206.8012764015532
 20
28.07600765035369
 10
206.3483124015532
 20
27.23757965035367
 10
205.8562584015533
 20
26.40051215035368
  0
LINE
  5
226
330
17
100
AcDbEntity
  8
4
100
AcDbLine
 10
232.8843084015532
 20
53.88070715035366
 30
0.0
 11
236.3118219015532
 21
53.88070715035366
 31
0.0
  0
ARC
  5
22A
330
17
100
AcDbEntity
  8
4
100
AcDbCircle
 10
33.31182090155323
 20
146.3806161503538
 30
0.0
 40
199.9999815
100
AcDbArc
 50
343.985375
 51
16.01578399999999
  0
LINE
  5
22B
330
17
100
AcDbEntity
  8
4
100
AcDbLine
 10
236.3118219015532
 20
118.8807081503538
 30
0.0
 11
236.3118219015532
 21
53.88070715035366
 31
0.0
  0
LINE
  5
22C
330
17
100
AcDbEntity
  8
4
100
AcDbLine
 10
237.3117909015532
 20
109.8806466503536
 30
0.0
 11
237.3117909015532
 21
62.8806471503537
 31
0.0
  0
LINE
  5
22D
330
17
100
AcDbEntity
  8
4
100
AcDbLine
 10
248.3117904015533
 20
96.38064665035375
 30
0.0
 11
248.3117904015533
 21
76.3806471503537
 31
0.0
  0
LINE
  5
22E
330
17
100
AcDbEntity
  8
4
100
AcDbLine
 10
283.3116534015533
 20
79.3806471503537
 30
0.0
 11
283.3116534015533
 21
96.38064665035375
 31
0.0
  0
LINE
  5
22F
330
17
100
AcDbEntity
  8
4
100
AcDbLine
 10
282.3116529015533
 20
78.38064665035375
 30
0.0
 11
282.3116529015533
 21
94.3806471503537
 31
0.0
  0
LINE
  5
230
330
17
100
AcDbEntity
  8
4
100
AcDbLine
 10
283.3116534015533
 20
93.38064665035375
 30
0.0
 11
282.3116529015533
 21
94.3806471503537
 31
0.0
  0
LINE
  5
254
330
17
100
AcDbEntity
  8
4
100
AcDbLine
 10
171.0618209015529
 20
184.4736972375791
 30
0.0
 11
171.0618209015531
 21
182.4736972375791
 31
0.0
  0
ARC
  5
255
330
17
100
AcDbEntity
  8
4
100
AcDbCircle
 10
170.5618209015531
 20
182.4736972375791
 30
0.0
 40
0.5
100
AcDbArc
 50
270.0
 51
0.0
  0
ARC
  5
256
330
17
100
AcDbEntity
  8
4
100
AcDbCircle
 10
170.5618209015529
 20
184.4736972375791
 30
0.0
 40
0.5
100
AcDbArc
 50
0.0
 51
90.0
  0
LINE
  5
257
330
17
100
AcDbEntity
  8
4
100
AcDbLine
 10
168.0618209015531
 20
184.4736972375791
 30
0.0
 11
168.0618209015529
 21
182.4736972375791
 31
0.0
  0
ARC
  5
258
330
17
100
AcDbEntity
  8
4
100
AcDbCircle
 10
168.5618209015529
 20
182.4736972375791
 30
0.0
 40
0.5
100
AcDbArc
 50
180.0
 51
270.0
  0
ARC
  5
259
330
17
100
AcDbEntity
  8
4
100
AcDbCircle
 10
168.5618209015531
 20
184.4736972375791
 30
0.0
 40
0.5
100
AcDbArc
 50
90.0
 51
180.0
  0
LINE
  5
25A
330
17
100
AcDbEntity
  8
4
100
AcDbLine
 10
168.5618209015529
 20
181.9736972375791
 30
0.0
 11
170.5618209015531
 21
181.9736972375791
 31
0.0
  0
LINE
  5
25B
330
17
100
AcDbEntity
  8
4
100
AcDbLine
 10
168.5618209015531
 20
184.9736972375791
 30
0.0
 11
170.5618209015529
 21
184.9736972375791
 31
0.0
  0
ARC
  5
25C
330
17
100
AcDbEntity
  8
4
100
AcDbCircle
 10
162.1714326983509
 20
188.9736972375791
 30
0.0
 40
0.5
100
AcDbArc
 50
14.03624346792646
 51
90.0
  0
ARC
  5
25D
330
17
100
AcDbEntity
  8
4
100
AcDbCircle
 10
159.9522091047554
 20
188.9736972375791
 30
0.0
 40
0.5
100
AcDbArc
 50
90.0
 51
165.9637565320735
  0
LINE
  5
25E
330
17
100
AcDbEntity
  8
4
100
AcDbLine
 10
159.9522091047554
 20
189.4736972375791
 30
0.0
 11
162.1714326983509
 21
189.4736972375791
 31
0.0
  0
ARC
  5
25F
330
17
100
AcDbEntity
  8
4
100
AcDbCircle
 10
161.0618209015533
 20
177.4736972375791
 30
0.0
 40
1.407670780786852
100
AcDbArc
 50
15.19468935275792
 51
164.8053106472395
  0
LINE
  5
260
330
17
100
AcDbEntity
  8
4
100
AcDbLine
 10
159.4671378546827
 20
189.0949650500972
 30
0.0
 11
156.7171378546827
 21
178.0949650500972
 31
0.0
  0
LINE
  5
261
330
17
100
AcDbEntity
  8
4
100
AcDbLine
 10
162.6565039484236
 20
189.0949650500973
 30
0.0
 11
165.4065039484238
 21
178.0949650500972
 31
0.0
  0
ARC
  5
262
330
17
100
AcDbEntity
  8
4
100
AcDbCircle
 10
153.5618209015529
 20
179.9736972375791
 30
0.0
 40
0.5
100
AcDbArc
 50
0.0
 51
90.0
  0
LINE
  5
263
330
17
100
AcDbEntity
  8
4
100
AcDbLine
 10
154.0618209015529
 20
179.9736972375791
 30
0.0
 11
154.0618209015529
 21
177.9736972375791
 31
0.0
  0
ARC
  5
264
330
17
100
AcDbEntity
  8
4
100
AcDbCircle
 10
148.0618209015531
 20
188.9736972375791
 30
0.0
 40
0.5
100
AcDbArc
 50
0.0
 51
90.0
  0
ARC
  5
265
330
17
100
AcDbEntity
  8
4
100
AcDbCircle
 10
149.0618209015529
 20
180.9736972375791
 30
0.0
 40
0.5
100
AcDbArc
 50
180.0
 51
270.0
  0
LINE
  5
266
330
17
100
AcDbEntity
  8
4
100
AcDbLine
 10
148.5618209015531
 20
188.9736972375791
 30
0.0
 11
148.5618209015529
 21
180.9736972375791
 31
0.0
  0
LINE
  5
267
330
17
100
AcDbEntity
  8
4
100
AcDbLine
 10
149.0618209015529
 20
180.4736972375791
 30
0.0
 11
153.5618209015529
 21
180.4736972375791
 31
0.0
  0
ARC
  5
268
330
17
100
AcDbEntity
  8
4
100
AcDbCircle
 10
143.5618209015535
 20
186.3360600848167
 30
0.0
 40
1.0
100
AcDbArc
 50
0.0
 51
121.7757302488862
  0
ARC
  5
269
330
17
100
AcDbEntity
  8
4
100
AcDbCircle
 10
146.0618209015531
 20
188.9736972375791
 30
0.0
 40
0.5
100
AcDbArc
 50
90.0
 51
180.0
  0
LINE
  5
26A
330
17
100
AcDbEntity
  8
4
100
AcDbLine
 10
145.5618209015531
 20
188.9736972375791
 30
0.0
 11
145.5618209015531
 21
177.9736972375791
 31
0.0
  0
LINE
  5
26B
330
17
100
AcDbEntity
  8
4
100
AcDbLine
 10
146.0618209015531
 20
189.4736972375791
 30
0.0
 11
148.0618209015531
 21
189.4736972375791
 31
0.0
  0
ARC
  5
26C
330
17
100
AcDbEntity
  8
4
100
AcDbCircle
 10
145.5618209015539
 20
191.4736972375791
 30
0.0
 40
1.0
100
AcDbArc
 50
90.0
 51
180.0
  0
LINE
  5
26D
330
17
100
AcDbEntity
  8
4
100
AcDbLine
 10
157.2022091047554
 20
177.4736972375791
 30
0.0
 11
159.2208407800204
 21
177.4736972375791
 31
0.0
  0
LINE
  5
26E
330
17
100
AcDbEntity
  8
4
100
AcDbLine
 10
162.9028010230862
 20
177.4736972375791
 30
0.0
 11
164.9214326983512
 21
177.4736972375791
 31
0.0
  0
ARC
  5
26F
330
17
100
AcDbEntity
  8
4
100
AcDbCircle
 10
141.5618214015533
 20
171.3879216503538
 30
0.0
 40
1.0000005
100
AcDbArc
 50
332.9423539999975
 51
0.0
  0
ARC
  5
270
330
17
100
AcDbEntity
  8
4
100
AcDbCircle
 10
145.1240469015532
 20
169.5683601503537
 30
0.0
 40
3.0000315
100
AcDbArc
 50
103.8298549999992
 51
166.166892
  0
ARC
  5
271
330
17
100
AcDbEntity
  8
4
100
AcDbCircle
 10
146.7407454015532
 20
167.9516601503537
 30
0.0
 40
2.9999625
100
AcDbArc
 50
102.8484160000002
 51
167.1492690000004
  0
ARC
  5
272
330
17
100
AcDbEntity
  8
4
100
AcDbCircle
 10
143.5618209015521
 20
173.2506475362194
 30
0.0
 40
1.0
100
AcDbArc
 50
292.9897694555781
 51
0.0
  0
LINE
  5
273
330
17
100
AcDbEntity
  8
4
100
AcDbLine
 10
146.0618209015531
 20
177.4736972375791
 30
0.0
 11
153.5618209015529
 21
177.4736972375791
 31
0.0
  0
LINE
  5
274
330
17
100
AcDbEntity
  8
4
100
AcDbLine
 10
144.5618209015521
 20
173.3437286234446
 30
0.0
 11
144.5618209015541
 21
191.4736972375792
 31
0.0
  0
ARC
  5
275
330
17
100
AcDbEntity
  8
4
100
AcDbCircle
 10
164.9214326983512
 20
177.9736972375791
 30
0.0
 40
0.5
100
AcDbArc
 50
270.0
 51
14.03624346792646
  0
ARC
  5
276
330
17
100
AcDbEntity
  8
4
100
AcDbCircle
 10
162.9028010230862
 20
177.973697237579
 30
0.0
 40
0.5
100
AcDbArc
 50
195.1946893527612
 51
270.0
  0
ARC
  5
277
330
17
100
AcDbEntity
  8
4
100
AcDbCircle
 10
157.2022091047554
 20
177.9736972375791
 30
0.0
 40
0.5
100
AcDbArc
 50
165.9637565320735
 51
270.0
  0
ARC
  5
278
330
17
100
AcDbEntity
  8
4
100
AcDbCircle
 10
153.5618209015529
 20
177.9736972375791
 30
0.0
 40
0.5
100
AcDbArc
 50
270.0
 51
0.0
  0
ARC
  5
279
330
17
100
AcDbEntity
  8
4
100
AcDbCircle
 10
159.2208407800204
 20
177.9736972375791
 30
0.0
 40
0.5
100
AcDbArc
 50
270.0
 51
344.8053106472387
  0
ARC
  5
27A
330
17
100
AcDbEntity
  8
4
100
AcDbCircle
 10
146.0618209015531
 20
177.9736972375791
 30
0.0
 40
0.5
100
AcDbArc
 50
180.0
 51
270.0
  0
ARC
  5
27B
330
17
100
AcDbEntity
  8
4
100
AcDbCircle
 10
113.9585199015532
 20
200.7341316503537
 30
0.0
 40
3.000006
100
AcDbArc
 50
106.0165369999994
 51
163.9856689999997
  0
ARC
  5
27C
330
17
100
AcDbEntity
  8
4
100
AcDbCircle
 10
145.1240469015532
 20
123.1931616503537
 30
0.0
 40
2.9999985
100
AcDbArc
 50
193.8304260000003
 51
256.1701489999988
  0
ARC
  5
27D
330
17
100
AcDbEntity
  8
4
100
AcDbCircle
 10
146.7407454015532
 20
124.8098151503537
 30
0.0
 40
2.9999985
100
AcDbArc
 50
192.8489500000003
 51
257.1516270000004
  0
ARC
  5
27E
330
17
100
AcDbEntity
  8
4
100
AcDbCircle
 10
241.3117899015533
 20
146.3808606503538
 30
0.0
 40
100.0000065
100
AcDbArc
 50
167.151693
 51
192.848918
  0
ARC
  5
27F
330
17
100
AcDbEntity
  8
4
100
AcDbCircle
 10
239.3117904015533
 20
146.3808606503538
 30
0.0
 40
100.0000005
100
AcDbArc
 50
166.170369
 51
193.8302779999999
  0
ARC
  5
280
330
17
100
AcDbEntity
  8
4
100
AcDbCircle
 10
168.3118209015532
 20
146.3806161503537
 30
0.0
 40
48.0
100
AcDbArc
 50
121.7757302488904
 51
252.8537300323866
  0
LINE
  5
281
330
17
100
AcDbEntity
  8
4
100
AcDbLine
 10
102.9276444015533
 20
118.8807081503538
 30
0.0
 11
100.3117899015533
 21
118.8807081503538
 31
0.0
  0
ARC
  5
282
330
17
100
AcDbEntity
  8
4
100
AcDbCircle
 10
102.9276444015533
 20
120.8807076503537
 30
0.0
 40
1.9999995
100
AcDbArc
 50
270.0
 51
7.2522070000001
  0
LINE
  5
283
330
17
100
AcDbEntity
  8
4
100
AcDbLine
 10
100.3117899015533
 20
109.8806466503536
 30
0.0
 11
99.3117909015532
 21
109.8806466503536
 31
0.0
  0
LINE
  5
284
330
17
100
AcDbEntity
  8
4
100
AcDbLine
 10
157.4865954015532
 20
80.1306921503537
 30
0.0
 11
157.4865954015532
 21
92.63070815035377
 31
0.0
  0
LINE
  5
285
330
17
100
AcDbEntity
  8
4
100
AcDbLine
 10
157.4865954015532
 20
80.1306921503537
 30
0.0
 11
168.3117909015532
 21
73.8806931503537
 31
0.0
  0
LINE
  5
286
330
17
100
AcDbEntity
  8
2
100
AcDbLine
 10
168.3118209015532
 20
46.97600765035378
 30
0.0
 11
165.1982004015533
 21
45.17835665035369
 31
0.0
  0
LINE
  5
287
330
17
100
AcDbEntity
  8
2
100
AcDbLine
 10
165.1982004015533
 20
41.58305765035374
 30
0.0
 11
168.3118209015532
 21
39.7854081503537
 31
0.0
  0
LINE
  5
288
330
17
100
AcDbEntity
  8
2
100
AcDbLine
 10
165.1982004015533
 20
45.17835665035369
 30
0.0
 11
165.1982004015533
 21
41.58305765035374
 31
0.0
  0
LINE
  5
289
330
17
100
AcDbEntity
  8
2
100
AcDbLine
 10
171.4254414015533
 20
41.58305765035374
 30
0.0
 11
171.4254414015533
 21
45.17835665035369
 31
0.0
  0
LINE
  5
28A
330
17
100
AcDbEntity
  8
2
100
AcDbLine
 10
168.3118209015532
 20
39.7854081503537
 30
0.0
 11
171.4254414015533
 21
41.58305765035374
 31
0.0
  0
LINE
  5
28B
330
17
100
AcDbEntity
  8
2
100
AcDbLine
 10
171.4254414015533
 20
45.17835665035369
 30
0.0
 11
168.3118209015532
 21
46.97600765035378
 31
0.0
  0
ARC
  5
28C
330
17
100
AcDbEntity
  8
4
100
AcDbCircle
 10
141.3117909015532
 20
45.38070815035377
 30
0.0
 40
1.9999995
100
AcDbArc
 50
0.0
 51
90.0
  0
ARC
  5
28D
330
17
100
AcDbEntity
  8
4
100
AcDbCircle
 10
113.9585199015532
 20
92.0275281503537
 30
0.0
 40
3.0000045
100
AcDbArc
 50
196.015889
 51
253.984111
  0
LINE
  5
28E
330
17
100
AcDbEntity
  8
4
100
AcDbLine
 10
138.3117909015532
 20
69.38070815035377
 30
0.0
 11
109.5727779015533
 21
69.38070815035377
 31
0.0
  0
ARC
  5
28F
330
17
100
AcDbEntity
  8
4
100
AcDbCircle
 10
135.3117909015532
 20
50.38070765035371
 30
0.0
 40
3.0
100
AcDbArc
 50
270.0008790000003
 51
0.0
  0
LINE
  5
290
330
17
100
AcDbEntity
  8
4
100
AcDbLine
 10
138.3117909015532
 20
83.64369215035373
 30
0.0
 11
138.3117909015532
 21
50.38070765035371
 31
0.0
  0
ARC
  5
291
330
17
100
AcDbEntity
  8
4
100
AcDbCircle
 10
168.3117909015532
 20
281.3808606503538
 30
0.0
 40
200.000001
100
AcDbArc
 50
253.9844109999999
 51
265.589722
  0
LINE
  5
292
330
17
100
AcDbEntity
  8
4
100
AcDbLine
 10
138.3117909015532
 20
28.38070715035366
 30
0.0
 11
138.3117909015532
 21
26.38070765035371
 31
0.0
  0
ARC
  5
295
330
17
100
AcDbEntity
  8
4
100
AcDbCircle
 10
141.3117909015532
 20
28.38070715035366
 30
0.0
 40
3.0
100
AcDbArc
 50
90.0
 51
180.0005920001451
  0
LINE
  5
296
330
17
100
AcDbEntity
  8
L-CENTER
 48
1.5
100
AcDbLine
 10
118.3117899015533
 20
52.38070765035371
 30
0.0
 11
118.3117899015533
 21
21.38070765035371
 31
0.0
  0
LINE
  5
297
330
17
100
AcDbEntity
  8
4
100
AcDbLine
 10
143.3117904015533
 20
45.38070815035377
 30
0.0
 11
143.3117904015533
 21
31.38070715035366
 31
0.0
  0
LINE
  5
298
330
17
100
AcDbEntity
  8
4
100
AcDbLine
 10
103.7393349015533
 20
53.88070715035366
 30
0.0
 11
100.3117899015533
 21
53.88070715035366
 31
0.0
  0
LINE
  5
299
330
17
100
AcDbEntity
  8
4
100
AcDbLine
 10
100.3117899015533
 20
62.8806471503537
 30
0.0
 11
99.3117909015532
 21
62.8806471503537
 31
0.0
  0
ARC
  5
29A
330
17
100
AcDbEntity
  8
4
100
AcDbCircle
 10
107.8117899015533
 20
44.38070765035371
 30
0.0
 40
3.0
100
AcDbArc
 50
90.0
 51
180.0005920001451
  0
ARC
  5
29B
330
17
100
AcDbEntity
  8
4
100
AcDbCircle
 10
103.7393349015533
 20
51.88070765035371
 30
0.0
 40
1.9999995
100
AcDbArc
 50
347.7893870000003
 51
90.0
  0
LINE
  5
29E
330
17
100
AcDbEntity
  8
4
100
AcDbLine
 10
104.8117899015533
 20
26.38070765035371
 30
0.0
 11
104.8117899015533
 21
47.38056365035374
 31
0.0
  0
LINE
  5
29F
330
17
100
AcDbEntity
  8
4
100
AcDbLine
 10
104.8118214015533
 20
47.38070765035371
 30
0.0
 11
109.5726549015533
 21
69.38070815035377
 31
0.0
  0
LINE
  5
2A0
330
17
100
AcDbEntity
  8
4
100
AcDbLine
 10
141.3117909015532
 20
47.38070765035371
 30
0.0
 11
104.8118214015533
 21
47.38070765035371
 31
0.0
  0
LINE
  5
2A1
330
17
100
AcDbEntity
  8
4
100
AcDbLine
 10
138.3117909015532
 20
26.38070765035371
 30
0.0
 11
104.8117899015533
 21
26.38070765035371
 31
0.0
  0
LINE
  5
2A2
330
17
100
AcDbEntity
  8
4
100
AcDbLine
 10
100.3117899015533
 20
118.8807081503538
 30
0.0
 11
100.3117899015533
 21
53.88070715035366
 31
0.0
  0
LINE
  5
2A3
330
17
100
AcDbEntity
  8
4
100
AcDbLine
 10
99.3117909015532
 20
109.8806466503536
 30
0.0
 11
99.3117909015532
 21
62.8806471503537
 31
0.0
  0
ARC
  5
2A4
330
17
100
AcDbEntity
  8
4
100
AcDbCircle
 10
303.3116529015533
 20
146.3806161503538
 30
0.0
 40
199.9999905
100
AcDbArc
 50
163.984945
 51
196.01583
  0
ARC
  5
2A5
330
17
100
AcDbEntity
  8
4
100
AcDbCircle
 10
168.3117909015532
 20
86.38070765035371
 30
0.0
 40
20.000001
100
AcDbArc
 50
90.0
 51
179.2603970000002
  0
LINE
  5
2A6
330
17
100
AcDbEntity
  8
4
100
AcDbLine
 10
168.3117909015532
 20
98.88070715035366
 30
0.0
 11
157.4865954015532
 21
92.63070815035377
 31
0.0
  0
LINE
  5
2C8
330
17
100
AcDbEntity
  8
L-CENTER
 48
1.5
100
AcDbLine
 10
236.4529809015532
 20
146.3806161503538
 30
0.0
 11
100.1706609015532
 21
146.3806161503538
 31
0.0
  0
LINE
  5
2C9
330
17
100
AcDbEntity
  8
L-CENTER
 48
1.5
100
AcDbLine
 10
285.6951855933715
 20
86.38070765035371
 30
0.0
 11
50.92842620973499
 21
86.38070765035371
 31
0.0
  0
ARC
  5
2CA
330
17
100
AcDbEntity
  8
4
100
AcDbCircle
 10
168.3117909015532
 20
86.38070765035371
 30
0.0
 40
20.000001
100
AcDbArc
 50
0.7400829999995442
 51
179.2604000000001
  0
LINE
  5
2CB
330
17
100
AcDbEntity
  8
4
100
AcDbLine
 10
195.3118209015532
 20
31.38070715035366
 30
0.0
 11
141.3117909015532
 21
31.38070715035366
 31
0.0
  0
CIRCLE
  5
2CC
330
17
100
AcDbEntity
  8
4
100
AcDbCircle
 10
168.3118209015532
 20
43.38070715035366
 30
0.0
 40
10.0000005
  0
LINE
  5
2CD
330
17
100
AcDbEntity
  8
L-CENTER
 48
1.5
100
AcDbLine
 10
155.3995161680544
 20
43.38070715035366
 30
0.0
 11
181.224125635052
 21
43.38070715035366
 31
0.0
  0
CIRCLE
  5
2CE
330
17
100
AcDbEntity
  8
2
100
AcDbCircle
 10
168.3118209015532
 20
43.38070715035366
 30
0.0
 40
4.7500005
  0
CIRCLE
  5
2CF
330
17
100
AcDbEntity
  8
4
100
AcDbCircle
 10
168.3118209015532
 20
43.38070715035366
 30
0.0
 40
5.2500005
  0
ARC
  5
2D0
330
17
100
AcDbEntity
  8
4
100
AcDbCircle
 10
168.3117909015532
 20
86.38070765035371
 30
0.0
 40
16.0000035
100
AcDbArc
 50
183.37393
 51
356.6255970000001
  0
CIRCLE
  5
2D1
330
17
100
AcDbEntity
  8
4
100
AcDbCircle
 10
168.3117909015532
 20
86.38070765035371
 30
0.0
 40
12.4999995
  0
LINE
  5
2D2
330
17
100
AcDbEntity
  8
4
100
AcDbLine
 10
168.3117909015532
 20
73.8806931503537
 30
0.0
 11
179.1372309015533
 21
80.13070715035366
 31
0.0
  0
LINE
  5
2D3
330
17
100
AcDbEntity
  8
4
100
AcDbLine
 10
179.1372309015533
 20
92.63070815035377
 30
0.0
 11
168.3117909015532
 21
98.88070715035366
 31
0.0
  0
ARC
  5
2D4
330
17
100
AcDbEntity
  8
4
100
AcDbCircle
 10
168.3118209015532
 20
73.38070715035366
 30
0.0
 40
99.99998250000002
100
AcDbArc
 50
77.15098299999997
 51
102.849157
  0
ARC
  5
2D5
330
17
100
AcDbEntity
  8
4
100
AcDbCircle
 10
168.3118209015532
 20
75.38070815035377
 30
0.0
 40
99.9999525
100
AcDbArc
 50
76.16956
 51
103.830579
  0
ARC
  5
2D6
330
17
100
AcDbEntity
  8
4
100
AcDbCircle
 10
168.3118209015532
 20
217.3808601503537
 30
0.0
 40
99.999999
100
AcDbArc
 50
256.170161
 51
283.831133
  0
ARC
  5
2D7
330
17
100
AcDbEntity
  8
4
100
AcDbCircle
 10
168.3118209015532
 20
219.3808611503537
 30
0.0
 40
100.0000035
100
AcDbArc
 50
257.151575
 51
282.849714
  0
LINE
  5
2DC
330
17
100
AcDbEntity
  8
4
100
AcDbLine
 10
145.5618209015539
 20
192.4736972375791
 30
0.0
 11
191.0618209015526
 21
192.4736972375791
 31
0.0
  0
ARC
  5
2DD
330
17
100
AcDbEntity
  8
4
100
AcDbCircle
 10
168.3117909015532
 20
11.38070765035371
 30
0.0
 40
199.999965
100
AcDbArc
 50
73.98401300000002
 51
106.016453
  0
ARC
  5
2DE
330
17
100
AcDbEntity
  8
4
100
AcDbCircle
 10
168.3118209015532
 20
146.3806161503538
 30
0.0
 40
63.0
100
AcDbArc
 50
284.687036
 51
255.314213
  0
LINE
  5
2DF
330
17
100
AcDbEntity
  8
L-CENTER
 48
1.5
100
AcDbLine
 10
168.3118209015532
 20
223.2938706068937
 30
0.0
 11
168.3118209015532
 21
28.49735275745843
 31
0.0
  0
LINE
  5
2E0
330
17
100
AcDbEntity
  8
4
100
AcDbLine
 10
411.2475912339323
 20
208.3806156503537
 30
0.0
 11
411.2475912339323
 21
84.38089115035365
 31
0.0
  0
LINE
  5
2E6
330
17
100
AcDbEntity
  8
L-CENTER
 48
1.5
100
AcDbLine
 10
488.4795939773367
 20
86.38070765035371
 30
0.0
 11
405.0278637339322
 21
86.38070765035371
 31
0.0
  0
LINE
  5
2E7
330
17
100
AcDbEntity
  8
L-CENTER
 48
1.5
100
AcDbLine
 10
510.3155496768998
 20
146.3806161503538
 30
0.0
 11
343.2792687339324
 21
146.3806161503538
 31
0.0
  0
LINE
  5
2E8
330
17
100
AcDbEntity
  8
4
100
AcDbLine
 10
506.2475907339324
 20
47.38070715035366
 30
0.0
 11
397.2475917339323
 21
47.38070715035366
 31
0.0
  0
LINE
  5
2E9
330
17
100
AcDbEntity
  8
4
100
AcDbLine
 10
509.2475907339324
 20
26.38070765035371
 30
0.0
 11
394.2475917339323
 21
26.38070765035371
 31
0.0
  0
LINE
  5
2EA
330
17
100
AcDbEntity
  8
4
100
AcDbLine
 10
417.2475912339323
 20
47.88070715035366
 30
0.0
 11
415.7475912339323
 21
47.88070715035366
 31
0.0
  0
LINE
  5
2EB
330
17
100
AcDbEntity
  8
4
100
AcDbLine
 10
417.7475907339324
 20
74.88070715035366
 30
0.0
 11
416.2475907339324
 21
74.88070715035366
 31
0.0
  0
LINE
  5
2EC
330
17
100
AcDbEntity
  8
4
100
AcDbLine
 10
412.2475917339323
 20
83.3808906503537
 30
0.0
 11
418.2475917339323
 21
83.3808906503537
 31
0.0
  0
LINE
  5
2ED
330
17
100
AcDbEntity
  8
4
100
AcDbLine
 10
412.2475917339323
 20
209.3806161503538
 30
0.0
 11
418.2475917339323
 21
209.3806161503538
 31
0.0
  0
LINE
  5
454
330
17
100
AcDbEntity
  8
4
100
AcDbLine
 10
180.3118209015533
 20
302.8632097345688
 30
0.0
 11
179.3118209015533
 21
301.8632097345688
 31
0.0
  0
ARC
  5
455
330
17
100
AcDbEntity
  8
4
100
AcDbCircle
 10
180.8118209015533
 20
341.3632097345688
 30
0.0
 40
0.5
100
AcDbArc
 50
90.0
 51
180.0
  0
LINE
  5
456
330
17
100
AcDbEntity
  8
4
100
AcDbLine
 10
191.8118209015535
 20
350.3632097345688
 30
0.0
 11
191.8118209015535
 21
351.3632097345688
 31
0.0
  0
LINE
  5
457
330
17
100
AcDbEntity
  8
4
100
AcDbLine
 10
180.8118209015533
 20
350.3632097345688
 30
0.0
 11
180.8118209015533
 21
341.8632097345688
 31
0.0
  0
LINE
  5
458
330
17
100
AcDbEntity
  8
4
100
AcDbLine
 10
180.3118209015533
 20
341.3632097345688
 30
0.0
 11
180.3118209015533
 21
302.8632097345688
 31
0.0
  0
LINE
  5
459
330
17
100
AcDbEntity
  8
4
100
AcDbLine
 10
156.3118209015533
 20
302.8632097345688
 30
0.0
 11
157.3118209015533
 21
301.8632097345688
 31
0.0
  0
LINE
  5
45A
330
17
100
AcDbEntity
  8
4
100
AcDbLine
 10
156.3118209015533
 20
302.8632097345688
 30
0.0
 11
164.8118209015533
 21
302.8632097345688
 31
0.0
  0
ARC
  5
45B
330
17
100
AcDbEntity
  8
4
100
AcDbCircle
 10
168.3118209015533
 20
335.3632097345688
 30
0.0
 40
3.5
100
AcDbArc
 50
0.0
 51
180.0
  0
LINE
  5
45C
330
17
100
AcDbEntity
  8
4
100
AcDbLine
 10
155.8118209015533
 20
341.8632097345688
 30
0.0
 11
155.8118209015533
 21
341.8632097345688
 31
0.0
  0
ARC
  5
45D
330
17
100
AcDbEntity
  8
4
100
AcDbCircle
 10
155.8118209015533
 20
341.3632097345688
 30
0.0
 40
0.5
100
AcDbArc
 50
0.0
 51
90.0
  0
LINE
  5
45E
330
17
100
AcDbEntity
  8
4
100
AcDbLine
 10
144.8118209015533
 20
350.3632097345688
 30
0.0
 11
144.8118209015533
 21
351.3632097345688
 31
0.0
  0
LINE
  5
45F
330
17
100
AcDbEntity
  8
4
100
AcDbLine
 10
155.8118209015533
 20
350.3632097345688
 30
0.0
 11
155.8118209015533
 21
341.8632097345688
 31
0.0
  0
LINE
  5
460
330
17
100
AcDbEntity
  8
4
100
AcDbLine
 10
171.8118209015533
 20
335.3632097345688
 30
0.0
 11
171.8118209015533
 21
301.8632097345688
 31
0.0
  0
LINE
  5
461
330
17
100
AcDbEntity
  8
4
100
AcDbLine
 10
164.8118209015533
 20
335.3632097345688
 30
0.0
 11
164.8118209015533
 21
301.8632097345688
 31
0.0
  0
LINE
  5
462
330
17
100
AcDbEntity
  8
4
100
AcDbLine
 10
156.3118209015533
 20
341.3632097345688
 30
0.0
 11
156.3118209015533
 21
302.8632097345688
 31
0.0
  0
LINE
  5
463
330
17
100
AcDbEntity
  8
4
100
AcDbLine
 10
144.8118209015533
 20
350.3632097345688
 30
0.0
 11
191.8118209015535
 21
350.3632097345688
 31
0.0
  0
LINE
  5
464
330
17
100
AcDbEntity
  8
4
100
AcDbLine
 10
155.8118209015533
 20
341.8632097345688
 30
0.0
 11
180.8118209015533
 21
341.8632097345688
 31
0.0
  0
LINE
  5
465
330
17
100
AcDbEntity
  8
4
100
AcDbLine
 10
171.8118209015533
 20
302.8632097345688
 30
0.0
 11
180.3118209015533
 21
302.8632097345688
 31
0.0
  0
LINE
  5
466
330
17
100
AcDbEntity
  8
4
100
AcDbLine
 10
157.3118209015533
 20
301.8632097345688
 30
0.0
 11
179.3118209015533
 21
301.8632097345688
 31
0.0
  0
LINE
  5
46C
330
17
100
AcDbEntity
  8
4
100
AcDbLine
 10
347.7475917339323
 20
158.3806161503538
 30
0.0
 11
346.7475912339323
 21
157.3806156503537
 31
0.0
  0
LINE
  5
46D
330
17
100
AcDbEntity
  8
4
100
AcDbLine
 10
346.7475912339323
 20
135.3806151503537
 30
0.0
 11
347.7475917339323
 21
134.3806161503538
 31
0.0
  0
LINE
  5
46E
330
17
100
AcDbEntity
  8
4
100
AcDbLine
 10
347.7475917339323
 20
146.3806161503538
 30
0.0
 11
347.7475917339323
 21
134.3806161503538
 31
0.0
  0
LINE
  5
46F
330
17
100
AcDbEntity
  8
4
100
AcDbLine
 10
346.7475912339323
 20
135.3806151503537
 30
0.0
 11
346.7475912339323
 21
161.3806161503538
 31
0.0
  0
LINE
  5
470
330
17
100
AcDbEntity
  8
4
100
AcDbLine
 10
347.7475917339323
 20
146.3806161503538
 30
0.0
 11
347.7475917339323
 21
158.3806161503538
 31
0.0
  0
LINE
  5
471
330
17
100
AcDbEntity
  8
4
100
AcDbLine
 10
383.7475917339323
 20
158.3806161503538
 30
0.0
 11
383.7475917339323
 21
161.3806161503538
 31
0.0
  0
LINE
  5
472
330
17
100
AcDbEntity
  8
4
100
AcDbLine
 10
395.2475907339324
 20
169.8806151503537
 30
0.0
 11
396.2475912339323
 21
169.8806151503537
 31
0.0
  0
LINE
  5
473
330
17
100
AcDbEntity
  8
4
100
AcDbLine
 10
386.7475917339323
 20
158.8806156503537
 30
0.0
 11
395.2475907339324
 21
158.8806156503537
 31
0.0
  0
LINE
  5
474
330
17
100
AcDbEntity
  8
4
100
AcDbLine
 10
396.2475912339323
 20
122.8806471503537
 30
0.0
 11
395.2475907339324
 21
122.8806471503537
 31
0.0
  0
LINE
  5
475
330
17
100
AcDbEntity
  8
4
100
AcDbLine
 10
386.7475917339323
 20
133.8806151503537
 30
0.0
 11
395.2475907339324
 21
133.8806151503537
 31
0.0
  0
LINE
  5
476
330
17
100
AcDbEntity
  8
4
100
AcDbLine
 10
395.2475907339324
 20
122.8806471503537
 30
0.0
 11
395.2475907339324
 21
169.8806151503537
 31
0.0
  0
LINE
  5
477
330
17
100
AcDbEntity
  8
4
100
AcDbLine
 10
386.7475917339323
 20
133.8806151503537
 30
0.0
 11
386.7475917339323
 21
158.8806156503537
 31
0.0
  0
LINE
  5
478
330
17
100
AcDbEntity
  8
4
100
AcDbLine
 10
346.7475912339323
 20
161.3806161503538
 30
0.0
 11
383.7475917339323
 21
161.3806161503538
 31
0.0
  0
LINE
  5
479
330
17
100
AcDbEntity
  8
4
100
AcDbLine
 10
386.7475917339323
 20
158.3806161503538
 30
0.0
 11
347.7475917339323
 21
158.3806161503538
 31
0.0
  0
LINE
  5
47A
330
17
100
AcDbEntity
  8
4
100
AcDbLine
 10
386.7475917339323
 20
134.3806161503538
 30
0.0
 11
347.7475917339323
 21
134.3806161503538
 31
0.0
  0
LINE
  5
494
330
17
100
AcDbEntity
  8
4
100
AcDbLine
 10
171.8118204015532
 20
154.3806156503538
 30
0.0
 11
171.8118204015532
 21
161.3806161503538
 31
0.0
  0
LINE
  5
495
330
17
100
AcDbEntity
  8
4
100
AcDbLine
 10
164.8118199015532
 20
154.3806156503538
 30
0.0
 11
164.8118199015532
 21
161.3806161503538
 31
0.0
  0
LINE
  5
496
330
17
100
AcDbEntity
  8
4
100
AcDbLine
 10
164.8118199015532
 20
161.3806161503538
 30
0.0
 11
171.8118204015532
 21
161.3806161503538
 31
0.0
  0
LINE
  5
497
330
17
100
AcDbEntity
  8
4
100
AcDbLine
 10
171.8118204015532
 20
154.3806156503538
 30
0.0
 11
164.8118199015532
 21
154.3806156503538
 31
0.0
  0
ARC
  5
498
330
17
100
AcDbEntity
  8
4
100
AcDbCircle
 10
168.3118209015532
 20
146.3806161503538
 30
0.0
 40
11.999997
100
AcDbArc
 50
106.9577726594193
 51
73.0420780000002
  0
CIRCLE
  5
49A
330
17
100
AcDbEntity
  8
4
100
AcDbCircle
 10
168.3118209015532
 20
146.3806161503538
 30
0.0
 40
23.49999899999989
  0
LINE
  5
49F
330
17
100
AcDbEntity
  8
4
100
AcDbLine
 10
53.31198840155332
 20
413.8631487345688
 30
0.0
 11
54.31198890155338
 21
414.8631492345688
 31
0.0
  0
LINE
  5
4A0
330
17
100
AcDbEntity
  8
4
100
AcDbLine
 10
54.31198890155338
 20
398.8631487345688
 30
0.0
 11
53.31198840155332
 21
399.8631492345688
 31
0.0
  0
LINE
  5
4A1
330
17
100
AcDbEntity
  8
4
100
AcDbLine
 10
54.31198890155338
 20
398.8631487345688
 30
0.0
 11
54.31198890155338
 21
404.3632097345688
 31
0.0
  0
LINE
  5
4A2
330
17
100
AcDbEntity
  8
4
100
AcDbLine
 10
53.31198840155332
 20
399.8631492345688
 30
0.0
 11
53.31198840155332
 21
413.8631487345688
 31
0.0
  0
LINE
  5
4A3
330
17
100
AcDbEntity
  8
4
100
AcDbLine
 10
54.31198890155338
 20
409.3632097345688
 30
0.0
 11
54.31198890155338
 21
414.8631492345688
 31
0.0
  0
LINE
  5
4A4
330
17
100
AcDbEntity
  8
4
100
AcDbLine
 10
99.31185090155327
 20
416.8631487345688
 30
0.0
 11
88.31185140155333
 21
416.8631487345688
 31
0.0
  0
LINE
  5
4A5
330
17
100
AcDbEntity
  8
4
100
AcDbLine
 10
99.31185090155327
 20
396.8631492345688
 30
0.0
 11
88.31185140155333
 21
396.8631492345688
 31
0.0
  0
ARC
  5
4A6
330
17
100
AcDbEntity
  8
4
100
AcDbCircle
 10
82.81185140155333
 20
406.8632097345688
 30
0.0
 40
2.5
100
AcDbArc
 50
270.0
 51
90.0
  0
LINE
  5
4A7
330
17
100
AcDbEntity
  8
4
100
AcDbLine
 10
88.31185140155333
 20
416.8631487345688
 30
0.0
 11
88.31185140155333
 21
396.8631492345688
 31
0.0
  0
LINE
  5
4A8
330
17
100
AcDbEntity
  8
4
100
AcDbLine
 10
54.31198890155338
 20
414.8631492345688
 30
0.0
 11
88.31185140155333
 21
414.8631492345688
 31
0.0
  0
LINE
  5
4A9
330
17
100
AcDbEntity
  8
4
100
AcDbLine
 10
54.31198890155338
 20
398.8631487345688
 30
0.0
 11
88.31185140155333
 21
398.8631487345688
 31
0.0
  0
LINE
  5
4AA
330
17
100
AcDbEntity
  8
4
100
AcDbLine
 10
82.81185140155333
 20
409.3632097345688
 30
0.0
 11
53.31198840155332
 21
409.3632097345688
 31
0.0
  0
LINE
  5
4AB
330
17
100
AcDbEntity
  8
4
100
AcDbLine
 10
82.81185140155333
 20
404.3632097345688
 30
0.0
 11
53.31198840155332
 21
404.3632097345688
 31
0.0
  0
LINE
  5
4AD
330
17
100
AcDbEntity
  8
4
100
AcDbLine
 10
85.31180140154888
 20
96.38072965047488
 30
0.0
 11
85.31179940154632
 21
94.38073015047581
 31
0.0
  0
LINE
  5
4AE
330
17
100
AcDbEntity
  8
4
100
AcDbLine
 10
99.31180090154194
 20
96.38071565045402
 30
0.0
 11
88.3118014015474
 21
96.38072665047031
 31
0.0
  0
LINE
  5
4AF
330
17
100
AcDbEntity
  8
4
100
AcDbLine
 10
53.31193840156487
 20
96.38076165038672
 30
0.0
 11
85.31180140154888
 21
96.38072965047488
 31
0.0
  0
LINE
  5
4B0
330
17
100
AcDbEntity
  8
4
100
AcDbLine
 10
54.31193690156175
 20
94.38076115038564
 30
0.0
 11
88.31179940154485
 21
94.38072715047124
 31
0.0
  0
LINE
  5
4B2
330
17
100
AcDbEntity
  8
4
100
AcDbLine
 10
54.31192090153684
 20
78.38076065039371
 30
0.0
 11
53.31192140153945
 21
79.38076215039516
 31
0.0
  0
LINE
  5
4B3
330
17
100
AcDbEntity
  8
4
100
AcDbLine
 10
99.31178090151192
 20
76.38071615046397
 30
0.0
 11
88.31178140151738
 21
76.38072715048025
 31
0.0
  0
LINE
  5
4B4
330
17
100
AcDbEntity
  8
4
100
AcDbLine
 10
54.31192090153684
 20
78.38076065039371
 30
0.0
 11
88.31178340151993
 21
78.38072665047932
 31
0.0
  0
LINE
  5
4B5
330
17
100
AcDbEntity
  8
4
100
AcDbLine
 10
88.3118014015474
 20
96.38072665047031
 30
0.0
 11
88.31178140151738
 21
76.38072715048025
 31
0.0
  0
LINE
  5
4B6
330
17
100
AcDbEntity
  8
4
100
AcDbLine
 10
53.31192140153945
 20
79.38076215039516
 30
0.0
 11
53.31193840156487
 21
96.38076165038672
 31
0.0
  0
LINE
  5
4B7
330
17
100
AcDbEntity
  8
4
100
AcDbLine
 10
54.31192090153684
 20
78.38076065039371
 30
0.0
 11
54.31193690156175
 21
94.38076115038564
 31
0.0
  0
LINE
  5
4B8
330
17
100
AcDbEntity
  8
4
100
AcDbLine
 10
53.31193540156033
 20
93.38076165038822
 30
0.0
 11
54.31193690156175
 21
94.38076115038564
 31
0.0
  0
ENDSEC
  0
SECTION
  2
OBJECTS
  0
DICTIONARY
  5
7
330
0
100
AcDbDictionary
281
     1
  3
ACAD_COLOR
350
2B
  3
ACAD_GROUP
350
29
  3
ACAD_LAYOUT
350
20
  3
ACAD_MATERIAL
350
9
  3
ACAD_MLEADERSTYLE
350
434
  3
ACAD_MLINESTYLE
350
15
  3
ACAD_PLOTSETTINGS
350
2A
  3
ACAD_PLOTSTYLENAME
350
6
  3
ACAD_SCALELIST
350
30
  3
ACAD_TABLESTYLE
350
433
  3
ACAD_VISUALSTYLE
350
2C
  3
ACDBHEADERROUNDTRIPXREC
350
4FC
  3
AcDbVariableDictionary
350
431
  3
DWGPROPS
350
4FF
  0
DICTIONARY
  5
500
330
27
100
AcDbDictionary
280
     1
281
     1
  3
ACAD_XREC_ROUNDTRIP
360
501
  0
DICTIONARY
  5
1C
330
1B
100
AcDbDictionary
280
     1
281
     1
  3
ADSK_XREC_LAYER_RECONCILED
360
1D
  0
DICTIONARY
  5
301
330
300
100
AcDbDictionary
280
     1
281
     1
  3
ADSK_XREC_LAYER_RECONCILED
360
302
  0
DICTIONARY
  5
3
330
1
100
AcDbDictionary
280
     1
281
     1
  3
ADSK_XREC_LAYER_RECONCILED
360
4
  0
DICTIONARY
  5
76
330
75
100
AcDbDictionary
280
     1
281
     1
  3
ADSK_XREC_LAYER_RECONCILED
360
77
  0
DICTIONARY
  5
7E
330
7D
100
AcDbDictionary
280
     1
281
     1
  3
ADSK_XREC_LAYER_RECONCILED
360
7F
  0
DICTIONARY
  5
18
330
17
100
AcDbDictionary
280
     1
281
     1
  3
ACAD_SORTENTS
360
19
  0
DICTIONARY
  5
2B
102
{ACAD_REACTORS
330
7
102
}
330
7
100
AcDbDictionary
281
     1
  0
DICTIONARY
  5
29
102
{ACAD_REACTORS
330
7
102
}
330
7
100
AcDbDictionary
281
     1
  0
DICTIONARY
  5
20
102
{ACAD_REACTORS
330
7
102
}
330
7
100
AcDbDictionary
281
     1
  3
Model
350
1F
  3
ﾚｲｱｳﾄ1
350
24
  0
DICTIONARY
  5
9
102
{ACAD_REACTORS
330
7
102
}
330
7
100
AcDbDictionary
281
     1
  3
ByBlock
350
73
  3
ByLayer
350
10
  3
Global
350
8
  0
DICTIONARY
  5
434
102
{ACAD_REACTORS
330
7
102
}
330
7
100
AcDbDictionary
281
     1
  3
Standard
350
44F
  0
DICTIONARY
  5
15
102
{ACAD_REACTORS
330
7
102
}
330
7
100
AcDbDictionary
281
     1
  3
STANDARD
350
14
  0
DICTIONARY
  5
2A
102
{ACAD_REACTORS
330
7
102
}
330
7
100
AcDbDictionary
281
     1
  0
ACDBDICTIONARYWDFLT
  5
6
102
{ACAD_REACTORS
330
7
102
}
330
7
100
AcDbDictionary
281
     1
  3
Normal
350
5
100
AcDbDictionaryWithDefault
340
5
  0
DICTIONARY
  5
30
102
{ACAD_REACTORS
330
7
102
}
330
7
100
AcDbDictionary
281
     1
  3
*A1
350
52
  3
*A10
350
5B
  3
*A11
350
5C
  3
*A12
350
5D
  3
*A13
350
5E
  3
*A14
350
5F
  3
*A15
350
60
  3
*A16
350
61
  3
*A17
350
62
  3
*A18
350
63
  3
*A19
350
64
  3
*A2
350
53
  3
*A20
350
65
  3
*A21
350
66
  3
*A22
350
67
  3
*A23
350
68
  3
*A24
350
69
  3
*A25
350
6A
  3
*A26
350
6B
  3
*A27
350
6C
  3
*A28
350
6D
  3
*A29
350
6E
  3
*A3
350
54
  3
*A30
350
6F
  3
*A31
350
70
  3
*A32
350
71
  3
*A33
350
72
  3
*A4
350
55
  3
*A5
350
56
  3
*A6
350
57
  3
*A7
350
58
  3
*A8
350
59
  3
*A9
350
5A
  0
DICTIONARY
  5
433
102
{ACAD_REACTORS
330
7
102
}
330
7
100
AcDbDictionary
281
     1
  3
Standard
350
4F8
  0
DICTIONARY
  5
2C
102
{ACAD_REACTORS
330
7
102
}
330
7
100
AcDbDictionary
281
     1
  3
2dWireframe
350
43B
  3
Basic
350
43E
  3
Brighten
350
442
  3
ColorChange
350
446
  3
Conceptual
350
440
  3
Dim
350
441
  3
EdgeColorOff
350
449
  3
Facepattern
350
445
  3
Flat
350
437
  3
FlatWithEdges
350
438
  3
Gouraud
350
439
  3
GouraudWithEdges
350
43A
  3
Hidden
350
43D
  3
JitterOff
350
447
  3
Linepattern
350
444
  3
OverhangOff
350
448
  3
Realistic
350
43F
  3
Shaded
350
44E
  3
Shaded with edges
350
44D
  3
Shades of Gray
350
44A
  3
Sketchy
350
44B
  3
Thicken
350
443
  3
Wireframe
350
43C
  3
X-Ray
350
44C
  0
DICTIONARY
  5
4FC
102
{ACAD_REACTORS
330
7
102
}
330
7
100
AcDbDictionary
281
     1
  3
COLORDICT
350
4FD
  3
MATERIALDICT
350
4FE
  0
DICTIONARY
  5
431
102
{ACAD_REACTORS
330
7
102
}
330
7
100
AcDbDictionary
281
     1
  3
CANNOSCALE
350
432
  3
CMLEADERSTYLE
350
453
  3
CTABLESTYLE
350
4F9
  3
DIMASSOC
350
4FA
  3
HIDETEXT
350
4FB
  3
MSLTSCALE
350
502
  0
XRECORD
  5
4FF
102
{ACAD_REACTORS
330
7
102
}
330
7
100
AcDbXrecord
280
     1
  1
DWGPROPS COOKIE
  2

  3

  4

  6

  7

  8
sg-d04
  9

300
=
301
=
302
=
303
=
304
=
305
=
306
=
307
=
308
=
309
=
 40
0.0
 41
2449812.756805555
 42
2457870.209580799
  1

 90
        0
  0
XRECORD
  5
501
102
{ACAD_REACTORS
330
500
102
}
330
500
100
AcDbXrecord
280
     1
102
VTR_0.000_0.000_1.000_1.000_VISUALSTYLE
340
43B
102
VTR_0.000_0.000_1.000_1.000_GRIDDISPLAY
 70
     3
102
VTR_0.000_0.000_1.000_1.000_GRIDMAJOR
 70
     5
102
VTR_0.000_0.000_1.000_1.000_DEFAULTLIGHTING
280
     1
102
VTR_0.000_0.000_1.000_1.000_DEFAULTLIGHTINGTYPE
 70
     1
102
VTR_0.000_0.000_1.000_1.000_BRIGHTNESS
141
0.0
102
VTR_0.000_0.000_1.000_1.000_CONTRAST
142
0.0
  0
XRECORD
  5
1D
102
{ACAD_REACTORS
330
1C
102
}
330
1C
100
AcDbXrecord
280
     1
290
     1
  0
XRECORD
  5
302
102
{ACAD_REACTORS
330
301
102
}
330
301
100
AcDbXrecord
280
     1
290
     1
  0
XRECORD
  5
4
102
{ACAD_REACTORS
330
3
102
}
330
3
100
AcDbXrecord
280
     1
290
     1
  0
XRECORD
  5
77
102
{ACAD_REACTORS
330
76
102
}
330
76
100
AcDbXrecord
280
     1
290
     1
  0
XRECORD
  5
7F
102
{ACAD_REACTORS
330
7E
102
}
330
7E
100
AcDbXrecord
280
     1
290
     1
  0
SORTENTSTABLE
  5
19
102
{ACAD_REACTORS
330
18
102
}
330
18
100
AcDbSortentsTable
330
17
  0
LAYOUT
  5
1F
102
{ACAD_REACTORS
330
20
102
}
330
20
100
AcDbPlotSettings
  1

  2
Bullzip PDF Printer.pc3
  4
A3
  6

 40
0.2
 41
0.0
 42
0.0
 43
0.0
 44
420.2
 45
297.1
 46
25.0
 47
12.0
 48
29.99999992999994
 49
0.0
140
602.9999986175001
141
408.74999904625
142
1.0
143
1.5
 70
 11936
 72
     1
 73
     0
 74
     4
  7
monochrome.ctb
 75
     0
147
0.6666666666666666
148
-29.99999992999994
149
0.0
100
AcDbLayout
  1
Model
 70
     0
 71
     0
 10
0.0
 20
0.0
 11
12.0
 21
9.0
 12
0.0
 22
0.0
 32
0.0
 14
50.92842620973471
 24
12.05363872499728
 34
0.0
 15
510.3155496768998
 25
466.0317655045781
 35
0.0
146
0.0
 13
0.0
 23
0.0
 33
0.0
 16
1.0
 26
0.0
 36
0.0
 17
0.0
 27
1.0
 37
0.0
 76
     0
330
17
331
2E
1001
ACAD_PSEXT
1000
Bullzip PDF Printer.pc3
1000
Bullzip PDF Printer
1000
BULLZIP
1000
Bullzip PDF Printer 10.1.0.1871
1070
     0
  0
LAYOUT
  5
24
102
{ACAD_REACTORS
330
20
102
}
330
20
100
AcDbPlotSettings
  1

  2
SR-LP8300F
  4

  6

 40
0.0
 41
0.0
 42
0.0
 43
0.0
 44
0.0
 45
0.0
 46
0.0
 47
0.0
 48
0.0
 49
0.0
140
0.0
141
0.0
142
1.0
143
1.0
 70
   688
 72
     0
 73
     0
 74
     5
  7
monochrome.ctb
 75
    16
147
1.0
148
0.0
149
0.0
100
AcDbLayout
  1
ﾚｲｱｳﾄ1
 70
     0
 71
     1
 10
0.0
 20
0.0
 11
12.0
 21
9.0
 12
0.0
 22
0.0
 32
0.0
 14
1.000000000000000E+20
 24
1.000000000000000E+20
 34
1.000000000000000E+20
 15
-1.000000000000000E+20
 25
-1.000000000000000E+20
 35
-1.000000000000000E+20
146
0.0
 13
0.0
 23
0.0
 33
0.0
 16
1.0
 26
0.0
 36
0.0
 17
0.0
 27
1.0
 37
0.0
 76
     0
330
21
  0
MATERIAL
  5
73
102
{ACAD_REACTORS
330
9
102
}
102
{ACAD_XDICTIONARY
360
507
102
}
330
9
100
AcDbMaterial
  1
ByBlock
  0
MATERIAL
  5
10
102
{ACAD_REACTORS
330
9
102
}
102
{ACAD_XDICTIONARY
360
503
102
}
330
9
100
AcDbMaterial
  1
ByLayer
  0
MATERIAL
  5
8
102
{ACAD_REACTORS
330
9
102
}
102
{ACAD_XDICTIONARY
360
505
102
}
330
9
100
AcDbMaterial
  1
GLOBAL
 72
     0
 73
     2
 43
0.0208333333333333
 43
0.0
 43
0.0
 43
0.0
 43
0.0
 43
0.0208333333333333
 43
0.0
 43
0.0
 43
0.0
 43
0.0
 43
1.0
 43
0.0
 43
0.0
 43
0.0
 43
0.0
 43
1.0
 77
     0
 78
     2
 47
0.0208333333333333
 47
0.0
 47
0.0
 47
0.0
 47
0.0
 47
0.0208333333333333
 47
0.0
 47
0.0
 47
0.0
 47
0.0
 47
1.0
 47
0.0
 47
0.0
 47
0.0
 47
0.0
 47
1.0
171
     0
172
     2
 49
0.0208333333333333
 49
0.0
 49
0.0
 49
0.0
 49
0.0
 49
0.0208333333333333
 49
0.0
 49
0.0
 49
0.0
 49
0.0
 49
1.0
 49
0.0
 49
0.0
 49
0.0
 49
0.0
 49
1.0
175
     0
176
     2
142
0.0208333333333333
142
0.0
142
0.0
142
0.0
142
0.0
142
0.0208333333333333
142
0.0
142
0.0
142
0.0
142
0.0
142
1.0
142
0.0
142
0.0
142
0.0
142
0.0
142
1.0
179
     0
270
     2
144
0.0208333333333333
144
0.0
144
0.0
144
0.0
144
0.0
144
0.0208333333333333
144
0.0
144
0.0
144
0.0
144
0.0
144
1.0
144
0.0
144
0.0
144
0.0
144
0.0
144
1.0
274
     2
147
0.0208333333333333
147
0.0
147
0.0
147
0.0
147
0.0
147
0.0208333333333333
147
0.0
147
0.0
147
0.0
147
0.0
147
1.0
147
0.0
147
0.0
147
0.0
147
0.0
147
1.0
  0
MLEADERSTYLE
  5
44F
102
{ACAD_REACTORS
330
434
102
}
102
{ACAD_XDICTIONARY
360
539
102
}
330
434
100
AcDbMLeaderStyle
170
     2
171
     1
172
     0
 90
        2
 40
0.0
 41
0.0
173
     1
 91
-1056964608
340
D
 92
       -2
290
     1
 42
0.09
291
     1
 43
0.36
  3
Standard
341
0
 44
0.18
300

342
E
174
     1
178
     6
175
     1
176
     0
 93
-1056964608
 45
0.18
292
     0
297
     0
 46
0.18
343
0
 94
-1056964608
 47
1.0
 49
1.0
140
1.0
293
     1
141
0.0
294
     1
177
     0
142
1.0
295
     0
296
     0
143
0.125
1001
ACAD_MLEADERVER
1070
     2
  0
MLINESTYLE
  5
14
102
{ACAD_REACTORS
330
15
102
}
330
15
100
AcDbMlineStyle
  2
STANDARD
 70
     0
  3

 62
     0
 51
90.0
 52
90.0
 71
     2
 49
0.5
 62
   256
  6
BYLAYER
 49
-0.5
 62
   256
  6
BYLAYER
  0
ACDBPLACEHOLDER
  5
5
102
{ACAD_REACTORS
330
6
102
}
330
6
  0
SCALE
  5
52
102
{ACAD_REACTORS
330
30
102
}
330
30
100
AcDbScale
 70
     0
300
1:1
140
1.0
141
1.0
290
     1
  0
SCALE
  5
5B
102
{ACAD_REACTORS
330
30
102
}
330
30
100
AcDbScale
 70
     0
300
1:40
140
1.0
141
40.0
290
     0
  0
SCALE
  5
5C
102
{ACAD_REACTORS
330
30
102
}
330
30
100
AcDbScale
 70
     0
300
1:50
140
1.0
141
50.0
290
     0
  0
SCALE
  5
5D
102
{ACAD_REACTORS
330
30
102
}
330
30
100
AcDbScale
 70
     0
300
1:100
140
1.0
141
100.0
290
     0
  0
SCALE
  5
5E
102
{ACAD_REACTORS
330
30
102
}
330
30
100
AcDbScale
 70
     0
300
2:1
140
2.0
141
1.0
290
     0
  0
SCALE
  5
5F
102
{ACAD_REACTORS
330
30
102
}
330
30
100
AcDbScale
 70
     0
300
4:1
140
4.0
141
1.0
290
     0
  0
SCALE
  5
60
102
{ACAD_REACTORS
330
30
102
}
330
30
100
AcDbScale
 70
     0
300
8:1
140
8.0
141
1.0
290
     0
  0
SCALE
  5
61
102
{ACAD_REACTORS
330
30
102
}
330
30
100
AcDbScale
 70
     0
300
10:1
140
10.0
141
1.0
290
     0
  0
SCALE
  5
62
102
{ACAD_REACTORS
330
30
102
}
330
30
100
AcDbScale
 70
     0
300
100:1
140
100.0
141
1.0
290
     0
  0
SCALE
  5
63
102
{ACAD_REACTORS
330
30
102
}
330
30
100
AcDbScale
 70
     0
300
1/128" = 1'-0"
140
0.0078125
141
12.0
290
     0
  0
SCALE
  5
64
102
{ACAD_REACTORS
330
30
102
}
330
30
100
AcDbScale
 70
     0
300
1/64" = 1'-0"
140
0.015625
141
12.0
290
     0
  0
SCALE
  5
53
102
{ACAD_REACTORS
330
30
102
}
330
30
100
AcDbScale
 70
     0
300
1:2
140
1.0
141
2.0
290
     0
  0
SCALE
  5
65
102
{ACAD_REACTORS
330
30
102
}
330
30
100
AcDbScale
 70
     0
300
1/32" = 1'-0"
140
0.03125
141
12.0
290
     0
  0
SCALE
  5
66
102
{ACAD_REACTORS
330
30
102
}
330
30
100
AcDbScale
 70
     0
300
1/16" = 1'-0"
140
0.0625
141
12.0
290
     0
  0
SCALE
  5
67
102
{ACAD_REACTORS
330
30
102
}
330
30
100
AcDbScale
 70
     0
300
3/32" = 1'-0"
140
0.09375
141
12.0
290
     0
  0
SCALE
  5
68
102
{ACAD_REACTORS
330
30
102
}
330
30
100
AcDbScale
 70
     0
300
1/8" = 1'-0"
140
0.125
141
12.0
290
     0
  0
SCALE
  5
69
102
{ACAD_REACTORS
330
30
102
}
330
30
100
AcDbScale
 70
     0
300
3/16" = 1'-0"
140
0.1875
141
12.0
290
     0
  0
SCALE
  5
6A
102
{ACAD_REACTORS
330
30
102
}
330
30
100
AcDbScale
 70
     0
300
1/4" = 1'-0"
140
0.25
141
12.0
290
     0
  0
SCALE
  5
6B
102
{ACAD_REACTORS
330
30
102
}
330
30
100
AcDbScale
 70
     0
300
3/8" = 1'-0"
140
0.375
141
12.0
290
     0
  0
SCALE
  5
6C
102
{ACAD_REACTORS
330
30
102
}
330
30
100
AcDbScale
 70
     0
300
1/2" = 1'-0"
140
0.5
141
12.0
290
     0
  0
SCALE
  5
6D
102
{ACAD_REACTORS
330
30
102
}
330
30
100
AcDbScale
 70
     0
300
3/4" = 1'-0"
140
0.75
141
12.0
290
     0
  0
SCALE
  5
6E
102
{ACAD_REACTORS
330
30
102
}
330
30
100
AcDbScale
 70
     0
300
1" = 1'-0"
140
1.0
141
12.0
290
     0
  0
SCALE
  5
54
102
{ACAD_REACTORS
330
30
102
}
330
30
100
AcDbScale
 70
     0
300
1:4
140
1.0
141
4.0
290
     0
  0
SCALE
  5
6F
102
{ACAD_REACTORS
330
30
102
}
330
30
100
AcDbScale
 70
     0
300
1-1/2" = 1'-0"
140
1.5
141
12.0
290
     0
  0
SCALE
  5
70
102
{ACAD_REACTORS
330
30
102
}
330
30
100
AcDbScale
 70
     0
300
3" = 1'-0"
140
3.0
141
12.0
290
     0
  0
SCALE
  5
71
102
{ACAD_REACTORS
330
30
102
}
330
30
100
AcDbScale
 70
     0
300
6" = 1'-0"
140
6.0
141
12.0
290
     0
  0
SCALE
  5
72
102
{ACAD_REACTORS
330
30
102
}
330
30
100
AcDbScale
 70
     0
300
1'-0" = 1'-0"
140
12.0
141
12.0
290
     0
  0
SCALE
  5
55
102
{ACAD_REACTORS
330
30
102
}
330
30
100
AcDbScale
 70
     0
300
1:5
140
1.0
141
5.0
290
     0
  0
SCALE
  5
56
102
{ACAD_REACTORS
330
30
102
}
330
30
100
AcDbScale
 70
     0
300
1:8
140
1.0
141
8.0
290
     0
  0
SCALE
  5
57
102
{ACAD_REACTORS
330
30
102
}
330
30
100
AcDbScale
 70
     0
300
1:10
140
1.0
141
10.0
290
     0
  0
SCALE
  5
58
102
{ACAD_REACTORS
330
30
102
}
330
30
100
AcDbScale
 70
     0
300
1:16
140
1.0
141
16.0
290
     0
  0
SCALE
  5
59
102
{ACAD_REACTORS
330
30
102
}
330
30
100
AcDbScale
 70
     0
300
1:20
140
1.0
141
20.0
290
     0
  0
SCALE
  5
5A
102
{ACAD_REACTORS
330
30
102
}
330
30
100
AcDbScale
 70
     0
300
1:30
140
1.0
141
30.0
290
     0
  0
TABLESTYLE
  5
4F8
102
{ACAD_REACTORS
330
433
102
}
330
433
100
AcDbTableStyle
  3
Standard
 70
     0
 71
     0
 40
0.06
 41
0.06
280
     0
281
     0
  7
STANDARD
140
0.18
170
     2
 62
     0
 63
   257
283
     0
274
    -2
284
     1
 64
     0
275
    -2
285
     1
 65
     0
276
    -2
286
     1
 66
     0
277
    -2
287
     1
 67
     0
278
    -2
288
     1
 68
     0
279
    -2
289
     1
 69
     0
  7
STANDARD
140
0.25
170
     5
 62
     0
 63
   257
283
     0
274
    -2
284
     1
 64
     0
275
    -2
285
     1
 65
     0
276
    -2
286
     1
 66
     0
277
    -2
287
     1
 67
     0
278
    -2
288
     1
 68
     0
279
    -2
289
     1
 69
     0
  7
STANDARD
140
0.18
170
     5
 62
     0
 63
   257
283
     0
274
    -2
284
     1
 64
     0
275
    -2
285
     1
 65
     0
276
    -2
286
     1
 66
     0
277
    -2
287
     1
 67
     0
278
    -2
288
     1
 68
     0
279
    -2
289
     1
 69
     0
  0
VISUALSTYLE
  5
43B
102
{ACAD_REACTORS
330
2C
102
}
102
{ACAD_XDICTIONARY
360
511
102
}
330
2C
100
AcDbVisualStyle
  2
2dWireframe
 70
     4
 71
     0
 72
     2
 73
     0
 90
        0
 40
0.6
 41
30.0
 62
     5
 63
     7
 74
     1
 91
        4
 64
     7
 65
   257
 75
     1
175
     1
 42
1.0
 92
        0
 66
   257
 43
1.0
 76
     1
 77
     6
 78
     2
 67
     7
 79
     5
170
     0
171
     0
290
     0
174
     0
 93
        1
 44
0.0
173
     0
291
     0
 45
0.0
1001
ACAD
1000
AcDbSavedByObjectVersion
1070
     0
  0
VISUALSTYLE
  5
43E
102
{ACAD_REACTORS
330
2C
102
}
102
{ACAD_XDICTIONARY
360
517
102
}
330
2C
100
AcDbVisualStyle
  2
Basic
 70
     7
 71
     1
 72
     0
 73
     1
 90
        0
 40
0.6
 41
30.0
 62
     5
 63
     7
 74
     0
 91
        4
 64
     7
 65
   257
 75
     1
175
     1
 42
1.0
 92
        8
 66
     7
 43
1.0
 76
     1
 77
     6
 78
     2
 67
     7
 79
     5
170
     0
171
     0
290
     0
174
     0
 93
        1
 44
0.0
173
     0
291
     1
 45
0.0
1001
ACAD
1000
AcDbSavedByObjectVersion
1070
     0
  0
VISUALSTYLE
  5
442
102
{ACAD_REACTORS
330
2C
102
}
102
{ACAD_XDICTIONARY
360
51F
102
}
330
2C
100
AcDbVisualStyle
  2
Brighten
 70
    12
 71
     2
 72
     2
 73
     0
 90
        0
 40
0.6
 41
30.0
 62
     5
 63
     7
 74
     1
 91
        4
 64
     7
 65
   257
 75
     1
175
     1
 42
1.0
 92
        8
 66
     7
 43
1.0
 76
     1
 77
     6
 78
     2
 67
     7
 79
     5
170
     0
171
     0
290
     0
174
     0
 93
        1
 44
50.0
173
     0
291
     1
 45
0.0
1001
ACAD
1000
AcDbSavedByObjectVersion
1070
     0
  0
VISUALSTYLE
  5
446
102
{ACAD_REACTORS
330
2C
102
}
102
{ACAD_XDICTIONARY
360
527
102
}
330
2C
100
AcDbVisualStyle
  2
ColorChange
 70
    16
 71
     2
 72
     2
 73
     3
 90
        0
 40
0.6
 41
30.0
 62
     5
 63
     8
 74
     1
 91
        4
 64
     7
 65
   257
 75
     1
175
     1
 42
1.0
 92
        8
 66
     8
 43
1.0
 76
     1
 77
     6
 78
     2
 67
     7
 79
     5
170
     0
171
     0
290
     0
174
     0
 93
        1
 44
0.0
173
     0
291
     1
 45
0.0
1001
ACAD
1000
AcDbSavedByObjectVersion
1070
     0
  0
VISUALSTYLE
  5
440
102
{ACAD_REACTORS
330
2C
102
}
102
{ACAD_XDICTIONARY
360
51B
102
}
330
2C
100
AcDbVisualStyle
  2
Conceptual
 70
     9
 71
     3
 72
     2
 73
     0
 90
        0
 40
0.6
 41
30.0
 62
     5
 63
     7
 74
     2
 91
        2
 64
     7
 65
   257
 75
     1
175
     1
 42
40.0
 92
        8
 66
     7
 43
1.0
 76
     1
 77
     6
 78
     2
 67
     7
 79
     3
170
     0
171
     0
290
     0
174
     0
 93
        1
 44
0.0
173
     0
291
     0
 45
0.0
1001
ACAD
1000
AcDbSavedByObjectVersion
1070
     0
  0
VISUALSTYLE
  5
441
102
{ACAD_REACTORS
330
2C
102
}
102
{ACAD_XDICTIONARY
360
51D
102
}
330
2C
100
AcDbVisualStyle
  2
Dim
 70
    11
 71
     2
 72
     2
 73
     0
 90
        0
 40
0.6
 41
30.0
 62
     5
 63
     7
 74
     1
 91
        4
 64
     7
 65
   257
 75
     1
175
     1
 42
1.0
 92
        8
 66
     7
 43
1.0
 76
     1
 77
     6
 78
     2
 67
     7
 79
     5
170
     0
171
     0
290
     0
174
     0
 93
        1
 44
-50.0
173
     0
291
     1
 45
0.0
1001
ACAD
1000
AcDbSavedByObjectVersion
1070
     0
  0
VISUALSTYLE
  5
449
102
{ACAD_REACTORS
330
2C
102
}
102
{ACAD_XDICTIONARY
360
52D
102
}
330
2C
100
AcDbVisualStyle
  2
EdgeColorOff
 70
    22
 71
     2
 72
     2
 73
     0
 90
        0
 40
0.6
 41
30.0
 62
     5
 63
     7
 74
     1
 91
        4
 64
     7
 65
   257
 75
     1
175
     1
 42
1.0
 92
        8
 66
     7
 43
1.0
 76
     1
 77
     6
 78
     2
 67
     7
 79
     5
170
     0
171
     0
290
     0
174
     0
 93
        1
 44
0.0
173
     0
291
     1
 45
0.0
1001
ACAD
1000
AcDbSavedByObjectVersion
1070
     0
  0
VISUALSTYLE
  5
445
102
{ACAD_REACTORS
330
2C
102
}
102
{ACAD_XDICTIONARY
360
525
102
}
330
2C
100
AcDbVisualStyle
  2
Facepattern
 70
    15
 71
     2
 72
     2
 73
     0
 90
        0
 40
0.6
 41
30.0
 62
     5
 63
     7
 74
     1
 91
        4
 64
     7
 65
   257
 75
     1
175
     1
 42
1.0
 92
        8
 66
     7
 43
1.0
 76
     1
 77
     6
 78
     2
 67
     7
 79
     5
170
     0
171
     0
290
     0
174
     0
 93
        1
 44
0.0
173
     0
291
     1
 45
0.0
1001
ACAD
1000
AcDbSavedByObjectVersion
1070
     0
  0
VISUALSTYLE
  5
437
102
{ACAD_REACTORS
330
2C
102
}
102
{ACAD_XDICTIONARY
360
509
102
}
330
2C
100
AcDbVisualStyle
  2
Flat
 70
     0
 71
     2
 72
     1
 73
     1
 90
        2
 40
0.6
 41
30.0
 62
     5
 63
     7
 74
     0
 91
        4
 64
     7
 65
   257
 75
     1
175
     1
 42
1.0
 92
        8
 66
     7
 43
1.0
 76
     1
 77
     6
 78
     2
 67
     7
 79
     5
170
     0
171
     0
290
     0
174
     0
 93
       13
 44
0.0
173
     0
291
     1
 45
0.0
1001
ACAD
1000
AcDbSavedByObjectVersion
1070
     0
  0
VISUALSTYLE
  5
438
102
{ACAD_REACTORS
330
2C
102
}
102
{ACAD_XDICTIONARY
360
50B
102
}
330
2C
100
AcDbVisualStyle
  2
FlatWithEdges
 70
     1
 71
     2
 72
     1
 73
     1
 90
        2
 40
0.6
 41
30.0
 62
     5
 63
     7
 74
     1
 91
        4
 64
     7
 65
   257
 75
     1
175
     1
 42
1.0
 92
        0
 66
   257
 43
1.0
 76
     1
 77
     6
 78
     2
 67
     7
 79
     5
170
     0
171
     0
290
     0
174
     0
 93
       13
 44
0.0
173
     0
291
     1
 45
0.0
1001
ACAD
1000
AcDbSavedByObjectVersion
1070
     0
  0
VISUALSTYLE
  5
439
102
{ACAD_REACTORS
330
2C
102
}
102
{ACAD_XDICTIONARY
360
50D
102
}
330
2C
100
AcDbVisualStyle
  2
Gouraud
 70
     2
 71
     2
 72
     2
 73
     1
 90
        2
 40
0.6
 41
30.0
 62
     5
 63
     7
 74
     0
 91
        4
 64
     7
 65
   257
 75
     1
175
     1
 42
1.0
 92
        0
 66
     7
 43
1.0
 76
     1
 77
     6
 78
     2
 67
     7
 79
     5
170
     0
171
     0
290
     0
174
     0
 93
       13
 44
0.0
173
     0
291
     1
 45
0.0
1001
ACAD
1000
AcDbSavedByObjectVersion
1070
     0
  0
VISUALSTYLE
  5
43A
102
{ACAD_REACTORS
330
2C
102
}
102
{ACAD_XDICTIONARY
360
50F
102
}
330
2C
100
AcDbVisualStyle
  2
GouraudWithEdges
 70
     3
 71
     2
 72
     2
 73
     1
 90
        2
 40
0.6
 41
30.0
 62
     5
 63
     7
 74
     1
 91
        4
 64
     7
 65
   257
 75
     1
175
     1
 42
1.0
 92
        0
 66
   257
 43
1.0
 76
     1
 77
     6
 78
     2
 67
     7
 79
     5
170
     0
171
     0
290
     0
174
     0
 93
       13
 44
0.0
173
     0
291
     1
 45
0.0
1001
ACAD
1000
AcDbSavedByObjectVersion
1070
     0
  0
VISUALSTYLE
  5
43D
102
{ACAD_REACTORS
330
2C
102
}
102
{ACAD_XDICTIONARY
360
515
102
}
330
2C
100
AcDbVisualStyle
  2
Hidden
 70
     6
 71
     1
 72
     2
 73
     2
 90
        0
 40
0.6
 41
30.0
 62
     5
 63
     7
 74
     2
 91
        2
 64
     7
 65
   257
 75
     2
175
     1
 42
40.0
 92
        0
 66
   257
 43
1.0
 76
     1
 77
     6
 78
     2
 67
     7
 79
     3
170
     0
171
     0
290
     0
174
     0
 93
        1
 44
0.0
173
     0
291
     0
 45
0.0
1001
ACAD
1000
AcDbSavedByObjectVersion
1070
     0
  0
VISUALSTYLE
  5
447
102
{ACAD_REACTORS
330
2C
102
}
102
{ACAD_XDICTIONARY
360
529
102
}
330
2C
100
AcDbVisualStyle
  2
JitterOff
 70
    20
 71
     2
 72
     2
 73
     0
 90
        0
 40
0.6
 41
30.0
 62
     5
 63
     7
 74
     1
 91
        4
 64
     7
 65
   257
 75
     1
175
     1
 42
1.0
 92
       10
 66
     7
 43
1.0
 76
     1
 77
     6
 78
     2
 67
     7
 79
     5
170
     0
171
     0
290
     0
174
     0
 93
        1
 44
0.0
173
     0
291
     1
 45
0.0
1001
ACAD
1000
AcDbSavedByObjectVersion
1070
     0
  0
VISUALSTYLE
  5
444
102
{ACAD_REACTORS
330
2C
102
}
102
{ACAD_XDICTIONARY
360
523
102
}
330
2C
100
AcDbVisualStyle
  2
Linepattern
 70
    14
 71
     2
 72
     2
 73
     0
 90
        0
 40
0.6
 41
30.0
 62
     5
 63
     7
 74
     1
 91
        4
 64
     7
 65
   257
 75
     7
175
     7
 42
1.0
 92
        8
 66
     7
 43
1.0
 76
     1
 77
     6
 78
     2
 67
     7
 79
     5
170
     0
171
     0
290
     0
174
     0
 93
        1
 44
0.0
173
     0
291
     1
 45
0.0
1001
ACAD
1000
AcDbSavedByObjectVersion
1070
     0
  0
VISUALSTYLE
  5
448
102
{ACAD_REACTORS
330
2C
102
}
102
{ACAD_XDICTIONARY
360
52B
102
}
330
2C
100
AcDbVisualStyle
  2
OverhangOff
 70
    21
 71
     2
 72
     2
 73
     0
 90
        0
 40
0.6
 41
30.0
 62
     5
 63
     7
 74
     1
 91
        4
 64
     7
 65
   257
 75
     1
175
     1
 42
1.0
 92
        9
 66
     7
 43
1.0
 76
     1
 77
     6
 78
     2
 67
     7
 79
     5
170
     0
171
     0
290
     0
174
     0
 93
        1
 44
0.0
173
     0
291
     1
 45
0.0
1001
ACAD
1000
AcDbSavedByObjectVersion
1070
     0
  0
VISUALSTYLE
  5
43F
102
{ACAD_REACTORS
330
2C
102
}
102
{ACAD_XDICTIONARY
360
519
102
}
330
2C
100
AcDbVisualStyle
  2
Realistic
 70
     8
 71
     2
 72
     3
 73
     0
 90
        2
 40
0.6
 41
30.0
 62
     5
 63
     7
 74
     0
 91
        0
 64
     7
 65
   257
 75
     1
175
     1
 42
1.0
 92
        8
 66
   257
 43
1.0
 76
     1
 77
     6
 78
     2
 67
     7
 79
     3
170
     0
171
     0
290
     0
174
     0
 93
       13
 44
0.0
173
     0
291
     0
 45
0.0
1001
ACAD
1000
AcDbSavedByObjectVersion
1070
     0
  0
VISUALSTYLE
  5
44E
102
{ACAD_REACTORS
330
2C
102
}
102
{ACAD_XDICTIONARY
360
537
102
}
330
2C
100
AcDbVisualStyle
  2
Shaded
 70
    27
 71
     2
 72
     2
 73
     1
 90
        2
 40
0.6
 41
30.0
 62
     5
 63
     7
 74
     0
 91
        4
 64
     7
 65
   257
 75
     1
175
     1
 42
1.0
 92
        8
 66
   257
 43
1.0
 76
     1
 77
     6
 78
     2
 67
   251
 79
     3
170
     0
171
     0
290
     0
174
     0
 93
        5
 44
0.0
173
     0
291
     0
 45
0.0
1001
ACAD
1000
AcDbSavedByObjectVersion
1070
     0
  0
VISUALSTYLE
  5
44D
102
{ACAD_REACTORS
330
2C
102
}
102
{ACAD_XDICTIONARY
360
535
102
}
330
2C
100
AcDbVisualStyle
  2
Shaded with edges
 70
    26
 71
     2
 72
     2
 73
     1
 90
        2
 40
0.6
 41
30.0
 62
     5
 63
     7
 74
     1
 91
       10
 64
     7
 65
   257
 75
     2
175
     1
 42
1.0
 92
        8
 66
   257
 43
1.0
 76
     1
 77
     6
 78
     2
 67
     7
 79
     3
170
     0
171
     0
290
     0
174
     0
 93
        5
 44
0.0
173
     0
291
     0
 45
0.0
1001
ACAD
1000
AcDbSavedByObjectVersion
1070
     0
  0
VISUALSTYLE
  5
44A
102
{ACAD_REACTORS
330
2C
102
}
102
{ACAD_XDICTIONARY
360
52F
102
}
330
2C
100
AcDbVisualStyle
  2
Shades of Gray
 70
    23
 71
     2
 72
     2
 73
     3
 90
        0
 40
0.6
 41
30.0
 62
     5
 63
     7
 74
     2
 91
        2
 64
     7
 65
     7
 75
     1
175
     1
 42
40.0
 92
        8
 66
     7
 43
1.0
 76
     1
 77
     6
 78
     2
 67
     7
 79
     3
170
     0
171
     0
290
     0
174
     0
 93
        1
 44
0.0
173
     0
291
     0
 45
0.0
1001
ACAD
1000
AcDbSavedByObjectVersion
1070
     0
  0
VISUALSTYLE
  5
44B
102
{ACAD_REACTORS
330
2C
102
}
102
{ACAD_XDICTIONARY
360
531
102
}
330
2C
100
AcDbVisualStyle
  2
Sketchy
 70
    24
 71
     1
 72
     2
 73
     2
 90
        0
 40
0.6
 41
30.0
 62
     5
 63
     7
 74
     2
 91
        2
 64
     7
 65
     7
 75
     1
175
     1
 42
40.0
 92
       11
 66
     7
 43
1.0
 76
     1
 77
     6
 78
     2
 67
     7
 79
     6
170
     0
171
     0
290
     0
174
     0
 93
        1
 44
0.0
173
     0
291
     0
 45
0.0
1001
ACAD
1000
AcDbSavedByObjectVersion
1070
     0
  0
VISUALSTYLE
  5
443
102
{ACAD_REACTORS
330
2C
102
}
102
{ACAD_XDICTIONARY
360
521
102
}
330
2C
100
AcDbVisualStyle
  2
Thicken
 70
    13
 71
     2
 72
     2
 73
     0
 90
        0
 40
0.6
 41
30.0
 62
     5
 63
     7
 74
     1
 91
        4
 64
     7
 65
   257
 75
     1
175
     1
 42
1.0
 92
       12
 66
     7
 43
1.0
 76
     1
 77
     6
 78
     2
 67
     7
 79
     5
170
     0
171
     0
290
     0
174
     0
 93
        1
 44
0.0
173
     0
291
     1
 45
0.0
1001
ACAD
1000
AcDbSavedByObjectVersion
1070
     0
  0
VISUALSTYLE
  5
43C
102
{ACAD_REACTORS
330
2C
102
}
102
{ACAD_XDICTIONARY
360
513
102
}
330
2C
100
AcDbVisualStyle
  2
Wireframe
 70
     5
 71
     0
 72
     2
 73
     0
 90
        0
 40
0.6
 41
30.0
 62
     5
 63
     7
 74
     1
 91
        4
 64
     7
 65
   257
 75
     1
175
     1
 42
1.0
 92
        0
 66
   257
 43
1.0
 76
     1
 77
     6
 78
     2
 67
     7
 79
     5
170
     0
171
     0
290
     0
174
     0
 93
        1
 44
0.0
173
     0
291
     0
 45
0.0
1001
ACAD
1000
AcDbSavedByObjectVersion
1070
     0
  0
VISUALSTYLE
  5
44C
102
{ACAD_REACTORS
330
2C
102
}
102
{ACAD_XDICTIONARY
360
533
102
}
330
2C
100
AcDbVisualStyle
  2
X-Ray
 70
    25
 71
     2
 72
     2
 73
     1
 90
        1
 40
0.5
 41
30.0
 62
     5
 63
     7
 74
     1
 91
        0
 64
     7
 65
   257
 75
     1
175
     1
 42
1.0
 92
        8
 66
     7
 43
1.0
 76
     1
 77
     6
 78
     2
 67
     7
 79
     3
170
     0
171
     0
290
     0
174
     0
 93
       13
 44
0.0
173
     0
291
     0
 45
0.0
1001
ACAD
1000
AcDbSavedByObjectVersion
1070
     0
  0
XRECORD
  5
4FD
102
{ACAD_REACTORS
330
4FC
102
}
330
4FC
100
AcDbXrecord
280
     1
340
2B
  0
XRECORD
  5
4FE
102
{ACAD_REACTORS
330
4FC
102
}
330
4FC
100
AcDbXrecord
280
     1
340
9
  0
DICTIONARYVAR
  5
432
102
{ACAD_REACTORS
330
431
102
}
330
431
100
DictionaryVariables
280
     0
  1
1:1
  0
DICTIONARYVAR
  5
453
102
{ACAD_REACTORS
330
431
102
}
330
431
100
DictionaryVariables
280
     0
  1
Standard
  0
DICTIONARYVAR
  5
4F9
102
{ACAD_REACTORS
330
431
102
}
330
431
100
DictionaryVariables
280
     0
  1
Standard
  0
DICTIONARYVAR
  5
4FA
102
{ACAD_REACTORS
330
431
102
}
330
431
100
DictionaryVariables
280
     0
  1
0
  0
DICTIONARYVAR
  5
4FB
102
{ACAD_REACTORS
330
431
102
}
330
431
100
DictionaryVariables
280
     0
  1
1
  0
DICTIONARYVAR
  5
502
102
{ACAD_REACTORS
330
431
102
}
330
431
100
DictionaryVariables
280
     0
  1
1
  0
DICTIONARY
  5
507
330
73
100
AcDbDictionary
280
     1
281
     1
  3
ACAD_XREC_ROUNDTRIP
360
508
  0
DICTIONARY
  5
503
330
10
100
AcDbDictionary
280
     1
281
     1
  3
ACAD_XREC_ROUNDTRIP
360
504
  0
DICTIONARY
  5
505
330
8
100
AcDbDictionary
280
     1
281
     1
  3
ACAD_XREC_ROUNDTRIP
360
506
  0
DICTIONARY
  5
539
330
44F
100
AcDbDictionary
280
     1
281
     1
  3
ACAD_XREC_ROUNDTRIP
360
53A
  0
DICTIONARY
  5
511
330
43B
100
AcDbDictionary
280
     1
281
     1
  3
ACAD_XREC_ROUNDTRIP
360
512
  0
DICTIONARY
  5
517
330
43E
100
AcDbDictionary
280
     1
281
     1
  3
ACAD_XREC_ROUNDTRIP
360
518
  0
DICTIONARY
  5
51F
330
442
100
AcDbDictionary
280
     1
281
     1
  3
ACAD_XREC_ROUNDTRIP
360
520
  0
DICTIONARY
  5
527
330
446
100
AcDbDictionary
280
     1
281
     1
  3
ACAD_XREC_ROUNDTRIP
360
528
  0
DICTIONARY
  5
51B
330
440
100
AcDbDictionary
280
     1
281
     1
  3
ACAD_XREC_ROUNDTRIP
360
51C
  0
DICTIONARY
  5
51D
330
441
100
AcDbDictionary
280
     1
281
     1
  3
ACAD_XREC_ROUNDTRIP
360
51E
  0
DICTIONARY
  5
52D
330
449
100
AcDbDictionary
280
     1
281
     1
  3
ACAD_XREC_ROUNDTRIP
360
52E
  0
DICTIONARY
  5
525
330
445
100
AcDbDictionary
280
     1
281
     1
  3
ACAD_XREC_ROUNDTRIP
360
526
  0
DICTIONARY
  5
509
330
437
100
AcDbDictionary
280
     1
281
     1
  3
ACAD_XREC_ROUNDTRIP
360
50A
  0
DICTIONARY
  5
50B
330
438
100
AcDbDictionary
280
     1
281
     1
  3
ACAD_XREC_ROUNDTRIP
360
50C
  0
DICTIONARY
  5
50D
330
439
100
AcDbDictionary
280
     1
281
     1
  3
ACAD_XREC_ROUNDTRIP
360
50E
  0
DICTIONARY
  5
50F
330
43A
100
AcDbDictionary
280
     1
281
     1
  3
ACAD_XREC_ROUNDTRIP
360
510
  0
DICTIONARY
  5
515
330
43D
100
AcDbDictionary
280
     1
281
     1
  3
ACAD_XREC_ROUNDTRIP
360
516
  0
DICTIONARY
  5
529
330
447
100
AcDbDictionary
280
     1
281
     1
  3
ACAD_XREC_ROUNDTRIP
360
52A
  0
DICTIONARY
  5
523
330
444
100
AcDbDictionary
280
     1
281
     1
  3
ACAD_XREC_ROUNDTRIP
360
524
  0
DICTIONARY
  5
52B
330
448
100
AcDbDictionary
280
     1
281
     1
  3
ACAD_XREC_ROUNDTRIP
360
52C
  0
DICTIONARY
  5
519
330
43F
100
AcDbDictionary
280
     1
281
     1
  3
ACAD_XREC_ROUNDTRIP
360
51A
  0
DICTIONARY
  5
537
330
44E
100
AcDbDictionary
280
     1
281
     1
  3
ACAD_XREC_ROUNDTRIP
360
538
  0
DICTIONARY
  5
535
330
44D
100
AcDbDictionary
280
     1
281
     1
  3
ACAD_XREC_ROUNDTRIP
360
536
  0
DICTIONARY
  5
52F
330
44A
100
AcDbDictionary
280
     1
281
     1
  3
ACAD_XREC_ROUNDTRIP
360
530
  0
DICTIONARY
  5
531
330
44B
100
AcDbDictionary
280
     1
281
     1
  3
ACAD_XREC_ROUNDTRIP
360
532
  0
DICTIONARY
  5
521
330
443
100
AcDbDictionary
280
     1
281
     1
  3
ACAD_XREC_ROUNDTRIP
360
522
  0
DICTIONARY
  5
513
330
43C
100
AcDbDictionary
280
     1
281
     1
  3
ACAD_XREC_ROUNDTRIP
360
514
  0
DICTIONARY
  5
533
330
44C
100
AcDbDictionary
280
     1
281
     1
  3
ACAD_XREC_ROUNDTRIP
360
534
  0
XRECORD
  5
508
102
{ACAD_REACTORS
330
507
102
}
330
507
100
AcDbXrecord
280
     1
102
MATERIAL
148
0.0
149
0.0
149
0.0
 93
        0
 94
      127
282
     0
 72
     1
 77
     1
171
     1
175
     1
179
     1
273
     0
  0
XRECORD
  5
504
102
{ACAD_REACTORS
330
503
102
}
330
503
100
AcDbXrecord
280
     1
102
MATERIAL
148
0.0
149
0.0
149
0.0
 93
        0
 94
      127
282
     0
 72
     1
 77
     1
171
     1
175
     1
179
     1
273
     0
  0
XRECORD
  5
506
102
{ACAD_REACTORS
330
505
102
}
330
505
100
AcDbXrecord
280
     1
102
MATERIAL
148
0.0
149
0.0
149
0.0
 93
        0
 94
      127
282
     0
 72
     0
 77
     0
171
     0
175
     0
179
     0
273
     0
  0
XRECORD
  5
53A
102
{ACAD_REACTORS
330
539
102
}
330
539
100
AcDbXrecord
280
     1
102
ACAD_ROUNDTRIP_2010_MLEADER_STYLE
  0
XRECORD
  5
512
102
{ACAD_REACTORS
330
511
102
}
330
511
100
AcDbXrecord
280
     1
102
RTVSPropertyOp0
 70
     1
102
RTVSPropertyOp1
 70
     1
102
RTVSPropertyOp2
 70
     1
102
RTVSPropertyOp3
 70
     1
102
RTVSPropertyOp4
 70
     1
102
RTVSPropertyOp5
 70
     1
102
RTVSPropertyOp6
 70
     1
102
RTVSPropertyOp7
 70
     1
102
RTVSPropertyOp8
 70
     1
102
RTVSPropertyOp9
 70
     1
102
RTVSPropertyOp10
 70
     1
102
RTVSPropertyOp11
 70
     1
102
RTVSPropertyOp12
 70
     1
102
RTVSPropertyOp13
 70
     1
102
RTVSPropertyOp14
 70
     1
102
RTVSPropertyOp15
 70
     1
102
RTVSPropertyOp16
 70
     1
102
RTVSPropertyOp17
 70
     1
102
RTVSPropertyOp18
 70
     1
102
RTVSPropertyOp19
 70
     1
102
RTVSPropertyOp20
 70
     1
102
RTVSPropertyOp21
 70
     1
102
RTVSPropertyOp22
 70
     1
102
RTVSPropertyOp23
 70
     1
102
RTVSPropertyOp24
 70
     1
102
RTVSPropertyOp25
 70
     1
102
RTVSPropertyOp26
 70
     1
102
RTVSPropertyOp27
 70
     1
102
RTVSPropertyOp28
 70
     1
102
RTVSPropertyOp29
 70
     1
102
RTVSPropertyOp30
 70
     1
102
RTVSPropertyOp31
 70
     1
102
RTVSPropertyOp32
 70
     1
102
RTVSPropertyOp33
 70
     1
102
RTVSPropertyOp34
 70
     1
102
RTVSPropertyOp35
 70
     1
102
RTVSPropertyOp36
 70
     1
102
RTVSPropertyOp37
 70
     1
102
RTVSPropertyOp38
 70
     1
102
RTVSPropertyOp39
 70
     1
102
RTVSPropertyOp40
 70
     1
102
RTVSPropertyOp41
 70
     1
102
RTVSPropertyOp42
 70
     1
102
RTVSPropertyOp43
 70
     1
102
RTVSPropertyOp44
 70
     1
102
RTVSPropertyOp45
 70
     1
102
RTVSPropertyOp46
 70
     1
102
RTVSPropertyOp47
 70
     1
102
RTVSPropertyOp48
 70
     1
102
RTVSPropertyOp49
 70
     1
102
RTVSPropertyOp50
 70
     1
102
RTVSPropertyOp51
 70
     0
102
RTVSPropertyOp52
 70
     0
102
RTVSPropertyOp53
 70
     1
102
RTVSPropertyOp54
 70
     1
102
RTVSPropertyOp55
 70
     1
102
RTVSPropertyOp56
 70
     1
102
RTVSPropertyOp57
 70
     1
102
RTVSPost2010Prop28
280
     1
102
RTVSPost2010PropOp28
 70
     1
102
RTVSPost2010Prop29
280
     1
102
RTVSPost2010PropOp29
 70
     1
102
RTVSPost2010Prop30
280
     0
102
RTVSPost2010PropOp30
 70
     1
102
RTVSPost2010Prop31
280
     0
102
RTVSPost2010PropOp31
 70
     1
102
RTVSPost2010Prop32
280
     0
102
RTVSPost2010PropOp32
 70
     1
102
RTVSPost2010Prop33
280
     0
102
RTVSPost2010PropOp33
 70
     1
102
RTVSPost2010Prop34
280
     0
102
RTVSPost2010PropOp34
 70
     1
102
RTVSPost2010Prop35
280
     0
102
RTVSPost2010PropOp35
 70
     1
102
RTVSPost2010Prop36
280
     0
102
RTVSPost2010PropOp36
 70
     1
102
RTVSPost2010Prop37
 90
       50
102
RTVSPost2010PropOp37
 70
     1
102
RTVSPost2010Prop38
140
0.0
102
RTVSPost2010PropOp38
 70
     1
102
RTVSPost2010Prop39
140
1.0
102
RTVSPost2010PropOp39
 70
     1
102
RTVSPost2010Prop40
 90
        0
102
RTVSPost2010PropOp40
 70
     1
102
RTVSPost2010Prop41ColorIndex
 90
       18
102
RTVSPost2010Prop41ColorRGB
 90
        0
102
RTVSPost2010PropOp41
 70
     1
102
RTVSPost2010Prop42
 90
       50
102
RTVSPost2010PropOp42
 70
     1
102
RTVSPost2010Prop43
 90
        3
102
RTVSPost2010PropOp43
 70
     1
102
RTVSPost2010Prop44ColorIndex
 90
        5
102
RTVSPost2010Prop44ColorRGB
 90
      255
102
RTVSPost2010PropOp44
 70
     1
102
RTVSPost2010Prop45
280
     0
102
RTVSPost2010PropOp45
 70
     1
102
RTVSPost2010Prop46
 90
       50
102
RTVSPost2010PropOp46
 70
     1
102
RTVSPost2010Prop47
 90
       50
102
RTVSPost2010PropOp47
 70
     1
102
RTVSPost2010Prop48
 90
       50
102
RTVSPost2010PropOp48
 70
     1
102
RTVSPost2010Prop49
280
     0
102
RTVSPost2010PropOp49
 70
     1
102
RTVSPost2010Prop50
 90
       50
102
RTVSPost2010PropOp50
 70
     1
102
RTVSPost2010Prop51ColorIndex
 90
      256
102
RTVSPost2010Prop51ColorRGB
 90
-16777216
102
RTVSPost2010PropOp51
 70
     0
102
RTVSPost2010Prop52
140
1.0
102
RTVSPost2010PropOp52
 70
     0
102
RTVSPost2010Prop53
 90
        2
102
RTVSPost2010PropOp53
 70
     1
102
RTVSPost2010Prop54
  1
strokes_ogs.tif
102
RTVSPost2010PropOp54
 70
     1
102
RTVSPost2010Prop55
280
     0
102
RTVSPost2010PropOp55
 70
     1
102
RTVSPost2010Prop56
140
1.0
102
RTVSPost2010PropOp56
 70
     1
102
RTVSPost2010Prop57
140
1.0
102
RTVSPost2010PropOp57
 70
     1
  0
XRECORD
  5
518
102
{ACAD_REACTORS
330
517
102
}
330
517
100
AcDbXrecord
280
     1
102
RTVSPropertyOp0
 70
     1
102
RTVSPropertyOp1
 70
     1
102
RTVSPropertyOp2
 70
     1
102
RTVSPropertyOp3
 70
     1
102
RTVSPropertyOp4
 70
     1
102
RTVSPropertyOp5
 70
     1
102
RTVSPropertyOp6
 70
     1
102
RTVSPropertyOp7
 70
     1
102
RTVSPropertyOp8
 70
     1
102
RTVSPropertyOp9
 70
     1
102
RTVSPropertyOp10
 70
     1
102
RTVSPropertyOp11
 70
     1
102
RTVSPropertyOp12
 70
     1
102
RTVSPropertyOp13
 70
     1
102
RTVSPropertyOp14
 70
     1
102
RTVSPropertyOp15
 70
     1
102
RTVSPropertyOp16
 70
     1
102
RTVSPropertyOp17
 70
     1
102
RTVSPropertyOp18
 70
     1
102
RTVSPropertyOp19
 70
     1
102
RTVSPropertyOp20
 70
     1
102
RTVSPropertyOp21
 70
     1
102
RTVSPropertyOp22
 70
     1
102
RTVSPropertyOp23
 70
     1
102
RTVSPropertyOp24
 70
     1
102
RTVSPropertyOp25
 70
     1
102
RTVSPropertyOp26
 70
     1
102
RTVSPropertyOp27
 70
     1
102
RTVSPropertyOp28
 70
     1
102
RTVSPropertyOp29
 70
     1
102
RTVSPropertyOp30
 70
     1
102
RTVSPropertyOp31
 70
     1
102
RTVSPropertyOp32
 70
     1
102
RTVSPropertyOp33
 70
     1
102
RTVSPropertyOp34
 70
     1
102
RTVSPropertyOp35
 70
     1
102
RTVSPropertyOp36
 70
     1
102
RTVSPropertyOp37
 70
     1
102
RTVSPropertyOp38
 70
     1
102
RTVSPropertyOp39
 70
     1
102
RTVSPropertyOp40
 70
     1
102
RTVSPropertyOp41
 70
     1
102
RTVSPropertyOp42
 70
     1
102
RTVSPropertyOp43
 70
     1
102
RTVSPropertyOp44
 70
     1
102
RTVSPropertyOp45
 70
     1
102
RTVSPropertyOp46
 70
     1
102
RTVSPropertyOp47
 70
     1
102
RTVSPropertyOp48
 70
     1
102
RTVSPropertyOp49
 70
     1
102
RTVSPropertyOp50
 70
     1
102
RTVSPropertyOp51
 70
     0
102
RTVSPropertyOp52
 70
     0
102
RTVSPropertyOp53
 70
     1
102
RTVSPropertyOp54
 70
     1
102
RTVSPropertyOp55
 70
     1
102
RTVSPropertyOp56
 70
     1
102
RTVSPropertyOp57
 70
     1
102
RTVSPost2010Prop28
280
     0
102
RTVSPost2010PropOp28
 70
     1
102
RTVSPost2010Prop29
280
     1
102
RTVSPost2010PropOp29
 70
     1
102
RTVSPost2010Prop30
280
     1
102
RTVSPost2010PropOp30
 70
     1
102
RTVSPost2010Prop31
280
     0
102
RTVSPost2010PropOp31
 70
     1
102
RTVSPost2010Prop32
280
     0
102
RTVSPost2010PropOp32
 70
     1
102
RTVSPost2010Prop33
280
     0
102
RTVSPost2010PropOp33
 70
     1
102
RTVSPost2010Prop34
280
     0
102
RTVSPost2010PropOp34
 70
     1
102
RTVSPost2010Prop35
280
     0
102
RTVSPost2010PropOp35
 70
     1
102
RTVSPost2010Prop36
280
     0
102
RTVSPost2010PropOp36
 70
     1
102
RTVSPost2010Prop37
 90
       50
102
RTVSPost2010PropOp37
 70
     1
102
RTVSPost2010Prop38
140
0.0
102
RTVSPost2010PropOp38
 70
     1
102
RTVSPost2010Prop39
140
1.0
102
RTVSPost2010PropOp39
 70
     1
102
RTVSPost2010Prop40
 90
        0
102
RTVSPost2010PropOp40
 70
     1
102
RTVSPost2010Prop41ColorIndex
 90
       18
102
RTVSPost2010Prop41ColorRGB
 90
        0
102
RTVSPost2010PropOp41
 70
     1
102
RTVSPost2010Prop42
 90
       50
102
RTVSPost2010PropOp42
 70
     1
102
RTVSPost2010Prop43
 90
        3
102
RTVSPost2010PropOp43
 70
     1
102
RTVSPost2010Prop44ColorIndex
 90
        5
102
RTVSPost2010Prop44ColorRGB
 90
      255
102
RTVSPost2010PropOp44
 70
     1
102
RTVSPost2010Prop45
280
     0
102
RTVSPost2010PropOp45
 70
     1
102
RTVSPost2010Prop46
 90
       50
102
RTVSPost2010PropOp46
 70
     1
102
RTVSPost2010Prop47
 90
       50
102
RTVSPost2010PropOp47
 70
     1
102
RTVSPost2010Prop48
 90
       50
102
RTVSPost2010PropOp48
 70
     1
102
RTVSPost2010Prop49
280
     0
102
RTVSPost2010PropOp49
 70
     1
102
RTVSPost2010Prop50
 90
       50
102
RTVSPost2010PropOp50
 70
     1
102
RTVSPost2010Prop51ColorIndex
 90
      256
102
RTVSPost2010Prop51ColorRGB
 90
-16777216
102
RTVSPost2010PropOp51
 70
     0
102
RTVSPost2010Prop52
140
1.0
102
RTVSPost2010PropOp52
 70
     0
102
RTVSPost2010Prop53
 90
        2
102
RTVSPost2010PropOp53
 70
     1
102
RTVSPost2010Prop54
  1
strokes_ogs.tif
102
RTVSPost2010PropOp54
 70
     1
102
RTVSPost2010Prop55
280
     0
102
RTVSPost2010PropOp55
 70
     1
102
RTVSPost2010Prop56
140
1.0
102
RTVSPost2010PropOp56
 70
     1
102
RTVSPost2010Prop57
140
1.0
102
RTVSPost2010PropOp57
 70
     1
  0
XRECORD
  5
520
102
{ACAD_REACTORS
330
51F
102
}
330
51F
100
AcDbXrecord
280
     1
102
RTVSPropertyOp0
 70
     1
102
RTVSPropertyOp1
 70
     1
102
RTVSPropertyOp2
 70
     1
102
RTVSPropertyOp3
 70
     1
102
RTVSPropertyOp4
 70
     1
102
RTVSPropertyOp5
 70
     1
102
RTVSPropertyOp6
 70
     1
102
RTVSPropertyOp7
 70
     1
102
RTVSPropertyOp8
 70
     1
102
RTVSPropertyOp9
 70
     1
102
RTVSPropertyOp10
 70
     1
102
RTVSPropertyOp11
 70
     1
102
RTVSPropertyOp12
 70
     1
102
RTVSPropertyOp13
 70
     1
102
RTVSPropertyOp14
 70
     1
102
RTVSPropertyOp15
 70
     1
102
RTVSPropertyOp16
 70
     1
102
RTVSPropertyOp17
 70
     1
102
RTVSPropertyOp18
 70
     1
102
RTVSPropertyOp19
 70
     1
102
RTVSPropertyOp20
 70
     1
102
RTVSPropertyOp21
 70
     1
102
RTVSPropertyOp22
 70
     1
102
RTVSPropertyOp23
 70
     1
102
RTVSPropertyOp24
 70
     1
102
RTVSPropertyOp25
 70
     1
102
RTVSPropertyOp26
 70
     1
102
RTVSPropertyOp27
 70
     1
102
RTVSPropertyOp28
 70
     1
102
RTVSPropertyOp29
 70
     1
102
RTVSPropertyOp30
 70
     1
102
RTVSPropertyOp31
 70
     1
102
RTVSPropertyOp32
 70
     1
102
RTVSPropertyOp33
 70
     1
102
RTVSPropertyOp34
 70
     1
102
RTVSPropertyOp35
 70
     1
102
RTVSPropertyOp36
 70
     1
102
RTVSPropertyOp37
 70
     1
102
RTVSPropertyOp38
 70
     1
102
RTVSPropertyOp39
 70
     1
102
RTVSPropertyOp40
 70
     1
102
RTVSPropertyOp41
 70
     1
102
RTVSPropertyOp42
 70
     1
102
RTVSPropertyOp43
 70
     1
102
RTVSPropertyOp44
 70
     1
102
RTVSPropertyOp45
 70
     1
102
RTVSPropertyOp46
 70
     1
102
RTVSPropertyOp47
 70
     1
102
RTVSPropertyOp48
 70
     1
102
RTVSPropertyOp49
 70
     1
102
RTVSPropertyOp50
 70
     1
102
RTVSPropertyOp51
 70
     0
102
RTVSPropertyOp52
 70
     0
102
RTVSPropertyOp53
 70
     1
102
RTVSPropertyOp54
 70
     1
102
RTVSPropertyOp55
 70
     1
102
RTVSPropertyOp56
 70
     1
102
RTVSPropertyOp57
 70
     1
102
RTVSPost2010Prop28
280
     0
102
RTVSPost2010PropOp28
 70
     1
102
RTVSPost2010Prop29
280
     1
102
RTVSPost2010PropOp29
 70
     1
102
RTVSPost2010Prop30
280
     1
102
RTVSPost2010PropOp30
 70
     1
102
RTVSPost2010Prop31
280
     0
102
RTVSPost2010PropOp31
 70
     1
102
RTVSPost2010Prop32
280
     0
102
RTVSPost2010PropOp32
 70
     1
102
RTVSPost2010Prop33
280
     0
102
RTVSPost2010PropOp33
 70
     1
102
RTVSPost2010Prop34
280
     0
102
RTVSPost2010PropOp34
 70
     1
102
RTVSPost2010Prop35
280
     0
102
RTVSPost2010PropOp35
 70
     1
102
RTVSPost2010Prop36
280
     0
102
RTVSPost2010PropOp36
 70
     1
102
RTVSPost2010Prop37
 90
       50
102
RTVSPost2010PropOp37
 70
     1
102
RTVSPost2010Prop38
140
0.0
102
RTVSPost2010PropOp38
 70
     1
102
RTVSPost2010Prop39
140
1.0
102
RTVSPost2010PropOp39
 70
     1
102
RTVSPost2010Prop40
 90
        0
102
RTVSPost2010PropOp40
 70
     1
102
RTVSPost2010Prop41ColorIndex
 90
       18
102
RTVSPost2010Prop41ColorRGB
 90
        0
102
RTVSPost2010PropOp41
 70
     1
102
RTVSPost2010Prop42
 90
       50
102
RTVSPost2010PropOp42
 70
     1
102
RTVSPost2010Prop43
 90
        3
102
RTVSPost2010PropOp43
 70
     1
102
RTVSPost2010Prop44ColorIndex
 90
        5
102
RTVSPost2010Prop44ColorRGB
 90
      255
102
RTVSPost2010PropOp44
 70
     1
102
RTVSPost2010Prop45
280
     0
102
RTVSPost2010PropOp45
 70
     1
102
RTVSPost2010Prop46
 90
       50
102
RTVSPost2010PropOp46
 70
     1
102
RTVSPost2010Prop47
 90
       50
102
RTVSPost2010PropOp47
 70
     1
102
RTVSPost2010Prop48
 90
       50
102
RTVSPost2010PropOp48
 70
     1
102
RTVSPost2010Prop49
280
     0
102
RTVSPost2010PropOp49
 70
     1
102
RTVSPost2010Prop50
 90
       50
102
RTVSPost2010PropOp50
 70
     1
102
RTVSPost2010Prop51ColorIndex
 90
      256
102
RTVSPost2010Prop51ColorRGB
 90
-16777216
102
RTVSPost2010PropOp51
 70
     0
102
RTVSPost2010Prop52
140
1.0
102
RTVSPost2010PropOp52
 70
     0
102
RTVSPost2010Prop53
 90
        2
102
RTVSPost2010PropOp53
 70
     1
102
RTVSPost2010Prop54
  1
strokes_ogs.tif
102
RTVSPost2010PropOp54
 70
     1
102
RTVSPost2010Prop55
280
     0
102
RTVSPost2010PropOp55
 70
     1
102
RTVSPost2010Prop56
140
1.0
102
RTVSPost2010PropOp56
 70
     1
102
RTVSPost2010Prop57
140
1.0
102
RTVSPost2010PropOp57
 70
     1
  0
XRECORD
  5
528
102
{ACAD_REACTORS
330
527
102
}
330
527
100
AcDbXrecord
280
     1
102
RTVSPropertyOp0
 70
     1
102
RTVSPropertyOp1
 70
     1
102
RTVSPropertyOp2
 70
     1
102
RTVSPropertyOp3
 70
     1
102
RTVSPropertyOp4
 70
     1
102
RTVSPropertyOp5
 70
     1
102
RTVSPropertyOp6
 70
     1
102
RTVSPropertyOp7
 70
     1
102
RTVSPropertyOp8
 70
     1
102
RTVSPropertyOp9
 70
     1
102
RTVSPropertyOp10
 70
     1
102
RTVSPropertyOp11
 70
     1
102
RTVSPropertyOp12
 70
     1
102
RTVSPropertyOp13
 70
     1
102
RTVSPropertyOp14
 70
     1
102
RTVSPropertyOp15
 70
     1
102
RTVSPropertyOp16
 70
     1
102
RTVSPropertyOp17
 70
     1
102
RTVSPropertyOp18
 70
     1
102
RTVSPropertyOp19
 70
     1
102
RTVSPropertyOp20
 70
     1
102
RTVSPropertyOp21
 70
     1
102
RTVSPropertyOp22
 70
     1
102
RTVSPropertyOp23
 70
     1
102
RTVSPropertyOp24
 70
     1
102
RTVSPropertyOp25
 70
     1
102
RTVSPropertyOp26
 70
     1
102
RTVSPropertyOp27
 70
     1
102
RTVSPropertyOp28
 70
     1
102
RTVSPropertyOp29
 70
     1
102
RTVSPropertyOp30
 70
     1
102
RTVSPropertyOp31
 70
     1
102
RTVSPropertyOp32
 70
     1
102
RTVSPropertyOp33
 70
     1
102
RTVSPropertyOp34
 70
     1
102
RTVSPropertyOp35
 70
     1
102
RTVSPropertyOp36
 70
     1
102
RTVSPropertyOp37
 70
     1
102
RTVSPropertyOp38
 70
     1
102
RTVSPropertyOp39
 70
     1
102
RTVSPropertyOp40
 70
     1
102
RTVSPropertyOp41
 70
     1
102
RTVSPropertyOp42
 70
     1
102
RTVSPropertyOp43
 70
     1
102
RTVSPropertyOp44
 70
     1
102
RTVSPropertyOp45
 70
     1
102
RTVSPropertyOp46
 70
     1
102
RTVSPropertyOp47
 70
     1
102
RTVSPropertyOp48
 70
     1
102
RTVSPropertyOp49
 70
     1
102
RTVSPropertyOp50
 70
     1
102
RTVSPropertyOp51
 70
     0
102
RTVSPropertyOp52
 70
     0
102
RTVSPropertyOp53
 70
     1
102
RTVSPropertyOp54
 70
     1
102
RTVSPropertyOp55
 70
     1
102
RTVSPropertyOp56
 70
     1
102
RTVSPropertyOp57
 70
     1
102
RTVSPost2010Prop28
280
     0
102
RTVSPost2010PropOp28
 70
     1
102
RTVSPost2010Prop29
280
     1
102
RTVSPost2010PropOp29
 70
     1
102
RTVSPost2010Prop30
280
     1
102
RTVSPost2010PropOp30
 70
     1
102
RTVSPost2010Prop31
280
     0
102
RTVSPost2010PropOp31
 70
     1
102
RTVSPost2010Prop32
280
     0
102
RTVSPost2010PropOp32
 70
     1
102
RTVSPost2010Prop33
280
     0
102
RTVSPost2010PropOp33
 70
     1
102
RTVSPost2010Prop34
280
     0
102
RTVSPost2010PropOp34
 70
     1
102
RTVSPost2010Prop35
280
     0
102
RTVSPost2010PropOp35
 70
     1
102
RTVSPost2010Prop36
280
     0
102
RTVSPost2010PropOp36
 70
     1
102
RTVSPost2010Prop37
 90
       50
102
RTVSPost2010PropOp37
 70
     1
102
RTVSPost2010Prop38
140
0.0
102
RTVSPost2010PropOp38
 70
     1
102
RTVSPost2010Prop39
140
1.0
102
RTVSPost2010PropOp39
 70
     1
102
RTVSPost2010Prop40
 90
        0
102
RTVSPost2010PropOp40
 70
     1
102
RTVSPost2010Prop41ColorIndex
 90
       18
102
RTVSPost2010Prop41ColorRGB
 90
        0
102
RTVSPost2010PropOp41
 70
     1
102
RTVSPost2010Prop42
 90
       50
102
RTVSPost2010PropOp42
 70
     1
102
RTVSPost2010Prop43
 90
        3
102
RTVSPost2010PropOp43
 70
     1
102
RTVSPost2010Prop44ColorIndex
 90
        5
102
RTVSPost2010Prop44ColorRGB
 90
      255
102
RTVSPost2010PropOp44
 70
     1
102
RTVSPost2010Prop45
280
     0
102
RTVSPost2010PropOp45
 70
     1
102
RTVSPost2010Prop46
 90
       50
102
RTVSPost2010PropOp46
 70
     1
102
RTVSPost2010Prop47
 90
       50
102
RTVSPost2010PropOp47
 70
     1
102
RTVSPost2010Prop48
 90
       50
102
RTVSPost2010PropOp48
 70
     1
102
RTVSPost2010Prop49
280
     0
102
RTVSPost2010PropOp49
 70
     1
102
RTVSPost2010Prop50
 90
       50
102
RTVSPost2010PropOp50
 70
     1
102
RTVSPost2010Prop51ColorIndex
 90
      256
102
RTVSPost2010Prop51ColorRGB
 90
-16777216
102
RTVSPost2010PropOp51
 70
     0
102
RTVSPost2010Prop52
140
1.0
102
RTVSPost2010PropOp52
 70
     0
102
RTVSPost2010Prop53
 90
        2
102
RTVSPost2010PropOp53
 70
     1
102
RTVSPost2010Prop54
  1
strokes_ogs.tif
102
RTVSPost2010PropOp54
 70
     1
102
RTVSPost2010Prop55
280
     0
102
RTVSPost2010PropOp55
 70
     1
102
RTVSPost2010Prop56
140
1.0
102
RTVSPost2010PropOp56
 70
     1
102
RTVSPost2010Prop57
140
1.0
102
RTVSPost2010PropOp57
 70
     1
  0
XRECORD
  5
51C
102
{ACAD_REACTORS
330
51B
102
}
330
51B
100
AcDbXrecord
280
     1
102
RTVSPropertyOp0
 70
     1
102
RTVSPropertyOp1
 70
     1
102
RTVSPropertyOp2
 70
     1
102
RTVSPropertyOp3
 70
     1
102
RTVSPropertyOp4
 70
     1
102
RTVSPropertyOp5
 70
     1
102
RTVSPropertyOp6
 70
     1
102
RTVSPropertyOp7
 70
     1
102
RTVSPropertyOp8
 70
     1
102
RTVSPropertyOp9
 70
     1
102
RTVSPropertyOp10
 70
     1
102
RTVSPropertyOp11
 70
     1
102
RTVSPropertyOp12
 70
     1
102
RTVSPropertyOp13
 70
     1
102
RTVSPropertyOp14
 70
     1
102
RTVSPropertyOp15
 70
     1
102
RTVSPropertyOp16
 70
     1
102
RTVSPropertyOp17
 70
     1
102
RTVSPropertyOp18
 70
     1
102
RTVSPropertyOp19
 70
     1
102
RTVSPropertyOp20
 70
     1
102
RTVSPropertyOp21
 70
     1
102
RTVSPropertyOp22
 70
     1
102
RTVSPropertyOp23
 70
     1
102
RTVSPropertyOp24
 70
     1
102
RTVSPropertyOp25
 70
     1
102
RTVSPropertyOp26
 70
     1
102
RTVSPropertyOp27
 70
     1
102
RTVSPropertyOp28
 70
     1
102
RTVSPropertyOp29
 70
     1
102
RTVSPropertyOp30
 70
     1
102
RTVSPropertyOp31
 70
     1
102
RTVSPropertyOp32
 70
     1
102
RTVSPropertyOp33
 70
     1
102
RTVSPropertyOp34
 70
     1
102
RTVSPropertyOp35
 70
     1
102
RTVSPropertyOp36
 70
     1
102
RTVSPropertyOp37
 70
     1
102
RTVSPropertyOp38
 70
     1
102
RTVSPropertyOp39
 70
     1
102
RTVSPropertyOp40
 70
     1
102
RTVSPropertyOp41
 70
     1
102
RTVSPropertyOp42
 70
     1
102
RTVSPropertyOp43
 70
     1
102
RTVSPropertyOp44
 70
     1
102
RTVSPropertyOp45
 70
     1
102
RTVSPropertyOp46
 70
     1
102
RTVSPropertyOp47
 70
     1
102
RTVSPropertyOp48
 70
     1
102
RTVSPropertyOp49
 70
     1
102
RTVSPropertyOp50
 70
     1
102
RTVSPropertyOp51
 70
     0
102
RTVSPropertyOp52
 70
     0
102
RTVSPropertyOp53
 70
     1
102
RTVSPropertyOp54
 70
     1
102
RTVSPropertyOp55
 70
     1
102
RTVSPropertyOp56
 70
     1
102
RTVSPropertyOp57
 70
     1
102
RTVSPost2010Prop28
280
     0
102
RTVSPost2010PropOp28
 70
     1
102
RTVSPost2010Prop29
280
     1
102
RTVSPost2010PropOp29
 70
     1
102
RTVSPost2010Prop30
280
     1
102
RTVSPost2010PropOp30
 70
     1
102
RTVSPost2010Prop31
280
     0
102
RTVSPost2010PropOp31
 70
     1
102
RTVSPost2010Prop32
280
     0
102
RTVSPost2010PropOp32
 70
     1
102
RTVSPost2010Prop33
280
     0
102
RTVSPost2010PropOp33
 70
     1
102
RTVSPost2010Prop34
280
     0
102
RTVSPost2010PropOp34
 70
     1
102
RTVSPost2010Prop35
280
     0
102
RTVSPost2010PropOp35
 70
     1
102
RTVSPost2010Prop36
280
     0
102
RTVSPost2010PropOp36
 70
     1
102
RTVSPost2010Prop37
 90
       50
102
RTVSPost2010PropOp37
 70
     1
102
RTVSPost2010Prop38
140
0.0
102
RTVSPost2010PropOp38
 70
     1
102
RTVSPost2010Prop39
140
1.0
102
RTVSPost2010PropOp39
 70
     1
102
RTVSPost2010Prop40
 90
        0
102
RTVSPost2010PropOp40
 70
     1
102
RTVSPost2010Prop41ColorIndex
 90
       18
102
RTVSPost2010Prop41ColorRGB
 90
        0
102
RTVSPost2010PropOp41
 70
     1
102
RTVSPost2010Prop42
 90
       50
102
RTVSPost2010PropOp42
 70
     1
102
RTVSPost2010Prop43
 90
        3
102
RTVSPost2010PropOp43
 70
     1
102
RTVSPost2010Prop44ColorIndex
 90
        5
102
RTVSPost2010Prop44ColorRGB
 90
      255
102
RTVSPost2010PropOp44
 70
     1
102
RTVSPost2010Prop45
280
     0
102
RTVSPost2010PropOp45
 70
     1
102
RTVSPost2010Prop46
 90
       50
102
RTVSPost2010PropOp46
 70
     1
102
RTVSPost2010Prop47
 90
       50
102
RTVSPost2010PropOp47
 70
     1
102
RTVSPost2010Prop48
 90
       50
102
RTVSPost2010PropOp48
 70
     1
102
RTVSPost2010Prop49
280
     0
102
RTVSPost2010PropOp49
 70
     1
102
RTVSPost2010Prop50
 90
       50
102
RTVSPost2010PropOp50
 70
     1
102
RTVSPost2010Prop51ColorIndex
 90
      256
102
RTVSPost2010Prop51ColorRGB
 90
-16777216
102
RTVSPost2010PropOp51
 70
     0
102
RTVSPost2010Prop52
140
1.0
102
RTVSPost2010PropOp52
 70
     0
102
RTVSPost2010Prop53
 90
        2
102
RTVSPost2010PropOp53
 70
     1
102
RTVSPost2010Prop54
  1
strokes_ogs.tif
102
RTVSPost2010PropOp54
 70
     1
102
RTVSPost2010Prop55
280
     0
102
RTVSPost2010PropOp55
 70
     1
102
RTVSPost2010Prop56
140
1.0
102
RTVSPost2010PropOp56
 70
     1
102
RTVSPost2010Prop57
140
1.0
102
RTVSPost2010PropOp57
 70
     1
  0
XRECORD
  5
51E
102
{ACAD_REACTORS
330
51D
102
}
330
51D
100
AcDbXrecord
280
     1
102
RTVSPropertyOp0
 70
     1
102
RTVSPropertyOp1
 70
     1
102
RTVSPropertyOp2
 70
     1
102
RTVSPropertyOp3
 70
     1
102
RTVSPropertyOp4
 70
     1
102
RTVSPropertyOp5
 70
     1
102
RTVSPropertyOp6
 70
     1
102
RTVSPropertyOp7
 70
     1
102
RTVSPropertyOp8
 70
     1
102
RTVSPropertyOp9
 70
     1
102
RTVSPropertyOp10
 70
     1
102
RTVSPropertyOp11
 70
     1
102
RTVSPropertyOp12
 70
     1
102
RTVSPropertyOp13
 70
     1
102
RTVSPropertyOp14
 70
     1
102
RTVSPropertyOp15
 70
     1
102
RTVSPropertyOp16
 70
     1
102
RTVSPropertyOp17
 70
     1
102
RTVSPropertyOp18
 70
     1
102
RTVSPropertyOp19
 70
     1
102
RTVSPropertyOp20
 70
     1
102
RTVSPropertyOp21
 70
     1
102
RTVSPropertyOp22
 70
     1
102
RTVSPropertyOp23
 70
     1
102
RTVSPropertyOp24
 70
     1
102
RTVSPropertyOp25
 70
     1
102
RTVSPropertyOp26
 70
     1
102
RTVSPropertyOp27
 70
     1
102
RTVSPropertyOp28
 70
     1
102
RTVSPropertyOp29
 70
     1
102
RTVSPropertyOp30
 70
     1
102
RTVSPropertyOp31
 70
     1
102
RTVSPropertyOp32
 70
     1
102
RTVSPropertyOp33
 70
     1
102
RTVSPropertyOp34
 70
     1
102
RTVSPropertyOp35
 70
     1
102
RTVSPropertyOp36
 70
     1
102
RTVSPropertyOp37
 70
     1
102
RTVSPropertyOp38
 70
     1
102
RTVSPropertyOp39
 70
     1
102
RTVSPropertyOp40
 70
     1
102
RTVSPropertyOp41
 70
     1
102
RTVSPropertyOp42
 70
     1
102
RTVSPropertyOp43
 70
     1
102
RTVSPropertyOp44
 70
     1
102
RTVSPropertyOp45
 70
     1
102
RTVSPropertyOp46
 70
     1
102
RTVSPropertyOp47
 70
     1
102
RTVSPropertyOp48
 70
     1
102
RTVSPropertyOp49
 70
     1
102
RTVSPropertyOp50
 70
     1
102
RTVSPropertyOp51
 70
     0
102
RTVSPropertyOp52
 70
     0
102
RTVSPropertyOp53
 70
     1
102
RTVSPropertyOp54
 70
     1
102
RTVSPropertyOp55
 70
     1
102
RTVSPropertyOp56
 70
     1
102
RTVSPropertyOp57
 70
     1
102
RTVSPost2010Prop28
280
     0
102
RTVSPost2010PropOp28
 70
     1
102
RTVSPost2010Prop29
280
     1
102
RTVSPost2010PropOp29
 70
     1
102
RTVSPost2010Prop30
280
     1
102
RTVSPost2010PropOp30
 70
     1
102
RTVSPost2010Prop31
280
     0
102
RTVSPost2010PropOp31
 70
     1
102
RTVSPost2010Prop32
280
     0
102
RTVSPost2010PropOp32
 70
     1
102
RTVSPost2010Prop33
280
     0
102
RTVSPost2010PropOp33
 70
     1
102
RTVSPost2010Prop34
280
     0
102
RTVSPost2010PropOp34
 70
     1
102
RTVSPost2010Prop35
280
     0
102
RTVSPost2010PropOp35
 70
     1
102
RTVSPost2010Prop36
280
     0
102
RTVSPost2010PropOp36
 70
     1
102
RTVSPost2010Prop37
 90
       50
102
RTVSPost2010PropOp37
 70
     1
102
RTVSPost2010Prop38
140
0.0
102
RTVSPost2010PropOp38
 70
     1
102
RTVSPost2010Prop39
140
1.0
102
RTVSPost2010PropOp39
 70
     1
102
RTVSPost2010Prop40
 90
        0
102
RTVSPost2010PropOp40
 70
     1
102
RTVSPost2010Prop41ColorIndex
 90
       18
102
RTVSPost2010Prop41ColorRGB
 90
        0
102
RTVSPost2010PropOp41
 70
     1
102
RTVSPost2010Prop42
 90
       50
102
RTVSPost2010PropOp42
 70
     1
102
RTVSPost2010Prop43
 90
        3
102
RTVSPost2010PropOp43
 70
     1
102
RTVSPost2010Prop44ColorIndex
 90
        5
102
RTVSPost2010Prop44ColorRGB
 90
      255
102
RTVSPost2010PropOp44
 70
     1
102
RTVSPost2010Prop45
280
     0
102
RTVSPost2010PropOp45
 70
     1
102
RTVSPost2010Prop46
 90
       50
102
RTVSPost2010PropOp46
 70
     1
102
RTVSPost2010Prop47
 90
       50
102
RTVSPost2010PropOp47
 70
     1
102
RTVSPost2010Prop48
 90
       50
102
RTVSPost2010PropOp48
 70
     1
102
RTVSPost2010Prop49
280
     0
102
RTVSPost2010PropOp49
 70
     1
102
RTVSPost2010Prop50
 90
       50
102
RTVSPost2010PropOp50
 70
     1
102
RTVSPost2010Prop51ColorIndex
 90
      256
102
RTVSPost2010Prop51ColorRGB
 90
-16777216
102
RTVSPost2010PropOp51
 70
     0
102
RTVSPost2010Prop52
140
1.0
102
RTVSPost2010PropOp52
 70
     0
102
RTVSPost2010Prop53
 90
        2
102
RTVSPost2010PropOp53
 70
     1
102
RTVSPost2010Prop54
  1
strokes_ogs.tif
102
RTVSPost2010PropOp54
 70
     1
102
RTVSPost2010Prop55
280
     0
102
RTVSPost2010PropOp55
 70
     1
102
RTVSPost2010Prop56
140
1.0
102
RTVSPost2010PropOp56
 70
     1
102
RTVSPost2010Prop57
140
1.0
102
RTVSPost2010PropOp57
 70
     1
  0
XRECORD
  5
52E
102
{ACAD_REACTORS
330
52D
102
}
330
52D
100
AcDbXrecord
280
     1
102
RTVSPropertyOp0
 70
     0
102
RTVSPropertyOp1
 70
     0
102
RTVSPropertyOp2
 70
     0
102
RTVSPropertyOp3
 70
     0
102
RTVSPropertyOp4
 70
     0
102
RTVSPropertyOp5
 70
     0
102
RTVSPropertyOp6
 70
     0
102
RTVSPropertyOp7
 70
     0
102
RTVSPropertyOp8
 70
     0
102
RTVSPropertyOp9
 70
     0
102
RTVSPropertyOp10
 70
     0
102
RTVSPropertyOp11
 70
     0
102
RTVSPropertyOp12
 70
     0
102
RTVSPropertyOp13
 70
     0
102
RTVSPropertyOp14
 70
     0
102
RTVSPropertyOp15
 70
     0
102
RTVSPropertyOp16
 70
     0
102
RTVSPropertyOp17
 70
     0
102
RTVSPropertyOp18
 70
     0
102
RTVSPropertyOp19
 70
     0
102
RTVSPropertyOp20
 70
     0
102
RTVSPropertyOp21
 70
     0
102
RTVSPropertyOp22
 70
     0
102
RTVSPropertyOp23
 70
     0
102
RTVSPropertyOp24
 70
     0
102
RTVSPropertyOp25
 70
     0
102
RTVSPropertyOp26
 70
     0
102
RTVSPropertyOp27
 70
     0
102
RTVSPropertyOp28
 70
     1
102
RTVSPropertyOp29
 70
     1
102
RTVSPropertyOp30
 70
     1
102
RTVSPropertyOp31
 70
     1
102
RTVSPropertyOp32
 70
     1
102
RTVSPropertyOp33
 70
     1
102
RTVSPropertyOp34
 70
     1
102
RTVSPropertyOp35
 70
     1
102
RTVSPropertyOp36
 70
     1
102
RTVSPropertyOp37
 70
     1
102
RTVSPropertyOp38
 70
     1
102
RTVSPropertyOp39
 70
     1
102
RTVSPropertyOp40
 70
     1
102
RTVSPropertyOp41
 70
     1
102
RTVSPropertyOp42
 70
     1
102
RTVSPropertyOp43
 70
     1
102
RTVSPropertyOp44
 70
     1
102
RTVSPropertyOp45
 70
     1
102
RTVSPropertyOp46
 70
     1
102
RTVSPropertyOp47
 70
     1
102
RTVSPropertyOp48
 70
     1
102
RTVSPropertyOp49
 70
     1
102
RTVSPropertyOp50
 70
     1
102
RTVSPropertyOp51
 70
     0
102
RTVSPropertyOp52
 70
     0
102
RTVSPropertyOp53
 70
     1
102
RTVSPropertyOp54
 70
     1
102
RTVSPropertyOp55
 70
     1
102
RTVSPropertyOp56
 70
     1
102
RTVSPropertyOp57
 70
     1
102
RTVSPost2010Prop28
280
     0
102
RTVSPost2010PropOp28
 70
     1
102
RTVSPost2010Prop29
280
     1
102
RTVSPost2010PropOp29
 70
     1
102
RTVSPost2010Prop30
280
     1
102
RTVSPost2010PropOp30
 70
     1
102
RTVSPost2010Prop31
280
     0
102
RTVSPost2010PropOp31
 70
     1
102
RTVSPost2010Prop32
280
     0
102
RTVSPost2010PropOp32
 70
     1
102
RTVSPost2010Prop33
280
     0
102
RTVSPost2010PropOp33
 70
     1
102
RTVSPost2010Prop34
280
     0
102
RTVSPost2010PropOp34
 70
     1
102
RTVSPost2010Prop35
280
     0
102
RTVSPost2010PropOp35
 70
     1
102
RTVSPost2010Prop36
280
     0
102
RTVSPost2010PropOp36
 70
     1
102
RTVSPost2010Prop37
 90
       50
102
RTVSPost2010PropOp37
 70
     1
102
RTVSPost2010Prop38
140
0.0
102
RTVSPost2010PropOp38
 70
     1
102
RTVSPost2010Prop39
140
1.0
102
RTVSPost2010PropOp39
 70
     1
102
RTVSPost2010Prop40
 90
        0
102
RTVSPost2010PropOp40
 70
     1
102
RTVSPost2010Prop41ColorIndex
 90
       18
102
RTVSPost2010Prop41ColorRGB
 90
        0
102
RTVSPost2010PropOp41
 70
     1
102
RTVSPost2010Prop42
 90
       50
102
RTVSPost2010PropOp42
 70
     1
102
RTVSPost2010Prop43
 90
        3
102
RTVSPost2010PropOp43
 70
     1
102
RTVSPost2010Prop44ColorIndex
 90
        5
102
RTVSPost2010Prop44ColorRGB
 90
      255
102
RTVSPost2010PropOp44
 70
     1
102
RTVSPost2010Prop45
280
     0
102
RTVSPost2010PropOp45
 70
     1
102
RTVSPost2010Prop46
 90
       50
102
RTVSPost2010PropOp46
 70
     1
102
RTVSPost2010Prop47
 90
       50
102
RTVSPost2010PropOp47
 70
     1
102
RTVSPost2010Prop48
 90
       50
102
RTVSPost2010PropOp48
 70
     1
102
RTVSPost2010Prop49
280
     0
102
RTVSPost2010PropOp49
 70
     1
102
RTVSPost2010Prop50
 90
       50
102
RTVSPost2010PropOp50
 70
     1
102
RTVSPost2010Prop51ColorIndex
 90
      256
102
RTVSPost2010Prop51ColorRGB
 90
-16777216
102
RTVSPost2010PropOp51
 70
     0
102
RTVSPost2010Prop52
140
1.0
102
RTVSPost2010PropOp52
 70
     0
102
RTVSPost2010Prop53
 90
        2
102
RTVSPost2010PropOp53
 70
     1
102
RTVSPost2010Prop54
  1
strokes_ogs.tif
102
RTVSPost2010PropOp54
 70
     1
102
RTVSPost2010Prop55
280
     0
102
RTVSPost2010PropOp55
 70
     1
102
RTVSPost2010Prop56
140
1.0
102
RTVSPost2010PropOp56
 70
     1
102
RTVSPost2010Prop57
140
1.0
102
RTVSPost2010PropOp57
 70
     1
  0
XRECORD
  5
526
102
{ACAD_REACTORS
330
525
102
}
330
525
100
AcDbXrecord
280
     1
102
RTVSPropertyOp0
 70
     1
102
RTVSPropertyOp1
 70
     1
102
RTVSPropertyOp2
 70
     1
102
RTVSPropertyOp3
 70
     1
102
RTVSPropertyOp4
 70
     1
102
RTVSPropertyOp5
 70
     1
102
RTVSPropertyOp6
 70
     1
102
RTVSPropertyOp7
 70
     1
102
RTVSPropertyOp8
 70
     1
102
RTVSPropertyOp9
 70
     1
102
RTVSPropertyOp10
 70
     1
102
RTVSPropertyOp11
 70
     1
102
RTVSPropertyOp12
 70
     1
102
RTVSPropertyOp13
 70
     1
102
RTVSPropertyOp14
 70
     1
102
RTVSPropertyOp15
 70
     1
102
RTVSPropertyOp16
 70
     1
102
RTVSPropertyOp17
 70
     1
102
RTVSPropertyOp18
 70
     1
102
RTVSPropertyOp19
 70
     1
102
RTVSPropertyOp20
 70
     1
102
RTVSPropertyOp21
 70
     1
102
RTVSPropertyOp22
 70
     1
102
RTVSPropertyOp23
 70
     1
102
RTVSPropertyOp24
 70
     1
102
RTVSPropertyOp25
 70
     1
102
RTVSPropertyOp26
 70
     1
102
RTVSPropertyOp27
 70
     1
102
RTVSPropertyOp28
 70
     1
102
RTVSPropertyOp29
 70
     1
102
RTVSPropertyOp30
 70
     1
102
RTVSPropertyOp31
 70
     1
102
RTVSPropertyOp32
 70
     1
102
RTVSPropertyOp33
 70
     1
102
RTVSPropertyOp34
 70
     1
102
RTVSPropertyOp35
 70
     1
102
RTVSPropertyOp36
 70
     1
102
RTVSPropertyOp37
 70
     1
102
RTVSPropertyOp38
 70
     1
102
RTVSPropertyOp39
 70
     1
102
RTVSPropertyOp40
 70
     1
102
RTVSPropertyOp41
 70
     1
102
RTVSPropertyOp42
 70
     1
102
RTVSPropertyOp43
 70
     1
102
RTVSPropertyOp44
 70
     1
102
RTVSPropertyOp45
 70
     1
102
RTVSPropertyOp46
 70
     1
102
RTVSPropertyOp47
 70
     1
102
RTVSPropertyOp48
 70
     1
102
RTVSPropertyOp49
 70
     1
102
RTVSPropertyOp50
 70
     1
102
RTVSPropertyOp51
 70
     0
102
RTVSPropertyOp52
 70
     0
102
RTVSPropertyOp53
 70
     1
102
RTVSPropertyOp54
 70
     1
102
RTVSPropertyOp55
 70
     1
102
RTVSPropertyOp56
 70
     1
102
RTVSPropertyOp57
 70
     1
102
RTVSPost2010Prop28
280
     0
102
RTVSPost2010PropOp28
 70
     1
102
RTVSPost2010Prop29
280
     1
102
RTVSPost2010PropOp29
 70
     1
102
RTVSPost2010Prop30
280
     1
102
RTVSPost2010PropOp30
 70
     1
102
RTVSPost2010Prop31
280
     0
102
RTVSPost2010PropOp31
 70
     1
102
RTVSPost2010Prop32
280
     0
102
RTVSPost2010PropOp32
 70
     1
102
RTVSPost2010Prop33
280
     0
102
RTVSPost2010PropOp33
 70
     1
102
RTVSPost2010Prop34
280
     0
102
RTVSPost2010PropOp34
 70
     1
102
RTVSPost2010Prop35
280
     0
102
RTVSPost2010PropOp35
 70
     1
102
RTVSPost2010Prop36
280
     0
102
RTVSPost2010PropOp36
 70
     1
102
RTVSPost2010Prop37
 90
       50
102
RTVSPost2010PropOp37
 70
     1
102
RTVSPost2010Prop38
140
0.0
102
RTVSPost2010PropOp38
 70
     1
102
RTVSPost2010Prop39
140
1.0
102
RTVSPost2010PropOp39
 70
     1
102
RTVSPost2010Prop40
 90
        0
102
RTVSPost2010PropOp40
 70
     1
102
RTVSPost2010Prop41ColorIndex
 90
       18
102
RTVSPost2010Prop41ColorRGB
 90
        0
102
RTVSPost2010PropOp41
 70
     1
102
RTVSPost2010Prop42
 90
       50
102
RTVSPost2010PropOp42
 70
     1
102
RTVSPost2010Prop43
 90
        3
102
RTVSPost2010PropOp43
 70
     1
102
RTVSPost2010Prop44ColorIndex
 90
        5
102
RTVSPost2010Prop44ColorRGB
 90
      255
102
RTVSPost2010PropOp44
 70
     1
102
RTVSPost2010Prop45
280
     0
102
RTVSPost2010PropOp45
 70
     1
102
RTVSPost2010Prop46
 90
       50
102
RTVSPost2010PropOp46
 70
     1
102
RTVSPost2010Prop47
 90
       50
102
RTVSPost2010PropOp47
 70
     1
102
RTVSPost2010Prop48
 90
       50
102
RTVSPost2010PropOp48
 70
     1
102
RTVSPost2010Prop49
280
     0
102
RTVSPost2010PropOp49
 70
     1
102
RTVSPost2010Prop50
 90
       50
102
RTVSPost2010PropOp50
 70
     1
102
RTVSPost2010Prop51ColorIndex
 90
      256
102
RTVSPost2010Prop51ColorRGB
 90
-16777216
102
RTVSPost2010PropOp51
 70
     0
102
RTVSPost2010Prop52
140
1.0
102
RTVSPost2010PropOp52
 70
     0
102
RTVSPost2010Prop53
 90
        2
102
RTVSPost2010PropOp53
 70
     1
102
RTVSPost2010Prop54
  1
strokes_ogs.tif
102
RTVSPost2010PropOp54
 70
     1
102
RTVSPost2010Prop55
280
     0
102
RTVSPost2010PropOp55
 70
     1
102
RTVSPost2010Prop56
140
1.0
102
RTVSPost2010PropOp56
 70
     1
102
RTVSPost2010Prop57
140
1.0
102
RTVSPost2010PropOp57
 70
     1
  0
XRECORD
  5
50A
102
{ACAD_REACTORS
330
509
102
}
330
509
100
AcDbXrecord
280
     1
102
RTVSPropertyOp0
 70
     1
102
RTVSPropertyOp1
 70
     1
102
RTVSPropertyOp2
 70
     1
102
RTVSPropertyOp3
 70
     1
102
RTVSPropertyOp4
 70
     1
102
RTVSPropertyOp5
 70
     1
102
RTVSPropertyOp6
 70
     1
102
RTVSPropertyOp7
 70
     1
102
RTVSPropertyOp8
 70
     1
102
RTVSPropertyOp9
 70
     1
102
RTVSPropertyOp10
 70
     1
102
RTVSPropertyOp11
 70
     1
102
RTVSPropertyOp12
 70
     1
102
RTVSPropertyOp13
 70
     1
102
RTVSPropertyOp14
 70
     1
102
RTVSPropertyOp15
 70
     1
102
RTVSPropertyOp16
 70
     1
102
RTVSPropertyOp17
 70
     1
102
RTVSPropertyOp18
 70
     1
102
RTVSPropertyOp19
 70
     1
102
RTVSPropertyOp20
 70
     1
102
RTVSPropertyOp21
 70
     1
102
RTVSPropertyOp22
 70
     1
102
RTVSPropertyOp23
 70
     1
102
RTVSPropertyOp24
 70
     1
102
RTVSPropertyOp25
 70
     1
102
RTVSPropertyOp26
 70
     1
102
RTVSPropertyOp27
 70
     1
102
RTVSPropertyOp28
 70
     1
102
RTVSPropertyOp29
 70
     1
102
RTVSPropertyOp30
 70
     1
102
RTVSPropertyOp31
 70
     1
102
RTVSPropertyOp32
 70
     1
102
RTVSPropertyOp33
 70
     1
102
RTVSPropertyOp34
 70
     1
102
RTVSPropertyOp35
 70
     1
102
RTVSPropertyOp36
 70
     1
102
RTVSPropertyOp37
 70
     1
102
RTVSPropertyOp38
 70
     1
102
RTVSPropertyOp39
 70
     1
102
RTVSPropertyOp40
 70
     1
102
RTVSPropertyOp41
 70
     1
102
RTVSPropertyOp42
 70
     1
102
RTVSPropertyOp43
 70
     1
102
RTVSPropertyOp44
 70
     1
102
RTVSPropertyOp45
 70
     1
102
RTVSPropertyOp46
 70
     1
102
RTVSPropertyOp47
 70
     1
102
RTVSPropertyOp48
 70
     1
102
RTVSPropertyOp49
 70
     1
102
RTVSPropertyOp50
 70
     1
102
RTVSPropertyOp51
 70
     0
102
RTVSPropertyOp52
 70
     0
102
RTVSPropertyOp53
 70
     1
102
RTVSPropertyOp54
 70
     1
102
RTVSPropertyOp55
 70
     1
102
RTVSPropertyOp56
 70
     1
102
RTVSPropertyOp57
 70
     1
102
RTVSPost2010Prop28
280
     0
102
RTVSPost2010PropOp28
 70
     1
102
RTVSPost2010Prop29
280
     1
102
RTVSPost2010PropOp29
 70
     1
102
RTVSPost2010Prop30
280
     1
102
RTVSPost2010PropOp30
 70
     1
102
RTVSPost2010Prop31
280
     0
102
RTVSPost2010PropOp31
 70
     1
102
RTVSPost2010Prop32
280
     0
102
RTVSPost2010PropOp32
 70
     1
102
RTVSPost2010Prop33
280
     0
102
RTVSPost2010PropOp33
 70
     1
102
RTVSPost2010Prop34
280
     0
102
RTVSPost2010PropOp34
 70
     1
102
RTVSPost2010Prop35
280
     0
102
RTVSPost2010PropOp35
 70
     1
102
RTVSPost2010Prop36
280
     0
102
RTVSPost2010PropOp36
 70
     1
102
RTVSPost2010Prop37
 90
       50
102
RTVSPost2010PropOp37
 70
     1
102
RTVSPost2010Prop38
140
0.0
102
RTVSPost2010PropOp38
 70
     1
102
RTVSPost2010Prop39
140
1.0
102
RTVSPost2010PropOp39
 70
     1
102
RTVSPost2010Prop40
 90
        0
102
RTVSPost2010PropOp40
 70
     1
102
RTVSPost2010Prop41ColorIndex
 90
       18
102
RTVSPost2010Prop41ColorRGB
 90
        0
102
RTVSPost2010PropOp41
 70
     1
102
RTVSPost2010Prop42
 90
       50
102
RTVSPost2010PropOp42
 70
     1
102
RTVSPost2010Prop43
 90
        3
102
RTVSPost2010PropOp43
 70
     1
102
RTVSPost2010Prop44ColorIndex
 90
        5
102
RTVSPost2010Prop44ColorRGB
 90
      255
102
RTVSPost2010PropOp44
 70
     1
102
RTVSPost2010Prop45
280
     0
102
RTVSPost2010PropOp45
 70
     1
102
RTVSPost2010Prop46
 90
       50
102
RTVSPost2010PropOp46
 70
     1
102
RTVSPost2010Prop47
 90
       50
102
RTVSPost2010PropOp47
 70
     1
102
RTVSPost2010Prop48
 90
       50
102
RTVSPost2010PropOp48
 70
     1
102
RTVSPost2010Prop49
280
     0
102
RTVSPost2010PropOp49
 70
     1
102
RTVSPost2010Prop50
 90
       50
102
RTVSPost2010PropOp50
 70
     1
102
RTVSPost2010Prop51ColorIndex
 90
      256
102
RTVSPost2010Prop51ColorRGB
 90
-16777216
102
RTVSPost2010PropOp51
 70
     0
102
RTVSPost2010Prop52
140
1.0
102
RTVSPost2010PropOp52
 70
     0
102
RTVSPost2010Prop53
 90
        2
102
RTVSPost2010PropOp53
 70
     1
102
RTVSPost2010Prop54
  1
strokes_ogs.tif
102
RTVSPost2010PropOp54
 70
     1
102
RTVSPost2010Prop55
280
     0
102
RTVSPost2010PropOp55
 70
     1
102
RTVSPost2010Prop56
140
1.0
102
RTVSPost2010PropOp56
 70
     1
102
RTVSPost2010Prop57
140
1.0
102
RTVSPost2010PropOp57
 70
     1
  0
XRECORD
  5
50C
102
{ACAD_REACTORS
330
50B
102
}
330
50B
100
AcDbXrecord
280
     1
102
RTVSPropertyOp0
 70
     1
102
RTVSPropertyOp1
 70
     1
102
RTVSPropertyOp2
 70
     1
102
RTVSPropertyOp3
 70
     1
102
RTVSPropertyOp4
 70
     1
102
RTVSPropertyOp5
 70
     1
102
RTVSPropertyOp6
 70
     1
102
RTVSPropertyOp7
 70
     1
102
RTVSPropertyOp8
 70
     1
102
RTVSPropertyOp9
 70
     1
102
RTVSPropertyOp10
 70
     1
102
RTVSPropertyOp11
 70
     1
102
RTVSPropertyOp12
 70
     1
102
RTVSPropertyOp13
 70
     1
102
RTVSPropertyOp14
 70
     1
102
RTVSPropertyOp15
 70
     1
102
RTVSPropertyOp16
 70
     1
102
RTVSPropertyOp17
 70
     1
102
RTVSPropertyOp18
 70
     1
102
RTVSPropertyOp19
 70
     1
102
RTVSPropertyOp20
 70
     1
102
RTVSPropertyOp21
 70
     1
102
RTVSPropertyOp22
 70
     1
102
RTVSPropertyOp23
 70
     1
102
RTVSPropertyOp24
 70
     1
102
RTVSPropertyOp25
 70
     1
102
RTVSPropertyOp26
 70
     1
102
RTVSPropertyOp27
 70
     1
102
RTVSPropertyOp28
 70
     1
102
RTVSPropertyOp29
 70
     1
102
RTVSPropertyOp30
 70
     1
102
RTVSPropertyOp31
 70
     1
102
RTVSPropertyOp32
 70
     1
102
RTVSPropertyOp33
 70
     1
102
RTVSPropertyOp34
 70
     1
102
RTVSPropertyOp35
 70
     1
102
RTVSPropertyOp36
 70
     1
102
RTVSPropertyOp37
 70
     1
102
RTVSPropertyOp38
 70
     1
102
RTVSPropertyOp39
 70
     1
102
RTVSPropertyOp40
 70
     1
102
RTVSPropertyOp41
 70
     1
102
RTVSPropertyOp42
 70
     1
102
RTVSPropertyOp43
 70
     1
102
RTVSPropertyOp44
 70
     1
102
RTVSPropertyOp45
 70
     1
102
RTVSPropertyOp46
 70
     1
102
RTVSPropertyOp47
 70
     1
102
RTVSPropertyOp48
 70
     1
102
RTVSPropertyOp49
 70
     1
102
RTVSPropertyOp50
 70
     1
102
RTVSPropertyOp51
 70
     0
102
RTVSPropertyOp52
 70
     0
102
RTVSPropertyOp53
 70
     1
102
RTVSPropertyOp54
 70
     1
102
RTVSPropertyOp55
 70
     1
102
RTVSPropertyOp56
 70
     1
102
RTVSPropertyOp57
 70
     1
102
RTVSPost2010Prop28
280
     0
102
RTVSPost2010PropOp28
 70
     1
102
RTVSPost2010Prop29
280
     1
102
RTVSPost2010PropOp29
 70
     1
102
RTVSPost2010Prop30
280
     1
102
RTVSPost2010PropOp30
 70
     1
102
RTVSPost2010Prop31
280
     0
102
RTVSPost2010PropOp31
 70
     1
102
RTVSPost2010Prop32
280
     0
102
RTVSPost2010PropOp32
 70
     1
102
RTVSPost2010Prop33
280
     0
102
RTVSPost2010PropOp33
 70
     1
102
RTVSPost2010Prop34
280
     0
102
RTVSPost2010PropOp34
 70
     1
102
RTVSPost2010Prop35
280
     0
102
RTVSPost2010PropOp35
 70
     1
102
RTVSPost2010Prop36
280
     0
102
RTVSPost2010PropOp36
 70
     1
102
RTVSPost2010Prop37
 90
       50
102
RTVSPost2010PropOp37
 70
     1
102
RTVSPost2010Prop38
140
0.0
102
RTVSPost2010PropOp38
 70
     1
102
RTVSPost2010Prop39
140
1.0
102
RTVSPost2010PropOp39
 70
     1
102
RTVSPost2010Prop40
 90
        0
102
RTVSPost2010PropOp40
 70
     1
102
RTVSPost2010Prop41ColorIndex
 90
       18
102
RTVSPost2010Prop41ColorRGB
 90
        0
102
RTVSPost2010PropOp41
 70
     1
102
RTVSPost2010Prop42
 90
       50
102
RTVSPost2010PropOp42
 70
     1
102
RTVSPost2010Prop43
 90
        3
102
RTVSPost2010PropOp43
 70
     1
102
RTVSPost2010Prop44ColorIndex
 90
        5
102
RTVSPost2010Prop44ColorRGB
 90
      255
102
RTVSPost2010PropOp44
 70
     1
102
RTVSPost2010Prop45
280
     0
102
RTVSPost2010PropOp45
 70
     1
102
RTVSPost2010Prop46
 90
       50
102
RTVSPost2010PropOp46
 70
     1
102
RTVSPost2010Prop47
 90
       50
102
RTVSPost2010PropOp47
 70
     1
102
RTVSPost2010Prop48
 90
       50
102
RTVSPost2010PropOp48
 70
     1
102
RTVSPost2010Prop49
280
     0
102
RTVSPost2010PropOp49
 70
     1
102
RTVSPost2010Prop50
 90
       50
102
RTVSPost2010PropOp50
 70
     1
102
RTVSPost2010Prop51ColorIndex
 90
      256
102
RTVSPost2010Prop51ColorRGB
 90
-16777216
102
RTVSPost2010PropOp51
 70
     0
102
RTVSPost2010Prop52
140
1.0
102
RTVSPost2010PropOp52
 70
     0
102
RTVSPost2010Prop53
 90
        2
102
RTVSPost2010PropOp53
 70
     1
102
RTVSPost2010Prop54
  1
strokes_ogs.tif
102
RTVSPost2010PropOp54
 70
     1
102
RTVSPost2010Prop55
280
     0
102
RTVSPost2010PropOp55
 70
     1
102
RTVSPost2010Prop56
140
1.0
102
RTVSPost2010PropOp56
 70
     1
102
RTVSPost2010Prop57
140
1.0
102
RTVSPost2010PropOp57
 70
     1
  0
XRECORD
  5
50E
102
{ACAD_REACTORS
330
50D
102
}
330
50D
100
AcDbXrecord
280
     1
102
RTVSPropertyOp0
 70
     1
102
RTVSPropertyOp1
 70
     1
102
RTVSPropertyOp2
 70
     1
102
RTVSPropertyOp3
 70
     1
102
RTVSPropertyOp4
 70
     1
102
RTVSPropertyOp5
 70
     1
102
RTVSPropertyOp6
 70
     1
102
RTVSPropertyOp7
 70
     1
102
RTVSPropertyOp8
 70
     1
102
RTVSPropertyOp9
 70
     1
102
RTVSPropertyOp10
 70
     1
102
RTVSPropertyOp11
 70
     1
102
RTVSPropertyOp12
 70
     1
102
RTVSPropertyOp13
 70
     1
102
RTVSPropertyOp14
 70
     1
102
RTVSPropertyOp15
 70
     1
102
RTVSPropertyOp16
 70
     1
102
RTVSPropertyOp17
 70
     1
102
RTVSPropertyOp18
 70
     1
102
RTVSPropertyOp19
 70
     1
102
RTVSPropertyOp20
 70
     1
102
RTVSPropertyOp21
 70
     1
102
RTVSPropertyOp22
 70
     1
102
RTVSPropertyOp23
 70
     1
102
RTVSPropertyOp24
 70
     1
102
RTVSPropertyOp25
 70
     1
102
RTVSPropertyOp26
 70
     1
102
RTVSPropertyOp27
 70
     1
102
RTVSPropertyOp28
 70
     1
102
RTVSPropertyOp29
 70
     1
102
RTVSPropertyOp30
 70
     1
102
RTVSPropertyOp31
 70
     1
102
RTVSPropertyOp32
 70
     1
102
RTVSPropertyOp33
 70
     1
102
RTVSPropertyOp34
 70
     1
102
RTVSPropertyOp35
 70
     1
102
RTVSPropertyOp36
 70
     1
102
RTVSPropertyOp37
 70
     1
102
RTVSPropertyOp38
 70
     1
102
RTVSPropertyOp39
 70
     1
102
RTVSPropertyOp40
 70
     1
102
RTVSPropertyOp41
 70
     1
102
RTVSPropertyOp42
 70
     1
102
RTVSPropertyOp43
 70
     1
102
RTVSPropertyOp44
 70
     1
102
RTVSPropertyOp45
 70
     1
102
RTVSPropertyOp46
 70
     1
102
RTVSPropertyOp47
 70
     1
102
RTVSPropertyOp48
 70
     1
102
RTVSPropertyOp49
 70
     1
102
RTVSPropertyOp50
 70
     1
102
RTVSPropertyOp51
 70
     0
102
RTVSPropertyOp52
 70
     0
102
RTVSPropertyOp53
 70
     1
102
RTVSPropertyOp54
 70
     1
102
RTVSPropertyOp55
 70
     1
102
RTVSPropertyOp56
 70
     1
102
RTVSPropertyOp57
 70
     1
102
RTVSPost2010Prop28
280
     0
102
RTVSPost2010PropOp28
 70
     1
102
RTVSPost2010Prop29
280
     1
102
RTVSPost2010PropOp29
 70
     1
102
RTVSPost2010Prop30
280
     1
102
RTVSPost2010PropOp30
 70
     1
102
RTVSPost2010Prop31
280
     0
102
RTVSPost2010PropOp31
 70
     1
102
RTVSPost2010Prop32
280
     0
102
RTVSPost2010PropOp32
 70
     1
102
RTVSPost2010Prop33
280
     0
102
RTVSPost2010PropOp33
 70
     1
102
RTVSPost2010Prop34
280
     0
102
RTVSPost2010PropOp34
 70
     1
102
RTVSPost2010Prop35
280
     0
102
RTVSPost2010PropOp35
 70
     1
102
RTVSPost2010Prop36
280
     0
102
RTVSPost2010PropOp36
 70
     1
102
RTVSPost2010Prop37
 90
       50
102
RTVSPost2010PropOp37
 70
     1
102
RTVSPost2010Prop38
140
0.0
102
RTVSPost2010PropOp38
 70
     1
102
RTVSPost2010Prop39
140
1.0
102
RTVSPost2010PropOp39
 70
     1
102
RTVSPost2010Prop40
 90
        0
102
RTVSPost2010PropOp40
 70
     1
102
RTVSPost2010Prop41ColorIndex
 90
       18
102
RTVSPost2010Prop41ColorRGB
 90
        0
102
RTVSPost2010PropOp41
 70
     1
102
RTVSPost2010Prop42
 90
       50
102
RTVSPost2010PropOp42
 70
     1
102
RTVSPost2010Prop43
 90
        3
102
RTVSPost2010PropOp43
 70
     1
102
RTVSPost2010Prop44ColorIndex
 90
        5
102
RTVSPost2010Prop44ColorRGB
 90
      255
102
RTVSPost2010PropOp44
 70
     1
102
RTVSPost2010Prop45
280
     0
102
RTVSPost2010PropOp45
 70
     1
102
RTVSPost2010Prop46
 90
       50
102
RTVSPost2010PropOp46
 70
     1
102
RTVSPost2010Prop47
 90
       50
102
RTVSPost2010PropOp47
 70
     1
102
RTVSPost2010Prop48
 90
       50
102
RTVSPost2010PropOp48
 70
     1
102
RTVSPost2010Prop49
280
     0
102
RTVSPost2010PropOp49
 70
     1
102
RTVSPost2010Prop50
 90
       50
102
RTVSPost2010PropOp50
 70
     1
102
RTVSPost2010Prop51ColorIndex
 90
      256
102
RTVSPost2010Prop51ColorRGB
 90
-16777216
102
RTVSPost2010PropOp51
 70
     0
102
RTVSPost2010Prop52
140
1.0
102
RTVSPost2010PropOp52
 70
     0
102
RTVSPost2010Prop53
 90
        2
102
RTVSPost2010PropOp53
 70
     1
102
RTVSPost2010Prop54
  1
strokes_ogs.tif
102
RTVSPost2010PropOp54
 70
     1
102
RTVSPost2010Prop55
280
     0
102
RTVSPost2010PropOp55
 70
     1
102
RTVSPost2010Prop56
140
1.0
102
RTVSPost2010PropOp56
 70
     1
102
RTVSPost2010Prop57
140
1.0
102
RTVSPost2010PropOp57
 70
     1
  0
XRECORD
  5
510
102
{ACAD_REACTORS
330
50F
102
}
330
50F
100
AcDbXrecord
280
     1
102
RTVSPropertyOp0
 70
     1
102
RTVSPropertyOp1
 70
     1
102
RTVSPropertyOp2
 70
     1
102
RTVSPropertyOp3
 70
     1
102
RTVSPropertyOp4
 70
     1
102
RTVSPropertyOp5
 70
     1
102
RTVSPropertyOp6
 70
     1
102
RTVSPropertyOp7
 70
     1
102
RTVSPropertyOp8
 70
     1
102
RTVSPropertyOp9
 70
     1
102
RTVSPropertyOp10
 70
     1
102
RTVSPropertyOp11
 70
     1
102
RTVSPropertyOp12
 70
     1
102
RTVSPropertyOp13
 70
     1
102
RTVSPropertyOp14
 70
     1
102
RTVSPropertyOp15
 70
     1
102
RTVSPropertyOp16
 70
     1
102
RTVSPropertyOp17
 70
     1
102
RTVSPropertyOp18
 70
     1
102
RTVSPropertyOp19
 70
     1
102
RTVSPropertyOp20
 70
     1
102
RTVSPropertyOp21
 70
     1
102
RTVSPropertyOp22
 70
     1
102
RTVSPropertyOp23
 70
     1
102
RTVSPropertyOp24
 70
     1
102
RTVSPropertyOp25
 70
     1
102
RTVSPropertyOp26
 70
     1
102
RTVSPropertyOp27
 70
     1
102
RTVSPropertyOp28
 70
     1
102
RTVSPropertyOp29
 70
     1
102
RTVSPropertyOp30
 70
     1
102
RTVSPropertyOp31
 70
     1
102
RTVSPropertyOp32
 70
     1
102
RTVSPropertyOp33
 70
     1
102
RTVSPropertyOp34
 70
     1
102
RTVSPropertyOp35
 70
     1
102
RTVSPropertyOp36
 70
     1
102
RTVSPropertyOp37
 70
     1
102
RTVSPropertyOp38
 70
     1
102
RTVSPropertyOp39
 70
     1
102
RTVSPropertyOp40
 70
     1
102
RTVSPropertyOp41
 70
     1
102
RTVSPropertyOp42
 70
     1
102
RTVSPropertyOp43
 70
     1
102
RTVSPropertyOp44
 70
     1
102
RTVSPropertyOp45
 70
     1
102
RTVSPropertyOp46
 70
     1
102
RTVSPropertyOp47
 70
     1
102
RTVSPropertyOp48
 70
     1
102
RTVSPropertyOp49
 70
     1
102
RTVSPropertyOp50
 70
     1
102
RTVSPropertyOp51
 70
     0
102
RTVSPropertyOp52
 70
     0
102
RTVSPropertyOp53
 70
     1
102
RTVSPropertyOp54
 70
     1
102
RTVSPropertyOp55
 70
     1
102
RTVSPropertyOp56
 70
     1
102
RTVSPropertyOp57
 70
     1
102
RTVSPost2010Prop28
280
     0
102
RTVSPost2010PropOp28
 70
     1
102
RTVSPost2010Prop29
280
     1
102
RTVSPost2010PropOp29
 70
     1
102
RTVSPost2010Prop30
280
     1
102
RTVSPost2010PropOp30
 70
     1
102
RTVSPost2010Prop31
280
     0
102
RTVSPost2010PropOp31
 70
     1
102
RTVSPost2010Prop32
280
     0
102
RTVSPost2010PropOp32
 70
     1
102
RTVSPost2010Prop33
280
     0
102
RTVSPost2010PropOp33
 70
     1
102
RTVSPost2010Prop34
280
     0
102
RTVSPost2010PropOp34
 70
     1
102
RTVSPost2010Prop35
280
     0
102
RTVSPost2010PropOp35
 70
     1
102
RTVSPost2010Prop36
280
     0
102
RTVSPost2010PropOp36
 70
     1
102
RTVSPost2010Prop37
 90
       50
102
RTVSPost2010PropOp37
 70
     1
102
RTVSPost2010Prop38
140
0.0
102
RTVSPost2010PropOp38
 70
     1
102
RTVSPost2010Prop39
140
1.0
102
RTVSPost2010PropOp39
 70
     1
102
RTVSPost2010Prop40
 90
        0
102
RTVSPost2010PropOp40
 70
     1
102
RTVSPost2010Prop41ColorIndex
 90
       18
102
RTVSPost2010Prop41ColorRGB
 90
        0
102
RTVSPost2010PropOp41
 70
     1
102
RTVSPost2010Prop42
 90
       50
102
RTVSPost2010PropOp42
 70
     1
102
RTVSPost2010Prop43
 90
        3
102
RTVSPost2010PropOp43
 70
     1
102
RTVSPost2010Prop44ColorIndex
 90
        5
102
RTVSPost2010Prop44ColorRGB
 90
      255
102
RTVSPost2010PropOp44
 70
     1
102
RTVSPost2010Prop45
280
     0
102
RTVSPost2010PropOp45
 70
     1
102
RTVSPost2010Prop46
 90
       50
102
RTVSPost2010PropOp46
 70
     1
102
RTVSPost2010Prop47
 90
       50
102
RTVSPost2010PropOp47
 70
     1
102
RTVSPost2010Prop48
 90
       50
102
RTVSPost2010PropOp48
 70
     1
102
RTVSPost2010Prop49
280
     0
102
RTVSPost2010PropOp49
 70
     1
102
RTVSPost2010Prop50
 90
       50
102
RTVSPost2010PropOp50
 70
     1
102
RTVSPost2010Prop51ColorIndex
 90
      256
102
RTVSPost2010Prop51ColorRGB
 90
-16777216
102
RTVSPost2010PropOp51
 70
     0
102
RTVSPost2010Prop52
140
1.0
102
RTVSPost2010PropOp52
 70
     0
102
RTVSPost2010Prop53
 90
        2
102
RTVSPost2010PropOp53
 70
     1
102
RTVSPost2010Prop54
  1
strokes_ogs.tif
102
RTVSPost2010PropOp54
 70
     1
102
RTVSPost2010Prop55
280
     0
102
RTVSPost2010PropOp55
 70
     1
102
RTVSPost2010Prop56
140
1.0
102
RTVSPost2010PropOp56
 70
     1
102
RTVSPost2010Prop57
140
1.0
102
RTVSPost2010PropOp57
 70
     1
  0
XRECORD
  5
516
102
{ACAD_REACTORS
330
515
102
}
330
515
100
AcDbXrecord
280
     1
102
RTVSPropertyOp0
 70
     1
102
RTVSPropertyOp1
 70
     1
102
RTVSPropertyOp2
 70
     1
102
RTVSPropertyOp3
 70
     1
102
RTVSPropertyOp4
 70
     1
102
RTVSPropertyOp5
 70
     1
102
RTVSPropertyOp6
 70
     1
102
RTVSPropertyOp7
 70
     1
102
RTVSPropertyOp8
 70
     1
102
RTVSPropertyOp9
 70
     1
102
RTVSPropertyOp10
 70
     1
102
RTVSPropertyOp11
 70
     1
102
RTVSPropertyOp12
 70
     1
102
RTVSPropertyOp13
 70
     1
102
RTVSPropertyOp14
 70
     1
102
RTVSPropertyOp15
 70
     1
102
RTVSPropertyOp16
 70
     1
102
RTVSPropertyOp17
 70
     1
102
RTVSPropertyOp18
 70
     1
102
RTVSPropertyOp19
 70
     1
102
RTVSPropertyOp20
 70
     1
102
RTVSPropertyOp21
 70
     1
102
RTVSPropertyOp22
 70
     1
102
RTVSPropertyOp23
 70
     1
102
RTVSPropertyOp24
 70
     1
102
RTVSPropertyOp25
 70
     1
102
RTVSPropertyOp26
 70
     1
102
RTVSPropertyOp27
 70
     1
102
RTVSPropertyOp28
 70
     1
102
RTVSPropertyOp29
 70
     1
102
RTVSPropertyOp30
 70
     1
102
RTVSPropertyOp31
 70
     1
102
RTVSPropertyOp32
 70
     1
102
RTVSPropertyOp33
 70
     1
102
RTVSPropertyOp34
 70
     1
102
RTVSPropertyOp35
 70
     1
102
RTVSPropertyOp36
 70
     1
102
RTVSPropertyOp37
 70
     1
102
RTVSPropertyOp38
 70
     1
102
RTVSPropertyOp39
 70
     1
102
RTVSPropertyOp40
 70
     1
102
RTVSPropertyOp41
 70
     1
102
RTVSPropertyOp42
 70
     1
102
RTVSPropertyOp43
 70
     1
102
RTVSPropertyOp44
 70
     1
102
RTVSPropertyOp45
 70
     1
102
RTVSPropertyOp46
 70
     1
102
RTVSPropertyOp47
 70
     1
102
RTVSPropertyOp48
 70
     1
102
RTVSPropertyOp49
 70
     1
102
RTVSPropertyOp50
 70
     1
102
RTVSPropertyOp51
 70
     0
102
RTVSPropertyOp52
 70
     0
102
RTVSPropertyOp53
 70
     1
102
RTVSPropertyOp54
 70
     1
102
RTVSPropertyOp55
 70
     1
102
RTVSPropertyOp56
 70
     1
102
RTVSPropertyOp57
 70
     1
102
RTVSPost2010Prop28
280
     0
102
RTVSPost2010PropOp28
 70
     1
102
RTVSPost2010Prop29
280
     1
102
RTVSPost2010PropOp29
 70
     1
102
RTVSPost2010Prop30
280
     1
102
RTVSPost2010PropOp30
 70
     1
102
RTVSPost2010Prop31
280
     0
102
RTVSPost2010PropOp31
 70
     1
102
RTVSPost2010Prop32
280
     0
102
RTVSPost2010PropOp32
 70
     1
102
RTVSPost2010Prop33
280
     0
102
RTVSPost2010PropOp33
 70
     1
102
RTVSPost2010Prop34
280
     0
102
RTVSPost2010PropOp34
 70
     1
102
RTVSPost2010Prop35
280
     0
102
RTVSPost2010PropOp35
 70
     1
102
RTVSPost2010Prop36
280
     0
102
RTVSPost2010PropOp36
 70
     1
102
RTVSPost2010Prop37
 90
       50
102
RTVSPost2010PropOp37
 70
     1
102
RTVSPost2010Prop38
140
0.0
102
RTVSPost2010PropOp38
 70
     1
102
RTVSPost2010Prop39
140
1.0
102
RTVSPost2010PropOp39
 70
     1
102
RTVSPost2010Prop40
 90
        0
102
RTVSPost2010PropOp40
 70
     1
102
RTVSPost2010Prop41ColorIndex
 90
       18
102
RTVSPost2010Prop41ColorRGB
 90
        0
102
RTVSPost2010PropOp41
 70
     1
102
RTVSPost2010Prop42
 90
       50
102
RTVSPost2010PropOp42
 70
     1
102
RTVSPost2010Prop43
 90
        3
102
RTVSPost2010PropOp43
 70
     1
102
RTVSPost2010Prop44ColorIndex
 90
        5
102
RTVSPost2010Prop44ColorRGB
 90
      255
102
RTVSPost2010PropOp44
 70
     1
102
RTVSPost2010Prop45
280
     0
102
RTVSPost2010PropOp45
 70
     1
102
RTVSPost2010Prop46
 90
       50
102
RTVSPost2010PropOp46
 70
     1
102
RTVSPost2010Prop47
 90
       50
102
RTVSPost2010PropOp47
 70
     1
102
RTVSPost2010Prop48
 90
       50
102
RTVSPost2010PropOp48
 70
     1
102
RTVSPost2010Prop49
280
     0
102
RTVSPost2010PropOp49
 70
     1
102
RTVSPost2010Prop50
 90
       50
102
RTVSPost2010PropOp50
 70
     1
102
RTVSPost2010Prop51ColorIndex
 90
      256
102
RTVSPost2010Prop51ColorRGB
 90
-16777216
102
RTVSPost2010PropOp51
 70
     0
102
RTVSPost2010Prop52
140
1.0
102
RTVSPost2010PropOp52
 70
     0
102
RTVSPost2010Prop53
 90
        2
102
RTVSPost2010PropOp53
 70
     1
102
RTVSPost2010Prop54
  1
strokes_ogs.tif
102
RTVSPost2010PropOp54
 70
     1
102
RTVSPost2010Prop55
280
     0
102
RTVSPost2010PropOp55
 70
     1
102
RTVSPost2010Prop56
140
1.0
102
RTVSPost2010PropOp56
 70
     1
102
RTVSPost2010Prop57
140
1.0
102
RTVSPost2010PropOp57
 70
     1
  0
XRECORD
  5
52A
102
{ACAD_REACTORS
330
529
102
}
330
529
100
AcDbXrecord
280
     1
102
RTVSPropertyOp0
 70
     0
102
RTVSPropertyOp1
 70
     0
102
RTVSPropertyOp2
 70
     0
102
RTVSPropertyOp3
 70
     0
102
RTVSPropertyOp4
 70
     0
102
RTVSPropertyOp5
 70
     0
102
RTVSPropertyOp6
 70
     0
102
RTVSPropertyOp7
 70
     0
102
RTVSPropertyOp8
 70
     0
102
RTVSPropertyOp9
 70
     0
102
RTVSPropertyOp10
 70
     0
102
RTVSPropertyOp11
 70
     0
102
RTVSPropertyOp12
 70
     0
102
RTVSPropertyOp13
 70
     0
102
RTVSPropertyOp14
 70
     0
102
RTVSPropertyOp15
 70
     0
102
RTVSPropertyOp16
 70
     0
102
RTVSPropertyOp17
 70
     0
102
RTVSPropertyOp18
 70
     0
102
RTVSPropertyOp19
 70
     0
102
RTVSPropertyOp20
 70
     0
102
RTVSPropertyOp21
 70
     0
102
RTVSPropertyOp22
 70
     0
102
RTVSPropertyOp23
 70
     0
102
RTVSPropertyOp24
 70
     0
102
RTVSPropertyOp25
 70
     0
102
RTVSPropertyOp26
 70
     0
102
RTVSPropertyOp27
 70
     0
102
RTVSPropertyOp28
 70
     1
102
RTVSPropertyOp29
 70
     1
102
RTVSPropertyOp30
 70
     1
102
RTVSPropertyOp31
 70
     1
102
RTVSPropertyOp32
 70
     1
102
RTVSPropertyOp33
 70
     1
102
RTVSPropertyOp34
 70
     1
102
RTVSPropertyOp35
 70
     1
102
RTVSPropertyOp36
 70
     1
102
RTVSPropertyOp37
 70
     1
102
RTVSPropertyOp38
 70
     1
102
RTVSPropertyOp39
 70
     1
102
RTVSPropertyOp40
 70
     1
102
RTVSPropertyOp41
 70
     1
102
RTVSPropertyOp42
 70
     1
102
RTVSPropertyOp43
 70
     1
102
RTVSPropertyOp44
 70
     1
102
RTVSPropertyOp45
 70
     1
102
RTVSPropertyOp46
 70
     1
102
RTVSPropertyOp47
 70
     1
102
RTVSPropertyOp48
 70
     1
102
RTVSPropertyOp49
 70
     1
102
RTVSPropertyOp50
 70
     1
102
RTVSPropertyOp51
 70
     0
102
RTVSPropertyOp52
 70
     0
102
RTVSPropertyOp53
 70
     1
102
RTVSPropertyOp54
 70
     1
102
RTVSPropertyOp55
 70
     1
102
RTVSPropertyOp56
 70
     1
102
RTVSPropertyOp57
 70
     1
102
RTVSPost2010Prop28
280
     0
102
RTVSPost2010PropOp28
 70
     1
102
RTVSPost2010Prop29
280
     1
102
RTVSPost2010PropOp29
 70
     1
102
RTVSPost2010Prop30
280
     1
102
RTVSPost2010PropOp30
 70
     1
102
RTVSPost2010Prop31
280
     0
102
RTVSPost2010PropOp31
 70
     1
102
RTVSPost2010Prop32
280
     0
102
RTVSPost2010PropOp32
 70
     1
102
RTVSPost2010Prop33
280
     0
102
RTVSPost2010PropOp33
 70
     1
102
RTVSPost2010Prop34
280
     0
102
RTVSPost2010PropOp34
 70
     1
102
RTVSPost2010Prop35
280
     0
102
RTVSPost2010PropOp35
 70
     1
102
RTVSPost2010Prop36
280
     0
102
RTVSPost2010PropOp36
 70
     1
102
RTVSPost2010Prop37
 90
       50
102
RTVSPost2010PropOp37
 70
     1
102
RTVSPost2010Prop38
140
0.0
102
RTVSPost2010PropOp38
 70
     1
102
RTVSPost2010Prop39
140
1.0
102
RTVSPost2010PropOp39
 70
     1
102
RTVSPost2010Prop40
 90
        0
102
RTVSPost2010PropOp40
 70
     1
102
RTVSPost2010Prop41ColorIndex
 90
       18
102
RTVSPost2010Prop41ColorRGB
 90
        0
102
RTVSPost2010PropOp41
 70
     1
102
RTVSPost2010Prop42
 90
       50
102
RTVSPost2010PropOp42
 70
     1
102
RTVSPost2010Prop43
 90
        3
102
RTVSPost2010PropOp43
 70
     1
102
RTVSPost2010Prop44ColorIndex
 90
        5
102
RTVSPost2010Prop44ColorRGB
 90
      255
102
RTVSPost2010PropOp44
 70
     1
102
RTVSPost2010Prop45
280
     0
102
RTVSPost2010PropOp45
 70
     1
102
RTVSPost2010Prop46
 90
       50
102
RTVSPost2010PropOp46
 70
     1
102
RTVSPost2010Prop47
 90
       50
102
RTVSPost2010PropOp47
 70
     1
102
RTVSPost2010Prop48
 90
       50
102
RTVSPost2010PropOp48
 70
     1
102
RTVSPost2010Prop49
280
     0
102
RTVSPost2010PropOp49
 70
     1
102
RTVSPost2010Prop50
 90
       50
102
RTVSPost2010PropOp50
 70
     1
102
RTVSPost2010Prop51ColorIndex
 90
      256
102
RTVSPost2010Prop51ColorRGB
 90
-16777216
102
RTVSPost2010PropOp51
 70
     0
102
RTVSPost2010Prop52
140
1.0
102
RTVSPost2010PropOp52
 70
     0
102
RTVSPost2010Prop53
 90
        2
102
RTVSPost2010PropOp53
 70
     1
102
RTVSPost2010Prop54
  1
strokes_ogs.tif
102
RTVSPost2010PropOp54
 70
     1
102
RTVSPost2010Prop55
280
     0
102
RTVSPost2010PropOp55
 70
     1
102
RTVSPost2010Prop56
140
1.0
102
RTVSPost2010PropOp56
 70
     1
102
RTVSPost2010Prop57
140
1.0
102
RTVSPost2010PropOp57
 70
     1
  0
XRECORD
  5
524
102
{ACAD_REACTORS
330
523
102
}
330
523
100
AcDbXrecord
280
     1
102
RTVSPropertyOp0
 70
     1
102
RTVSPropertyOp1
 70
     1
102
RTVSPropertyOp2
 70
     1
102
RTVSPropertyOp3
 70
     1
102
RTVSPropertyOp4
 70
     1
102
RTVSPropertyOp5
 70
     1
102
RTVSPropertyOp6
 70
     1
102
RTVSPropertyOp7
 70
     1
102
RTVSPropertyOp8
 70
     1
102
RTVSPropertyOp9
 70
     1
102
RTVSPropertyOp10
 70
     1
102
RTVSPropertyOp11
 70
     1
102
RTVSPropertyOp12
 70
     1
102
RTVSPropertyOp13
 70
     1
102
RTVSPropertyOp14
 70
     1
102
RTVSPropertyOp15
 70
     1
102
RTVSPropertyOp16
 70
     1
102
RTVSPropertyOp17
 70
     1
102
RTVSPropertyOp18
 70
     1
102
RTVSPropertyOp19
 70
     1
102
RTVSPropertyOp20
 70
     1
102
RTVSPropertyOp21
 70
     1
102
RTVSPropertyOp22
 70
     1
102
RTVSPropertyOp23
 70
     1
102
RTVSPropertyOp24
 70
     1
102
RTVSPropertyOp25
 70
     1
102
RTVSPropertyOp26
 70
     1
102
RTVSPropertyOp27
 70
     1
102
RTVSPropertyOp28
 70
     1
102
RTVSPropertyOp29
 70
     1
102
RTVSPropertyOp30
 70
     1
102
RTVSPropertyOp31
 70
     1
102
RTVSPropertyOp32
 70
     1
102
RTVSPropertyOp33
 70
     1
102
RTVSPropertyOp34
 70
     1
102
RTVSPropertyOp35
 70
     1
102
RTVSPropertyOp36
 70
     1
102
RTVSPropertyOp37
 70
     1
102
RTVSPropertyOp38
 70
     1
102
RTVSPropertyOp39
 70
     1
102
RTVSPropertyOp40
 70
     1
102
RTVSPropertyOp41
 70
     1
102
RTVSPropertyOp42
 70
     1
102
RTVSPropertyOp43
 70
     1
102
RTVSPropertyOp44
 70
     1
102
RTVSPropertyOp45
 70
     1
102
RTVSPropertyOp46
 70
     1
102
RTVSPropertyOp47
 70
     1
102
RTVSPropertyOp48
 70
     1
102
RTVSPropertyOp49
 70
     1
102
RTVSPropertyOp50
 70
     1
102
RTVSPropertyOp51
 70
     0
102
RTVSPropertyOp52
 70
     0
102
RTVSPropertyOp53
 70
     1
102
RTVSPropertyOp54
 70
     1
102
RTVSPropertyOp55
 70
     1
102
RTVSPropertyOp56
 70
     1
102
RTVSPropertyOp57
 70
     1
102
RTVSPost2010Prop28
280
     0
102
RTVSPost2010PropOp28
 70
     1
102
RTVSPost2010Prop29
280
     1
102
RTVSPost2010PropOp29
 70
     1
102
RTVSPost2010Prop30
280
     1
102
RTVSPost2010PropOp30
 70
     1
102
RTVSPost2010Prop31
280
     0
102
RTVSPost2010PropOp31
 70
     1
102
RTVSPost2010Prop32
280
     0
102
RTVSPost2010PropOp32
 70
     1
102
RTVSPost2010Prop33
280
     0
102
RTVSPost2010PropOp33
 70
     1
102
RTVSPost2010Prop34
280
     0
102
RTVSPost2010PropOp34
 70
     1
102
RTVSPost2010Prop35
280
     0
102
RTVSPost2010PropOp35
 70
     1
102
RTVSPost2010Prop36
280
     0
102
RTVSPost2010PropOp36
 70
     1
102
RTVSPost2010Prop37
 90
       50
102
RTVSPost2010PropOp37
 70
     1
102
RTVSPost2010Prop38
140
0.0
102
RTVSPost2010PropOp38
 70
     1
102
RTVSPost2010Prop39
140
1.0
102
RTVSPost2010PropOp39
 70
     1
102
RTVSPost2010Prop40
 90
        0
102
RTVSPost2010PropOp40
 70
     1
102
RTVSPost2010Prop41ColorIndex
 90
       18
102
RTVSPost2010Prop41ColorRGB
 90
        0
102
RTVSPost2010PropOp41
 70
     1
102
RTVSPost2010Prop42
 90
       50
102
RTVSPost2010PropOp42
 70
     1
102
RTVSPost2010Prop43
 90
        3
102
RTVSPost2010PropOp43
 70
     1
102
RTVSPost2010Prop44ColorIndex
 90
        5
102
RTVSPost2010Prop44ColorRGB
 90
      255
102
RTVSPost2010PropOp44
 70
     1
102
RTVSPost2010Prop45
280
     0
102
RTVSPost2010PropOp45
 70
     1
102
RTVSPost2010Prop46
 90
       50
102
RTVSPost2010PropOp46
 70
     1
102
RTVSPost2010Prop47
 90
       50
102
RTVSPost2010PropOp47
 70
     1
102
RTVSPost2010Prop48
 90
       50
102
RTVSPost2010PropOp48
 70
     1
102
RTVSPost2010Prop49
280
     0
102
RTVSPost2010PropOp49
 70
     1
102
RTVSPost2010Prop50
 90
       50
102
RTVSPost2010PropOp50
 70
     1
102
RTVSPost2010Prop51ColorIndex
 90
      256
102
RTVSPost2010Prop51ColorRGB
 90
-16777216
102
RTVSPost2010PropOp51
 70
     0
102
RTVSPost2010Prop52
140
1.0
102
RTVSPost2010PropOp52
 70
     0
102
RTVSPost2010Prop53
 90
        2
102
RTVSPost2010PropOp53
 70
     1
102
RTVSPost2010Prop54
  1
strokes_ogs.tif
102
RTVSPost2010PropOp54
 70
     1
102
RTVSPost2010Prop55
280
     0
102
RTVSPost2010PropOp55
 70
     1
102
RTVSPost2010Prop56
140
1.0
102
RTVSPost2010PropOp56
 70
     1
102
RTVSPost2010Prop57
140
1.0
102
RTVSPost2010PropOp57
 70
     1
  0
XRECORD
  5
52C
102
{ACAD_REACTORS
330
52B
102
}
330
52B
100
AcDbXrecord
280
     1
102
RTVSPropertyOp0
 70
     0
102
RTVSPropertyOp1
 70
     0
102
RTVSPropertyOp2
 70
     0
102
RTVSPropertyOp3
 70
     0
102
RTVSPropertyOp4
 70
     0
102
RTVSPropertyOp5
 70
     0
102
RTVSPropertyOp6
 70
     0
102
RTVSPropertyOp7
 70
     0
102
RTVSPropertyOp8
 70
     0
102
RTVSPropertyOp9
 70
     0
102
RTVSPropertyOp10
 70
     0
102
RTVSPropertyOp11
 70
     0
102
RTVSPropertyOp12
 70
     0
102
RTVSPropertyOp13
 70
     0
102
RTVSPropertyOp14
 70
     0
102
RTVSPropertyOp15
 70
     0
102
RTVSPropertyOp16
 70
     0
102
RTVSPropertyOp17
 70
     0
102
RTVSPropertyOp18
 70
     0
102
RTVSPropertyOp19
 70
     0
102
RTVSPropertyOp20
 70
     0
102
RTVSPropertyOp21
 70
     0
102
RTVSPropertyOp22
 70
     0
102
RTVSPropertyOp23
 70
     0
102
RTVSPropertyOp24
 70
     0
102
RTVSPropertyOp25
 70
     0
102
RTVSPropertyOp26
 70
     0
102
RTVSPropertyOp27
 70
     0
102
RTVSPropertyOp28
 70
     1
102
RTVSPropertyOp29
 70
     1
102
RTVSPropertyOp30
 70
     1
102
RTVSPropertyOp31
 70
     1
102
RTVSPropertyOp32
 70
     1
102
RTVSPropertyOp33
 70
     1
102
RTVSPropertyOp34
 70
     1
102
RTVSPropertyOp35
 70
     1
102
RTVSPropertyOp36
 70
     1
102
RTVSPropertyOp37
 70
     1
102
RTVSPropertyOp38
 70
     1
102
RTVSPropertyOp39
 70
     1
102
RTVSPropertyOp40
 70
     1
102
RTVSPropertyOp41
 70
     1
102
RTVSPropertyOp42
 70
     1
102
RTVSPropertyOp43
 70
     1
102
RTVSPropertyOp44
 70
     1
102
RTVSPropertyOp45
 70
     1
102
RTVSPropertyOp46
 70
     1
102
RTVSPropertyOp47
 70
     1
102
RTVSPropertyOp48
 70
     1
102
RTVSPropertyOp49
 70
     1
102
RTVSPropertyOp50
 70
     1
102
RTVSPropertyOp51
 70
     0
102
RTVSPropertyOp52
 70
     0
102
RTVSPropertyOp53
 70
     1
102
RTVSPropertyOp54
 70
     1
102
RTVSPropertyOp55
 70
     1
102
RTVSPropertyOp56
 70
     1
102
RTVSPropertyOp57
 70
     1
102
RTVSPost2010Prop28
280
     0
102
RTVSPost2010PropOp28
 70
     1
102
RTVSPost2010Prop29
280
     1
102
RTVSPost2010PropOp29
 70
     1
102
RTVSPost2010Prop30
280
     1
102
RTVSPost2010PropOp30
 70
     1
102
RTVSPost2010Prop31
280
     0
102
RTVSPost2010PropOp31
 70
     1
102
RTVSPost2010Prop32
280
     0
102
RTVSPost2010PropOp32
 70
     1
102
RTVSPost2010Prop33
280
     0
102
RTVSPost2010PropOp33
 70
     1
102
RTVSPost2010Prop34
280
     0
102
RTVSPost2010PropOp34
 70
     1
102
RTVSPost2010Prop35
280
     0
102
RTVSPost2010PropOp35
 70
     1
102
RTVSPost2010Prop36
280
     0
102
RTVSPost2010PropOp36
 70
     1
102
RTVSPost2010Prop37
 90
       50
102
RTVSPost2010PropOp37
 70
     1
102
RTVSPost2010Prop38
140
0.0
102
RTVSPost2010PropOp38
 70
     1
102
RTVSPost2010Prop39
140
1.0
102
RTVSPost2010PropOp39
 70
     1
102
RTVSPost2010Prop40
 90
        0
102
RTVSPost2010PropOp40
 70
     1
102
RTVSPost2010Prop41ColorIndex
 90
       18
102
RTVSPost2010Prop41ColorRGB
 90
        0
102
RTVSPost2010PropOp41
 70
     1
102
RTVSPost2010Prop42
 90
       50
102
RTVSPost2010PropOp42
 70
     1
102
RTVSPost2010Prop43
 90
        3
102
RTVSPost2010PropOp43
 70
     1
102
RTVSPost2010Prop44ColorIndex
 90
        5
102
RTVSPost2010Prop44ColorRGB
 90
      255
102
RTVSPost2010PropOp44
 70
     1
102
RTVSPost2010Prop45
280
     0
102
RTVSPost2010PropOp45
 70
     1
102
RTVSPost2010Prop46
 90
       50
102
RTVSPost2010PropOp46
 70
     1
102
RTVSPost2010Prop47
 90
       50
102
RTVSPost2010PropOp47
 70
     1
102
RTVSPost2010Prop48
 90
       50
102
RTVSPost2010PropOp48
 70
     1
102
RTVSPost2010Prop49
280
     0
102
RTVSPost2010PropOp49
 70
     1
102
RTVSPost2010Prop50
 90
       50
102
RTVSPost2010PropOp50
 70
     1
102
RTVSPost2010Prop51ColorIndex
 90
      256
102
RTVSPost2010Prop51ColorRGB
 90
-16777216
102
RTVSPost2010PropOp51
 70
     0
102
RTVSPost2010Prop52
140
1.0
102
RTVSPost2010PropOp52
 70
     0
102
RTVSPost2010Prop53
 90
        2
102
RTVSPost2010PropOp53
 70
     1
102
RTVSPost2010Prop54
  1
strokes_ogs.tif
102
RTVSPost2010PropOp54
 70
     1
102
RTVSPost2010Prop55
280
     0
102
RTVSPost2010PropOp55
 70
     1
102
RTVSPost2010Prop56
140
1.0
102
RTVSPost2010PropOp56
 70
     1
102
RTVSPost2010Prop57
140
1.0
102
RTVSPost2010PropOp57
 70
     1
  0
XRECORD
  5
51A
102
{ACAD_REACTORS
330
519
102
}
330
519
100
AcDbXrecord
280
     1
102
RTVSPropertyOp0
 70
     1
102
RTVSPropertyOp1
 70
     1
102
RTVSPropertyOp2
 70
     1
102
RTVSPropertyOp3
 70
     1
102
RTVSPropertyOp4
 70
     1
102
RTVSPropertyOp5
 70
     1
102
RTVSPropertyOp6
 70
     1
102
RTVSPropertyOp7
 70
     1
102
RTVSPropertyOp8
 70
     1
102
RTVSPropertyOp9
 70
     1
102
RTVSPropertyOp10
 70
     1
102
RTVSPropertyOp11
 70
     1
102
RTVSPropertyOp12
 70
     1
102
RTVSPropertyOp13
 70
     1
102
RTVSPropertyOp14
 70
     1
102
RTVSPropertyOp15
 70
     1
102
RTVSPropertyOp16
 70
     1
102
RTVSPropertyOp17
 70
     1
102
RTVSPropertyOp18
 70
     1
102
RTVSPropertyOp19
 70
     1
102
RTVSPropertyOp20
 70
     1
102
RTVSPropertyOp21
 70
     1
102
RTVSPropertyOp22
 70
     1
102
RTVSPropertyOp23
 70
     1
102
RTVSPropertyOp24
 70
     1
102
RTVSPropertyOp25
 70
     1
102
RTVSPropertyOp26
 70
     1
102
RTVSPropertyOp27
 70
     1
102
RTVSPropertyOp28
 70
     1
102
RTVSPropertyOp29
 70
     1
102
RTVSPropertyOp30
 70
     1
102
RTVSPropertyOp31
 70
     1
102
RTVSPropertyOp32
 70
     1
102
RTVSPropertyOp33
 70
     1
102
RTVSPropertyOp34
 70
     1
102
RTVSPropertyOp35
 70
     1
102
RTVSPropertyOp36
 70
     1
102
RTVSPropertyOp37
 70
     1
102
RTVSPropertyOp38
 70
     1
102
RTVSPropertyOp39
 70
     1
102
RTVSPropertyOp40
 70
     1
102
RTVSPropertyOp41
 70
     1
102
RTVSPropertyOp42
 70
     1
102
RTVSPropertyOp43
 70
     1
102
RTVSPropertyOp44
 70
     1
102
RTVSPropertyOp45
 70
     1
102
RTVSPropertyOp46
 70
     1
102
RTVSPropertyOp47
 70
     1
102
RTVSPropertyOp48
 70
     1
102
RTVSPropertyOp49
 70
     1
102
RTVSPropertyOp50
 70
     1
102
RTVSPropertyOp51
 70
     0
102
RTVSPropertyOp52
 70
     0
102
RTVSPropertyOp53
 70
     1
102
RTVSPropertyOp54
 70
     1
102
RTVSPropertyOp55
 70
     1
102
RTVSPropertyOp56
 70
     1
102
RTVSPropertyOp57
 70
     1
102
RTVSPost2010Prop28
280
     0
102
RTVSPost2010PropOp28
 70
     1
102
RTVSPost2010Prop29
280
     1
102
RTVSPost2010PropOp29
 70
     1
102
RTVSPost2010Prop30
280
     1
102
RTVSPost2010PropOp30
 70
     1
102
RTVSPost2010Prop31
280
     0
102
RTVSPost2010PropOp31
 70
     1
102
RTVSPost2010Prop32
280
     0
102
RTVSPost2010PropOp32
 70
     1
102
RTVSPost2010Prop33
280
     0
102
RTVSPost2010PropOp33
 70
     1
102
RTVSPost2010Prop34
280
     0
102
RTVSPost2010PropOp34
 70
     1
102
RTVSPost2010Prop35
280
     0
102
RTVSPost2010PropOp35
 70
     1
102
RTVSPost2010Prop36
280
     0
102
RTVSPost2010PropOp36
 70
     1
102
RTVSPost2010Prop37
 90
       50
102
RTVSPost2010PropOp37
 70
     1
102
RTVSPost2010Prop38
140
0.0
102
RTVSPost2010PropOp38
 70
     1
102
RTVSPost2010Prop39
140
1.0
102
RTVSPost2010PropOp39
 70
     1
102
RTVSPost2010Prop40
 90
        0
102
RTVSPost2010PropOp40
 70
     1
102
RTVSPost2010Prop41ColorIndex
 90
       18
102
RTVSPost2010Prop41ColorRGB
 90
        0
102
RTVSPost2010PropOp41
 70
     1
102
RTVSPost2010Prop42
 90
       50
102
RTVSPost2010PropOp42
 70
     1
102
RTVSPost2010Prop43
 90
        3
102
RTVSPost2010PropOp43
 70
     1
102
RTVSPost2010Prop44ColorIndex
 90
        5
102
RTVSPost2010Prop44ColorRGB
 90
      255
102
RTVSPost2010PropOp44
 70
     1
102
RTVSPost2010Prop45
280
     0
102
RTVSPost2010PropOp45
 70
     1
102
RTVSPost2010Prop46
 90
       50
102
RTVSPost2010PropOp46
 70
     1
102
RTVSPost2010Prop47
 90
       50
102
RTVSPost2010PropOp47
 70
     1
102
RTVSPost2010Prop48
 90
       50
102
RTVSPost2010PropOp48
 70
     1
102
RTVSPost2010Prop49
280
     0
102
RTVSPost2010PropOp49
 70
     1
102
RTVSPost2010Prop50
 90
       50
102
RTVSPost2010PropOp50
 70
     1
102
RTVSPost2010Prop51ColorIndex
 90
      256
102
RTVSPost2010Prop51ColorRGB
 90
-16777216
102
RTVSPost2010PropOp51
 70
     0
102
RTVSPost2010Prop52
140
1.0
102
RTVSPost2010PropOp52
 70
     0
102
RTVSPost2010Prop53
 90
        2
102
RTVSPost2010PropOp53
 70
     1
102
RTVSPost2010Prop54
  1
strokes_ogs.tif
102
RTVSPost2010PropOp54
 70
     1
102
RTVSPost2010Prop55
280
     0
102
RTVSPost2010PropOp55
 70
     1
102
RTVSPost2010Prop56
140
1.0
102
RTVSPost2010PropOp56
 70
     1
102
RTVSPost2010Prop57
140
1.0
102
RTVSPost2010PropOp57
 70
     1
  0
XRECORD
  5
538
102
{ACAD_REACTORS
330
537
102
}
330
537
100
AcDbXrecord
280
     1
102
RTVSPropertyOp0
 70
     1
102
RTVSPropertyOp1
 70
     1
102
RTVSPropertyOp2
 70
     1
102
RTVSPropertyOp3
 70
     1
102
RTVSPropertyOp4
 70
     1
102
RTVSPropertyOp5
 70
     1
102
RTVSPropertyOp6
 70
     1
102
RTVSPropertyOp7
 70
     1
102
RTVSPropertyOp8
 70
     1
102
RTVSPropertyOp9
 70
     1
102
RTVSPropertyOp10
 70
     1
102
RTVSPropertyOp11
 70
     1
102
RTVSPropertyOp12
 70
     1
102
RTVSPropertyOp13
 70
     1
102
RTVSPropertyOp14
 70
     1
102
RTVSPropertyOp15
 70
     1
102
RTVSPropertyOp16
 70
     1
102
RTVSPropertyOp17
 70
     1
102
RTVSPropertyOp18
 70
     1
102
RTVSPropertyOp19
 70
     1
102
RTVSPropertyOp20
 70
     1
102
RTVSPropertyOp21
 70
     1
102
RTVSPropertyOp22
 70
     1
102
RTVSPropertyOp23
 70
     1
102
RTVSPropertyOp24
 70
     1
102
RTVSPropertyOp25
 70
     1
102
RTVSPropertyOp26
 70
     1
102
RTVSPropertyOp27
 70
     1
102
RTVSPropertyOp28
 70
     1
102
RTVSPropertyOp29
 70
     1
102
RTVSPropertyOp30
 70
     1
102
RTVSPropertyOp31
 70
     1
102
RTVSPropertyOp32
 70
     1
102
RTVSPropertyOp33
 70
     1
102
RTVSPropertyOp34
 70
     1
102
RTVSPropertyOp35
 70
     1
102
RTVSPropertyOp36
 70
     1
102
RTVSPropertyOp37
 70
     1
102
RTVSPropertyOp38
 70
     1
102
RTVSPropertyOp39
 70
     1
102
RTVSPropertyOp40
 70
     1
102
RTVSPropertyOp41
 70
     1
102
RTVSPropertyOp42
 70
     1
102
RTVSPropertyOp43
 70
     1
102
RTVSPropertyOp44
 70
     1
102
RTVSPropertyOp45
 70
     1
102
RTVSPropertyOp46
 70
     1
102
RTVSPropertyOp47
 70
     1
102
RTVSPropertyOp48
 70
     1
102
RTVSPropertyOp49
 70
     1
102
RTVSPropertyOp50
 70
     1
102
RTVSPropertyOp51
 70
     0
102
RTVSPropertyOp52
 70
     0
102
RTVSPropertyOp53
 70
     1
102
RTVSPropertyOp54
 70
     1
102
RTVSPropertyOp55
 70
     1
102
RTVSPropertyOp56
 70
     1
102
RTVSPropertyOp57
 70
     1
102
RTVSPost2010Prop28
280
     0
102
RTVSPost2010PropOp28
 70
     1
102
RTVSPost2010Prop29
280
     1
102
RTVSPost2010PropOp29
 70
     1
102
RTVSPost2010Prop30
280
     1
102
RTVSPost2010PropOp30
 70
     1
102
RTVSPost2010Prop31
280
     0
102
RTVSPost2010PropOp31
 70
     1
102
RTVSPost2010Prop32
280
     0
102
RTVSPost2010PropOp32
 70
     1
102
RTVSPost2010Prop33
280
     0
102
RTVSPost2010PropOp33
 70
     1
102
RTVSPost2010Prop34
280
     0
102
RTVSPost2010PropOp34
 70
     1
102
RTVSPost2010Prop35
280
     0
102
RTVSPost2010PropOp35
 70
     1
102
RTVSPost2010Prop36
280
     0
102
RTVSPost2010PropOp36
 70
     1
102
RTVSPost2010Prop37
 90
       50
102
RTVSPost2010PropOp37
 70
     1
102
RTVSPost2010Prop38
140
0.0
102
RTVSPost2010PropOp38
 70
     1
102
RTVSPost2010Prop39
140
1.0
102
RTVSPost2010PropOp39
 70
     1
102
RTVSPost2010Prop40
 90
        0
102
RTVSPost2010PropOp40
 70
     1
102
RTVSPost2010Prop41ColorIndex
 90
       18
102
RTVSPost2010Prop41ColorRGB
 90
        0
102
RTVSPost2010PropOp41
 70
     1
102
RTVSPost2010Prop42
 90
       50
102
RTVSPost2010PropOp42
 70
     1
102
RTVSPost2010Prop43
 90
        3
102
RTVSPost2010PropOp43
 70
     1
102
RTVSPost2010Prop44ColorIndex
 90
        5
102
RTVSPost2010Prop44ColorRGB
 90
      255
102
RTVSPost2010PropOp44
 70
     1
102
RTVSPost2010Prop45
280
     0
102
RTVSPost2010PropOp45
 70
     1
102
RTVSPost2010Prop46
 90
       50
102
RTVSPost2010PropOp46
 70
     1
102
RTVSPost2010Prop47
 90
       50
102
RTVSPost2010PropOp47
 70
     1
102
RTVSPost2010Prop48
 90
       50
102
RTVSPost2010PropOp48
 70
     1
102
RTVSPost2010Prop49
280
     0
102
RTVSPost2010PropOp49
 70
     1
102
RTVSPost2010Prop50
 90
       50
102
RTVSPost2010PropOp50
 70
     1
102
RTVSPost2010Prop51ColorIndex
 90
      256
102
RTVSPost2010Prop51ColorRGB
 90
-16777216
102
RTVSPost2010PropOp51
 70
     0
102
RTVSPost2010Prop52
140
1.0
102
RTVSPost2010PropOp52
 70
     0
102
RTVSPost2010Prop53
 90
        2
102
RTVSPost2010PropOp53
 70
     1
102
RTVSPost2010Prop54
  1
strokes_ogs.tif
102
RTVSPost2010PropOp54
 70
     1
102
RTVSPost2010Prop55
280
     0
102
RTVSPost2010PropOp55
 70
     1
102
RTVSPost2010Prop56
140
1.0
102
RTVSPost2010PropOp56
 70
     1
102
RTVSPost2010Prop57
140
1.0
102
RTVSPost2010PropOp57
 70
     1
  0
XRECORD
  5
536
102
{ACAD_REACTORS
330
535
102
}
330
535
100
AcDbXrecord
280
     1
102
RTVSPropertyOp0
 70
     1
102
RTVSPropertyOp1
 70
     1
102
RTVSPropertyOp2
 70
     1
102
RTVSPropertyOp3
 70
     1
102
RTVSPropertyOp4
 70
     1
102
RTVSPropertyOp5
 70
     1
102
RTVSPropertyOp6
 70
     1
102
RTVSPropertyOp7
 70
     1
102
RTVSPropertyOp8
 70
     1
102
RTVSPropertyOp9
 70
     1
102
RTVSPropertyOp10
 70
     1
102
RTVSPropertyOp11
 70
     1
102
RTVSPropertyOp12
 70
     1
102
RTVSPropertyOp13
 70
     1
102
RTVSPropertyOp14
 70
     1
102
RTVSPropertyOp15
 70
     1
102
RTVSPropertyOp16
 70
     1
102
RTVSPropertyOp17
 70
     1
102
RTVSPropertyOp18
 70
     1
102
RTVSPropertyOp19
 70
     1
102
RTVSPropertyOp20
 70
     1
102
RTVSPropertyOp21
 70
     1
102
RTVSPropertyOp22
 70
     1
102
RTVSPropertyOp23
 70
     1
102
RTVSPropertyOp24
 70
     1
102
RTVSPropertyOp25
 70
     1
102
RTVSPropertyOp26
 70
     1
102
RTVSPropertyOp27
 70
     1
102
RTVSPropertyOp28
 70
     1
102
RTVSPropertyOp29
 70
     1
102
RTVSPropertyOp30
 70
     1
102
RTVSPropertyOp31
 70
     1
102
RTVSPropertyOp32
 70
     1
102
RTVSPropertyOp33
 70
     1
102
RTVSPropertyOp34
 70
     1
102
RTVSPropertyOp35
 70
     1
102
RTVSPropertyOp36
 70
     1
102
RTVSPropertyOp37
 70
     1
102
RTVSPropertyOp38
 70
     1
102
RTVSPropertyOp39
 70
     1
102
RTVSPropertyOp40
 70
     1
102
RTVSPropertyOp41
 70
     1
102
RTVSPropertyOp42
 70
     1
102
RTVSPropertyOp43
 70
     1
102
RTVSPropertyOp44
 70
     1
102
RTVSPropertyOp45
 70
     1
102
RTVSPropertyOp46
 70
     1
102
RTVSPropertyOp47
 70
     1
102
RTVSPropertyOp48
 70
     1
102
RTVSPropertyOp49
 70
     1
102
RTVSPropertyOp50
 70
     1
102
RTVSPropertyOp51
 70
     0
102
RTVSPropertyOp52
 70
     0
102
RTVSPropertyOp53
 70
     1
102
RTVSPropertyOp54
 70
     1
102
RTVSPropertyOp55
 70
     1
102
RTVSPropertyOp56
 70
     1
102
RTVSPropertyOp57
 70
     1
102
RTVSPost2010Prop28
280
     0
102
RTVSPost2010PropOp28
 70
     1
102
RTVSPost2010Prop29
280
     1
102
RTVSPost2010PropOp29
 70
     1
102
RTVSPost2010Prop30
280
     1
102
RTVSPost2010PropOp30
 70
     1
102
RTVSPost2010Prop31
280
     0
102
RTVSPost2010PropOp31
 70
     1
102
RTVSPost2010Prop32
280
     0
102
RTVSPost2010PropOp32
 70
     1
102
RTVSPost2010Prop33
280
     0
102
RTVSPost2010PropOp33
 70
     1
102
RTVSPost2010Prop34
280
     0
102
RTVSPost2010PropOp34
 70
     1
102
RTVSPost2010Prop35
280
     0
102
RTVSPost2010PropOp35
 70
     1
102
RTVSPost2010Prop36
280
     0
102
RTVSPost2010PropOp36
 70
     1
102
RTVSPost2010Prop37
 90
       50
102
RTVSPost2010PropOp37
 70
     1
102
RTVSPost2010Prop38
140
0.0
102
RTVSPost2010PropOp38
 70
     1
102
RTVSPost2010Prop39
140
1.0
102
RTVSPost2010PropOp39
 70
     1
102
RTVSPost2010Prop40
 90
        0
102
RTVSPost2010PropOp40
 70
     1
102
RTVSPost2010Prop41ColorIndex
 90
       18
102
RTVSPost2010Prop41ColorRGB
 90
        0
102
RTVSPost2010PropOp41
 70
     1
102
RTVSPost2010Prop42
 90
       50
102
RTVSPost2010PropOp42
 70
     1
102
RTVSPost2010Prop43
 90
        3
102
RTVSPost2010PropOp43
 70
     1
102
RTVSPost2010Prop44ColorIndex
 90
        5
102
RTVSPost2010Prop44ColorRGB
 90
      255
102
RTVSPost2010PropOp44
 70
     1
102
RTVSPost2010Prop45
280
     0
102
RTVSPost2010PropOp45
 70
     1
102
RTVSPost2010Prop46
 90
       50
102
RTVSPost2010PropOp46
 70
     1
102
RTVSPost2010Prop47
 90
       50
102
RTVSPost2010PropOp47
 70
     1
102
RTVSPost2010Prop48
 90
       50
102
RTVSPost2010PropOp48
 70
     1
102
RTVSPost2010Prop49
280
     0
102
RTVSPost2010PropOp49
 70
     1
102
RTVSPost2010Prop50
 90
       50
102
RTVSPost2010PropOp50
 70
     1
102
RTVSPost2010Prop51ColorIndex
 90
      256
102
RTVSPost2010Prop51ColorRGB
 90
-16777216
102
RTVSPost2010PropOp51
 70
     0
102
RTVSPost2010Prop52
140
1.0
102
RTVSPost2010PropOp52
 70
     0
102
RTVSPost2010Prop53
 90
        2
102
RTVSPost2010PropOp53
 70
     1
102
RTVSPost2010Prop54
  1
strokes_ogs.tif
102
RTVSPost2010PropOp54
 70
     1
102
RTVSPost2010Prop55
280
     0
102
RTVSPost2010PropOp55
 70
     1
102
RTVSPost2010Prop56
140
1.0
102
RTVSPost2010PropOp56
 70
     1
102
RTVSPost2010Prop57
140
1.0
102
RTVSPost2010PropOp57
 70
     1
  0
XRECORD
  5
530
102
{ACAD_REACTORS
330
52F
102
}
330
52F
100
AcDbXrecord
280
     1
102
RTVSPropertyOp0
 70
     1
102
RTVSPropertyOp1
 70
     1
102
RTVSPropertyOp2
 70
     1
102
RTVSPropertyOp3
 70
     1
102
RTVSPropertyOp4
 70
     1
102
RTVSPropertyOp5
 70
     1
102
RTVSPropertyOp6
 70
     1
102
RTVSPropertyOp7
 70
     1
102
RTVSPropertyOp8
 70
     1
102
RTVSPropertyOp9
 70
     1
102
RTVSPropertyOp10
 70
     1
102
RTVSPropertyOp11
 70
     1
102
RTVSPropertyOp12
 70
     1
102
RTVSPropertyOp13
 70
     1
102
RTVSPropertyOp14
 70
     1
102
RTVSPropertyOp15
 70
     1
102
RTVSPropertyOp16
 70
     1
102
RTVSPropertyOp17
 70
     1
102
RTVSPropertyOp18
 70
     1
102
RTVSPropertyOp19
 70
     1
102
RTVSPropertyOp20
 70
     1
102
RTVSPropertyOp21
 70
     1
102
RTVSPropertyOp22
 70
     1
102
RTVSPropertyOp23
 70
     1
102
RTVSPropertyOp24
 70
     1
102
RTVSPropertyOp25
 70
     1
102
RTVSPropertyOp26
 70
     1
102
RTVSPropertyOp27
 70
     1
102
RTVSPropertyOp28
 70
     1
102
RTVSPropertyOp29
 70
     1
102
RTVSPropertyOp30
 70
     1
102
RTVSPropertyOp31
 70
     1
102
RTVSPropertyOp32
 70
     1
102
RTVSPropertyOp33
 70
     1
102
RTVSPropertyOp34
 70
     1
102
RTVSPropertyOp35
 70
     1
102
RTVSPropertyOp36
 70
     1
102
RTVSPropertyOp37
 70
     1
102
RTVSPropertyOp38
 70
     1
102
RTVSPropertyOp39
 70
     1
102
RTVSPropertyOp40
 70
     1
102
RTVSPropertyOp41
 70
     1
102
RTVSPropertyOp42
 70
     1
102
RTVSPropertyOp43
 70
     1
102
RTVSPropertyOp44
 70
     1
102
RTVSPropertyOp45
 70
     1
102
RTVSPropertyOp46
 70
     1
102
RTVSPropertyOp47
 70
     1
102
RTVSPropertyOp48
 70
     1
102
RTVSPropertyOp49
 70
     1
102
RTVSPropertyOp50
 70
     1
102
RTVSPropertyOp51
 70
     0
102
RTVSPropertyOp52
 70
     0
102
RTVSPropertyOp53
 70
     1
102
RTVSPropertyOp54
 70
     1
102
RTVSPropertyOp55
 70
     1
102
RTVSPropertyOp56
 70
     1
102
RTVSPropertyOp57
 70
     1
102
RTVSPost2010Prop28
280
     0
102
RTVSPost2010PropOp28
 70
     1
102
RTVSPost2010Prop29
280
     1
102
RTVSPost2010PropOp29
 70
     1
102
RTVSPost2010Prop30
280
     1
102
RTVSPost2010PropOp30
 70
     1
102
RTVSPost2010Prop31
280
     0
102
RTVSPost2010PropOp31
 70
     1
102
RTVSPost2010Prop32
280
     0
102
RTVSPost2010PropOp32
 70
     1
102
RTVSPost2010Prop33
280
     0
102
RTVSPost2010PropOp33
 70
     1
102
RTVSPost2010Prop34
280
     0
102
RTVSPost2010PropOp34
 70
     1
102
RTVSPost2010Prop35
280
     0
102
RTVSPost2010PropOp35
 70
     1
102
RTVSPost2010Prop36
280
     0
102
RTVSPost2010PropOp36
 70
     1
102
RTVSPost2010Prop37
 90
       50
102
RTVSPost2010PropOp37
 70
     1
102
RTVSPost2010Prop38
140
0.0
102
RTVSPost2010PropOp38
 70
     1
102
RTVSPost2010Prop39
140
1.0
102
RTVSPost2010PropOp39
 70
     1
102
RTVSPost2010Prop40
 90
        0
102
RTVSPost2010PropOp40
 70
     1
102
RTVSPost2010Prop41ColorIndex
 90
       18
102
RTVSPost2010Prop41ColorRGB
 90
        0
102
RTVSPost2010PropOp41
 70
     1
102
RTVSPost2010Prop42
 90
       50
102
RTVSPost2010PropOp42
 70
     1
102
RTVSPost2010Prop43
 90
        3
102
RTVSPost2010PropOp43
 70
     1
102
RTVSPost2010Prop44ColorIndex
 90
        5
102
RTVSPost2010Prop44ColorRGB
 90
      255
102
RTVSPost2010PropOp44
 70
     1
102
RTVSPost2010Prop45
280
     0
102
RTVSPost2010PropOp45
 70
     1
102
RTVSPost2010Prop46
 90
       50
102
RTVSPost2010PropOp46
 70
     1
102
RTVSPost2010Prop47
 90
       50
102
RTVSPost2010PropOp47
 70
     1
102
RTVSPost2010Prop48
 90
       50
102
RTVSPost2010PropOp48
 70
     1
102
RTVSPost2010Prop49
280
     0
102
RTVSPost2010PropOp49
 70
     1
102
RTVSPost2010Prop50
 90
       50
102
RTVSPost2010PropOp50
 70
     1
102
RTVSPost2010Prop51ColorIndex
 90
      256
102
RTVSPost2010Prop51ColorRGB
 90
-16777216
102
RTVSPost2010PropOp51
 70
     0
102
RTVSPost2010Prop52
140
1.0
102
RTVSPost2010PropOp52
 70
     0
102
RTVSPost2010Prop53
 90
        2
102
RTVSPost2010PropOp53
 70
     1
102
RTVSPost2010Prop54
  1
strokes_ogs.tif
102
RTVSPost2010PropOp54
 70
     1
102
RTVSPost2010Prop55
280
     0
102
RTVSPost2010PropOp55
 70
     1
102
RTVSPost2010Prop56
140
1.0
102
RTVSPost2010PropOp56
 70
     1
102
RTVSPost2010Prop57
140
1.0
102
RTVSPost2010PropOp57
 70
     1
  0
XRECORD
  5
532
102
{ACAD_REACTORS
330
531
102
}
330
531
100
AcDbXrecord
280
     1
102
RTVSPropertyOp0
 70
     1
102
RTVSPropertyOp1
 70
     1
102
RTVSPropertyOp2
 70
     1
102
RTVSPropertyOp3
 70
     1
102
RTVSPropertyOp4
 70
     1
102
RTVSPropertyOp5
 70
     1
102
RTVSPropertyOp6
 70
     1
102
RTVSPropertyOp7
 70
     1
102
RTVSPropertyOp8
 70
     1
102
RTVSPropertyOp9
 70
     1
102
RTVSPropertyOp10
 70
     1
102
RTVSPropertyOp11
 70
     1
102
RTVSPropertyOp12
 70
     1
102
RTVSPropertyOp13
 70
     1
102
RTVSPropertyOp14
 70
     1
102
RTVSPropertyOp15
 70
     1
102
RTVSPropertyOp16
 70
     1
102
RTVSPropertyOp17
 70
     1
102
RTVSPropertyOp18
 70
     1
102
RTVSPropertyOp19
 70
     1
102
RTVSPropertyOp20
 70
     1
102
RTVSPropertyOp21
 70
     1
102
RTVSPropertyOp22
 70
     1
102
RTVSPropertyOp23
 70
     1
102
RTVSPropertyOp24
 70
     1
102
RTVSPropertyOp25
 70
     1
102
RTVSPropertyOp26
 70
     1
102
RTVSPropertyOp27
 70
     1
102
RTVSPropertyOp28
 70
     1
102
RTVSPropertyOp29
 70
     1
102
RTVSPropertyOp30
 70
     1
102
RTVSPropertyOp31
 70
     1
102
RTVSPropertyOp32
 70
     1
102
RTVSPropertyOp33
 70
     1
102
RTVSPropertyOp34
 70
     1
102
RTVSPropertyOp35
 70
     1
102
RTVSPropertyOp36
 70
     1
102
RTVSPropertyOp37
 70
     1
102
RTVSPropertyOp38
 70
     1
102
RTVSPropertyOp39
 70
     1
102
RTVSPropertyOp40
 70
     1
102
RTVSPropertyOp41
 70
     1
102
RTVSPropertyOp42
 70
     1
102
RTVSPropertyOp43
 70
     1
102
RTVSPropertyOp44
 70
     1
102
RTVSPropertyOp45
 70
     1
102
RTVSPropertyOp46
 70
     1
102
RTVSPropertyOp47
 70
     1
102
RTVSPropertyOp48
 70
     1
102
RTVSPropertyOp49
 70
     1
102
RTVSPropertyOp50
 70
     1
102
RTVSPropertyOp51
 70
     0
102
RTVSPropertyOp52
 70
     0
102
RTVSPropertyOp53
 70
     1
102
RTVSPropertyOp54
 70
     1
102
RTVSPropertyOp55
 70
     1
102
RTVSPropertyOp56
 70
     1
102
RTVSPropertyOp57
 70
     1
102
RTVSPost2010Prop28
280
     0
102
RTVSPost2010PropOp28
 70
     1
102
RTVSPost2010Prop29
280
     1
102
RTVSPost2010PropOp29
 70
     1
102
RTVSPost2010Prop30
280
     1
102
RTVSPost2010PropOp30
 70
     1
102
RTVSPost2010Prop31
280
     0
102
RTVSPost2010PropOp31
 70
     1
102
RTVSPost2010Prop32
280
     0
102
RTVSPost2010PropOp32
 70
     1
102
RTVSPost2010Prop33
280
     0
102
RTVSPost2010PropOp33
 70
     1
102
RTVSPost2010Prop34
280
     0
102
RTVSPost2010PropOp34
 70
     1
102
RTVSPost2010Prop35
280
     0
102
RTVSPost2010PropOp35
 70
     1
102
RTVSPost2010Prop36
280
     0
102
RTVSPost2010PropOp36
 70
     1
102
RTVSPost2010Prop37
 90
       50
102
RTVSPost2010PropOp37
 70
     1
102
RTVSPost2010Prop38
140
0.0
102
RTVSPost2010PropOp38
 70
     1
102
RTVSPost2010Prop39
140
1.0
102
RTVSPost2010PropOp39
 70
     1
102
RTVSPost2010Prop40
 90
        0
102
RTVSPost2010PropOp40
 70
     1
102
RTVSPost2010Prop41ColorIndex
 90
       18
102
RTVSPost2010Prop41ColorRGB
 90
        0
102
RTVSPost2010PropOp41
 70
     1
102
RTVSPost2010Prop42
 90
       50
102
RTVSPost2010PropOp42
 70
     1
102
RTVSPost2010Prop43
 90
        3
102
RTVSPost2010PropOp43
 70
     1
102
RTVSPost2010Prop44ColorIndex
 90
        5
102
RTVSPost2010Prop44ColorRGB
 90
      255
102
RTVSPost2010PropOp44
 70
     1
102
RTVSPost2010Prop45
280
     0
102
RTVSPost2010PropOp45
 70
     1
102
RTVSPost2010Prop46
 90
       50
102
RTVSPost2010PropOp46
 70
     1
102
RTVSPost2010Prop47
 90
       50
102
RTVSPost2010PropOp47
 70
     1
102
RTVSPost2010Prop48
 90
       50
102
RTVSPost2010PropOp48
 70
     1
102
RTVSPost2010Prop49
280
     0
102
RTVSPost2010PropOp49
 70
     1
102
RTVSPost2010Prop50
 90
       50
102
RTVSPost2010PropOp50
 70
     1
102
RTVSPost2010Prop51ColorIndex
 90
      256
102
RTVSPost2010Prop51ColorRGB
 90
-16777216
102
RTVSPost2010PropOp51
 70
     0
102
RTVSPost2010Prop52
140
1.0
102
RTVSPost2010PropOp52
 70
     0
102
RTVSPost2010Prop53
 90
        2
102
RTVSPost2010PropOp53
 70
     1
102
RTVSPost2010Prop54
  1
strokes_ogs.tif
102
RTVSPost2010PropOp54
 70
     1
102
RTVSPost2010Prop55
280
     0
102
RTVSPost2010PropOp55
 70
     1
102
RTVSPost2010Prop56
140
1.0
102
RTVSPost2010PropOp56
 70
     1
102
RTVSPost2010Prop57
140
1.0
102
RTVSPost2010PropOp57
 70
     1
  0
XRECORD
  5
522
102
{ACAD_REACTORS
330
521
102
}
330
521
100
AcDbXrecord
280
     1
102
RTVSPropertyOp0
 70
     1
102
RTVSPropertyOp1
 70
     1
102
RTVSPropertyOp2
 70
     1
102
RTVSPropertyOp3
 70
     1
102
RTVSPropertyOp4
 70
     1
102
RTVSPropertyOp5
 70
     1
102
RTVSPropertyOp6
 70
     1
102
RTVSPropertyOp7
 70
     1
102
RTVSPropertyOp8
 70
     1
102
RTVSPropertyOp9
 70
     1
102
RTVSPropertyOp10
 70
     1
102
RTVSPropertyOp11
 70
     1
102
RTVSPropertyOp12
 70
     1
102
RTVSPropertyOp13
 70
     1
102
RTVSPropertyOp14
 70
     1
102
RTVSPropertyOp15
 70
     1
102
RTVSPropertyOp16
 70
     1
102
RTVSPropertyOp17
 70
     1
102
RTVSPropertyOp18
 70
     1
102
RTVSPropertyOp19
 70
     1
102
RTVSPropertyOp20
 70
     1
102
RTVSPropertyOp21
 70
     1
102
RTVSPropertyOp22
 70
     1
102
RTVSPropertyOp23
 70
     1
102
RTVSPropertyOp24
 70
     1
102
RTVSPropertyOp25
 70
     1
102
RTVSPropertyOp26
 70
     1
102
RTVSPropertyOp27
 70
     1
102
RTVSPropertyOp28
 70
     1
102
RTVSPropertyOp29
 70
     1
102
RTVSPropertyOp30
 70
     1
102
RTVSPropertyOp31
 70
     1
102
RTVSPropertyOp32
 70
     1
102
RTVSPropertyOp33
 70
     1
102
RTVSPropertyOp34
 70
     1
102
RTVSPropertyOp35
 70
     1
102
RTVSPropertyOp36
 70
     1
102
RTVSPropertyOp37
 70
     1
102
RTVSPropertyOp38
 70
     1
102
RTVSPropertyOp39
 70
     1
102
RTVSPropertyOp40
 70
     1
102
RTVSPropertyOp41
 70
     1
102
RTVSPropertyOp42
 70
     1
102
RTVSPropertyOp43
 70
     1
102
RTVSPropertyOp44
 70
     1
102
RTVSPropertyOp45
 70
     1
102
RTVSPropertyOp46
 70
     1
102
RTVSPropertyOp47
 70
     1
102
RTVSPropertyOp48
 70
     1
102
RTVSPropertyOp49
 70
     1
102
RTVSPropertyOp50
 70
     1
102
RTVSPropertyOp51
 70
     0
102
RTVSPropertyOp52
 70
     0
102
RTVSPropertyOp53
 70
     1
102
RTVSPropertyOp54
 70
     1
102
RTVSPropertyOp55
 70
     1
102
RTVSPropertyOp56
 70
     1
102
RTVSPropertyOp57
 70
     1
102
RTVSPost2010Prop28
280
     0
102
RTVSPost2010PropOp28
 70
     1
102
RTVSPost2010Prop29
280
     1
102
RTVSPost2010PropOp29
 70
     1
102
RTVSPost2010Prop30
280
     1
102
RTVSPost2010PropOp30
 70
     1
102
RTVSPost2010Prop31
280
     0
102
RTVSPost2010PropOp31
 70
     1
102
RTVSPost2010Prop32
280
     0
102
RTVSPost2010PropOp32
 70
     1
102
RTVSPost2010Prop33
280
     0
102
RTVSPost2010PropOp33
 70
     1
102
RTVSPost2010Prop34
280
     0
102
RTVSPost2010PropOp34
 70
     1
102
RTVSPost2010Prop35
280
     0
102
RTVSPost2010PropOp35
 70
     1
102
RTVSPost2010Prop36
280
     0
102
RTVSPost2010PropOp36
 70
     1
102
RTVSPost2010Prop37
 90
       50
102
RTVSPost2010PropOp37
 70
     1
102
RTVSPost2010Prop38
140
0.0
102
RTVSPost2010PropOp38
 70
     1
102
RTVSPost2010Prop39
140
1.0
102
RTVSPost2010PropOp39
 70
     1
102
RTVSPost2010Prop40
 90
        0
102
RTVSPost2010PropOp40
 70
     1
102
RTVSPost2010Prop41ColorIndex
 90
       18
102
RTVSPost2010Prop41ColorRGB
 90
        0
102
RTVSPost2010PropOp41
 70
     1
102
RTVSPost2010Prop42
 90
       50
102
RTVSPost2010PropOp42
 70
     1
102
RTVSPost2010Prop43
 90
        3
102
RTVSPost2010PropOp43
 70
     1
102
RTVSPost2010Prop44ColorIndex
 90
        5
102
RTVSPost2010Prop44ColorRGB
 90
      255
102
RTVSPost2010PropOp44
 70
     1
102
RTVSPost2010Prop45
280
     0
102
RTVSPost2010PropOp45
 70
     1
102
RTVSPost2010Prop46
 90
       50
102
RTVSPost2010PropOp46
 70
     1
102
RTVSPost2010Prop47
 90
       50
102
RTVSPost2010PropOp47
 70
     1
102
RTVSPost2010Prop48
 90
       50
102
RTVSPost2010PropOp48
 70
     1
102
RTVSPost2010Prop49
280
     0
102
RTVSPost2010PropOp49
 70
     1
102
RTVSPost2010Prop50
 90
       50
102
RTVSPost2010PropOp50
 70
     1
102
RTVSPost2010Prop51ColorIndex
 90
      256
102
RTVSPost2010Prop51ColorRGB
 90
-16777216
102
RTVSPost2010PropOp51
 70
     0
102
RTVSPost2010Prop52
140
1.0
102
RTVSPost2010PropOp52
 70
     0
102
RTVSPost2010Prop53
 90
        2
102
RTVSPost2010PropOp53
 70
     1
102
RTVSPost2010Prop54
  1
strokes_ogs.tif
102
RTVSPost2010PropOp54
 70
     1
102
RTVSPost2010Prop55
280
     0
102
RTVSPost2010PropOp55
 70
     1
102
RTVSPost2010Prop56
140
1.0
102
RTVSPost2010PropOp56
 70
     1
102
RTVSPost2010Prop57
140
1.0
102
RTVSPost2010PropOp57
 70
     1
  0
XRECORD
  5
514
102
{ACAD_REACTORS
330
513
102
}
330
513
100
AcDbXrecord
280
     1
102
RTVSPropertyOp0
 70
     1
102
RTVSPropertyOp1
 70
     1
102
RTVSPropertyOp2
 70
     1
102
RTVSPropertyOp3
 70
     1
102
RTVSPropertyOp4
 70
     1
102
RTVSPropertyOp5
 70
     1
102
RTVSPropertyOp6
 70
     1
102
RTVSPropertyOp7
 70
     1
102
RTVSPropertyOp8
 70
     1
102
RTVSPropertyOp9
 70
     1
102
RTVSPropertyOp10
 70
     1
102
RTVSPropertyOp11
 70
     1
102
RTVSPropertyOp12
 70
     1
102
RTVSPropertyOp13
 70
     1
102
RTVSPropertyOp14
 70
     1
102
RTVSPropertyOp15
 70
     1
102
RTVSPropertyOp16
 70
     1
102
RTVSPropertyOp17
 70
     1
102
RTVSPropertyOp18
 70
     1
102
RTVSPropertyOp19
 70
     1
102
RTVSPropertyOp20
 70
     1
102
RTVSPropertyOp21
 70
     1
102
RTVSPropertyOp22
 70
     1
102
RTVSPropertyOp23
 70
     1
102
RTVSPropertyOp24
 70
     1
102
RTVSPropertyOp25
 70
     1
102
RTVSPropertyOp26
 70
     1
102
RTVSPropertyOp27
 70
     1
102
RTVSPropertyOp28
 70
     1
102
RTVSPropertyOp29
 70
     1
102
RTVSPropertyOp30
 70
     1
102
RTVSPropertyOp31
 70
     1
102
RTVSPropertyOp32
 70
     1
102
RTVSPropertyOp33
 70
     1
102
RTVSPropertyOp34
 70
     1
102
RTVSPropertyOp35
 70
     1
102
RTVSPropertyOp36
 70
     1
102
RTVSPropertyOp37
 70
     1
102
RTVSPropertyOp38
 70
     1
102
RTVSPropertyOp39
 70
     1
102
RTVSPropertyOp40
 70
     1
102
RTVSPropertyOp41
 70
     1
102
RTVSPropertyOp42
 70
     1
102
RTVSPropertyOp43
 70
     1
102
RTVSPropertyOp44
 70
     1
102
RTVSPropertyOp45
 70
     1
102
RTVSPropertyOp46
 70
     1
102
RTVSPropertyOp47
 70
     1
102
RTVSPropertyOp48
 70
     1
102
RTVSPropertyOp49
 70
     1
102
RTVSPropertyOp50
 70
     1
102
RTVSPropertyOp51
 70
     0
102
RTVSPropertyOp52
 70
     0
102
RTVSPropertyOp53
 70
     1
102
RTVSPropertyOp54
 70
     1
102
RTVSPropertyOp55
 70
     1
102
RTVSPropertyOp56
 70
     1
102
RTVSPropertyOp57
 70
     1
102
RTVSPost2010Prop28
280
     0
102
RTVSPost2010PropOp28
 70
     1
102
RTVSPost2010Prop29
280
     1
102
RTVSPost2010PropOp29
 70
     1
102
RTVSPost2010Prop30
280
     1
102
RTVSPost2010PropOp30
 70
     1
102
RTVSPost2010Prop31
280
     0
102
RTVSPost2010PropOp31
 70
     1
102
RTVSPost2010Prop32
280
     0
102
RTVSPost2010PropOp32
 70
     1
102
RTVSPost2010Prop33
280
     0
102
RTVSPost2010PropOp33
 70
     1
102
RTVSPost2010Prop34
280
     0
102
RTVSPost2010PropOp34
 70
     1
102
RTVSPost2010Prop35
280
     0
102
RTVSPost2010PropOp35
 70
     1
102
RTVSPost2010Prop36
280
     0
102
RTVSPost2010PropOp36
 70
     1
102
RTVSPost2010Prop37
 90
       50
102
RTVSPost2010PropOp37
 70
     1
102
RTVSPost2010Prop38
140
0.0
102
RTVSPost2010PropOp38
 70
     1
102
RTVSPost2010Prop39
140
1.0
102
RTVSPost2010PropOp39
 70
     1
102
RTVSPost2010Prop40
 90
        0
102
RTVSPost2010PropOp40
 70
     1
102
RTVSPost2010Prop41ColorIndex
 90
       18
102
RTVSPost2010Prop41ColorRGB
 90
        0
102
RTVSPost2010PropOp41
 70
     1
102
RTVSPost2010Prop42
 90
       50
102
RTVSPost2010PropOp42
 70
     1
102
RTVSPost2010Prop43
 90
        3
102
RTVSPost2010PropOp43
 70
     1
102
RTVSPost2010Prop44ColorIndex
 90
        5
102
RTVSPost2010Prop44ColorRGB
 90
      255
102
RTVSPost2010PropOp44
 70
     1
102
RTVSPost2010Prop45
280
     0
102
RTVSPost2010PropOp45
 70
     1
102
RTVSPost2010Prop46
 90
       50
102
RTVSPost2010PropOp46
 70
     1
102
RTVSPost2010Prop47
 90
       50
102
RTVSPost2010PropOp47
 70
     1
102
RTVSPost2010Prop48
 90
       50
102
RTVSPost2010PropOp48
 70
     1
102
RTVSPost2010Prop49
280
     0
102
RTVSPost2010PropOp49
 70
     1
102
RTVSPost2010Prop50
 90
       50
102
RTVSPost2010PropOp50
 70
     1
102
RTVSPost2010Prop51ColorIndex
 90
      256
102
RTVSPost2010Prop51ColorRGB
 90
-16777216
102
RTVSPost2010PropOp51
 70
     0
102
RTVSPost2010Prop52
140
1.0
102
RTVSPost2010PropOp52
 70
     0
102
RTVSPost2010Prop53
 90
        2
102
RTVSPost2010PropOp53
 70
     1
102
RTVSPost2010Prop54
  1
strokes_ogs.tif
102
RTVSPost2010PropOp54
 70
     1
102
RTVSPost2010Prop55
280
     0
102
RTVSPost2010PropOp55
 70
     1
102
RTVSPost2010Prop56
140
1.0
102
RTVSPost2010PropOp56
 70
     1
102
RTVSPost2010Prop57
140
1.0
102
RTVSPost2010PropOp57
 70
     1
  0
XRECORD
  5
534
102
{ACAD_REACTORS
330
533
102
}
330
533
100
AcDbXrecord
280
     1
102
RTVSPropertyOp0
 70
     1
102
RTVSPropertyOp1
 70
     1
102
RTVSPropertyOp2
 70
     1
102
RTVSPropertyOp3
 70
     1
102
RTVSPropertyOp4
 70
     1
102
RTVSPropertyOp5
 70
     1
102
RTVSPropertyOp6
 70
     1
102
RTVSPropertyOp7
 70
     1
102
RTVSPropertyOp8
 70
     1
102
RTVSPropertyOp9
 70
     1
102
RTVSPropertyOp10
 70
     1
102
RTVSPropertyOp11
 70
     1
102
RTVSPropertyOp12
 70
     1
102
RTVSPropertyOp13
 70
     1
102
RTVSPropertyOp14
 70
     1
102
RTVSPropertyOp15
 70
     1
102
RTVSPropertyOp16
 70
     1
102
RTVSPropertyOp17
 70
     1
102
RTVSPropertyOp18
 70
     1
102
RTVSPropertyOp19
 70
     1
102
RTVSPropertyOp20
 70
     1
102
RTVSPropertyOp21
 70
     1
102
RTVSPropertyOp22
 70
     1
102
RTVSPropertyOp23
 70
     1
102
RTVSPropertyOp24
 70
     1
102
RTVSPropertyOp25
 70
     1
102
RTVSPropertyOp26
 70
     1
102
RTVSPropertyOp27
 70
     1
102
RTVSPropertyOp28
 70
     1
102
RTVSPropertyOp29
 70
     1
102
RTVSPropertyOp30
 70
     1
102
RTVSPropertyOp31
 70
     1
102
RTVSPropertyOp32
 70
     1
102
RTVSPropertyOp33
 70
     1
102
RTVSPropertyOp34
 70
     1
102
RTVSPropertyOp35
 70
     1
102
RTVSPropertyOp36
 70
     1
102
RTVSPropertyOp37
 70
     1
102
RTVSPropertyOp38
 70
     1
102
RTVSPropertyOp39
 70
     1
102
RTVSPropertyOp40
 70
     1
102
RTVSPropertyOp41
 70
     1
102
RTVSPropertyOp42
 70
     1
102
RTVSPropertyOp43
 70
     1
102
RTVSPropertyOp44
 70
     1
102
RTVSPropertyOp45
 70
     1
102
RTVSPropertyOp46
 70
     1
102
RTVSPropertyOp47
 70
     1
102
RTVSPropertyOp48
 70
     1
102
RTVSPropertyOp49
 70
     1
102
RTVSPropertyOp50
 70
     1
102
RTVSPropertyOp51
 70
     0
102
RTVSPropertyOp52
 70
     0
102
RTVSPropertyOp53
 70
     1
102
RTVSPropertyOp54
 70
     1
102
RTVSPropertyOp55
 70
     1
102
RTVSPropertyOp56
 70
     1
102
RTVSPropertyOp57
 70
     1
102
RTVSPost2010Prop28
280
     0
102
RTVSPost2010PropOp28
 70
     1
102
RTVSPost2010Prop29
280
     1
102
RTVSPost2010PropOp29
 70
     1
102
RTVSPost2010Prop30
280
     1
102
RTVSPost2010PropOp30
 70
     1
102
RTVSPost2010Prop31
280
     0
102
RTVSPost2010PropOp31
 70
     1
102
RTVSPost2010Prop32
280
     0
102
RTVSPost2010PropOp32
 70
     1
102
RTVSPost2010Prop33
280
     0
102
RTVSPost2010PropOp33
 70
     1
102
RTVSPost2010Prop34
280
     0
102
RTVSPost2010PropOp34
 70
     1
102
RTVSPost2010Prop35
280
     0
102
RTVSPost2010PropOp35
 70
     1
102
RTVSPost2010Prop36
280
     0
102
RTVSPost2010PropOp36
 70
     1
102
RTVSPost2010Prop37
 90
       50
102
RTVSPost2010PropOp37
 70
     1
102
RTVSPost2010Prop38
140
0.0
102
RTVSPost2010PropOp38
 70
     1
102
RTVSPost2010Prop39
140
1.0
102
RTVSPost2010PropOp39
 70
     1
102
RTVSPost2010Prop40
 90
        0
102
RTVSPost2010PropOp40
 70
     1
102
RTVSPost2010Prop41ColorIndex
 90
       18
102
RTVSPost2010Prop41ColorRGB
 90
        0
102
RTVSPost2010PropOp41
 70
     1
102
RTVSPost2010Prop42
 90
       50
102
RTVSPost2010PropOp42
 70
     1
102
RTVSPost2010Prop43
 90
        3
102
RTVSPost2010PropOp43
 70
     1
102
RTVSPost2010Prop44ColorIndex
 90
        5
102
RTVSPost2010Prop44ColorRGB
 90
      255
102
RTVSPost2010PropOp44
 70
     1
102
RTVSPost2010Prop45
280
     0
102
RTVSPost2010PropOp45
 70
     1
102
RTVSPost2010Prop46
 90
       50
102
RTVSPost2010PropOp46
 70
     1
102
RTVSPost2010Prop47
 90
       50
102
RTVSPost2010PropOp47
 70
     1
102
RTVSPost2010Prop48
 90
       50
102
RTVSPost2010PropOp48
 70
     1
102
RTVSPost2010Prop49
280
     0
102
RTVSPost2010PropOp49
 70
     1
102
RTVSPost2010Prop50
 90
       50
102
RTVSPost2010PropOp50
 70
     1
102
RTVSPost2010Prop51ColorIndex
 90
      256
102
RTVSPost2010Prop51ColorRGB
 90
-16777216
102
RTVSPost2010PropOp51
 70
     0
102
RTVSPost2010Prop52
140
1.0
102
RTVSPost2010PropOp52
 70
     0
102
RTVSPost2010Prop53
 90
        2
102
RTVSPost2010PropOp53
 70
     1
102
RTVSPost2010Prop54
  1
strokes_ogs.tif
102
RTVSPost2010PropOp54
 70
     1
102
RTVSPost2010Prop55
280
     0
102
RTVSPost2010PropOp55
 70
     1
102
RTVSPost2010Prop56
140
1.0
102
RTVSPost2010PropOp56
 70
     1
102
RTVSPost2010Prop57
140
1.0
102
RTVSPost2010PropOp57
 70
     1
  0
ENDSEC
  0
EOF
