  0
SECTION
  2
HEADER
  9
$ACADVER
  1
AC1015
  9
$ACADMAINTVER
 70
     6
  9
$DWGCODEPAGE
  3
ANSI_932
  9
$INSBASE
 10
2097.256832162797
 20
1537.442413933432
 30
0.0
  9
$EXTMIN
 10
253.2582887078311
 20
44.98378559837067
 30
0.0
  9
$EXTMAX
 10
2253.210158151834
 20
2069.619573374057
 30
0.0
  9
$LIMMIN
 10
0.0
 20
0.0
  9
$LIMMAX
 10
816.5000000000001
 20
565.0
  9
$ORTHOMODE
 70
     0
  9
$REGENMODE
 70
     1
  9
$FILLMODE
 70
     1
  9
$QTEXTMODE
 70
     0
  9
$MIRRTEXT
 70
     1
  9
$LTSCALE
 40
20.0
  9
$ATTMODE
 70
     1
  9
$TEXTSIZE
 40
21.0
  9
$TRACEWID
 40
0.05
  9
$TEXTSTYLE
  7
KANJI
  9
$CLAYER
  8
2
  9
$CELTYPE
  6
BYLAYER
  9
$CECOLOR
 62
   256
  9
$CELTSCALE
 40
1.0
  9
$DISPSILH
 70
     0
  9
$DIMSCALE
 40
7.0
  9
$DIMASZ
 40
2.0
  9
$DIMEXO
 40
0.5
  9
$DIMDLI
 40
0.0
  9
$DIMRND
 40
0.0
  9
$DIMDLE
 40
0.0
  9
$DIMEXE
 40
1.0
  9
$DIMTP
 40
0.0
  9
$DIMTM
 40
0.0
  9
$DIMTXT
 40
3.0
  9
$DIMCEN
 40
0.09
  9
$DIMTSZ
 40
0.0
  9
$DIMTOL
 70
     0
  9
$DIMLIM
 70
     0
  9
$DIMTIH
 70
     0
  9
$DIMTOH
 70
     0
  9
$DIMSE1
 70
     0
  9
$DIMSE2
 70
     0
  9
$DIMTAD
 70
     0
  9
$DIMZIN
 70
     8
  9
$DIMBLK
  1

  9
$DIMASO
 70
     0
  9
$DIMSHO
 70
     0
  9
$DIMPOST
  1

  9
$DIMAPOST
  1

  9
$DIMALT
 70
     0
  9
$DIMALTD
 70
     2
  9
$DIMALTF
 40
25.4
  9
$DIMLFAC
 40
1.0
  9
$DIMTOFL
 70
     1
  9
$DIMTVP
 40
1.0
  9
$DIMTIX
 70
     1
  9
$DIMSOXD
 70
     1
  9
$DIMSAH
 70
     0
  9
$DIMBLK1
  1

  9
$DIMBLK2
  1

  9
$DIMSTYLE
  2
STANDARD
  9
$DIMCLRD
 70
   256
  9
$DIMCLRE
 70
   256
  9
$DIMCLRT
 70
   256
  9
$DIMTFAC
 40
1.0
  9
$DIMGAP
 40
0.09
  9
$DIMJUST
 70
     0
  9
$DIMSD1
 70
     0
  9
$DIMSD2
 70
     0
  9
$DIMTOLJ
 70
     1
  9
$DIMTZIN
 70
     0
  9
$DIMALTZ
 70
     0
  9
$DIMALTTZ
 70
     0
  9
$DIMUPT
 70
     0
  9
$DIMDEC
 70
     1
  9
$DIMTDEC
 70
     4
  9
$DIMALTU
 70
     2
  9
$DIMALTTD
 70
     2
  9
$DIMTXSTY
  7
STANDARD
  9
$DIMAUNIT
 70
     0
  9
$DIMADEC
 70
     0
  9
$DIMALTRND
 40
0.0
  9
$DIMAZIN
 70
     0
  9
$DIMDSEP
 70
    46
  9
$DIMATFIT
 70
     3
  9
$DIMFRAC
 70
     0
  9
$DIMLDRBLK
  1

  9
$DIMLUNIT
 70
     2
  9
$DIMLWD
 70
    -2
  9
$DIMLWE
 70
    -2
  9
$DIMTMOVE
 70
     0
  9
$LUNITS
 70
     2
  9
$LUPREC
 70
     3
  9
$SKETCHINC
 40
0.1
  9
$FILLETRAD
 40
1.0
  9
$AUNITS
 70
     0
  9
$AUPREC
 70
     3
  9
$MENU
  1
C:\R13\WIN\SUPPORT\ACADFULL
  9
$ELEVATION
 40
0.0
  9
$PELEVATION
 40
0.0
  9
$THICKNESS
 40
0.0
  9
$LIMCHECK
 70
     0
  9
$CHAMFERA
 40
0.0
  9
$CHAMFERB
 40
0.0
  9
$CHAMFERC
 40
0.0
  9
$CHAMFERD
 40
0.0
  9
$SKPOLY
 70
     0
  9
$TDCREATE
 40
2457464.390263252
  9
$TDUCREATE
 40
2457464.015263252
  9
$TDUPDATE
 40
2457871.823036493
  9
$TDUUPDATE
 40
2457871.448036493
  9
$TDINDWG
 40
0.0102005093
  9
$TDUSRTIMER
 40
0.0101999421
  9
$USRTIMER
 70
     1
  9
$ANGBASE
 50
0.0
  9
$ANGDIR
 70
     0
  9
$PDMODE
 70
     0
  9
$PDSIZE
 40
0.0
  9
$PLINEWID
 40
0.0
  9
$SPLFRAME
 70
     0
  9
$SPLINETYPE
 70
     6
  9
$SPLINESEGS
 70
     8
  9
$HANDSEED
  5
642
  9
$SURFTAB1
 70
     6
  9
$SURFTAB2
 70
     6
  9
$SURFTYPE
 70
     6
  9
$SURFU
 70
     6
  9
$SURFV
 70
     6
  9
$UCSBASE
  2

  9
$UCSNAME
  2

  9
$UCSORG
 10
0.0
 20
0.0
 30
0.0
  9
$UCSXDIR
 10
1.0
 20
0.0
 30
0.0
  9
$UCSYDIR
 10
0.0
 20
1.0
 30
0.0
  9
$UCSORTHOREF
  2

  9
$UCSORTHOVIEW
 70
     0
  9
$UCSORGTOP
 10
0.0
 20
0.0
 30
0.0
  9
$UCSORGBOTTOM
 10
0.0
 20
0.0
 30
0.0
  9
$UCSORGLEFT
 10
0.0
 20
0.0
 30
0.0
  9
$UCSORGRIGHT
 10
0.0
 20
0.0
 30
0.0
  9
$UCSORGFRONT
 10
0.0
 20
0.0
 30
0.0
  9
$UCSORGBACK
 10
0.0
 20
0.0
 30
0.0
  9
$PUCSBASE
  2

  9
$PUCSNAME
  2

  9
$PUCSORG
 10
0.0
 20
0.0
 30
0.0
  9
$PUCSXDIR
 10
1.0
 20
0.0
 30
0.0
  9
$PUCSYDIR
 10
0.0
 20
1.0
 30
0.0
  9
$PUCSORTHOREF
  2

  9
$PUCSORTHOVIEW
 70
     0
  9
$PUCSORGTOP
 10
0.0
 20
0.0
 30
0.0
  9
$PUCSORGBOTTOM
 10
0.0
 20
0.0
 30
0.0
  9
$PUCSORGLEFT
 10
0.0
 20
0.0
 30
0.0
  9
$PUCSORGRIGHT
 10
0.0
 20
0.0
 30
0.0
  9
$PUCSORGFRONT
 10
0.0
 20
0.0
 30
0.0
  9
$PUCSORGBACK
 10
0.0
 20
0.0
 30
0.0
  9
$USERI1
 70
     0
  9
$USERI2
 70
     0
  9
$USERI3
 70
     0
  9
$USERI4
 70
     0
  9
$USERI5
 70
     0
  9
$USERR1
 40
0.0
  9
$USERR2
 40
0.0
  9
$USERR3
 40
0.0
  9
$USERR4
 40
2448925.372986111
  9
$USERR5
 40
0.04166667
  9
$WORLDVIEW
 70
     1
  9
$SHADEDGE
 70
     3
  9
$SHADEDIF
 70
    70
  9
$TILEMODE
 70
     1
  9
$MAXACTVP
 70
    16
  9
$PINSBASE
 10
0.0
 20
0.0
 30
0.0
  9
$PLIMCHECK
 70
     0
  9
$PEXTMIN
 10
1.000000000000000E+20
 20
1.000000000000000E+20
 30
1.000000000000000E+20
  9
$PEXTMAX
 10
-1.000000000000000E+20
 20
-1.000000000000000E+20
 30
-1.000000000000000E+20
  9
$PLIMMIN
 10
0.0
 20
0.0
  9
$PLIMMAX
 10
12.0
 20
9.0
  9
$UNITMODE
 70
     0
  9
$VISRETAIN
 70
     0
  9
$PLINEGEN
 70
     0
  9
$PSLTSCALE
 70
     0
  9
$TREEDEPTH
 70
  3020
  9
$CMLSTYLE
  2
STANDARD
  9
$CMLJUST
 70
     0
  9
$CMLSCALE
 40
1.0
  9
$PROXYGRAPHICS
 70
     1
  9
$MEASUREMENT
 70
     0
  9
$CELWEIGHT
370
    -1
  9
$ENDCAPS
280
     0
  9
$JOINSTYLE
280
     0
  9
$LWDISPLAY
290
     0
  9
$INSUNITS
 70
     0
  9
$HYPERLINKBASE
  1

  9
$STYLESHEET
  1

  9
$XEDIT
290
     1
  9
$CEPSNTYPE
380
     0
  9
$PSTYLEMODE
290
     1
  9
$FINGERPRINTGUID
  2
{9B8406AC-E6DF-45F0-AE4A-E9AE62F92418}
  9
$VERSIONGUID
  2
{0D65D973-C7EA-4D4C-A03B-262C14081B33}
  9
$EXTNAMES
290
     1
  9
$PSVPSCALE
 40
0.0
  9
$OLESTARTUP
290
     0
  0
ENDSEC
  0
SECTION
  2
CLASSES
  0
CLASS
  1
ACDBDICTIONARYWDFLT
  2
AcDbDictionaryWithDefault
  3
ObjectDBX Classes
 90
        0
280
     0
281
     0
  0
CLASS
  1
MATERIAL
  2
AcDbMaterial
  3
ObjectDBX Classes
 90
     1153
280
     0
281
     0
  0
CLASS
  1
SORTENTSTABLE
  2
AcDbSortentsTable
  3
ObjectDBX Classes
 90
        0
280
     0
281
     0
  0
CLASS
  1
SCALE
  2
AcDbScale
  3
ObjectDBX Classes
 90
     1153
280
     0
281
     0
  0
CLASS
  1
DICTIONARYVAR
  2
AcDbDictionaryVar
  3
ObjectDBX Classes
 90
        0
280
     0
281
     0
  0
CLASS
  1
VISUALSTYLE
  2
AcDbVisualStyle
  3
ObjectDBX Classes
 90
     4095
280
     0
281
     0
  0
CLASS
  1
MLEADERSTYLE
  2
AcDbMLeaderStyle
  3
ACDB_MLEADERSTYLE_CLASS
 90
     4095
280
     0
281
     0
  0
CLASS
  1
TABLESTYLE
  2
AcDbTableStyle
  3
ObjectDBX Classes
 90
     4095
280
     0
281
     0
  0
CLASS
  1
ACDBPLACEHOLDER
  2
AcDbPlaceHolder
  3
ObjectDBX Classes
 90
        0
280
     0
281
     0
  0
CLASS
  1
LAYOUT
  2
AcDbLayout
  3
ObjectDBX Classes
 90
        0
280
     0
281
     0
  0
ENDSEC
  0
SECTION
  2
TABLES
  0
TABLE
  2
VPORT
  5
25
102
{ACAD_XDICTIONARY
360
607
102
}
330
0
100
AcDbSymbolTable
 70
     1
  0
VPORT
  5
2A
330
25
100
AcDbSymbolTableRecord
100
AcDbViewportTableRecord
  2
*Active
 70
     0
 10
0.0
 20
0.0
 11
1.0
 21
1.0
 12
2329.381818012827
 22
935.2562747579373
 13
0.0
 23
0.0
 14
1.0
 24
1.0
 15
50.0
 25
50.0
 16
0.0
 26
0.0
 36
1.0
 17
0.0
 27
0.0
 37
0.0
 40
3393.875184153481
 41
2.174107142857143
 42
50.0
 43
0.0
 44
0.0
 50
0.0
 51
0.0
 71
     0
 72
  5000
 73
     1
 74
     0
 75
     0
 76
     0
 77
     0
 78
     0
281
     0
 65
     1
110
0.0
120
0.0
130
0.0
111
1.0
121
0.0
131
0.0
112
0.0
122
1.0
132
0.0
 79
     0
146
0.0
  0
ENDTAB
  0
TABLE
  2
LTYPE
  5
B
330
0
100
AcDbSymbolTable
 70
     2
  0
LTYPE
  5
C
330
B
100
AcDbSymbolTableRecord
100
AcDbLinetypeTableRecord
  2
BYBLOCK
 70
     0
  3

 72
    65
 73
     0
 40
0.0
  0
LTYPE
  5
D
330
B
100
AcDbSymbolTableRecord
100
AcDbLinetypeTableRecord
  2
BYLAYER
 70
     0
  3

 72
    65
 73
     0
 40
0.0
  0
LTYPE
  5
A
330
B
100
AcDbSymbolTableRecord
100
AcDbLinetypeTableRecord
  2
CONTINUOUS
 70
     0
  3
Solid line
 72
    65
 73
     0
 40
0.0
  0
LTYPE
  5
52
330
B
100
AcDbSymbolTableRecord
100
AcDbLinetypeTableRecord
  2
CENTER
 70
     0
  3
____ _ ____ _ ____ _ ____ _ ____ _ ____ _ ____
 72
    65
 73
     4
 40
2.0
 49
1.25
 74
     0
 49
-0.25
 74
     0
 49
0.25
 74
     0
 49
-0.25
 74
     0
  0
ENDTAB
  0
TABLE
  2
LAYER
  5
2
330
0
100
AcDbSymbolTable
 70
     8
  0
LAYER
  5
1B
330
2
100
AcDbSymbolTableRecord
100
AcDbLayerTableRecord
  2
0
 70
     0
 62
     7
  6
CONTINUOUS
370
    -3
390
3
  0
LAYER
  5
B5
330
2
100
AcDbSymbolTableRecord
100
AcDbLayerTableRecord
  2
1
 70
     0
 62
     9
  6
CONTINUOUS
370
    -3
390
3
  0
LAYER
  5
1
330
2
100
AcDbSymbolTableRecord
100
AcDbLayerTableRecord
  2
2
 70
     0
 62
     4
  6
CONTINUOUS
370
    -3
390
3
  0
LAYER
  5
B2
330
2
100
AcDbSymbolTableRecord
100
AcDbLayerTableRecord
  2
4
 70
     0
 62
     3
  6
CONTINUOUS
370
    -3
390
3
  0
LAYER
  5
51
330
2
100
AcDbSymbolTableRecord
100
AcDbLayerTableRecord
  2
L-CENTER
 70
     0
 62
     1
  6
CENTER
370
    -3
390
3
  0
LAYER
  5
57
330
2
100
AcDbSymbolTableRecord
100
AcDbLayerTableRecord
  2
3
 70
     0
 62
     2
  6
CONTINUOUS
370
    -3
390
3
  0
LAYER
  5
AD
330
2
100
AcDbSymbolTableRecord
100
AcDbLayerTableRecord
  2
5
 70
     0
 62
     6
  6
CONTINUOUS
370
    -3
390
3
  0
LAYER
  5
573
330
2
100
AcDbSymbolTableRecord
100
AcDbLayerTableRecord
  2
Defpoints
 70
     0
 62
     7
  6
CONTINUOUS
290
     0
370
    -3
390
3
  0
ENDTAB
  0
TABLE
  2
STYLE
  5
F
330
0
100
AcDbSymbolTable
 70
     2
  0
STYLE
  5
13
330
F
100
AcDbSymbolTableRecord
100
AcDbTextStyleTableRecord
  2
STANDARD
 70
     0
 40
0.0
 41
1.0
 50
0.0
 71
     0
 42
12.6
  3
TXT
  4

  0
STYLE
  5
E
330
F
100
AcDbSymbolTableRecord
100
AcDbTextStyleTableRecord
  2
KANJI
 70
     0
 40
0.0
 41
1.0
 50
0.0
 71
     0
 42
21.0
  3
TXT
  4
BIGFONT
  0
ENDTAB
  0
TABLE
  2
VIEW
  5
23
330
0
100
AcDbSymbolTable
 70
     0
  0
ENDTAB
  0
TABLE
  2
UCS
  5
24
330
0
100
AcDbSymbolTable
 70
     0
  0
ENDTAB
  0
TABLE
  2
APPID
  5
9
330
0
100
AcDbSymbolTable
 70
     3
  0
APPID
  5
8
330
9
100
AcDbSymbolTableRecord
100
AcDbRegAppTableRecord
  2
ACAD
 70
     0
  0
APPID
  5
55D
330
9
100
AcDbSymbolTableRecord
100
AcDbRegAppTableRecord
  2
ACAD_PSEXT
 70
     0
  0
APPID
  5
5E9
330
9
100
AcDbSymbolTableRecord
100
AcDbRegAppTableRecord
  2
ACAD_MLEADERVER
 70
     0
  0
ENDTAB
  0
TABLE
  2
DIMSTYLE
  5
12
330
0
100
AcDbSymbolTable
 70
     1
100
AcDbDimStyleTable
  0
DIMSTYLE
105
11
330
12
100
AcDbSymbolTableRecord
100
AcDbDimStyleTableRecord
  2
STANDARD
 70
     0
178
     0
340
13
  0
ENDTAB
  0
TABLE
  2
BLOCK_RECORD
  5
16
330
0
100
AcDbSymbolTable
 70
     0
  0
BLOCK_RECORD
  5
17
102
{ACAD_XDICTIONARY
360
18
102
}
330
16
100
AcDbSymbolTableRecord
100
AcDbBlockTableRecord
  2
*MODEL_SPACE
340
1D
  0
BLOCK_RECORD
  5
1F
330
16
100
AcDbSymbolTableRecord
100
AcDbBlockTableRecord
  2
*PAPER_SPACE
340
22
  0
ENDTAB
  0
ENDSEC
  0
SECTION
  2
BLOCKS
  0
BLOCK
  5
1A
330
17
100
AcDbEntity
  8
0
100
AcDbBlockBegin
  2
*MODEL_SPACE
 70
     0
 10
0.0
 20
0.0
 30
0.0
  3
*MODEL_SPACE
  1

  0
ENDBLK
  5
1C
330
17
100
AcDbEntity
  8
0
100
AcDbBlockEnd
  0
BLOCK
  5
20
330
1F
100
AcDbEntity
 67
     1
  8
0
100
AcDbBlockBegin
  2
*PAPER_SPACE
 70
     0
 10
0.0
 20
0.0
 30
0.0
  3
*PAPER_SPACE
  1

  0
ENDBLK
  5
21
330
1F
100
AcDbEntity
 67
     1
  8
0
100
AcDbBlockEnd
  0
ENDSEC
  0
SECTION
  2
ENTITIES
  0
ARC
  5
180
330
17
100
AcDbEntity
  8
4
100
AcDbCircle
 10
2071.837076151834
 20
653.2397147020054
 30
0.0
 40
0.999984
100
AcDbArc
 50
0.0
 51
74.92889900002666
  0
LINE
  5
188
330
17
100
AcDbEntity
  8
4
100
AcDbLine
 10
1904.708756151834
 20
869.0060687020055
 30
0.0
 11
1905.337172151834
 21
851.0060687020055
 31
0.0
  0
LINE
  5
189
330
17
100
AcDbEntity
  8
4
100
AcDbLine
 10
1907.837174151834
 20
851.0060687020055
 30
0.0
 11
1907.837174151834
 21
845.5060667020052
 31
0.0
  0
LINE
  5
18A
330
17
100
AcDbEntity
  8
4
100
AcDbLine
 10
1892.837174151834
 20
869.0060687020055
 30
0.0
 11
1904.708756151834
 21
869.0060687020055
 31
0.0
  0
LINE
  5
18B
330
17
100
AcDbEntity
  8
4
100
AcDbLine
 10
1892.837174151834
 20
870.0915167020053
 30
0.0
 11
1904.708756151834
 21
869.0060687020055
 31
0.0
  0
LINE
  5
18C
330
17
100
AcDbEntity
  8
4
100
AcDbLine
 10
1892.837174151834
 20
857.3483567020055
 30
0.0
 11
1892.837174151834
 21
931.0060667020052
 31
0.0
  0
LINE
  5
18D
330
17
100
AcDbEntity
  8
4
100
AcDbLine
 10
1860.965834151834
 20
869.0060687020055
 30
0.0
 11
1860.337172151834
 21
851.0060687020055
 31
0.0
  0
LINE
  5
18E
330
17
100
AcDbEntity
  8
4
100
AcDbLine
 10
1857.837176151834
 20
851.0060687020055
 30
0.0
 11
1857.837176151834
 21
845.5060667020052
 31
0.0
  0
LINE
  5
18F
330
17
100
AcDbEntity
  8
4
100
AcDbLine
 10
1872.837416151835
 20
869.0060687020055
 30
0.0
 11
1860.965834151834
 21
869.0060687020055
 31
0.0
  0
LINE
  5
190
330
17
100
AcDbEntity
  8
4
100
AcDbLine
 10
1872.837176151834
 20
870.0915167020053
 30
0.0
 11
1860.965834151834
 21
869.0060687020055
 31
0.0
  0
LINE
  5
191
330
17
100
AcDbEntity
  8
4
100
AcDbLine
 10
1872.837176151834
 20
857.1593867020056
 30
0.0
 11
1872.837176151834
 21
931.0060667020052
 31
0.0
  0
LINE
  5
192
330
17
100
AcDbEntity
  8
4
100
AcDbLine
 10
1907.837174151834
 20
851.0060687020055
 30
0.0
 11
1857.837176151834
 21
851.0060687020055
 31
0.0
  0
LINE
  5
193
330
17
100
AcDbEntity
  8
4
100
AcDbLine
 10
1860.337172151834
 20
851.0060687020055
 30
0.0
 11
1905.337172151834
 21
851.0060687020055
 31
0.0
  0
ARC
  5
194
330
17
100
AcDbEntity
  8
4
100
AcDbCircle
 10
1882.837172151834
 20
931.0060667020052
 30
0.0
 40
10.000002
100
AcDbArc
 50
0.0
 51
180.0
  0
LINE
  5
195
330
17
100
AcDbEntity
  8
L-CENTER
 48
2.0
100
AcDbLine
 10
1908.663344151835
 20
896.0060687020055
 30
0.0
 11
1857.011000151835
 21
896.0060687020055
 31
0.0
  0
ARC
  5
197
330
17
100
AcDbEntity
  8
4
100
AcDbCircle
 10
2035.961695276555
 20
795.4213869919236
 30
0.0
 40
3.875378875279244
100
AcDbArc
 50
314.9559267627452
 51
45.04407323725481
  0
ARC
  5
198
330
17
100
AcDbEntity
  8
4
100
AcDbCircle
 10
2027.837078151835
 20
838.5060707020057
 30
0.0
 40
1.000002
100
AcDbArc
 50
0.0
 51
90.0
  0
LINE
  5
199
330
17
100
AcDbEntity
  8
4
100
AcDbLine
 10
2038.699893241208
 20
792.6789732132729
 30
0.0
 11
2031.837074151833
 21
792.6789732132729
 31
0.0
  0
LINE
  5
19A
330
17
100
AcDbEntity
  8
4
100
AcDbLine
 10
2038.699893241208
 20
798.1638007705742
 30
0.0
 11
2028.837074151833
 21
798.1638007705742
 31
0.0
  0
ARC
  5
19B
330
17
100
AcDbEntity
  8
4
100
AcDbCircle
 10
2035.961695276555
 20
778.9669043200192
 30
0.0
 40
3.875378875279264
100
AcDbArc
 50
314.9559267627452
 51
45.04407323725481
  0
LINE
  5
19C
330
17
100
AcDbEntity
  8
4
100
AcDbLine
 10
2038.699893241208
 20
781.7093180986699
 30
0.0
 11
2031.837074151833
 21
781.7093180986699
 31
0.0
  0
LINE
  5
19D
330
17
100
AcDbEntity
  8
4
100
AcDbLine
 10
2028.837074151833
 20
776.2244905413686
 30
0.0
 11
2038.699893241208
 21
776.2244905413686
 31
0.0
  0
LINE
  5
19E
330
17
100
AcDbEntity
  8
4
100
AcDbLine
 10
2028.837074151833
 20
798.1638007705742
 30
0.0
 11
2028.837074151833
 21
776.2244905413686
 31
0.0
  0
LINE
  5
19F
330
17
100
AcDbEntity
  8
4
100
AcDbLine
 10
2031.837074151833
 20
798.1638007705742
 30
0.0
 11
2031.837074151833
 21
776.2244905413686
 31
0.0
  0
LINE
  5
1A0
330
17
100
AcDbEntity
  8
4
100
AcDbLine
 10
2039.837074151833
 20
778.9669043200192
 30
0.0
 11
2039.837074151833
 21
795.4213869919236
 31
0.0
  0
ARC
  5
1A1
330
17
100
AcDbEntity
  8
4
100
AcDbCircle
 10
2026.041330016656
 20
787.1941456559712
 30
0.0
 40
13.7957441351769
100
AcDbArc
 50
336.5734024913725
 51
23.42659750862749
  0
LINE
  5
1A2
330
17
100
AcDbEntity
  8
4
100
AcDbLine
 10
2001.837176151833
 20
839.5060667020052
 30
0.0
 11
1998.837176151833
 21
839.5060667020052
 31
0.0
  0
LINE
  5
1A3
330
17
100
AcDbEntity
  8
4
100
AcDbLine
 10
2001.837176151833
 20
839.5060667020052
 30
0.0
 11
2027.837078151835
 21
839.5060667020052
 31
0.0
  0
LINE
  5
1A4
330
17
100
AcDbEntity
  8
L-CENTER
 48
2.0
100
AcDbLine
 10
2043.437914031937
 20
787.1941456559712
 30
0.0
 11
1989.160460393892
 21
787.1941456559712
 31
0.0
  0
LINE
  5
1A5
330
17
100
AcDbEntity
  8
4
100
AcDbLine
 10
2033.088004525765
 20
776.2244905413686
 30
0.0
 11
2046.837074151833
 21
661.0060667020052
 31
0.0
  0
LINE
  5
1A6
330
17
100
AcDbEntity
  8
4
100
AcDbLine
 10
2031.070648278066
 20
776.2244905413686
 30
0.0
 11
2044.855142151835
 21
660.7392227020055
 31
0.0
  0
ARC
  5
1A7
330
17
100
AcDbEntity
  8
4
100
AcDbCircle
 10
1854.837176151834
 20
845.5060667020052
 30
0.0
 40
3.0
100
AcDbArc
 50
270.0
 51
0.0
  0
ARC
  5
1A8
330
17
100
AcDbEntity
  8
4
100
AcDbCircle
 10
1910.837174151834
 20
845.5060667020052
 30
0.0
 40
3.0
100
AcDbArc
 50
180.0
 51
270.0
  0
LINE
  5
1A9
330
17
100
AcDbEntity
  8
4
100
AcDbLine
 10
2072.097086151834
 20
654.2052887020054
 30
0.0
 11
2044.743326151834
 21
661.5697907020055
 31
0.0
  0
ARC
  5
1B0
330
17
100
AcDbEntity
  8
4
100
AcDbCircle
 10
1739.837174151834
 20
838.5060707020057
 30
0.0
 40
1.000002
100
AcDbArc
 50
90.0
 51
180.0
  0
LINE
  5
1B1
330
17
100
AcDbEntity
  8
4
100
AcDbLine
 10
1766.837174151834
 20
839.5060667020052
 30
0.0
 11
1739.837174151834
 21
839.5060667020052
 31
0.0
  0
LINE
  5
1B2
330
17
100
AcDbEntity
  8
4
100
AcDbLine
 10
1718.837174151834
 20
661.0060667020052
 30
0.0
 11
1738.837172151834
 21
809.5060667020052
 31
0.0
  0
LINE
  5
1B3
330
17
100
AcDbEntity
  8
4
100
AcDbLine
 10
1738.837172151834
 20
794.5234007020053
 30
0.0
 11
1720.819106151834
 21
660.7392227020055
 31
0.0
  0
ARC
  5
1B4
330
17
100
AcDbEntity
  8
4
100
AcDbCircle
 10
1693.837172151834
 20
653.2397147020054
 30
0.0
 40
0.999984
100
AcDbArc
 50
105.0711009999734
 51
180.0
  0
LINE
  5
1B5
330
17
100
AcDbEntity
  8
4
100
AcDbLine
 10
1693.577162151834
 20
654.2052887020054
 30
0.0
 11
1720.930922151834
 21
661.5697907020055
 31
0.0
  0
LINE
  5
1BC
330
17
100
AcDbEntity
  8
4
100
AcDbLine
 10
1998.837176151833
 20
842.5060667020052
 30
0.0
 11
1766.837174151834
 21
842.5060667020052
 31
0.0
  0
LINE
  5
1C2
330
17
100
AcDbEntity
  8
4
100
AcDbLine
 10
2242.837172151834
 20
590.5060667020055
 30
0.0
 11
2240.837174151834
 21
592.5060707020054
 31
0.0
  0
LINE
  5
1C3
330
17
100
AcDbEntity
  8
4
100
AcDbLine
 10
2240.837174151834
 20
499.5060707020054
 30
0.0
 11
2242.837172151834
 21
501.5060687020055
 31
0.0
  0
LINE
  5
1C4
330
17
100
AcDbEntity
  8
4
100
AcDbLine
 10
2240.837174151834
 20
592.5060707020054
 30
0.0
 11
2240.837174151834
 21
499.5060707020054
 31
0.0
  0
LINE
  5
1C5
330
17
100
AcDbEntity
  8
4
100
AcDbLine
 10
2242.837172151834
 20
600.5060687020055
 30
0.0
 11
2242.837172151834
 21
501.5060687020055
 31
0.0
  0
LINE
  5
1C6
330
17
100
AcDbEntity
  8
4
100
AcDbLine
 10
2072.837078151835
 20
606.0060707020054
 30
0.0
 11
2073.837074151833
 21
606.0060707020054
 31
0.0
  0
LINE
  5
1C7
330
17
100
AcDbEntity
  8
4
100
AcDbLine
 10
2082.837176151833
 20
593.5060667020055
 30
0.0
 11
2073.837074151833
 21
593.5060667020055
 31
0.0
  0
LINE
  5
1C8
330
17
100
AcDbEntity
  8
4
100
AcDbLine
 10
2092.837172151834
 20
600.5060687020055
 30
0.0
 11
2092.837172151834
 21
592.5060707020054
 31
0.0
  0
LINE
  5
1C9
330
17
100
AcDbEntity
  8
4
100
AcDbLine
 10
2072.837078151835
 20
486.0060707020054
 30
0.0
 11
2073.837074151833
 21
486.0060707020054
 31
0.0
  0
LINE
  5
1CA
330
17
100
AcDbEntity
  8
4
100
AcDbLine
 10
2073.837074151833
 20
498.5060687020055
 30
0.0
 11
2082.837176151833
 21
498.5060687020055
 31
0.0
  0
ARC
  5
1CB
330
17
100
AcDbEntity
  8
4
100
AcDbCircle
 10
2071.837076151834
 20
438.7724267020055
 30
0.0
 40
0.999984
100
AcDbArc
 50
285.0711009999733
 51
0.0
  0
LINE
  5
1CC
330
17
100
AcDbEntity
  8
4
100
AcDbLine
 10
2073.837074151833
 20
486.0060707020054
 30
0.0
 11
2073.837074151833
 21
606.0060707020054
 31
0.0
  0
LINE
  5
1CD
330
17
100
AcDbEntity
  8
4
100
AcDbLine
 10
2082.837176151833
 20
593.5060667020055
 30
0.0
 11
2082.837176151833
 21
498.5060687020055
 31
0.0
  0
LINE
  5
1CE
330
17
100
AcDbEntity
  8
4
100
AcDbLine
 10
2082.837176151833
 20
499.5060707020054
 30
0.0
 11
2240.837174151834
 21
499.5060707020054
 31
0.0
  0
LINE
  5
1CF
330
17
100
AcDbEntity
  8
4
100
AcDbLine
 10
2082.837176151833
 20
592.5060707020054
 30
0.0
 11
2240.837174151834
 21
592.5060707020054
 31
0.0
  0
LINE
  5
1D0
330
17
100
AcDbEntity
  8
4
100
AcDbLine
 10
2242.837172151834
 20
600.5060687020055
 30
0.0
 11
2092.837172151834
 21
600.5060687020055
 31
0.0
  0
ARC
  5
1D1
330
17
100
AcDbEntity
  8
4
100
AcDbCircle
 10
2035.961695276555
 20
554.2333120379578
 30
0.0
 40
3.875378875279244
100
AcDbArc
 50
314.9559267627452
 51
45.04407323725481
  0
LINE
  5
1D2
330
17
100
AcDbEntity
  8
4
100
AcDbLine
 10
2039.837074151833
 20
537.7788293660535
 30
0.0
 11
2039.837074151833
 21
554.2333120379578
 31
0.0
  0
ARC
  5
1D3
330
17
100
AcDbEntity
  8
4
100
AcDbCircle
 10
2035.961695276555
 20
537.7788293660535
 30
0.0
 40
3.875378875279264
100
AcDbArc
 50
314.9559267627452
 51
45.04407323725481
  0
ARC
  5
1D4
330
17
100
AcDbEntity
  8
4
100
AcDbCircle
 10
2026.041330016656
 20
546.0060707020054
 30
0.0
 40
13.7957441351769
100
AcDbArc
 50
336.5734024913725
 51
23.42659750862588
  0
LINE
  5
1D5
330
17
100
AcDbEntity
  8
4
100
AcDbLine
 10
2028.837074151833
 20
556.9757258166085
 30
0.0
 11
2028.837074151833
 21
535.0364155874029
 31
0.0
  0
LINE
  5
1D6
330
17
100
AcDbEntity
  8
4
100
AcDbLine
 10
2031.837074151833
 20
556.9757258166085
 30
0.0
 11
2031.837074151833
 21
535.0364155874029
 31
0.0
  0
LINE
  5
1D7
330
17
100
AcDbEntity
  8
4
100
AcDbLine
 10
2038.699893241208
 20
540.5212431447042
 30
0.0
 11
2031.837074151833
 21
540.5212431447042
 31
0.0
  0
LINE
  5
1D8
330
17
100
AcDbEntity
  8
4
100
AcDbLine
 10
2028.837074151833
 20
535.0364155874029
 30
0.0
 11
2038.699893241208
 21
535.0364155874029
 31
0.0
  0
LINE
  5
1D9
330
17
100
AcDbEntity
  8
4
100
AcDbLine
 10
2038.699893241208
 20
551.4908982593072
 30
0.0
 11
2031.837074151833
 21
551.4908982593072
 31
0.0
  0
LINE
  5
1DA
330
17
100
AcDbEntity
  8
4
100
AcDbLine
 10
2038.699893241208
 20
556.9757258166085
 30
0.0
 11
2028.837074151833
 21
556.9757258166085
 31
0.0
  0
ARC
  5
1DB
330
17
100
AcDbEntity
  8
4
100
AcDbCircle
 10
2026.041330016665
 20
304.8179957480418
 30
0.0
 40
13.7957441351769
100
AcDbArc
 50
336.573402491375
 51
23.42659750863172
  0
LINE
  5
1DC
330
17
100
AcDbEntity
  8
4
100
AcDbLine
 10
2039.837074151842
 20
313.0452370839942
 30
0.0
 11
2039.837074151842
 21
296.5907544120898
 31
0.0
  0
ARC
  5
1DD
330
17
100
AcDbEntity
  8
4
100
AcDbCircle
 10
2035.961695276562
 20
313.0452370839942
 30
0.0
 40
3.875378875279264
100
AcDbArc
 50
314.955926762744
 51
45.04407323725719
  0
ARC
  5
1DE
330
17
100
AcDbEntity
  8
4
100
AcDbCircle
 10
2035.961695276564
 20
296.5907544120898
 30
0.0
 40
3.875378875279244
100
AcDbArc
 50
314.955926762744
 51
45.04407323725719
  0
LINE
  5
1DF
330
17
100
AcDbEntity
  8
4
100
AcDbLine
 10
2031.837074151842
 20
293.848340633439
 30
0.0
 11
2031.837074151842
 21
315.7876508626446
 31
0.0
  0
LINE
  5
1E0
330
17
100
AcDbEntity
  8
4
100
AcDbLine
 10
2028.837074151842
 20
293.848340633439
 30
0.0
 11
2028.837074151842
 21
315.7876508626446
 31
0.0
  0
LINE
  5
1E1
330
17
100
AcDbEntity
  8
4
100
AcDbLine
 10
2028.837074151842
 20
315.7876508626446
 30
0.0
 11
2038.699893241215
 21
315.7876508626448
 31
0.0
  0
LINE
  5
1E2
330
17
100
AcDbEntity
  8
4
100
AcDbLine
 10
2038.699893241215
 20
310.3028233053435
 30
0.0
 11
2031.837074151842
 21
310.3028233053433
 31
0.0
  0
LINE
  5
1E3
330
17
100
AcDbEntity
  8
4
100
AcDbLine
 10
2038.699893241217
 20
293.8483406334392
 30
0.0
 11
2028.837074151842
 21
293.848340633439
 31
0.0
  0
LINE
  5
1E4
330
17
100
AcDbEntity
  8
4
100
AcDbLine
 10
2038.699893241216
 20
299.3331681907405
 30
0.0
 11
2031.837074151842
 21
299.3331681907403
 31
0.0
  0
LINE
  5
1E5
330
17
100
AcDbEntity
  8
L-CENTER
 48
2.0
100
AcDbLine
 10
2043.437914031947
 20
304.8179957480424
 30
0.0
 11
1989.160460393901
 21
304.8179957480404
 31
0.0
  0
ARC
  5
1E6
330
17
100
AcDbEntity
  8
4
100
AcDbCircle
 10
2027.837078151835
 20
253.5060707020054
 30
0.0
 40
1.000002
100
AcDbArc
 50
270.0
 51
0.0
  0
LINE
  5
1E7
330
17
100
AcDbEntity
  8
4
100
AcDbLine
 10
1998.837176151833
 20
252.5060687020055
 30
0.0
 11
2001.837176151833
 21
252.5060687020055
 31
0.0
  0
LINE
  5
1E8
330
17
100
AcDbEntity
  8
4
100
AcDbLine
 10
1989.837172151834
 20
245.5212411447037
 30
0.0
 11
1989.837172151834
 21
256.4908962593067
 31
0.0
  0
LINE
  5
1E9
330
17
100
AcDbEntity
  8
4
100
AcDbLine
 10
1980.337172151834
 20
240.0364135874024
 30
0.0
 11
1989.837172151834
 21
245.5212411447037
 31
0.0
  0
LINE
  5
1EA
330
17
100
AcDbEntity
  8
4
100
AcDbLine
 10
1989.837172151834
 20
256.4908962593067
 30
0.0
 11
1980.337172151834
 21
261.975723816608
 31
0.0
  0
LINE
  5
1EB
330
17
100
AcDbEntity
  8
4
100
AcDbLine
 10
1970.837172151834
 20
256.4908962593067
 30
0.0
 11
1970.837172151834
 21
245.5212411447037
 31
0.0
  0
LINE
  5
1EC
330
17
100
AcDbEntity
  8
4
100
AcDbLine
 10
1970.837172151834
 20
245.5212411447037
 30
0.0
 11
1980.337172151834
 21
240.0364135874024
 31
0.0
  0
LINE
  5
1ED
330
17
100
AcDbEntity
  8
4
100
AcDbLine
 10
1980.337172151834
 20
261.975723816608
 30
0.0
 11
1970.837172151834
 21
256.4908962593067
 31
0.0
  0
CIRCLE
  5
1EE
330
17
100
AcDbEntity
  8
4
100
AcDbCircle
 10
1980.337172151834
 20
251.0060687020055
 30
0.0
 40
9.5
  0
LINE
  5
1EF
330
17
100
AcDbEntity
  8
4
100
AcDbLine
 10
2001.837176151833
 20
252.5060687020055
 30
0.0
 11
2027.837078151835
 21
252.5060687020055
 31
0.0
  0
LINE
  5
1F0
330
17
100
AcDbEntity
  8
4
100
AcDbLine
 10
1931.586897517974
 20
346.4133592449284
 30
0.0
 11
1922.086897517974
 21
340.9285316876271
 31
0.0
  0
LINE
  5
1F1
330
17
100
AcDbEntity
  8
4
100
AcDbLine
 10
1941.086897517974
 20
340.9285316876271
 30
0.0
 11
1931.586897517974
 21
346.4133592449284
 31
0.0
  0
LINE
  5
1F2
330
17
100
AcDbEntity
  8
4
100
AcDbLine
 10
1922.086897517974
 20
329.9588765730241
 30
0.0
 11
1931.586897517974
 21
324.4740490157229
 31
0.0
  0
LINE
  5
1F3
330
17
100
AcDbEntity
  8
4
100
AcDbLine
 10
1931.586897517974
 20
324.4740490157229
 30
0.0
 11
1941.086897517974
 21
329.9588765730241
 31
0.0
  0
LINE
  5
1F4
330
17
100
AcDbEntity
  8
4
100
AcDbLine
 10
1941.086897517974
 20
329.9588765730241
 30
0.0
 11
1941.086897517974
 21
340.9285316876271
 31
0.0
  0
LINE
  5
1F5
330
17
100
AcDbEntity
  8
4
100
AcDbLine
 10
1922.086897517974
 20
340.9285316876271
 30
0.0
 11
1922.086897517974
 21
329.9588765730241
 31
0.0
  0
CIRCLE
  5
1F6
330
17
100
AcDbEntity
  8
4
100
AcDbCircle
 10
1931.586897517974
 20
335.4437041303258
 30
0.0
 40
9.5
  0
LINE
  5
1F7
330
17
100
AcDbEntity
  8
4
100
AcDbLine
 10
1834.086908895687
 20
346.4130486940362
 30
0.0
 11
1824.586908895687
 21
340.9282211367349
 31
0.0
  0
LINE
  5
1F8
330
17
100
AcDbEntity
  8
4
100
AcDbLine
 10
1843.586908895687
 20
340.9282211367349
 30
0.0
 11
1834.086908895687
 21
346.4130486940362
 31
0.0
  0
LINE
  5
1F9
330
17
100
AcDbEntity
  8
4
100
AcDbLine
 10
1824.586908895687
 20
329.9585660221319
 30
0.0
 11
1834.086908895687
 21
324.4737384648306
 31
0.0
  0
LINE
  5
1FA
330
17
100
AcDbEntity
  8
4
100
AcDbLine
 10
1834.086908895687
 20
324.4737384648306
 30
0.0
 11
1843.586908895687
 21
329.9585660221319
 31
0.0
  0
LINE
  5
1FB
330
17
100
AcDbEntity
  8
4
100
AcDbLine
 10
1843.586908895687
 20
329.9585660221319
 30
0.0
 11
1843.586908895687
 21
340.9282211367349
 31
0.0
  0
LINE
  5
1FC
330
17
100
AcDbEntity
  8
4
100
AcDbLine
 10
1824.586908895687
 20
340.9282211367349
 30
0.0
 11
1824.586908895687
 21
329.9585660221319
 31
0.0
  0
CIRCLE
  5
1FD
330
17
100
AcDbEntity
  8
4
100
AcDbCircle
 10
1834.086908895687
 20
335.4433935794336
 30
0.0
 40
9.5
  0
LINE
  5
1FE
330
17
100
AcDbEntity
  8
4
100
AcDbLine
 10
1891.837172151834
 20
288.5060687020055
 30
0.0
 11
1873.837172151834
 21
288.5060687020055
 31
0.0
  0
LINE
  5
1FF
330
17
100
AcDbEntity
  8
4
100
AcDbLine
 10
1931.586963155468
 20
177.5381262838617
 30
0.0
 11
1922.086963155468
 21
172.0532987265605
 31
0.0
  0
LINE
  5
200
330
17
100
AcDbEntity
  8
4
100
AcDbLine
 10
1941.086963155468
 20
172.0532987265605
 30
0.0
 11
1931.586963155468
 21
177.5381262838617
 31
0.0
  0
LINE
  5
201
330
17
100
AcDbEntity
  8
4
100
AcDbLine
 10
1834.086956945682
 20
177.5383711973208
 30
0.0
 11
1824.586956945682
 21
172.0535436400195
 31
0.0
  0
LINE
  5
202
330
17
100
AcDbEntity
  8
4
100
AcDbLine
 10
1843.586956945682
 20
172.0535436400195
 30
0.0
 11
1834.086956945682
 21
177.5383711973208
 31
0.0
  0
LINE
  5
203
330
17
100
AcDbEntity
  8
4
100
AcDbLine
 10
1891.837172151834
 20
276.5060687020055
 30
0.0
 11
1873.837172151834
 21
276.5060687020055
 31
0.0
  0
ARC
  5
204
330
17
100
AcDbEntity
  8
4
100
AcDbCircle
 10
1882.837172151834
 20
251.0060687020055
 30
0.0
 40
31.50009
100
AcDbArc
 50
106.6015009999999
 51
73.3984990000001
  0
LINE
  5
205
330
17
100
AcDbEntity
  8
4
100
AcDbLine
 10
1873.837172151834
 20
288.5060687020055
 30
0.0
 11
1873.837172151834
 21
276.5060687020055
 31
0.0
  0
LINE
  5
206
330
17
100
AcDbEntity
  8
4
100
AcDbLine
 10
1891.837172151834
 20
276.5060687020055
 30
0.0
 11
1891.837172151834
 21
288.5060687020055
 31
0.0
  0
CIRCLE
  5
207
330
17
100
AcDbEntity
  8
4
100
AcDbCircle
 10
1882.837172151834
 20
251.0060687020055
 30
0.0
 40
45.0
  0
LINE
  5
208
330
17
100
AcDbEntity
  8
L-CENTER
 48
2.0
100
AcDbLine
 10
1922.359568771565
 20
319.4614670414801
 30
0.0
 11
1940.814226264383
 21
351.425941219172
 31
0.0
  0
LINE
  5
209
330
17
100
AcDbEntity
  8
4
100
AcDbLine
 10
2033.08800460864
 20
315.7876508626447
 30
0.0
 11
2046.837074151833
 21
431.0060687020055
 31
0.0
  0
LINE
  5
20A
330
17
100
AcDbEntity
  8
4
100
AcDbLine
 10
2031.070648360792
 20
315.7876508626446
 30
0.0
 11
2044.855142151835
 21
431.2729127020054
 31
0.0
  0
LINE
  5
20B
330
17
100
AcDbEntity
  8
4
100
AcDbLine
 10
2072.097086151834
 20
437.8068527020055
 30
0.0
 11
2044.743326151834
 21
430.4423507020056
 31
0.0
  0
ARC
  5
20C
330
17
100
AcDbEntity
  8
4
100
AcDbCircle
 10
2069.837174151834
 20
133.0060667020055
 30
0.0
 40
3.0
100
AcDbArc
 50
0.0
 51
90.0
  0
LINE
  5
20D
330
17
100
AcDbEntity
  8
4
100
AcDbLine
 10
2072.837174151834
 20
133.0060667020055
 30
0.0
 11
2072.837174151834
 21
81.00607070200545
 31
0.0
  0
ARC
  5
20F
330
17
100
AcDbEntity
  8
4
100
AcDbCircle
 10
2012.337176151833
 20
151.0060667020055
 30
0.0
 40
15.0
100
AcDbArc
 50
180.0
 51
270.0
  0
LINE
  5
212
330
17
100
AcDbEntity
  8
4
100
AcDbLine
 10
1922.086963155468
 20
161.0836436119574
 30
0.0
 11
1931.586963155468
 21
155.5988160546561
 31
0.0
  0
LINE
  5
213
330
17
100
AcDbEntity
  8
4
100
AcDbLine
 10
1931.586963155468
 20
155.5988160546561
 30
0.0
 11
1941.086963155468
 21
161.0836436119574
 31
0.0
  0
LINE
  5
214
330
17
100
AcDbEntity
  8
4
100
AcDbLine
 10
1824.586956945682
 20
161.0838885254165
 30
0.0
 11
1834.086956945682
 21
155.5990609681152
 31
0.0
  0
LINE
  5
215
330
17
100
AcDbEntity
  8
4
100
AcDbLine
 10
1834.086956945682
 20
155.5990609681152
 30
0.0
 11
1843.586956945682
 21
161.0838885254165
 31
0.0
  0
LINE
  5
219
330
17
100
AcDbEntity
  8
4
100
AcDbLine
 10
1997.337176151833
 20
251.0060687020055
 30
0.0
 11
2052.837176151833
 21
136.0060667020055
 31
0.0
  0
LINE
  5
21A
330
17
100
AcDbEntity
  8
4
100
AcDbLine
 10
1997.337176151833
 20
151.0060667020055
 30
0.0
 11
1997.337176151833
 21
251.0060687020055
 31
0.0
  0
LINE
  5
21B
330
17
100
AcDbEntity
  8
L-CENTER
 48
2.0
100
AcDbLine
 10
1940.814281029598
 20
150.5862278033187
 30
0.0
 11
1922.359645281338
 21
182.5507145351996
 31
0.0
  0
LINE
  5
21C
330
17
100
AcDbEntity
  8
L-CENTER
 48
2.0
100
AcDbLine
 10
2032.837172151834
 20
156.0060667020055
 30
0.0
 11
2032.837172151834
 21
61.00607070200545
 31
0.0
  0
LINE
  5
21D
330
17
100
AcDbEntity
  8
4
100
AcDbLine
 10
1941.086963155468
 20
161.0836436119574
 30
0.0
 11
1941.086963155468
 21
172.0532987265605
 31
0.0
  0
LINE
  5
21E
330
17
100
AcDbEntity
  8
4
100
AcDbLine
 10
1922.086963155468
 20
172.0532987265605
 30
0.0
 11
1922.086963155468
 21
161.0836436119574
 31
0.0
  0
CIRCLE
  5
21F
330
17
100
AcDbEntity
  8
4
100
AcDbCircle
 10
1931.586963155468
 20
166.5684711692592
 30
0.0
 40
9.5
  0
LINE
  5
220
330
17
100
AcDbEntity
  8
4
100
AcDbLine
 10
1843.586956945682
 20
161.0838885254165
 30
0.0
 11
1843.586956945682
 21
172.0535436400195
 31
0.0
  0
LINE
  5
221
330
17
100
AcDbEntity
  8
4
100
AcDbLine
 10
1824.586956945682
 20
172.0535436400195
 30
0.0
 11
1824.586956945682
 21
161.0838885254165
 31
0.0
  0
CIRCLE
  5
222
330
17
100
AcDbEntity
  8
4
100
AcDbCircle
 10
1834.086956945682
 20
166.5687160827182
 30
0.0
 40
9.5
  0
LINE
  5
223
330
17
100
AcDbEntity
  8
4
100
AcDbLine
 10
1718.837174151835
 20
473.0060707020054
 30
0.0
 11
1738.837172151836
 21
486.4843313957676
 31
0.0
  0
ARC
  5
224
330
17
100
AcDbEntity
  8
4
100
AcDbCircle
 10
1693.837172151834
 20
438.7724267020055
 30
0.0
 40
0.999984
100
AcDbArc
 50
180.0
 51
254.9288990000266
  0
LINE
  5
225
330
17
100
AcDbEntity
  8
4
100
AcDbLine
 10
1693.577162151834
 20
437.8068527020055
 30
0.0
 11
1720.930922151834
 21
430.4423507020056
 31
0.0
  0
LINE
  5
226
330
17
100
AcDbEntity
  8
4
100
AcDbLine
 10
1794.837172151834
 20
245.5212411447037
 30
0.0
 11
1794.837172151834
 21
256.4908962593067
 31
0.0
  0
LINE
  5
227
330
17
100
AcDbEntity
  8
4
100
AcDbLine
 10
1768.346942151834
 20
249.5060687020055
 30
0.0
 11
1766.837174151834
 21
249.5060687020055
 31
0.0
  0
LINE
  5
228
330
17
100
AcDbEntity
  8
4
100
AcDbLine
 10
1775.837172151834
 20
245.5212411447037
 30
0.0
 11
1785.337172151834
 21
240.0364135874024
 31
0.0
  0
LINE
  5
229
330
17
100
AcDbEntity
  8
4
100
AcDbLine
 10
1775.837172151834
 20
256.4908962593067
 30
0.0
 11
1775.837172151834
 21
245.5212411447037
 31
0.0
  0
LINE
  5
22A
330
17
100
AcDbEntity
  8
4
100
AcDbLine
 10
1785.337172151834
 20
261.975723816608
 30
0.0
 11
1775.837172151834
 21
256.4908962593067
 31
0.0
  0
LINE
  5
22B
330
17
100
AcDbEntity
  8
4
100
AcDbLine
 10
1785.337172151834
 20
240.0364135874024
 30
0.0
 11
1794.837172151834
 21
245.5212411447037
 31
0.0
  0
CIRCLE
  5
22C
330
17
100
AcDbEntity
  8
4
100
AcDbCircle
 10
1785.337172151834
 20
251.0060687020055
 30
0.0
 40
9.5
  0
LINE
  5
22D
330
17
100
AcDbEntity
  8
4
100
AcDbLine
 10
1794.837172151834
 20
256.4908962593067
 30
0.0
 11
1785.337172151834
 21
261.975723816608
 31
0.0
  0
ARC
  5
22E
330
17
100
AcDbEntity
  8
4
100
AcDbCircle
 10
1739.837174151834
 20
253.5060707020054
 30
0.0
 40
1.000002
100
AcDbArc
 50
180.0
 51
270.0
  0
LINE
  5
22F
330
17
100
AcDbEntity
  8
4
100
AcDbLine
 10
1766.837174151834
 20
252.5060687020055
 30
0.0
 11
1739.837174151834
 21
252.5060687020055
 31
0.0
  0
LINE
  5
230
330
17
100
AcDbEntity
  8
4
100
AcDbLine
 10
1718.837174151834
 20
431.0060687020055
 30
0.0
 11
1738.837172151834
 21
282.5060687020055
 31
0.0
  0
LINE
  5
231
330
17
100
AcDbEntity
  8
4
100
AcDbLine
 10
1738.837172151834
 20
297.4887347020053
 30
0.0
 11
1720.819106151834
 21
431.2729127020054
 31
0.0
  0
LINE
  5
240
330
17
100
AcDbEntity
  8
L-CENTER
 48
2.0
100
AcDbLine
 10
1732.837172151834
 20
156.0060667020055
 30
0.0
 11
1732.837172151834
 21
61.00607070200545
 31
0.0
  0
ARC
  5
241
330
17
100
AcDbEntity
  8
4
100
AcDbCircle
 10
1753.337174151834
 20
151.0060667020055
 30
0.0
 40
15.0
100
AcDbArc
 50
270.0
 51
0.0
  0
ARC
  5
244
330
17
100
AcDbEntity
  8
4
100
AcDbCircle
 10
1695.837176151834
 20
133.0060667020055
 30
0.0
 40
3.0
100
AcDbArc
 50
90.0
 51
180.0
  0
LINE
  5
245
330
17
100
AcDbEntity
  8
4
100
AcDbLine
 10
1692.837176151834
 20
133.0060667020055
 30
0.0
 11
1692.837176151834
 21
81.00607070200545
 31
0.0
  0
LINE
  5
24E
330
17
100
AcDbEntity
  8
4
100
AcDbLine
 10
1712.837174151834
 20
136.0060667020055
 30
0.0
 11
1768.337174151834
 21
251.0060687020055
 31
0.0
  0
LINE
  5
24F
330
17
100
AcDbEntity
  8
4
100
AcDbLine
 10
1768.337174151834
 20
151.0060667020055
 30
0.0
 11
1768.337174151834
 21
251.0060687020055
 31
0.0
  0
CIRCLE
  5
253
330
17
100
AcDbEntity
  8
4
100
AcDbCircle
 10
1882.837172151834
 20
251.0060687020055
 30
0.0
 40
114.499998
  0
CIRCLE
  5
254
330
17
100
AcDbEntity
  8
L-CENTER
 48
2.0
100
AcDbCircle
 10
1882.837172151834
 20
251.0060687020055
 30
0.0
 40
97.5
  0
LINE
  5
255
330
17
100
AcDbEntity
  8
4
100
AcDbLine
 10
2072.837174151834
 20
81.00607070200545
 30
0.0
 11
1692.837176151834
 21
81.00607070200545
 31
0.0
  0
LINE
  5
256
330
17
100
AcDbEntity
  8
4
100
AcDbLine
 10
2069.837174151834
 20
136.0060667020055
 30
0.0
 11
1695.837176151834
 21
136.0060667020055
 31
0.0
  0
LINE
  5
257
330
17
100
AcDbEntity
  8
L-CENTER
 48
2.0
100
AcDbLine
 10
1843.314298821298
 20
182.550945591423
 30
0.0
 11
1824.859615070066
 21
150.5864865740136
 31
0.0
  0
LINE
  5
25A
330
17
100
AcDbEntity
  8
L-CENTER
 48
2.0
100
AcDbLine
 10
2253.210158151834
 20
546.0060707020054
 30
0.0
 11
1512.464186151833
 21
546.0060707020054
 31
0.0
  0
LINE
  5
25B
330
17
100
AcDbEntity
  8
L-CENTER
 48
2.0
100
AcDbLine
 10
1824.85959363954
 20
351.4256384568616
 30
0.0
 11
1843.314224151834
 21
319.4611487020056
 31
0.0
  0
LINE
  5
25C
330
17
100
AcDbEntity
  8
L-CENTER
 48
2.0
100
AcDbLine
 10
2010.969754756988
 20
251.0060687020055
 30
0.0
 11
1754.704589546679
 21
251.0060687020055
 31
0.0
  0
CIRCLE
  5
25D
330
17
100
AcDbEntity
  8
4
100
AcDbCircle
 10
1882.837172151834
 20
251.0060687020055
 30
0.0
 40
72.0
  0
LINE
  5
25F
330
17
100
AcDbEntity
  8
L-CENTER
 48
2.0
100
AcDbLine
 10
1882.837172151834
 20
956.612892877966
 30
0.0
 11
1882.837172151834
 21
58.98777470200548
 31
0.0
  0
LINE
  5
262
330
17
100
AcDbEntity
  8
4
100
AcDbLine
 10
1692.837176151834
 20
438.7724267020055
 30
0.0
 11
1692.837176151834
 21
653.2397147020054
 31
0.0
  0
LINE
  5
263
330
17
100
AcDbEntity
  8
4
100
AcDbLine
 10
1718.837174151834
 20
661.0060667020052
 30
0.0
 11
1718.837174151834
 21
431.0060687020055
 31
0.0
  0
LINE
  5
264
330
17
100
AcDbEntity
  8
4
100
AcDbLine
 10
1738.837172151834
 20
838.5060707020057
 30
0.0
 11
1738.837172151834
 21
253.5060707020054
 31
0.0
  0
LINE
  5
265
330
17
100
AcDbEntity
  8
4
100
AcDbLine
 10
1766.837174151834
 20
249.5060687020055
 30
0.0
 11
1766.837174151834
 21
842.5060667020052
 31
0.0
  0
LINE
  5
266
330
17
100
AcDbEntity
  8
4
100
AcDbLine
 10
2072.837078151835
 20
653.2397147020054
 30
0.0
 11
2072.837078151835
 21
438.7724267020055
 31
0.0
  0
LINE
  5
267
330
17
100
AcDbEntity
  8
4
100
AcDbLine
 10
2046.837074151833
 20
431.0060687020055
 30
0.0
 11
2046.837074151833
 21
661.0060667020052
 31
0.0
  0
LINE
  5
268
330
17
100
AcDbEntity
  8
4
100
AcDbLine
 10
2001.837176151833
 20
252.5060687020055
 30
0.0
 11
2001.837176151833
 21
839.5060667020052
 31
0.0
  0
LINE
  5
269
330
17
100
AcDbEntity
  8
4
100
AcDbLine
 10
1998.837176151833
 20
247.4926427020055
 30
0.0
 11
1998.837176151833
 21
842.5060667020052
 31
0.0
  0
LINE
  5
26A
330
17
100
AcDbEntity
  8
4
100
AcDbLine
 10
2028.837074151833
 20
838.5060707020057
 30
0.0
 11
2028.837074151833
 21
253.5060707020054
 31
0.0
  0
LINE
  5
26D
330
17
100
AcDbEntity
  8
4
100
AcDbLine
 10
1718.837174151834
 20
619.0060707020054
 30
0.0
 11
1738.837172151834
 21
605.5278100082435
 31
0.0
  0
LINE
  5
26E
330
17
100
AcDbEntity
  8
4
100
AcDbLine
 10
877.1783307078308
 20
1813.268201406902
 30
0.0
 11
877.1783307078317
 21
1816.268201406902
 31
0.0
  0
LINE
  5
26F
330
17
100
AcDbEntity
  8
4
100
AcDbLine
 10
894.978330707831
 20
1811.768201406902
 30
0.0
 11
880.1783307078317
 21
1811.768201406902
 31
0.0
  0
ARC
  5
270
330
17
100
AcDbEntity
  8
4
100
AcDbCircle
 10
894.978330707831
 20
1810.768201406902
 30
0.0
 40
1.0
100
AcDbArc
 50
0.0
 51
90.0
  0
LINE
  5
271
330
17
100
AcDbEntity
  8
4
100
AcDbLine
 10
879.1783307078317
 20
1816.568201406903
 30
0.0
 11
879.1783307078317
 21
1842.568201406903
 31
0.0
  0
ARC
  5
272
330
17
100
AcDbEntity
  8
4
100
AcDbCircle
 10
878.1783307078308
 20
1842.568201406903
 30
0.0
 40
1.0
100
AcDbArc
 50
0.0
 51
90.0
  0
ARC
  5
273
330
17
100
AcDbEntity
  8
4
100
AcDbCircle
 10
903.1029518325527
 20
1802.995442742855
 30
0.0
 40
3.875378875279244
100
AcDbArc
 50
314.9559267627452
 51
45.04407323725481
  0
ARC
  5
274
330
17
100
AcDbEntity
  8
4
100
AcDbCircle
 10
893.1825865726537
 20
1794.768201406902
 30
0.0
 40
13.7957441351769
100
AcDbArc
 50
336.5734024913729
 51
23.42659750862713
  0
LINE
  5
275
330
17
100
AcDbEntity
  8
4
100
AcDbLine
 10
906.978330707831
 20
1786.54096007095
 30
0.0
 11
906.978330707831
 21
1802.995442742855
 31
0.0
  0
ARC
  5
276
330
17
100
AcDbEntity
  8
4
100
AcDbCircle
 10
903.1029518325527
 20
1786.54096007095
 30
0.0
 40
3.875378875279264
100
AcDbArc
 50
314.9559267627452
 51
45.04407323725481
  0
LINE
  5
277
330
17
100
AcDbEntity
  8
4
100
AcDbLine
 10
898.978330707831
 20
1805.737856521505
 30
0.0
 11
898.978330707831
 21
1783.7985462923
 31
0.0
  0
LINE
  5
278
330
17
100
AcDbEntity
  8
4
100
AcDbLine
 10
895.978330707831
 20
1805.737856521505
 30
0.0
 11
895.978330707831
 21
1783.7985462923
 31
0.0
  0
LINE
  5
279
330
17
100
AcDbEntity
  8
4
100
AcDbLine
 10
905.8411497972052
 20
1756.988119777653
 30
0.0
 11
895.978330707831
 21
1756.988119777653
 31
0.0
  0
LINE
  5
27A
330
17
100
AcDbEntity
  8
4
100
AcDbLine
 10
895.978330707831
 20
1783.7985462923
 30
0.0
 11
905.8411497972052
 21
1783.7985462923
 31
0.0
  0
LINE
  5
27B
330
17
100
AcDbEntity
  8
4
100
AcDbLine
 10
905.8411497972052
 20
1789.283373849601
 30
0.0
 11
898.978330707831
 21
1789.283373849601
 31
0.0
  0
LINE
  5
27C
330
17
100
AcDbEntity
  8
4
100
AcDbLine
 10
905.8411497972052
 20
1800.253028964204
 30
0.0
 11
898.978330707831
 21
1800.253028964204
 31
0.0
  0
LINE
  5
27D
330
17
100
AcDbEntity
  8
4
100
AcDbLine
 10
905.8411497972052
 20
1805.737856521505
 30
0.0
 11
895.978330707831
 21
1805.737856521505
 31
0.0
  0
LINE
  5
27E
330
17
100
AcDbEntity
  8
4
100
AcDbLine
 10
1032.678330707832
 20
1728.768201406902
 30
0.0
 11
1033.678330707832
 21
1727.768201406902
 31
0.0
  0
LINE
  5
27F
330
17
100
AcDbEntity
  8
4
100
AcDbLine
 10
1032.678330707832
 20
1728.768201406902
 30
0.0
 11
1032.678330707832
 21
1706.268201406902
 31
0.0
  0
LINE
  5
280
330
17
100
AcDbEntity
  8
4
100
AcDbLine
 10
1032.678330707832
 20
1665.768201406902
 30
0.0
 11
1033.678330707832
 21
1666.768201406902
 31
0.0
  0
LINE
  5
281
330
17
100
AcDbEntity
  8
4
100
AcDbLine
 10
1032.678330707832
 20
1688.268201406902
 30
0.0
 11
1032.678330707832
 21
1665.768201406902
 31
0.0
  0
LINE
  5
282
330
17
100
AcDbEntity
  8
4
100
AcDbLine
 10
1033.678330707832
 20
1727.768201406902
 30
0.0
 11
1033.678330707832
 21
1666.768201406902
 31
0.0
  0
ARC
  5
283
330
17
100
AcDbEntity
  8
4
100
AcDbCircle
 10
903.1029518325527
 20
1737.791223327098
 30
0.0
 40
3.875378875279264
100
AcDbArc
 50
314.9559267627452
 51
45.04407323725481
  0
ARC
  5
284
330
17
100
AcDbEntity
  8
4
100
AcDbCircle
 10
893.1825865726537
 20
1746.01846466305
 30
0.0
 40
13.7957441351769
100
AcDbArc
 50
336.5734024913729
 51
23.42659750862713
  0
ARC
  5
285
330
17
100
AcDbEntity
  8
4
100
AcDbCircle
 10
914.6783307078317
 20
1729.768201406902
 30
0.0
 40
1.0
100
AcDbArc
 50
180.0
 51
270.0
  0
LINE
  5
286
330
17
100
AcDbEntity
  8
4
100
AcDbLine
 10
905.8411497972052
 20
1751.503292220351
 30
0.0
 11
898.978330707831
 21
1751.503292220351
 31
0.0
  0
LINE
  5
287
330
17
100
AcDbEntity
  8
4
100
AcDbLine
 10
905.8411497972052
 20
1740.533637105748
 30
0.0
 11
898.978330707831
 21
1740.533637105748
 31
0.0
  0
LINE
  5
288
330
17
100
AcDbEntity
  8
4
100
AcDbLine
 10
895.978330707831
 20
1735.048809548447
 30
0.0
 11
905.8411497972052
 21
1735.048809548447
 31
0.0
  0
LINE
  5
289
330
17
100
AcDbEntity
  8
4
100
AcDbLine
 10
913.6783307078317
 20
1729.768201406902
 30
0.0
 11
896.978330707831
 21
1729.768201406902
 31
0.0
  0
LINE
  5
28A
330
17
100
AcDbEntity
  8
4
100
AcDbLine
 10
906.978330707831
 20
1656.745179486707
 30
0.0
 11
906.978330707831
 21
1640.290696814803
 31
0.0
  0
ARC
  5
28B
330
17
100
AcDbEntity
  8
4
100
AcDbCircle
 10
893.1825865726537
 20
1648.517938150755
 30
0.0
 40
13.7957441351769
100
AcDbArc
 50
336.5734024913729
 51
23.42659750862713
  0
ARC
  5
28C
330
17
100
AcDbEntity
  8
4
100
AcDbCircle
 10
903.1029518325527
 20
1656.745179486707
 30
0.0
 40
3.875378875279264
100
AcDbArc
 50
314.9559267627452
 51
45.04407323725481
  0
ARC
  5
28D
330
17
100
AcDbEntity
  8
4
100
AcDbCircle
 10
914.6783307078317
 20
1664.768201406902
 30
0.0
 40
1.0
100
AcDbArc
 50
90.0
 51
180.0
  0
LINE
  5
28E
330
17
100
AcDbEntity
  8
4
100
AcDbLine
 10
895.978330707831
 20
1659.487593265358
 30
0.0
 11
905.8411497972052
 21
1659.487593265358
 31
0.0
  0
LINE
  5
28F
330
17
100
AcDbEntity
  8
4
100
AcDbLine
 10
905.8411497972052
 20
1654.002765708056
 30
0.0
 11
898.978330707831
 21
1654.002765708056
 31
0.0
  0
LINE
  5
290
330
17
100
AcDbEntity
  8
4
100
AcDbLine
 10
905.8411497972052
 20
1643.033110593453
 30
0.0
 11
898.978330707831
 21
1643.033110593453
 31
0.0
  0
LINE
  5
291
330
17
100
AcDbEntity
  8
4
100
AcDbLine
 10
913.6783307078317
 20
1664.768201406903
 30
0.0
 11
896.978330707831
 21
1664.768201406903
 31
0.0
  0
LINE
  5
292
330
17
100
AcDbEntity
  8
4
100
AcDbLine
 10
896.978330707831
 20
1659.487593265358
 30
0.0
 11
896.978330707831
 21
1735.048809548447
 31
0.0
  0
ARC
  5
293
330
17
100
AcDbEntity
  8
4
100
AcDbCircle
 10
932.6783307078317
 20
1697.268201406902
 30
0.0
 40
9.0
100
AcDbArc
 50
90.0
 51
270.0
  0
LINE
  5
294
330
17
100
AcDbEntity
  8
4
100
AcDbLine
 10
913.6783307078317
 20
1729.768201406902
 30
0.0
 11
913.6783307078317
 21
1664.768201406902
 31
0.0
  0
LINE
  5
295
330
17
100
AcDbEntity
  8
4
100
AcDbLine
 10
906.978330707831
 20
1607.995442742854
 30
0.0
 11
906.978330707831
 21
1591.54096007095
 31
0.0
  0
ARC
  5
296
330
17
100
AcDbEntity
  8
4
100
AcDbCircle
 10
893.1825865726537
 20
1599.768201406902
 30
0.0
 40
13.7957441351769
100
AcDbArc
 50
336.5734024913729
 51
23.42659750862713
  0
ARC
  5
297
330
17
100
AcDbEntity
  8
4
100
AcDbCircle
 10
903.1029518325527
 20
1607.995442742854
 30
0.0
 40
3.875378875279264
100
AcDbArc
 50
314.9559267627452
 51
45.04407323725481
  0
ARC
  5
298
330
17
100
AcDbEntity
  8
4
100
AcDbCircle
 10
903.1029518325527
 20
1591.54096007095
 30
0.0
 40
3.875378875279244
100
AcDbArc
 50
314.9559267627452
 51
45.04407323725481
  0
LINE
  5
299
330
17
100
AcDbEntity
  8
4
100
AcDbLine
 10
894.978330707831
 20
1582.768201406902
 30
0.0
 11
880.1783307078317
 21
1582.768201406902
 31
0.0
  0
ARC
  5
29A
330
17
100
AcDbEntity
  8
4
100
AcDbCircle
 10
894.978330707831
 20
1583.768201406902
 30
0.0
 40
1.0
100
AcDbArc
 50
270.0
 51
0.0
  0
LINE
  5
29B
330
17
100
AcDbEntity
  8
4
100
AcDbLine
 10
895.978330707831
 20
1588.798546292299
 30
0.0
 11
895.978330707831
 21
1610.737856521505
 31
0.0
  0
LINE
  5
29C
330
17
100
AcDbEntity
  8
4
100
AcDbLine
 10
898.978330707831
 20
1588.798546292299
 30
0.0
 11
898.978330707831
 21
1610.737856521505
 31
0.0
  0
LINE
  5
29D
330
17
100
AcDbEntity
  8
4
100
AcDbLine
 10
905.8411497972052
 20
1594.283373849601
 30
0.0
 11
898.978330707831
 21
1594.283373849601
 31
0.0
  0
LINE
  5
29E
330
17
100
AcDbEntity
  8
4
100
AcDbLine
 10
905.8411497972052
 20
1605.253028964204
 30
0.0
 11
898.978330707831
 21
1605.253028964204
 31
0.0
  0
LINE
  5
29F
330
17
100
AcDbEntity
  8
4
100
AcDbLine
 10
895.978330707831
 20
1610.737856521505
 30
0.0
 11
905.8411497972052
 21
1610.737856521505
 31
0.0
  0
LINE
  5
2A0
330
17
100
AcDbEntity
  8
4
100
AcDbLine
 10
905.8411497972052
 20
1637.548283036152
 30
0.0
 11
895.978330707831
 21
1637.548283036152
 31
0.0
  0
LINE
  5
2A1
330
17
100
AcDbEntity
  8
4
100
AcDbLine
 10
905.8411497972052
 20
1588.798546292299
 30
0.0
 11
895.978330707831
 21
1588.798546292299
 31
0.0
  0
LINE
  5
2A2
330
17
100
AcDbEntity
  8
4
100
AcDbLine
 10
877.1783307078317
 20
1553.268201406902
 30
0.0
 11
877.1783307078317
 21
1581.268201406902
 31
0.0
  0
LINE
  5
2A3
330
17
100
AcDbEntity
  8
4
100
AcDbLine
 10
898.978330707831
 20
1637.548283036152
 30
0.0
 11
898.978330707831
 21
1659.487593265358
 31
0.0
  0
LINE
  5
2A4
330
17
100
AcDbEntity
  8
4
100
AcDbLine
 10
895.978330707831
 20
1637.548283036152
 30
0.0
 11
895.978330707831
 21
1659.487593265358
 31
0.0
  0
ARC
  5
2A5
330
17
100
AcDbEntity
  8
4
100
AcDbCircle
 10
903.1029518325527
 20
1640.290696814803
 30
0.0
 40
3.875378875279244
100
AcDbArc
 50
314.9559267627452
 51
45.04407323725481
  0
LINE
  5
2A6
330
17
100
AcDbEntity
  8
4
100
AcDbLine
 10
932.6783307078317
 20
1706.268201406902
 30
0.0
 11
1033.678330707832
 21
1706.268201406902
 31
0.0
  0
LINE
  5
2A7
330
17
100
AcDbEntity
  8
4
100
AcDbLine
 10
932.6783307078317
 20
1688.268201406902
 30
0.0
 11
1033.678330707832
 21
1688.268201406902
 31
0.0
  0
LINE
  5
2A8
330
17
100
AcDbEntity
  8
4
100
AcDbLine
 10
914.6783307078317
 20
1728.768201406902
 30
0.0
 11
1032.678330707832
 21
1728.768201406902
 31
0.0
  0
LINE
  5
2A9
330
17
100
AcDbEntity
  8
4
100
AcDbLine
 10
914.6783307078317
 20
1665.768201406902
 30
0.0
 11
1032.678330707832
 21
1665.768201406902
 31
0.0
  0
LINE
  5
2AA
330
17
100
AcDbEntity
  8
4
100
AcDbLine
 10
880.1783307078308
 20
1581.268201406902
 30
0.0
 11
880.1783307078317
 21
1813.268201406903
 31
0.0
  0
LINE
  5
2AB
330
17
100
AcDbEntity
  8
4
100
AcDbLine
 10
895.978330707831
 20
1583.768201406902
 30
0.0
 11
895.978330707831
 21
1810.768201406902
 31
0.0
  0
ARC
  5
2AC
330
17
100
AcDbEntity
  8
4
100
AcDbCircle
 10
903.1029518325527
 20
1754.245705999002
 30
0.0
 40
3.875378875279244
100
AcDbArc
 50
314.9559267627452
 51
45.04407323725481
  0
LINE
  5
2AD
330
17
100
AcDbEntity
  8
4
100
AcDbLine
 10
895.978330707831
 20
1756.988119777653
 30
0.0
 11
895.978330707831
 21
1735.048809548447
 31
0.0
  0
LINE
  5
2AE
330
17
100
AcDbEntity
  8
4
100
AcDbLine
 10
906.978330707831
 20
1737.791223327098
 30
0.0
 11
906.978330707831
 21
1754.245705999002
 31
0.0
  0
LINE
  5
2AF
330
17
100
AcDbEntity
  8
4
100
AcDbLine
 10
898.978330707831
 20
1756.988119777653
 30
0.0
 11
898.978330707831
 21
1735.048809548447
 31
0.0
  0
LINE
  5
2B0
330
17
100
AcDbEntity
  8
4
100
AcDbLine
 10
630.1783307078317
 20
2055.268201406902
 30
0.0
 11
628.1783307078317
 21
2057.268201406902
 31
0.0
  0
LINE
  5
2B1
330
17
100
AcDbEntity
  8
4
100
AcDbLine
 10
537.1783307078317
 20
2055.268201406902
 30
0.0
 11
539.1783307078317
 21
2057.268201406902
 31
0.0
  0
LINE
  5
2B2
330
17
100
AcDbEntity
  8
4
100
AcDbLine
 10
537.1783307078317
 20
2055.268201406902
 30
0.0
 11
571.6783307078317
 21
2055.268201406902
 31
0.0
  0
LINE
  5
2B3
330
17
100
AcDbEntity
  8
4
100
AcDbLine
 10
539.1783307078317
 20
2057.268201406902
 30
0.0
 11
628.1783307078317
 21
2057.268201406902
 31
0.0
  0
LINE
  5
2B4
330
17
100
AcDbEntity
  8
4
100
AcDbLine
 10
595.6783307078317
 20
2055.268201406902
 30
0.0
 11
630.1783307078317
 21
2055.268201406902
 31
0.0
  0
ARC
  5
2B5
330
17
100
AcDbEntity
  8
4
100
AcDbCircle
 10
847.6783307078317
 20
1877.268201406902
 30
0.0
 40
10.0
100
AcDbArc
 50
0.0
 51
90.0
  0
LINE
  5
2B6
330
17
100
AcDbEntity
  8
4
100
AcDbLine
 10
870.4055720437832
 20
1854.568201406903
 30
0.0
 11
853.9510893718802
 21
1854.568201406903
 31
0.0
  0
LINE
  5
2B7
330
17
100
AcDbEntity
  8
4
100
AcDbLine
 10
851.2086755932291
 20
1843.568201406903
 30
0.0
 11
873.1479858224343
 21
1843.568201406903
 31
0.0
  0
ARC
  5
2B8
330
17
100
AcDbEntity
  8
4
100
AcDbCircle
 10
853.9510893718802
 20
1850.692822531624
 30
0.0
 40
3.875378875279244
100
AcDbArc
 50
44.9559267627547
 51
135.0440732372572
  0
LINE
  5
2B9
330
17
100
AcDbEntity
  8
4
100
AcDbLine
 10
851.2086755932291
 20
1846.568201406903
 30
0.0
 11
873.1479858224343
 21
1846.568201406903
 31
0.0
  0
LINE
  5
2BA
330
17
100
AcDbEntity
  8
4
100
AcDbLine
 10
851.2086755932291
 20
1853.431020496276
 30
0.0
 11
851.2086755932291
 21
1843.568201406903
 31
0.0
  0
ARC
  5
2BB
330
17
100
AcDbEntity
  8
4
100
AcDbCircle
 10
870.4055720437841
 20
1850.692822531624
 30
0.0
 40
3.875378875279264
100
AcDbArc
 50
44.9559267627547
 51
135.0440732372572
  0
LINE
  5
2BC
330
17
100
AcDbEntity
  8
4
100
AcDbLine
 10
867.6631582651339
 20
1853.431020496276
 30
0.0
 11
867.6631582651339
 21
1846.568201406903
 31
0.0
  0
LINE
  5
2BD
330
17
100
AcDbEntity
  8
4
100
AcDbLine
 10
873.1479858224343
 20
1843.568201406903
 30
0.0
 11
873.1479858224343
 21
1853.431020496276
 31
0.0
  0
LINE
  5
2BE
330
17
100
AcDbEntity
  8
4
100
AcDbLine
 10
856.6935031505295
 20
1853.431020496276
 30
0.0
 11
856.6935031505295
 21
1846.568201406903
 31
0.0
  0
ARC
  5
2BF
330
17
100
AcDbEntity
  8
4
100
AcDbCircle
 10
862.1783307078326
 20
1840.772457271726
 30
0.0
 40
13.7957441351769
100
AcDbArc
 50
66.5734024913725
 51
113.4265975086275
  0
LINE
  5
2C0
330
17
100
AcDbEntity
  8
L-CENTER
 48
2.0
100
AcDbLine
 10
862.1783307078317
 20
1858.169041287007
 30
0.0
 11
862.1783307078317
 21
1803.891587648961
 31
0.0
  0
ARC
  5
2C1
330
17
100
AcDbEntity
  8
4
100
AcDbCircle
 10
763.6783307078317
 20
1847.268201406902
 30
0.0
 40
13.0
100
AcDbArc
 50
24.83251994856637
 51
139.0693566480893
  0
LINE
  5
2C2
330
17
100
AcDbEntity
  8
4
100
AcDbLine
 10
857.6783307078317
 20
1877.268201406902
 30
0.0
 11
857.6783307078308
 21
1854.568201406903
 31
0.0
  0
LINE
  5
2C3
330
17
100
AcDbEntity
  8
L-CENTER
 48
2.0
100
AcDbLine
 10
763.6783307078317
 20
1874.568201406903
 30
0.0
 11
763.6783307078317
 21
1819.968201406902
 31
0.0
  0
ARC
  5
2C4
330
17
100
AcDbEntity
  8
4
100
AcDbCircle
 10
690.9119528603046
 20
1886.568201406903
 30
0.0
 40
1.0
100
AcDbArc
 50
15.06848815950598
 51
90.0
  0
LINE
  5
2C5
330
17
100
AcDbEntity
  8
4
100
AcDbLine
 10
648.6783307078317
 20
1887.568201406903
 30
0.0
 11
648.6783307078317
 21
1888.568201406903
 31
0.0
  0
LINE
  5
2C6
330
17
100
AcDbEntity
  8
4
100
AcDbLine
 10
631.1783307078308
 20
1888.568201406902
 30
0.0
 11
631.1783307078317
 21
1897.268201406902
 31
0.0
  0
ARC
  5
2C7
330
17
100
AcDbEntity
  8
4
100
AcDbCircle
 10
631.1783307078317
 20
1898.268201406902
 30
0.0
 40
1.0
100
AcDbArc
 50
180.0
 51
270.0
  0
LINE
  5
2C8
330
17
100
AcDbEntity
  8
4
100
AcDbLine
 10
631.1783307078317
 20
1897.268201406902
 30
0.0
 11
631.1783307078317
 21
1897.268201406902
 31
0.0
  0
LINE
  5
2C9
330
17
100
AcDbEntity
  8
4
100
AcDbLine
 10
728.4131582651339
 20
1853.431020496276
 30
0.0
 11
728.4131582651339
 21
1846.568201406903
 31
0.0
  0
LINE
  5
2CA
330
17
100
AcDbEntity
  8
4
100
AcDbLine
 10
733.8979858224352
 20
1843.568201406903
 30
0.0
 11
733.8979858224352
 21
1853.431020496276
 31
0.0
  0
ARC
  5
2CB
330
17
100
AcDbEntity
  8
4
100
AcDbCircle
 10
731.1555720437841
 20
1850.692822531624
 30
0.0
 40
3.875378875279264
100
AcDbArc
 50
44.95592676275351
 51
135.0440732372584
  0
ARC
  5
2CC
330
17
100
AcDbEntity
  8
4
100
AcDbCircle
 10
700.2661833632487
 20
1863.363555554113
 30
0.0
 40
2.0
100
AcDbArc
 50
195.0684881594925
 51
261.9509382983153
  0
LINE
  5
2CD
330
17
100
AcDbEntity
  8
4
100
AcDbLine
 10
717.4435031505304
 20
1853.431020496276
 30
0.0
 11
717.4435031505304
 21
1846.568201406903
 31
0.0
  0
LINE
  5
2CE
330
17
100
AcDbEntity
  8
4
100
AcDbLine
 10
711.9586755932291
 20
1853.431020496276
 30
0.0
 11
711.9586755932291
 21
1843.568201406903
 31
0.0
  0
ARC
  5
2CF
330
17
100
AcDbEntity
  8
4
100
AcDbCircle
 10
714.7010893718802
 20
1850.692822531624
 30
0.0
 40
3.875378875279244
100
AcDbArc
 50
44.95592676274281
 51
135.0440732372572
  0
LINE
  5
2D0
330
17
100
AcDbEntity
  8
4
100
AcDbLine
 10
711.9586755932291
 20
1843.568201406903
 30
0.0
 11
733.8979858224352
 21
1843.568201406903
 31
0.0
  0
LINE
  5
2D1
330
17
100
AcDbEntity
  8
4
100
AcDbLine
 10
711.9586755932291
 20
1846.568201406903
 30
0.0
 11
733.8979858224352
 21
1846.568201406903
 31
0.0
  0
LINE
  5
2D2
330
17
100
AcDbEntity
  8
4
100
AcDbLine
 10
731.1555720437841
 20
1854.568201406903
 30
0.0
 11
714.7010893718802
 21
1854.568201406903
 31
0.0
  0
ARC
  5
2D3
330
17
100
AcDbEntity
  8
4
100
AcDbCircle
 10
722.9283307078326
 20
1840.772457271726
 30
0.0
 40
13.7957441351769
100
AcDbArc
 50
66.5734024913725
 51
113.4265975086275
  0
LINE
  5
2D4
330
17
100
AcDbEntity
  8
L-CENTER
 48
2.0
100
AcDbLine
 10
722.9283307078326
 20
1858.169041287007
 30
0.0
 11
722.9283307078326
 21
1803.891587648961
 31
0.0
  0
LINE
  5
2D5
330
17
100
AcDbEntity
  8
4
100
AcDbLine
 10
698.3349518462078
 20
1862.843608607218
 30
0.0
 11
691.877568618826
 21
1886.828174880351
 31
0.0
  0
LINE
  5
2D6
330
17
100
AcDbEntity
  8
L-CENTER
 48
2.0
100
AcDbLine
 10
790.978330707831
 20
1847.268201406902
 30
0.0
 11
736.3783307078324
 21
1847.268201406902
 31
0.0
  0
LINE
  5
2D7
330
17
100
AcDbEntity
  8
4
100
AcDbLine
 10
847.6783307078317
 20
1887.268201406902
 30
0.0
 11
691.6260957031586
 21
1887.268201406902
 31
0.0
  0
LINE
  5
2D8
330
17
100
AcDbEntity
  8
4
100
AcDbLine
 10
825.9640449935418
 20
1843.568201406903
 30
0.0
 11
699.9861413537969
 21
1861.383258487272
 31
0.0
  0
LINE
  5
2D9
330
17
100
AcDbEntity
  8
4
100
AcDbLine
 10
840.2476162613889
 20
1843.568201406903
 30
0.0
 11
698.9583727172835
 21
1863.548498473744
 31
0.0
  0
ARC
  5
2DA
330
17
100
AcDbEntity
  8
4
100
AcDbCircle
 10
763.6783307078317
 20
1547.268201406902
 30
0.0
 40
13.0
100
AcDbArc
 50
215.7272285348466
 51
341.8810499694306
  0
ARC
  5
2DB
330
17
100
AcDbEntity
  8
4
100
AcDbCircle
 10
700.2710824615592
 20
1531.491043910558
 30
0.0
 40
2.0
100
AcDbArc
 50
98.80413925214474
 51
164.9315118405074
  0
LINE
  5
2DC
330
17
100
AcDbEntity
  8
4
100
AcDbLine
 10
683.6783307078317
 20
1533.268201406903
 30
0.0
 11
683.6783307078317
 21
1548.099201406903
 31
0.0
  0
LINE
  5
2DD
330
17
100
AcDbEntity
  8
4
100
AcDbLine
 10
675.6783307078317
 20
1534.017201406902
 30
0.0
 11
675.6783307078317
 21
1546.874201406903
 31
0.0
  0
LINE
  5
2DE
330
17
100
AcDbEntity
  8
4
100
AcDbLine
 10
659.6783307078317
 20
1542.435966087903
 30
0.0
 11
659.6783307078317
 21
1538.456436689903
 31
0.0
  0
LINE
  5
2DF
330
17
100
AcDbEntity
  8
4
100
AcDbLine
 10
667.6783307078317
 20
1542.435966087903
 30
0.0
 11
667.6783307078317
 21
1538.456436689903
 31
0.0
  0
LINE
  5
2E0
330
17
100
AcDbEntity
  8
4
100
AcDbLine
 10
646.6835241430658
 20
1548.099201406903
 30
0.0
 11
643.2000700140693
 21
1553.268197406903
 31
0.0
  0
LINE
  5
2E1
330
17
100
AcDbEntity
  8
4
100
AcDbLine
 10
633.6783307078317
 20
1542.435966087902
 30
0.0
 11
633.6783307078317
 21
1538.456436689902
 31
0.0
  0
LINE
  5
2E2
330
17
100
AcDbEntity
  8
4
100
AcDbLine
 10
625.6783307078317
 20
1542.435966087903
 30
0.0
 11
625.6783307078308
 21
1538.456436689903
 31
0.0
  0
LINE
  5
2E3
330
17
100
AcDbEntity
  8
4
100
AcDbLine
 10
683.6783307078317
 20
1548.099201406903
 30
0.0
 11
646.6835241430658
 21
1548.099201406903
 31
0.0
  0
ELLIPSE
  5
2E4
330
17
100
AcDbEntity
  8
4
100
AcDbEllipse
 10
646.6783307078317
 20
1542.435966087903
 30
0.0
 11
-13.0
 21
0.0
 31
0.0
210
0.0
220
0.0
230
1.0
 40
0.1530588230000026
 41
3.141592653589793
 42
6.283185307179586
  0
ELLIPSE
  5
2E5
330
17
100
AcDbEntity
  8
4
100
AcDbEllipse
 10
646.6783307078317
 20
1538.456436689903
 30
0.0
 11
-13.0
 21
0.0
 31
0.0
210
0.0
220
0.0
230
1.0
 40
0.1530588230000026
 41
0.0
 42
3.141592653589793
  0
ELLIPSE
  5
2E6
330
17
100
AcDbEntity
  8
4
100
AcDbEllipse
 10
646.6783307078317
 20
1542.435966087903
 30
0.0
 11
-21.0
 21
0.0
 31
0.0
210
0.0
220
0.0
230
1.0
 40
0.1530588230000051
 41
3.141592653589793
 42
6.283185307179586
  0
ELLIPSE
  5
2E7
330
17
100
AcDbEntity
  8
4
100
AcDbEllipse
 10
646.6783307078317
 20
1538.456436689903
 30
0.0
 11
-21.0
 21
0.0
 31
0.0
210
0.0
220
0.0
230
1.0
 40
0.1530588230000051
 41
0.0
 42
3.141592653589793
  0
LINE
  5
2E8
330
17
100
AcDbEntity
  8
L-CENTER
 48
2.0
100
AcDbLine
 10
790.978330707831
 20
1547.268201406902
 30
0.0
 11
736.3783307078324
 21
1547.268201406902
 31
0.0
  0
LINE
  5
2E9
330
17
100
AcDbEntity
  8
4
100
AcDbLine
 10
840.8757732531799
 20
1553.268201406902
 30
0.0
 11
698.1097392889665
 21
1531.156290422547
 31
0.0
  0
LINE
  5
2EA
330
17
100
AcDbEntity
  8
4
100
AcDbLine
 10
827.8087654904398
 20
1553.268201406902
 30
0.0
 11
699.9649680034804
 21
1533.467478563804
 31
0.0
  0
ARC
  5
2EB
330
17
100
AcDbEntity
  8
4
100
AcDbCircle
 10
583.6783307078317
 20
1919.268201406902
 30
0.0
 40
12.0
100
AcDbArc
 50
180.0
 51
0.0
  0
LINE
  5
2EC
330
17
100
AcDbEntity
  8
4
100
AcDbLine
 10
536.1783307078317
 20
1888.568201406902
 30
0.0
 11
536.1783307078317
 21
1897.268201406902
 31
0.0
  0
LINE
  5
2ED
330
17
100
AcDbEntity
  8
4
100
AcDbLine
 10
536.1783307078317
 20
1897.268201406902
 30
0.0
 11
536.1783307078317
 21
1897.268201406902
 31
0.0
  0
ARC
  5
2EE
330
17
100
AcDbEntity
  8
4
100
AcDbCircle
 10
536.1783307078317
 20
1898.268201406902
 30
0.0
 40
1.0
100
AcDbArc
 50
270.0
 51
0.0
  0
LINE
  5
2EF
330
17
100
AcDbEntity
  8
4
100
AcDbLine
 10
518.6783307078308
 20
1887.568201406902
 30
0.0
 11
518.6783307078317
 21
1888.568201406902
 31
0.0
  0
LINE
  5
2F0
330
17
100
AcDbEntity
  8
4
100
AcDbLine
 10
608.6783307078317
 20
1853.568201406903
 30
0.0
 11
608.6783307078317
 21
1845.911332697303
 31
0.0
  0
LINE
  5
2F1
330
17
100
AcDbEntity
  8
4
100
AcDbLine
 10
583.6783307078317
 20
1816.568201406903
 30
0.0
 11
583.6783307078317
 21
1816.568201406903
 31
0.0
  0
LINE
  5
2F2
330
17
100
AcDbEntity
  8
4
100
AcDbLine
 10
583.6783307078317
 20
1816.568201406903
 30
0.0
 11
583.6783307078317
 21
1816.568201406903
 31
0.0
  0
LINE
  5
2F3
330
17
100
AcDbEntity
  8
4
100
AcDbLine
 10
558.6783307078317
 20
1845.911332697303
 30
0.0
 11
558.6783307078317
 21
1853.568201406903
 31
0.0
  0
LINE
  5
2F4
330
17
100
AcDbEntity
  8
4
100
AcDbLine
 10
558.6783307078317
 20
1852.982039768011
 30
0.0
 11
558.6783307078317
 21
1852.982039768011
 31
0.0
  0
LINE
  5
2F5
330
17
100
AcDbEntity
  8
4
100
AcDbLine
 10
608.6783307078317
 20
1845.911332697303
 30
0.0
 11
558.6783307078317
 21
1845.911332697303
 31
0.0
  0
LINE
  5
2F6
330
17
100
AcDbEntity
  8
4
100
AcDbLine
 10
608.6783307078317
 20
1853.568201406903
 30
0.0
 11
558.6783307078317
 21
1853.568201406903
 31
0.0
  0
ARC
  5
2F7
330
17
100
AcDbEntity
  8
4
100
AcDbCircle
 10
476.444708555357
 20
1886.568201406903
 30
0.0
 40
1.0
100
AcDbArc
 50
90.0
 51
164.931511840494
  0
ARC
  5
2F8
330
17
100
AcDbEntity
  8
4
100
AcDbCircle
 10
467.0904780524129
 20
1863.363555554113
 30
0.0
 40
2.0
100
AcDbArc
 50
278.049061701657
 51
344.9315118405075
  0
LINE
  5
2F9
330
17
100
AcDbEntity
  8
4
100
AcDbLine
 10
455.3979858224334
 20
1853.431020496276
 30
0.0
 11
455.3979858224334
 21
1843.568201406903
 31
0.0
  0
ARC
  5
2FA
330
17
100
AcDbEntity
  8
4
100
AcDbCircle
 10
452.6555720437823
 20
1850.692822531624
 30
0.0
 40
3.875378875279244
100
AcDbArc
 50
44.95592676274281
 51
135.0440732372465
  0
LINE
  5
2FB
330
17
100
AcDbEntity
  8
4
100
AcDbLine
 10
449.9131582651321
 20
1853.431020496276
 30
0.0
 11
449.9131582651321
 21
1846.568201406903
 31
0.0
  0
LINE
  5
2FC
330
17
100
AcDbEntity
  8
L-CENTER
 48
2.0
100
AcDbLine
 10
444.4283307078299
 20
1858.169041287007
 30
0.0
 11
444.4283307078299
 21
1803.891587648961
 31
0.0
  0
LINE
  5
2FD
330
17
100
AcDbEntity
  8
4
100
AcDbLine
 10
433.4586755932273
 20
1843.568201406903
 30
0.0
 11
433.4586755932273
 21
1853.431020496276
 31
0.0
  0
ARC
  5
2FE
330
17
100
AcDbEntity
  8
4
100
AcDbCircle
 10
436.2010893718784
 20
1850.692822531624
 30
0.0
 40
3.875378875279264
100
AcDbArc
 50
44.95592676274163
 51
135.0440732372584
  0
LINE
  5
2FF
330
17
100
AcDbEntity
  8
4
100
AcDbLine
 10
438.9435031505286
 20
1853.431020496276
 30
0.0
 11
438.9435031505286
 21
1846.568201406903
 31
0.0
  0
LINE
  5
300
330
17
100
AcDbEntity
  8
4
100
AcDbLine
 10
403.6783307078317
 20
1854.396181182152
 30
0.0
 11
403.6783307078317
 21
1856.568201406903
 31
0.0
  0
ARC
  5
301
330
17
100
AcDbEntity
  8
4
100
AcDbCircle
 10
403.6783307078317
 20
1847.268201406902
 30
0.0
 40
13.0
100
AcDbArc
 50
40.9306433519139
 51
134.3252713414577
  0
LINE
  5
302
330
17
100
AcDbEntity
  8
4
100
AcDbLine
 10
455.3979858224334
 20
1843.568201406903
 30
0.0
 11
433.4586755932273
 21
1843.568201406903
 31
0.0
  0
ARC
  5
303
330
17
100
AcDbEntity
  8
4
100
AcDbCircle
 10
444.4283307078299
 20
1840.772457271726
 30
0.0
 40
13.7957441351769
100
AcDbArc
 50
66.5734024913725
 51
113.4265975086275
  0
LINE
  5
304
330
17
100
AcDbEntity
  8
4
100
AcDbLine
 10
436.2010893718784
 20
1854.568201406903
 30
0.0
 11
452.6555720437823
 21
1854.568201406903
 31
0.0
  0
LINE
  5
305
330
17
100
AcDbEntity
  8
4
100
AcDbLine
 10
455.3979858224334
 20
1846.568201406903
 30
0.0
 11
433.4586755932273
 21
1846.568201406903
 31
0.0
  0
LINE
  5
306
330
17
100
AcDbEntity
  8
L-CENTER
 48
2.0
100
AcDbLine
 10
403.6783307078317
 20
1874.568201406903
 30
0.0
 11
403.6783307078317
 21
1819.968201406902
 31
0.0
  0
LINE
  5
307
330
17
100
AcDbEntity
  8
4
100
AcDbLine
 10
469.0217095694538
 20
1862.843608607218
 30
0.0
 11
475.4790927968356
 21
1886.828174880351
 31
0.0
  0
ARC
  5
308
330
17
100
AcDbEntity
  8
4
100
AcDbCircle
 10
583.6783307078317
 20
1697.268201406902
 30
0.0
 40
20.0
100
AcDbArc
 50
29.99999999999988
 51
150.0000000000001
  0
ARC
  5
309
330
17
100
AcDbEntity
  8
4
100
AcDbCircle
 10
583.6783307078317
 20
1697.268201406902
 30
0.0
 40
20.0
100
AcDbArc
 50
209.9999999999999
 51
330.0000000000002
  0
ARC
  5
30A
330
17
100
AcDbEntity
  8
4
100
AcDbCircle
 10
548.6783307078317
 20
1697.268201406902
 30
0.0
 40
10.0
100
AcDbArc
 50
90.0
 51
270.0
  0
ARC
  5
30B
330
17
100
AcDbEntity
  8
4
100
AcDbCircle
 10
583.6783307078317
 20
1697.268201406902
 30
0.0
 40
25.0
100
AcDbArc
 50
23.57817847820185
 51
156.4218215217992
  0
LINE
  5
30C
330
17
100
AcDbEntity
  8
4
100
AcDbLine
 10
548.6783307078317
 20
1687.268201406902
 30
0.0
 11
618.6783307078317
 21
1687.268201406902
 31
0.0
  0
ARC
  5
30D
330
17
100
AcDbEntity
  8
4
100
AcDbCircle
 10
583.6783307078317
 20
1697.268201406902
 30
0.0
 40
22.5
100
AcDbArc
 50
206.3877999612428
 51
333.6122000387569
  0
LINE
  5
30E
330
17
100
AcDbEntity
  8
4
100
AcDbLine
 10
548.6783307078317
 20
1707.268201406902
 30
0.0
 11
618.6783307078317
 21
1707.268201406902
 31
0.0
  0
ARC
  5
30F
330
17
100
AcDbEntity
  8
4
100
AcDbCircle
 10
583.6783307078317
 20
1697.268201406902
 30
0.0
 40
22.5
100
AcDbArc
 50
26.38779996124313
 51
153.6122000387571
  0
ARC
  5
310
330
17
100
AcDbEntity
  8
4
100
AcDbCircle
 10
583.6783307078317
 20
1697.268201406902
 30
0.0
 40
25.0
100
AcDbArc
 50
203.5781784782008
 51
336.4218215217981
  0
LINE
  5
311
330
17
100
AcDbEntity
  8
4
100
AcDbLine
 10
603.6783307078317
 20
1541.058436680903
 30
0.0
 11
603.6783307078317
 21
1539.833966096902
 31
0.0
  0
LINE
  5
312
330
17
100
AcDbEntity
  8
4
100
AcDbLine
 10
617.6783307078317
 20
1545.650201370902
 30
0.0
 11
609.6783307078317
 21
1545.650201370902
 31
0.0
  0
LINE
  5
313
330
17
100
AcDbEntity
  8
4
100
AcDbLine
 10
609.6783307078317
 20
1535.242201406902
 30
0.0
 11
617.6783307078317
 21
1535.242201406902
 31
0.0
  0
LINE
  5
314
330
17
100
AcDbEntity
  8
4
100
AcDbLine
 10
617.6783307078317
 20
1545.650201370902
 30
0.0
 11
617.6783307078317
 21
1535.242201406902
 31
0.0
  0
LINE
  5
315
330
17
100
AcDbEntity
  8
4
100
AcDbLine
 10
609.6783307078317
 20
1545.650201370902
 30
0.0
 11
609.6783307078317
 21
1535.242201406902
 31
0.0
  0
LINE
  5
316
330
17
100
AcDbEntity
  8
4
100
AcDbLine
 10
567.6783307078317
 20
1545.650201370902
 30
0.0
 11
588.6783307078317
 21
1535.242201406902
 31
0.0
  0
LINE
  5
317
330
17
100
AcDbEntity
  8
4
100
AcDbLine
 10
580.3055291319911
 20
1535.242201406902
 30
0.0
 11
588.6783307078317
 21
1535.242201406902
 31
0.0
  0
LINE
  5
318
330
17
100
AcDbEntity
  8
4
100
AcDbLine
 10
563.6783307078317
 20
1543.482957625954
 30
0.0
 11
571.6584703084632
 21
1539.527848450903
 31
0.0
  0
LINE
  5
319
330
17
100
AcDbEntity
  8
4
100
AcDbLine
 10
574.129058543756
 20
1538.303377866902
 30
0.0
 11
580.3055291319911
 21
1535.242201406902
 31
0.0
  0
LINE
  5
31A
330
17
100
AcDbEntity
  8
4
100
AcDbLine
 10
589.6783307078317
 20
1541.058436680903
 30
0.0
 11
589.6783307078317
 21
1539.833966096902
 31
0.0
  0
LINE
  5
31B
330
17
100
AcDbEntity
  8
4
100
AcDbLine
 10
603.6783307078317
 20
1539.833966096902
 30
0.0
 11
589.6783307078317
 21
1539.833966096902
 31
0.0
  0
LINE
  5
31C
330
17
100
AcDbEntity
  8
4
100
AcDbLine
 10
603.6783307078317
 20
1541.058436680903
 30
0.0
 11
589.6783307078317
 21
1541.058436680903
 31
0.0
  0
LINE
  5
31D
330
17
100
AcDbEntity
  8
4
100
AcDbLine
 10
538.6783307078317
 20
1535.242201406902
 30
0.0
 11
559.6783307078317
 21
1545.650201370902
 31
0.0
  0
LINE
  5
31E
330
17
100
AcDbEntity
  8
4
100
AcDbLine
 10
547.0511322836705
 20
1535.242201406902
 30
0.0
 11
553.2276028719057
 21
1538.303377866902
 31
0.0
  0
LINE
  5
31F
330
17
100
AcDbEntity
  8
4
100
AcDbLine
 10
538.6783307078317
 20
1535.242201406902
 30
0.0
 11
547.0511322836705
 21
1535.242201406902
 31
0.0
  0
LINE
  5
320
330
17
100
AcDbEntity
  8
4
100
AcDbLine
 10
535.6783307078308
 20
1536.466671990903
 30
0.0
 11
535.6783307078317
 21
1535.242201406902
 31
0.0
  0
LINE
  5
321
330
17
100
AcDbEntity
  8
4
100
AcDbLine
 10
520.6731372725976
 20
1548.099201406902
 30
0.0
 11
524.1565914015932
 21
1553.268197406902
 31
0.0
  0
LINE
  5
322
330
17
100
AcDbEntity
  8
4
100
AcDbLine
 10
507.6783307078317
 20
1545.650201370902
 30
0.0
 11
507.6783307078317
 21
1536.466671990902
 31
0.0
  0
LINE
  5
323
330
17
100
AcDbEntity
  8
4
100
AcDbLine
 10
507.6783307078317
 20
1536.466671990902
 30
0.0
 11
535.6783307078308
 21
1536.466671990903
 31
0.0
  0
LINE
  5
324
330
17
100
AcDbEntity
  8
4
100
AcDbLine
 10
555.6981911071985
 20
1539.527848450903
 30
0.0
 11
563.6783307078317
 21
1543.482957625954
 31
0.0
  0
LINE
  5
325
330
17
100
AcDbEntity
  8
4
100
AcDbLine
 10
571.6584703084632
 20
1539.527848450903
 30
0.0
 11
555.6981911071985
 21
1539.527848450903
 31
0.0
  0
LINE
  5
326
330
17
100
AcDbEntity
  8
4
100
AcDbLine
 10
574.129058543756
 20
1538.303377866902
 30
0.0
 11
553.2276028719057
 21
1538.303377866903
 31
0.0
  0
LINE
  5
327
330
17
100
AcDbEntity
  8
4
100
AcDbLine
 10
567.6783307078317
 20
1545.650201370902
 30
0.0
 11
559.6783307078317
 21
1545.650201370903
 31
0.0
  0
LINE
  5
328
330
17
100
AcDbEntity
  8
L-CENTER
 48
2.0
100
AcDbLine
 10
443.6783307078317
 20
1661.233787118582
 30
0.0
 11
443.6783307078317
 21
1733.302615695223
 31
0.0
  0
CIRCLE
  5
329
330
17
100
AcDbEntity
  8
4
100
AcDbCircle
 10
443.6783307078317
 20
1697.268201406902
 30
0.0
 40
25.0
  0
CIRCLE
  5
32A
330
17
100
AcDbEntity
  8
4
100
AcDbCircle
 10
443.6783307078317
 20
1697.268201406902
 30
0.0
 40
23.0
  0
LWPOLYLINE
  5
32B
330
17
100
AcDbEntity
  8
4
100
AcDbPolyline
 90
        6
 70
     1
 43
0.0
 10
466.6783307078317
 20
1697.268201406902
 10
455.1783307078317
 20
1717.186785693944
 10
432.1783307078317
 20
1717.186785693944
 10
420.6783307078317
 20
1697.268201406902
 10
432.1783307078317
 20
1677.34961711986
 10
455.1783307078317
 20
1677.34961711986
  0
LINE
  5
32C
330
17
100
AcDbEntity
  8
4
100
AcDbLine
 10
483.6783307078308
 20
1533.268201406902
 30
0.0
 11
483.6783307078317
 21
1548.099201406902
 31
0.0
  0
LINE
  5
32D
330
17
100
AcDbEntity
  8
4
100
AcDbLine
 10
491.6783307078317
 20
1534.017201406902
 30
0.0
 11
491.6783307078317
 21
1546.874201406903
 31
0.0
  0
LINE
  5
32E
330
17
100
AcDbEntity
  8
4
100
AcDbLine
 10
499.6783307078317
 20
1545.650201370902
 30
0.0
 11
499.6783307078317
 21
1535.242201406902
 31
0.0
  0
ARC
  5
32F
330
17
100
AcDbEntity
  8
4
100
AcDbCircle
 10
467.0855789541033
 20
1531.491043910558
 30
0.0
 40
2.0
100
AcDbArc
 50
15.06848815949257
 51
81.19586074785528
  0
ARC
  5
330
330
17
100
AcDbEntity
  8
4
100
AcDbCircle
 10
403.6783307078317
 20
1547.268201406902
 30
0.0
 40
13.0
100
AcDbArc
 50
198.1189500305671
 51
324.2727714651534
  0
LINE
  5
331
330
17
100
AcDbEntity
  8
4
100
AcDbLine
 10
520.6731372725976
 20
1548.099201406902
 30
0.0
 11
483.6783307078317
 21
1548.099201406902
 31
0.0
  0
LINE
  5
332
330
17
100
AcDbEntity
  8
4
100
AcDbLine
 10
499.6783307078317
 20
1535.242201406902
 30
0.0
 11
535.6783307078317
 21
1535.242201406902
 31
0.0
  0
LINE
  5
333
330
17
100
AcDbEntity
  8
4
100
AcDbLine
 10
499.6783307078317
 20
1545.650201370902
 30
0.0
 11
507.6783307078317
 21
1545.650201370902
 31
0.0
  0
LINE
  5
334
330
17
100
AcDbEntity
  8
4
100
AcDbLine
 10
518.6783307078317
 20
1888.568201406902
 30
0.0
 11
648.6783307078317
 21
1888.568201406903
 31
0.0
  0
LINE
  5
335
330
17
100
AcDbEntity
  8
4
100
AcDbLine
 10
476.444708555357
 20
1861.568201406903
 30
0.0
 11
690.9119528603046
 21
1861.568201406903
 31
0.0
  0
LINE
  5
336
330
17
100
AcDbEntity
  8
4
100
AcDbLine
 10
476.444708555357
 20
1887.568201406903
 30
0.0
 11
690.9119528603046
 21
1887.568201406903
 31
0.0
  0
ARC
  5
337
330
17
100
AcDbEntity
  8
4
100
AcDbCircle
 10
618.6783307078317
 20
1697.268201406902
 30
0.0
 40
10.0
100
AcDbArc
 50
270.0
 51
90.0
  0
LINE
  5
338
330
17
100
AcDbEntity
  8
4
100
AcDbLine
 10
536.1783307078317
 20
1897.268201406902
 30
0.0
 11
631.1783307078317
 21
1897.268201406902
 31
0.0
  0
LINE
  5
339
330
17
100
AcDbEntity
  8
4
100
AcDbLine
 10
468.0030271723631
 20
1533.268201406902
 30
0.0
 11
699.3536342433003
 21
1533.268201406903
 31
0.0
  0
LINE
  5
33A
330
17
100
AcDbEntity
  8
4
100
AcDbLine
 10
675.6783307078317
 20
1534.017201406902
 30
0.0
 11
491.6783307078317
 21
1534.017201406902
 31
0.0
  0
LINE
  5
33B
330
17
100
AcDbEntity
  8
4
100
AcDbLine
 10
675.6783307078317
 20
1546.874201406903
 30
0.0
 11
491.6783307078317
 21
1546.874201406903
 31
0.0
  0
LINE
  5
33C
330
17
100
AcDbEntity
  8
4
100
AcDbLine
 10
537.1783307078317
 20
1898.268201406902
 30
0.0
 11
537.1783307078317
 21
2055.268201406902
 31
0.0
  0
LINE
  5
33D
330
17
100
AcDbEntity
  8
4
100
AcDbLine
 10
571.6783307078317
 20
2057.268201406902
 30
0.0
 11
571.6783307078317
 21
1919.268201406902
 31
0.0
  0
LINE
  5
33E
330
17
100
AcDbEntity
  8
4
100
AcDbLine
 10
595.6783307078317
 20
2057.268201406902
 30
0.0
 11
595.6783307078317
 21
1919.268201406902
 31
0.0
  0
LINE
  5
33F
330
17
100
AcDbEntity
  8
4
100
AcDbLine
 10
630.1783307078317
 20
1898.268201406902
 30
0.0
 11
630.1783307078317
 21
2055.268201406902
 31
0.0
  0
LINE
  5
340
330
17
100
AcDbEntity
  8
L-CENTER
 48
2.0
100
AcDbLine
 10
913.9984727078313
 20
1648.517938150755
 30
0.0
 11
842.262022707831
 21
1648.517938150755
 31
0.0
  0
LINE
  5
341
330
17
100
AcDbEntity
  8
L-CENTER
 48
2.0
100
AcDbLine
 10
913.9984727078313
 20
1599.768201406902
 30
0.0
 11
842.2620227078319
 21
1599.768201406902
 31
0.0
  0
LINE
  5
342
330
17
100
AcDbEntity
  8
L-CENTER
 48
2.0
100
AcDbLine
 10
913.9984727078313
 20
1794.768201406902
 30
0.0
 11
842.2620227078319
 21
1794.768201406902
 31
0.0
  0
LINE
  5
343
330
17
100
AcDbEntity
  8
L-CENTER
 48
2.0
100
AcDbLine
 10
913.9984727078313
 20
1746.01846466305
 30
0.0
 11
842.262022707831
 21
1746.01846466305
 31
0.0
  0
ARC
  5
347
330
17
100
AcDbEntity
  8
4
100
AcDbCircle
 10
847.6783307078317
 20
1517.268201406902
 30
0.0
 40
10.0
100
AcDbArc
 50
270.0
 51
0.0
  0
ARC
  5
348
330
17
100
AcDbEntity
  8
4
100
AcDbCircle
 10
690.1455750127793
 20
1509.268201406903
 30
0.0
 40
2.0
100
AcDbArc
 50
270.0
 51
344.9315118405075
  0
LINE
  5
349
330
17
100
AcDbEntity
  8
4
100
AcDbLine
 10
683.6783307078317
 20
1507.268201406902
 30
0.0
 11
847.6783307078317
 21
1507.268201406902
 31
0.0
  0
ARC
  5
34A
330
17
100
AcDbEntity
  8
4
100
AcDbCircle
 10
477.2110864028832
 20
1509.268201406903
 30
0.0
 40
2.0
100
AcDbArc
 50
195.0684881594925
 51
270.0
  0
LINE
  5
34C
330
17
100
AcDbEntity
  8
4
100
AcDbLine
 10
690.9119747078316
 20
1507.268201406902
 30
0.0
 11
476.4446867078318
 21
1507.268201406902
 31
0.0
  0
ARC
  5
34E
330
17
100
AcDbEntity
  8
4
100
AcDbCircle
 10
841.2593867078308
 20
803.5871267020054
 30
0.0
 40
5.000052
100
AcDbArc
 50
15.00385500000127
 51
74.99614499999373
  0
ARC
  5
34F
330
17
100
AcDbEntity
  8
4
100
AcDbCircle
 10
645.7448234363587
 20
797.9743236236379
 30
0.0
 40
4.0
100
AcDbArc
 50
76.1620147383712
 51
185.9985940830366
  0
ARC
  5
350
330
17
100
AcDbEntity
  8
4
100
AcDbCircle
 10
672.6783307078317
 20
760.0060707020057
 30
0.0
 40
3.0
100
AcDbArc
 50
0.0
 51
90.0
  0
ARC
  5
351
330
17
100
AcDbEntity
  8
4
100
AcDbCircle
 10
680.6783307078317
 20
768.0060707020057
 30
0.0
 40
3.0
100
AcDbArc
 50
0.0
 51
90.0
  0
ARC
  5
352
330
17
100
AcDbEntity
  8
4
100
AcDbCircle
 10
647.257888018114
 20
774.0060707020057
 30
0.0
 40
3.0
100
AcDbArc
 50
185.9985940830388
 51
270.0
  0
ARC
  5
353
330
17
100
AcDbEntity
  8
4
100
AcDbCircle
 10
646.6783307078317
 20
734.0060707020057
 30
0.0
 40
13.0
100
AcDbArc
 50
0.0
 51
180.0
  0
ARC
  5
354
330
17
100
AcDbEntity
  8
4
100
AcDbCircle
 10
646.6783307078317
 20
734.0060707020057
 30
0.0
 40
21.0
100
AcDbArc
 50
0.0
 51
180.0
  0
LINE
  5
355
330
17
100
AcDbEntity
  8
4
100
AcDbLine
 10
680.6783307078317
 20
771.0060707020057
 30
0.0
 11
647.257888018114
 21
771.0060707020057
 31
0.0
  0
LINE
  5
356
330
17
100
AcDbEntity
  8
4
100
AcDbLine
 10
644.2743146381877
 20
773.6925585226738
 30
0.0
 11
641.7667255964557
 21
797.5563073845287
 31
0.0
  0
ARC
  5
357
330
17
100
AcDbEntity
  8
4
100
AcDbCircle
 10
694.195906707831
 20
619.9196447020054
 30
0.0
 40
1.000044
100
AcDbArc
 50
188.4941080000015
 51
264.0027190000202
  0
ARC
  5
358
330
17
100
AcDbEntity
  8
4
100
AcDbCircle
 10
672.6783307078317
 20
682.0060707020057
 30
0.0
 40
3.0
100
AcDbArc
 50
270.0
 51
0.0
  0
ARC
  5
359
330
17
100
AcDbEntity
  8
4
100
AcDbCircle
 10
646.6783307078317
 20
708.0060707020057
 30
0.0
 40
13.0
100
AcDbArc
 50
180.0
 51
0.0
  0
ARC
  5
35A
330
17
100
AcDbEntity
  8
4
100
AcDbCircle
 10
646.6783307078317
 20
708.0060707020057
 30
0.0
 40
21.0
100
AcDbArc
 50
180.0
 51
0.0
  0
ARC
  5
35B
330
17
100
AcDbEntity
  8
4
100
AcDbCircle
 10
680.2291127078311
 20
642.5568527020055
 30
0.0
 40
1.999902
100
AcDbArc
 50
11.18512099999722
 51
78.81487900000216
  0
LINE
  5
35C
330
17
100
AcDbEntity
  8
4
100
AcDbLine
 10
680.6783307078317
 20
671.0060707020057
 30
0.0
 11
658.3963072146221
 21
671.0060707020057
 31
0.0
  0
ARC
  5
35D
330
17
100
AcDbEntity
  8
4
100
AcDbCircle
 10
680.6783307078317
 20
674.0060707020057
 30
0.0
 40
3.0
100
AcDbArc
 50
270.0
 51
0.0
  0
LINE
  5
35E
330
17
100
AcDbEntity
  8
4
100
AcDbLine
 10
655.8740143884575
 20
663.3027310403236
 30
0.0
 11
655.4127338346957
 21
667.6925585226738
 31
0.0
  0
ARC
  5
35F
330
17
100
AcDbEntity
  8
4
100
AcDbCircle
 10
665.8192589882151
 20
664.3477716380962
 30
0.0
 40
10.0
100
AcDbArc
 50
185.9985940830393
 51
260.7315348759754
  0
ARC
  5
360
330
17
100
AcDbEntity
  8
4
100
AcDbCircle
 10
658.3963072146221
 20
668.0060707020057
 30
0.0
 40
3.0
100
AcDbArc
 50
90.0
 51
185.9985940830388
  0
ARC
  5
361
330
17
100
AcDbEntity
  8
4
100
AcDbCircle
 10
686.044054707831
 20
648.3717947020054
 30
0.0
 40
1.999986
100
AcDbArc
 50
11.86270200000191
 51
78.13726999999531
  0
LINE
  5
362
330
17
100
AcDbEntity
  8
4
100
AcDbLine
 10
675.6783307078317
 20
760.0060707020057
 30
0.0
 11
675.6783307078317
 21
682.0060707020057
 31
0.0
  0
LINE
  5
363
330
17
100
AcDbEntity
  8
4
100
AcDbLine
 10
683.6783307078317
 20
768.0060707020057
 30
0.0
 11
683.6783307078317
 21
674.0060707020057
 31
0.0
  0
LINE
  5
364
330
17
100
AcDbEntity
  8
4
100
AcDbLine
 10
633.6783307078317
 20
708.0060707020057
 30
0.0
 11
633.6783307078317
 21
734.0060707020057
 31
0.0
  0
LINE
  5
365
330
17
100
AcDbEntity
  8
4
100
AcDbLine
 10
625.6783307078317
 20
708.0060707020057
 30
0.0
 11
625.6783307078317
 21
734.0060707020057
 31
0.0
  0
LINE
  5
366
330
17
100
AcDbEntity
  8
4
100
AcDbLine
 10
667.6783307078317
 20
734.0060707020057
 30
0.0
 11
667.6783307078317
 21
708.0060707020057
 31
0.0
  0
LINE
  5
367
330
17
100
AcDbEntity
  8
4
100
AcDbLine
 10
659.6783307078317
 20
734.0060707020057
 30
0.0
 11
659.6783307078317
 21
708.0060707020057
 31
0.0
  0
LINE
  5
36D
330
17
100
AcDbEntity
  8
4
100
AcDbLine
 10
605.5499147078312
 20
869.0060687020055
 30
0.0
 11
606.1783307078317
 21
851.0060687020055
 31
0.0
  0
LINE
  5
36E
330
17
100
AcDbEntity
  8
4
100
AcDbLine
 10
608.6783327078315
 20
851.0060687020055
 30
0.0
 11
608.6783327078315
 21
845.1152027020055
 31
0.0
  0
LINE
  5
36F
330
17
100
AcDbEntity
  8
4
100
AcDbLine
 10
583.6783307078317
 20
871.0060667020052
 30
0.0
 11
605.5499147078312
 21
869.0060687020055
 31
0.0
  0
LINE
  5
370
330
17
100
AcDbEntity
  8
4
100
AcDbLine
 10
561.8069927078309
 20
869.0060687020055
 30
0.0
 11
561.1783307078317
 21
851.0060687020055
 31
0.0
  0
LINE
  5
371
330
17
100
AcDbEntity
  8
4
100
AcDbLine
 10
558.678328707831
 20
851.0060687020055
 30
0.0
 11
558.678328707831
 21
845.1152027020055
 31
0.0
  0
LINE
  5
372
330
17
100
AcDbEntity
  8
4
100
AcDbLine
 10
561.1783307078317
 20
851.0060687020055
 30
0.0
 11
606.1783307078317
 21
851.0060687020055
 31
0.0
  0
LINE
  5
373
330
17
100
AcDbEntity
  8
4
100
AcDbLine
 10
558.678328707831
 20
851.0060687020055
 30
0.0
 11
608.6783327078315
 21
851.0060687020055
 31
0.0
  0
LINE
  5
374
330
17
100
AcDbEntity
  8
4
100
AcDbLine
 10
561.8069927078309
 20
869.0060687020055
 30
0.0
 11
605.5499147078312
 21
869.0060687020055
 31
0.0
  0
CIRCLE
  5
375
330
17
100
AcDbEntity
  8
4
100
AcDbCircle
 10
583.6783307078317
 20
896.0060687020055
 30
0.0
 40
25.00000199999999
  0
LINE
  5
376
330
17
100
AcDbEntity
  8
4
100
AcDbLine
 10
561.8069927078309
 20
869.0060687020055
 30
0.0
 11
583.6783307078317
 21
871.0060667020052
 31
0.0
  0
LINE
  5
378
330
17
100
AcDbEntity
  8
4
100
AcDbLine
 10
455.178328707831
 20
845.0060687020055
 30
0.0
 11
455.178328707831
 21
850.0060667020052
 31
0.0
  0
LINE
  5
379
330
17
100
AcDbEntity
  8
4
100
AcDbLine
 10
432.1783307078317
 20
845.0060687020055
 30
0.0
 11
432.1783307078317
 21
850.0060667020052
 31
0.0
  0
LINE
  5
37A
330
17
100
AcDbEntity
  8
4
100
AcDbLine
 10
420.678328707831
 20
845.0060687020055
 30
0.0
 11
466.6783307078317
 21
845.0060687020055
 31
0.0
  0
LINE
  5
37B
330
17
100
AcDbEntity
  8
4
100
AcDbLine
 10
420.678328707831
 20
850.0060667020052
 30
0.0
 11
466.6783307078317
 21
850.0060667020052
 31
0.0
  0
LINE
  5
37C
330
17
100
AcDbEntity
  8
4
100
AcDbLine
 10
609.6783307078317
 20
755.0060707020057
 30
0.0
 11
617.6783307078317
 21
755.0060707020057
 31
0.0
  0
ARC
  5
37D
330
17
100
AcDbEntity
  8
4
100
AcDbCircle
 10
521.6118379793047
 20
797.9743236236379
 30
0.0
 40
4.0
100
AcDbArc
 50
354.0014059169634
 51
103.8379852616557
  0
ARC
  5
37E
330
17
100
AcDbEntity
  8
4
100
AcDbCircle
 10
520.0987733975494
 20
774.0060707020057
 30
0.0
 40
3.0
100
AcDbArc
 50
270.0
 51
354.0014059169612
  0
LINE
  5
37F
330
17
100
AcDbEntity
  8
4
100
AcDbLine
 10
523.0823467774758
 20
773.6925585226738
 30
0.0
 11
525.5899358192078
 21
797.5563073845287
 31
0.0
  0
LINE
  5
380
330
17
100
AcDbEntity
  8
4
100
AcDbLine
 10
559.6783307078317
 20
755.0060707020057
 30
0.0
 11
567.6783307078317
 21
755.0060707020057
 31
0.0
  0
LINE
  5
381
330
17
100
AcDbEntity
  8
4
100
AcDbLine
 10
609.6783307078317
 20
687.0060707020057
 30
0.0
 11
617.6783307078317
 21
687.0060707020057
 31
0.0
  0
LINE
  5
382
330
17
100
AcDbEntity
  8
4
100
AcDbLine
 10
603.6783307078317
 20
725.0060707020057
 30
0.0
 11
603.6783307078317
 21
717.0060707020057
 31
0.0
  0
LINE
  5
383
330
17
100
AcDbEntity
  8
4
100
AcDbLine
 10
589.6783307078317
 20
725.0060707020057
 30
0.0
 11
589.6783307078317
 21
717.0060707020057
 31
0.0
  0
LINE
  5
384
330
17
100
AcDbEntity
  8
4
100
AcDbLine
 10
580.3055291319911
 20
687.0060707020057
 30
0.0
 11
588.6783307078317
 21
687.0060707020057
 31
0.0
  0
LINE
  5
385
330
17
100
AcDbEntity
  8
4
100
AcDbLine
 10
574.1290585437569
 20
707.0060707020057
 30
0.0
 11
580.3055291319911
 21
687.0060707020057
 31
0.0
  0
LINE
  5
386
330
17
100
AcDbEntity
  8
4
100
AcDbLine
 10
589.6783307078317
 20
717.0060707020057
 30
0.0
 11
603.6783307078317
 21
717.0060707020057
 31
0.0
  0
LINE
  5
387
330
17
100
AcDbEntity
  8
4
100
AcDbLine
 10
589.6783307078317
 20
725.0060707020057
 30
0.0
 11
603.6783307078317
 21
725.0060707020057
 31
0.0
  0
LINE
  5
388
330
17
100
AcDbEntity
  8
4
100
AcDbLine
 10
538.6783307078317
 20
687.0060707020057
 30
0.0
 11
547.0511322836705
 21
687.0060707020057
 31
0.0
  0
LINE
  5
389
330
17
100
AcDbEntity
  8
4
100
AcDbLine
 10
535.6783307078317
 20
695.0060707020057
 30
0.0
 11
535.6783307078317
 21
687.0060707020057
 31
0.0
  0
LINE
  5
38A
330
17
100
AcDbEntity
  8
4
100
AcDbLine
 10
547.0511322836705
 20
687.0060707020057
 30
0.0
 11
553.2276028719048
 21
707.0060707020057
 31
0.0
  0
LINE
  5
38B
330
17
100
AcDbEntity
  8
4
100
AcDbLine
 10
507.6783307078317
 20
695.0060707020057
 30
0.0
 11
535.6783307078317
 21
695.0060707020057
 31
0.0
  0
ARC
  5
38C
330
17
100
AcDbEntity
  8
4
100
AcDbCircle
 10
501.5374024274483
 20
664.3477716380962
 30
0.0
 40
10.0
100
AcDbArc
 50
279.2684651240194
 51
354.0014059169607
  0
ARC
  5
38D
330
17
100
AcDbEntity
  8
4
100
AcDbCircle
 10
508.9603542010395
 20
668.0060707020057
 30
0.0
 40
3.0
100
AcDbArc
 50
354.0014059169612
 51
90.0
  0
LINE
  5
38E
330
17
100
AcDbEntity
  8
4
100
AcDbLine
 10
511.482647027206
 20
663.3027310403236
 30
0.0
 11
511.9439275809677
 21
667.6925585226738
 31
0.0
  0
LINE
  5
38F
330
17
100
AcDbEntity
  8
4
100
AcDbLine
 10
553.2276028719048
 20
707.0060707020057
 30
0.0
 11
574.1290585437569
 21
707.0060707020057
 31
0.0
  0
LINE
  5
390
330
17
100
AcDbEntity
  8
4
100
AcDbLine
 10
555.6981911071985
 20
715.0060707020057
 30
0.0
 11
571.6584703084632
 21
715.0060707020057
 31
0.0
  0
LINE
  5
391
330
17
100
AcDbEntity
  8
4
100
AcDbLine
 10
617.6783307078317
 20
755.0060707020057
 30
0.0
 11
617.6783307078317
 21
687.0060707020057
 31
0.0
  0
LINE
  5
392
330
17
100
AcDbEntity
  8
4
100
AcDbLine
 10
609.6783307078317
 20
755.0060707020057
 30
0.0
 11
609.6783307078317
 21
687.0060707020057
 31
0.0
  0
LINE
  5
393
330
17
100
AcDbEntity
  8
4
100
AcDbLine
 10
507.6783307078317
 20
755.0060707020057
 30
0.0
 11
507.6783307078317
 21
695.0060707020057
 31
0.0
  0
LINE
  5
394
330
17
100
AcDbEntity
  8
4
100
AcDbLine
 10
538.6783307078317
 20
687.0060707020057
 30
0.0
 11
559.6783307078317
 21
755.0060707020057
 31
0.0
  0
LINE
  5
395
330
17
100
AcDbEntity
  8
4
100
AcDbLine
 10
563.6783307078317
 20
740.8465227421457
 30
0.0
 11
571.6584703084632
 21
715.0060707020057
 31
0.0
  0
LINE
  5
396
330
17
100
AcDbEntity
  8
4
100
AcDbLine
 10
555.6981911071985
 20
715.0060707020057
 30
0.0
 11
563.6783307078317
 21
740.8465227421457
 31
0.0
  0
LINE
  5
397
330
17
100
AcDbEntity
  8
4
100
AcDbLine
 10
567.6783307078317
 20
755.0060707020057
 30
0.0
 11
588.6783307078317
 21
687.0060707020057
 31
0.0
  0
LINE
  5
398
330
17
100
AcDbEntity
  8
4
100
AcDbLine
 10
465.678328707831
 20
841.0060667020052
 30
0.0
 11
465.678328707831
 21
839.0060687020055
 31
0.0
  0
ARC
  5
399
330
17
100
AcDbEntity
  8
4
100
AcDbCircle
 10
471.678328707831
 20
839.2331207020056
 30
0.0
 40
2.999982
100
AcDbArc
 50
180.0
 51
276.4107370000103
  0
ARC
  5
39A
330
17
100
AcDbEntity
  8
4
100
AcDbCircle
 10
486.6783307078317
 20
768.0060707020057
 30
0.0
 40
3.0
100
AcDbArc
 50
90.0
 51
180.0
  0
ARC
  5
39B
330
17
100
AcDbEntity
  8
4
100
AcDbCircle
 10
494.6783307078317
 20
760.0060707020057
 30
0.0
 40
3.0
100
AcDbArc
 50
90.0
 51
180.0
  0
LINE
  5
39C
330
17
100
AcDbEntity
  8
4
100
AcDbLine
 10
421.6783307078317
 20
841.0060667020052
 30
0.0
 11
421.6783307078317
 21
839.0060687020055
 31
0.0
  0
LINE
  5
39D
330
17
100
AcDbEntity
  8
4
100
AcDbLine
 10
418.6783307078317
 20
839.0060687020055
 30
0.0
 11
418.6783307078317
 21
831.3361487020054
 31
0.0
  0
ARC
  5
39E
330
17
100
AcDbEntity
  8
4
100
AcDbCircle
 10
415.6783307078317
 20
831.3361487020054
 30
0.0
 40
2.999946
100
AcDbArc
 50
279.6417139999876
 51
0.0
  0
LINE
  5
39F
330
17
100
AcDbEntity
  8
4
100
AcDbLine
 10
421.6783307078317
 20
839.0060687020055
 30
0.0
 11
465.678328707831
 21
839.0060687020055
 31
0.0
  0
LINE
  5
3A0
330
17
100
AcDbEntity
  8
4
100
AcDbLine
 10
420.678328707831
 20
841.0060667020052
 30
0.0
 11
466.6783307078317
 21
841.0060667020052
 31
0.0
  0
LINE
  5
3A1
330
17
100
AcDbEntity
  8
4
100
AcDbLine
 10
418.6783307078317
 20
839.0060687020055
 30
0.0
 11
468.678328707831
 21
839.0060687020055
 31
0.0
  0
ARC
  5
3A2
330
17
100
AcDbEntity
  8
4
100
AcDbCircle
 10
494.6783307078317
 20
682.0060707020057
 30
0.0
 40
3.0
100
AcDbArc
 50
180.0
 51
270.0
  0
ARC
  5
3A3
330
17
100
AcDbEntity
  8
4
100
AcDbCircle
 10
473.1607547078315
 20
619.9196447020054
 30
0.0
 40
1.000044
100
AcDbArc
 50
275.9972809999798
 51
351.5059010000007
  0
ARC
  5
3A4
330
17
100
AcDbEntity
  8
4
100
AcDbCircle
 10
487.1275487078315
 20
642.5568527020055
 30
0.0
 40
1.999902
100
AcDbArc
 50
101.1851209999978
 51
168.8148790000028
  0
ARC
  5
3A5
330
17
100
AcDbEntity
  8
4
100
AcDbCircle
 10
481.3126067078315
 20
648.3717947020054
 30
0.0
 40
1.999986
100
AcDbArc
 50
101.8627020000019
 51
168.1372979999981
  0
ARC
  5
3A6
330
17
100
AcDbEntity
  8
4
100
AcDbCircle
 10
486.6783307078317
 20
674.0060707020057
 30
0.0
 40
3.0
100
AcDbArc
 50
180.0
 51
270.0
  0
LINE
  5
3A7
330
17
100
AcDbEntity
  8
4
100
AcDbLine
 10
483.6783307078317
 20
768.0060707020057
 30
0.0
 11
483.6783307078317
 21
674.0060707020057
 31
0.0
  0
LINE
  5
3A8
330
17
100
AcDbEntity
  8
4
100
AcDbLine
 10
491.6783307078317
 20
760.0060707020057
 30
0.0
 11
491.6783307078317
 21
682.0060707020057
 31
0.0
  0
LINE
  5
3A9
330
17
100
AcDbEntity
  8
4
100
AcDbLine
 10
499.6783307078317
 20
755.0060707020057
 30
0.0
 11
499.6783307078317
 21
687.0060707020057
 31
0.0
  0
LINE
  5
3AA
330
17
100
AcDbEntity
  8
4
100
AcDbLine
 10
486.6783307078317
 20
771.0060707020057
 30
0.0
 11
520.0987733975494
 21
771.0060707020057
 31
0.0
  0
LINE
  5
3AB
330
17
100
AcDbEntity
  8
4
100
AcDbLine
 10
486.6783307078317
 20
671.0060707020057
 30
0.0
 11
508.9603542010395
 21
671.0060707020057
 31
0.0
  0
LINE
  5
3AC
330
17
100
AcDbEntity
  8
4
100
AcDbLine
 10
499.6783307078317
 20
687.0060707020057
 30
0.0
 11
535.6783307078317
 21
687.0060707020057
 31
0.0
  0
LINE
  5
3AD
330
17
100
AcDbEntity
  8
4
100
AcDbLine
 10
499.6783307078317
 20
755.0060707020057
 30
0.0
 11
507.6783307078317
 21
755.0060707020057
 31
0.0
  0
LINE
  5
3AE
330
17
100
AcDbEntity
  8
4
100
AcDbLine
 10
420.678328707831
 20
841.0060667020052
 30
0.0
 11
420.678328707831
 21
850.0060667020052
 31
0.0
  0
LINE
  5
3AF
330
17
100
AcDbEntity
  8
L-CENTER
 48
2.0
100
AcDbLine
 10
443.6783327078315
 20
810.7430846205616
 30
0.0
 11
443.6783327078315
 21
855.1278947020055
 31
0.0
  0
LINE
  5
3B0
330
17
100
AcDbEntity
  8
4
100
AcDbLine
 10
466.6783307078317
 20
841.0060667020052
 30
0.0
 11
466.6783307078317
 21
850.0060667020052
 31
0.0
  0
ARC
  5
3B1
330
17
100
AcDbEntity
  8
4
100
AcDbCircle
 10
555.678328707831
 20
845.1152027020055
 30
0.0
 40
2.999976
100
AcDbArc
 50
271.5995520000048
 51
0.0
  0
ARC
  5
3B2
330
17
100
AcDbEntity
  8
4
100
AcDbCircle
 10
611.6783327078315
 20
845.1152027020055
 30
0.0
 40
2.999976
100
AcDbArc
 50
180.0
 51
268.4004479999952
  0
ARC
  5
3B3
330
17
100
AcDbEntity
  8
4
100
AcDbCircle
 10
583.6783307078317
 20
896.0060687020055
 30
0.0
 40
44.99995799999999
100
AcDbArc
 50
299.6975339999996
 51
240.3031599999997
  0
ARC
  5
3B4
330
17
100
AcDbEntity
  8
4
100
AcDbCircle
 10
583.6783307078317
 20
154.0060667020055
 30
0.0
 40
499.9999800000001
100
AcDbArc
 50
78.82099100000002
 51
101.1791000000001
  0
ARC
  5
3B5
330
17
100
AcDbEntity
  8
4
100
AcDbCircle
 10
583.6783307078317
 20
161.0060687020055
 30
0.0
 40
500.000016
100
AcDbArc
 50
78.13814300000011
 51
101.8618870000001
  0
LINE
  5
3B6
330
17
100
AcDbEntity
  8
L-CENTER
 48
2.0
100
AcDbLine
 10
523.0715065318705
 20
896.0060687020055
 30
0.0
 11
644.2851548837921
 21
896.0060687020055
 31
0.0
  0
LINE
  5
3B7
330
17
100
AcDbEntity
  8
4
100
AcDbLine
 10
672.6783307078317
 20
763.0060707020057
 30
0.0
 11
494.6783307078317
 21
763.0060707020057
 31
0.0
  0
LINE
  5
3B8
330
17
100
AcDbEntity
  8
4
100
AcDbLine
 10
672.6783307078317
 20
679.0060707020057
 30
0.0
 11
494.6783307078317
 21
679.0060707020057
 31
0.0
  0
LINE
  5
3BA
330
17
100
AcDbEntity
  8
L-CENTER
 48
2.0
100
AcDbLine
 10
403.6783307078317
 20
1574.568201406903
 30
0.0
 11
403.6783307078317
 21
1519.968201406902
 31
0.0
  0
LINE
  5
3BB
330
17
100
AcDbEntity
  8
L-CENTER
 48
2.0
100
AcDbLine
 10
583.6783307078317
 20
1324.916829439747
 30
0.0
 11
583.6783307078317
 21
2069.619573374058
 31
0.0
  0
LINE
  5
3BC
330
17
100
AcDbEntity
  8
L-CENTER
 48
2.0
100
AcDbLine
 10
763.6783307078317
 20
1574.568201406903
 30
0.0
 11
763.6783307078317
 21
1519.968201406902
 31
0.0
  0
LINE
  5
3BD
330
17
100
AcDbEntity
  8
4
100
AcDbLine
 10
857.6783307078317
 20
1553.268201406902
 30
0.0
 11
857.6783307078317
 21
1517.268201406902
 31
0.0
  0
LINE
  5
3BE
330
17
100
AcDbEntity
  8
4
100
AcDbLine
 10
475.2798548858414
 20
1508.748254460007
 30
0.0
 11
469.0168104711452
 21
1532.010990857453
 31
0.0
  0
LINE
  5
3BF
330
17
100
AcDbEntity
  8
4
100
AcDbLine
 10
692.0768065298203
 20
1508.748254460007
 30
0.0
 11
698.3398509445183
 21
1532.010990857453
 31
0.0
  0
ARC
  5
3C0
330
17
100
AcDbEntity
  8
4
100
AcDbCircle
 10
319.6783307078313
 20
1877.268201406902
 30
0.0
 40
10.0
100
AcDbArc
 50
90.0
 51
180.0
  0
LINE
  5
3C1
330
17
100
AcDbEntity
  8
4
100
AcDbLine
 10
353.6783307078313
 20
1847.325474111444
 30
0.0
 11
353.6783307078313
 21
1856.568201406903
 31
0.0
  0
LINE
  5
3C2
330
17
100
AcDbEntity
  8
4
100
AcDbLine
 10
316.1479858224338
 20
1853.431020496276
 30
0.0
 11
316.1479858224338
 21
1843.568201406903
 31
0.0
  0
LINE
  5
3C3
330
17
100
AcDbEntity
  8
4
100
AcDbLine
 10
290.1783307078313
 20
1813.268201406902
 30
0.0
 11
290.1783307078313
 21
1816.268201406902
 31
0.0
  0
LINE
  5
3C4
330
17
100
AcDbEntity
  8
4
100
AcDbLine
 10
288.1783307078308
 20
1816.568201406903
 30
0.0
 11
288.1783307078308
 21
1842.568201406903
 31
0.0
  0
ARC
  5
3C5
330
17
100
AcDbEntity
  8
4
100
AcDbCircle
 10
289.1783307078304
 20
1842.568201406903
 30
0.0
 40
1.0
100
AcDbArc
 50
90.0
 51
180.0
  0
LINE
  5
3C6
330
17
100
AcDbEntity
  8
4
100
AcDbLine
 10
294.2086755932278
 20
1843.568201406903
 30
0.0
 11
294.2086755932278
 21
1853.431020496276
 31
0.0
  0
ARC
  5
3C7
330
17
100
AcDbEntity
  8
4
100
AcDbCircle
 10
296.9510893718784
 20
1850.692822531624
 30
0.0
 40
3.875378875279264
100
AcDbArc
 50
44.95592676274163
 51
135.044073237256
  0
ARC
  5
3C8
330
17
100
AcDbEntity
  8
4
100
AcDbCircle
 10
305.1783307078299
 20
1840.772457271726
 30
0.0
 40
13.7957441351769
100
AcDbArc
 50
66.57340249137077
 51
113.4265975086275
  0
LINE
  5
3C9
330
17
100
AcDbEntity
  8
4
100
AcDbLine
 10
296.9510893718789
 20
1854.568201406903
 30
0.0
 11
313.4055720437827
 21
1854.568201406903
 31
0.0
  0
LINE
  5
3CA
330
17
100
AcDbEntity
  8
4
100
AcDbLine
 10
310.6631582651326
 20
1853.431020496276
 30
0.0
 11
310.6631582651326
 21
1846.568201406903
 31
0.0
  0
LINE
  5
3CB
330
17
100
AcDbEntity
  8
4
100
AcDbLine
 10
299.6935031505291
 20
1853.431020496276
 30
0.0
 11
299.6935031505291
 21
1846.568201406903
 31
0.0
  0
ARC
  5
3CC
330
17
100
AcDbEntity
  8
4
100
AcDbCircle
 10
272.3783307078311
 20
1810.768201406902
 30
0.0
 40
1.0
100
AcDbArc
 50
90.0
 51
180.0
  0
LINE
  5
3CD
330
17
100
AcDbEntity
  8
4
100
AcDbLine
 10
287.1783307078313
 20
1811.768201406903
 30
0.0
 11
272.3783307078311
 21
1811.768201406902
 31
0.0
  0
LINE
  5
3CE
330
17
100
AcDbEntity
  8
4
100
AcDbLine
 10
261.5155116184578
 20
1756.988119777653
 30
0.0
 11
271.3783307078311
 21
1756.988119777653
 31
0.0
  0
LINE
  5
3CF
330
17
100
AcDbEntity
  8
4
100
AcDbLine
 10
261.5155116184578
 20
1800.253028964204
 30
0.0
 11
268.3783307078311
 21
1800.253028964204
 31
0.0
  0
LINE
  5
3D0
330
17
100
AcDbEntity
  8
4
100
AcDbLine
 10
261.5155116184578
 20
1805.737856521505
 30
0.0
 11
271.3783307078311
 21
1805.737856521505
 31
0.0
  0
ARC
  5
3D1
330
17
100
AcDbEntity
  8
4
100
AcDbCircle
 10
264.2537095831103
 20
1802.995442742855
 30
0.0
 40
3.875378875279244
100
AcDbArc
 50
134.9559267627458
 51
225.0440732372542
  0
LINE
  5
3D2
330
17
100
AcDbEntity
  8
4
100
AcDbLine
 10
261.5155116184578
 20
1789.283373849601
 30
0.0
 11
268.3783307078311
 21
1789.283373849601
 31
0.0
  0
LINE
  5
3D3
330
17
100
AcDbEntity
  8
4
100
AcDbLine
 10
271.3783307078311
 20
1783.7985462923
 30
0.0
 11
261.5155116184578
 21
1783.7985462923
 31
0.0
  0
ARC
  5
3D4
330
17
100
AcDbEntity
  8
4
100
AcDbCircle
 10
264.2537095831103
 20
1786.54096007095
 30
0.0
 40
3.875378875279264
100
AcDbArc
 50
134.9559267627458
 51
225.0440732372542
  0
LINE
  5
3D5
330
17
100
AcDbEntity
  8
4
100
AcDbLine
 10
271.3783307078311
 20
1805.737856521505
 30
0.0
 11
271.3783307078311
 21
1783.7985462923
 31
0.0
  0
LINE
  5
3D6
330
17
100
AcDbEntity
  8
4
100
AcDbLine
 10
260.3783307078311
 20
1786.54096007095
 30
0.0
 11
260.3783307078311
 21
1802.995442742855
 31
0.0
  0
LINE
  5
3D7
330
17
100
AcDbEntity
  8
4
100
AcDbLine
 10
268.3783307078311
 20
1805.737856521505
 30
0.0
 11
268.3783307078311
 21
1783.7985462923
 31
0.0
  0
ARC
  5
3D8
330
17
100
AcDbEntity
  8
4
100
AcDbCircle
 10
274.1740748430084
 20
1794.768201406902
 30
0.0
 40
13.7957441351769
100
AcDbArc
 50
156.5734024913727
 51
203.4265975086273
  0
LINE
  5
3D9
330
17
100
AcDbEntity
  8
L-CENTER
 48
2.0
100
AcDbLine
 10
305.1783307078304
 20
1858.169041287007
 30
0.0
 11
305.1783307078304
 21
1803.891587648961
 31
0.0
  0
LINE
  5
3DA
330
17
100
AcDbEntity
  8
4
100
AcDbLine
 10
316.1479858224338
 20
1843.568201406903
 30
0.0
 11
294.2086755932278
 21
1843.568201406903
 31
0.0
  0
ARC
  5
3DB
330
17
100
AcDbEntity
  8
4
100
AcDbCircle
 10
313.4055720437823
 20
1850.692822531624
 30
0.0
 40
3.875378875279244
100
AcDbArc
 50
44.95592676274281
 51
135.044073237256
  0
LINE
  5
3DC
330
17
100
AcDbEntity
  8
4
100
AcDbLine
 10
316.1479858224338
 20
1846.568201406903
 30
0.0
 11
294.2086755932278
 21
1846.568201406903
 31
0.0
  0
LINE
  5
3DD
330
17
100
AcDbEntity
  8
4
100
AcDbLine
 10
309.6783307078313
 20
1877.268201406902
 30
0.0
 11
309.6783307078313
 21
1854.568201406903
 31
0.0
  0
LINE
  5
3DE
330
17
100
AcDbEntity
  8
L-CENTER
 48
2.0
100
AcDbLine
 10
253.3581887078312
 20
1794.768201406902
 30
0.0
 11
325.0946387078311
 21
1794.768201406902
 31
0.0
  0
ARC
  5
3DF
330
17
100
AcDbEntity
  8
4
100
AcDbCircle
 10
274.1740748430084
 20
1746.01846466305
 30
0.0
 40
13.7957441351769
100
AcDbArc
 50
156.5734024913727
 51
203.4265975086273
  0
ARC
  5
3E0
330
17
100
AcDbEntity
  8
4
100
AcDbCircle
 10
264.2537095831103
 20
1737.791223327098
 30
0.0
 40
3.875378875279264
100
AcDbArc
 50
134.9559267627458
 51
225.0440732372542
  0
LINE
  5
3E1
330
17
100
AcDbEntity
  8
4
100
AcDbLine
 10
271.3783307078311
 20
1735.048809548447
 30
0.0
 11
261.5155116184578
 21
1735.048809548447
 31
0.0
  0
LINE
  5
3E2
330
17
100
AcDbEntity
  8
4
100
AcDbLine
 10
261.5155116184578
 20
1740.533637105748
 30
0.0
 11
268.3783307078311
 21
1740.533637105748
 31
0.0
  0
LINE
  5
3E3
330
17
100
AcDbEntity
  8
4
100
AcDbLine
 10
261.5155116184578
 20
1751.503292220351
 30
0.0
 11
268.3783307078311
 21
1751.503292220351
 31
0.0
  0
LINE
  5
3E4
330
17
100
AcDbEntity
  8
4
100
AcDbLine
 10
261.5155116184578
 20
1643.033110593453
 30
0.0
 11
268.3783307078311
 21
1643.033110593453
 31
0.0
  0
LINE
  5
3E5
330
17
100
AcDbEntity
  8
4
100
AcDbLine
 10
261.5155116184578
 20
1654.002765708056
 30
0.0
 11
268.3783307078311
 21
1654.002765708056
 31
0.0
  0
LINE
  5
3E6
330
17
100
AcDbEntity
  8
4
100
AcDbLine
 10
271.3783307078311
 20
1659.487593265358
 30
0.0
 11
261.5155116184578
 21
1659.487593265358
 31
0.0
  0
ARC
  5
3E7
330
17
100
AcDbEntity
  8
4
100
AcDbCircle
 10
264.2537095831103
 20
1656.745179486707
 30
0.0
 40
3.875378875279264
100
AcDbArc
 50
134.9559267627458
 51
225.0440732372542
  0
LINE
  5
3E8
330
17
100
AcDbEntity
  8
4
100
AcDbLine
 10
260.3783307078311
 20
1656.745179486707
 30
0.0
 11
260.3783307078311
 21
1640.290696814803
 31
0.0
  0
ARC
  5
3E9
330
17
100
AcDbEntity
  8
4
100
AcDbCircle
 10
274.1740748430084
 20
1648.517938150755
 30
0.0
 40
13.7957441351769
100
AcDbArc
 50
156.5734024913727
 51
203.4265975086273
  0
ARC
  5
3EA
330
17
100
AcDbEntity
  8
4
100
AcDbCircle
 10
272.3783307078311
 20
1583.768201406903
 30
0.0
 40
1.0
100
AcDbArc
 50
180.0
 51
270.0
  0
LINE
  5
3EB
330
17
100
AcDbEntity
  8
4
100
AcDbLine
 10
261.5155116184578
 20
1637.548283036152
 30
0.0
 11
271.3783307078311
 21
1637.548283036152
 31
0.0
  0
LINE
  5
3EC
330
17
100
AcDbEntity
  8
4
100
AcDbLine
 10
268.3783307078311
 20
1588.798546292299
 30
0.0
 11
268.3783307078311
 21
1610.737856521505
 31
0.0
  0
LINE
  5
3ED
330
17
100
AcDbEntity
  8
4
100
AcDbLine
 10
271.3783307078311
 20
1588.798546292299
 30
0.0
 11
271.3783307078311
 21
1610.737856521505
 31
0.0
  0
ARC
  5
3EE
330
17
100
AcDbEntity
  8
4
100
AcDbCircle
 10
264.2537095831103
 20
1591.54096007095
 30
0.0
 40
3.875378875279244
100
AcDbArc
 50
134.9559267627458
 51
225.0440732372542
  0
ARC
  5
3EF
330
17
100
AcDbEntity
  8
4
100
AcDbCircle
 10
274.1740748430084
 20
1599.768201406902
 30
0.0
 40
13.7957441351769
100
AcDbArc
 50
156.5734024913727
 51
203.4265975086273
  0
LINE
  5
3F0
330
17
100
AcDbEntity
  8
4
100
AcDbLine
 10
260.3783307078311
 20
1607.995442742854
 30
0.0
 11
260.3783307078311
 21
1591.54096007095
 31
0.0
  0
ARC
  5
3F1
330
17
100
AcDbEntity
  8
4
100
AcDbCircle
 10
264.2537095831103
 20
1607.995442742854
 30
0.0
 40
3.875378875279264
100
AcDbArc
 50
134.9559267627458
 51
225.0440732372542
  0
LINE
  5
3F2
330
17
100
AcDbEntity
  8
4
100
AcDbLine
 10
271.3783307078311
 20
1610.737856521505
 30
0.0
 11
261.5155116184578
 21
1610.737856521505
 31
0.0
  0
LINE
  5
3F3
330
17
100
AcDbEntity
  8
4
100
AcDbLine
 10
261.5155116184578
 20
1605.253028964204
 30
0.0
 11
268.3783307078311
 21
1605.253028964204
 31
0.0
  0
LINE
  5
3F4
330
17
100
AcDbEntity
  8
4
100
AcDbLine
 10
261.5155116184578
 20
1594.283373849601
 30
0.0
 11
268.3783307078311
 21
1594.283373849601
 31
0.0
  0
LINE
  5
3F5
330
17
100
AcDbEntity
  8
4
100
AcDbLine
 10
261.5155116184578
 20
1588.798546292299
 30
0.0
 11
271.3783307078311
 21
1588.798546292299
 31
0.0
  0
LINE
  5
3F6
330
17
100
AcDbEntity
  8
4
100
AcDbLine
 10
287.1783307078313
 20
1582.768201406902
 30
0.0
 11
272.3783307078311
 21
1582.768201406903
 31
0.0
  0
LINE
  5
3F7
330
17
100
AcDbEntity
  8
4
100
AcDbLine
 10
290.1783307078313
 20
1553.268201406902
 30
0.0
 11
290.1783307078313
 21
1581.268201406902
 31
0.0
  0
ARC
  5
3F8
330
17
100
AcDbEntity
  8
4
100
AcDbCircle
 10
264.2537095831103
 20
1640.290696814803
 30
0.0
 40
3.875378875279244
100
AcDbArc
 50
134.9559267627458
 51
225.0440732372542
  0
LINE
  5
3F9
330
17
100
AcDbEntity
  8
4
100
AcDbLine
 10
271.3783307078311
 20
1637.548283036152
 30
0.0
 11
271.3783307078311
 21
1659.487593265358
 31
0.0
  0
LINE
  5
3FA
330
17
100
AcDbEntity
  8
4
100
AcDbLine
 10
268.3783307078311
 20
1637.548283036152
 30
0.0
 11
268.3783307078311
 21
1659.487593265358
 31
0.0
  0
LINE
  5
3FB
330
17
100
AcDbEntity
  8
L-CENTER
 48
2.0
100
AcDbLine
 10
253.3581887078312
 20
1746.01846466305
 30
0.0
 11
325.0946387078316
 21
1746.01846466305
 31
0.0
  0
LINE
  5
3FC
330
17
100
AcDbEntity
  8
L-CENTER
 48
2.0
100
AcDbLine
 10
253.3581887078312
 20
1599.768201406902
 30
0.0
 11
325.0946387078311
 21
1599.768201406902
 31
0.0
  0
LINE
  5
3FD
330
17
100
AcDbEntity
  8
L-CENTER
 48
2.0
100
AcDbLine
 10
253.3581887078312
 20
1648.517938150755
 30
0.0
 11
325.0946387078316
 21
1648.517938150755
 31
0.0
  0
LINE
  5
3FE
330
17
100
AcDbEntity
  8
4
100
AcDbLine
 10
287.1783307078313
 20
1581.268201406902
 30
0.0
 11
287.1783307078313
 21
1813.268201406902
 31
0.0
  0
LINE
  5
3FF
330
17
100
AcDbEntity
  8
4
100
AcDbLine
 10
271.3783307078311
 20
1583.768201406903
 30
0.0
 11
271.3783307078311
 21
1810.768201406902
 31
0.0
  0
LINE
  5
400
330
17
100
AcDbEntity
  8
4
100
AcDbLine
 10
268.3783307078311
 20
1756.988119777653
 30
0.0
 11
268.3783307078311
 21
1735.048809548447
 31
0.0
  0
LINE
  5
401
330
17
100
AcDbEntity
  8
4
100
AcDbLine
 10
260.3783307078311
 20
1737.791223327098
 30
0.0
 11
260.3783307078311
 21
1754.245705999002
 31
0.0
  0
LINE
  5
402
330
17
100
AcDbEntity
  8
4
100
AcDbLine
 10
271.3783307078311
 20
1756.988119777653
 30
0.0
 11
271.3783307078311
 21
1735.048809548447
 31
0.0
  0
ARC
  5
403
330
17
100
AcDbEntity
  8
4
100
AcDbCircle
 10
264.2537095831103
 20
1754.245705999002
 30
0.0
 40
3.875378875279244
100
AcDbArc
 50
134.9559267627458
 51
225.0440732372542
  0
ARC
  5
404
330
17
100
AcDbEntity
  8
4
100
AcDbCircle
 10
319.6783307078313
 20
1517.268201406902
 30
0.0
 40
10.0
100
AcDbArc
 50
180.0
 51
270.0
  0
ARC
  5
407
330
17
100
AcDbEntity
  8
4
100
AcDbCircle
 10
326.0972747078313
 20
803.5871267020054
 30
0.0
 40
5.000052
100
AcDbArc
 50
105.0038550000012
 51
164.9961419999994
  0
LINE
  5
409
330
17
100
AcDbEntity
  8
4
100
AcDbLine
 10
309.6783307078313
 20
1553.268201406902
 30
0.0
 11
309.6783307078313
 21
1517.268201406902
 31
0.0
  0
ARC
  5
40A
330
17
100
AcDbEntity
  8
4
100
AcDbCircle
 10
583.6783307078317
 20
-157.4939292979946
 30
0.0
 40
999.9999660000001
100
AcDbArc
 50
74.99662500000004
 51
105.00351
  0
LINE
  5
40D
330
17
100
AcDbEntity
  8
4
100
AcDbLine
 10
877.1783307078317
 20
1816.268201406902
 30
0.0
 11
290.1783307078313
 21
1816.268201406902
 31
0.0
  0
LINE
  5
40E
330
17
100
AcDbEntity
  8
4
100
AcDbLine
 10
877.1783307078317
 20
1553.268201406902
 30
0.0
 11
290.1783307078313
 21
1553.268201406902
 31
0.0
  0
LINE
  5
40F
330
17
100
AcDbEntity
  8
4
100
AcDbLine
 10
319.6783307078313
 20
1507.268201406902
 30
0.0
 11
483.6783307078317
 21
1507.268201406902
 31
0.0
  0
LINE
  5
410
330
17
100
AcDbEntity
  8
L-CENTER
 48
2.0
100
AcDbLine
 10
1046.1337633712
 20
1697.268201406902
 30
0.0
 11
253.3581887078312
 21
1697.268201406902
 31
0.0
  0
LINE
  5
411
330
17
100
AcDbEntity
  8
L-CENTER
 48
2.0
100
AcDbLine
 10
430.978330707831
 20
1547.268201406902
 30
0.0
 11
376.3783307078306
 21
1547.268201406902
 31
0.0
  0
LINE
  5
412
330
17
100
AcDbEntity
  8
L-CENTER
 48
2.0
100
AcDbLine
 10
430.9783307078328
 20
1847.268201406902
 30
0.0
 11
376.3783307078324
 21
1847.268201406902
 31
0.0
  0
LINE
  5
413
330
17
100
AcDbEntity
  8
4
100
AcDbLine
 10
475.7305657125021
 20
1887.268201406902
 30
0.0
 11
319.6783307078313
 21
1887.268201406902
 31
0.0
  0
LINE
  5
414
330
17
100
AcDbEntity
  8
4
100
AcDbLine
 10
880.1783307078317
 20
1813.268201406903
 30
0.0
 11
287.1783307078313
 21
1813.268201406902
 31
0.0
  0
LINE
  5
415
330
17
100
AcDbEntity
  8
4
100
AcDbLine
 10
880.1783307078308
 20
1581.268201406902
 30
0.0
 11
287.1783307078313
 21
1581.268201406902
 31
0.0
  0
LINE
  5
416
330
17
100
AcDbEntity
  8
4
100
AcDbLine
 10
289.1783307078308
 20
1843.568201406903
 30
0.0
 11
878.1783307078308
 21
1843.568201406903
 31
0.0
  0
LINE
  5
417
330
17
100
AcDbEntity
  8
4
100
AcDbLine
 10
288.1783307078308
 20
1816.568201406903
 30
0.0
 11
879.1783307078317
 21
1816.568201406903
 31
0.0
  0
LINE
  5
418
330
17
100
AcDbEntity
  8
4
100
AcDbLine
 10
341.3926164221148
 20
1843.568201406903
 30
0.0
 11
467.3705200618647
 21
1861.383258487272
 31
0.0
  0
LINE
  5
419
330
17
100
AcDbEntity
  8
4
100
AcDbLine
 10
327.1090451542791
 20
1843.568201406903
 30
0.0
 11
468.3982886983781
 21
1863.548498473744
 31
0.0
  0
LINE
  5
41A
330
17
100
AcDbEntity
  8
4
100
AcDbLine
 10
403.6783307078317
 20
1856.568201406903
 30
0.0
 11
353.6783307078313
 21
1856.568201406903
 31
0.0
  0
LINE
  5
41B
330
17
100
AcDbEntity
  8
4
100
AcDbLine
 10
339.5478959252227
 20
1553.268201406902
 30
0.0
 11
467.3916934121821
 21
1533.467478563804
 31
0.0
  0
LINE
  5
41C
330
17
100
AcDbEntity
  8
4
100
AcDbLine
 10
326.4808881624831
 20
1553.268201406902
 30
0.0
 11
469.246922126697
 21
1531.156290422547
 31
0.0
  0
LINE
  5
41F
330
17
100
AcDbEntity
  8
4
100
AcDbLine
 10
1033.678330707832
 20
281.5060667020055
 30
0.0
 11
1032.678328707831
 21
282.5060687020055
 31
0.0
  0
LINE
  5
421
330
17
100
AcDbEntity
  8
4
100
AcDbLine
 10
1032.678328707831
 20
219.5060687020055
 30
0.0
 11
1033.678330707832
 21
220.5060707020054
 31
0.0
  0
LINE
  5
423
330
17
100
AcDbEntity
  8
4
100
AcDbLine
 10
1032.678328707831
 20
219.5060687020055
 30
0.0
 11
1032.678328707831
 21
282.5060687020055
 31
0.0
  0
LINE
  5
424
330
17
100
AcDbEntity
  8
4
100
AcDbLine
 10
1033.678330707832
 20
288.5060687020055
 30
0.0
 11
1033.678330707832
 21
220.5060707020054
 31
0.0
  0
ARC
  5
425
330
17
100
AcDbEntity
  8
4
100
AcDbCircle
 10
903.2028518325519
 20
343.6705660379578
 30
0.0
 40
3.875378875279244
100
AcDbArc
 50
314.9559267627428
 51
45.04407323725719
  0
ARC
  5
426
330
17
100
AcDbEntity
  8
4
100
AcDbCircle
 10
895.0782347078316
 20
364.5060707020054
 30
0.0
 40
1.000002
100
AcDbArc
 50
0.0
 51
90.0
  0
LINE
  5
427
330
17
100
AcDbEntity
  8
4
100
AcDbLine
 10
905.9410497972044
 20
346.4129798166084
 30
0.0
 11
896.0782307078312
 21
346.4129798166084
 31
0.0
  0
LINE
  5
428
330
17
100
AcDbEntity
  8
4
100
AcDbLine
 10
905.9410497972044
 20
340.9281522593071
 30
0.0
 11
899.0782307078312
 21
340.9281522593071
 31
0.0
  0
LINE
  5
429
330
17
100
AcDbEntity
  8
4
100
AcDbLine
 10
923.6783327078315
 20
288.5060687020055
 30
0.0
 11
923.6783327078315
 21
282.5060687020055
 31
0.0
  0
ARC
  5
42A
330
17
100
AcDbEntity
  8
4
100
AcDbCircle
 10
903.2028518325519
 20
327.2160833660535
 30
0.0
 40
3.875378875279264
100
AcDbArc
 50
314.955926762744
 51
45.04407323725719
  0
LINE
  5
42B
330
17
100
AcDbEntity
  8
4
100
AcDbLine
 10
897.0782307078312
 20
296.0060687020055
 30
0.0
 11
896.0782307078312
 21
296.0060687020055
 31
0.0
  0
LINE
  5
42C
330
17
100
AcDbEntity
  8
4
100
AcDbLine
 10
913.6783307078317
 20
283.5060707020054
 30
0.0
 11
897.0782327078309
 21
283.5060707020054
 31
0.0
  0
LINE
  5
42D
330
17
100
AcDbEntity
  8
4
100
AcDbLine
 10
896.0782307078312
 20
324.4736695874028
 30
0.0
 11
905.9410497972044
 21
324.4736695874028
 31
0.0
  0
LINE
  5
42E
330
17
100
AcDbEntity
  8
4
100
AcDbLine
 10
905.9410497972044
 20
329.9584971447041
 30
0.0
 11
899.0782307078312
 21
329.9584971447041
 31
0.0
  0
ARC
  5
42F
330
17
100
AcDbEntity
  8
4
100
AcDbCircle
 10
893.2824865726539
 20
335.4433247020054
 30
0.0
 40
13.7957441351769
100
AcDbArc
 50
336.5734024913738
 51
23.42659750862626
  0
LINE
  5
430
330
17
100
AcDbEntity
  8
4
100
AcDbLine
 10
899.0782307078312
 20
346.4129798166084
 30
0.0
 11
899.0782307078312
 21
324.4736695874028
 31
0.0
  0
LINE
  5
431
330
17
100
AcDbEntity
  8
4
100
AcDbLine
 10
907.0782307078312
 20
327.2160833660535
 30
0.0
 11
907.0782307078312
 21
343.6705660379578
 31
0.0
  0
LINE
  5
432
330
17
100
AcDbEntity
  8
4
100
AcDbLine
 10
896.0782307078312
 20
346.4129798166084
 30
0.0
 11
896.0782307078312
 21
324.4736695874028
 31
0.0
  0
ARC
  5
433
330
17
100
AcDbEntity
  8
4
100
AcDbCircle
 10
893.2824865726539
 20
251.0060687020055
 30
0.0
 40
13.7957441351769
100
AcDbArc
 50
336.5734024913738
 51
23.42659750862626
  0
LINE
  5
434
330
17
100
AcDbEntity
  8
4
100
AcDbLine
 10
907.0782307078312
 20
242.7788273660535
 30
0.0
 11
907.0782307078312
 21
259.2333100379578
 31
0.0
  0
ARC
  5
435
330
17
100
AcDbEntity
  8
4
100
AcDbCircle
 10
903.2028518325519
 20
242.7788273660535
 30
0.0
 40
3.875378875279264
100
AcDbArc
 50
314.955926762744
 51
45.04407323725601
  0
ARC
  5
436
330
17
100
AcDbEntity
  8
4
100
AcDbCircle
 10
903.2028518325519
 20
259.2333100379578
 30
0.0
 40
3.875378875279244
100
AcDbArc
 50
314.955926762744
 51
45.04407323725601
  0
LINE
  5
437
330
17
100
AcDbEntity
  8
4
100
AcDbLine
 10
899.0782307078312
 20
261.9757238166085
 30
0.0
 11
899.0782307078312
 21
240.0364135874029
 31
0.0
  0
LINE
  5
438
330
17
100
AcDbEntity
  8
4
100
AcDbLine
 10
896.0782307078312
 20
261.9757238166085
 30
0.0
 11
896.0782307078312
 21
240.0364135874029
 31
0.0
  0
LINE
  5
439
330
17
100
AcDbEntity
  8
4
100
AcDbLine
 10
896.0782307078312
 20
240.0364135874029
 30
0.0
 11
905.9410497972044
 21
240.0364135874029
 31
0.0
  0
LINE
  5
43A
330
17
100
AcDbEntity
  8
4
100
AcDbLine
 10
905.9410497972044
 20
245.5212411447042
 30
0.0
 11
899.0782307078312
 21
245.5212411447042
 31
0.0
  0
LINE
  5
43B
330
17
100
AcDbEntity
  8
4
100
AcDbLine
 10
905.9410497972044
 20
261.9757238166085
 30
0.0
 11
896.0782307078312
 21
261.9757238166085
 31
0.0
  0
LINE
  5
43C
330
17
100
AcDbEntity
  8
4
100
AcDbLine
 10
905.9410497972044
 20
256.4908962593072
 30
0.0
 11
899.0782307078312
 21
256.4908962593072
 31
0.0
  0
ARC
  5
43D
330
17
100
AcDbEntity
  8
4
100
AcDbCircle
 10
903.2028518325519
 20
174.7960540379578
 30
0.0
 40
3.875378875279244
100
AcDbArc
 50
314.955926762744
 51
45.04407323725601
  0
LINE
  5
43E
330
17
100
AcDbEntity
  8
4
100
AcDbLine
 10
897.0782307078312
 20
206.0060687020053
 30
0.0
 11
896.0782307078312
 21
206.0060687020053
 31
0.0
  0
LINE
  5
43F
330
17
100
AcDbEntity
  8
4
100
AcDbLine
 10
913.6783307078317
 20
218.5060667020055
 30
0.0
 11
897.0782327078309
 21
218.5060667020055
 31
0.0
  0
LINE
  5
440
330
17
100
AcDbEntity
  8
4
100
AcDbLine
 10
905.9410497972044
 20
177.5384678166084
 30
0.0
 11
896.0782307078312
 21
177.5384678166084
 31
0.0
  0
LINE
  5
441
330
17
100
AcDbEntity
  8
4
100
AcDbLine
 10
905.9410497972044
 20
172.0536402593071
 30
0.0
 11
899.0782307078312
 21
172.0536402593071
 31
0.0
  0
LINE
  5
442
330
17
100
AcDbEntity
  8
4
100
AcDbLine
 10
897.0782307078312
 20
240.0364135874028
 30
0.0
 11
897.0782307078312
 21
206.0060687020053
 31
0.0
  0
LINE
  5
443
330
17
100
AcDbEntity
  8
4
100
AcDbLine
 10
913.6783307078317
 20
283.5060707020054
 30
0.0
 11
913.6783307078317
 21
218.5060667020055
 31
0.0
  0
LINE
  5
444
330
17
100
AcDbEntity
  8
4
100
AcDbLine
 10
897.0782307078312
 20
296.0060687020056
 30
0.0
 11
897.0782307078312
 21
261.9757238166085
 31
0.0
  0
LINE
  5
445
330
17
100
AcDbEntity
  8
4
100
AcDbLine
 10
1033.678330707832
 20
288.5060687020055
 30
0.0
 11
923.6783327078315
 21
288.5060687020055
 31
0.0
  0
LINE
  5
446
330
17
100
AcDbEntity
  8
4
100
AcDbLine
 10
913.6783307078317
 20
282.5060687020055
 30
0.0
 11
1032.678328707831
 21
282.5060687020055
 31
0.0
  0
LINE
  5
447
330
17
100
AcDbEntity
  8
4
100
AcDbLine
 10
913.6783307078317
 20
219.5060687020055
 30
0.0
 11
1032.678328707831
 21
219.5060687020055
 31
0.0
  0
ARC
  5
451
330
17
100
AcDbEntity
  8
4
100
AcDbCircle
 10
903.2028518325519
 20
158.3415713660535
 30
0.0
 40
3.875378875279264
100
AcDbArc
 50
314.955926762744
 51
45.04407323725601
  0
ARC
  5
452
330
17
100
AcDbEntity
  8
4
100
AcDbCircle
 10
895.0782347078316
 20
137.5060667020055
 30
0.0
 40
1.000002
100
AcDbArc
 50
270.0
 51
0.0
  0
LINE
  5
453
330
17
100
AcDbEntity
  8
4
100
AcDbLine
 10
896.0782307078312
 20
155.5991575874028
 30
0.0
 11
905.9410497972044
 21
155.5991575874028
 31
0.0
  0
LINE
  5
454
330
17
100
AcDbEntity
  8
4
100
AcDbLine
 10
905.9410497972044
 20
161.0839851447041
 30
0.0
 11
899.0782307078312
 21
161.0839851447041
 31
0.0
  0
TEXT
  5
456
330
17
100
AcDbEntity
  8
3
100
AcDbText
 10
1197.405839477148
 20
44.98378559837067
 30
0.0
 40
21.86125196538633
  1
LA10-05
  7
KANJI
100
AcDbText
  0
LINE
  5
457
330
17
100
AcDbEntity
  8
4
100
AcDbLine
 10
896.0782307078312
 20
364.5060707020054
 30
0.0
 11
896.0782307078312
 21
137.5060667020055
 31
0.0
  0
LINE
  5
458
330
17
100
AcDbEntity
  8
4
100
AcDbLine
 10
875.6783327078315
 20
365.5060667020055
 30
0.0
 11
875.6783327078315
 21
136.5060707020054
 31
0.0
  0
ARC
  5
459
330
17
100
AcDbEntity
  8
4
100
AcDbCircle
 10
893.2824865726539
 20
166.5688127020054
 30
0.0
 40
13.7957441351769
100
AcDbArc
 50
336.5734024913738
 51
23.42659750862626
  0
LINE
  5
45A
330
17
100
AcDbEntity
  8
4
100
AcDbLine
 10
899.0782307078312
 20
177.5384678166084
 30
0.0
 11
899.0782307078312
 21
155.5991575874028
 31
0.0
  0
LINE
  5
45B
330
17
100
AcDbEntity
  8
4
100
AcDbLine
 10
907.0782307078312
 20
158.3415713660535
 30
0.0
 11
907.0782307078312
 21
174.7960540379578
 31
0.0
  0
LINE
  5
45C
330
17
100
AcDbEntity
  8
4
100
AcDbLine
 10
896.0782307078312
 20
177.5384678166084
 30
0.0
 11
896.0782307078312
 21
155.5991575874028
 31
0.0
  0
ARC
  5
45D
330
17
100
AcDbEntity
  8
4
100
AcDbCircle
 10
835.6465907078314
 20
608.0724767020054
 30
0.0
 40
3.999918
100
AcDbArc
 50
264.0019730000074
 51
13.83946400000168
  0
ARC
  5
45E
330
17
100
AcDbEntity
  8
4
100
AcDbCircle
 10
835.6465907078314
 20
483.9396647020055
 30
0.0
 40
3.999918
100
AcDbArc
 50
346.1605359999984
 51
95.99802699999265
  0
ARC
  5
45F
330
17
100
AcDbEntity
  8
4
100
AcDbCircle
 10
694.195906707831
 20
472.0924967020055
 30
0.0
 40
1.000044
100
AcDbArc
 50
95.99728099997981
 51
171.5058919999985
  0
ARC
  5
460
330
17
100
AcDbEntity
  8
4
100
AcDbCircle
 10
702.0201287078312
 20
463.8652007020055
 30
0.0
 40
10.000008
100
AcDbArc
 50
95.99926800000128
 51
170.7315380000005
  0
ARC
  5
461
330
17
100
AcDbEntity
  8
4
100
AcDbCircle
 10
680.2291127078311
 20
449.4552887020054
 30
0.0
 40
1.999902
100
AcDbArc
 50
281.1851209999978
 51
348.8148790000027
  0
ARC
  5
462
330
17
100
AcDbEntity
  8
4
100
AcDbCircle
 10
665.819200707831
 20
427.6642727020055
 30
0.0
 40
10.000008
100
AcDbArc
 50
99.26845599999626
 51
174.000732
  0
ARC
  5
463
330
17
100
AcDbEntity
  8
4
100
AcDbCircle
 10
686.044054707831
 20
443.6403467020054
 30
0.0
 40
1.999986
100
AcDbArc
 50
281.8627300000047
 51
348.1372979999981
  0
ARC
  5
464
330
17
100
AcDbEntity
  8
4
100
AcDbCircle
 10
191.6783327078315
 20
546.0060707020054
 30
0.0
 40
500.00001
100
AcDbArc
 50
348.82116
 51
0.0
  0
ARC
  5
465
330
17
100
AcDbEntity
  8
4
100
AcDbCircle
 10
198.678328707831
 20
546.0060707020054
 30
0.0
 40
499.99995
100
AcDbArc
 50
348.138455
 51
0.0
  0
LINE
  5
466
330
17
100
AcDbEntity
  8
4
100
AcDbLine
 10
700.9749587078318
 20
473.8105127020053
 30
0.0
 11
835.2286247078314
 21
487.9176887020055
 31
0.0
  0
ARC
  5
467
330
17
100
AcDbEntity
  8
4
100
AcDbCircle
 10
841.2593867078308
 20
288.4250147020055
 30
0.0
 40
5.000052
100
AcDbArc
 50
285.0038550000066
 51
344.996145
  0
ARC
  5
468
330
17
100
AcDbEntity
  8
4
100
AcDbCircle
 10
645.7447367078316
 20
294.0378047020054
 30
0.0
 40
3.999918
100
AcDbArc
 50
174.0019730000007
 51
283.8394639999985
  0
ARC
  5
469
330
17
100
AcDbEntity
  8
4
100
AcDbCircle
 10
761.178328707831
 20
251.0060687020055
 30
0.0
 40
72.499998
100
AcDbArc
 50
180.0001930000602
 51
0.0
  0
LINE
  5
46A
330
17
100
AcDbEntity
  8
4
100
AcDbLine
 10
655.8741287078315
 20
428.7094367020054
 30
0.0
 11
641.7667067078314
 21
294.4557767020056
 31
0.0
  0
ARC
  5
46B
330
17
100
AcDbEntity
  8
4
100
AcDbCircle
 10
501.5374607078315
 20
427.6642727020055
 30
0.0
 40
10.000008
100
AcDbArc
 50
5.999267999999993
 51
80.73153800000188
  0
ARC
  5
46C
330
17
100
AcDbEntity
  8
4
100
AcDbCircle
 10
487.1275487078315
 20
449.4552887020054
 30
0.0
 40
1.999902
100
AcDbArc
 50
191.1851209999972
 51
258.8148790000022
  0
ARC
  5
46D
330
17
100
AcDbEntity
  8
4
100
AcDbCircle
 10
473.1607547078315
 20
472.0924967020055
 30
0.0
 40
1.000044
100
AcDbArc
 50
8.4940989999993
 51
84.0027190000202
  0
ARC
  5
46E
330
17
100
AcDbEntity
  8
4
100
AcDbCircle
 10
465.3365327078313
 20
463.8652007020055
 30
0.0
 40
10.000008
100
AcDbArc
 50
9.26846199999955
 51
84.00073199999873
  0
ARC
  5
46F
330
17
100
AcDbEntity
  8
4
100
AcDbCircle
 10
481.3126067078315
 20
443.6403467020054
 30
0.0
 40
1.999986
100
AcDbArc
 50
191.8627020000019
 51
258.1372979999981
  0
ARC
  5
470
330
17
100
AcDbEntity
  8
4
100
AcDbCircle
 10
968.6783327078315
 20
546.0060707020054
 30
0.0
 40
499.9999800000001
100
AcDbArc
 50
180.0001399980527
 51
191.861715
  0
ARC
  5
471
330
17
100
AcDbEntity
  8
4
100
AcDbCircle
 10
975.678328707831
 20
546.0060707020054
 30
0.0
 40
500.000028
100
AcDbArc
 50
180.0001399980527
 51
191.17901
  0
ARC
  5
472
330
17
100
AcDbEntity
  8
4
100
AcDbCircle
 10
521.6119247078318
 20
294.0378047020054
 30
0.0
 40
3.999918
100
AcDbArc
 50
256.160535999988
 51
5.998027000000934
  0
LINE
  5
473
330
17
100
AcDbEntity
  8
4
100
AcDbLine
 10
583.6783307078317
 20
239.0060687020055
 30
0.0
 11
568.0897067078317
 21
230.0060687020055
 31
0.0
  0
LINE
  5
474
330
17
100
AcDbEntity
  8
4
100
AcDbLine
 10
599.2667087078312
 20
230.0060687020055
 30
0.0
 11
583.6783307078317
 21
239.0060687020055
 31
0.0
  0
LINE
  5
475
330
17
100
AcDbEntity
  8
4
100
AcDbLine
 10
568.0897067078317
 20
212.0060687020055
 30
0.0
 11
583.6783307078317
 21
203.0060687020055
 31
0.0
  0
LINE
  5
476
330
17
100
AcDbEntity
  8
4
100
AcDbLine
 10
583.6783307078317
 20
203.0060687020055
 30
0.0
 11
599.2667087078312
 21
212.0060687020055
 31
0.0
  0
CIRCLE
  5
477
330
17
100
AcDbEntity
  8
4
100
AcDbCircle
 10
583.6783307078317
 20
221.0060687020055
 30
0.0
 40
18.0
  0
CIRCLE
  5
478
330
17
100
AcDbEntity
  8
4
100
AcDbCircle
 10
583.6783307078317
 20
221.0060687020055
 30
0.0
 40
19.999998
  0
LINE
  5
479
330
17
100
AcDbEntity
  8
4
100
AcDbLine
 10
568.0897067078317
 20
212.0060687020055
 30
0.0
 11
568.0897067078317
 21
230.0060687020055
 31
0.0
  0
LINE
  5
47A
330
17
100
AcDbEntity
  8
4
100
AcDbLine
 10
599.2667087078312
 20
212.0060687020055
 30
0.0
 11
599.2667087078312
 21
230.0060687020055
 31
0.0
  0
LINE
  5
47B
330
17
100
AcDbEntity
  8
L-CENTER
 48
2.0
100
AcDbLine
 10
555.1614707974481
 20
221.0060687020055
 30
0.0
 11
612.1951906182135
 21
221.0060687020055
 31
0.0
  0
LINE
  5
47C
330
17
100
AcDbEntity
  8
4
100
AcDbLine
 10
511.4825267078309
 20
428.7094367020054
 30
0.0
 11
525.5899487078318
 21
294.4557767020056
 31
0.0
  0
ARC
  5
47D
330
17
100
AcDbEntity
  8
4
100
AcDbCircle
 10
583.6783307078317
 20
938.0060687020055
 30
0.0
 40
500.00001
100
AcDbArc
 50
258.821015
 51
281.179322
  0
ARC
  5
47E
330
17
100
AcDbEntity
  8
4
100
AcDbCircle
 10
583.6783307078317
 20
931.0060667020052
 30
0.0
 40
500.000058
100
AcDbArc
 50
258.1382009999999
 51
281.8620809999999
  0
ARC
  5
47F
330
17
100
AcDbEntity
  8
4
100
AcDbCircle
 10
863.2413167078307
 20
131.5060667020055
 30
0.0
 40
4.999956
100
AcDbArc
 50
90.0
 51
176.9686880000001
  0
LINE
  5
480
330
17
100
AcDbEntity
  8
4
100
AcDbLine
 10
857.6783327078315
 20
136.0060667020055
 30
0.0
 11
857.6783327078315
 21
81.00607070200545
 31
0.0
  0
LINE
  5
482
330
17
100
AcDbEntity
  8
4
100
AcDbLine
 10
776.6783327078315
 20
81.00607070200545
 30
0.0
 11
776.6783327078315
 21
136.0060667020055
 31
0.0
  0
LINE
  5
483
330
17
100
AcDbEntity
  8
4
100
AcDbLine
 10
750.678328707831
 20
81.00607070200545
 30
0.0
 11
750.678328707831
 21
136.0060667020055
 31
0.0
  0
LWPOLYLINE
  5
486
330
17
100
AcDbEntity
  8
4
 62
     3
100
AcDbPolyline
 90
       30
 70
     0
 43
0.0
 10
716.0574347078314
 20
135.7292207020055
 10
717.2250887078312
 20
134.7606287020054
 10
718.3638887078309
 20
133.7905187020056
 10
719.4449627078316
 20
132.8173727020055
 10
722.0532467078315
 20
129.8644967020055
 10
722.6148287078308
 20
128.8640027020055
 10
722.9743847078312
 20
127.8528707020055
 10
723.1030607078314
 20
126.8295827020055
 10
722.9160467078314
 20
125.5243607020054
 10
722.4002447078315
 20
124.1968427020054
 10
721.6371527078313
 20
122.8463447020056
 10
718.6788827078312
 20
118.6500167020055
 10
717.7414067078312
 20
117.2006507020054
 10
716.9640407078309
 20
115.7248367020054
 10
716.4282707078314
 20
114.2218787020055
 10
716.1933827078315
 20
112.6811807020055
 10
716.2373027078315
 20
111.1185767020054
 10
716.5111127078312
 20
109.5403967020054
 10
718.2226967078318
 20
104.7757787020055
 10
720.2422367078311
 20
100.0990067020055
 10
720.7555667078309
 20
98.58916070200553
 10
721.1074367078313
 20
97.11440870200545
 10
721.2489347078313
 20
95.68108070200549
 10
721.0468547078312
 20
93.81221270200547
 10
720.4216727078315
 20
92.02127270200549
 10
719.4262727078317
 20
90.29852270200536
 10
714.7476587078313
 20
85.44199670200555
 10
712.8002747078312
 20
83.89459070200542
 10
710.7471167078315
 20
82.36666670200543
 10
708.641068707831
 20
80.84848070200542
  0
ARC
  5
487
330
17
100
AcDbEntity
  8
4
100
AcDbCircle
 10
670.6783307078317
 20
98.00606870200545
 30
0.0
 40
3.0
100
AcDbArc
 50
0.0
 51
90.0
  0
LINE
  5
488
330
17
100
AcDbEntity
  8
4
100
AcDbLine
 10
857.6783327078315
 20
136.0060667020055
 30
0.0
 11
673.6783307078317
 21
136.0060667020055
 31
0.0
  0
LINE
  5
489
330
17
100
AcDbEntity
  8
4
100
AcDbLine
 10
857.6783327078315
 20
81.00607070200545
 30
0.0
 11
673.6783307078317
 21
81.00607070200545
 31
0.0
  0
LINE
  5
490
330
17
100
AcDbEntity
  8
4
 62
     3
100
AcDbLine
 10
583.6783307078317
 20
127.1607707020055
 30
0.0
 11
591.3385847078312
 21
131.5834187020055
 31
0.0
  0
LINE
  5
491
330
17
100
AcDbEntity
  8
4
 62
     3
100
AcDbLine
 10
576.0180767078314
 20
131.5834187020055
 30
0.0
 11
583.6783307078317
 21
127.1607707020055
 31
0.0
  0
CIRCLE
  5
492
330
17
100
AcDbEntity
  8
4
100
AcDbCircle
 10
583.6783307078317
 20
136.0060667020055
 30
0.0
 40
11.000002
  0
CIRCLE
  5
493
330
17
100
AcDbEntity
  8
2
100
AcDbCircle
 10
583.6783307078317
 20
136.0060667020055
 30
0.0
 40
10.000002
  0
LINE
  5
494
330
17
100
AcDbEntity
  8
4
 62
     3
100
AcDbLine
 10
583.6783307078317
 20
144.8513687020054
 30
0.0
 11
591.3385847078312
 21
140.4287207020054
 31
0.0
  0
LINE
  5
495
330
17
100
AcDbEntity
  8
4
 62
     3
100
AcDbLine
 10
583.6783307078317
 20
144.8513687020054
 30
0.0
 11
576.0180767078314
 21
140.4287207020054
 31
0.0
  0
LINE
  5
496
330
17
100
AcDbEntity
  8
4
 62
     3
100
AcDbLine
 10
576.0180767078314
 20
140.4287207020054
 30
0.0
 11
576.0180767078314
 21
131.5834187020055
 31
0.0
  0
LINE
  5
497
330
17
100
AcDbEntity
  8
4
 62
     3
100
AcDbLine
 10
591.3385847078312
 20
131.5834187020055
 30
0.0
 11
591.3385847078312
 21
140.4287207020054
 31
0.0
  0
CIRCLE
  5
498
330
17
100
AcDbEntity
  8
4
100
AcDbCircle
 10
583.6783307078317
 20
136.0060667020055
 30
0.0
 40
15.0
  0
LINE
  5
499
330
17
100
AcDbEntity
  8
L-CENTER
 48
2.0
100
AcDbLine
 10
559.0743287078317
 20
136.0060667020055
 30
0.0
 11
608.2823327078308
 21
136.0060667020055
 31
0.0
  0
ARC
  5
49B
330
17
100
AcDbEntity
  8
4
100
AcDbCircle
 10
496.6783307078317
 20
98.00606870200545
 30
0.0
 40
3.0
100
AcDbArc
 50
90.0
 51
180.0
  0
LINE
  5
49F
330
17
100
AcDbEntity
  8
4
100
AcDbLine
 10
496.6783307078317
 20
101.0060687020055
 30
0.0
 11
670.6783307078317
 21
101.0060687020055
 31
0.0
  0
LINE
  5
4A1
330
17
100
AcDbEntity
  8
4
100
AcDbLine
 10
833.6783327078315
 20
251.0060687020055
 30
0.0
 11
833.6783327078315
 21
136.0060667020055
 31
0.0
  0
LINE
  5
4A2
330
17
100
AcDbEntity
  8
4
100
AcDbLine
 10
688.6783307078317
 20
136.0060667020055
 30
0.0
 11
688.6783307078317
 21
251.0060687020055
 31
0.0
  0
LINE
  5
4A3
330
17
100
AcDbEntity
  8
4
100
AcDbLine
 10
673.6783307078317
 20
251.0060687020055
 30
0.0
 11
673.6783307078317
 21
81.00607070200545
 31
0.0
  0
LINE
  5
4A4
330
17
100
AcDbEntity
  8
4
100
AcDbLine
 10
478.6783307078317
 20
136.0060667020055
 30
0.0
 11
478.6783307078317
 21
251.0060687020055
 31
0.0
  0
LINE
  5
4A5
330
17
100
AcDbEntity
  8
4
100
AcDbLine
 10
493.6783307078317
 20
251.0060687020055
 30
0.0
 11
493.6783307078317
 21
81.00607070200545
 31
0.0
  0
LINE
  5
4A6
330
17
100
AcDbEntity
  8
L-CENTER
 48
2.0
100
AcDbLine
 10
403.6783307078317
 20
156.0060667020055
 30
0.0
 11
403.6783307078317
 21
61.00607070200545
 31
0.0
  0
LINE
  5
4A7
330
17
100
AcDbEntity
  8
4
100
AcDbLine
 10
568.6783307078317
 20
207.7773107020055
 30
0.0
 11
568.6783307078317
 21
136.0060667020055
 31
0.0
  0
LINE
  5
4A8
330
17
100
AcDbEntity
  8
4
100
AcDbLine
 10
598.6783307078317
 20
207.7773107020055
 30
0.0
 11
598.6783307078317
 21
136.0060667020055
 31
0.0
  0
LINE
  5
4A9
330
17
100
AcDbEntity
  8
L-CENTER
 48
2.0
100
AcDbLine
 10
763.6783307078317
 20
156.0060667020055
 30
0.0
 11
763.6783307078317
 21
61.00607070200545
 31
0.0
  0
LINE
  5
4AA
330
17
100
AcDbEntity
  8
4
100
AcDbLine
 10
857.6783327078315
 20
121.0060667020055
 30
0.0
 11
880.1783327078315
 21
546.0060707020054
 31
0.0
  0
LINE
  5
4AC
330
17
100
AcDbEntity
  8
L-CENTER
 48
2.0
100
AcDbLine
 10
913.0772027078315
 20
166.5688127020054
 30
0.0
 11
850.4962007078316
 21
166.5688127020054
 31
0.0
  0
LINE
  5
4AD
330
17
100
AcDbEntity
  8
4
100
AcDbLine
 10
895.0782347078316
 20
136.5060707020054
 30
0.0
 11
863.2413167078307
 21
136.5060707020054
 31
0.0
  0
LINE
  5
4B0
330
17
100
AcDbEntity
  8
L-CENTER
 48
2.0
100
AcDbLine
 10
911.8069547078308
 20
335.4433247020054
 30
0.0
 11
849.7215407078315
 21
335.4433247020054
 31
0.0
  0
ARC
  5
4B1
330
17
100
AcDbEntity
  8
4
100
AcDbCircle
 10
-119.8216692921687
 20
546.0060707020054
 30
0.0
 40
1000.000032
100
AcDbArc
 50
344.997058
 51
0.0
  0
LINE
  5
4B2
330
17
100
AcDbEntity
  8
4
100
AcDbLine
 10
895.0782347078316
 20
365.5060667020055
 30
0.0
 11
870.6224207078308
 21
365.5060667020055
 31
0.0
  0
ARC
  5
4D2
330
17
100
AcDbEntity
  8
4
100
AcDbCircle
 10
331.7100707078312
 20
608.0724767020054
 30
0.0
 40
3.999918
100
AcDbArc
 50
166.1605359999983
 51
275.9980270000059
  0
ARC
  5
4D3
330
17
100
AcDbEntity
  8
4
100
AcDbCircle
 10
331.7100707078312
 20
483.9396647020055
 30
0.0
 40
3.999918
100
AcDbArc
 50
84.00197299999405
 51
193.8394640000017
  0
ARC
  5
4D4
330
17
100
AcDbEntity
  8
4
100
AcDbCircle
 10
326.0972747078313
 20
288.4250147020055
 30
0.0
 40
5.000052
100
AcDbArc
 50
195.0038580000019
 51
254.9961449999988
  0
ARC
  5
4D5
330
17
100
AcDbEntity
  8
4
100
AcDbCircle
 10
272.2784267078314
 20
364.5060707020054
 30
0.0
 40
1.000002
100
AcDbArc
 50
90.0
 51
180.0
  0
LINE
  5
4D6
330
17
100
AcDbEntity
  8
4
100
AcDbLine
 10
261.4156116184581
 20
340.9281522593071
 30
0.0
 11
268.2784307078314
 21
340.9281522593071
 31
0.0
  0
LINE
  5
4D7
330
17
100
AcDbEntity
  8
4
100
AcDbLine
 10
261.4156116184581
 20
346.4129798166084
 30
0.0
 11
271.2784307078314
 21
346.4129798166084
 31
0.0
  0
ARC
  5
4D8
330
17
100
AcDbEntity
  8
4
100
AcDbCircle
 10
264.1538095831106
 20
343.6705660379578
 30
0.0
 40
3.875378875279244
100
AcDbArc
 50
134.9559267627517
 51
225.0440732372483
  0
LINE
  5
4D9
330
17
100
AcDbEntity
  8
4
100
AcDbLine
 10
272.2784267078314
 20
365.5060667020055
 30
0.0
 11
296.7342407078313
 21
365.5060667020055
 31
0.0
  0
LINE
  5
4DA
330
17
100
AcDbEntity
  8
4
100
AcDbLine
 10
261.4156116184581
 20
329.9584971447041
 30
0.0
 11
268.2784307078314
 21
329.9584971447041
 31
0.0
  0
LINE
  5
4DB
330
17
100
AcDbEntity
  8
4
100
AcDbLine
 10
271.2784307078314
 20
324.4736695874028
 30
0.0
 11
261.4156116184581
 21
324.4736695874028
 31
0.0
  0
ARC
  5
4DC
330
17
100
AcDbEntity
  8
4
100
AcDbCircle
 10
264.1538095831106
 20
327.2160833660535
 30
0.0
 40
3.875378875279264
100
AcDbArc
 50
134.9559267627517
 51
225.0440732372483
  0
LINE
  5
4DD
330
17
100
AcDbEntity
  8
4
100
AcDbLine
 10
271.2784307078314
 20
346.4129798166084
 30
0.0
 11
271.2784307078314
 21
324.4736695874028
 31
0.0
  0
LINE
  5
4DE
330
17
100
AcDbEntity
  8
4
100
AcDbLine
 10
260.2784307078314
 20
327.2160833660535
 30
0.0
 11
260.2784307078314
 21
343.6705660379578
 31
0.0
  0
LINE
  5
4DF
330
17
100
AcDbEntity
  8
4
100
AcDbLine
 10
268.2784307078314
 20
346.4129798166084
 30
0.0
 11
268.2784307078314
 21
324.4736695874028
 31
0.0
  0
ARC
  5
4E0
330
17
100
AcDbEntity
  8
4
100
AcDbCircle
 10
274.0741748430087
 20
335.4433247020054
 30
0.0
 40
13.7957441351769
100
AcDbArc
 50
156.5734024913727
 51
203.4265975086273
  0
LINE
  5
4E1
330
17
100
AcDbEntity
  8
4
100
AcDbLine
 10
271.2784307078314
 20
261.9757238166085
 30
0.0
 11
271.2784307078314
 21
240.0364135874029
 31
0.0
  0
LINE
  5
4E2
330
17
100
AcDbEntity
  8
4
100
AcDbLine
 10
260.2784307078314
 20
242.7788273660535
 30
0.0
 11
260.2784307078314
 21
259.2333100379578
 31
0.0
  0
LINE
  5
4E3
330
17
100
AcDbEntity
  8
4
100
AcDbLine
 10
268.2784307078314
 20
261.9757238166085
 30
0.0
 11
268.2784307078314
 21
240.0364135874029
 31
0.0
  0
ARC
  5
4E4
330
17
100
AcDbEntity
  8
4
100
AcDbCircle
 10
274.0741748430087
 20
251.0060687020055
 30
0.0
 40
13.7957441351769
100
AcDbArc
 50
156.5734024913727
 51
203.4265975086273
  0
LINE
  5
4E5
330
17
100
AcDbEntity
  8
4
100
AcDbLine
 10
261.4156116184581
 20
245.5212411447042
 30
0.0
 11
268.2784307078314
 21
245.5212411447042
 31
0.0
  0
LINE
  5
4E6
330
17
100
AcDbEntity
  8
4
100
AcDbLine
 10
271.2784307078314
 20
240.0364135874029
 30
0.0
 11
261.4156116184581
 21
240.0364135874029
 31
0.0
  0
ARC
  5
4E7
330
17
100
AcDbEntity
  8
4
100
AcDbCircle
 10
264.1538095831106
 20
242.7788273660535
 30
0.0
 40
3.875378875279264
100
AcDbArc
 50
134.9559267627517
 51
225.0440732372483
  0
LINE
  5
4E8
330
17
100
AcDbEntity
  8
4
100
AcDbLine
 10
261.4156116184581
 20
256.4908962593072
 30
0.0
 11
268.2784307078314
 21
256.4908962593072
 31
0.0
  0
LINE
  5
4E9
330
17
100
AcDbEntity
  8
4
100
AcDbLine
 10
261.4156116184581
 20
261.9757238166085
 30
0.0
 11
271.2784307078314
 21
261.9757238166085
 31
0.0
  0
ARC
  5
4EA
330
17
100
AcDbEntity
  8
4
100
AcDbCircle
 10
264.1538095831106
 20
259.2333100379578
 30
0.0
 40
3.875378875279244
100
AcDbArc
 50
134.9559267627517
 51
225.0440732372471
  0
LINE
  5
4EB
330
17
100
AcDbEntity
  8
4
100
AcDbLine
 10
261.4156116184581
 20
172.0536402593071
 30
0.0
 11
268.2784307078314
 21
172.0536402593071
 31
0.0
  0
LINE
  5
4EC
330
17
100
AcDbEntity
  8
4
100
AcDbLine
 10
261.4156116184581
 20
177.5384678166084
 30
0.0
 11
271.2784307078314
 21
177.5384678166084
 31
0.0
  0
ARC
  5
4ED
330
17
100
AcDbEntity
  8
4
100
AcDbCircle
 10
264.1538095831106
 20
174.7960540379578
 30
0.0
 40
3.875378875279244
100
AcDbArc
 50
134.9559267627517
 51
225.0440732372471
  0
LINE
  5
4EE
330
17
100
AcDbEntity
  8
L-CENTER
 48
2.0
100
AcDbLine
 10
254.2350647078315
 20
166.5688127020054
 30
0.0
 11
320.1522047078311
 21
166.5688127020054
 31
0.0
  0
LINE
  5
4EF
330
17
100
AcDbEntity
  8
L-CENTER
 48
2.0
100
AcDbLine
 10
253.2582887078311
 20
335.4433247020054
 30
0.0
 11
324.9947387078314
 21
335.4433247020054
 31
0.0
  0
ARC
  5
4F0
330
17
100
AcDbEntity
  8
4
100
AcDbCircle
 10
1287.178330707832
 20
546.0060707020054
 30
0.0
 40
1000.000032
100
AcDbArc
 50
180.0001259887593
 51
195.0031589999999
  0
ARC
  5
4F1
330
17
100
AcDbEntity
  8
4
100
AcDbCircle
 10
304.1153447078314
 20
131.5060667020055
 30
0.0
 40
4.999956
100
AcDbArc
 50
3.031311999999935
 51
90.0
  0
ARC
  5
4F2
330
17
100
AcDbEntity
  8
4
100
AcDbCircle
 10
272.2784267078314
 20
137.5060667020055
 30
0.0
 40
1.000002
100
AcDbArc
 50
180.0
 51
270.0
  0
LINE
  5
4F3
330
17
100
AcDbEntity
  8
4
100
AcDbLine
 10
261.4156116184581
 20
161.0839851447041
 30
0.0
 11
268.2784307078314
 21
161.0839851447041
 31
0.0
  0
LINE
  5
4F4
330
17
100
AcDbEntity
  8
4
100
AcDbLine
 10
271.2784307078314
 20
155.5991575874028
 30
0.0
 11
261.4156116184581
 21
155.5991575874028
 31
0.0
  0
ARC
  5
4F5
330
17
100
AcDbEntity
  8
4
100
AcDbCircle
 10
264.1538095831106
 20
158.3415713660535
 30
0.0
 40
3.875378875279264
100
AcDbArc
 50
134.9559267627517
 51
225.0440732372483
  0
LINE
  5
4F6
330
17
100
AcDbEntity
  8
4
100
AcDbLine
 10
272.2784267078314
 20
136.5060707020054
 30
0.0
 11
304.1153447078314
 21
136.5060707020054
 31
0.0
  0
LINE
  5
4F7
330
17
100
AcDbEntity
  8
4
100
AcDbLine
 10
309.678328707831
 20
136.0060667020055
 30
0.0
 11
309.678328707831
 21
81.00607070200545
 31
0.0
  0
LINE
  5
4FE
330
17
100
AcDbEntity
  8
4
100
AcDbLine
 10
333.678328707831
 20
251.0060687020055
 30
0.0
 11
333.678328707831
 21
136.0060667020055
 31
0.0
  0
LINE
  5
4FF
330
17
100
AcDbEntity
  8
4
100
AcDbLine
 10
309.678328707831
 20
121.0060667020055
 30
0.0
 11
287.178328707831
 21
546.0060707020054
 31
0.0
  0
LINE
  5
500
330
17
100
AcDbEntity
  8
4
100
AcDbLine
 10
271.2784307078314
 20
137.5060667020055
 30
0.0
 11
271.2784307078314
 21
364.5060707020054
 31
0.0
  0
LINE
  5
501
330
17
100
AcDbEntity
  8
4
100
AcDbLine
 10
291.678328707831
 20
365.5060667020055
 30
0.0
 11
291.678328707831
 21
136.5060707020054
 31
0.0
  0
LINE
  5
502
330
17
100
AcDbEntity
  8
4
100
AcDbLine
 10
271.2784307078314
 20
177.5384678166084
 30
0.0
 11
271.2784307078314
 21
155.5991575874028
 31
0.0
  0
LINE
  5
503
330
17
100
AcDbEntity
  8
4
100
AcDbLine
 10
260.2784307078314
 20
158.3415713660535
 30
0.0
 11
260.2784307078314
 21
174.7960540379578
 31
0.0
  0
LINE
  5
504
330
17
100
AcDbEntity
  8
4
100
AcDbLine
 10
268.2784307078314
 20
177.5384678166084
 30
0.0
 11
268.2784307078314
 21
155.5991575874028
 31
0.0
  0
ARC
  5
505
330
17
100
AcDbEntity
  8
4
100
AcDbCircle
 10
274.0741748430087
 20
166.5688127020054
 30
0.0
 40
13.7957441351769
100
AcDbArc
 50
156.5734024913727
 51
203.4265975086273
  0
ARC
  5
525
330
17
100
AcDbEntity
  8
4
100
AcDbCircle
 10
406.1783327078315
 20
251.0060687020055
 30
0.0
 40
72.499998
100
AcDbArc
 50
180.0
 51
0.0
  0
LINE
  5
526
330
17
100
AcDbEntity
  8
4
100
AcDbLine
 10
309.678328707831
 20
81.00607070200545
 30
0.0
 11
493.6783307078317
 21
81.00607070200545
 31
0.0
  0
LINE
  5
527
330
17
100
AcDbEntity
  8
4
100
AcDbLine
 10
309.678328707831
 20
136.0060667020055
 30
0.0
 11
493.6783307078317
 21
136.0060667020055
 31
0.0
  0
LINE
  5
529
330
17
100
AcDbEntity
  8
L-CENTER
 48
2.0
100
AcDbLine
 10
268.8791387078313
 20
546.0060707020054
 30
0.0
 11
898.4775227078312
 21
546.0060707020054
 31
0.0
  0
LINE
  5
52A
330
17
100
AcDbEntity
  8
4
100
AcDbLine
 10
466.3816967078315
 20
473.8105127020053
 30
0.0
 11
332.1280367078311
 21
487.9176887020055
 31
0.0
  0
LINE
  5
52B
330
17
100
AcDbEntity
  8
L-CENTER
 48
2.0
100
AcDbLine
 10
1044.762328707832
 20
251.0060687020055
 30
0.0
 11
254.2350647078315
 21
251.0060687020056
 31
0.0
  0
ARC
  5
52C
330
17
100
AcDbEntity
  8
4
100
AcDbCircle
 10
583.6783307078317
 20
1249.506070702005
 30
0.0
 40
1000.000002
100
AcDbArc
 50
254.9966359999999
 51
285.0036359999999
  0
LINE
  5
52D
330
17
100
AcDbEntity
  8
L-CENTER
 48
2.0
100
AcDbLine
 10
583.6783307078317
 20
84.06320068833247
 30
0.0
 11
583.6783307078317
 21
956.612892877966
 31
0.0
  0
ARC
  5
52E
330
17
100
AcDbEntity
  8
4
100
AcDbCircle
 10
583.6783307078317
 20
546.0060707020054
 30
0.0
 40
263.500002
100
AcDbArc
 50
90.00000200000005
 51
270.0000519999998
  0
LINE
  5
52F
330
17
100
AcDbEntity
  8
4
100
AcDbLine
 10
466.3816967078315
 20
618.2016287020053
 30
0.0
 11
332.1280367078311
 21
604.0944467020054
 31
0.0
  0
ARC
  5
530
330
17
100
AcDbEntity
  8
4
100
AcDbCircle
 10
583.6783307078317
 20
546.0060707020054
 30
0.0
 40
293.500002
100
AcDbArc
 50
90.00000200000007
 51
270.0000459999998
  0
ARC
  5
531
330
17
100
AcDbEntity
  8
4
100
AcDbCircle
 10
1287.178330707832
 20
546.0060707020054
 30
0.0
 40
999.99993
100
AcDbArc
 50
164.996939
 51
180.0001259887593
  0
ARC
  5
533
330
17
100
AcDbEntity
  8
4
100
AcDbCircle
 10
-119.8216692921687
 20
546.0060707020054
 30
0.0
 40
999.999996
100
AcDbArc
 50
0.0
 51
15.00330500000001
  0
ARC
  5
534
330
17
100
AcDbEntity
  8
4
100
AcDbCircle
 10
583.6783307078317
 20
546.0060707020054
 30
0.0
 40
293.500002
100
AcDbArc
 50
270.0002839999997
 51
90.00000200000007
  0
ARC
  5
535
330
17
100
AcDbEntity
  8
4
100
AcDbCircle
 10
583.6783307078317
 20
546.0060707020054
 30
0.0
 40
263.500002
100
AcDbArc
 50
270.000264
 51
90.00000200000005
  0
ARC
  5
536
330
17
100
AcDbEntity
  8
4
100
AcDbCircle
 10
465.3365327078313
 20
628.1469407020054
 30
0.0
 40
10.000008
100
AcDbArc
 50
275.9992680000012
 51
350.7315380000005
  0
ARC
  5
537
330
17
100
AcDbEntity
  8
4
100
AcDbCircle
 10
975.678328707831
 20
546.0060707020054
 30
0.0
 40
499.999962
100
AcDbArc
 50
168.821072
 51
180.000140000656
  0
ARC
  5
538
330
17
100
AcDbEntity
  8
4
100
AcDbCircle
 10
968.6783327078315
 20
546.0060707020054
 30
0.0
 40
499.9999319999999
100
AcDbArc
 50
168.138339
 51
180.0001399980527
  0
LINE
  5
539
330
17
100
AcDbEntity
  8
4
100
AcDbLine
 10
700.9749587078318
 20
618.2016287020053
 30
0.0
 11
835.2286247078314
 21
604.0944467020054
 31
0.0
  0
ARC
  5
53A
330
17
100
AcDbEntity
  8
4
100
AcDbCircle
 10
702.0201287078312
 20
628.1469407020054
 30
0.0
 40
10.000008
100
AcDbArc
 50
189.2684619999995
 51
264.0007319999988
  0
ARC
  5
53B
330
17
100
AcDbEntity
  8
4
100
AcDbCircle
 10
191.6783327078315
 20
546.0060707020054
 30
0.0
 40
500.000004
100
AcDbArc
 50
0.0
 51
11.17912600000009
  0
ARC
  5
53C
330
17
100
AcDbEntity
  8
4
100
AcDbCircle
 10
198.678328707831
 20
546.0060707020054
 30
0.0
 40
500.00004
100
AcDbArc
 50
0.0
 51
11.86191299999992
  0
LINE
  5
5A6
330
17
100
AcDbEntity
  8
4
100
AcDbLine
 10
1522.837172151834
 20
600.5060687020055
 30
0.0
 11
1672.837172151834
 21
600.5060687020055
 31
0.0
  0
LINE
  5
5A7
330
17
100
AcDbEntity
  8
4
100
AcDbLine
 10
1682.837168151834
 20
592.5060707020054
 30
0.0
 11
1524.837170151833
 21
592.5060707020054
 31
0.0
  0
LINE
  5
5A8
330
17
100
AcDbEntity
  8
4
100
AcDbLine
 10
1682.837168151834
 20
499.5060707020054
 30
0.0
 11
1524.837170151833
 21
499.5060707020054
 31
0.0
  0
LINE
  5
5A9
330
17
100
AcDbEntity
  8
4
100
AcDbLine
 10
1682.837168151834
 20
593.5060667020055
 30
0.0
 11
1682.837168151834
 21
498.5060687020055
 31
0.0
  0
LINE
  5
5AA
330
17
100
AcDbEntity
  8
4
100
AcDbLine
 10
1691.837270151834
 20
486.0060707020054
 30
0.0
 11
1691.837270151834
 21
606.0060707020054
 31
0.0
  0
LINE
  5
5AB
330
17
100
AcDbEntity
  8
4
100
AcDbLine
 10
1691.837270151834
 20
498.5060687020055
 30
0.0
 11
1682.837168151834
 21
498.5060687020055
 31
0.0
  0
LINE
  5
5AC
330
17
100
AcDbEntity
  8
4
100
AcDbLine
 10
1692.837266151833
 20
486.0060707020054
 30
0.0
 11
1691.837270151834
 21
486.0060707020054
 31
0.0
  0
LINE
  5
5AD
330
17
100
AcDbEntity
  8
4
100
AcDbLine
 10
1672.837172151834
 20
600.5060687020055
 30
0.0
 11
1672.837172151834
 21
592.5060707020054
 31
0.0
  0
LINE
  5
5AE
330
17
100
AcDbEntity
  8
4
100
AcDbLine
 10
1682.837168151834
 20
593.5060667020055
 30
0.0
 11
1691.837270151834
 21
593.5060667020055
 31
0.0
  0
LINE
  5
5AF
330
17
100
AcDbEntity
  8
4
100
AcDbLine
 10
1692.837266151833
 20
606.0060707020054
 30
0.0
 11
1691.837270151834
 21
606.0060707020054
 31
0.0
  0
LINE
  5
5B0
330
17
100
AcDbEntity
  8
4
100
AcDbLine
 10
1522.837172151834
 20
600.5060687020055
 30
0.0
 11
1522.837172151834
 21
501.5060687020055
 31
0.0
  0
LINE
  5
5B1
330
17
100
AcDbEntity
  8
4
100
AcDbLine
 10
1524.837170151833
 20
592.5060707020054
 30
0.0
 11
1524.837170151833
 21
499.5060707020054
 31
0.0
  0
LINE
  5
5B2
330
17
100
AcDbEntity
  8
4
100
AcDbLine
 10
1524.837170151833
 20
499.5060707020054
 30
0.0
 11
1522.837172151834
 21
501.5060687020055
 31
0.0
  0
LINE
  5
5B3
330
17
100
AcDbEntity
  8
4
100
AcDbLine
 10
1522.837172151834
 20
590.5060667020055
 30
0.0
 11
1524.837170151833
 21
592.5060707020054
 31
0.0
  0
LINE
  5
5B7
330
17
100
AcDbEntity
  8
4
100
AcDbLine
 10
630.1783307078317
 20
1496.268201406902
 30
0.0
 11
630.1783307078317
 21
1339.268201406902
 31
0.0
  0
LINE
  5
5B8
330
17
100
AcDbEntity
  8
4
100
AcDbLine
 10
595.6783307078317
 20
1337.268201406902
 30
0.0
 11
595.6783307078317
 21
1475.268201406902
 31
0.0
  0
LINE
  5
5B9
330
17
100
AcDbEntity
  8
4
100
AcDbLine
 10
571.6783307078317
 20
1337.268201406902
 30
0.0
 11
571.6783307078317
 21
1475.268201406902
 31
0.0
  0
LINE
  5
5BA
330
17
100
AcDbEntity
  8
4
100
AcDbLine
 10
537.1783307078317
 20
1496.268201406902
 30
0.0
 11
537.1783307078317
 21
1339.268201406902
 31
0.0
  0
LINE
  5
5BB
330
17
100
AcDbEntity
  8
4
100
AcDbLine
 10
536.1783307078317
 20
1497.268201406902
 30
0.0
 11
631.1783307078317
 21
1497.268201406902
 31
0.0
  0
LINE
  5
5BC
330
17
100
AcDbEntity
  8
4
100
AcDbLine
 10
518.6783307078317
 20
1506.268201406902
 30
0.0
 11
648.6783307078317
 21
1506.268201406902
 31
0.0
  0
LINE
  5
5BD
330
17
100
AcDbEntity
  8
4
100
AcDbLine
 10
518.6783307078308
 20
1507.268201406902
 30
0.0
 11
518.6783307078317
 21
1506.268201406902
 31
0.0
  0
ARC
  5
5BE
330
17
100
AcDbEntity
  8
4
100
AcDbCircle
 10
536.1783307078317
 20
1496.268201406902
 30
0.0
 40
1.0
100
AcDbArc
 50
0.0
 51
90.0
  0
LINE
  5
5BF
330
17
100
AcDbEntity
  8
4
100
AcDbLine
 10
536.1783307078317
 20
1497.268201406902
 30
0.0
 11
536.1783307078317
 21
1497.268201406902
 31
0.0
  0
LINE
  5
5C0
330
17
100
AcDbEntity
  8
4
100
AcDbLine
 10
536.1783307078317
 20
1506.268201406902
 30
0.0
 11
536.1783307078317
 21
1497.268201406902
 31
0.0
  0
ARC
  5
5C1
330
17
100
AcDbEntity
  8
4
100
AcDbCircle
 10
583.6783307078317
 20
1475.268201406902
 30
0.0
 40
12.0
100
AcDbArc
 50
0.0
 51
180.0
  0
LINE
  5
5C2
330
17
100
AcDbEntity
  8
4
100
AcDbLine
 10
631.1783307078317
 20
1497.268201406902
 30
0.0
 11
631.1783307078317
 21
1497.268201406902
 31
0.0
  0
ARC
  5
5C3
330
17
100
AcDbEntity
  8
4
100
AcDbCircle
 10
631.1783307078317
 20
1496.268201406902
 30
0.0
 40
1.0
100
AcDbArc
 50
90.0
 51
180.0
  0
LINE
  5
5C4
330
17
100
AcDbEntity
  8
4
100
AcDbLine
 10
631.1783307078308
 20
1506.268201406902
 30
0.0
 11
631.1783307078317
 21
1497.268201406902
 31
0.0
  0
LINE
  5
5C5
330
17
100
AcDbEntity
  8
4
100
AcDbLine
 10
648.6783307078317
 20
1507.268201406902
 30
0.0
 11
648.6783307078317
 21
1506.268201406902
 31
0.0
  0
LINE
  5
5C6
330
17
100
AcDbEntity
  8
4
100
AcDbLine
 10
595.6783307078317
 20
1339.268201406902
 30
0.0
 11
630.1783307078317
 21
1339.268201406902
 31
0.0
  0
LINE
  5
5C7
330
17
100
AcDbEntity
  8
4
100
AcDbLine
 10
539.1783307078317
 20
1337.268201406902
 30
0.0
 11
628.1783307078317
 21
1337.268201406902
 31
0.0
  0
LINE
  5
5C8
330
17
100
AcDbEntity
  8
4
100
AcDbLine
 10
537.1783307078317
 20
1339.268201406902
 30
0.0
 11
571.6783307078317
 21
1339.268201406902
 31
0.0
  0
LINE
  5
5C9
330
17
100
AcDbEntity
  8
4
100
AcDbLine
 10
537.1783307078317
 20
1339.268201406902
 30
0.0
 11
539.1783307078317
 21
1337.268201406902
 31
0.0
  0
LINE
  5
5CA
330
17
100
AcDbEntity
  8
4
100
AcDbLine
 10
630.1783307078317
 20
1339.268201406902
 30
0.0
 11
628.1783307078317
 21
1337.268201406902
 31
0.0
  0
LINE
  5
5D0
330
17
100
AcDbEntity
  8
4
100
AcDbLine
 10
595.6783307078317
 20
600.5060687020055
 30
0.0
 11
571.6783307078317
 21
600.5060687020055
 31
0.0
  0
LINE
  5
5D1
330
17
100
AcDbEntity
  8
4
100
AcDbLine
 10
595.6783307078317
 20
584.5060667020052
 30
0.0
 11
571.6783307078317
 21
584.5060667020052
 31
0.0
  0
LINE
  5
5D2
330
17
100
AcDbEntity
  8
4
100
AcDbLine
 10
571.6783307078317
 20
600.5060687020055
 30
0.0
 11
571.6783307078317
 21
584.5060667020052
 31
0.0
  0
LINE
  5
5D3
330
17
100
AcDbEntity
  8
4
100
AcDbLine
 10
595.6783307078317
 20
584.5060667020052
 30
0.0
 11
595.6783307078317
 21
600.5060687020055
 31
0.0
  0
ARC
  5
5D4
330
17
100
AcDbEntity
  8
4
100
AcDbCircle
 10
583.6783307078317
 20
546.0060707020052
 30
0.0
 40
46.500054
100
AcDbArc
 50
104.9552305438094
 51
75.04478700000072
  0
CIRCLE
  5
5D5
330
17
100
AcDbEntity
  8
4
100
AcDbCircle
 10
583.6783307078317
 20
546.0060707020054
 30
0.0
 40
60.0
  0
ENDSEC
  0
SECTION
  2
OBJECTS
  0
DICTIONARY
  5
5
330
0
100
AcDbDictionary
281
     1
  3
ACAD_COLOR
350
28
  3
ACAD_GROUP
350
26
  3
ACAD_LAYOUT
350
1E
  3
ACAD_MATERIAL
350
7
  3
ACAD_MLEADERSTYLE
350
541
  3
ACAD_MLINESTYLE
350
15
  3
ACAD_PLOTSETTINGS
350
27
  3
ACAD_PLOTSTYLENAME
350
4
  3
ACAD_SCALELIST
350
2C
  3
ACAD_TABLESTYLE
350
540
  3
ACAD_VISUALSTYLE
350
29
  3
ACDBHEADERROUNDTRIPXREC
350
603
  3
AcDbVariableDictionary
350
53E
  3
DWGPROPS
350
606
  0
DICTIONARY
  5
607
330
25
100
AcDbDictionary
280
     1
281
     1
  3
ACAD_XREC_ROUNDTRIP
360
608
  0
DICTIONARY
  5
18
330
17
100
AcDbDictionary
280
     1
281
     1
  3
ACAD_SORTENTS
360
19
  0
DICTIONARY
  5
28
102
{ACAD_REACTORS
330
5
102
}
330
5
100
AcDbDictionary
281
     1
  0
DICTIONARY
  5
26
102
{ACAD_REACTORS
330
5
102
}
330
5
100
AcDbDictionary
281
     1
  0
DICTIONARY
  5
1E
102
{ACAD_REACTORS
330
5
102
}
330
5
100
AcDbDictionary
281
     1
  3
Model
350
1D
  3
ﾚｲｱｳﾄ1
350
22
  0
DICTIONARY
  5
7
102
{ACAD_REACTORS
330
5
102
}
330
5
100
AcDbDictionary
281
     1
  3
ByBlock
350
4F
  3
ByLayer
350
10
  3
Global
350
6
  0
DICTIONARY
  5
541
102
{ACAD_REACTORS
330
5
102
}
330
5
100
AcDbDictionary
281
     1
  3
Standard
350
5E8
  0
DICTIONARY
  5
15
102
{ACAD_REACTORS
330
5
102
}
330
5
100
AcDbDictionary
281
     1
  3
STANDARD
350
14
  0
DICTIONARY
  5
27
102
{ACAD_REACTORS
330
5
102
}
330
5
100
AcDbDictionary
281
     1
  0
ACDBDICTIONARYWDFLT
  5
4
102
{ACAD_REACTORS
330
5
102
}
330
5
100
AcDbDictionary
281
     1
  3
Normal
350
3
100
AcDbDictionaryWithDefault
340
3
  0
DICTIONARY
  5
2C
102
{ACAD_REACTORS
330
5
102
}
330
5
100
AcDbDictionary
281
     1
  3
*A1
350
4E
  0
DICTIONARY
  5
540
102
{ACAD_REACTORS
330
5
102
}
330
5
100
AcDbDictionary
281
     1
  3
Standard
350
5FF
  0
DICTIONARY
  5
29
102
{ACAD_REACTORS
330
5
102
}
330
5
100
AcDbDictionary
281
     1
  3
2dWireframe
350
549
  3
Basic
350
54C
  3
Brighten
350
550
  3
ColorChange
350
554
  3
Conceptual
350
54E
  3
Dim
350
54F
  3
EdgeColorOff
350
557
  3
Facepattern
350
553
  3
Flat
350
545
  3
FlatWithEdges
350
546
  3
Gouraud
350
547
  3
GouraudWithEdges
350
548
  3
Hidden
350
54B
  3
JitterOff
350
555
  3
Linepattern
350
552
  3
OverhangOff
350
556
  3
Realistic
350
54D
  3
Shaded
350
55C
  3
Shaded with edges
350
55B
  3
Shades of Gray
350
558
  3
Sketchy
350
559
  3
Thicken
350
551
  3
Wireframe
350
54A
  3
X-Ray
350
55A
  0
DICTIONARY
  5
603
102
{ACAD_REACTORS
330
5
102
}
330
5
100
AcDbDictionary
281
     1
  3
COLORDICT
350
604
  3
MATERIALDICT
350
605
  0
DICTIONARY
  5
53E
102
{ACAD_REACTORS
330
5
102
}
330
5
100
AcDbDictionary
281
     1
  3
CANNOSCALE
350
53F
  3
CMLEADERSTYLE
350
5EA
  3
CTABLESTYLE
350
600
  3
DIMASSOC
350
601
  3
HIDETEXT
350
602
  3
MSLTSCALE
350
609
  3
XCLIPFRAME
350
542
  0
XRECORD
  5
606
102
{ACAD_REACTORS
330
5
102
}
330
5
100
AcDbXrecord
280
     1
  1
DWGPROPS COOKIE
  2

  3

  4

  6

  7

  8
sg-d04
  9

300
=
301
=
302
=
303
=
304
=
305
=
306
=
307
=
308
=
309
=
 40
0.0
 41
2457464.015263252
 42
2457871.448036493
  1

 90
        0
  0
XRECORD
  5
608
102
{ACAD_REACTORS
330
607
102
}
330
607
100
AcDbXrecord
280
     1
102
VTR_0.000_0.000_1.000_1.000_VISUALSTYLE
340
549
102
VTR_0.000_0.000_1.000_1.000_GRIDDISPLAY
 70
     3
102
VTR_0.000_0.000_1.000_1.000_GRIDMAJOR
 70
     5
102
VTR_0.000_0.000_1.000_1.000_DEFAULTLIGHTING
280
     1
102
VTR_0.000_0.000_1.000_1.000_DEFAULTLIGHTINGTYPE
 70
     1
102
VTR_0.000_0.000_1.000_1.000_BRIGHTNESS
141
0.0
102
VTR_0.000_0.000_1.000_1.000_CONTRAST
142
0.0
  0
SORTENTSTABLE
  5
19
102
{ACAD_REACTORS
330
18
102
}
330
18
100
AcDbSortentsTable
330
17
331
0
  5
21E
331
180
  5
3E2
331
188
  5
3DA
331
189
  5
3D9
331
18A
  5
3D8
331
18B
  5
3D7
331
18C
  5
3D6
331
18D
  5
3D5
331
18E
  5
3D4
331
18F
  5
3D3
331
190
  5
3D2
331
191
  5
3D1
331
192
  5
3D0
331
193
  5
3CF
331
194
  5
3CE
331
195
  5
3CD
331
197
  5
3CB
331
198
  5
3CA
331
199
  5
3C9
331
19A
  5
3C8
331
19B
  5
3C7
331
19C
  5
3C6
331
19D
  5
3C5
331
19E
  5
3C4
331
19F
  5
3C3
331
1A0
  5
3C2
331
1A1
  5
3C1
331
1A2
  5
3C0
331
1A3
  5
3BF
331
1A4
  5
3BE
331
1A5
  5
3BD
331
1A6
  5
3BC
331
1A7
  5
3BB
331
1A8
  5
3BA
331
1A9
  5
3B9
331
1B0
  5
3B2
331
1B1
  5
3B1
331
1B2
  5
3B0
331
1B3
  5
3AF
331
1B4
  5
3AE
331
1B5
  5
3AD
331
1BC
  5
3A6
331
1C2
  5
3A0
331
1C3
  5
39F
331
1C4
  5
39E
331
1C5
  5
39D
331
1C6
  5
39C
331
1C7
  5
39B
331
1C8
  5
39A
331
1C9
  5
399
331
1CA
  5
398
331
1CB
  5
397
331
1CC
  5
396
331
1CD
  5
395
331
1CE
  5
394
331
1CF
  5
393
331
1D0
  5
392
331
1D1
  5
391
331
1D2
  5
390
331
1D3
  5
38F
331
1D4
  5
38E
331
1D5
  5
38D
331
1D6
  5
38C
331
1D7
  5
38B
331
1D8
  5
38A
331
1D9
  5
389
331
1DA
  5
388
331
1DB
  5
387
331
1DC
  5
386
331
1DD
  5
385
331
1DE
  5
384
331
1DF
  5
383
331
1E0
  5
382
331
1E1
  5
381
331
1E2
  5
380
331
1E3
  5
37F
331
1E4
  5
37E
331
1E5
  5
37D
331
1E6
  5
37C
331
1E7
  5
37B
331
1E8
  5
37A
331
1E9
  5
379
331
1EA
  5
378
331
1EB
  5
377
331
1EC
  5
376
331
1ED
  5
375
331
1EE
  5
374
331
1EF
  5
373
331
1F0
  5
372
331
1F1
  5
371
331
1F2
  5
370
331
1F3
  5
36F
331
1F4
  5
36E
331
1F5
  5
36D
331
1F6
  5
36C
331
1F7
  5
36B
331
1F8
  5
36A
331
1F9
  5
369
331
1FA
  5
368
331
1FB
  5
367
331
1FC
  5
366
331
1FD
  5
365
331
1FE
  5
364
331
1FF
  5
363
331
200
  5
362
331
201
  5
361
331
202
  5
360
331
203
  5
35F
331
204
  5
35E
331
205
  5
35D
331
206
  5
35C
331
207
  5
35B
331
208
  5
35A
331
209
  5
359
331
20A
  5
358
331
20B
  5
357
331
20C
  5
356
331
20D
  5
355
331
20F
  5
353
331
212
  5
350
331
213
  5
34F
331
214
  5
34E
331
215
  5
34D
331
219
  5
349
331
21A
  5
348
331
21B
  5
347
331
21C
  5
346
331
21D
  5
345
331
21E
  5
344
331
21F
  5
343
331
220
  5
342
331
221
  5
341
331
222
  5
340
331
223
  5
33F
331
224
  5
33E
331
225
  5
33D
331
226
  5
33C
331
227
  5
33B
331
228
  5
33A
331
229
  5
339
331
22A
  5
338
331
22B
  5
337
331
22C
  5
336
331
22D
  5
335
331
22E
  5
334
331
22F
  5
333
331
230
  5
332
331
231
  5
331
331
240
  5
322
331
241
  5
321
331
244
  5
31E
331
245
  5
31D
331
24E
  5
314
331
24F
  5
313
331
253
  5
30F
331
254
  5
30E
331
255
  5
30D
331
256
  5
30C
331
257
  5
30B
331
25A
  5
308
331
25B
  5
307
331
25C
  5
306
331
25D
  5
305
331
25F
  5
303
331
262
  5
300
331
263
  5
2FF
331
264
  5
2FE
331
265
  5
2FD
331
266
  5
2FC
331
267
  5
2FB
331
268
  5
2FA
331
269
  5
2F9
331
26A
  5
2F8
331
26D
  5
2F5
331
26E
  5
2F4
331
26F
  5
2F3
331
270
  5
2F2
331
271
  5
2F1
331
272
  5
2F0
331
273
  5
2EF
331
274
  5
2EE
331
275
  5
2ED
331
276
  5
2EC
331
277
  5
2EB
331
278
  5
2EA
331
279
  5
2E9
331
27A
  5
2E8
331
27B
  5
2E7
331
27C
  5
2E6
331
27D
  5
2E5
331
27E
  5
2E4
331
27F
  5
2E3
331
280
  5
2E2
331
281
  5
2E1
331
282
  5
2E0
331
283
  5
2DF
331
284
  5
2DE
331
285
  5
2DD
331
286
  5
2DC
331
287
  5
2DB
331
288
  5
2DA
331
289
  5
2D9
331
28A
  5
2D8
331
28B
  5
2D7
331
28C
  5
2D6
331
28D
  5
2D5
331
28E
  5
2D4
331
28F
  5
2D3
331
290
  5
2D2
331
291
  5
2D1
331
292
  5
2D0
331
293
  5
2CF
331
294
  5
2CE
331
295
  5
2CD
331
296
  5
2CC
331
297
  5
2CB
331
298
  5
2CA
331
299
  5
2C9
331
29A
  5
2C8
331
29B
  5
2C7
331
29C
  5
2C6
331
29D
  5
2C5
331
29E
  5
2C4
331
29F
  5
2C3
331
2A0
  5
2C2
331
2A1
  5
2C1
331
2A2
  5
2C0
331
2A3
  5
2BF
331
2A4
  5
2BE
331
2A5
  5
2BD
331
2A6
  5
2BC
331
2A7
  5
2BB
331
2A8
  5
2BA
331
2A9
  5
2B9
331
2AA
  5
2B8
331
2AB
  5
2B7
331
2AC
  5
2B6
331
2AD
  5
2B5
331
2AE
  5
2B4
331
2AF
  5
2B3
331
2B0
  5
2B2
331
2B2
  5
2B0
331
2B3
  5
2AF
331
2B4
  5
2AE
331
2B5
  5
2AD
331
2B6
  5
2AC
331
2B7
  5
2AB
331
2B8
  5
2AA
331
2B9
  5
2A9
331
2BA
  5
2A8
331
2BB
  5
2A7
331
2BC
  5
2A6
331
2BD
  5
2A5
331
2BE
  5
2A4
331
2BF
  5
2A3
331
2C0
  5
2A2
331
2C1
  5
2A1
331
2C2
  5
2A0
331
2C3
  5
29F
331
2C4
  5
29E
331
2C5
  5
29D
331
2C6
  5
29C
331
2C7
  5
29B
331
2C8
  5
29A
331
2C9
  5
299
331
2CA
  5
298
331
2CB
  5
297
331
2CC
  5
296
331
2CD
  5
295
331
2CE
  5
294
331
2CF
  5
293
331
2D0
  5
292
331
2D1
  5
291
331
2D2
  5
290
331
2D3
  5
28F
331
2D4
  5
28E
331
2D5
  5
28D
331
2D6
  5
28C
331
2D7
  5
28B
331
2D8
  5
28A
331
2D9
  5
289
331
2DA
  5
288
331
2DB
  5
287
331
2DC
  5
286
331
2DD
  5
285
331
2DE
  5
284
331
2DF
  5
283
331
2E0
  5
282
331
2E1
  5
281
331
2E2
  5
280
331
2E3
  5
27F
331
2E4
  5
27E
331
2E5
  5
27D
331
2E6
  5
27C
331
2E7
  5
27B
331
2E8
  5
27A
331
2E9
  5
279
331
2EA
  5
278
331
2EB
  5
277
331
2EC
  5
276
331
2ED
  5
275
331
2EE
  5
274
331
2EF
  5
273
331
2F0
  5
272
331
2F1
  5
271
331
2F2
  5
270
331
2F3
  5
26F
331
2F4
  5
26E
331
2F5
  5
26D
331
2F6
  5
26C
331
2F7
  5
26B
331
2F8
  5
26A
331
2F9
  5
269
331
2FA
  5
268
331
2FB
  5
267
331
2FC
  5
266
331
2FD
  5
265
331
2FE
  5
264
331
2FF
  5
263
331
300
  5
262
331
301
  5
261
331
302
  5
260
331
303
  5
25F
331
304
  5
25E
331
305
  5
25D
331
306
  5
25C
331
307
  5
25B
331
308
  5
25A
331
309
  5
259
331
30A
  5
258
331
30B
  5
257
331
30C
  5
256
331
30D
  5
255
331
30E
  5
254
331
30F
  5
253
331
310
  5
252
331
311
  5
251
331
312
  5
250
331
313
  5
24F
331
314
  5
24E
331
315
  5
24D
331
316
  5
24C
331
317
  5
24B
331
318
  5
24A
331
319
  5
249
331
31A
  5
248
331
31B
  5
247
331
31C
  5
246
331
31D
  5
245
331
31E
  5
244
331
31F
  5
243
331
320
  5
242
331
321
  5
241
331
322
  5
240
331
323
  5
23F
331
324
  5
23E
331
325
  5
23D
331
326
  5
23C
331
327
  5
23B
331
328
  5
23A
331
329
  5
239
331
32A
  5
238
331
32B
  5
237
331
32C
  5
236
331
32D
  5
235
331
32E
  5
234
331
32F
  5
233
331
330
  5
232
331
331
  5
231
331
332
  5
230
331
333
  5
22F
331
334
  5
22E
331
335
  5
22D
331
336
  5
22C
331
337
  5
22B
331
338
  5
22A
331
339
  5
229
331
33A
  5
228
331
33B
  5
227
331
33C
  5
226
331
33D
  5
225
331
33E
  5
224
331
33F
  5
223
331
340
  5
222
331
341
  5
221
331
342
  5
220
331
343
  5
21F
331
347
  5
21B
331
348
  5
21A
331
349
  5
219
331
34A
  5
218
331
34C
  5
216
331
34E
  5
214
331
34F
  5
213
331
350
  5
212
331
351
  5
211
331
352
  5
210
331
353
  5
20F
331
354
  5
20E
331
355
  5
20D
331
356
  5
20C
331
357
  5
20B
331
358
  5
20A
331
359
  5
209
331
35A
  5
208
331
35B
  5
207
331
35C
  5
206
331
35D
  5
205
331
35E
  5
204
331
35F
  5
203
331
360
  5
202
331
361
  5
201
331
362
  5
200
331
363
  5
1FF
331
364
  5
1FE
331
365
  5
1FD
331
366
  5
1FC
331
367
  5
1FB
331
36D
  5
1F5
331
36E
  5
1F4
331
36F
  5
1F3
331
370
  5
1F2
331
371
  5
1F1
331
372
  5
1F0
331
373
  5
1EF
331
374
  5
1EE
331
375
  5
1ED
331
376
  5
1EC
331
378
  5
1EA
331
379
  5
1E9
331
37A
  5
1E8
331
37B
  5
1E7
331
37C
  5
1E6
331
37D
  5
1E5
331
37E
  5
1E4
331
37F
  5
1E3
331
380
  5
1E2
331
381
  5
1E1
331
382
  5
1E0
331
383
  5
1DF
331
384
  5
1DE
331
385
  5
1DD
331
386
  5
1DC
331
387
  5
1DB
331
388
  5
1DA
331
389
  5
1D9
331
38A
  5
1D8
331
38B
  5
1D7
331
38C
  5
1D6
331
38D
  5
1D5
331
38E
  5
1D4
331
38F
  5
1D3
331
390
  5
1D2
331
391
  5
1D1
331
392
  5
1D0
331
393
  5
1CF
331
394
  5
1CE
331
395
  5
1CD
331
396
  5
1CC
331
397
  5
1CB
331
398
  5
1CA
331
399
  5
1C9
331
39A
  5
1C8
331
39B
  5
1C7
331
39C
  5
1C6
331
39D
  5
1C5
331
39E
  5
1C4
331
39F
  5
1C3
331
3A0
  5
1C2
331
3A1
  5
1C1
331
3A2
  5
1C0
331
3A3
  5
1BF
331
3A4
  5
1BE
331
3A5
  5
1BD
331
3A6
  5
1BC
331
3A7
  5
1BB
331
3A8
  5
1BA
331
3A9
  5
1B9
331
3AA
  5
1B8
331
3AB
  5
1B7
331
3AC
  5
1B6
331
3AD
  5
1B5
331
3AE
  5
1B4
331
3AF
  5
1B3
331
3B0
  5
1B2
331
3B1
  5
1B1
331
3B2
  5
1B0
331
3B3
  5
1AF
331
3B4
  5
1AE
331
3B5
  5
1AD
331
3B6
  5
1AC
331
3B7
  5
1AB
331
3B8
  5
1AA
331
3BA
  5
1A8
331
3BB
  5
1A7
331
3BC
  5
1A6
331
3BD
  5
1A5
331
3BE
  5
1A4
331
3BF
  5
1A3
331
3C0
  5
1A2
331
3C1
  5
1A1
331
3C2
  5
1A0
331
3C3
  5
19F
331
3C4
  5
19E
331
3C5
  5
19D
331
3C6
  5
19C
331
3C7
  5
19B
331
3C8
  5
19A
331
3C9
  5
199
331
3CA
  5
198
331
3CB
  5
197
331
3CC
  5
196
331
3CD
  5
195
331
3CE
  5
194
331
3CF
  5
193
331
3D0
  5
192
331
3D1
  5
191
331
3D2
  5
190
331
3D3
  5
18F
331
3D4
  5
18E
331
3D5
  5
18D
331
3D6
  5
18C
331
3D7
  5
18B
331
3D8
  5
18A
331
3D9
  5
189
331
3DA
  5
188
331
3DB
  5
187
331
3DC
  5
186
331
3DD
  5
185
331
3DE
  5
184
331
3DF
  5
183
331
3E0
  5
182
331
3E1
  5
181
331
3E2
  5
180
331
3E3
  5
17F
331
3E4
  5
17E
331
3E5
  5
17D
331
3E6
  5
17C
331
3E7
  5
17B
331
3E8
  5
17A
331
3E9
  5
179
331
3EA
  5
178
331
3EB
  5
177
331
3EC
  5
176
331
3ED
  5
175
331
3EE
  5
174
331
3EF
  5
173
331
3F0
  5
172
331
3F1
  5
171
331
3F2
  5
170
331
3F3
  5
16F
331
3F4
  5
16E
331
3F5
  5
16D
331
3F6
  5
16C
331
3F7
  5
16B
331
3F8
  5
16A
331
3F9
  5
169
331
3FA
  5
168
331
3FB
  5
167
331
3FC
  5
166
331
3FD
  5
165
331
3FE
  5
164
331
3FF
  5
163
331
400
  5
162
331
401
  5
161
331
402
  5
160
331
403
  5
15F
331
404
  5
15E
331
407
  5
15B
331
409
  5
159
331
40A
  5
158
331
40D
  5
155
331
40E
  5
154
331
40F
  5
153
331
410
  5
152
331
411
  5
151
331
412
  5
150
331
413
  5
14F
331
414
  5
14E
331
415
  5
14D
331
416
  5
14C
331
417
  5
14B
331
418
  5
14A
331
419
  5
149
331
41A
  5
148
331
41B
  5
147
331
41C
  5
146
331
41F
  5
143
331
421
  5
141
331
423
  5
13F
331
424
  5
13E
331
425
  5
13D
331
426
  5
13C
331
427
  5
13B
331
428
  5
13A
331
429
  5
139
331
42A
  5
138
331
42B
  5
137
331
42C
  5
136
331
42D
  5
135
331
42E
  5
134
331
42F
  5
133
331
430
  5
132
331
431
  5
131
331
432
  5
130
331
433
  5
12F
331
434
  5
12E
331
435
  5
12D
331
436
  5
12C
331
437
  5
12B
331
438
  5
12A
331
439
  5
129
331
43A
  5
128
331
43B
  5
127
331
43C
  5
126
331
43D
  5
125
331
43E
  5
124
331
43F
  5
123
331
440
  5
122
331
441
  5
121
331
442
  5
120
331
443
  5
11F
331
444
  5
11E
331
445
  5
11D
331
446
  5
11C
331
447
  5
11B
331
451
  5
111
331
452
  5
110
331
453
  5
10F
331
454
  5
10E
331
456
  5
10C
331
457
  5
10B
331
458
  5
10A
331
459
  5
109
331
45A
  5
108
331
45B
  5
107
331
45C
  5
106
331
45D
  5
105
331
45E
  5
104
331
45F
  5
103
331
460
  5
102
331
461
  5
101
331
462
  5
100
331
463
  5
FF
331
464
  5
FE
331
465
  5
FD
331
466
  5
FC
331
467
  5
FB
331
468
  5
FA
331
469
  5
F9
331
46A
  5
F8
331
46B
  5
F7
331
46C
  5
F6
331
46D
  5
F5
331
46E
  5
F4
331
46F
  5
F3
331
470
  5
F2
331
471
  5
F1
331
472
  5
F0
331
473
  5
EF
331
474
  5
EE
331
475
  5
ED
331
476
  5
EC
331
477
  5
EB
331
478
  5
EA
331
479
  5
E9
331
47A
  5
E8
331
47B
  5
E7
331
47C
  5
E6
331
47D
  5
E5
331
47E
  5
E4
331
47F
  5
E3
331
480
  5
E2
331
482
  5
E0
331
483
  5
DF
331
486
  5
DC
331
487
  5
DB
331
488
  5
DA
331
489
  5
D9
331
490
  5
D2
331
491
  5
D1
331
492
  5
D0
  0
LAYOUT
  5
1D
102
{ACAD_REACTORS
330
1E
102
}
330
1E
100
AcDbPlotSettings
  1

  2
Bullzip PDF Printer.pc3
  4
A3
  6

 40
0.2
 41
0.0
 42
0.0
 43
0.0
 44
420.2
 45
297.1
 46
25.0
 47
12.0
 48
139.9999997783334
 49
0.0
140
2813.999993653335
141
1907.499995549166
142
1.0
143
7.0
 70
 11936
 72
     1
 73
     0
 74
     4
  7
monochrome.ctb
 75
     0
147
0.1428571428571428
148
-139.9999997783334
149
0.0
100
AcDbLayout
  1
Model
 70
     0
 71
     0
 10
0.0
 20
0.0
 11
12.0
 21
9.0
 12
0.0
 22
0.0
 32
0.0
 14
253.2582887078311
 24
44.98378559837067
 34
0.0
 15
2253.210158151834
 25
2069.619573374057
 35
0.0
146
0.0
 13
0.0
 23
0.0
 33
0.0
 16
1.0
 26
0.0
 36
0.0
 17
0.0
 27
1.0
 37
0.0
 76
     0
330
17
331
2A
1001
ACAD_PSEXT
1000
Bullzip PDF Printer.pc3
1000
Bullzip PDF Printer
1000
BULLZIP
1000
Bullzip PDF Printer 10.1.0.1871
1070
     0
  0
LAYOUT
  5
22
102
{ACAD_REACTORS
330
1E
102
}
330
1E
100
AcDbPlotSettings
  1

  2
SR-LP8300F
  4

  6

 40
0.0
 41
0.0
 42
0.0
 43
0.0
 44
0.0
 45
0.0
 46
0.0
 47
0.0
 48
0.0
 49
0.0
140
0.0
141
0.0
142
1.0
143
1.0
 70
   688
 72
     0
 73
     0
 74
     5
  7
monochrome.ctb
 75
    16
147
1.0
148
0.0
149
0.0
100
AcDbLayout
  1
ﾚｲｱｳﾄ1
 70
     0
 71
     1
 10
0.0
 20
0.0
 11
12.0
 21
9.0
 12
0.0
 22
0.0
 32
0.0
 14
1.000000000000000E+20
 24
1.000000000000000E+20
 34
1.000000000000000E+20
 15
-1.000000000000000E+20
 25
-1.000000000000000E+20
 35
-1.000000000000000E+20
146
0.0
 13
0.0
 23
0.0
 33
0.0
 16
1.0
 26
0.0
 36
0.0
 17
0.0
 27
1.0
 37
0.0
 76
     0
330
1F
  0
MATERIAL
  5
4F
102
{ACAD_REACTORS
330
7
102
}
102
{ACAD_XDICTIONARY
360
60E
102
}
330
7
100
AcDbMaterial
  1
ByBlock
  0
MATERIAL
  5
10
102
{ACAD_REACTORS
330
7
102
}
102
{ACAD_XDICTIONARY
360
60A
102
}
330
7
100
AcDbMaterial
  1
ByLayer
  0
MATERIAL
  5
6
102
{ACAD_REACTORS
330
7
102
}
102
{ACAD_XDICTIONARY
360
60C
102
}
330
7
100
AcDbMaterial
  1
Global
1001
ACAD
1070
    -1
1070
     3
1070
     0
1000

1071
        0
  0
MLEADERSTYLE
  5
5E8
102
{ACAD_REACTORS
330
541
102
}
102
{ACAD_XDICTIONARY
360
640
102
}
330
541
100
AcDbMLeaderStyle
170
     2
171
     1
172
     0
 90
        2
 40
0.0
 41
0.0
173
     1
 91
-1056964608
340
D
 92
       -2
290
     1
 42
0.09
291
     1
 43
0.36
  3
Standard
341
0
 44
0.18
300

342
E
174
     1
178
     6
175
     1
176
     0
 93
-1056964608
 45
0.18
292
     0
297
     0
 46
0.18
343
0
 94
-1056964608
 47
1.0
 49
1.0
140
1.0
293
     1
141
0.0
294
     1
177
     0
142
1.0
295
     0
296
     0
143
0.125
1001
ACAD_MLEADERVER
1070
     2
  0
MLINESTYLE
  5
14
102
{ACAD_REACTORS
330
15
102
}
330
15
100
AcDbMlineStyle
  2
STANDARD
 70
     0
  3

 62
     0
 51
90.0
 52
90.0
 71
     2
 49
0.5
 62
   256
  6
BYLAYER
 49
-0.5
 62
   256
  6
BYLAYER
  0
ACDBPLACEHOLDER
  5
3
102
{ACAD_REACTORS
330
4
102
}
330
4
  0
SCALE
  5
4E
102
{ACAD_REACTORS
330
2C
102
}
330
2C
100
AcDbScale
 70
     0
300
1:1
140
1.0
141
1.0
290
     1
  0
TABLESTYLE
  5
5FF
102
{ACAD_REACTORS
330
540
102
}
330
540
100
AcDbTableStyle
  3
Standard
 70
     0
 71
     0
 40
0.06
 41
0.06
280
     0
281
     0
  7
STANDARD
140
0.18
170
     2
 62
     0
 63
   257
283
     0
274
    -2
284
     1
 64
     0
275
    -2
285
     1
 65
     0
276
    -2
286
     1
 66
     0
277
    -2
287
     1
 67
     0
278
    -2
288
     1
 68
     0
279
    -2
289
     1
 69
     0
  7
STANDARD
140
0.25
170
     5
 62
     0
 63
   257
283
     0
274
    -2
284
     1
 64
     0
275
    -2
285
     1
 65
     0
276
    -2
286
     1
 66
     0
277
    -2
287
     1
 67
     0
278
    -2
288
     1
 68
     0
279
    -2
289
     1
 69
     0
  7
STANDARD
140
0.18
170
     5
 62
     0
 63
   257
283
     0
274
    -2
284
     1
 64
     0
275
    -2
285
     1
 65
     0
276
    -2
286
     1
 66
     0
277
    -2
287
     1
 67
     0
278
    -2
288
     1
 68
     0
279
    -2
289
     1
 69
     0
  0
VISUALSTYLE
  5
549
102
{ACAD_REACTORS
330
29
102
}
102
{ACAD_XDICTIONARY
360
618
102
}
330
29
100
AcDbVisualStyle
  2
2dWireframe
 70
     4
 71
     0
 72
     2
 73
     0
 90
        0
 40
0.6
 41
30.0
 62
     5
 63
     7
 74
     1
 91
        4
 64
     7
 65
   257
 75
     1
175
     1
 42
1.0
 92
        0
 66
   257
 43
1.0
 76
     1
 77
     6
 78
     2
 67
     7
 79
     5
170
     0
171
     0
290
     0
174
     0
 93
        1
 44
0.0
173
     0
291
     0
 45
0.0
1001
ACAD
1000
AcDbSavedByObjectVersion
1070
     0
  0
VISUALSTYLE
  5
54C
102
{ACAD_REACTORS
330
29
102
}
102
{ACAD_XDICTIONARY
360
61E
102
}
330
29
100
AcDbVisualStyle
  2
Basic
 70
     7
 71
     1
 72
     0
 73
     1
 90
        0
 40
0.6
 41
30.0
 62
     5
 63
     7
 74
     0
 91
        4
 64
     7
 65
   257
 75
     1
175
     1
 42
1.0
 92
        8
 66
     7
 43
1.0
 76
     1
 77
     6
 78
     2
 67
     7
 79
     5
170
     0
171
     0
290
     0
174
     0
 93
        1
 44
0.0
173
     0
291
     1
 45
0.0
1001
ACAD
1000
AcDbSavedByObjectVersion
1070
     0
  0
VISUALSTYLE
  5
550
102
{ACAD_REACTORS
330
29
102
}
102
{ACAD_XDICTIONARY
360
626
102
}
330
29
100
AcDbVisualStyle
  2
Brighten
 70
    12
 71
     2
 72
     2
 73
     0
 90
        0
 40
0.6
 41
30.0
 62
     5
 63
     7
 74
     1
 91
        4
 64
     7
 65
   257
 75
     1
175
     1
 42
1.0
 92
        8
 66
     7
 43
1.0
 76
     1
 77
     6
 78
     2
 67
     7
 79
     5
170
     0
171
     0
290
     0
174
     0
 93
        1
 44
50.0
173
     0
291
     1
 45
0.0
1001
ACAD
1000
AcDbSavedByObjectVersion
1070
     0
  0
VISUALSTYLE
  5
554
102
{ACAD_REACTORS
330
29
102
}
102
{ACAD_XDICTIONARY
360
62E
102
}
330
29
100
AcDbVisualStyle
  2
ColorChange
 70
    16
 71
     2
 72
     2
 73
     3
 90
        0
 40
0.6
 41
30.0
 62
     5
 63
     8
 74
     1
 91
        4
 64
     7
 65
   257
 75
     1
175
     1
 42
1.0
 92
        8
 66
     8
 43
1.0
 76
     1
 77
     6
 78
     2
 67
     7
 79
     5
170
     0
171
     0
290
     0
174
     0
 93
        1
 44
0.0
173
     0
291
     1
 45
0.0
1001
ACAD
1000
AcDbSavedByObjectVersion
1070
     0
  0
VISUALSTYLE
  5
54E
102
{ACAD_REACTORS
330
29
102
}
102
{ACAD_XDICTIONARY
360
622
102
}
330
29
100
AcDbVisualStyle
  2
Conceptual
 70
     9
 71
     3
 72
     2
 73
     0
 90
        0
 40
0.6
 41
30.0
 62
     5
 63
     7
 74
     2
 91
        2
 64
     7
 65
   257
 75
     1
175
     1
 42
40.0
 92
        8
 66
     7
 43
1.0
 76
     1
 77
     6
 78
     2
 67
     7
 79
     3
170
     0
171
     0
290
     0
174
     0
 93
        1
 44
0.0
173
     0
291
     0
 45
0.0
1001
ACAD
1000
AcDbSavedByObjectVersion
1070
     0
  0
VISUALSTYLE
  5
54F
102
{ACAD_REACTORS
330
29
102
}
102
{ACAD_XDICTIONARY
360
624
102
}
330
29
100
AcDbVisualStyle
  2
Dim
 70
    11
 71
     2
 72
     2
 73
     0
 90
        0
 40
0.6
 41
30.0
 62
     5
 63
     7
 74
     1
 91
        4
 64
     7
 65
   257
 75
     1
175
     1
 42
1.0
 92
        8
 66
     7
 43
1.0
 76
     1
 77
     6
 78
     2
 67
     7
 79
     5
170
     0
171
     0
290
     0
174
     0
 93
        1
 44
-50.0
173
     0
291
     1
 45
0.0
1001
ACAD
1000
AcDbSavedByObjectVersion
1070
     0
  0
VISUALSTYLE
  5
557
102
{ACAD_REACTORS
330
29
102
}
102
{ACAD_XDICTIONARY
360
634
102
}
330
29
100
AcDbVisualStyle
  2
EdgeColorOff
 70
    22
 71
     2
 72
     2
 73
     0
 90
        0
 40
0.6
 41
30.0
 62
     5
 63
     7
 74
     1
 91
        4
 64
     7
 65
   257
 75
     1
175
     1
 42
1.0
 92
        8
 66
     7
 43
1.0
 76
     1
 77
     6
 78
     2
 67
     7
 79
     5
170
     0
171
     0
290
     0
174
     0
 93
        1
 44
0.0
173
     0
291
     1
 45
0.0
1001
ACAD
1000
AcDbSavedByObjectVersion
1070
     0
  0
VISUALSTYLE
  5
553
102
{ACAD_REACTORS
330
29
102
}
102
{ACAD_XDICTIONARY
360
62C
102
}
330
29
100
AcDbVisualStyle
  2
Facepattern
 70
    15
 71
     2
 72
     2
 73
     0
 90
        0
 40
0.6
 41
30.0
 62
     5
 63
     7
 74
     1
 91
        4
 64
     7
 65
   257
 75
     1
175
     1
 42
1.0
 92
        8
 66
     7
 43
1.0
 76
     1
 77
     6
 78
     2
 67
     7
 79
     5
170
     0
171
     0
290
     0
174
     0
 93
        1
 44
0.0
173
     0
291
     1
 45
0.0
1001
ACAD
1000
AcDbSavedByObjectVersion
1070
     0
  0
VISUALSTYLE
  5
545
102
{ACAD_REACTORS
330
29
102
}
102
{ACAD_XDICTIONARY
360
610
102
}
330
29
100
AcDbVisualStyle
  2
Flat
 70
     0
 71
     2
 72
     1
 73
     1
 90
        2
 40
0.6
 41
30.0
 62
     5
 63
     7
 74
     0
 91
        4
 64
     7
 65
   257
 75
     1
175
     1
 42
1.0
 92
        8
 66
     7
 43
1.0
 76
     1
 77
     6
 78
     2
 67
     7
 79
     5
170
     0
171
     0
290
     0
174
     0
 93
       13
 44
0.0
173
     0
291
     1
 45
0.0
1001
ACAD
1000
AcDbSavedByObjectVersion
1070
     0
  0
VISUALSTYLE
  5
546
102
{ACAD_REACTORS
330
29
102
}
102
{ACAD_XDICTIONARY
360
612
102
}
330
29
100
AcDbVisualStyle
  2
FlatWithEdges
 70
     1
 71
     2
 72
     1
 73
     1
 90
        2
 40
0.6
 41
30.0
 62
     5
 63
     7
 74
     1
 91
        4
 64
     7
 65
   257
 75
     1
175
     1
 42
1.0
 92
        0
 66
   257
 43
1.0
 76
     1
 77
     6
 78
     2
 67
     7
 79
     5
170
     0
171
     0
290
     0
174
     0
 93
       13
 44
0.0
173
     0
291
     1
 45
0.0
1001
ACAD
1000
AcDbSavedByObjectVersion
1070
     0
  0
VISUALSTYLE
  5
547
102
{ACAD_REACTORS
330
29
102
}
102
{ACAD_XDICTIONARY
360
614
102
}
330
29
100
AcDbVisualStyle
  2
Gouraud
 70
     2
 71
     2
 72
     2
 73
     1
 90
        2
 40
0.6
 41
30.0
 62
     5
 63
     7
 74
     0
 91
        4
 64
     7
 65
   257
 75
     1
175
     1
 42
1.0
 92
        0
 66
     7
 43
1.0
 76
     1
 77
     6
 78
     2
 67
     7
 79
     5
170
     0
171
     0
290
     0
174
     0
 93
       13
 44
0.0
173
     0
291
     1
 45
0.0
1001
ACAD
1000
AcDbSavedByObjectVersion
1070
     0
  0
VISUALSTYLE
  5
548
102
{ACAD_REACTORS
330
29
102
}
102
{ACAD_XDICTIONARY
360
616
102
}
330
29
100
AcDbVisualStyle
  2
GouraudWithEdges
 70
     3
 71
     2
 72
     2
 73
     1
 90
        2
 40
0.6
 41
30.0
 62
     5
 63
     7
 74
     1
 91
        4
 64
     7
 65
   257
 75
     1
175
     1
 42
1.0
 92
        0
 66
   257
 43
1.0
 76
     1
 77
     6
 78
     2
 67
     7
 79
     5
170
     0
171
     0
290
     0
174
     0
 93
       13
 44
0.0
173
     0
291
     1
 45
0.0
1001
ACAD
1000
AcDbSavedByObjectVersion
1070
     0
  0
VISUALSTYLE
  5
54B
102
{ACAD_REACTORS
330
29
102
}
102
{ACAD_XDICTIONARY
360
61C
102
}
330
29
100
AcDbVisualStyle
  2
Hidden
 70
     6
 71
     1
 72
     2
 73
     2
 90
        0
 40
0.6
 41
30.0
 62
     5
 63
     7
 74
     2
 91
        2
 64
     7
 65
   257
 75
     2
175
     1
 42
40.0
 92
        0
 66
   257
 43
1.0
 76
     1
 77
     6
 78
     2
 67
     7
 79
     3
170
     0
171
     0
290
     0
174
     0
 93
        1
 44
0.0
173
     0
291
     0
 45
0.0
1001
ACAD
1000
AcDbSavedByObjectVersion
1070
     0
  0
VISUALSTYLE
  5
555
102
{ACAD_REACTORS
330
29
102
}
102
{ACAD_XDICTIONARY
360
630
102
}
330
29
100
AcDbVisualStyle
  2
JitterOff
 70
    20
 71
     2
 72
     2
 73
     0
 90
        0
 40
0.6
 41
30.0
 62
     5
 63
     7
 74
     1
 91
        4
 64
     7
 65
   257
 75
     1
175
     1
 42
1.0
 92
       10
 66
     7
 43
1.0
 76
     1
 77
     6
 78
     2
 67
     7
 79
     5
170
     0
171
     0
290
     0
174
     0
 93
        1
 44
0.0
173
     0
291
     1
 45
0.0
1001
ACAD
1000
AcDbSavedByObjectVersion
1070
     0
  0
VISUALSTYLE
  5
552
102
{ACAD_REACTORS
330
29
102
}
102
{ACAD_XDICTIONARY
360
62A
102
}
330
29
100
AcDbVisualStyle
  2
Linepattern
 70
    14
 71
     2
 72
     2
 73
     0
 90
        0
 40
0.6
 41
30.0
 62
     5
 63
     7
 74
     1
 91
        4
 64
     7
 65
   257
 75
     7
175
     7
 42
1.0
 92
        8
 66
     7
 43
1.0
 76
     1
 77
     6
 78
     2
 67
     7
 79
     5
170
     0
171
     0
290
     0
174
     0
 93
        1
 44
0.0
173
     0
291
     1
 45
0.0
1001
ACAD
1000
AcDbSavedByObjectVersion
1070
     0
  0
VISUALSTYLE
  5
556
102
{ACAD_REACTORS
330
29
102
}
102
{ACAD_XDICTIONARY
360
632
102
}
330
29
100
AcDbVisualStyle
  2
OverhangOff
 70
    21
 71
     2
 72
     2
 73
     0
 90
        0
 40
0.6
 41
30.0
 62
     5
 63
     7
 74
     1
 91
        4
 64
     7
 65
   257
 75
     1
175
     1
 42
1.0
 92
        9
 66
     7
 43
1.0
 76
     1
 77
     6
 78
     2
 67
     7
 79
     5
170
     0
171
     0
290
     0
174
     0
 93
        1
 44
0.0
173
     0
291
     1
 45
0.0
1001
ACAD
1000
AcDbSavedByObjectVersion
1070
     0
  0
VISUALSTYLE
  5
54D
102
{ACAD_REACTORS
330
29
102
}
102
{ACAD_XDICTIONARY
360
620
102
}
330
29
100
AcDbVisualStyle
  2
Realistic
 70
     8
 71
     2
 72
     3
 73
     0
 90
        2
 40
0.6
 41
30.0
 62
     5
 63
     7
 74
     0
 91
        0
 64
     7
 65
   257
 75
     1
175
     1
 42
1.0
 92
        8
 66
   257
 43
1.0
 76
     1
 77
     6
 78
     2
 67
     7
 79
     3
170
     0
171
     0
290
     0
174
     0
 93
       13
 44
0.0
173
     0
291
     0
 45
0.0
1001
ACAD
1000
AcDbSavedByObjectVersion
1070
     0
  0
VISUALSTYLE
  5
55C
102
{ACAD_REACTORS
330
29
102
}
102
{ACAD_XDICTIONARY
360
63E
102
}
330
29
100
AcDbVisualStyle
  2
Shaded
 70
    27
 71
     2
 72
     2
 73
     1
 90
        2
 40
0.6
 41
30.0
 62
     5
 63
     7
 74
     0
 91
        4
 64
     7
 65
   257
 75
     1
175
     1
 42
1.0
 92
        8
 66
   257
 43
1.0
 76
     1
 77
     6
 78
     2
 67
   251
 79
     3
170
     0
171
     0
290
     0
174
     0
 93
        5
 44
0.0
173
     0
291
     0
 45
0.0
1001
ACAD
1000
AcDbSavedByObjectVersion
1070
     0
  0
VISUALSTYLE
  5
55B
102
{ACAD_REACTORS
330
29
102
}
102
{ACAD_XDICTIONARY
360
63C
102
}
330
29
100
AcDbVisualStyle
  2
Shaded with edges
 70
    26
 71
     2
 72
     2
 73
     1
 90
        2
 40
0.6
 41
30.0
 62
     5
 63
     7
 74
     1
 91
       10
 64
     7
 65
   257
 75
     2
175
     1
 42
1.0
 92
        8
 66
   257
 43
1.0
 76
     1
 77
     6
 78
     2
 67
     7
 79
     3
170
     0
171
     0
290
     0
174
     0
 93
        5
 44
0.0
173
     0
291
     0
 45
0.0
1001
ACAD
1000
AcDbSavedByObjectVersion
1070
     0
  0
VISUALSTYLE
  5
558
102
{ACAD_REACTORS
330
29
102
}
102
{ACAD_XDICTIONARY
360
636
102
}
330
29
100
AcDbVisualStyle
  2
Shades of Gray
 70
    23
 71
     2
 72
     2
 73
     3
 90
        0
 40
0.6
 41
30.0
 62
     5
 63
     7
 74
     2
 91
        2
 64
     7
 65
     7
 75
     1
175
     1
 42
40.0
 92
        8
 66
     7
 43
1.0
 76
     1
 77
     6
 78
     2
 67
     7
 79
     3
170
     0
171
     0
290
     0
174
     0
 93
        1
 44
0.0
173
     0
291
     0
 45
0.0
1001
ACAD
1000
AcDbSavedByObjectVersion
1070
     0
  0
VISUALSTYLE
  5
559
102
{ACAD_REACTORS
330
29
102
}
102
{ACAD_XDICTIONARY
360
638
102
}
330
29
100
AcDbVisualStyle
  2
Sketchy
 70
    24
 71
     1
 72
     2
 73
     2
 90
        0
 40
0.6
 41
30.0
 62
     5
 63
     7
 74
     2
 91
        2
 64
     7
 65
     7
 75
     1
175
     1
 42
40.0
 92
       11
 66
     7
 43
1.0
 76
     1
 77
     6
 78
     2
 67
     7
 79
     6
170
     0
171
     0
290
     0
174
     0
 93
        1
 44
0.0
173
     0
291
     0
 45
0.0
1001
ACAD
1000
AcDbSavedByObjectVersion
1070
     0
  0
VISUALSTYLE
  5
551
102
{ACAD_REACTORS
330
29
102
}
102
{ACAD_XDICTIONARY
360
628
102
}
330
29
100
AcDbVisualStyle
  2
Thicken
 70
    13
 71
     2
 72
     2
 73
     0
 90
        0
 40
0.6
 41
30.0
 62
     5
 63
     7
 74
     1
 91
        4
 64
     7
 65
   257
 75
     1
175
     1
 42
1.0
 92
       12
 66
     7
 43
1.0
 76
     1
 77
     6
 78
     2
 67
     7
 79
     5
170
     0
171
     0
290
     0
174
     0
 93
        1
 44
0.0
173
     0
291
     1
 45
0.0
1001
ACAD
1000
AcDbSavedByObjectVersion
1070
     0
  0
VISUALSTYLE
  5
54A
102
{ACAD_REACTORS
330
29
102
}
102
{ACAD_XDICTIONARY
360
61A
102
}
330
29
100
AcDbVisualStyle
  2
Wireframe
 70
     5
 71
     0
 72
     2
 73
     0
 90
        0
 40
0.6
 41
30.0
 62
     5
 63
     7
 74
     1
 91
        4
 64
     7
 65
   257
 75
     1
175
     1
 42
1.0
 92
        0
 66
   257
 43
1.0
 76
     1
 77
     6
 78
     2
 67
     7
 79
     5
170
     0
171
     0
290
     0
174
     0
 93
        1
 44
0.0
173
     0
291
     0
 45
0.0
1001
ACAD
1000
AcDbSavedByObjectVersion
1070
     0
  0
VISUALSTYLE
  5
55A
102
{ACAD_REACTORS
330
29
102
}
102
{ACAD_XDICTIONARY
360
63A
102
}
330
29
100
AcDbVisualStyle
  2
X-Ray
 70
    25
 71
     2
 72
     2
 73
     1
 90
        1
 40
0.5
 41
30.0
 62
     5
 63
     7
 74
     1
 91
        0
 64
     7
 65
   257
 75
     1
175
     1
 42
1.0
 92
        8
 66
     7
 43
1.0
 76
     1
 77
     6
 78
     2
 67
     7
 79
     3
170
     0
171
     0
290
     0
174
     0
 93
       13
 44
0.0
173
     0
291
     0
 45
0.0
1001
ACAD
1000
AcDbSavedByObjectVersion
1070
     0
  0
XRECORD
  5
604
102
{ACAD_REACTORS
330
603
102
}
330
603
100
AcDbXrecord
280
     1
340
28
  0
XRECORD
  5
605
102
{ACAD_REACTORS
330
603
102
}
330
603
100
AcDbXrecord
280
     1
340
7
  0
DICTIONARYVAR
  5
53F
102
{ACAD_REACTORS
330
53E
102
}
330
53E
100
DictionaryVariables
280
     0
  1
1:1
  0
DICTIONARYVAR
  5
5EA
102
{ACAD_REACTORS
330
53E
102
}
330
53E
100
DictionaryVariables
280
     0
  1
Standard
  0
DICTIONARYVAR
  5
600
102
{ACAD_REACTORS
330
53E
102
}
330
53E
100
DictionaryVariables
280
     0
  1
Standard
  0
DICTIONARYVAR
  5
601
102
{ACAD_REACTORS
330
53E
102
}
330
53E
100
DictionaryVariables
280
     0
  1
0
  0
DICTIONARYVAR
  5
602
102
{ACAD_REACTORS
330
53E
102
}
330
53E
100
DictionaryVariables
280
     0
  1
1
  0
DICTIONARYVAR
  5
609
102
{ACAD_REACTORS
330
53E
102
}
330
53E
100
DictionaryVariables
280
     0
  1
1
  0
DICTIONARYVAR
  5
542
102
{ACAD_REACTORS
330
53E
102
}
330
53E
100
DictionaryVariables
280
     0
  1
0
  0
DICTIONARY
  5
60E
330
4F
100
AcDbDictionary
280
     1
281
     1
  3
ACAD_XREC_ROUNDTRIP
360
60F
  0
DICTIONARY
  5
60A
330
10
100
AcDbDictionary
280
     1
281
     1
  3
ACAD_XREC_ROUNDTRIP
360
60B
  0
DICTIONARY
  5
60C
330
6
100
AcDbDictionary
280
     1
281
     1
  3
ACAD_XREC_ROUNDTRIP
360
60D
  0
DICTIONARY
  5
640
330
5E8
100
AcDbDictionary
280
     1
281
     1
  3
ACAD_XREC_ROUNDTRIP
360
641
  0
DICTIONARY
  5
618
330
549
100
AcDbDictionary
280
     1
281
     1
  3
ACAD_XREC_ROUNDTRIP
360
619
  0
DICTIONARY
  5
61E
330
54C
100
AcDbDictionary
280
     1
281
     1
  3
ACAD_XREC_ROUNDTRIP
360
61F
  0
DICTIONARY
  5
626
330
550
100
AcDbDictionary
280
     1
281
     1
  3
ACAD_XREC_ROUNDTRIP
360
627
  0
DICTIONARY
  5
62E
330
554
100
AcDbDictionary
280
     1
281
     1
  3
ACAD_XREC_ROUNDTRIP
360
62F
  0
DICTIONARY
  5
622
330
54E
100
AcDbDictionary
280
     1
281
     1
  3
ACAD_XREC_ROUNDTRIP
360
623
  0
DICTIONARY
  5
624
330
54F
100
AcDbDictionary
280
     1
281
     1
  3
ACAD_XREC_ROUNDTRIP
360
625
  0
DICTIONARY
  5
634
330
557
100
AcDbDictionary
280
     1
281
     1
  3
ACAD_XREC_ROUNDTRIP
360
635
  0
DICTIONARY
  5
62C
330
553
100
AcDbDictionary
280
     1
281
     1
  3
ACAD_XREC_ROUNDTRIP
360
62D
  0
DICTIONARY
  5
610
330
545
100
AcDbDictionary
280
     1
281
     1
  3
ACAD_XREC_ROUNDTRIP
360
611
  0
DICTIONARY
  5
612
330
546
100
AcDbDictionary
280
     1
281
     1
  3
ACAD_XREC_ROUNDTRIP
360
613
  0
DICTIONARY
  5
614
330
547
100
AcDbDictionary
280
     1
281
     1
  3
ACAD_XREC_ROUNDTRIP
360
615
  0
DICTIONARY
  5
616
330
548
100
AcDbDictionary
280
     1
281
     1
  3
ACAD_XREC_ROUNDTRIP
360
617
  0
DICTIONARY
  5
61C
330
54B
100
AcDbDictionary
280
     1
281
     1
  3
ACAD_XREC_ROUNDTRIP
360
61D
  0
DICTIONARY
  5
630
330
555
100
AcDbDictionary
280
     1
281
     1
  3
ACAD_XREC_ROUNDTRIP
360
631
  0
DICTIONARY
  5
62A
330
552
100
AcDbDictionary
280
     1
281
     1
  3
ACAD_XREC_ROUNDTRIP
360
62B
  0
DICTIONARY
  5
632
330
556
100
AcDbDictionary
280
     1
281
     1
  3
ACAD_XREC_ROUNDTRIP
360
633
  0
DICTIONARY
  5
620
330
54D
100
AcDbDictionary
280
     1
281
     1
  3
ACAD_XREC_ROUNDTRIP
360
621
  0
DICTIONARY
  5
63E
330
55C
100
AcDbDictionary
280
     1
281
     1
  3
ACAD_XREC_ROUNDTRIP
360
63F
  0
DICTIONARY
  5
63C
330
55B
100
AcDbDictionary
280
     1
281
     1
  3
ACAD_XREC_ROUNDTRIP
360
63D
  0
DICTIONARY
  5
636
330
558
100
AcDbDictionary
280
     1
281
     1
  3
ACAD_XREC_ROUNDTRIP
360
637
  0
DICTIONARY
  5
638
330
559
100
AcDbDictionary
280
     1
281
     1
  3
ACAD_XREC_ROUNDTRIP
360
639
  0
DICTIONARY
  5
628
330
551
100
AcDbDictionary
280
     1
281
     1
  3
ACAD_XREC_ROUNDTRIP
360
629
  0
DICTIONARY
  5
61A
330
54A
100
AcDbDictionary
280
     1
281
     1
  3
ACAD_XREC_ROUNDTRIP
360
61B
  0
DICTIONARY
  5
63A
330
55A
100
AcDbDictionary
280
     1
281
     1
  3
ACAD_XREC_ROUNDTRIP
360
63B
  0
XRECORD
  5
60F
102
{ACAD_REACTORS
330
60E
102
}
330
60E
100
AcDbXrecord
280
     1
102
MATERIAL
148
0.0
149
0.0
149
0.0
 93
        0
 94
      127
282
     0
 72
     1
 77
     1
171
     1
175
     1
179
     1
273
     0
  0
XRECORD
  5
60B
102
{ACAD_REACTORS
330
60A
102
}
330
60A
100
AcDbXrecord
280
     1
102
MATERIAL
148
0.0
149
0.0
149
0.0
 93
        0
 94
      127
282
     0
 72
     1
 77
     1
171
     1
175
     1
179
     1
273
     0
  0
XRECORD
  5
60D
102
{ACAD_REACTORS
330
60C
102
}
330
60C
100
AcDbXrecord
280
     1
102
MATERIAL
148
0.0
149
0.0
149
0.0
 93
        0
 94
      127
282
     0
 72
     1
 77
     1
171
     1
175
     1
179
     1
273
     0
  0
XRECORD
  5
641
102
{ACAD_REACTORS
330
640
102
}
330
640
100
AcDbXrecord
280
     1
102
ACAD_ROUNDTRIP_2010_MLEADER_STYLE
  0
XRECORD
  5
619
102
{ACAD_REACTORS
330
618
102
}
330
618
100
AcDbXrecord
280
     1
102
RTVSPropertyOp0
 70
     1
102
RTVSPropertyOp1
 70
     1
102
RTVSPropertyOp2
 70
     1
102
RTVSPropertyOp3
 70
     1
102
RTVSPropertyOp4
 70
     1
102
RTVSPropertyOp5
 70
     1
102
RTVSPropertyOp6
 70
     1
102
RTVSPropertyOp7
 70
     1
102
RTVSPropertyOp8
 70
     1
102
RTVSPropertyOp9
 70
     1
102
RTVSPropertyOp10
 70
     1
102
RTVSPropertyOp11
 70
     1
102
RTVSPropertyOp12
 70
     1
102
RTVSPropertyOp13
 70
     1
102
RTVSPropertyOp14
 70
     1
102
RTVSPropertyOp15
 70
     1
102
RTVSPropertyOp16
 70
     1
102
RTVSPropertyOp17
 70
     1
102
RTVSPropertyOp18
 70
     1
102
RTVSPropertyOp19
 70
     1
102
RTVSPropertyOp20
 70
     1
102
RTVSPropertyOp21
 70
     1
102
RTVSPropertyOp22
 70
     1
102
RTVSPropertyOp23
 70
     1
102
RTVSPropertyOp24
 70
     1
102
RTVSPropertyOp25
 70
     1
102
RTVSPropertyOp26
 70
     1
102
RTVSPropertyOp27
 70
     1
102
RTVSPropertyOp28
 70
     1
102
RTVSPropertyOp29
 70
     1
102
RTVSPropertyOp30
 70
     1
102
RTVSPropertyOp31
 70
     1
102
RTVSPropertyOp32
 70
     1
102
RTVSPropertyOp33
 70
     1
102
RTVSPropertyOp34
 70
     1
102
RTVSPropertyOp35
 70
     1
102
RTVSPropertyOp36
 70
     1
102
RTVSPropertyOp37
 70
     1
102
RTVSPropertyOp38
 70
     1
102
RTVSPropertyOp39
 70
     1
102
RTVSPropertyOp40
 70
     1
102
RTVSPropertyOp41
 70
     1
102
RTVSPropertyOp42
 70
     1
102
RTVSPropertyOp43
 70
     1
102
RTVSPropertyOp44
 70
     1
102
RTVSPropertyOp45
 70
     1
102
RTVSPropertyOp46
 70
     1
102
RTVSPropertyOp47
 70
     1
102
RTVSPropertyOp48
 70
     1
102
RTVSPropertyOp49
 70
     1
102
RTVSPropertyOp50
 70
     1
102
RTVSPropertyOp51
 70
     0
102
RTVSPropertyOp52
 70
     0
102
RTVSPropertyOp53
 70
     1
102
RTVSPropertyOp54
 70
     1
102
RTVSPropertyOp55
 70
     1
102
RTVSPropertyOp56
 70
     1
102
RTVSPropertyOp57
 70
     1
102
RTVSPost2010Prop28
280
     1
102
RTVSPost2010PropOp28
 70
     1
102
RTVSPost2010Prop29
280
     1
102
RTVSPost2010PropOp29
 70
     1
102
RTVSPost2010Prop30
280
     0
102
RTVSPost2010PropOp30
 70
     1
102
RTVSPost2010Prop31
280
     0
102
RTVSPost2010PropOp31
 70
     1
102
RTVSPost2010Prop32
280
     0
102
RTVSPost2010PropOp32
 70
     1
102
RTVSPost2010Prop33
280
     0
102
RTVSPost2010PropOp33
 70
     1
102
RTVSPost2010Prop34
280
     0
102
RTVSPost2010PropOp34
 70
     1
102
RTVSPost2010Prop35
280
     0
102
RTVSPost2010PropOp35
 70
     1
102
RTVSPost2010Prop36
280
     0
102
RTVSPost2010PropOp36
 70
     1
102
RTVSPost2010Prop37
 90
       50
102
RTVSPost2010PropOp37
 70
     1
102
RTVSPost2010Prop38
140
0.0
102
RTVSPost2010PropOp38
 70
     1
102
RTVSPost2010Prop39
140
1.0
102
RTVSPost2010PropOp39
 70
     1
102
RTVSPost2010Prop40
 90
        0
102
RTVSPost2010PropOp40
 70
     1
102
RTVSPost2010Prop41ColorIndex
 90
       18
102
RTVSPost2010Prop41ColorRGB
 90
        0
102
RTVSPost2010PropOp41
 70
     1
102
RTVSPost2010Prop42
 90
       50
102
RTVSPost2010PropOp42
 70
     1
102
RTVSPost2010Prop43
 90
        3
102
RTVSPost2010PropOp43
 70
     1
102
RTVSPost2010Prop44ColorIndex
 90
        5
102
RTVSPost2010Prop44ColorRGB
 90
      255
102
RTVSPost2010PropOp44
 70
     1
102
RTVSPost2010Prop45
280
     0
102
RTVSPost2010PropOp45
 70
     1
102
RTVSPost2010Prop46
 90
       50
102
RTVSPost2010PropOp46
 70
     1
102
RTVSPost2010Prop47
 90
       50
102
RTVSPost2010PropOp47
 70
     1
102
RTVSPost2010Prop48
 90
       50
102
RTVSPost2010PropOp48
 70
     1
102
RTVSPost2010Prop49
280
     0
102
RTVSPost2010PropOp49
 70
     1
102
RTVSPost2010Prop50
 90
       50
102
RTVSPost2010PropOp50
 70
     1
102
RTVSPost2010Prop51ColorIndex
 90
      256
102
RTVSPost2010Prop51ColorRGB
 90
-16777216
102
RTVSPost2010PropOp51
 70
     0
102
RTVSPost2010Prop52
140
1.0
102
RTVSPost2010PropOp52
 70
     0
102
RTVSPost2010Prop53
 90
        2
102
RTVSPost2010PropOp53
 70
     1
102
RTVSPost2010Prop54
  1
strokes_ogs.tif
102
RTVSPost2010PropOp54
 70
     1
102
RTVSPost2010Prop55
280
     0
102
RTVSPost2010PropOp55
 70
     1
102
RTVSPost2010Prop56
140
1.0
102
RTVSPost2010PropOp56
 70
     1
102
RTVSPost2010Prop57
140
1.0
102
RTVSPost2010PropOp57
 70
     1
  0
XRECORD
  5
61F
102
{ACAD_REACTORS
330
61E
102
}
330
61E
100
AcDbXrecord
280
     1
102
RTVSPropertyOp0
 70
     1
102
RTVSPropertyOp1
 70
     1
102
RTVSPropertyOp2
 70
     1
102
RTVSPropertyOp3
 70
     1
102
RTVSPropertyOp4
 70
     1
102
RTVSPropertyOp5
 70
     1
102
RTVSPropertyOp6
 70
     1
102
RTVSPropertyOp7
 70
     1
102
RTVSPropertyOp8
 70
     1
102
RTVSPropertyOp9
 70
     1
102
RTVSPropertyOp10
 70
     1
102
RTVSPropertyOp11
 70
     1
102
RTVSPropertyOp12
 70
     1
102
RTVSPropertyOp13
 70
     1
102
RTVSPropertyOp14
 70
     1
102
RTVSPropertyOp15
 70
     1
102
RTVSPropertyOp16
 70
     1
102
RTVSPropertyOp17
 70
     1
102
RTVSPropertyOp18
 70
     1
102
RTVSPropertyOp19
 70
     1
102
RTVSPropertyOp20
 70
     1
102
RTVSPropertyOp21
 70
     1
102
RTVSPropertyOp22
 70
     1
102
RTVSPropertyOp23
 70
     1
102
RTVSPropertyOp24
 70
     1
102
RTVSPropertyOp25
 70
     1
102
RTVSPropertyOp26
 70
     1
102
RTVSPropertyOp27
 70
     1
102
RTVSPropertyOp28
 70
     1
102
RTVSPropertyOp29
 70
     1
102
RTVSPropertyOp30
 70
     1
102
RTVSPropertyOp31
 70
     1
102
RTVSPropertyOp32
 70
     1
102
RTVSPropertyOp33
 70
     1
102
RTVSPropertyOp34
 70
     1
102
RTVSPropertyOp35
 70
     1
102
RTVSPropertyOp36
 70
     1
102
RTVSPropertyOp37
 70
     1
102
RTVSPropertyOp38
 70
     1
102
RTVSPropertyOp39
 70
     1
102
RTVSPropertyOp40
 70
     1
102
RTVSPropertyOp41
 70
     1
102
RTVSPropertyOp42
 70
     1
102
RTVSPropertyOp43
 70
     1
102
RTVSPropertyOp44
 70
     1
102
RTVSPropertyOp45
 70
     1
102
RTVSPropertyOp46
 70
     1
102
RTVSPropertyOp47
 70
     1
102
RTVSPropertyOp48
 70
     1
102
RTVSPropertyOp49
 70
     1
102
RTVSPropertyOp50
 70
     1
102
RTVSPropertyOp51
 70
     0
102
RTVSPropertyOp52
 70
     0
102
RTVSPropertyOp53
 70
     1
102
RTVSPropertyOp54
 70
     1
102
RTVSPropertyOp55
 70
     1
102
RTVSPropertyOp56
 70
     1
102
RTVSPropertyOp57
 70
     1
102
RTVSPost2010Prop28
280
     0
102
RTVSPost2010PropOp28
 70
     1
102
RTVSPost2010Prop29
280
     1
102
RTVSPost2010PropOp29
 70
     1
102
RTVSPost2010Prop30
280
     1
102
RTVSPost2010PropOp30
 70
     1
102
RTVSPost2010Prop31
280
     0
102
RTVSPost2010PropOp31
 70
     1
102
RTVSPost2010Prop32
280
     0
102
RTVSPost2010PropOp32
 70
     1
102
RTVSPost2010Prop33
280
     0
102
RTVSPost2010PropOp33
 70
     1
102
RTVSPost2010Prop34
280
     0
102
RTVSPost2010PropOp34
 70
     1
102
RTVSPost2010Prop35
280
     0
102
RTVSPost2010PropOp35
 70
     1
102
RTVSPost2010Prop36
280
     0
102
RTVSPost2010PropOp36
 70
     1
102
RTVSPost2010Prop37
 90
       50
102
RTVSPost2010PropOp37
 70
     1
102
RTVSPost2010Prop38
140
0.0
102
RTVSPost2010PropOp38
 70
     1
102
RTVSPost2010Prop39
140
1.0
102
RTVSPost2010PropOp39
 70
     1
102
RTVSPost2010Prop40
 90
        0
102
RTVSPost2010PropOp40
 70
     1
102
RTVSPost2010Prop41ColorIndex
 90
       18
102
RTVSPost2010Prop41ColorRGB
 90
        0
102
RTVSPost2010PropOp41
 70
     1
102
RTVSPost2010Prop42
 90
       50
102
RTVSPost2010PropOp42
 70
     1
102
RTVSPost2010Prop43
 90
        3
102
RTVSPost2010PropOp43
 70
     1
102
RTVSPost2010Prop44ColorIndex
 90
        5
102
RTVSPost2010Prop44ColorRGB
 90
      255
102
RTVSPost2010PropOp44
 70
     1
102
RTVSPost2010Prop45
280
     0
102
RTVSPost2010PropOp45
 70
     1
102
RTVSPost2010Prop46
 90
       50
102
RTVSPost2010PropOp46
 70
     1
102
RTVSPost2010Prop47
 90
       50
102
RTVSPost2010PropOp47
 70
     1
102
RTVSPost2010Prop48
 90
       50
102
RTVSPost2010PropOp48
 70
     1
102
RTVSPost2010Prop49
280
     0
102
RTVSPost2010PropOp49
 70
     1
102
RTVSPost2010Prop50
 90
       50
102
RTVSPost2010PropOp50
 70
     1
102
RTVSPost2010Prop51ColorIndex
 90
      256
102
RTVSPost2010Prop51ColorRGB
 90
-16777216
102
RTVSPost2010PropOp51
 70
     0
102
RTVSPost2010Prop52
140
1.0
102
RTVSPost2010PropOp52
 70
     0
102
RTVSPost2010Prop53
 90
        2
102
RTVSPost2010PropOp53
 70
     1
102
RTVSPost2010Prop54
  1
strokes_ogs.tif
102
RTVSPost2010PropOp54
 70
     1
102
RTVSPost2010Prop55
280
     0
102
RTVSPost2010PropOp55
 70
     1
102
RTVSPost2010Prop56
140
1.0
102
RTVSPost2010PropOp56
 70
     1
102
RTVSPost2010Prop57
140
1.0
102
RTVSPost2010PropOp57
 70
     1
  0
XRECORD
  5
627
102
{ACAD_REACTORS
330
626
102
}
330
626
100
AcDbXrecord
280
     1
102
RTVSPropertyOp0
 70
     1
102
RTVSPropertyOp1
 70
     1
102
RTVSPropertyOp2
 70
     1
102
RTVSPropertyOp3
 70
     1
102
RTVSPropertyOp4
 70
     1
102
RTVSPropertyOp5
 70
     1
102
RTVSPropertyOp6
 70
     1
102
RTVSPropertyOp7
 70
     1
102
RTVSPropertyOp8
 70
     1
102
RTVSPropertyOp9
 70
     1
102
RTVSPropertyOp10
 70
     1
102
RTVSPropertyOp11
 70
     1
102
RTVSPropertyOp12
 70
     1
102
RTVSPropertyOp13
 70
     1
102
RTVSPropertyOp14
 70
     1
102
RTVSPropertyOp15
 70
     1
102
RTVSPropertyOp16
 70
     1
102
RTVSPropertyOp17
 70
     1
102
RTVSPropertyOp18
 70
     1
102
RTVSPropertyOp19
 70
     1
102
RTVSPropertyOp20
 70
     1
102
RTVSPropertyOp21
 70
     1
102
RTVSPropertyOp22
 70
     1
102
RTVSPropertyOp23
 70
     1
102
RTVSPropertyOp24
 70
     1
102
RTVSPropertyOp25
 70
     1
102
RTVSPropertyOp26
 70
     1
102
RTVSPropertyOp27
 70
     1
102
RTVSPropertyOp28
 70
     1
102
RTVSPropertyOp29
 70
     1
102
RTVSPropertyOp30
 70
     1
102
RTVSPropertyOp31
 70
     1
102
RTVSPropertyOp32
 70
     1
102
RTVSPropertyOp33
 70
     1
102
RTVSPropertyOp34
 70
     1
102
RTVSPropertyOp35
 70
     1
102
RTVSPropertyOp36
 70
     1
102
RTVSPropertyOp37
 70
     1
102
RTVSPropertyOp38
 70
     1
102
RTVSPropertyOp39
 70
     1
102
RTVSPropertyOp40
 70
     1
102
RTVSPropertyOp41
 70
     1
102
RTVSPropertyOp42
 70
     1
102
RTVSPropertyOp43
 70
     1
102
RTVSPropertyOp44
 70
     1
102
RTVSPropertyOp45
 70
     1
102
RTVSPropertyOp46
 70
     1
102
RTVSPropertyOp47
 70
     1
102
RTVSPropertyOp48
 70
     1
102
RTVSPropertyOp49
 70
     1
102
RTVSPropertyOp50
 70
     1
102
RTVSPropertyOp51
 70
     0
102
RTVSPropertyOp52
 70
     0
102
RTVSPropertyOp53
 70
     1
102
RTVSPropertyOp54
 70
     1
102
RTVSPropertyOp55
 70
     1
102
RTVSPropertyOp56
 70
     1
102
RTVSPropertyOp57
 70
     1
102
RTVSPost2010Prop28
280
     0
102
RTVSPost2010PropOp28
 70
     1
102
RTVSPost2010Prop29
280
     1
102
RTVSPost2010PropOp29
 70
     1
102
RTVSPost2010Prop30
280
     1
102
RTVSPost2010PropOp30
 70
     1
102
RTVSPost2010Prop31
280
     0
102
RTVSPost2010PropOp31
 70
     1
102
RTVSPost2010Prop32
280
     0
102
RTVSPost2010PropOp32
 70
     1
102
RTVSPost2010Prop33
280
     0
102
RTVSPost2010PropOp33
 70
     1
102
RTVSPost2010Prop34
280
     0
102
RTVSPost2010PropOp34
 70
     1
102
RTVSPost2010Prop35
280
     0
102
RTVSPost2010PropOp35
 70
     1
102
RTVSPost2010Prop36
280
     0
102
RTVSPost2010PropOp36
 70
     1
102
RTVSPost2010Prop37
 90
       50
102
RTVSPost2010PropOp37
 70
     1
102
RTVSPost2010Prop38
140
0.0
102
RTVSPost2010PropOp38
 70
     1
102
RTVSPost2010Prop39
140
1.0
102
RTVSPost2010PropOp39
 70
     1
102
RTVSPost2010Prop40
 90
        0
102
RTVSPost2010PropOp40
 70
     1
102
RTVSPost2010Prop41ColorIndex
 90
       18
102
RTVSPost2010Prop41ColorRGB
 90
        0
102
RTVSPost2010PropOp41
 70
     1
102
RTVSPost2010Prop42
 90
       50
102
RTVSPost2010PropOp42
 70
     1
102
RTVSPost2010Prop43
 90
        3
102
RTVSPost2010PropOp43
 70
     1
102
RTVSPost2010Prop44ColorIndex
 90
        5
102
RTVSPost2010Prop44ColorRGB
 90
      255
102
RTVSPost2010PropOp44
 70
     1
102
RTVSPost2010Prop45
280
     0
102
RTVSPost2010PropOp45
 70
     1
102
RTVSPost2010Prop46
 90
       50
102
RTVSPost2010PropOp46
 70
     1
102
RTVSPost2010Prop47
 90
       50
102
RTVSPost2010PropOp47
 70
     1
102
RTVSPost2010Prop48
 90
       50
102
RTVSPost2010PropOp48
 70
     1
102
RTVSPost2010Prop49
280
     0
102
RTVSPost2010PropOp49
 70
     1
102
RTVSPost2010Prop50
 90
       50
102
RTVSPost2010PropOp50
 70
     1
102
RTVSPost2010Prop51ColorIndex
 90
      256
102
RTVSPost2010Prop51ColorRGB
 90
-16777216
102
RTVSPost2010PropOp51
 70
     0
102
RTVSPost2010Prop52
140
1.0
102
RTVSPost2010PropOp52
 70
     0
102
RTVSPost2010Prop53
 90
        2
102
RTVSPost2010PropOp53
 70
     1
102
RTVSPost2010Prop54
  1
strokes_ogs.tif
102
RTVSPost2010PropOp54
 70
     1
102
RTVSPost2010Prop55
280
     0
102
RTVSPost2010PropOp55
 70
     1
102
RTVSPost2010Prop56
140
1.0
102
RTVSPost2010PropOp56
 70
     1
102
RTVSPost2010Prop57
140
1.0
102
RTVSPost2010PropOp57
 70
     1
  0
XRECORD
  5
62F
102
{ACAD_REACTORS
330
62E
102
}
330
62E
100
AcDbXrecord
280
     1
102
RTVSPropertyOp0
 70
     1
102
RTVSPropertyOp1
 70
     1
102
RTVSPropertyOp2
 70
     1
102
RTVSPropertyOp3
 70
     1
102
RTVSPropertyOp4
 70
     1
102
RTVSPropertyOp5
 70
     1
102
RTVSPropertyOp6
 70
     1
102
RTVSPropertyOp7
 70
     1
102
RTVSPropertyOp8
 70
     1
102
RTVSPropertyOp9
 70
     1
102
RTVSPropertyOp10
 70
     1
102
RTVSPropertyOp11
 70
     1
102
RTVSPropertyOp12
 70
     1
102
RTVSPropertyOp13
 70
     1
102
RTVSPropertyOp14
 70
     1
102
RTVSPropertyOp15
 70
     1
102
RTVSPropertyOp16
 70
     1
102
RTVSPropertyOp17
 70
     1
102
RTVSPropertyOp18
 70
     1
102
RTVSPropertyOp19
 70
     1
102
RTVSPropertyOp20
 70
     1
102
RTVSPropertyOp21
 70
     1
102
RTVSPropertyOp22
 70
     1
102
RTVSPropertyOp23
 70
     1
102
RTVSPropertyOp24
 70
     1
102
RTVSPropertyOp25
 70
     1
102
RTVSPropertyOp26
 70
     1
102
RTVSPropertyOp27
 70
     1
102
RTVSPropertyOp28
 70
     1
102
RTVSPropertyOp29
 70
     1
102
RTVSPropertyOp30
 70
     1
102
RTVSPropertyOp31
 70
     1
102
RTVSPropertyOp32
 70
     1
102
RTVSPropertyOp33
 70
     1
102
RTVSPropertyOp34
 70
     1
102
RTVSPropertyOp35
 70
     1
102
RTVSPropertyOp36
 70
     1
102
RTVSPropertyOp37
 70
     1
102
RTVSPropertyOp38
 70
     1
102
RTVSPropertyOp39
 70
     1
102
RTVSPropertyOp40
 70
     1
102
RTVSPropertyOp41
 70
     1
102
RTVSPropertyOp42
 70
     1
102
RTVSPropertyOp43
 70
     1
102
RTVSPropertyOp44
 70
     1
102
RTVSPropertyOp45
 70
     1
102
RTVSPropertyOp46
 70
     1
102
RTVSPropertyOp47
 70
     1
102
RTVSPropertyOp48
 70
     1
102
RTVSPropertyOp49
 70
     1
102
RTVSPropertyOp50
 70
     1
102
RTVSPropertyOp51
 70
     0
102
RTVSPropertyOp52
 70
     0
102
RTVSPropertyOp53
 70
     1
102
RTVSPropertyOp54
 70
     1
102
RTVSPropertyOp55
 70
     1
102
RTVSPropertyOp56
 70
     1
102
RTVSPropertyOp57
 70
     1
102
RTVSPost2010Prop28
280
     0
102
RTVSPost2010PropOp28
 70
     1
102
RTVSPost2010Prop29
280
     1
102
RTVSPost2010PropOp29
 70
     1
102
RTVSPost2010Prop30
280
     1
102
RTVSPost2010PropOp30
 70
     1
102
RTVSPost2010Prop31
280
     0
102
RTVSPost2010PropOp31
 70
     1
102
RTVSPost2010Prop32
280
     0
102
RTVSPost2010PropOp32
 70
     1
102
RTVSPost2010Prop33
280
     0
102
RTVSPost2010PropOp33
 70
     1
102
RTVSPost2010Prop34
280
     0
102
RTVSPost2010PropOp34
 70
     1
102
RTVSPost2010Prop35
280
     0
102
RTVSPost2010PropOp35
 70
     1
102
RTVSPost2010Prop36
280
     0
102
RTVSPost2010PropOp36
 70
     1
102
RTVSPost2010Prop37
 90
       50
102
RTVSPost2010PropOp37
 70
     1
102
RTVSPost2010Prop38
140
0.0
102
RTVSPost2010PropOp38
 70
     1
102
RTVSPost2010Prop39
140
1.0
102
RTVSPost2010PropOp39
 70
     1
102
RTVSPost2010Prop40
 90
        0
102
RTVSPost2010PropOp40
 70
     1
102
RTVSPost2010Prop41ColorIndex
 90
       18
102
RTVSPost2010Prop41ColorRGB
 90
        0
102
RTVSPost2010PropOp41
 70
     1
102
RTVSPost2010Prop42
 90
       50
102
RTVSPost2010PropOp42
 70
     1
102
RTVSPost2010Prop43
 90
        3
102
RTVSPost2010PropOp43
 70
     1
102
RTVSPost2010Prop44ColorIndex
 90
        5
102
RTVSPost2010Prop44ColorRGB
 90
      255
102
RTVSPost2010PropOp44
 70
     1
102
RTVSPost2010Prop45
280
     0
102
RTVSPost2010PropOp45
 70
     1
102
RTVSPost2010Prop46
 90
       50
102
RTVSPost2010PropOp46
 70
     1
102
RTVSPost2010Prop47
 90
       50
102
RTVSPost2010PropOp47
 70
     1
102
RTVSPost2010Prop48
 90
       50
102
RTVSPost2010PropOp48
 70
     1
102
RTVSPost2010Prop49
280
     0
102
RTVSPost2010PropOp49
 70
     1
102
RTVSPost2010Prop50
 90
       50
102
RTVSPost2010PropOp50
 70
     1
102
RTVSPost2010Prop51ColorIndex
 90
      256
102
RTVSPost2010Prop51ColorRGB
 90
-16777216
102
RTVSPost2010PropOp51
 70
     0
102
RTVSPost2010Prop52
140
1.0
102
RTVSPost2010PropOp52
 70
     0
102
RTVSPost2010Prop53
 90
        2
102
RTVSPost2010PropOp53
 70
     1
102
RTVSPost2010Prop54
  1
strokes_ogs.tif
102
RTVSPost2010PropOp54
 70
     1
102
RTVSPost2010Prop55
280
     0
102
RTVSPost2010PropOp55
 70
     1
102
RTVSPost2010Prop56
140
1.0
102
RTVSPost2010PropOp56
 70
     1
102
RTVSPost2010Prop57
140
1.0
102
RTVSPost2010PropOp57
 70
     1
  0
XRECORD
  5
623
102
{ACAD_REACTORS
330
622
102
}
330
622
100
AcDbXrecord
280
     1
102
RTVSPropertyOp0
 70
     1
102
RTVSPropertyOp1
 70
     1
102
RTVSPropertyOp2
 70
     1
102
RTVSPropertyOp3
 70
     1
102
RTVSPropertyOp4
 70
     1
102
RTVSPropertyOp5
 70
     1
102
RTVSPropertyOp6
 70
     1
102
RTVSPropertyOp7
 70
     1
102
RTVSPropertyOp8
 70
     1
102
RTVSPropertyOp9
 70
     1
102
RTVSPropertyOp10
 70
     1
102
RTVSPropertyOp11
 70
     1
102
RTVSPropertyOp12
 70
     1
102
RTVSPropertyOp13
 70
     1
102
RTVSPropertyOp14
 70
     1
102
RTVSPropertyOp15
 70
     1
102
RTVSPropertyOp16
 70
     1
102
RTVSPropertyOp17
 70
     1
102
RTVSPropertyOp18
 70
     1
102
RTVSPropertyOp19
 70
     1
102
RTVSPropertyOp20
 70
     1
102
RTVSPropertyOp21
 70
     1
102
RTVSPropertyOp22
 70
     1
102
RTVSPropertyOp23
 70
     1
102
RTVSPropertyOp24
 70
     1
102
RTVSPropertyOp25
 70
     1
102
RTVSPropertyOp26
 70
     1
102
RTVSPropertyOp27
 70
     1
102
RTVSPropertyOp28
 70
     1
102
RTVSPropertyOp29
 70
     1
102
RTVSPropertyOp30
 70
     1
102
RTVSPropertyOp31
 70
     1
102
RTVSPropertyOp32
 70
     1
102
RTVSPropertyOp33
 70
     1
102
RTVSPropertyOp34
 70
     1
102
RTVSPropertyOp35
 70
     1
102
RTVSPropertyOp36
 70
     1
102
RTVSPropertyOp37
 70
     1
102
RTVSPropertyOp38
 70
     1
102
RTVSPropertyOp39
 70
     1
102
RTVSPropertyOp40
 70
     1
102
RTVSPropertyOp41
 70
     1
102
RTVSPropertyOp42
 70
     1
102
RTVSPropertyOp43
 70
     1
102
RTVSPropertyOp44
 70
     1
102
RTVSPropertyOp45
 70
     1
102
RTVSPropertyOp46
 70
     1
102
RTVSPropertyOp47
 70
     1
102
RTVSPropertyOp48
 70
     1
102
RTVSPropertyOp49
 70
     1
102
RTVSPropertyOp50
 70
     1
102
RTVSPropertyOp51
 70
     0
102
RTVSPropertyOp52
 70
     0
102
RTVSPropertyOp53
 70
     1
102
RTVSPropertyOp54
 70
     1
102
RTVSPropertyOp55
 70
     1
102
RTVSPropertyOp56
 70
     1
102
RTVSPropertyOp57
 70
     1
102
RTVSPost2010Prop28
280
     0
102
RTVSPost2010PropOp28
 70
     1
102
RTVSPost2010Prop29
280
     1
102
RTVSPost2010PropOp29
 70
     1
102
RTVSPost2010Prop30
280
     1
102
RTVSPost2010PropOp30
 70
     1
102
RTVSPost2010Prop31
280
     0
102
RTVSPost2010PropOp31
 70
     1
102
RTVSPost2010Prop32
280
     0
102
RTVSPost2010PropOp32
 70
     1
102
RTVSPost2010Prop33
280
     0
102
RTVSPost2010PropOp33
 70
     1
102
RTVSPost2010Prop34
280
     0
102
RTVSPost2010PropOp34
 70
     1
102
RTVSPost2010Prop35
280
     0
102
RTVSPost2010PropOp35
 70
     1
102
RTVSPost2010Prop36
280
     0
102
RTVSPost2010PropOp36
 70
     1
102
RTVSPost2010Prop37
 90
       50
102
RTVSPost2010PropOp37
 70
     1
102
RTVSPost2010Prop38
140
0.0
102
RTVSPost2010PropOp38
 70
     1
102
RTVSPost2010Prop39
140
1.0
102
RTVSPost2010PropOp39
 70
     1
102
RTVSPost2010Prop40
 90
        0
102
RTVSPost2010PropOp40
 70
     1
102
RTVSPost2010Prop41ColorIndex
 90
       18
102
RTVSPost2010Prop41ColorRGB
 90
        0
102
RTVSPost2010PropOp41
 70
     1
102
RTVSPost2010Prop42
 90
       50
102
RTVSPost2010PropOp42
 70
     1
102
RTVSPost2010Prop43
 90
        3
102
RTVSPost2010PropOp43
 70
     1
102
RTVSPost2010Prop44ColorIndex
 90
        5
102
RTVSPost2010Prop44ColorRGB
 90
      255
102
RTVSPost2010PropOp44
 70
     1
102
RTVSPost2010Prop45
280
     0
102
RTVSPost2010PropOp45
 70
     1
102
RTVSPost2010Prop46
 90
       50
102
RTVSPost2010PropOp46
 70
     1
102
RTVSPost2010Prop47
 90
       50
102
RTVSPost2010PropOp47
 70
     1
102
RTVSPost2010Prop48
 90
       50
102
RTVSPost2010PropOp48
 70
     1
102
RTVSPost2010Prop49
280
     0
102
RTVSPost2010PropOp49
 70
     1
102
RTVSPost2010Prop50
 90
       50
102
RTVSPost2010PropOp50
 70
     1
102
RTVSPost2010Prop51ColorIndex
 90
      256
102
RTVSPost2010Prop51ColorRGB
 90
-16777216
102
RTVSPost2010PropOp51
 70
     0
102
RTVSPost2010Prop52
140
1.0
102
RTVSPost2010PropOp52
 70
     0
102
RTVSPost2010Prop53
 90
        2
102
RTVSPost2010PropOp53
 70
     1
102
RTVSPost2010Prop54
  1
strokes_ogs.tif
102
RTVSPost2010PropOp54
 70
     1
102
RTVSPost2010Prop55
280
     0
102
RTVSPost2010PropOp55
 70
     1
102
RTVSPost2010Prop56
140
1.0
102
RTVSPost2010PropOp56
 70
     1
102
RTVSPost2010Prop57
140
1.0
102
RTVSPost2010PropOp57
 70
     1
  0
XRECORD
  5
625
102
{ACAD_REACTORS
330
624
102
}
330
624
100
AcDbXrecord
280
     1
102
RTVSPropertyOp0
 70
     1
102
RTVSPropertyOp1
 70
     1
102
RTVSPropertyOp2
 70
     1
102
RTVSPropertyOp3
 70
     1
102
RTVSPropertyOp4
 70
     1
102
RTVSPropertyOp5
 70
     1
102
RTVSPropertyOp6
 70
     1
102
RTVSPropertyOp7
 70
     1
102
RTVSPropertyOp8
 70
     1
102
RTVSPropertyOp9
 70
     1
102
RTVSPropertyOp10
 70
     1
102
RTVSPropertyOp11
 70
     1
102
RTVSPropertyOp12
 70
     1
102
RTVSPropertyOp13
 70
     1
102
RTVSPropertyOp14
 70
     1
102
RTVSPropertyOp15
 70
     1
102
RTVSPropertyOp16
 70
     1
102
RTVSPropertyOp17
 70
     1
102
RTVSPropertyOp18
 70
     1
102
RTVSPropertyOp19
 70
     1
102
RTVSPropertyOp20
 70
     1
102
RTVSPropertyOp21
 70
     1
102
RTVSPropertyOp22
 70
     1
102
RTVSPropertyOp23
 70
     1
102
RTVSPropertyOp24
 70
     1
102
RTVSPropertyOp25
 70
     1
102
RTVSPropertyOp26
 70
     1
102
RTVSPropertyOp27
 70
     1
102
RTVSPropertyOp28
 70
     1
102
RTVSPropertyOp29
 70
     1
102
RTVSPropertyOp30
 70
     1
102
RTVSPropertyOp31
 70
     1
102
RTVSPropertyOp32
 70
     1
102
RTVSPropertyOp33
 70
     1
102
RTVSPropertyOp34
 70
     1
102
RTVSPropertyOp35
 70
     1
102
RTVSPropertyOp36
 70
     1
102
RTVSPropertyOp37
 70
     1
102
RTVSPropertyOp38
 70
     1
102
RTVSPropertyOp39
 70
     1
102
RTVSPropertyOp40
 70
     1
102
RTVSPropertyOp41
 70
     1
102
RTVSPropertyOp42
 70
     1
102
RTVSPropertyOp43
 70
     1
102
RTVSPropertyOp44
 70
     1
102
RTVSPropertyOp45
 70
     1
102
RTVSPropertyOp46
 70
     1
102
RTVSPropertyOp47
 70
     1
102
RTVSPropertyOp48
 70
     1
102
RTVSPropertyOp49
 70
     1
102
RTVSPropertyOp50
 70
     1
102
RTVSPropertyOp51
 70
     0
102
RTVSPropertyOp52
 70
     0
102
RTVSPropertyOp53
 70
     1
102
RTVSPropertyOp54
 70
     1
102
RTVSPropertyOp55
 70
     1
102
RTVSPropertyOp56
 70
     1
102
RTVSPropertyOp57
 70
     1
102
RTVSPost2010Prop28
280
     0
102
RTVSPost2010PropOp28
 70
     1
102
RTVSPost2010Prop29
280
     1
102
RTVSPost2010PropOp29
 70
     1
102
RTVSPost2010Prop30
280
     1
102
RTVSPost2010PropOp30
 70
     1
102
RTVSPost2010Prop31
280
     0
102
RTVSPost2010PropOp31
 70
     1
102
RTVSPost2010Prop32
280
     0
102
RTVSPost2010PropOp32
 70
     1
102
RTVSPost2010Prop33
280
     0
102
RTVSPost2010PropOp33
 70
     1
102
RTVSPost2010Prop34
280
     0
102
RTVSPost2010PropOp34
 70
     1
102
RTVSPost2010Prop35
280
     0
102
RTVSPost2010PropOp35
 70
     1
102
RTVSPost2010Prop36
280
     0
102
RTVSPost2010PropOp36
 70
     1
102
RTVSPost2010Prop37
 90
       50
102
RTVSPost2010PropOp37
 70
     1
102
RTVSPost2010Prop38
140
0.0
102
RTVSPost2010PropOp38
 70
     1
102
RTVSPost2010Prop39
140
1.0
102
RTVSPost2010PropOp39
 70
     1
102
RTVSPost2010Prop40
 90
        0
102
RTVSPost2010PropOp40
 70
     1
102
RTVSPost2010Prop41ColorIndex
 90
       18
102
RTVSPost2010Prop41ColorRGB
 90
        0
102
RTVSPost2010PropOp41
 70
     1
102
RTVSPost2010Prop42
 90
       50
102
RTVSPost2010PropOp42
 70
     1
102
RTVSPost2010Prop43
 90
        3
102
RTVSPost2010PropOp43
 70
     1
102
RTVSPost2010Prop44ColorIndex
 90
        5
102
RTVSPost2010Prop44ColorRGB
 90
      255
102
RTVSPost2010PropOp44
 70
     1
102
RTVSPost2010Prop45
280
     0
102
RTVSPost2010PropOp45
 70
     1
102
RTVSPost2010Prop46
 90
       50
102
RTVSPost2010PropOp46
 70
     1
102
RTVSPost2010Prop47
 90
       50
102
RTVSPost2010PropOp47
 70
     1
102
RTVSPost2010Prop48
 90
       50
102
RTVSPost2010PropOp48
 70
     1
102
RTVSPost2010Prop49
280
     0
102
RTVSPost2010PropOp49
 70
     1
102
RTVSPost2010Prop50
 90
       50
102
RTVSPost2010PropOp50
 70
     1
102
RTVSPost2010Prop51ColorIndex
 90
      256
102
RTVSPost2010Prop51ColorRGB
 90
-16777216
102
RTVSPost2010PropOp51
 70
     0
102
RTVSPost2010Prop52
140
1.0
102
RTVSPost2010PropOp52
 70
     0
102
RTVSPost2010Prop53
 90
        2
102
RTVSPost2010PropOp53
 70
     1
102
RTVSPost2010Prop54
  1
strokes_ogs.tif
102
RTVSPost2010PropOp54
 70
     1
102
RTVSPost2010Prop55
280
     0
102
RTVSPost2010PropOp55
 70
     1
102
RTVSPost2010Prop56
140
1.0
102
RTVSPost2010PropOp56
 70
     1
102
RTVSPost2010Prop57
140
1.0
102
RTVSPost2010PropOp57
 70
     1
  0
XRECORD
  5
635
102
{ACAD_REACTORS
330
634
102
}
330
634
100
AcDbXrecord
280
     1
102
RTVSPropertyOp0
 70
     0
102
RTVSPropertyOp1
 70
     0
102
RTVSPropertyOp2
 70
     0
102
RTVSPropertyOp3
 70
     0
102
RTVSPropertyOp4
 70
     0
102
RTVSPropertyOp5
 70
     0
102
RTVSPropertyOp6
 70
     0
102
RTVSPropertyOp7
 70
     0
102
RTVSPropertyOp8
 70
     0
102
RTVSPropertyOp9
 70
     0
102
RTVSPropertyOp10
 70
     0
102
RTVSPropertyOp11
 70
     0
102
RTVSPropertyOp12
 70
     0
102
RTVSPropertyOp13
 70
     0
102
RTVSPropertyOp14
 70
     0
102
RTVSPropertyOp15
 70
     0
102
RTVSPropertyOp16
 70
     0
102
RTVSPropertyOp17
 70
     0
102
RTVSPropertyOp18
 70
     0
102
RTVSPropertyOp19
 70
     0
102
RTVSPropertyOp20
 70
     0
102
RTVSPropertyOp21
 70
     0
102
RTVSPropertyOp22
 70
     0
102
RTVSPropertyOp23
 70
     0
102
RTVSPropertyOp24
 70
     0
102
RTVSPropertyOp25
 70
     0
102
RTVSPropertyOp26
 70
     0
102
RTVSPropertyOp27
 70
     0
102
RTVSPropertyOp28
 70
     1
102
RTVSPropertyOp29
 70
     1
102
RTVSPropertyOp30
 70
     1
102
RTVSPropertyOp31
 70
     1
102
RTVSPropertyOp32
 70
     1
102
RTVSPropertyOp33
 70
     1
102
RTVSPropertyOp34
 70
     1
102
RTVSPropertyOp35
 70
     1
102
RTVSPropertyOp36
 70
     1
102
RTVSPropertyOp37
 70
     1
102
RTVSPropertyOp38
 70
     1
102
RTVSPropertyOp39
 70
     1
102
RTVSPropertyOp40
 70
     1
102
RTVSPropertyOp41
 70
     1
102
RTVSPropertyOp42
 70
     1
102
RTVSPropertyOp43
 70
     1
102
RTVSPropertyOp44
 70
     1
102
RTVSPropertyOp45
 70
     1
102
RTVSPropertyOp46
 70
     1
102
RTVSPropertyOp47
 70
     1
102
RTVSPropertyOp48
 70
     1
102
RTVSPropertyOp49
 70
     1
102
RTVSPropertyOp50
 70
     1
102
RTVSPropertyOp51
 70
     0
102
RTVSPropertyOp52
 70
     0
102
RTVSPropertyOp53
 70
     1
102
RTVSPropertyOp54
 70
     1
102
RTVSPropertyOp55
 70
     1
102
RTVSPropertyOp56
 70
     1
102
RTVSPropertyOp57
 70
     1
102
RTVSPost2010Prop28
280
     0
102
RTVSPost2010PropOp28
 70
     1
102
RTVSPost2010Prop29
280
     1
102
RTVSPost2010PropOp29
 70
     1
102
RTVSPost2010Prop30
280
     1
102
RTVSPost2010PropOp30
 70
     1
102
RTVSPost2010Prop31
280
     0
102
RTVSPost2010PropOp31
 70
     1
102
RTVSPost2010Prop32
280
     0
102
RTVSPost2010PropOp32
 70
     1
102
RTVSPost2010Prop33
280
     0
102
RTVSPost2010PropOp33
 70
     1
102
RTVSPost2010Prop34
280
     0
102
RTVSPost2010PropOp34
 70
     1
102
RTVSPost2010Prop35
280
     0
102
RTVSPost2010PropOp35
 70
     1
102
RTVSPost2010Prop36
280
     0
102
RTVSPost2010PropOp36
 70
     1
102
RTVSPost2010Prop37
 90
       50
102
RTVSPost2010PropOp37
 70
     1
102
RTVSPost2010Prop38
140
0.0
102
RTVSPost2010PropOp38
 70
     1
102
RTVSPost2010Prop39
140
1.0
102
RTVSPost2010PropOp39
 70
     1
102
RTVSPost2010Prop40
 90
        0
102
RTVSPost2010PropOp40
 70
     1
102
RTVSPost2010Prop41ColorIndex
 90
       18
102
RTVSPost2010Prop41ColorRGB
 90
        0
102
RTVSPost2010PropOp41
 70
     1
102
RTVSPost2010Prop42
 90
       50
102
RTVSPost2010PropOp42
 70
     1
102
RTVSPost2010Prop43
 90
        3
102
RTVSPost2010PropOp43
 70
     1
102
RTVSPost2010Prop44ColorIndex
 90
        5
102
RTVSPost2010Prop44ColorRGB
 90
      255
102
RTVSPost2010PropOp44
 70
     1
102
RTVSPost2010Prop45
280
     0
102
RTVSPost2010PropOp45
 70
     1
102
RTVSPost2010Prop46
 90
       50
102
RTVSPost2010PropOp46
 70
     1
102
RTVSPost2010Prop47
 90
       50
102
RTVSPost2010PropOp47
 70
     1
102
RTVSPost2010Prop48
 90
       50
102
RTVSPost2010PropOp48
 70
     1
102
RTVSPost2010Prop49
280
     0
102
RTVSPost2010PropOp49
 70
     1
102
RTVSPost2010Prop50
 90
       50
102
RTVSPost2010PropOp50
 70
     1
102
RTVSPost2010Prop51ColorIndex
 90
      256
102
RTVSPost2010Prop51ColorRGB
 90
-16777216
102
RTVSPost2010PropOp51
 70
     0
102
RTVSPost2010Prop52
140
1.0
102
RTVSPost2010PropOp52
 70
     0
102
RTVSPost2010Prop53
 90
        2
102
RTVSPost2010PropOp53
 70
     1
102
RTVSPost2010Prop54
  1
strokes_ogs.tif
102
RTVSPost2010PropOp54
 70
     1
102
RTVSPost2010Prop55
280
     0
102
RTVSPost2010PropOp55
 70
     1
102
RTVSPost2010Prop56
140
1.0
102
RTVSPost2010PropOp56
 70
     1
102
RTVSPost2010Prop57
140
1.0
102
RTVSPost2010PropOp57
 70
     1
  0
XRECORD
  5
62D
102
{ACAD_REACTORS
330
62C
102
}
330
62C
100
AcDbXrecord
280
     1
102
RTVSPropertyOp0
 70
     1
102
RTVSPropertyOp1
 70
     1
102
RTVSPropertyOp2
 70
     1
102
RTVSPropertyOp3
 70
     1
102
RTVSPropertyOp4
 70
     1
102
RTVSPropertyOp5
 70
     1
102
RTVSPropertyOp6
 70
     1
102
RTVSPropertyOp7
 70
     1
102
RTVSPropertyOp8
 70
     1
102
RTVSPropertyOp9
 70
     1
102
RTVSPropertyOp10
 70
     1
102
RTVSPropertyOp11
 70
     1
102
RTVSPropertyOp12
 70
     1
102
RTVSPropertyOp13
 70
     1
102
RTVSPropertyOp14
 70
     1
102
RTVSPropertyOp15
 70
     1
102
RTVSPropertyOp16
 70
     1
102
RTVSPropertyOp17
 70
     1
102
RTVSPropertyOp18
 70
     1
102
RTVSPropertyOp19
 70
     1
102
RTVSPropertyOp20
 70
     1
102
RTVSPropertyOp21
 70
     1
102
RTVSPropertyOp22
 70
     1
102
RTVSPropertyOp23
 70
     1
102
RTVSPropertyOp24
 70
     1
102
RTVSPropertyOp25
 70
     1
102
RTVSPropertyOp26
 70
     1
102
RTVSPropertyOp27
 70
     1
102
RTVSPropertyOp28
 70
     1
102
RTVSPropertyOp29
 70
     1
102
RTVSPropertyOp30
 70
     1
102
RTVSPropertyOp31
 70
     1
102
RTVSPropertyOp32
 70
     1
102
RTVSPropertyOp33
 70
     1
102
RTVSPropertyOp34
 70
     1
102
RTVSPropertyOp35
 70
     1
102
RTVSPropertyOp36
 70
     1
102
RTVSPropertyOp37
 70
     1
102
RTVSPropertyOp38
 70
     1
102
RTVSPropertyOp39
 70
     1
102
RTVSPropertyOp40
 70
     1
102
RTVSPropertyOp41
 70
     1
102
RTVSPropertyOp42
 70
     1
102
RTVSPropertyOp43
 70
     1
102
RTVSPropertyOp44
 70
     1
102
RTVSPropertyOp45
 70
     1
102
RTVSPropertyOp46
 70
     1
102
RTVSPropertyOp47
 70
     1
102
RTVSPropertyOp48
 70
     1
102
RTVSPropertyOp49
 70
     1
102
RTVSPropertyOp50
 70
     1
102
RTVSPropertyOp51
 70
     0
102
RTVSPropertyOp52
 70
     0
102
RTVSPropertyOp53
 70
     1
102
RTVSPropertyOp54
 70
     1
102
RTVSPropertyOp55
 70
     1
102
RTVSPropertyOp56
 70
     1
102
RTVSPropertyOp57
 70
     1
102
RTVSPost2010Prop28
280
     0
102
RTVSPost2010PropOp28
 70
     1
102
RTVSPost2010Prop29
280
     1
102
RTVSPost2010PropOp29
 70
     1
102
RTVSPost2010Prop30
280
     1
102
RTVSPost2010PropOp30
 70
     1
102
RTVSPost2010Prop31
280
     0
102
RTVSPost2010PropOp31
 70
     1
102
RTVSPost2010Prop32
280
     0
102
RTVSPost2010PropOp32
 70
     1
102
RTVSPost2010Prop33
280
     0
102
RTVSPost2010PropOp33
 70
     1
102
RTVSPost2010Prop34
280
     0
102
RTVSPost2010PropOp34
 70
     1
102
RTVSPost2010Prop35
280
     0
102
RTVSPost2010PropOp35
 70
     1
102
RTVSPost2010Prop36
280
     0
102
RTVSPost2010PropOp36
 70
     1
102
RTVSPost2010Prop37
 90
       50
102
RTVSPost2010PropOp37
 70
     1
102
RTVSPost2010Prop38
140
0.0
102
RTVSPost2010PropOp38
 70
     1
102
RTVSPost2010Prop39
140
1.0
102
RTVSPost2010PropOp39
 70
     1
102
RTVSPost2010Prop40
 90
        0
102
RTVSPost2010PropOp40
 70
     1
102
RTVSPost2010Prop41ColorIndex
 90
       18
102
RTVSPost2010Prop41ColorRGB
 90
        0
102
RTVSPost2010PropOp41
 70
     1
102
RTVSPost2010Prop42
 90
       50
102
RTVSPost2010PropOp42
 70
     1
102
RTVSPost2010Prop43
 90
        3
102
RTVSPost2010PropOp43
 70
     1
102
RTVSPost2010Prop44ColorIndex
 90
        5
102
RTVSPost2010Prop44ColorRGB
 90
      255
102
RTVSPost2010PropOp44
 70
     1
102
RTVSPost2010Prop45
280
     0
102
RTVSPost2010PropOp45
 70
     1
102
RTVSPost2010Prop46
 90
       50
102
RTVSPost2010PropOp46
 70
     1
102
RTVSPost2010Prop47
 90
       50
102
RTVSPost2010PropOp47
 70
     1
102
RTVSPost2010Prop48
 90
       50
102
RTVSPost2010PropOp48
 70
     1
102
RTVSPost2010Prop49
280
     0
102
RTVSPost2010PropOp49
 70
     1
102
RTVSPost2010Prop50
 90
       50
102
RTVSPost2010PropOp50
 70
     1
102
RTVSPost2010Prop51ColorIndex
 90
      256
102
RTVSPost2010Prop51ColorRGB
 90
-16777216
102
RTVSPost2010PropOp51
 70
     0
102
RTVSPost2010Prop52
140
1.0
102
RTVSPost2010PropOp52
 70
     0
102
RTVSPost2010Prop53
 90
        2
102
RTVSPost2010PropOp53
 70
     1
102
RTVSPost2010Prop54
  1
strokes_ogs.tif
102
RTVSPost2010PropOp54
 70
     1
102
RTVSPost2010Prop55
280
     0
102
RTVSPost2010PropOp55
 70
     1
102
RTVSPost2010Prop56
140
1.0
102
RTVSPost2010PropOp56
 70
     1
102
RTVSPost2010Prop57
140
1.0
102
RTVSPost2010PropOp57
 70
     1
  0
XRECORD
  5
611
102
{ACAD_REACTORS
330
610
102
}
330
610
100
AcDbXrecord
280
     1
102
RTVSPropertyOp0
 70
     1
102
RTVSPropertyOp1
 70
     1
102
RTVSPropertyOp2
 70
     1
102
RTVSPropertyOp3
 70
     1
102
RTVSPropertyOp4
 70
     1
102
RTVSPropertyOp5
 70
     1
102
RTVSPropertyOp6
 70
     1
102
RTVSPropertyOp7
 70
     1
102
RTVSPropertyOp8
 70
     1
102
RTVSPropertyOp9
 70
     1
102
RTVSPropertyOp10
 70
     1
102
RTVSPropertyOp11
 70
     1
102
RTVSPropertyOp12
 70
     1
102
RTVSPropertyOp13
 70
     1
102
RTVSPropertyOp14
 70
     1
102
RTVSPropertyOp15
 70
     1
102
RTVSPropertyOp16
 70
     1
102
RTVSPropertyOp17
 70
     1
102
RTVSPropertyOp18
 70
     1
102
RTVSPropertyOp19
 70
     1
102
RTVSPropertyOp20
 70
     1
102
RTVSPropertyOp21
 70
     1
102
RTVSPropertyOp22
 70
     1
102
RTVSPropertyOp23
 70
     1
102
RTVSPropertyOp24
 70
     1
102
RTVSPropertyOp25
 70
     1
102
RTVSPropertyOp26
 70
     1
102
RTVSPropertyOp27
 70
     1
102
RTVSPropertyOp28
 70
     1
102
RTVSPropertyOp29
 70
     1
102
RTVSPropertyOp30
 70
     1
102
RTVSPropertyOp31
 70
     1
102
RTVSPropertyOp32
 70
     1
102
RTVSPropertyOp33
 70
     1
102
RTVSPropertyOp34
 70
     1
102
RTVSPropertyOp35
 70
     1
102
RTVSPropertyOp36
 70
     1
102
RTVSPropertyOp37
 70
     1
102
RTVSPropertyOp38
 70
     1
102
RTVSPropertyOp39
 70
     1
102
RTVSPropertyOp40
 70
     1
102
RTVSPropertyOp41
 70
     1
102
RTVSPropertyOp42
 70
     1
102
RTVSPropertyOp43
 70
     1
102
RTVSPropertyOp44
 70
     1
102
RTVSPropertyOp45
 70
     1
102
RTVSPropertyOp46
 70
     1
102
RTVSPropertyOp47
 70
     1
102
RTVSPropertyOp48
 70
     1
102
RTVSPropertyOp49
 70
     1
102
RTVSPropertyOp50
 70
     1
102
RTVSPropertyOp51
 70
     0
102
RTVSPropertyOp52
 70
     0
102
RTVSPropertyOp53
 70
     1
102
RTVSPropertyOp54
 70
     1
102
RTVSPropertyOp55
 70
     1
102
RTVSPropertyOp56
 70
     1
102
RTVSPropertyOp57
 70
     1
102
RTVSPost2010Prop28
280
     0
102
RTVSPost2010PropOp28
 70
     1
102
RTVSPost2010Prop29
280
     1
102
RTVSPost2010PropOp29
 70
     1
102
RTVSPost2010Prop30
280
     1
102
RTVSPost2010PropOp30
 70
     1
102
RTVSPost2010Prop31
280
     0
102
RTVSPost2010PropOp31
 70
     1
102
RTVSPost2010Prop32
280
     0
102
RTVSPost2010PropOp32
 70
     1
102
RTVSPost2010Prop33
280
     0
102
RTVSPost2010PropOp33
 70
     1
102
RTVSPost2010Prop34
280
     0
102
RTVSPost2010PropOp34
 70
     1
102
RTVSPost2010Prop35
280
     0
102
RTVSPost2010PropOp35
 70
     1
102
RTVSPost2010Prop36
280
     0
102
RTVSPost2010PropOp36
 70
     1
102
RTVSPost2010Prop37
 90
       50
102
RTVSPost2010PropOp37
 70
     1
102
RTVSPost2010Prop38
140
0.0
102
RTVSPost2010PropOp38
 70
     1
102
RTVSPost2010Prop39
140
1.0
102
RTVSPost2010PropOp39
 70
     1
102
RTVSPost2010Prop40
 90
        0
102
RTVSPost2010PropOp40
 70
     1
102
RTVSPost2010Prop41ColorIndex
 90
       18
102
RTVSPost2010Prop41ColorRGB
 90
        0
102
RTVSPost2010PropOp41
 70
     1
102
RTVSPost2010Prop42
 90
       50
102
RTVSPost2010PropOp42
 70
     1
102
RTVSPost2010Prop43
 90
        3
102
RTVSPost2010PropOp43
 70
     1
102
RTVSPost2010Prop44ColorIndex
 90
        5
102
RTVSPost2010Prop44ColorRGB
 90
      255
102
RTVSPost2010PropOp44
 70
     1
102
RTVSPost2010Prop45
280
     0
102
RTVSPost2010PropOp45
 70
     1
102
RTVSPost2010Prop46
 90
       50
102
RTVSPost2010PropOp46
 70
     1
102
RTVSPost2010Prop47
 90
       50
102
RTVSPost2010PropOp47
 70
     1
102
RTVSPost2010Prop48
 90
       50
102
RTVSPost2010PropOp48
 70
     1
102
RTVSPost2010Prop49
280
     0
102
RTVSPost2010PropOp49
 70
     1
102
RTVSPost2010Prop50
 90
       50
102
RTVSPost2010PropOp50
 70
     1
102
RTVSPost2010Prop51ColorIndex
 90
      256
102
RTVSPost2010Prop51ColorRGB
 90
-16777216
102
RTVSPost2010PropOp51
 70
     0
102
RTVSPost2010Prop52
140
1.0
102
RTVSPost2010PropOp52
 70
     0
102
RTVSPost2010Prop53
 90
        2
102
RTVSPost2010PropOp53
 70
     1
102
RTVSPost2010Prop54
  1
strokes_ogs.tif
102
RTVSPost2010PropOp54
 70
     1
102
RTVSPost2010Prop55
280
     0
102
RTVSPost2010PropOp55
 70
     1
102
RTVSPost2010Prop56
140
1.0
102
RTVSPost2010PropOp56
 70
     1
102
RTVSPost2010Prop57
140
1.0
102
RTVSPost2010PropOp57
 70
     1
  0
XRECORD
  5
613
102
{ACAD_REACTORS
330
612
102
}
330
612
100
AcDbXrecord
280
     1
102
RTVSPropertyOp0
 70
     1
102
RTVSPropertyOp1
 70
     1
102
RTVSPropertyOp2
 70
     1
102
RTVSPropertyOp3
 70
     1
102
RTVSPropertyOp4
 70
     1
102
RTVSPropertyOp5
 70
     1
102
RTVSPropertyOp6
 70
     1
102
RTVSPropertyOp7
 70
     1
102
RTVSPropertyOp8
 70
     1
102
RTVSPropertyOp9
 70
     1
102
RTVSPropertyOp10
 70
     1
102
RTVSPropertyOp11
 70
     1
102
RTVSPropertyOp12
 70
     1
102
RTVSPropertyOp13
 70
     1
102
RTVSPropertyOp14
 70
     1
102
RTVSPropertyOp15
 70
     1
102
RTVSPropertyOp16
 70
     1
102
RTVSPropertyOp17
 70
     1
102
RTVSPropertyOp18
 70
     1
102
RTVSPropertyOp19
 70
     1
102
RTVSPropertyOp20
 70
     1
102
RTVSPropertyOp21
 70
     1
102
RTVSPropertyOp22
 70
     1
102
RTVSPropertyOp23
 70
     1
102
RTVSPropertyOp24
 70
     1
102
RTVSPropertyOp25
 70
     1
102
RTVSPropertyOp26
 70
     1
102
RTVSPropertyOp27
 70
     1
102
RTVSPropertyOp28
 70
     1
102
RTVSPropertyOp29
 70
     1
102
RTVSPropertyOp30
 70
     1
102
RTVSPropertyOp31
 70
     1
102
RTVSPropertyOp32
 70
     1
102
RTVSPropertyOp33
 70
     1
102
RTVSPropertyOp34
 70
     1
102
RTVSPropertyOp35
 70
     1
102
RTVSPropertyOp36
 70
     1
102
RTVSPropertyOp37
 70
     1
102
RTVSPropertyOp38
 70
     1
102
RTVSPropertyOp39
 70
     1
102
RTVSPropertyOp40
 70
     1
102
RTVSPropertyOp41
 70
     1
102
RTVSPropertyOp42
 70
     1
102
RTVSPropertyOp43
 70
     1
102
RTVSPropertyOp44
 70
     1
102
RTVSPropertyOp45
 70
     1
102
RTVSPropertyOp46
 70
     1
102
RTVSPropertyOp47
 70
     1
102
RTVSPropertyOp48
 70
     1
102
RTVSPropertyOp49
 70
     1
102
RTVSPropertyOp50
 70
     1
102
RTVSPropertyOp51
 70
     0
102
RTVSPropertyOp52
 70
     0
102
RTVSPropertyOp53
 70
     1
102
RTVSPropertyOp54
 70
     1
102
RTVSPropertyOp55
 70
     1
102
RTVSPropertyOp56
 70
     1
102
RTVSPropertyOp57
 70
     1
102
RTVSPost2010Prop28
280
     0
102
RTVSPost2010PropOp28
 70
     1
102
RTVSPost2010Prop29
280
     1
102
RTVSPost2010PropOp29
 70
     1
102
RTVSPost2010Prop30
280
     1
102
RTVSPost2010PropOp30
 70
     1
102
RTVSPost2010Prop31
280
     0
102
RTVSPost2010PropOp31
 70
     1
102
RTVSPost2010Prop32
280
     0
102
RTVSPost2010PropOp32
 70
     1
102
RTVSPost2010Prop33
280
     0
102
RTVSPost2010PropOp33
 70
     1
102
RTVSPost2010Prop34
280
     0
102
RTVSPost2010PropOp34
 70
     1
102
RTVSPost2010Prop35
280
     0
102
RTVSPost2010PropOp35
 70
     1
102
RTVSPost2010Prop36
280
     0
102
RTVSPost2010PropOp36
 70
     1
102
RTVSPost2010Prop37
 90
       50
102
RTVSPost2010PropOp37
 70
     1
102
RTVSPost2010Prop38
140
0.0
102
RTVSPost2010PropOp38
 70
     1
102
RTVSPost2010Prop39
140
1.0
102
RTVSPost2010PropOp39
 70
     1
102
RTVSPost2010Prop40
 90
        0
102
RTVSPost2010PropOp40
 70
     1
102
RTVSPost2010Prop41ColorIndex
 90
       18
102
RTVSPost2010Prop41ColorRGB
 90
        0
102
RTVSPost2010PropOp41
 70
     1
102
RTVSPost2010Prop42
 90
       50
102
RTVSPost2010PropOp42
 70
     1
102
RTVSPost2010Prop43
 90
        3
102
RTVSPost2010PropOp43
 70
     1
102
RTVSPost2010Prop44ColorIndex
 90
        5
102
RTVSPost2010Prop44ColorRGB
 90
      255
102
RTVSPost2010PropOp44
 70
     1
102
RTVSPost2010Prop45
280
     0
102
RTVSPost2010PropOp45
 70
     1
102
RTVSPost2010Prop46
 90
       50
102
RTVSPost2010PropOp46
 70
     1
102
RTVSPost2010Prop47
 90
       50
102
RTVSPost2010PropOp47
 70
     1
102
RTVSPost2010Prop48
 90
       50
102
RTVSPost2010PropOp48
 70
     1
102
RTVSPost2010Prop49
280
     0
102
RTVSPost2010PropOp49
 70
     1
102
RTVSPost2010Prop50
 90
       50
102
RTVSPost2010PropOp50
 70
     1
102
RTVSPost2010Prop51ColorIndex
 90
      256
102
RTVSPost2010Prop51ColorRGB
 90
-16777216
102
RTVSPost2010PropOp51
 70
     0
102
RTVSPost2010Prop52
140
1.0
102
RTVSPost2010PropOp52
 70
     0
102
RTVSPost2010Prop53
 90
        2
102
RTVSPost2010PropOp53
 70
     1
102
RTVSPost2010Prop54
  1
strokes_ogs.tif
102
RTVSPost2010PropOp54
 70
     1
102
RTVSPost2010Prop55
280
     0
102
RTVSPost2010PropOp55
 70
     1
102
RTVSPost2010Prop56
140
1.0
102
RTVSPost2010PropOp56
 70
     1
102
RTVSPost2010Prop57
140
1.0
102
RTVSPost2010PropOp57
 70
     1
  0
XRECORD
  5
615
102
{ACAD_REACTORS
330
614
102
}
330
614
100
AcDbXrecord
280
     1
102
RTVSPropertyOp0
 70
     1
102
RTVSPropertyOp1
 70
     1
102
RTVSPropertyOp2
 70
     1
102
RTVSPropertyOp3
 70
     1
102
RTVSPropertyOp4
 70
     1
102
RTVSPropertyOp5
 70
     1
102
RTVSPropertyOp6
 70
     1
102
RTVSPropertyOp7
 70
     1
102
RTVSPropertyOp8
 70
     1
102
RTVSPropertyOp9
 70
     1
102
RTVSPropertyOp10
 70
     1
102
RTVSPropertyOp11
 70
     1
102
RTVSPropertyOp12
 70
     1
102
RTVSPropertyOp13
 70
     1
102
RTVSPropertyOp14
 70
     1
102
RTVSPropertyOp15
 70
     1
102
RTVSPropertyOp16
 70
     1
102
RTVSPropertyOp17
 70
     1
102
RTVSPropertyOp18
 70
     1
102
RTVSPropertyOp19
 70
     1
102
RTVSPropertyOp20
 70
     1
102
RTVSPropertyOp21
 70
     1
102
RTVSPropertyOp22
 70
     1
102
RTVSPropertyOp23
 70
     1
102
RTVSPropertyOp24
 70
     1
102
RTVSPropertyOp25
 70
     1
102
RTVSPropertyOp26
 70
     1
102
RTVSPropertyOp27
 70
     1
102
RTVSPropertyOp28
 70
     1
102
RTVSPropertyOp29
 70
     1
102
RTVSPropertyOp30
 70
     1
102
RTVSPropertyOp31
 70
     1
102
RTVSPropertyOp32
 70
     1
102
RTVSPropertyOp33
 70
     1
102
RTVSPropertyOp34
 70
     1
102
RTVSPropertyOp35
 70
     1
102
RTVSPropertyOp36
 70
     1
102
RTVSPropertyOp37
 70
     1
102
RTVSPropertyOp38
 70
     1
102
RTVSPropertyOp39
 70
     1
102
RTVSPropertyOp40
 70
     1
102
RTVSPropertyOp41
 70
     1
102
RTVSPropertyOp42
 70
     1
102
RTVSPropertyOp43
 70
     1
102
RTVSPropertyOp44
 70
     1
102
RTVSPropertyOp45
 70
     1
102
RTVSPropertyOp46
 70
     1
102
RTVSPropertyOp47
 70
     1
102
RTVSPropertyOp48
 70
     1
102
RTVSPropertyOp49
 70
     1
102
RTVSPropertyOp50
 70
     1
102
RTVSPropertyOp51
 70
     0
102
RTVSPropertyOp52
 70
     0
102
RTVSPropertyOp53
 70
     1
102
RTVSPropertyOp54
 70
     1
102
RTVSPropertyOp55
 70
     1
102
RTVSPropertyOp56
 70
     1
102
RTVSPropertyOp57
 70
     1
102
RTVSPost2010Prop28
280
     0
102
RTVSPost2010PropOp28
 70
     1
102
RTVSPost2010Prop29
280
     1
102
RTVSPost2010PropOp29
 70
     1
102
RTVSPost2010Prop30
280
     1
102
RTVSPost2010PropOp30
 70
     1
102
RTVSPost2010Prop31
280
     0
102
RTVSPost2010PropOp31
 70
     1
102
RTVSPost2010Prop32
280
     0
102
RTVSPost2010PropOp32
 70
     1
102
RTVSPost2010Prop33
280
     0
102
RTVSPost2010PropOp33
 70
     1
102
RTVSPost2010Prop34
280
     0
102
RTVSPost2010PropOp34
 70
     1
102
RTVSPost2010Prop35
280
     0
102
RTVSPost2010PropOp35
 70
     1
102
RTVSPost2010Prop36
280
     0
102
RTVSPost2010PropOp36
 70
     1
102
RTVSPost2010Prop37
 90
       50
102
RTVSPost2010PropOp37
 70
     1
102
RTVSPost2010Prop38
140
0.0
102
RTVSPost2010PropOp38
 70
     1
102
RTVSPost2010Prop39
140
1.0
102
RTVSPost2010PropOp39
 70
     1
102
RTVSPost2010Prop40
 90
        0
102
RTVSPost2010PropOp40
 70
     1
102
RTVSPost2010Prop41ColorIndex
 90
       18
102
RTVSPost2010Prop41ColorRGB
 90
        0
102
RTVSPost2010PropOp41
 70
     1
102
RTVSPost2010Prop42
 90
       50
102
RTVSPost2010PropOp42
 70
     1
102
RTVSPost2010Prop43
 90
        3
102
RTVSPost2010PropOp43
 70
     1
102
RTVSPost2010Prop44ColorIndex
 90
        5
102
RTVSPost2010Prop44ColorRGB
 90
      255
102
RTVSPost2010PropOp44
 70
     1
102
RTVSPost2010Prop45
280
     0
102
RTVSPost2010PropOp45
 70
     1
102
RTVSPost2010Prop46
 90
       50
102
RTVSPost2010PropOp46
 70
     1
102
RTVSPost2010Prop47
 90
       50
102
RTVSPost2010PropOp47
 70
     1
102
RTVSPost2010Prop48
 90
       50
102
RTVSPost2010PropOp48
 70
     1
102
RTVSPost2010Prop49
280
     0
102
RTVSPost2010PropOp49
 70
     1
102
RTVSPost2010Prop50
 90
       50
102
RTVSPost2010PropOp50
 70
     1
102
RTVSPost2010Prop51ColorIndex
 90
      256
102
RTVSPost2010Prop51ColorRGB
 90
-16777216
102
RTVSPost2010PropOp51
 70
     0
102
RTVSPost2010Prop52
140
1.0
102
RTVSPost2010PropOp52
 70
     0
102
RTVSPost2010Prop53
 90
        2
102
RTVSPost2010PropOp53
 70
     1
102
RTVSPost2010Prop54
  1
strokes_ogs.tif
102
RTVSPost2010PropOp54
 70
     1
102
RTVSPost2010Prop55
280
     0
102
RTVSPost2010PropOp55
 70
     1
102
RTVSPost2010Prop56
140
1.0
102
RTVSPost2010PropOp56
 70
     1
102
RTVSPost2010Prop57
140
1.0
102
RTVSPost2010PropOp57
 70
     1
  0
XRECORD
  5
617
102
{ACAD_REACTORS
330
616
102
}
330
616
100
AcDbXrecord
280
     1
102
RTVSPropertyOp0
 70
     1
102
RTVSPropertyOp1
 70
     1
102
RTVSPropertyOp2
 70
     1
102
RTVSPropertyOp3
 70
     1
102
RTVSPropertyOp4
 70
     1
102
RTVSPropertyOp5
 70
     1
102
RTVSPropertyOp6
 70
     1
102
RTVSPropertyOp7
 70
     1
102
RTVSPropertyOp8
 70
     1
102
RTVSPropertyOp9
 70
     1
102
RTVSPropertyOp10
 70
     1
102
RTVSPropertyOp11
 70
     1
102
RTVSPropertyOp12
 70
     1
102
RTVSPropertyOp13
 70
     1
102
RTVSPropertyOp14
 70
     1
102
RTVSPropertyOp15
 70
     1
102
RTVSPropertyOp16
 70
     1
102
RTVSPropertyOp17
 70
     1
102
RTVSPropertyOp18
 70
     1
102
RTVSPropertyOp19
 70
     1
102
RTVSPropertyOp20
 70
     1
102
RTVSPropertyOp21
 70
     1
102
RTVSPropertyOp22
 70
     1
102
RTVSPropertyOp23
 70
     1
102
RTVSPropertyOp24
 70
     1
102
RTVSPropertyOp25
 70
     1
102
RTVSPropertyOp26
 70
     1
102
RTVSPropertyOp27
 70
     1
102
RTVSPropertyOp28
 70
     1
102
RTVSPropertyOp29
 70
     1
102
RTVSPropertyOp30
 70
     1
102
RTVSPropertyOp31
 70
     1
102
RTVSPropertyOp32
 70
     1
102
RTVSPropertyOp33
 70
     1
102
RTVSPropertyOp34
 70
     1
102
RTVSPropertyOp35
 70
     1
102
RTVSPropertyOp36
 70
     1
102
RTVSPropertyOp37
 70
     1
102
RTVSPropertyOp38
 70
     1
102
RTVSPropertyOp39
 70
     1
102
RTVSPropertyOp40
 70
     1
102
RTVSPropertyOp41
 70
     1
102
RTVSPropertyOp42
 70
     1
102
RTVSPropertyOp43
 70
     1
102
RTVSPropertyOp44
 70
     1
102
RTVSPropertyOp45
 70
     1
102
RTVSPropertyOp46
 70
     1
102
RTVSPropertyOp47
 70
     1
102
RTVSPropertyOp48
 70
     1
102
RTVSPropertyOp49
 70
     1
102
RTVSPropertyOp50
 70
     1
102
RTVSPropertyOp51
 70
     0
102
RTVSPropertyOp52
 70
     0
102
RTVSPropertyOp53
 70
     1
102
RTVSPropertyOp54
 70
     1
102
RTVSPropertyOp55
 70
     1
102
RTVSPropertyOp56
 70
     1
102
RTVSPropertyOp57
 70
     1
102
RTVSPost2010Prop28
280
     0
102
RTVSPost2010PropOp28
 70
     1
102
RTVSPost2010Prop29
280
     1
102
RTVSPost2010PropOp29
 70
     1
102
RTVSPost2010Prop30
280
     1
102
RTVSPost2010PropOp30
 70
     1
102
RTVSPost2010Prop31
280
     0
102
RTVSPost2010PropOp31
 70
     1
102
RTVSPost2010Prop32
280
     0
102
RTVSPost2010PropOp32
 70
     1
102
RTVSPost2010Prop33
280
     0
102
RTVSPost2010PropOp33
 70
     1
102
RTVSPost2010Prop34
280
     0
102
RTVSPost2010PropOp34
 70
     1
102
RTVSPost2010Prop35
280
     0
102
RTVSPost2010PropOp35
 70
     1
102
RTVSPost2010Prop36
280
     0
102
RTVSPost2010PropOp36
 70
     1
102
RTVSPost2010Prop37
 90
       50
102
RTVSPost2010PropOp37
 70
     1
102
RTVSPost2010Prop38
140
0.0
102
RTVSPost2010PropOp38
 70
     1
102
RTVSPost2010Prop39
140
1.0
102
RTVSPost2010PropOp39
 70
     1
102
RTVSPost2010Prop40
 90
        0
102
RTVSPost2010PropOp40
 70
     1
102
RTVSPost2010Prop41ColorIndex
 90
       18
102
RTVSPost2010Prop41ColorRGB
 90
        0
102
RTVSPost2010PropOp41
 70
     1
102
RTVSPost2010Prop42
 90
       50
102
RTVSPost2010PropOp42
 70
     1
102
RTVSPost2010Prop43
 90
        3
102
RTVSPost2010PropOp43
 70
     1
102
RTVSPost2010Prop44ColorIndex
 90
        5
102
RTVSPost2010Prop44ColorRGB
 90
      255
102
RTVSPost2010PropOp44
 70
     1
102
RTVSPost2010Prop45
280
     0
102
RTVSPost2010PropOp45
 70
     1
102
RTVSPost2010Prop46
 90
       50
102
RTVSPost2010PropOp46
 70
     1
102
RTVSPost2010Prop47
 90
       50
102
RTVSPost2010PropOp47
 70
     1
102
RTVSPost2010Prop48
 90
       50
102
RTVSPost2010PropOp48
 70
     1
102
RTVSPost2010Prop49
280
     0
102
RTVSPost2010PropOp49
 70
     1
102
RTVSPost2010Prop50
 90
       50
102
RTVSPost2010PropOp50
 70
     1
102
RTVSPost2010Prop51ColorIndex
 90
      256
102
RTVSPost2010Prop51ColorRGB
 90
-16777216
102
RTVSPost2010PropOp51
 70
     0
102
RTVSPost2010Prop52
140
1.0
102
RTVSPost2010PropOp52
 70
     0
102
RTVSPost2010Prop53
 90
        2
102
RTVSPost2010PropOp53
 70
     1
102
RTVSPost2010Prop54
  1
strokes_ogs.tif
102
RTVSPost2010PropOp54
 70
     1
102
RTVSPost2010Prop55
280
     0
102
RTVSPost2010PropOp55
 70
     1
102
RTVSPost2010Prop56
140
1.0
102
RTVSPost2010PropOp56
 70
     1
102
RTVSPost2010Prop57
140
1.0
102
RTVSPost2010PropOp57
 70
     1
  0
XRECORD
  5
61D
102
{ACAD_REACTORS
330
61C
102
}
330
61C
100
AcDbXrecord
280
     1
102
RTVSPropertyOp0
 70
     1
102
RTVSPropertyOp1
 70
     1
102
RTVSPropertyOp2
 70
     1
102
RTVSPropertyOp3
 70
     1
102
RTVSPropertyOp4
 70
     1
102
RTVSPropertyOp5
 70
     1
102
RTVSPropertyOp6
 70
     1
102
RTVSPropertyOp7
 70
     1
102
RTVSPropertyOp8
 70
     1
102
RTVSPropertyOp9
 70
     1
102
RTVSPropertyOp10
 70
     1
102
RTVSPropertyOp11
 70
     1
102
RTVSPropertyOp12
 70
     1
102
RTVSPropertyOp13
 70
     1
102
RTVSPropertyOp14
 70
     1
102
RTVSPropertyOp15
 70
     1
102
RTVSPropertyOp16
 70
     1
102
RTVSPropertyOp17
 70
     1
102
RTVSPropertyOp18
 70
     1
102
RTVSPropertyOp19
 70
     1
102
RTVSPropertyOp20
 70
     1
102
RTVSPropertyOp21
 70
     1
102
RTVSPropertyOp22
 70
     1
102
RTVSPropertyOp23
 70
     1
102
RTVSPropertyOp24
 70
     1
102
RTVSPropertyOp25
 70
     1
102
RTVSPropertyOp26
 70
     1
102
RTVSPropertyOp27
 70
     1
102
RTVSPropertyOp28
 70
     1
102
RTVSPropertyOp29
 70
     1
102
RTVSPropertyOp30
 70
     1
102
RTVSPropertyOp31
 70
     1
102
RTVSPropertyOp32
 70
     1
102
RTVSPropertyOp33
 70
     1
102
RTVSPropertyOp34
 70
     1
102
RTVSPropertyOp35
 70
     1
102
RTVSPropertyOp36
 70
     1
102
RTVSPropertyOp37
 70
     1
102
RTVSPropertyOp38
 70
     1
102
RTVSPropertyOp39
 70
     1
102
RTVSPropertyOp40
 70
     1
102
RTVSPropertyOp41
 70
     1
102
RTVSPropertyOp42
 70
     1
102
RTVSPropertyOp43
 70
     1
102
RTVSPropertyOp44
 70
     1
102
RTVSPropertyOp45
 70
     1
102
RTVSPropertyOp46
 70
     1
102
RTVSPropertyOp47
 70
     1
102
RTVSPropertyOp48
 70
     1
102
RTVSPropertyOp49
 70
     1
102
RTVSPropertyOp50
 70
     1
102
RTVSPropertyOp51
 70
     0
102
RTVSPropertyOp52
 70
     0
102
RTVSPropertyOp53
 70
     1
102
RTVSPropertyOp54
 70
     1
102
RTVSPropertyOp55
 70
     1
102
RTVSPropertyOp56
 70
     1
102
RTVSPropertyOp57
 70
     1
102
RTVSPost2010Prop28
280
     0
102
RTVSPost2010PropOp28
 70
     1
102
RTVSPost2010Prop29
280
     1
102
RTVSPost2010PropOp29
 70
     1
102
RTVSPost2010Prop30
280
     1
102
RTVSPost2010PropOp30
 70
     1
102
RTVSPost2010Prop31
280
     0
102
RTVSPost2010PropOp31
 70
     1
102
RTVSPost2010Prop32
280
     0
102
RTVSPost2010PropOp32
 70
     1
102
RTVSPost2010Prop33
280
     0
102
RTVSPost2010PropOp33
 70
     1
102
RTVSPost2010Prop34
280
     0
102
RTVSPost2010PropOp34
 70
     1
102
RTVSPost2010Prop35
280
     0
102
RTVSPost2010PropOp35
 70
     1
102
RTVSPost2010Prop36
280
     0
102
RTVSPost2010PropOp36
 70
     1
102
RTVSPost2010Prop37
 90
       50
102
RTVSPost2010PropOp37
 70
     1
102
RTVSPost2010Prop38
140
0.0
102
RTVSPost2010PropOp38
 70
     1
102
RTVSPost2010Prop39
140
1.0
102
RTVSPost2010PropOp39
 70
     1
102
RTVSPost2010Prop40
 90
        0
102
RTVSPost2010PropOp40
 70
     1
102
RTVSPost2010Prop41ColorIndex
 90
       18
102
RTVSPost2010Prop41ColorRGB
 90
        0
102
RTVSPost2010PropOp41
 70
     1
102
RTVSPost2010Prop42
 90
       50
102
RTVSPost2010PropOp42
 70
     1
102
RTVSPost2010Prop43
 90
        3
102
RTVSPost2010PropOp43
 70
     1
102
RTVSPost2010Prop44ColorIndex
 90
        5
102
RTVSPost2010Prop44ColorRGB
 90
      255
102
RTVSPost2010PropOp44
 70
     1
102
RTVSPost2010Prop45
280
     0
102
RTVSPost2010PropOp45
 70
     1
102
RTVSPost2010Prop46
 90
       50
102
RTVSPost2010PropOp46
 70
     1
102
RTVSPost2010Prop47
 90
       50
102
RTVSPost2010PropOp47
 70
     1
102
RTVSPost2010Prop48
 90
       50
102
RTVSPost2010PropOp48
 70
     1
102
RTVSPost2010Prop49
280
     0
102
RTVSPost2010PropOp49
 70
     1
102
RTVSPost2010Prop50
 90
       50
102
RTVSPost2010PropOp50
 70
     1
102
RTVSPost2010Prop51ColorIndex
 90
      256
102
RTVSPost2010Prop51ColorRGB
 90
-16777216
102
RTVSPost2010PropOp51
 70
     0
102
RTVSPost2010Prop52
140
1.0
102
RTVSPost2010PropOp52
 70
     0
102
RTVSPost2010Prop53
 90
        2
102
RTVSPost2010PropOp53
 70
     1
102
RTVSPost2010Prop54
  1
strokes_ogs.tif
102
RTVSPost2010PropOp54
 70
     1
102
RTVSPost2010Prop55
280
     0
102
RTVSPost2010PropOp55
 70
     1
102
RTVSPost2010Prop56
140
1.0
102
RTVSPost2010PropOp56
 70
     1
102
RTVSPost2010Prop57
140
1.0
102
RTVSPost2010PropOp57
 70
     1
  0
XRECORD
  5
631
102
{ACAD_REACTORS
330
630
102
}
330
630
100
AcDbXrecord
280
     1
102
RTVSPropertyOp0
 70
     0
102
RTVSPropertyOp1
 70
     0
102
RTVSPropertyOp2
 70
     0
102
RTVSPropertyOp3
 70
     0
102
RTVSPropertyOp4
 70
     0
102
RTVSPropertyOp5
 70
     0
102
RTVSPropertyOp6
 70
     0
102
RTVSPropertyOp7
 70
     0
102
RTVSPropertyOp8
 70
     0
102
RTVSPropertyOp9
 70
     0
102
RTVSPropertyOp10
 70
     0
102
RTVSPropertyOp11
 70
     0
102
RTVSPropertyOp12
 70
     0
102
RTVSPropertyOp13
 70
     0
102
RTVSPropertyOp14
 70
     0
102
RTVSPropertyOp15
 70
     0
102
RTVSPropertyOp16
 70
     0
102
RTVSPropertyOp17
 70
     0
102
RTVSPropertyOp18
 70
     0
102
RTVSPropertyOp19
 70
     0
102
RTVSPropertyOp20
 70
     0
102
RTVSPropertyOp21
 70
     0
102
RTVSPropertyOp22
 70
     0
102
RTVSPropertyOp23
 70
     0
102
RTVSPropertyOp24
 70
     0
102
RTVSPropertyOp25
 70
     0
102
RTVSPropertyOp26
 70
     0
102
RTVSPropertyOp27
 70
     0
102
RTVSPropertyOp28
 70
     1
102
RTVSPropertyOp29
 70
     1
102
RTVSPropertyOp30
 70
     1
102
RTVSPropertyOp31
 70
     1
102
RTVSPropertyOp32
 70
     1
102
RTVSPropertyOp33
 70
     1
102
RTVSPropertyOp34
 70
     1
102
RTVSPropertyOp35
 70
     1
102
RTVSPropertyOp36
 70
     1
102
RTVSPropertyOp37
 70
     1
102
RTVSPropertyOp38
 70
     1
102
RTVSPropertyOp39
 70
     1
102
RTVSPropertyOp40
 70
     1
102
RTVSPropertyOp41
 70
     1
102
RTVSPropertyOp42
 70
     1
102
RTVSPropertyOp43
 70
     1
102
RTVSPropertyOp44
 70
     1
102
RTVSPropertyOp45
 70
     1
102
RTVSPropertyOp46
 70
     1
102
RTVSPropertyOp47
 70
     1
102
RTVSPropertyOp48
 70
     1
102
RTVSPropertyOp49
 70
     1
102
RTVSPropertyOp50
 70
     1
102
RTVSPropertyOp51
 70
     0
102
RTVSPropertyOp52
 70
     0
102
RTVSPropertyOp53
 70
     1
102
RTVSPropertyOp54
 70
     1
102
RTVSPropertyOp55
 70
     1
102
RTVSPropertyOp56
 70
     1
102
RTVSPropertyOp57
 70
     1
102
RTVSPost2010Prop28
280
     0
102
RTVSPost2010PropOp28
 70
     1
102
RTVSPost2010Prop29
280
     1
102
RTVSPost2010PropOp29
 70
     1
102
RTVSPost2010Prop30
280
     1
102
RTVSPost2010PropOp30
 70
     1
102
RTVSPost2010Prop31
280
     0
102
RTVSPost2010PropOp31
 70
     1
102
RTVSPost2010Prop32
280
     0
102
RTVSPost2010PropOp32
 70
     1
102
RTVSPost2010Prop33
280
     0
102
RTVSPost2010PropOp33
 70
     1
102
RTVSPost2010Prop34
280
     0
102
RTVSPost2010PropOp34
 70
     1
102
RTVSPost2010Prop35
280
     0
102
RTVSPost2010PropOp35
 70
     1
102
RTVSPost2010Prop36
280
     0
102
RTVSPost2010PropOp36
 70
     1
102
RTVSPost2010Prop37
 90
       50
102
RTVSPost2010PropOp37
 70
     1
102
RTVSPost2010Prop38
140
0.0
102
RTVSPost2010PropOp38
 70
     1
102
RTVSPost2010Prop39
140
1.0
102
RTVSPost2010PropOp39
 70
     1
102
RTVSPost2010Prop40
 90
        0
102
RTVSPost2010PropOp40
 70
     1
102
RTVSPost2010Prop41ColorIndex
 90
       18
102
RTVSPost2010Prop41ColorRGB
 90
        0
102
RTVSPost2010PropOp41
 70
     1
102
RTVSPost2010Prop42
 90
       50
102
RTVSPost2010PropOp42
 70
     1
102
RTVSPost2010Prop43
 90
        3
102
RTVSPost2010PropOp43
 70
     1
102
RTVSPost2010Prop44ColorIndex
 90
        5
102
RTVSPost2010Prop44ColorRGB
 90
      255
102
RTVSPost2010PropOp44
 70
     1
102
RTVSPost2010Prop45
280
     0
102
RTVSPost2010PropOp45
 70
     1
102
RTVSPost2010Prop46
 90
       50
102
RTVSPost2010PropOp46
 70
     1
102
RTVSPost2010Prop47
 90
       50
102
RTVSPost2010PropOp47
 70
     1
102
RTVSPost2010Prop48
 90
       50
102
RTVSPost2010PropOp48
 70
     1
102
RTVSPost2010Prop49
280
     0
102
RTVSPost2010PropOp49
 70
     1
102
RTVSPost2010Prop50
 90
       50
102
RTVSPost2010PropOp50
 70
     1
102
RTVSPost2010Prop51ColorIndex
 90
      256
102
RTVSPost2010Prop51ColorRGB
 90
-16777216
102
RTVSPost2010PropOp51
 70
     0
102
RTVSPost2010Prop52
140
1.0
102
RTVSPost2010PropOp52
 70
     0
102
RTVSPost2010Prop53
 90
        2
102
RTVSPost2010PropOp53
 70
     1
102
RTVSPost2010Prop54
  1
strokes_ogs.tif
102
RTVSPost2010PropOp54
 70
     1
102
RTVSPost2010Prop55
280
     0
102
RTVSPost2010PropOp55
 70
     1
102
RTVSPost2010Prop56
140
1.0
102
RTVSPost2010PropOp56
 70
     1
102
RTVSPost2010Prop57
140
1.0
102
RTVSPost2010PropOp57
 70
     1
  0
XRECORD
  5
62B
102
{ACAD_REACTORS
330
62A
102
}
330
62A
100
AcDbXrecord
280
     1
102
RTVSPropertyOp0
 70
     1
102
RTVSPropertyOp1
 70
     1
102
RTVSPropertyOp2
 70
     1
102
RTVSPropertyOp3
 70
     1
102
RTVSPropertyOp4
 70
     1
102
RTVSPropertyOp5
 70
     1
102
RTVSPropertyOp6
 70
     1
102
RTVSPropertyOp7
 70
     1
102
RTVSPropertyOp8
 70
     1
102
RTVSPropertyOp9
 70
     1
102
RTVSPropertyOp10
 70
     1
102
RTVSPropertyOp11
 70
     1
102
RTVSPropertyOp12
 70
     1
102
RTVSPropertyOp13
 70
     1
102
RTVSPropertyOp14
 70
     1
102
RTVSPropertyOp15
 70
     1
102
RTVSPropertyOp16
 70
     1
102
RTVSPropertyOp17
 70
     1
102
RTVSPropertyOp18
 70
     1
102
RTVSPropertyOp19
 70
     1
102
RTVSPropertyOp20
 70
     1
102
RTVSPropertyOp21
 70
     1
102
RTVSPropertyOp22
 70
     1
102
RTVSPropertyOp23
 70
     1
102
RTVSPropertyOp24
 70
     1
102
RTVSPropertyOp25
 70
     1
102
RTVSPropertyOp26
 70
     1
102
RTVSPropertyOp27
 70
     1
102
RTVSPropertyOp28
 70
     1
102
RTVSPropertyOp29
 70
     1
102
RTVSPropertyOp30
 70
     1
102
RTVSPropertyOp31
 70
     1
102
RTVSPropertyOp32
 70
     1
102
RTVSPropertyOp33
 70
     1
102
RTVSPropertyOp34
 70
     1
102
RTVSPropertyOp35
 70
     1
102
RTVSPropertyOp36
 70
     1
102
RTVSPropertyOp37
 70
     1
102
RTVSPropertyOp38
 70
     1
102
RTVSPropertyOp39
 70
     1
102
RTVSPropertyOp40
 70
     1
102
RTVSPropertyOp41
 70
     1
102
RTVSPropertyOp42
 70
     1
102
RTVSPropertyOp43
 70
     1
102
RTVSPropertyOp44
 70
     1
102
RTVSPropertyOp45
 70
     1
102
RTVSPropertyOp46
 70
     1
102
RTVSPropertyOp47
 70
     1
102
RTVSPropertyOp48
 70
     1
102
RTVSPropertyOp49
 70
     1
102
RTVSPropertyOp50
 70
     1
102
RTVSPropertyOp51
 70
     0
102
RTVSPropertyOp52
 70
     0
102
RTVSPropertyOp53
 70
     1
102
RTVSPropertyOp54
 70
     1
102
RTVSPropertyOp55
 70
     1
102
RTVSPropertyOp56
 70
     1
102
RTVSPropertyOp57
 70
     1
102
RTVSPost2010Prop28
280
     0
102
RTVSPost2010PropOp28
 70
     1
102
RTVSPost2010Prop29
280
     1
102
RTVSPost2010PropOp29
 70
     1
102
RTVSPost2010Prop30
280
     1
102
RTVSPost2010PropOp30
 70
     1
102
RTVSPost2010Prop31
280
     0
102
RTVSPost2010PropOp31
 70
     1
102
RTVSPost2010Prop32
280
     0
102
RTVSPost2010PropOp32
 70
     1
102
RTVSPost2010Prop33
280
     0
102
RTVSPost2010PropOp33
 70
     1
102
RTVSPost2010Prop34
280
     0
102
RTVSPost2010PropOp34
 70
     1
102
RTVSPost2010Prop35
280
     0
102
RTVSPost2010PropOp35
 70
     1
102
RTVSPost2010Prop36
280
     0
102
RTVSPost2010PropOp36
 70
     1
102
RTVSPost2010Prop37
 90
       50
102
RTVSPost2010PropOp37
 70
     1
102
RTVSPost2010Prop38
140
0.0
102
RTVSPost2010PropOp38
 70
     1
102
RTVSPost2010Prop39
140
1.0
102
RTVSPost2010PropOp39
 70
     1
102
RTVSPost2010Prop40
 90
        0
102
RTVSPost2010PropOp40
 70
     1
102
RTVSPost2010Prop41ColorIndex
 90
       18
102
RTVSPost2010Prop41ColorRGB
 90
        0
102
RTVSPost2010PropOp41
 70
     1
102
RTVSPost2010Prop42
 90
       50
102
RTVSPost2010PropOp42
 70
     1
102
RTVSPost2010Prop43
 90
        3
102
RTVSPost2010PropOp43
 70
     1
102
RTVSPost2010Prop44ColorIndex
 90
        5
102
RTVSPost2010Prop44ColorRGB
 90
      255
102
RTVSPost2010PropOp44
 70
     1
102
RTVSPost2010Prop45
280
     0
102
RTVSPost2010PropOp45
 70
     1
102
RTVSPost2010Prop46
 90
       50
102
RTVSPost2010PropOp46
 70
     1
102
RTVSPost2010Prop47
 90
       50
102
RTVSPost2010PropOp47
 70
     1
102
RTVSPost2010Prop48
 90
       50
102
RTVSPost2010PropOp48
 70
     1
102
RTVSPost2010Prop49
280
     0
102
RTVSPost2010PropOp49
 70
     1
102
RTVSPost2010Prop50
 90
       50
102
RTVSPost2010PropOp50
 70
     1
102
RTVSPost2010Prop51ColorIndex
 90
      256
102
RTVSPost2010Prop51ColorRGB
 90
-16777216
102
RTVSPost2010PropOp51
 70
     0
102
RTVSPost2010Prop52
140
1.0
102
RTVSPost2010PropOp52
 70
     0
102
RTVSPost2010Prop53
 90
        2
102
RTVSPost2010PropOp53
 70
     1
102
RTVSPost2010Prop54
  1
strokes_ogs.tif
102
RTVSPost2010PropOp54
 70
     1
102
RTVSPost2010Prop55
280
     0
102
RTVSPost2010PropOp55
 70
     1
102
RTVSPost2010Prop56
140
1.0
102
RTVSPost2010PropOp56
 70
     1
102
RTVSPost2010Prop57
140
1.0
102
RTVSPost2010PropOp57
 70
     1
  0
XRECORD
  5
633
102
{ACAD_REACTORS
330
632
102
}
330
632
100
AcDbXrecord
280
     1
102
RTVSPropertyOp0
 70
     0
102
RTVSPropertyOp1
 70
     0
102
RTVSPropertyOp2
 70
     0
102
RTVSPropertyOp3
 70
     0
102
RTVSPropertyOp4
 70
     0
102
RTVSPropertyOp5
 70
     0
102
RTVSPropertyOp6
 70
     0
102
RTVSPropertyOp7
 70
     0
102
RTVSPropertyOp8
 70
     0
102
RTVSPropertyOp9
 70
     0
102
RTVSPropertyOp10
 70
     0
102
RTVSPropertyOp11
 70
     0
102
RTVSPropertyOp12
 70
     0
102
RTVSPropertyOp13
 70
     0
102
RTVSPropertyOp14
 70
     0
102
RTVSPropertyOp15
 70
     0
102
RTVSPropertyOp16
 70
     0
102
RTVSPropertyOp17
 70
     0
102
RTVSPropertyOp18
 70
     0
102
RTVSPropertyOp19
 70
     0
102
RTVSPropertyOp20
 70
     0
102
RTVSPropertyOp21
 70
     0
102
RTVSPropertyOp22
 70
     0
102
RTVSPropertyOp23
 70
     0
102
RTVSPropertyOp24
 70
     0
102
RTVSPropertyOp25
 70
     0
102
RTVSPropertyOp26
 70
     0
102
RTVSPropertyOp27
 70
     0
102
RTVSPropertyOp28
 70
     1
102
RTVSPropertyOp29
 70
     1
102
RTVSPropertyOp30
 70
     1
102
RTVSPropertyOp31
 70
     1
102
RTVSPropertyOp32
 70
     1
102
RTVSPropertyOp33
 70
     1
102
RTVSPropertyOp34
 70
     1
102
RTVSPropertyOp35
 70
     1
102
RTVSPropertyOp36
 70
     1
102
RTVSPropertyOp37
 70
     1
102
RTVSPropertyOp38
 70
     1
102
RTVSPropertyOp39
 70
     1
102
RTVSPropertyOp40
 70
     1
102
RTVSPropertyOp41
 70
     1
102
RTVSPropertyOp42
 70
     1
102
RTVSPropertyOp43
 70
     1
102
RTVSPropertyOp44
 70
     1
102
RTVSPropertyOp45
 70
     1
102
RTVSPropertyOp46
 70
     1
102
RTVSPropertyOp47
 70
     1
102
RTVSPropertyOp48
 70
     1
102
RTVSPropertyOp49
 70
     1
102
RTVSPropertyOp50
 70
     1
102
RTVSPropertyOp51
 70
     0
102
RTVSPropertyOp52
 70
     0
102
RTVSPropertyOp53
 70
     1
102
RTVSPropertyOp54
 70
     1
102
RTVSPropertyOp55
 70
     1
102
RTVSPropertyOp56
 70
     1
102
RTVSPropertyOp57
 70
     1
102
RTVSPost2010Prop28
280
     0
102
RTVSPost2010PropOp28
 70
     1
102
RTVSPost2010Prop29
280
     1
102
RTVSPost2010PropOp29
 70
     1
102
RTVSPost2010Prop30
280
     1
102
RTVSPost2010PropOp30
 70
     1
102
RTVSPost2010Prop31
280
     0
102
RTVSPost2010PropOp31
 70
     1
102
RTVSPost2010Prop32
280
     0
102
RTVSPost2010PropOp32
 70
     1
102
RTVSPost2010Prop33
280
     0
102
RTVSPost2010PropOp33
 70
     1
102
RTVSPost2010Prop34
280
     0
102
RTVSPost2010PropOp34
 70
     1
102
RTVSPost2010Prop35
280
     0
102
RTVSPost2010PropOp35
 70
     1
102
RTVSPost2010Prop36
280
     0
102
RTVSPost2010PropOp36
 70
     1
102
RTVSPost2010Prop37
 90
       50
102
RTVSPost2010PropOp37
 70
     1
102
RTVSPost2010Prop38
140
0.0
102
RTVSPost2010PropOp38
 70
     1
102
RTVSPost2010Prop39
140
1.0
102
RTVSPost2010PropOp39
 70
     1
102
RTVSPost2010Prop40
 90
        0
102
RTVSPost2010PropOp40
 70
     1
102
RTVSPost2010Prop41ColorIndex
 90
       18
102
RTVSPost2010Prop41ColorRGB
 90
        0
102
RTVSPost2010PropOp41
 70
     1
102
RTVSPost2010Prop42
 90
       50
102
RTVSPost2010PropOp42
 70
     1
102
RTVSPost2010Prop43
 90
        3
102
RTVSPost2010PropOp43
 70
     1
102
RTVSPost2010Prop44ColorIndex
 90
        5
102
RTVSPost2010Prop44ColorRGB
 90
      255
102
RTVSPost2010PropOp44
 70
     1
102
RTVSPost2010Prop45
280
     0
102
RTVSPost2010PropOp45
 70
     1
102
RTVSPost2010Prop46
 90
       50
102
RTVSPost2010PropOp46
 70
     1
102
RTVSPost2010Prop47
 90
       50
102
RTVSPost2010PropOp47
 70
     1
102
RTVSPost2010Prop48
 90
       50
102
RTVSPost2010PropOp48
 70
     1
102
RTVSPost2010Prop49
280
     0
102
RTVSPost2010PropOp49
 70
     1
102
RTVSPost2010Prop50
 90
       50
102
RTVSPost2010PropOp50
 70
     1
102
RTVSPost2010Prop51ColorIndex
 90
      256
102
RTVSPost2010Prop51ColorRGB
 90
-16777216
102
RTVSPost2010PropOp51
 70
     0
102
RTVSPost2010Prop52
140
1.0
102
RTVSPost2010PropOp52
 70
     0
102
RTVSPost2010Prop53
 90
        2
102
RTVSPost2010PropOp53
 70
     1
102
RTVSPost2010Prop54
  1
strokes_ogs.tif
102
RTVSPost2010PropOp54
 70
     1
102
RTVSPost2010Prop55
280
     0
102
RTVSPost2010PropOp55
 70
     1
102
RTVSPost2010Prop56
140
1.0
102
RTVSPost2010PropOp56
 70
     1
102
RTVSPost2010Prop57
140
1.0
102
RTVSPost2010PropOp57
 70
     1
  0
XRECORD
  5
621
102
{ACAD_REACTORS
330
620
102
}
330
620
100
AcDbXrecord
280
     1
102
RTVSPropertyOp0
 70
     1
102
RTVSPropertyOp1
 70
     1
102
RTVSPropertyOp2
 70
     1
102
RTVSPropertyOp3
 70
     1
102
RTVSPropertyOp4
 70
     1
102
RTVSPropertyOp5
 70
     1
102
RTVSPropertyOp6
 70
     1
102
RTVSPropertyOp7
 70
     1
102
RTVSPropertyOp8
 70
     1
102
RTVSPropertyOp9
 70
     1
102
RTVSPropertyOp10
 70
     1
102
RTVSPropertyOp11
 70
     1
102
RTVSPropertyOp12
 70
     1
102
RTVSPropertyOp13
 70
     1
102
RTVSPropertyOp14
 70
     1
102
RTVSPropertyOp15
 70
     1
102
RTVSPropertyOp16
 70
     1
102
RTVSPropertyOp17
 70
     1
102
RTVSPropertyOp18
 70
     1
102
RTVSPropertyOp19
 70
     1
102
RTVSPropertyOp20
 70
     1
102
RTVSPropertyOp21
 70
     1
102
RTVSPropertyOp22
 70
     1
102
RTVSPropertyOp23
 70
     1
102
RTVSPropertyOp24
 70
     1
102
RTVSPropertyOp25
 70
     1
102
RTVSPropertyOp26
 70
     1
102
RTVSPropertyOp27
 70
     1
102
RTVSPropertyOp28
 70
     1
102
RTVSPropertyOp29
 70
     1
102
RTVSPropertyOp30
 70
     1
102
RTVSPropertyOp31
 70
     1
102
RTVSPropertyOp32
 70
     1
102
RTVSPropertyOp33
 70
     1
102
RTVSPropertyOp34
 70
     1
102
RTVSPropertyOp35
 70
     1
102
RTVSPropertyOp36
 70
     1
102
RTVSPropertyOp37
 70
     1
102
RTVSPropertyOp38
 70
     1
102
RTVSPropertyOp39
 70
     1
102
RTVSPropertyOp40
 70
     1
102
RTVSPropertyOp41
 70
     1
102
RTVSPropertyOp42
 70
     1
102
RTVSPropertyOp43
 70
     1
102
RTVSPropertyOp44
 70
     1
102
RTVSPropertyOp45
 70
     1
102
RTVSPropertyOp46
 70
     1
102
RTVSPropertyOp47
 70
     1
102
RTVSPropertyOp48
 70
     1
102
RTVSPropertyOp49
 70
     1
102
RTVSPropertyOp50
 70
     1
102
RTVSPropertyOp51
 70
     0
102
RTVSPropertyOp52
 70
     0
102
RTVSPropertyOp53
 70
     1
102
RTVSPropertyOp54
 70
     1
102
RTVSPropertyOp55
 70
     1
102
RTVSPropertyOp56
 70
     1
102
RTVSPropertyOp57
 70
     1
102
RTVSPost2010Prop28
280
     0
102
RTVSPost2010PropOp28
 70
     1
102
RTVSPost2010Prop29
280
     1
102
RTVSPost2010PropOp29
 70
     1
102
RTVSPost2010Prop30
280
     1
102
RTVSPost2010PropOp30
 70
     1
102
RTVSPost2010Prop31
280
     0
102
RTVSPost2010PropOp31
 70
     1
102
RTVSPost2010Prop32
280
     0
102
RTVSPost2010PropOp32
 70
     1
102
RTVSPost2010Prop33
280
     0
102
RTVSPost2010PropOp33
 70
     1
102
RTVSPost2010Prop34
280
     0
102
RTVSPost2010PropOp34
 70
     1
102
RTVSPost2010Prop35
280
     0
102
RTVSPost2010PropOp35
 70
     1
102
RTVSPost2010Prop36
280
     0
102
RTVSPost2010PropOp36
 70
     1
102
RTVSPost2010Prop37
 90
       50
102
RTVSPost2010PropOp37
 70
     1
102
RTVSPost2010Prop38
140
0.0
102
RTVSPost2010PropOp38
 70
     1
102
RTVSPost2010Prop39
140
1.0
102
RTVSPost2010PropOp39
 70
     1
102
RTVSPost2010Prop40
 90
        0
102
RTVSPost2010PropOp40
 70
     1
102
RTVSPost2010Prop41ColorIndex
 90
       18
102
RTVSPost2010Prop41ColorRGB
 90
        0
102
RTVSPost2010PropOp41
 70
     1
102
RTVSPost2010Prop42
 90
       50
102
RTVSPost2010PropOp42
 70
     1
102
RTVSPost2010Prop43
 90
        3
102
RTVSPost2010PropOp43
 70
     1
102
RTVSPost2010Prop44ColorIndex
 90
        5
102
RTVSPost2010Prop44ColorRGB
 90
      255
102
RTVSPost2010PropOp44
 70
     1
102
RTVSPost2010Prop45
280
     0
102
RTVSPost2010PropOp45
 70
     1
102
RTVSPost2010Prop46
 90
       50
102
RTVSPost2010PropOp46
 70
     1
102
RTVSPost2010Prop47
 90
       50
102
RTVSPost2010PropOp47
 70
     1
102
RTVSPost2010Prop48
 90
       50
102
RTVSPost2010PropOp48
 70
     1
102
RTVSPost2010Prop49
280
     0
102
RTVSPost2010PropOp49
 70
     1
102
RTVSPost2010Prop50
 90
       50
102
RTVSPost2010PropOp50
 70
     1
102
RTVSPost2010Prop51ColorIndex
 90
      256
102
RTVSPost2010Prop51ColorRGB
 90
-16777216
102
RTVSPost2010PropOp51
 70
     0
102
RTVSPost2010Prop52
140
1.0
102
RTVSPost2010PropOp52
 70
     0
102
RTVSPost2010Prop53
 90
        2
102
RTVSPost2010PropOp53
 70
     1
102
RTVSPost2010Prop54
  1
strokes_ogs.tif
102
RTVSPost2010PropOp54
 70
     1
102
RTVSPost2010Prop55
280
     0
102
RTVSPost2010PropOp55
 70
     1
102
RTVSPost2010Prop56
140
1.0
102
RTVSPost2010PropOp56
 70
     1
102
RTVSPost2010Prop57
140
1.0
102
RTVSPost2010PropOp57
 70
     1
  0
XRECORD
  5
63F
102
{ACAD_REACTORS
330
63E
102
}
330
63E
100
AcDbXrecord
280
     1
102
RTVSPropertyOp0
 70
     1
102
RTVSPropertyOp1
 70
     1
102
RTVSPropertyOp2
 70
     1
102
RTVSPropertyOp3
 70
     1
102
RTVSPropertyOp4
 70
     1
102
RTVSPropertyOp5
 70
     1
102
RTVSPropertyOp6
 70
     1
102
RTVSPropertyOp7
 70
     1
102
RTVSPropertyOp8
 70
     1
102
RTVSPropertyOp9
 70
     1
102
RTVSPropertyOp10
 70
     1
102
RTVSPropertyOp11
 70
     1
102
RTVSPropertyOp12
 70
     1
102
RTVSPropertyOp13
 70
     1
102
RTVSPropertyOp14
 70
     1
102
RTVSPropertyOp15
 70
     1
102
RTVSPropertyOp16
 70
     1
102
RTVSPropertyOp17
 70
     1
102
RTVSPropertyOp18
 70
     1
102
RTVSPropertyOp19
 70
     1
102
RTVSPropertyOp20
 70
     1
102
RTVSPropertyOp21
 70
     1
102
RTVSPropertyOp22
 70
     1
102
RTVSPropertyOp23
 70
     1
102
RTVSPropertyOp24
 70
     1
102
RTVSPropertyOp25
 70
     1
102
RTVSPropertyOp26
 70
     1
102
RTVSPropertyOp27
 70
     1
102
RTVSPropertyOp28
 70
     1
102
RTVSPropertyOp29
 70
     1
102
RTVSPropertyOp30
 70
     1
102
RTVSPropertyOp31
 70
     1
102
RTVSPropertyOp32
 70
     1
102
RTVSPropertyOp33
 70
     1
102
RTVSPropertyOp34
 70
     1
102
RTVSPropertyOp35
 70
     1
102
RTVSPropertyOp36
 70
     1
102
RTVSPropertyOp37
 70
     1
102
RTVSPropertyOp38
 70
     1
102
RTVSPropertyOp39
 70
     1
102
RTVSPropertyOp40
 70
     1
102
RTVSPropertyOp41
 70
     1
102
RTVSPropertyOp42
 70
     1
102
RTVSPropertyOp43
 70
     1
102
RTVSPropertyOp44
 70
     1
102
RTVSPropertyOp45
 70
     1
102
RTVSPropertyOp46
 70
     1
102
RTVSPropertyOp47
 70
     1
102
RTVSPropertyOp48
 70
     1
102
RTVSPropertyOp49
 70
     1
102
RTVSPropertyOp50
 70
     1
102
RTVSPropertyOp51
 70
     0
102
RTVSPropertyOp52
 70
     0
102
RTVSPropertyOp53
 70
     1
102
RTVSPropertyOp54
 70
     1
102
RTVSPropertyOp55
 70
     1
102
RTVSPropertyOp56
 70
     1
102
RTVSPropertyOp57
 70
     1
102
RTVSPost2010Prop28
280
     0
102
RTVSPost2010PropOp28
 70
     1
102
RTVSPost2010Prop29
280
     1
102
RTVSPost2010PropOp29
 70
     1
102
RTVSPost2010Prop30
280
     1
102
RTVSPost2010PropOp30
 70
     1
102
RTVSPost2010Prop31
280
     0
102
RTVSPost2010PropOp31
 70
     1
102
RTVSPost2010Prop32
280
     0
102
RTVSPost2010PropOp32
 70
     1
102
RTVSPost2010Prop33
280
     0
102
RTVSPost2010PropOp33
 70
     1
102
RTVSPost2010Prop34
280
     0
102
RTVSPost2010PropOp34
 70
     1
102
RTVSPost2010Prop35
280
     0
102
RTVSPost2010PropOp35
 70
     1
102
RTVSPost2010Prop36
280
     0
102
RTVSPost2010PropOp36
 70
     1
102
RTVSPost2010Prop37
 90
       50
102
RTVSPost2010PropOp37
 70
     1
102
RTVSPost2010Prop38
140
0.0
102
RTVSPost2010PropOp38
 70
     1
102
RTVSPost2010Prop39
140
1.0
102
RTVSPost2010PropOp39
 70
     1
102
RTVSPost2010Prop40
 90
        0
102
RTVSPost2010PropOp40
 70
     1
102
RTVSPost2010Prop41ColorIndex
 90
       18
102
RTVSPost2010Prop41ColorRGB
 90
        0
102
RTVSPost2010PropOp41
 70
     1
102
RTVSPost2010Prop42
 90
       50
102
RTVSPost2010PropOp42
 70
     1
102
RTVSPost2010Prop43
 90
        3
102
RTVSPost2010PropOp43
 70
     1
102
RTVSPost2010Prop44ColorIndex
 90
        5
102
RTVSPost2010Prop44ColorRGB
 90
      255
102
RTVSPost2010PropOp44
 70
     1
102
RTVSPost2010Prop45
280
     0
102
RTVSPost2010PropOp45
 70
     1
102
RTVSPost2010Prop46
 90
       50
102
RTVSPost2010PropOp46
 70
     1
102
RTVSPost2010Prop47
 90
       50
102
RTVSPost2010PropOp47
 70
     1
102
RTVSPost2010Prop48
 90
       50
102
RTVSPost2010PropOp48
 70
     1
102
RTVSPost2010Prop49
280
     0
102
RTVSPost2010PropOp49
 70
     1
102
RTVSPost2010Prop50
 90
       50
102
RTVSPost2010PropOp50
 70
     1
102
RTVSPost2010Prop51ColorIndex
 90
      256
102
RTVSPost2010Prop51ColorRGB
 90
-16777216
102
RTVSPost2010PropOp51
 70
     0
102
RTVSPost2010Prop52
140
1.0
102
RTVSPost2010PropOp52
 70
     0
102
RTVSPost2010Prop53
 90
        2
102
RTVSPost2010PropOp53
 70
     1
102
RTVSPost2010Prop54
  1
strokes_ogs.tif
102
RTVSPost2010PropOp54
 70
     1
102
RTVSPost2010Prop55
280
     0
102
RTVSPost2010PropOp55
 70
     1
102
RTVSPost2010Prop56
140
1.0
102
RTVSPost2010PropOp56
 70
     1
102
RTVSPost2010Prop57
140
1.0
102
RTVSPost2010PropOp57
 70
     1
  0
XRECORD
  5
63D
102
{ACAD_REACTORS
330
63C
102
}
330
63C
100
AcDbXrecord
280
     1
102
RTVSPropertyOp0
 70
     1
102
RTVSPropertyOp1
 70
     1
102
RTVSPropertyOp2
 70
     1
102
RTVSPropertyOp3
 70
     1
102
RTVSPropertyOp4
 70
     1
102
RTVSPropertyOp5
 70
     1
102
RTVSPropertyOp6
 70
     1
102
RTVSPropertyOp7
 70
     1
102
RTVSPropertyOp8
 70
     1
102
RTVSPropertyOp9
 70
     1
102
RTVSPropertyOp10
 70
     1
102
RTVSPropertyOp11
 70
     1
102
RTVSPropertyOp12
 70
     1
102
RTVSPropertyOp13
 70
     1
102
RTVSPropertyOp14
 70
     1
102
RTVSPropertyOp15
 70
     1
102
RTVSPropertyOp16
 70
     1
102
RTVSPropertyOp17
 70
     1
102
RTVSPropertyOp18
 70
     1
102
RTVSPropertyOp19
 70
     1
102
RTVSPropertyOp20
 70
     1
102
RTVSPropertyOp21
 70
     1
102
RTVSPropertyOp22
 70
     1
102
RTVSPropertyOp23
 70
     1
102
RTVSPropertyOp24
 70
     1
102
RTVSPropertyOp25
 70
     1
102
RTVSPropertyOp26
 70
     1
102
RTVSPropertyOp27
 70
     1
102
RTVSPropertyOp28
 70
     1
102
RTVSPropertyOp29
 70
     1
102
RTVSPropertyOp30
 70
     1
102
RTVSPropertyOp31
 70
     1
102
RTVSPropertyOp32
 70
     1
102
RTVSPropertyOp33
 70
     1
102
RTVSPropertyOp34
 70
     1
102
RTVSPropertyOp35
 70
     1
102
RTVSPropertyOp36
 70
     1
102
RTVSPropertyOp37
 70
     1
102
RTVSPropertyOp38
 70
     1
102
RTVSPropertyOp39
 70
     1
102
RTVSPropertyOp40
 70
     1
102
RTVSPropertyOp41
 70
     1
102
RTVSPropertyOp42
 70
     1
102
RTVSPropertyOp43
 70
     1
102
RTVSPropertyOp44
 70
     1
102
RTVSPropertyOp45
 70
     1
102
RTVSPropertyOp46
 70
     1
102
RTVSPropertyOp47
 70
     1
102
RTVSPropertyOp48
 70
     1
102
RTVSPropertyOp49
 70
     1
102
RTVSPropertyOp50
 70
     1
102
RTVSPropertyOp51
 70
     0
102
RTVSPropertyOp52
 70
     0
102
RTVSPropertyOp53
 70
     1
102
RTVSPropertyOp54
 70
     1
102
RTVSPropertyOp55
 70
     1
102
RTVSPropertyOp56
 70
     1
102
RTVSPropertyOp57
 70
     1
102
RTVSPost2010Prop28
280
     0
102
RTVSPost2010PropOp28
 70
     1
102
RTVSPost2010Prop29
280
     1
102
RTVSPost2010PropOp29
 70
     1
102
RTVSPost2010Prop30
280
     1
102
RTVSPost2010PropOp30
 70
     1
102
RTVSPost2010Prop31
280
     0
102
RTVSPost2010PropOp31
 70
     1
102
RTVSPost2010Prop32
280
     0
102
RTVSPost2010PropOp32
 70
     1
102
RTVSPost2010Prop33
280
     0
102
RTVSPost2010PropOp33
 70
     1
102
RTVSPost2010Prop34
280
     0
102
RTVSPost2010PropOp34
 70
     1
102
RTVSPost2010Prop35
280
     0
102
RTVSPost2010PropOp35
 70
     1
102
RTVSPost2010Prop36
280
     0
102
RTVSPost2010PropOp36
 70
     1
102
RTVSPost2010Prop37
 90
       50
102
RTVSPost2010PropOp37
 70
     1
102
RTVSPost2010Prop38
140
0.0
102
RTVSPost2010PropOp38
 70
     1
102
RTVSPost2010Prop39
140
1.0
102
RTVSPost2010PropOp39
 70
     1
102
RTVSPost2010Prop40
 90
        0
102
RTVSPost2010PropOp40
 70
     1
102
RTVSPost2010Prop41ColorIndex
 90
       18
102
RTVSPost2010Prop41ColorRGB
 90
        0
102
RTVSPost2010PropOp41
 70
     1
102
RTVSPost2010Prop42
 90
       50
102
RTVSPost2010PropOp42
 70
     1
102
RTVSPost2010Prop43
 90
        3
102
RTVSPost2010PropOp43
 70
     1
102
RTVSPost2010Prop44ColorIndex
 90
        5
102
RTVSPost2010Prop44ColorRGB
 90
      255
102
RTVSPost2010PropOp44
 70
     1
102
RTVSPost2010Prop45
280
     0
102
RTVSPost2010PropOp45
 70
     1
102
RTVSPost2010Prop46
 90
       50
102
RTVSPost2010PropOp46
 70
     1
102
RTVSPost2010Prop47
 90
       50
102
RTVSPost2010PropOp47
 70
     1
102
RTVSPost2010Prop48
 90
       50
102
RTVSPost2010PropOp48
 70
     1
102
RTVSPost2010Prop49
280
     0
102
RTVSPost2010PropOp49
 70
     1
102
RTVSPost2010Prop50
 90
       50
102
RTVSPost2010PropOp50
 70
     1
102
RTVSPost2010Prop51ColorIndex
 90
      256
102
RTVSPost2010Prop51ColorRGB
 90
-16777216
102
RTVSPost2010PropOp51
 70
     0
102
RTVSPost2010Prop52
140
1.0
102
RTVSPost2010PropOp52
 70
     0
102
RTVSPost2010Prop53
 90
        2
102
RTVSPost2010PropOp53
 70
     1
102
RTVSPost2010Prop54
  1
strokes_ogs.tif
102
RTVSPost2010PropOp54
 70
     1
102
RTVSPost2010Prop55
280
     0
102
RTVSPost2010PropOp55
 70
     1
102
RTVSPost2010Prop56
140
1.0
102
RTVSPost2010PropOp56
 70
     1
102
RTVSPost2010Prop57
140
1.0
102
RTVSPost2010PropOp57
 70
     1
  0
XRECORD
  5
637
102
{ACAD_REACTORS
330
636
102
}
330
636
100
AcDbXrecord
280
     1
102
RTVSPropertyOp0
 70
     1
102
RTVSPropertyOp1
 70
     1
102
RTVSPropertyOp2
 70
     1
102
RTVSPropertyOp3
 70
     1
102
RTVSPropertyOp4
 70
     1
102
RTVSPropertyOp5
 70
     1
102
RTVSPropertyOp6
 70
     1
102
RTVSPropertyOp7
 70
     1
102
RTVSPropertyOp8
 70
     1
102
RTVSPropertyOp9
 70
     1
102
RTVSPropertyOp10
 70
     1
102
RTVSPropertyOp11
 70
     1
102
RTVSPropertyOp12
 70
     1
102
RTVSPropertyOp13
 70
     1
102
RTVSPropertyOp14
 70
     1
102
RTVSPropertyOp15
 70
     1
102
RTVSPropertyOp16
 70
     1
102
RTVSPropertyOp17
 70
     1
102
RTVSPropertyOp18
 70
     1
102
RTVSPropertyOp19
 70
     1
102
RTVSPropertyOp20
 70
     1
102
RTVSPropertyOp21
 70
     1
102
RTVSPropertyOp22
 70
     1
102
RTVSPropertyOp23
 70
     1
102
RTVSPropertyOp24
 70
     1
102
RTVSPropertyOp25
 70
     1
102
RTVSPropertyOp26
 70
     1
102
RTVSPropertyOp27
 70
     1
102
RTVSPropertyOp28
 70
     1
102
RTVSPropertyOp29
 70
     1
102
RTVSPropertyOp30
 70
     1
102
RTVSPropertyOp31
 70
     1
102
RTVSPropertyOp32
 70
     1
102
RTVSPropertyOp33
 70
     1
102
RTVSPropertyOp34
 70
     1
102
RTVSPropertyOp35
 70
     1
102
RTVSPropertyOp36
 70
     1
102
RTVSPropertyOp37
 70
     1
102
RTVSPropertyOp38
 70
     1
102
RTVSPropertyOp39
 70
     1
102
RTVSPropertyOp40
 70
     1
102
RTVSPropertyOp41
 70
     1
102
RTVSPropertyOp42
 70
     1
102
RTVSPropertyOp43
 70
     1
102
RTVSPropertyOp44
 70
     1
102
RTVSPropertyOp45
 70
     1
102
RTVSPropertyOp46
 70
     1
102
RTVSPropertyOp47
 70
     1
102
RTVSPropertyOp48
 70
     1
102
RTVSPropertyOp49
 70
     1
102
RTVSPropertyOp50
 70
     1
102
RTVSPropertyOp51
 70
     0
102
RTVSPropertyOp52
 70
     0
102
RTVSPropertyOp53
 70
     1
102
RTVSPropertyOp54
 70
     1
102
RTVSPropertyOp55
 70
     1
102
RTVSPropertyOp56
 70
     1
102
RTVSPropertyOp57
 70
     1
102
RTVSPost2010Prop28
280
     0
102
RTVSPost2010PropOp28
 70
     1
102
RTVSPost2010Prop29
280
     1
102
RTVSPost2010PropOp29
 70
     1
102
RTVSPost2010Prop30
280
     1
102
RTVSPost2010PropOp30
 70
     1
102
RTVSPost2010Prop31
280
     0
102
RTVSPost2010PropOp31
 70
     1
102
RTVSPost2010Prop32
280
     0
102
RTVSPost2010PropOp32
 70
     1
102
RTVSPost2010Prop33
280
     0
102
RTVSPost2010PropOp33
 70
     1
102
RTVSPost2010Prop34
280
     0
102
RTVSPost2010PropOp34
 70
     1
102
RTVSPost2010Prop35
280
     0
102
RTVSPost2010PropOp35
 70
     1
102
RTVSPost2010Prop36
280
     0
102
RTVSPost2010PropOp36
 70
     1
102
RTVSPost2010Prop37
 90
       50
102
RTVSPost2010PropOp37
 70
     1
102
RTVSPost2010Prop38
140
0.0
102
RTVSPost2010PropOp38
 70
     1
102
RTVSPost2010Prop39
140
1.0
102
RTVSPost2010PropOp39
 70
     1
102
RTVSPost2010Prop40
 90
        0
102
RTVSPost2010PropOp40
 70
     1
102
RTVSPost2010Prop41ColorIndex
 90
       18
102
RTVSPost2010Prop41ColorRGB
 90
        0
102
RTVSPost2010PropOp41
 70
     1
102
RTVSPost2010Prop42
 90
       50
102
RTVSPost2010PropOp42
 70
     1
102
RTVSPost2010Prop43
 90
        3
102
RTVSPost2010PropOp43
 70
     1
102
RTVSPost2010Prop44ColorIndex
 90
        5
102
RTVSPost2010Prop44ColorRGB
 90
      255
102
RTVSPost2010PropOp44
 70
     1
102
RTVSPost2010Prop45
280
     0
102
RTVSPost2010PropOp45
 70
     1
102
RTVSPost2010Prop46
 90
       50
102
RTVSPost2010PropOp46
 70
     1
102
RTVSPost2010Prop47
 90
       50
102
RTVSPost2010PropOp47
 70
     1
102
RTVSPost2010Prop48
 90
       50
102
RTVSPost2010PropOp48
 70
     1
102
RTVSPost2010Prop49
280
     0
102
RTVSPost2010PropOp49
 70
     1
102
RTVSPost2010Prop50
 90
       50
102
RTVSPost2010PropOp50
 70
     1
102
RTVSPost2010Prop51ColorIndex
 90
      256
102
RTVSPost2010Prop51ColorRGB
 90
-16777216
102
RTVSPost2010PropOp51
 70
     0
102
RTVSPost2010Prop52
140
1.0
102
RTVSPost2010PropOp52
 70
     0
102
RTVSPost2010Prop53
 90
        2
102
RTVSPost2010PropOp53
 70
     1
102
RTVSPost2010Prop54
  1
strokes_ogs.tif
102
RTVSPost2010PropOp54
 70
     1
102
RTVSPost2010Prop55
280
     0
102
RTVSPost2010PropOp55
 70
     1
102
RTVSPost2010Prop56
140
1.0
102
RTVSPost2010PropOp56
 70
     1
102
RTVSPost2010Prop57
140
1.0
102
RTVSPost2010PropOp57
 70
     1
  0
XRECORD
  5
639
102
{ACAD_REACTORS
330
638
102
}
330
638
100
AcDbXrecord
280
     1
102
RTVSPropertyOp0
 70
     1
102
RTVSPropertyOp1
 70
     1
102
RTVSPropertyOp2
 70
     1
102
RTVSPropertyOp3
 70
     1
102
RTVSPropertyOp4
 70
     1
102
RTVSPropertyOp5
 70
     1
102
RTVSPropertyOp6
 70
     1
102
RTVSPropertyOp7
 70
     1
102
RTVSPropertyOp8
 70
     1
102
RTVSPropertyOp9
 70
     1
102
RTVSPropertyOp10
 70
     1
102
RTVSPropertyOp11
 70
     1
102
RTVSPropertyOp12
 70
     1
102
RTVSPropertyOp13
 70
     1
102
RTVSPropertyOp14
 70
     1
102
RTVSPropertyOp15
 70
     1
102
RTVSPropertyOp16
 70
     1
102
RTVSPropertyOp17
 70
     1
102
RTVSPropertyOp18
 70
     1
102
RTVSPropertyOp19
 70
     1
102
RTVSPropertyOp20
 70
     1
102
RTVSPropertyOp21
 70
     1
102
RTVSPropertyOp22
 70
     1
102
RTVSPropertyOp23
 70
     1
102
RTVSPropertyOp24
 70
     1
102
RTVSPropertyOp25
 70
     1
102
RTVSPropertyOp26
 70
     1
102
RTVSPropertyOp27
 70
     1
102
RTVSPropertyOp28
 70
     1
102
RTVSPropertyOp29
 70
     1
102
RTVSPropertyOp30
 70
     1
102
RTVSPropertyOp31
 70
     1
102
RTVSPropertyOp32
 70
     1
102
RTVSPropertyOp33
 70
     1
102
RTVSPropertyOp34
 70
     1
102
RTVSPropertyOp35
 70
     1
102
RTVSPropertyOp36
 70
     1
102
RTVSPropertyOp37
 70
     1
102
RTVSPropertyOp38
 70
     1
102
RTVSPropertyOp39
 70
     1
102
RTVSPropertyOp40
 70
     1
102
RTVSPropertyOp41
 70
     1
102
RTVSPropertyOp42
 70
     1
102
RTVSPropertyOp43
 70
     1
102
RTVSPropertyOp44
 70
     1
102
RTVSPropertyOp45
 70
     1
102
RTVSPropertyOp46
 70
     1
102
RTVSPropertyOp47
 70
     1
102
RTVSPropertyOp48
 70
     1
102
RTVSPropertyOp49
 70
     1
102
RTVSPropertyOp50
 70
     1
102
RTVSPropertyOp51
 70
     0
102
RTVSPropertyOp52
 70
     0
102
RTVSPropertyOp53
 70
     1
102
RTVSPropertyOp54
 70
     1
102
RTVSPropertyOp55
 70
     1
102
RTVSPropertyOp56
 70
     1
102
RTVSPropertyOp57
 70
     1
102
RTVSPost2010Prop28
280
     0
102
RTVSPost2010PropOp28
 70
     1
102
RTVSPost2010Prop29
280
     1
102
RTVSPost2010PropOp29
 70
     1
102
RTVSPost2010Prop30
280
     1
102
RTVSPost2010PropOp30
 70
     1
102
RTVSPost2010Prop31
280
     0
102
RTVSPost2010PropOp31
 70
     1
102
RTVSPost2010Prop32
280
     0
102
RTVSPost2010PropOp32
 70
     1
102
RTVSPost2010Prop33
280
     0
102
RTVSPost2010PropOp33
 70
     1
102
RTVSPost2010Prop34
280
     0
102
RTVSPost2010PropOp34
 70
     1
102
RTVSPost2010Prop35
280
     0
102
RTVSPost2010PropOp35
 70
     1
102
RTVSPost2010Prop36
280
     0
102
RTVSPost2010PropOp36
 70
     1
102
RTVSPost2010Prop37
 90
       50
102
RTVSPost2010PropOp37
 70
     1
102
RTVSPost2010Prop38
140
0.0
102
RTVSPost2010PropOp38
 70
     1
102
RTVSPost2010Prop39
140
1.0
102
RTVSPost2010PropOp39
 70
     1
102
RTVSPost2010Prop40
 90
        0
102
RTVSPost2010PropOp40
 70
     1
102
RTVSPost2010Prop41ColorIndex
 90
       18
102
RTVSPost2010Prop41ColorRGB
 90
        0
102
RTVSPost2010PropOp41
 70
     1
102
RTVSPost2010Prop42
 90
       50
102
RTVSPost2010PropOp42
 70
     1
102
RTVSPost2010Prop43
 90
        3
102
RTVSPost2010PropOp43
 70
     1
102
RTVSPost2010Prop44ColorIndex
 90
        5
102
RTVSPost2010Prop44ColorRGB
 90
      255
102
RTVSPost2010PropOp44
 70
     1
102
RTVSPost2010Prop45
280
     0
102
RTVSPost2010PropOp45
 70
     1
102
RTVSPost2010Prop46
 90
       50
102
RTVSPost2010PropOp46
 70
     1
102
RTVSPost2010Prop47
 90
       50
102
RTVSPost2010PropOp47
 70
     1
102
RTVSPost2010Prop48
 90
       50
102
RTVSPost2010PropOp48
 70
     1
102
RTVSPost2010Prop49
280
     0
102
RTVSPost2010PropOp49
 70
     1
102
RTVSPost2010Prop50
 90
       50
102
RTVSPost2010PropOp50
 70
     1
102
RTVSPost2010Prop51ColorIndex
 90
      256
102
RTVSPost2010Prop51ColorRGB
 90
-16777216
102
RTVSPost2010PropOp51
 70
     0
102
RTVSPost2010Prop52
140
1.0
102
RTVSPost2010PropOp52
 70
     0
102
RTVSPost2010Prop53
 90
        2
102
RTVSPost2010PropOp53
 70
     1
102
RTVSPost2010Prop54
  1
strokes_ogs.tif
102
RTVSPost2010PropOp54
 70
     1
102
RTVSPost2010Prop55
280
     0
102
RTVSPost2010PropOp55
 70
     1
102
RTVSPost2010Prop56
140
1.0
102
RTVSPost2010PropOp56
 70
     1
102
RTVSPost2010Prop57
140
1.0
102
RTVSPost2010PropOp57
 70
     1
  0
XRECORD
  5
629
102
{ACAD_REACTORS
330
628
102
}
330
628
100
AcDbXrecord
280
     1
102
RTVSPropertyOp0
 70
     1
102
RTVSPropertyOp1
 70
     1
102
RTVSPropertyOp2
 70
     1
102
RTVSPropertyOp3
 70
     1
102
RTVSPropertyOp4
 70
     1
102
RTVSPropertyOp5
 70
     1
102
RTVSPropertyOp6
 70
     1
102
RTVSPropertyOp7
 70
     1
102
RTVSPropertyOp8
 70
     1
102
RTVSPropertyOp9
 70
     1
102
RTVSPropertyOp10
 70
     1
102
RTVSPropertyOp11
 70
     1
102
RTVSPropertyOp12
 70
     1
102
RTVSPropertyOp13
 70
     1
102
RTVSPropertyOp14
 70
     1
102
RTVSPropertyOp15
 70
     1
102
RTVSPropertyOp16
 70
     1
102
RTVSPropertyOp17
 70
     1
102
RTVSPropertyOp18
 70
     1
102
RTVSPropertyOp19
 70
     1
102
RTVSPropertyOp20
 70
     1
102
RTVSPropertyOp21
 70
     1
102
RTVSPropertyOp22
 70
     1
102
RTVSPropertyOp23
 70
     1
102
RTVSPropertyOp24
 70
     1
102
RTVSPropertyOp25
 70
     1
102
RTVSPropertyOp26
 70
     1
102
RTVSPropertyOp27
 70
     1
102
RTVSPropertyOp28
 70
     1
102
RTVSPropertyOp29
 70
     1
102
RTVSPropertyOp30
 70
     1
102
RTVSPropertyOp31
 70
     1
102
RTVSPropertyOp32
 70
     1
102
RTVSPropertyOp33
 70
     1
102
RTVSPropertyOp34
 70
     1
102
RTVSPropertyOp35
 70
     1
102
RTVSPropertyOp36
 70
     1
102
RTVSPropertyOp37
 70
     1
102
RTVSPropertyOp38
 70
     1
102
RTVSPropertyOp39
 70
     1
102
RTVSPropertyOp40
 70
     1
102
RTVSPropertyOp41
 70
     1
102
RTVSPropertyOp42
 70
     1
102
RTVSPropertyOp43
 70
     1
102
RTVSPropertyOp44
 70
     1
102
RTVSPropertyOp45
 70
     1
102
RTVSPropertyOp46
 70
     1
102
RTVSPropertyOp47
 70
     1
102
RTVSPropertyOp48
 70
     1
102
RTVSPropertyOp49
 70
     1
102
RTVSPropertyOp50
 70
     1
102
RTVSPropertyOp51
 70
     0
102
RTVSPropertyOp52
 70
     0
102
RTVSPropertyOp53
 70
     1
102
RTVSPropertyOp54
 70
     1
102
RTVSPropertyOp55
 70
     1
102
RTVSPropertyOp56
 70
     1
102
RTVSPropertyOp57
 70
     1
102
RTVSPost2010Prop28
280
     0
102
RTVSPost2010PropOp28
 70
     1
102
RTVSPost2010Prop29
280
     1
102
RTVSPost2010PropOp29
 70
     1
102
RTVSPost2010Prop30
280
     1
102
RTVSPost2010PropOp30
 70
     1
102
RTVSPost2010Prop31
280
     0
102
RTVSPost2010PropOp31
 70
     1
102
RTVSPost2010Prop32
280
     0
102
RTVSPost2010PropOp32
 70
     1
102
RTVSPost2010Prop33
280
     0
102
RTVSPost2010PropOp33
 70
     1
102
RTVSPost2010Prop34
280
     0
102
RTVSPost2010PropOp34
 70
     1
102
RTVSPost2010Prop35
280
     0
102
RTVSPost2010PropOp35
 70
     1
102
RTVSPost2010Prop36
280
     0
102
RTVSPost2010PropOp36
 70
     1
102
RTVSPost2010Prop37
 90
       50
102
RTVSPost2010PropOp37
 70
     1
102
RTVSPost2010Prop38
140
0.0
102
RTVSPost2010PropOp38
 70
     1
102
RTVSPost2010Prop39
140
1.0
102
RTVSPost2010PropOp39
 70
     1
102
RTVSPost2010Prop40
 90
        0
102
RTVSPost2010PropOp40
 70
     1
102
RTVSPost2010Prop41ColorIndex
 90
       18
102
RTVSPost2010Prop41ColorRGB
 90
        0
102
RTVSPost2010PropOp41
 70
     1
102
RTVSPost2010Prop42
 90
       50
102
RTVSPost2010PropOp42
 70
     1
102
RTVSPost2010Prop43
 90
        3
102
RTVSPost2010PropOp43
 70
     1
102
RTVSPost2010Prop44ColorIndex
 90
        5
102
RTVSPost2010Prop44ColorRGB
 90
      255
102
RTVSPost2010PropOp44
 70
     1
102
RTVSPost2010Prop45
280
     0
102
RTVSPost2010PropOp45
 70
     1
102
RTVSPost2010Prop46
 90
       50
102
RTVSPost2010PropOp46
 70
     1
102
RTVSPost2010Prop47
 90
       50
102
RTVSPost2010PropOp47
 70
     1
102
RTVSPost2010Prop48
 90
       50
102
RTVSPost2010PropOp48
 70
     1
102
RTVSPost2010Prop49
280
     0
102
RTVSPost2010PropOp49
 70
     1
102
RTVSPost2010Prop50
 90
       50
102
RTVSPost2010PropOp50
 70
     1
102
RTVSPost2010Prop51ColorIndex
 90
      256
102
RTVSPost2010Prop51ColorRGB
 90
-16777216
102
RTVSPost2010PropOp51
 70
     0
102
RTVSPost2010Prop52
140
1.0
102
RTVSPost2010PropOp52
 70
     0
102
RTVSPost2010Prop53
 90
        2
102
RTVSPost2010PropOp53
 70
     1
102
RTVSPost2010Prop54
  1
strokes_ogs.tif
102
RTVSPost2010PropOp54
 70
     1
102
RTVSPost2010Prop55
280
     0
102
RTVSPost2010PropOp55
 70
     1
102
RTVSPost2010Prop56
140
1.0
102
RTVSPost2010PropOp56
 70
     1
102
RTVSPost2010Prop57
140
1.0
102
RTVSPost2010PropOp57
 70
     1
  0
XRECORD
  5
61B
102
{ACAD_REACTORS
330
61A
102
}
330
61A
100
AcDbXrecord
280
     1
102
RTVSPropertyOp0
 70
     1
102
RTVSPropertyOp1
 70
     1
102
RTVSPropertyOp2
 70
     1
102
RTVSPropertyOp3
 70
     1
102
RTVSPropertyOp4
 70
     1
102
RTVSPropertyOp5
 70
     1
102
RTVSPropertyOp6
 70
     1
102
RTVSPropertyOp7
 70
     1
102
RTVSPropertyOp8
 70
     1
102
RTVSPropertyOp9
 70
     1
102
RTVSPropertyOp10
 70
     1
102
RTVSPropertyOp11
 70
     1
102
RTVSPropertyOp12
 70
     1
102
RTVSPropertyOp13
 70
     1
102
RTVSPropertyOp14
 70
     1
102
RTVSPropertyOp15
 70
     1
102
RTVSPropertyOp16
 70
     1
102
RTVSPropertyOp17
 70
     1
102
RTVSPropertyOp18
 70
     1
102
RTVSPropertyOp19
 70
     1
102
RTVSPropertyOp20
 70
     1
102
RTVSPropertyOp21
 70
     1
102
RTVSPropertyOp22
 70
     1
102
RTVSPropertyOp23
 70
     1
102
RTVSPropertyOp24
 70
     1
102
RTVSPropertyOp25
 70
     1
102
RTVSPropertyOp26
 70
     1
102
RTVSPropertyOp27
 70
     1
102
RTVSPropertyOp28
 70
     1
102
RTVSPropertyOp29
 70
     1
102
RTVSPropertyOp30
 70
     1
102
RTVSPropertyOp31
 70
     1
102
RTVSPropertyOp32
 70
     1
102
RTVSPropertyOp33
 70
     1
102
RTVSPropertyOp34
 70
     1
102
RTVSPropertyOp35
 70
     1
102
RTVSPropertyOp36
 70
     1
102
RTVSPropertyOp37
 70
     1
102
RTVSPropertyOp38
 70
     1
102
RTVSPropertyOp39
 70
     1
102
RTVSPropertyOp40
 70
     1
102
RTVSPropertyOp41
 70
     1
102
RTVSPropertyOp42
 70
     1
102
RTVSPropertyOp43
 70
     1
102
RTVSPropertyOp44
 70
     1
102
RTVSPropertyOp45
 70
     1
102
RTVSPropertyOp46
 70
     1
102
RTVSPropertyOp47
 70
     1
102
RTVSPropertyOp48
 70
     1
102
RTVSPropertyOp49
 70
     1
102
RTVSPropertyOp50
 70
     1
102
RTVSPropertyOp51
 70
     0
102
RTVSPropertyOp52
 70
     0
102
RTVSPropertyOp53
 70
     1
102
RTVSPropertyOp54
 70
     1
102
RTVSPropertyOp55
 70
     1
102
RTVSPropertyOp56
 70
     1
102
RTVSPropertyOp57
 70
     1
102
RTVSPost2010Prop28
280
     0
102
RTVSPost2010PropOp28
 70
     1
102
RTVSPost2010Prop29
280
     1
102
RTVSPost2010PropOp29
 70
     1
102
RTVSPost2010Prop30
280
     1
102
RTVSPost2010PropOp30
 70
     1
102
RTVSPost2010Prop31
280
     0
102
RTVSPost2010PropOp31
 70
     1
102
RTVSPost2010Prop32
280
     0
102
RTVSPost2010PropOp32
 70
     1
102
RTVSPost2010Prop33
280
     0
102
RTVSPost2010PropOp33
 70
     1
102
RTVSPost2010Prop34
280
     0
102
RTVSPost2010PropOp34
 70
     1
102
RTVSPost2010Prop35
280
     0
102
RTVSPost2010PropOp35
 70
     1
102
RTVSPost2010Prop36
280
     0
102
RTVSPost2010PropOp36
 70
     1
102
RTVSPost2010Prop37
 90
       50
102
RTVSPost2010PropOp37
 70
     1
102
RTVSPost2010Prop38
140
0.0
102
RTVSPost2010PropOp38
 70
     1
102
RTVSPost2010Prop39
140
1.0
102
RTVSPost2010PropOp39
 70
     1
102
RTVSPost2010Prop40
 90
        0
102
RTVSPost2010PropOp40
 70
     1
102
RTVSPost2010Prop41ColorIndex
 90
       18
102
RTVSPost2010Prop41ColorRGB
 90
        0
102
RTVSPost2010PropOp41
 70
     1
102
RTVSPost2010Prop42
 90
       50
102
RTVSPost2010PropOp42
 70
     1
102
RTVSPost2010Prop43
 90
        3
102
RTVSPost2010PropOp43
 70
     1
102
RTVSPost2010Prop44ColorIndex
 90
        5
102
RTVSPost2010Prop44ColorRGB
 90
      255
102
RTVSPost2010PropOp44
 70
     1
102
RTVSPost2010Prop45
280
     0
102
RTVSPost2010PropOp45
 70
     1
102
RTVSPost2010Prop46
 90
       50
102
RTVSPost2010PropOp46
 70
     1
102
RTVSPost2010Prop47
 90
       50
102
RTVSPost2010PropOp47
 70
     1
102
RTVSPost2010Prop48
 90
       50
102
RTVSPost2010PropOp48
 70
     1
102
RTVSPost2010Prop49
280
     0
102
RTVSPost2010PropOp49
 70
     1
102
RTVSPost2010Prop50
 90
       50
102
RTVSPost2010PropOp50
 70
     1
102
RTVSPost2010Prop51ColorIndex
 90
      256
102
RTVSPost2010Prop51ColorRGB
 90
-16777216
102
RTVSPost2010PropOp51
 70
     0
102
RTVSPost2010Prop52
140
1.0
102
RTVSPost2010PropOp52
 70
     0
102
RTVSPost2010Prop53
 90
        2
102
RTVSPost2010PropOp53
 70
     1
102
RTVSPost2010Prop54
  1
strokes_ogs.tif
102
RTVSPost2010PropOp54
 70
     1
102
RTVSPost2010Prop55
280
     0
102
RTVSPost2010PropOp55
 70
     1
102
RTVSPost2010Prop56
140
1.0
102
RTVSPost2010PropOp56
 70
     1
102
RTVSPost2010Prop57
140
1.0
102
RTVSPost2010PropOp57
 70
     1
  0
XRECORD
  5
63B
102
{ACAD_REACTORS
330
63A
102
}
330
63A
100
AcDbXrecord
280
     1
102
RTVSPropertyOp0
 70
     1
102
RTVSPropertyOp1
 70
     1
102
RTVSPropertyOp2
 70
     1
102
RTVSPropertyOp3
 70
     1
102
RTVSPropertyOp4
 70
     1
102
RTVSPropertyOp5
 70
     1
102
RTVSPropertyOp6
 70
     1
102
RTVSPropertyOp7
 70
     1
102
RTVSPropertyOp8
 70
     1
102
RTVSPropertyOp9
 70
     1
102
RTVSPropertyOp10
 70
     1
102
RTVSPropertyOp11
 70
     1
102
RTVSPropertyOp12
 70
     1
102
RTVSPropertyOp13
 70
     1
102
RTVSPropertyOp14
 70
     1
102
RTVSPropertyOp15
 70
     1
102
RTVSPropertyOp16
 70
     1
102
RTVSPropertyOp17
 70
     1
102
RTVSPropertyOp18
 70
     1
102
RTVSPropertyOp19
 70
     1
102
RTVSPropertyOp20
 70
     1
102
RTVSPropertyOp21
 70
     1
102
RTVSPropertyOp22
 70
     1
102
RTVSPropertyOp23
 70
     1
102
RTVSPropertyOp24
 70
     1
102
RTVSPropertyOp25
 70
     1
102
RTVSPropertyOp26
 70
     1
102
RTVSPropertyOp27
 70
     1
102
RTVSPropertyOp28
 70
     1
102
RTVSPropertyOp29
 70
     1
102
RTVSPropertyOp30
 70
     1
102
RTVSPropertyOp31
 70
     1
102
RTVSPropertyOp32
 70
     1
102
RTVSPropertyOp33
 70
     1
102
RTVSPropertyOp34
 70
     1
102
RTVSPropertyOp35
 70
     1
102
RTVSPropertyOp36
 70
     1
102
RTVSPropertyOp37
 70
     1
102
RTVSPropertyOp38
 70
     1
102
RTVSPropertyOp39
 70
     1
102
RTVSPropertyOp40
 70
     1
102
RTVSPropertyOp41
 70
     1
102
RTVSPropertyOp42
 70
     1
102
RTVSPropertyOp43
 70
     1
102
RTVSPropertyOp44
 70
     1
102
RTVSPropertyOp45
 70
     1
102
RTVSPropertyOp46
 70
     1
102
RTVSPropertyOp47
 70
     1
102
RTVSPropertyOp48
 70
     1
102
RTVSPropertyOp49
 70
     1
102
RTVSPropertyOp50
 70
     1
102
RTVSPropertyOp51
 70
     0
102
RTVSPropertyOp52
 70
     0
102
RTVSPropertyOp53
 70
     1
102
RTVSPropertyOp54
 70
     1
102
RTVSPropertyOp55
 70
     1
102
RTVSPropertyOp56
 70
     1
102
RTVSPropertyOp57
 70
     1
102
RTVSPost2010Prop28
280
     0
102
RTVSPost2010PropOp28
 70
     1
102
RTVSPost2010Prop29
280
     1
102
RTVSPost2010PropOp29
 70
     1
102
RTVSPost2010Prop30
280
     1
102
RTVSPost2010PropOp30
 70
     1
102
RTVSPost2010Prop31
280
     0
102
RTVSPost2010PropOp31
 70
     1
102
RTVSPost2010Prop32
280
     0
102
RTVSPost2010PropOp32
 70
     1
102
RTVSPost2010Prop33
280
     0
102
RTVSPost2010PropOp33
 70
     1
102
RTVSPost2010Prop34
280
     0
102
RTVSPost2010PropOp34
 70
     1
102
RTVSPost2010Prop35
280
     0
102
RTVSPost2010PropOp35
 70
     1
102
RTVSPost2010Prop36
280
     0
102
RTVSPost2010PropOp36
 70
     1
102
RTVSPost2010Prop37
 90
       50
102
RTVSPost2010PropOp37
 70
     1
102
RTVSPost2010Prop38
140
0.0
102
RTVSPost2010PropOp38
 70
     1
102
RTVSPost2010Prop39
140
1.0
102
RTVSPost2010PropOp39
 70
     1
102
RTVSPost2010Prop40
 90
        0
102
RTVSPost2010PropOp40
 70
     1
102
RTVSPost2010Prop41ColorIndex
 90
       18
102
RTVSPost2010Prop41ColorRGB
 90
        0
102
RTVSPost2010PropOp41
 70
     1
102
RTVSPost2010Prop42
 90
       50
102
RTVSPost2010PropOp42
 70
     1
102
RTVSPost2010Prop43
 90
        3
102
RTVSPost2010PropOp43
 70
     1
102
RTVSPost2010Prop44ColorIndex
 90
        5
102
RTVSPost2010Prop44ColorRGB
 90
      255
102
RTVSPost2010PropOp44
 70
     1
102
RTVSPost2010Prop45
280
     0
102
RTVSPost2010PropOp45
 70
     1
102
RTVSPost2010Prop46
 90
       50
102
RTVSPost2010PropOp46
 70
     1
102
RTVSPost2010Prop47
 90
       50
102
RTVSPost2010PropOp47
 70
     1
102
RTVSPost2010Prop48
 90
       50
102
RTVSPost2010PropOp48
 70
     1
102
RTVSPost2010Prop49
280
     0
102
RTVSPost2010PropOp49
 70
     1
102
RTVSPost2010Prop50
 90
       50
102
RTVSPost2010PropOp50
 70
     1
102
RTVSPost2010Prop51ColorIndex
 90
      256
102
RTVSPost2010Prop51ColorRGB
 90
-16777216
102
RTVSPost2010PropOp51
 70
     0
102
RTVSPost2010Prop52
140
1.0
102
RTVSPost2010PropOp52
 70
     0
102
RTVSPost2010Prop53
 90
        2
102
RTVSPost2010PropOp53
 70
     1
102
RTVSPost2010Prop54
  1
strokes_ogs.tif
102
RTVSPost2010PropOp54
 70
     1
102
RTVSPost2010Prop55
280
     0
102
RTVSPost2010PropOp55
 70
     1
102
RTVSPost2010Prop56
140
1.0
102
RTVSPost2010PropOp56
 70
     1
102
RTVSPost2010Prop57
140
1.0
102
RTVSPost2010PropOp57
 70
     1
  0
ENDSEC
  0
EOF
