  0
SECTION
  2
HEADER
  9
$ACADVER
  1
AC1015
  9
$ACADMAINTVER
 70
     6
  9
$DWGCODEPAGE
  3
ANSI_932
  9
$INSBASE
 10
2097.256832162797
 20
1537.442413933432
 30
0.0
  9
$EXTMIN
 10
250.5133812503109
 20
20.39460434413104
 30
0.0
  9
$EXTMAX
 10
2346.255048221473
 20
1885.784667565742
 30
0.0
  9
$LIMMIN
 10
0.0
 20
0.0
  9
$LIMMAX
 10
816.5000000000001
 20
565.0
  9
$ORTHOMODE
 70
     1
  9
$REGENMODE
 70
     1
  9
$FILLMODE
 70
     1
  9
$QTEXTMODE
 70
     0
  9
$MIRRTEXT
 70
     1
  9
$LTSCALE
 40
20.0
  9
$ATTMODE
 70
     1
  9
$TEXTSIZE
 40
21.0
  9
$TRACEWID
 40
0.05
  9
$TEXTSTYLE
  7
KANJI
  9
$CLAYER
  8
2
  9
$CELTYPE
  6
BYLAYER
  9
$CECOLOR
 62
   256
  9
$CELTSCALE
 40
1.0
  9
$DISPSILH
 70
     0
  9
$DIMSCALE
 40
7.0
  9
$DIMASZ
 40
2.0
  9
$DIMEXO
 40
0.5
  9
$DIMDLI
 40
0.0
  9
$DIMRND
 40
0.0
  9
$DIMDLE
 40
0.0
  9
$DIMEXE
 40
1.0
  9
$DIMTP
 40
0.0
  9
$DIMTM
 40
0.0
  9
$DIMTXT
 40
3.0
  9
$DIMCEN
 40
0.09
  9
$DIMTSZ
 40
0.0
  9
$DIMTOL
 70
     0
  9
$DIMLIM
 70
     0
  9
$DIMTIH
 70
     0
  9
$DIMTOH
 70
     0
  9
$DIMSE1
 70
     0
  9
$DIMSE2
 70
     0
  9
$DIMTAD
 70
     0
  9
$DIMZIN
 70
     8
  9
$DIMBLK
  1

  9
$DIMASO
 70
     0
  9
$DIMSHO
 70
     0
  9
$DIMPOST
  1

  9
$DIMAPOST
  1

  9
$DIMALT
 70
     0
  9
$DIMALTD
 70
     2
  9
$DIMALTF
 40
25.4
  9
$DIMLFAC
 40
1.0
  9
$DIMTOFL
 70
     1
  9
$DIMTVP
 40
1.0
  9
$DIMTIX
 70
     1
  9
$DIMSOXD
 70
     1
  9
$DIMSAH
 70
     0
  9
$DIMBLK1
  1

  9
$DIMBLK2
  1

  9
$DIMSTYLE
  2
STANDARD
  9
$DIMCLRD
 70
   256
  9
$DIMCLRE
 70
   256
  9
$DIMCLRT
 70
   256
  9
$DIMTFAC
 40
1.0
  9
$DIMGAP
 40
0.09
  9
$DIMJUST
 70
     0
  9
$DIMSD1
 70
     0
  9
$DIMSD2
 70
     0
  9
$DIMTOLJ
 70
     1
  9
$DIMTZIN
 70
     0
  9
$DIMALTZ
 70
     0
  9
$DIMALTTZ
 70
     0
  9
$DIMUPT
 70
     0
  9
$DIMDEC
 70
     1
  9
$DIMTDEC
 70
     4
  9
$DIMALTU
 70
     2
  9
$DIMALTTD
 70
     2
  9
$DIMTXSTY
  7
STANDARD
  9
$DIMAUNIT
 70
     0
  9
$DIMADEC
 70
     0
  9
$DIMALTRND
 40
0.0
  9
$DIMAZIN
 70
     0
  9
$DIMDSEP
 70
    46
  9
$DIMATFIT
 70
     3
  9
$DIMFRAC
 70
     0
  9
$DIMLDRBLK
  1

  9
$DIMLUNIT
 70
     2
  9
$DIMLWD
 70
    -2
  9
$DIMLWE
 70
    -2
  9
$DIMTMOVE
 70
     0
  9
$LUNITS
 70
     2
  9
$LUPREC
 70
     3
  9
$SKETCHINC
 40
0.1
  9
$FILLETRAD
 40
1.0
  9
$AUNITS
 70
     0
  9
$AUPREC
 70
     3
  9
$MENU
  1
C:\R13\WIN\SUPPORT\ACADFULL
  9
$ELEVATION
 40
0.0
  9
$PELEVATION
 40
0.0
  9
$THICKNESS
 40
0.0
  9
$LIMCHECK
 70
     0
  9
$CHAMFERA
 40
0.0
  9
$CHAMFERB
 40
0.0
  9
$CHAMFERC
 40
0.0
  9
$CHAMFERD
 40
0.0
  9
$SKPOLY
 70
     0
  9
$TDCREATE
 40
2457464.36866897
  9
$TDUCREATE
 40
2457463.99366897
  9
$TDUPDATE
 40
2457871.822851968
  9
$TDUUPDATE
 40
2457871.447851968
  9
$TDINDWG
 40
0.0095370718
  9
$TDUSRTIMER
 40
0.0095365972
  9
$USRTIMER
 70
     1
  9
$ANGBASE
 50
0.0
  9
$ANGDIR
 70
     0
  9
$PDMODE
 70
     0
  9
$PDSIZE
 40
0.0
  9
$PLINEWID
 40
0.0
  9
$SPLFRAME
 70
     0
  9
$SPLINETYPE
 70
     6
  9
$SPLINESEGS
 70
     8
  9
$HANDSEED
  5
5EA
  9
$SURFTAB1
 70
     6
  9
$SURFTAB2
 70
     6
  9
$SURFTYPE
 70
     6
  9
$SURFU
 70
     6
  9
$SURFV
 70
     6
  9
$UCSBASE
  2

  9
$UCSNAME
  2

  9
$UCSORG
 10
0.0
 20
0.0
 30
0.0
  9
$UCSXDIR
 10
1.0
 20
0.0
 30
0.0
  9
$UCSYDIR
 10
0.0
 20
1.0
 30
0.0
  9
$UCSORTHOREF
  2

  9
$UCSORTHOVIEW
 70
     0
  9
$UCSORGTOP
 10
0.0
 20
0.0
 30
0.0
  9
$UCSORGBOTTOM
 10
0.0
 20
0.0
 30
0.0
  9
$UCSORGLEFT
 10
0.0
 20
0.0
 30
0.0
  9
$UCSORGRIGHT
 10
0.0
 20
0.0
 30
0.0
  9
$UCSORGFRONT
 10
0.0
 20
0.0
 30
0.0
  9
$UCSORGBACK
 10
0.0
 20
0.0
 30
0.0
  9
$PUCSBASE
  2

  9
$PUCSNAME
  2

  9
$PUCSORG
 10
0.0
 20
0.0
 30
0.0
  9
$PUCSXDIR
 10
1.0
 20
0.0
 30
0.0
  9
$PUCSYDIR
 10
0.0
 20
1.0
 30
0.0
  9
$PUCSORTHOREF
  2

  9
$PUCSORTHOVIEW
 70
     0
  9
$PUCSORGTOP
 10
0.0
 20
0.0
 30
0.0
  9
$PUCSORGBOTTOM
 10
0.0
 20
0.0
 30
0.0
  9
$PUCSORGLEFT
 10
0.0
 20
0.0
 30
0.0
  9
$PUCSORGRIGHT
 10
0.0
 20
0.0
 30
0.0
  9
$PUCSORGFRONT
 10
0.0
 20
0.0
 30
0.0
  9
$PUCSORGBACK
 10
0.0
 20
0.0
 30
0.0
  9
$USERI1
 70
     0
  9
$USERI2
 70
     0
  9
$USERI3
 70
     0
  9
$USERI4
 70
     0
  9
$USERI5
 70
     0
  9
$USERR1
 40
0.0
  9
$USERR2
 40
0.0
  9
$USERR3
 40
0.0
  9
$USERR4
 40
2448925.372986111
  9
$USERR5
 40
0.04166667
  9
$WORLDVIEW
 70
     1
  9
$SHADEDGE
 70
     3
  9
$SHADEDIF
 70
    70
  9
$TILEMODE
 70
     1
  9
$MAXACTVP
 70
    16
  9
$PINSBASE
 10
0.0
 20
0.0
 30
0.0
  9
$PLIMCHECK
 70
     0
  9
$PEXTMIN
 10
1.000000000000000E+20
 20
1.000000000000000E+20
 30
1.000000000000000E+20
  9
$PEXTMAX
 10
-1.000000000000000E+20
 20
-1.000000000000000E+20
 30
-1.000000000000000E+20
  9
$PLIMMIN
 10
0.0
 20
0.0
  9
$PLIMMAX
 10
12.0
 20
9.0
  9
$UNITMODE
 70
     0
  9
$VISRETAIN
 70
     0
  9
$PLINEGEN
 70
     0
  9
$PSLTSCALE
 70
     0
  9
$TREEDEPTH
 70
  3020
  9
$CMLSTYLE
  2
STANDARD
  9
$CMLJUST
 70
     0
  9
$CMLSCALE
 40
1.0
  9
$PROXYGRAPHICS
 70
     1
  9
$MEASUREMENT
 70
     0
  9
$CELWEIGHT
370
    -1
  9
$ENDCAPS
280
     0
  9
$JOINSTYLE
280
     0
  9
$LWDISPLAY
290
     0
  9
$INSUNITS
 70
     0
  9
$HYPERLINKBASE
  1

  9
$STYLESHEET
  1

  9
$XEDIT
290
     1
  9
$CEPSNTYPE
380
     0
  9
$PSTYLEMODE
290
     1
  9
$FINGERPRINTGUID
  2
{9B8406AC-E6DF-45F0-AE4A-E9AE62F92418}
  9
$VERSIONGUID
  2
{0D65D973-C7EA-4D4C-A03B-262C14081B33}
  9
$EXTNAMES
290
     1
  9
$PSVPSCALE
 40
0.0
  9
$OLESTARTUP
290
     0
  0
ENDSEC
  0
SECTION
  2
CLASSES
  0
CLASS
  1
ACDBDICTIONARYWDFLT
  2
AcDbDictionaryWithDefault
  3
ObjectDBX Classes
 90
        0
280
     0
281
     0
  0
CLASS
  1
MATERIAL
  2
AcDbMaterial
  3
ObjectDBX Classes
 90
     1153
280
     0
281
     0
  0
CLASS
  1
SORTENTSTABLE
  2
AcDbSortentsTable
  3
ObjectDBX Classes
 90
        0
280
     0
281
     0
  0
CLASS
  1
SCALE
  2
AcDbScale
  3
ObjectDBX Classes
 90
     1153
280
     0
281
     0
  0
CLASS
  1
DICTIONARYVAR
  2
AcDbDictionaryVar
  3
ObjectDBX Classes
 90
        0
280
     0
281
     0
  0
CLASS
  1
VISUALSTYLE
  2
AcDbVisualStyle
  3
ObjectDBX Classes
 90
     4095
280
     0
281
     0
  0
CLASS
  1
MLEADERSTYLE
  2
AcDbMLeaderStyle
  3
ACDB_MLEADERSTYLE_CLASS
 90
     4095
280
     0
281
     0
  0
CLASS
  1
TABLESTYLE
  2
AcDbTableStyle
  3
ObjectDBX Classes
 90
     4095
280
     0
281
     0
  0
CLASS
  1
ACDBPLACEHOLDER
  2
AcDbPlaceHolder
  3
ObjectDBX Classes
 90
        0
280
     0
281
     0
  0
CLASS
  1
LAYOUT
  2
AcDbLayout
  3
ObjectDBX Classes
 90
        0
280
     0
281
     0
  0
ENDSEC
  0
SECTION
  2
TABLES
  0
TABLE
  2
VPORT
  5
25
102
{ACAD_XDICTIONARY
360
5AF
102
}
330
0
100
AcDbSymbolTable
 70
     1
  0
VPORT
  5
2A
330
25
100
AcDbSymbolTableRecord
100
AcDbViewportTableRecord
  2
*Active
 70
     0
 10
0.0
 20
0.0
 11
1.0
 21
1.0
 12
1409.496844488305
 22
1033.727809483786
 13
0.0
 23
0.0
 14
1.0
 24
1.0
 15
50.0
 25
50.0
 16
0.0
 26
0.0
 36
1.0
 17
0.0
 27
0.0
 37
0.0
 40
2121.17199009593
 41
2.174107142857143
 42
50.0
 43
0.0
 44
0.0
 50
0.0
 51
0.0
 71
     0
 72
  5000
 73
     1
 74
     0
 75
     0
 76
     0
 77
     0
 78
     0
281
     0
 65
     1
110
0.0
120
0.0
130
0.0
111
1.0
121
0.0
131
0.0
112
0.0
122
1.0
132
0.0
 79
     0
146
0.0
  0
ENDTAB
  0
TABLE
  2
LTYPE
  5
B
330
0
100
AcDbSymbolTable
 70
     2
  0
LTYPE
  5
C
330
B
100
AcDbSymbolTableRecord
100
AcDbLinetypeTableRecord
  2
BYBLOCK
 70
     0
  3

 72
    65
 73
     0
 40
0.0
  0
LTYPE
  5
D
330
B
100
AcDbSymbolTableRecord
100
AcDbLinetypeTableRecord
  2
BYLAYER
 70
     0
  3

 72
    65
 73
     0
 40
0.0
  0
LTYPE
  5
A
330
B
100
AcDbSymbolTableRecord
100
AcDbLinetypeTableRecord
  2
CONTINUOUS
 70
     0
  3
Solid line
 72
    65
 73
     0
 40
0.0
  0
LTYPE
  5
52
330
B
100
AcDbSymbolTableRecord
100
AcDbLinetypeTableRecord
  2
CENTER
 70
     0
  3
____ _ ____ _ ____ _ ____ _ ____ _ ____ _ ____
 72
    65
 73
     4
 40
2.0
 49
1.25
 74
     0
 49
-0.25
 74
     0
 49
0.25
 74
     0
 49
-0.25
 74
     0
  0
ENDTAB
  0
TABLE
  2
LAYER
  5
2
330
0
100
AcDbSymbolTable
 70
     8
  0
LAYER
  5
1B
330
2
100
AcDbSymbolTableRecord
100
AcDbLayerTableRecord
  2
0
 70
     0
 62
     7
  6
CONTINUOUS
370
    -3
390
3
  0
LAYER
  5
B5
330
2
100
AcDbSymbolTableRecord
100
AcDbLayerTableRecord
  2
1
 70
     0
 62
     9
  6
CONTINUOUS
370
    -3
390
3
  0
LAYER
  5
1
330
2
100
AcDbSymbolTableRecord
100
AcDbLayerTableRecord
  2
2
 70
     0
 62
     4
  6
CONTINUOUS
370
    -3
390
3
  0
LAYER
  5
B2
330
2
100
AcDbSymbolTableRecord
100
AcDbLayerTableRecord
  2
4
 70
     0
 62
     3
  6
CONTINUOUS
370
    -3
390
3
  0
LAYER
  5
51
330
2
100
AcDbSymbolTableRecord
100
AcDbLayerTableRecord
  2
L-CENTER
 70
     0
 62
     1
  6
CENTER
370
    -3
390
3
  0
LAYER
  5
57
330
2
100
AcDbSymbolTableRecord
100
AcDbLayerTableRecord
  2
3
 70
     0
 62
     2
  6
CONTINUOUS
370
    -3
390
3
  0
LAYER
  5
AD
330
2
100
AcDbSymbolTableRecord
100
AcDbLayerTableRecord
  2
5
 70
     0
 62
     6
  6
CONTINUOUS
370
    -3
390
3
  0
LAYER
  5
573
330
2
100
AcDbSymbolTableRecord
100
AcDbLayerTableRecord
  2
Defpoints
 70
     0
 62
     7
  6
CONTINUOUS
290
     0
370
    -3
390
3
  0
ENDTAB
  0
TABLE
  2
STYLE
  5
F
330
0
100
AcDbSymbolTable
 70
     2
  0
STYLE
  5
13
330
F
100
AcDbSymbolTableRecord
100
AcDbTextStyleTableRecord
  2
STANDARD
 70
     0
 40
0.0
 41
1.0
 50
0.0
 71
     0
 42
12.6
  3
TXT
  4

  0
STYLE
  5
E
330
F
100
AcDbSymbolTableRecord
100
AcDbTextStyleTableRecord
  2
KANJI
 70
     0
 40
0.0
 41
1.0
 50
0.0
 71
     0
 42
21.0
  3
TXT
  4
BIGFONT
  0
ENDTAB
  0
TABLE
  2
VIEW
  5
23
330
0
100
AcDbSymbolTable
 70
     0
  0
ENDTAB
  0
TABLE
  2
UCS
  5
24
330
0
100
AcDbSymbolTable
 70
     0
  0
ENDTAB
  0
TABLE
  2
APPID
  5
9
330
0
100
AcDbSymbolTable
 70
     3
  0
APPID
  5
8
330
9
100
AcDbSymbolTableRecord
100
AcDbRegAppTableRecord
  2
ACAD
 70
     0
  0
APPID
  5
55D
330
9
100
AcDbSymbolTableRecord
100
AcDbRegAppTableRecord
  2
ACAD_PSEXT
 70
     0
  0
APPID
  5
5A4
330
9
100
AcDbSymbolTableRecord
100
AcDbRegAppTableRecord
  2
ACAD_MLEADERVER
 70
     0
  0
ENDTAB
  0
TABLE
  2
DIMSTYLE
  5
12
330
0
100
AcDbSymbolTable
 70
     1
100
AcDbDimStyleTable
  0
DIMSTYLE
105
11
330
12
100
AcDbSymbolTableRecord
100
AcDbDimStyleTableRecord
  2
STANDARD
 70
     0
178
     0
340
13
  0
ENDTAB
  0
TABLE
  2
BLOCK_RECORD
  5
16
330
0
100
AcDbSymbolTable
 70
     0
  0
BLOCK_RECORD
  5
17
102
{ACAD_XDICTIONARY
360
18
102
}
330
16
100
AcDbSymbolTableRecord
100
AcDbBlockTableRecord
  2
*MODEL_SPACE
340
1D
  0
BLOCK_RECORD
  5
1F
330
16
100
AcDbSymbolTableRecord
100
AcDbBlockTableRecord
  2
*PAPER_SPACE
340
22
  0
ENDTAB
  0
ENDSEC
  0
SECTION
  2
BLOCKS
  0
BLOCK
  5
1A
330
17
100
AcDbEntity
  8
0
100
AcDbBlockBegin
  2
*MODEL_SPACE
 70
     0
 10
0.0
 20
0.0
 30
0.0
  3
*MODEL_SPACE
  1

  0
ENDBLK
  5
1C
330
17
100
AcDbEntity
  8
0
100
AcDbBlockEnd
  0
BLOCK
  5
20
330
1F
100
AcDbEntity
 67
     1
  8
0
100
AcDbBlockBegin
  2
*PAPER_SPACE
 70
     0
 10
0.0
 20
0.0
 30
0.0
  3
*PAPER_SPACE
  1

  0
ENDBLK
  5
21
330
1F
100
AcDbEntity
 67
     1
  8
0
100
AcDbBlockEnd
  0
ENDSEC
  0
SECTION
  2
ENTITIES
  0
ARC
  5
180
330
17
100
AcDbEntity
  8
4
100
AcDbCircle
 10
1956.498349190369
 20
620.9170939005414
 30
0.0
 40
0.999984
100
AcDbArc
 50
0.0
 51
74.92889900002666
  0
LINE
  5
188
330
17
100
AcDbEntity
  8
4
100
AcDbLine
 10
1789.370029190369
 20
836.6834479005415
 30
0.0
 11
1789.998445190368
 21
818.6834479005415
 31
0.0
  0
LINE
  5
189
330
17
100
AcDbEntity
  8
4
100
AcDbLine
 10
1792.498447190369
 20
818.6834479005415
 30
0.0
 11
1792.498447190369
 21
813.1834459005413
 31
0.0
  0
LINE
  5
18A
330
17
100
AcDbEntity
  8
4
100
AcDbLine
 10
1777.498447190369
 20
836.6834479005415
 30
0.0
 11
1789.370029190369
 21
836.6834479005415
 31
0.0
  0
LINE
  5
18B
330
17
100
AcDbEntity
  8
4
100
AcDbLine
 10
1777.498447190369
 20
837.7688959005413
 30
0.0
 11
1789.370029190369
 21
836.6834479005415
 31
0.0
  0
LINE
  5
18C
330
17
100
AcDbEntity
  8
4
100
AcDbLine
 10
1777.498447190369
 20
825.0257359005416
 30
0.0
 11
1777.498447190369
 21
898.6834459005413
 31
0.0
  0
LINE
  5
18D
330
17
100
AcDbEntity
  8
4
100
AcDbLine
 10
1745.627107190368
 20
836.6834479005415
 30
0.0
 11
1744.998445190368
 21
818.6834479005415
 31
0.0
  0
LINE
  5
18E
330
17
100
AcDbEntity
  8
4
100
AcDbLine
 10
1742.498449190369
 20
818.6834479005415
 30
0.0
 11
1742.498449190369
 21
813.1834459005413
 31
0.0
  0
LINE
  5
18F
330
17
100
AcDbEntity
  8
4
100
AcDbLine
 10
1757.498689190369
 20
836.6834479005415
 30
0.0
 11
1745.627107190368
 21
836.6834479005415
 31
0.0
  0
LINE
  5
190
330
17
100
AcDbEntity
  8
4
100
AcDbLine
 10
1757.498449190369
 20
837.7688959005413
 30
0.0
 11
1745.627107190368
 21
836.6834479005415
 31
0.0
  0
LINE
  5
191
330
17
100
AcDbEntity
  8
4
100
AcDbLine
 10
1757.498449190369
 20
824.8367659005416
 30
0.0
 11
1757.498449190369
 21
898.6834459005413
 31
0.0
  0
LINE
  5
192
330
17
100
AcDbEntity
  8
4
100
AcDbLine
 10
1792.498447190369
 20
818.6834479005415
 30
0.0
 11
1742.498449190369
 21
818.6834479005415
 31
0.0
  0
LINE
  5
193
330
17
100
AcDbEntity
  8
4
100
AcDbLine
 10
1744.998445190368
 20
818.6834479005415
 30
0.0
 11
1789.998445190368
 21
818.6834479005415
 31
0.0
  0
ARC
  5
194
330
17
100
AcDbEntity
  8
4
100
AcDbCircle
 10
1767.498445190368
 20
898.6834459005413
 30
0.0
 40
10.000002
100
AcDbArc
 50
0.0
 51
180.0
  0
LINE
  5
195
330
17
100
AcDbEntity
  8
L-CENTER
 48
2.0
100
AcDbLine
 10
1793.324617190369
 20
863.6834479005415
 30
0.0
 11
1741.672273190369
 21
863.6834479005415
 31
0.0
  0
ARC
  5
197
330
17
100
AcDbEntity
  8
4
100
AcDbCircle
 10
1920.622968315089
 20
763.0987661904596
 30
0.0
 40
3.875378875279244
100
AcDbArc
 50
314.9559267627452
 51
45.04407323725481
  0
ARC
  5
198
330
17
100
AcDbEntity
  8
4
100
AcDbCircle
 10
1912.498351190369
 20
806.1834499005417
 30
0.0
 40
1.000002
100
AcDbArc
 50
0.0
 51
90.0
  0
LINE
  5
199
330
17
100
AcDbEntity
  8
4
100
AcDbLine
 10
1923.361166279742
 20
760.356352411809
 30
0.0
 11
1916.498347190368
 21
760.356352411809
 31
0.0
  0
LINE
  5
19A
330
17
100
AcDbEntity
  8
4
100
AcDbLine
 10
1923.361166279742
 20
765.8411799691103
 30
0.0
 11
1913.498347190368
 21
765.8411799691103
 31
0.0
  0
ARC
  5
19B
330
17
100
AcDbEntity
  8
4
100
AcDbCircle
 10
1920.622968315089
 20
746.6442835185553
 30
0.0
 40
3.875378875279264
100
AcDbArc
 50
314.9559267627452
 51
45.04407323725481
  0
LINE
  5
19C
330
17
100
AcDbEntity
  8
4
100
AcDbLine
 10
1923.361166279742
 20
749.386697297206
 30
0.0
 11
1916.498347190368
 21
749.386697297206
 31
0.0
  0
LINE
  5
19D
330
17
100
AcDbEntity
  8
4
100
AcDbLine
 10
1913.498347190368
 20
743.9018697399047
 30
0.0
 11
1923.361166279742
 21
743.9018697399047
 31
0.0
  0
LINE
  5
19E
330
17
100
AcDbEntity
  8
4
100
AcDbLine
 10
1913.498347190368
 20
765.8411799691103
 30
0.0
 11
1913.498347190368
 21
743.9018697399047
 31
0.0
  0
LINE
  5
19F
330
17
100
AcDbEntity
  8
4
100
AcDbLine
 10
1916.498347190368
 20
765.8411799691103
 30
0.0
 11
1916.498347190368
 21
743.9018697399047
 31
0.0
  0
LINE
  5
1A0
330
17
100
AcDbEntity
  8
4
100
AcDbLine
 10
1924.498347190368
 20
746.6442835185553
 30
0.0
 11
1924.498347190368
 21
763.0987661904596
 31
0.0
  0
ARC
  5
1A1
330
17
100
AcDbEntity
  8
4
100
AcDbCircle
 10
1910.70260305519
 20
754.8715248545072
 30
0.0
 40
13.7957441351769
100
AcDbArc
 50
336.5734024913729
 51
23.42659750862713
  0
LINE
  5
1A2
330
17
100
AcDbEntity
  8
4
100
AcDbLine
 10
1886.498449190368
 20
807.1834459005413
 30
0.0
 11
1883.498449190368
 21
807.1834459005413
 31
0.0
  0
LINE
  5
1A3
330
17
100
AcDbEntity
  8
4
100
AcDbLine
 10
1886.498449190368
 20
807.1834459005413
 30
0.0
 11
1912.498351190369
 21
807.1834459005413
 31
0.0
  0
LINE
  5
1A4
330
17
100
AcDbEntity
  8
L-CENTER
 48
2.0
100
AcDbLine
 10
1928.099187070472
 20
754.8715248545072
 30
0.0
 11
1873.821733432426
 21
754.8715248545072
 31
0.0
  0
LINE
  5
1A5
330
17
100
AcDbEntity
  8
4
100
AcDbLine
 10
1917.749277564299
 20
743.9018697399047
 30
0.0
 11
1931.498347190368
 21
628.6834459005413
 31
0.0
  0
LINE
  5
1A6
330
17
100
AcDbEntity
  8
4
100
AcDbLine
 10
1915.7319213166
 20
743.9018697399047
 30
0.0
 11
1929.516415190369
 21
628.4166019005415
 31
0.0
  0
ARC
  5
1A7
330
17
100
AcDbEntity
  8
4
100
AcDbCircle
 10
1739.498449190369
 20
813.1834459005413
 30
0.0
 40
3.0
100
AcDbArc
 50
270.0
 51
0.0
  0
ARC
  5
1A8
330
17
100
AcDbEntity
  8
4
100
AcDbCircle
 10
1795.498447190369
 20
813.1834459005413
 30
0.0
 40
3.0
100
AcDbArc
 50
180.0
 51
270.0
  0
LINE
  5
1A9
330
17
100
AcDbEntity
  8
4
100
AcDbLine
 10
1956.758359190369
 20
621.8826679005415
 30
0.0
 11
1929.404599190368
 21
629.2471699005416
 31
0.0
  0
ARC
  5
1B0
330
17
100
AcDbEntity
  8
4
100
AcDbCircle
 10
1624.498447190369
 20
806.1834499005417
 30
0.0
 40
1.000002
100
AcDbArc
 50
90.0
 51
180.0
  0
LINE
  5
1B1
330
17
100
AcDbEntity
  8
4
100
AcDbLine
 10
1651.498447190369
 20
807.1834459005413
 30
0.0
 11
1624.498447190369
 21
807.1834459005413
 31
0.0
  0
LINE
  5
1B2
330
17
100
AcDbEntity
  8
4
100
AcDbLine
 10
1603.498447190369
 20
628.6834459005413
 30
0.0
 11
1623.498445190368
 21
777.1834459005413
 31
0.0
  0
LINE
  5
1B3
330
17
100
AcDbEntity
  8
4
100
AcDbLine
 10
1623.498445190368
 20
762.2007799005414
 30
0.0
 11
1605.480379190368
 21
628.4166019005415
 31
0.0
  0
ARC
  5
1B4
330
17
100
AcDbEntity
  8
4
100
AcDbCircle
 10
1578.498445190368
 20
620.9170939005414
 30
0.0
 40
0.999984
100
AcDbArc
 50
105.0711009999734
 51
180.0
  0
LINE
  5
1B5
330
17
100
AcDbEntity
  8
4
100
AcDbLine
 10
1578.238435190368
 20
621.8826679005415
 30
0.0
 11
1605.592195190368
 21
629.2471699005416
 31
0.0
  0
LINE
  5
1BC
330
17
100
AcDbEntity
  8
4
100
AcDbLine
 10
1883.498449190368
 20
810.1834459005413
 30
0.0
 11
1651.498447190369
 21
810.1834459005413
 31
0.0
  0
LINE
  5
1C2
330
17
100
AcDbEntity
  8
4
100
AcDbLine
 10
2127.498445190368
 20
558.1834459005415
 30
0.0
 11
2125.498447190369
 21
560.1834499005415
 31
0.0
  0
LINE
  5
1C3
330
17
100
AcDbEntity
  8
4
100
AcDbLine
 10
2125.498447190369
 20
467.1834499005415
 30
0.0
 11
2127.498445190368
 21
469.1834479005415
 31
0.0
  0
LINE
  5
1C4
330
17
100
AcDbEntity
  8
4
100
AcDbLine
 10
2125.498447190369
 20
560.1834499005415
 30
0.0
 11
2125.498447190369
 21
467.1834499005415
 31
0.0
  0
LINE
  5
1C5
330
17
100
AcDbEntity
  8
4
100
AcDbLine
 10
2127.498445190368
 20
568.1834479005415
 30
0.0
 11
2127.498445190368
 21
469.1834479005415
 31
0.0
  0
LINE
  5
1C6
330
17
100
AcDbEntity
  8
4
100
AcDbLine
 10
1957.498351190369
 20
573.6834499005415
 30
0.0
 11
1958.498347190368
 21
573.6834499005415
 31
0.0
  0
LINE
  5
1C7
330
17
100
AcDbEntity
  8
4
100
AcDbLine
 10
1967.498449190368
 20
561.1834459005415
 30
0.0
 11
1958.498347190368
 21
561.1834459005415
 31
0.0
  0
LINE
  5
1C8
330
17
100
AcDbEntity
  8
4
100
AcDbLine
 10
1977.498445190368
 20
568.1834479005415
 30
0.0
 11
1977.498445190368
 21
560.1834499005415
 31
0.0
  0
LINE
  5
1C9
330
17
100
AcDbEntity
  8
4
100
AcDbLine
 10
1957.498351190369
 20
453.6834499005415
 30
0.0
 11
1958.498347190368
 21
453.6834499005415
 31
0.0
  0
LINE
  5
1CA
330
17
100
AcDbEntity
  8
4
100
AcDbLine
 10
1958.498347190368
 20
466.1834479005415
 30
0.0
 11
1967.498449190368
 21
466.1834479005415
 31
0.0
  0
ARC
  5
1CB
330
17
100
AcDbEntity
  8
4
100
AcDbCircle
 10
1956.498349190369
 20
406.4498059005416
 30
0.0
 40
0.999984
100
AcDbArc
 50
285.0711009999733
 51
0.0
  0
LINE
  5
1CC
330
17
100
AcDbEntity
  8
4
100
AcDbLine
 10
1958.498347190368
 20
453.6834499005415
 30
0.0
 11
1958.498347190368
 21
573.6834499005415
 31
0.0
  0
LINE
  5
1CD
330
17
100
AcDbEntity
  8
4
100
AcDbLine
 10
1967.498449190368
 20
561.1834459005415
 30
0.0
 11
1967.498449190368
 21
466.1834479005415
 31
0.0
  0
LINE
  5
1CE
330
17
100
AcDbEntity
  8
4
100
AcDbLine
 10
1967.498449190368
 20
467.1834499005415
 30
0.0
 11
2125.498447190369
 21
467.1834499005415
 31
0.0
  0
LINE
  5
1CF
330
17
100
AcDbEntity
  8
4
100
AcDbLine
 10
1967.498449190368
 20
560.1834499005415
 30
0.0
 11
2125.498447190369
 21
560.1834499005415
 31
0.0
  0
LINE
  5
1D0
330
17
100
AcDbEntity
  8
4
100
AcDbLine
 10
2127.498445190368
 20
568.1834479005415
 30
0.0
 11
1977.498445190368
 21
568.1834479005415
 31
0.0
  0
ARC
  5
1D1
330
17
100
AcDbEntity
  8
4
100
AcDbCircle
 10
1920.622968315089
 20
521.9106912364939
 30
0.0
 40
3.875378875279244
100
AcDbArc
 50
314.9559267627452
 51
45.04407323725481
  0
LINE
  5
1D2
330
17
100
AcDbEntity
  8
4
100
AcDbLine
 10
1924.498347190368
 20
505.4562085645896
 30
0.0
 11
1924.498347190368
 21
521.9106912364939
 31
0.0
  0
ARC
  5
1D3
330
17
100
AcDbEntity
  8
4
100
AcDbCircle
 10
1920.622968315089
 20
505.4562085645896
 30
0.0
 40
3.875378875279264
100
AcDbArc
 50
314.9559267627452
 51
45.04407323725481
  0
ARC
  5
1D4
330
17
100
AcDbEntity
  8
4
100
AcDbCircle
 10
1910.70260305519
 20
513.6834499005415
 30
0.0
 40
13.7957441351769
100
AcDbArc
 50
336.5734024913729
 51
23.42659750862626
  0
LINE
  5
1D5
330
17
100
AcDbEntity
  8
4
100
AcDbLine
 10
1913.498347190368
 20
524.6531050151445
 30
0.0
 11
1913.498347190368
 21
502.7137947859389
 31
0.0
  0
LINE
  5
1D6
330
17
100
AcDbEntity
  8
4
100
AcDbLine
 10
1916.498347190368
 20
524.6531050151445
 30
0.0
 11
1916.498347190368
 21
502.7137947859389
 31
0.0
  0
LINE
  5
1D7
330
17
100
AcDbEntity
  8
4
100
AcDbLine
 10
1923.361166279742
 20
508.1986223432402
 30
0.0
 11
1916.498347190368
 21
508.1986223432402
 31
0.0
  0
LINE
  5
1D8
330
17
100
AcDbEntity
  8
4
100
AcDbLine
 10
1913.498347190368
 20
502.7137947859389
 30
0.0
 11
1923.361166279742
 21
502.7137947859389
 31
0.0
  0
LINE
  5
1D9
330
17
100
AcDbEntity
  8
4
100
AcDbLine
 10
1923.361166279742
 20
519.1682774578433
 30
0.0
 11
1916.498347190368
 21
519.1682774578433
 31
0.0
  0
LINE
  5
1DA
330
17
100
AcDbEntity
  8
4
100
AcDbLine
 10
1923.361166279742
 20
524.6531050151445
 30
0.0
 11
1913.498347190368
 21
524.6531050151445
 31
0.0
  0
ARC
  5
1DB
330
17
100
AcDbEntity
  8
4
100
AcDbCircle
 10
1910.702603055199
 20
272.4953749465778
 30
0.0
 40
13.7957441351769
100
AcDbArc
 50
336.573402491375
 51
23.42659750863178
  0
LINE
  5
1DC
330
17
100
AcDbEntity
  8
4
100
AcDbLine
 10
1924.498347190377
 20
280.7226162825302
 30
0.0
 11
1924.498347190377
 21
264.2681336106259
 31
0.0
  0
ARC
  5
1DD
330
17
100
AcDbEntity
  8
4
100
AcDbCircle
 10
1920.622968315097
 20
280.7226162825302
 30
0.0
 40
3.875378875279264
100
AcDbArc
 50
314.955926762744
 51
45.04407323725719
  0
ARC
  5
1DE
330
17
100
AcDbEntity
  8
4
100
AcDbCircle
 10
1920.622968315098
 20
264.2681336106259
 30
0.0
 40
3.875378875279244
100
AcDbArc
 50
314.955926762744
 51
45.04407323725719
  0
LINE
  5
1DF
330
17
100
AcDbEntity
  8
4
100
AcDbLine
 10
1916.498347190377
 20
261.525719831975
 30
0.0
 11
1916.498347190377
 21
283.4650300611806
 31
0.0
  0
LINE
  5
1E0
330
17
100
AcDbEntity
  8
4
100
AcDbLine
 10
1913.498347190377
 20
261.525719831975
 30
0.0
 11
1913.498347190377
 21
283.4650300611806
 31
0.0
  0
LINE
  5
1E1
330
17
100
AcDbEntity
  8
4
100
AcDbLine
 10
1913.498347190377
 20
283.4650300611806
 30
0.0
 11
1923.361166279749
 21
283.4650300611809
 31
0.0
  0
LINE
  5
1E2
330
17
100
AcDbEntity
  8
4
100
AcDbLine
 10
1923.361166279749
 20
277.9802025038796
 30
0.0
 11
1916.498347190377
 21
277.9802025038794
 31
0.0
  0
LINE
  5
1E3
330
17
100
AcDbEntity
  8
4
100
AcDbLine
 10
1923.361166279751
 20
261.5257198319753
 30
0.0
 11
1913.498347190377
 21
261.525719831975
 31
0.0
  0
LINE
  5
1E4
330
17
100
AcDbEntity
  8
4
100
AcDbLine
 10
1923.36116627975
 20
267.0105473892766
 30
0.0
 11
1916.498347190377
 21
267.0105473892763
 31
0.0
  0
LINE
  5
1E5
330
17
100
AcDbEntity
  8
L-CENTER
 48
2.0
100
AcDbLine
 10
1928.099187070481
 20
272.4953749465785
 30
0.0
 11
1873.821733432435
 21
272.4953749465765
 31
0.0
  0
ARC
  5
1E6
330
17
100
AcDbEntity
  8
4
100
AcDbCircle
 10
1912.498351190369
 20
221.1834499005415
 30
0.0
 40
1.000002
100
AcDbArc
 50
270.0
 51
0.0
  0
LINE
  5
1E7
330
17
100
AcDbEntity
  8
4
100
AcDbLine
 10
1883.498449190368
 20
220.1834479005415
 30
0.0
 11
1886.498449190368
 21
220.1834479005415
 31
0.0
  0
LINE
  5
1E8
330
17
100
AcDbEntity
  8
4
100
AcDbLine
 10
1874.498445190368
 20
213.1986203432398
 30
0.0
 11
1874.498445190368
 21
224.1682754578428
 31
0.0
  0
LINE
  5
1E9
330
17
100
AcDbEntity
  8
4
100
AcDbLine
 10
1864.998445190368
 20
207.7137927859385
 30
0.0
 11
1874.498445190368
 21
213.1986203432398
 31
0.0
  0
LINE
  5
1EA
330
17
100
AcDbEntity
  8
4
100
AcDbLine
 10
1874.498445190368
 20
224.1682754578428
 30
0.0
 11
1864.998445190368
 21
229.6531030151441
 31
0.0
  0
LINE
  5
1EB
330
17
100
AcDbEntity
  8
4
100
AcDbLine
 10
1855.498445190368
 20
224.1682754578428
 30
0.0
 11
1855.498445190368
 21
213.1986203432398
 31
0.0
  0
LINE
  5
1EC
330
17
100
AcDbEntity
  8
4
100
AcDbLine
 10
1855.498445190368
 20
213.1986203432398
 30
0.0
 11
1864.998445190368
 21
207.7137927859385
 31
0.0
  0
LINE
  5
1ED
330
17
100
AcDbEntity
  8
4
100
AcDbLine
 10
1864.998445190368
 20
229.6531030151441
 30
0.0
 11
1855.498445190368
 21
224.1682754578428
 31
0.0
  0
CIRCLE
  5
1EE
330
17
100
AcDbEntity
  8
4
100
AcDbCircle
 10
1864.998445190368
 20
218.6834479005415
 30
0.0
 40
9.5
  0
LINE
  5
1EF
330
17
100
AcDbEntity
  8
4
100
AcDbLine
 10
1886.498449190368
 20
220.1834479005415
 30
0.0
 11
1912.498351190369
 21
220.1834479005415
 31
0.0
  0
LINE
  5
1F0
330
17
100
AcDbEntity
  8
4
100
AcDbLine
 10
1816.248170556509
 20
314.0907384434645
 30
0.0
 11
1806.748170556509
 21
308.6059108861632
 31
0.0
  0
LINE
  5
1F1
330
17
100
AcDbEntity
  8
4
100
AcDbLine
 10
1825.748170556509
 20
308.6059108861632
 30
0.0
 11
1816.248170556509
 21
314.0907384434645
 31
0.0
  0
LINE
  5
1F2
330
17
100
AcDbEntity
  8
4
100
AcDbLine
 10
1806.748170556509
 20
297.6362557715602
 30
0.0
 11
1816.248170556509
 21
292.151428214259
 31
0.0
  0
LINE
  5
1F3
330
17
100
AcDbEntity
  8
4
100
AcDbLine
 10
1816.248170556509
 20
292.151428214259
 30
0.0
 11
1825.748170556509
 21
297.6362557715602
 31
0.0
  0
LINE
  5
1F4
330
17
100
AcDbEntity
  8
4
100
AcDbLine
 10
1825.748170556509
 20
297.6362557715602
 30
0.0
 11
1825.748170556509
 21
308.6059108861632
 31
0.0
  0
LINE
  5
1F5
330
17
100
AcDbEntity
  8
4
100
AcDbLine
 10
1806.748170556509
 20
308.6059108861632
 30
0.0
 11
1806.748170556509
 21
297.6362557715602
 31
0.0
  0
CIRCLE
  5
1F6
330
17
100
AcDbEntity
  8
4
100
AcDbCircle
 10
1816.248170556509
 20
303.1210833288619
 30
0.0
 40
9.5
  0
LINE
  5
1F7
330
17
100
AcDbEntity
  8
4
100
AcDbLine
 10
1718.748181934222
 20
314.0904278925723
 30
0.0
 11
1709.248181934222
 21
308.605600335271
 31
0.0
  0
LINE
  5
1F8
330
17
100
AcDbEntity
  8
4
100
AcDbLine
 10
1728.248181934222
 20
308.605600335271
 30
0.0
 11
1718.748181934222
 21
314.0904278925723
 31
0.0
  0
LINE
  5
1F9
330
17
100
AcDbEntity
  8
4
100
AcDbLine
 10
1709.248181934222
 20
297.635945220668
 30
0.0
 11
1718.748181934222
 21
292.1511176633667
 31
0.0
  0
LINE
  5
1FA
330
17
100
AcDbEntity
  8
4
100
AcDbLine
 10
1718.748181934222
 20
292.1511176633667
 30
0.0
 11
1728.248181934222
 21
297.635945220668
 31
0.0
  0
LINE
  5
1FB
330
17
100
AcDbEntity
  8
4
100
AcDbLine
 10
1728.248181934222
 20
297.635945220668
 30
0.0
 11
1728.248181934222
 21
308.605600335271
 31
0.0
  0
LINE
  5
1FC
330
17
100
AcDbEntity
  8
4
100
AcDbLine
 10
1709.248181934222
 20
308.605600335271
 30
0.0
 11
1709.248181934222
 21
297.635945220668
 31
0.0
  0
CIRCLE
  5
1FD
330
17
100
AcDbEntity
  8
4
100
AcDbCircle
 10
1718.748181934222
 20
303.1207727779697
 30
0.0
 40
9.5
  0
LINE
  5
1FE
330
17
100
AcDbEntity
  8
4
100
AcDbLine
 10
1776.498445190368
 20
256.1834479005415
 30
0.0
 11
1758.498445190368
 21
256.1834479005415
 31
0.0
  0
LINE
  5
1FF
330
17
100
AcDbEntity
  8
4
100
AcDbLine
 10
1816.248236194003
 20
145.2155054823978
 30
0.0
 11
1806.748236194003
 21
139.7306779250965
 31
0.0
  0
LINE
  5
200
330
17
100
AcDbEntity
  8
4
100
AcDbLine
 10
1825.748236194003
 20
139.7306779250965
 30
0.0
 11
1816.248236194003
 21
145.2155054823978
 31
0.0
  0
LINE
  5
201
330
17
100
AcDbEntity
  8
4
100
AcDbLine
 10
1718.748229984217
 20
145.2157503958568
 30
0.0
 11
1709.248229984217
 21
139.7309228385556
 31
0.0
  0
LINE
  5
202
330
17
100
AcDbEntity
  8
4
100
AcDbLine
 10
1728.248229984217
 20
139.7309228385556
 30
0.0
 11
1718.748229984217
 21
145.2157503958568
 31
0.0
  0
LINE
  5
203
330
17
100
AcDbEntity
  8
4
100
AcDbLine
 10
1776.498445190368
 20
244.1834479005415
 30
0.0
 11
1758.498445190368
 21
244.1834479005415
 31
0.0
  0
ARC
  5
204
330
17
100
AcDbEntity
  8
4
100
AcDbCircle
 10
1767.498445190368
 20
218.6834479005415
 30
0.0
 40
31.50009
100
AcDbArc
 50
106.6015009999999
 51
73.3984990000001
  0
LINE
  5
205
330
17
100
AcDbEntity
  8
4
100
AcDbLine
 10
1758.498445190368
 20
256.1834479005415
 30
0.0
 11
1758.498445190368
 21
244.1834479005415
 31
0.0
  0
LINE
  5
206
330
17
100
AcDbEntity
  8
4
100
AcDbLine
 10
1776.498445190368
 20
244.1834479005415
 30
0.0
 11
1776.498445190368
 21
256.1834479005415
 31
0.0
  0
CIRCLE
  5
207
330
17
100
AcDbEntity
  8
4
100
AcDbCircle
 10
1767.498445190368
 20
218.6834479005415
 30
0.0
 40
45.0
  0
LINE
  5
208
330
17
100
AcDbEntity
  8
L-CENTER
 48
2.0
100
AcDbLine
 10
1807.020841810099
 20
287.1388462400162
 30
0.0
 11
1825.475499302917
 21
319.1033204177081
 31
0.0
  0
LINE
  5
209
330
17
100
AcDbEntity
  8
4
100
AcDbLine
 10
1917.749277647174
 20
283.4650300611808
 30
0.0
 11
1931.498347190368
 21
398.6834479005415
 31
0.0
  0
LINE
  5
20A
330
17
100
AcDbEntity
  8
4
100
AcDbLine
 10
1915.731921399327
 20
283.4650300611806
 30
0.0
 11
1929.516415190369
 21
398.9502919005415
 31
0.0
  0
LINE
  5
20B
330
17
100
AcDbEntity
  8
4
100
AcDbLine
 10
1956.758359190369
 20
405.4842319005415
 30
0.0
 11
1929.404599190368
 21
398.1197299005416
 31
0.0
  0
ARC
  5
20C
330
17
100
AcDbEntity
  8
4
100
AcDbCircle
 10
1954.498447190369
 20
100.6834459005415
 30
0.0
 40
3.0
100
AcDbArc
 50
0.0
 51
90.0
  0
LINE
  5
20D
330
17
100
AcDbEntity
  8
4
100
AcDbLine
 10
1957.498447190369
 20
100.6834459005415
 30
0.0
 11
1957.498447190369
 21
48.68344990054152
 31
0.0
  0
ARC
  5
20F
330
17
100
AcDbEntity
  8
4
100
AcDbCircle
 10
1896.998449190368
 20
118.6834459005415
 30
0.0
 40
15.0
100
AcDbArc
 50
180.0
 51
270.0
  0
LINE
  5
212
330
17
100
AcDbEntity
  8
4
100
AcDbLine
 10
1806.748236194003
 20
128.7610228104935
 30
0.0
 11
1816.248236194003
 21
123.2761952531922
 31
0.0
  0
LINE
  5
213
330
17
100
AcDbEntity
  8
4
100
AcDbLine
 10
1816.248236194003
 20
123.2761952531922
 30
0.0
 11
1825.748236194003
 21
128.7610228104935
 31
0.0
  0
LINE
  5
214
330
17
100
AcDbEntity
  8
4
100
AcDbLine
 10
1709.248229984217
 20
128.7612677239525
 30
0.0
 11
1718.748229984217
 21
123.2764401666512
 31
0.0
  0
LINE
  5
215
330
17
100
AcDbEntity
  8
4
100
AcDbLine
 10
1718.748229984217
 20
123.2764401666512
 30
0.0
 11
1728.248229984217
 21
128.7612677239525
 31
0.0
  0
LINE
  5
219
330
17
100
AcDbEntity
  8
4
100
AcDbLine
 10
1881.998449190368
 20
218.6834479005415
 30
0.0
 11
1937.498449190368
 21
103.6834459005415
 31
0.0
  0
LINE
  5
21A
330
17
100
AcDbEntity
  8
4
100
AcDbLine
 10
1881.998449190368
 20
118.6834459005415
 30
0.0
 11
1881.998449190368
 21
218.6834479005415
 31
0.0
  0
LINE
  5
21B
330
17
100
AcDbEntity
  8
L-CENTER
 48
2.0
100
AcDbLine
 10
1825.475554068132
 20
118.2636070018548
 30
0.0
 11
1807.020918319872
 21
150.2280937337357
 31
0.0
  0
LINE
  5
21C
330
17
100
AcDbEntity
  8
L-CENTER
 48
2.0
100
AcDbLine
 10
1917.498445190368
 20
123.6834459005415
 30
0.0
 11
1917.498445190368
 21
28.68344990054152
 31
0.0
  0
LINE
  5
21D
330
17
100
AcDbEntity
  8
4
100
AcDbLine
 10
1825.748236194003
 20
128.7610228104935
 30
0.0
 11
1825.748236194003
 21
139.7306779250965
 31
0.0
  0
LINE
  5
21E
330
17
100
AcDbEntity
  8
4
100
AcDbLine
 10
1806.748236194003
 20
139.7306779250965
 30
0.0
 11
1806.748236194003
 21
128.7610228104935
 31
0.0
  0
CIRCLE
  5
21F
330
17
100
AcDbEntity
  8
4
100
AcDbCircle
 10
1816.248236194003
 20
134.2458503677952
 30
0.0
 40
9.5
  0
LINE
  5
220
330
17
100
AcDbEntity
  8
4
100
AcDbLine
 10
1728.248229984217
 20
128.7612677239525
 30
0.0
 11
1728.248229984217
 21
139.7309228385556
 31
0.0
  0
LINE
  5
221
330
17
100
AcDbEntity
  8
4
100
AcDbLine
 10
1709.248229984217
 20
139.7309228385556
 30
0.0
 11
1709.248229984217
 21
128.7612677239525
 31
0.0
  0
CIRCLE
  5
222
330
17
100
AcDbEntity
  8
4
100
AcDbCircle
 10
1718.748229984217
 20
134.2460952812543
 30
0.0
 40
9.5
  0
LINE
  5
223
330
17
100
AcDbEntity
  8
4
100
AcDbLine
 10
1603.49844719037
 20
440.6834499005415
 30
0.0
 11
1623.49844519037
 21
454.1617105943037
 31
0.0
  0
ARC
  5
224
330
17
100
AcDbEntity
  8
4
100
AcDbCircle
 10
1578.498445190368
 20
406.4498059005416
 30
0.0
 40
0.999984
100
AcDbArc
 50
180.0
 51
254.9288990000266
  0
LINE
  5
225
330
17
100
AcDbEntity
  8
4
100
AcDbLine
 10
1578.238435190368
 20
405.4842319005415
 30
0.0
 11
1605.592195190368
 21
398.1197299005416
 31
0.0
  0
LINE
  5
226
330
17
100
AcDbEntity
  8
4
100
AcDbLine
 10
1679.498445190368
 20
213.1986203432398
 30
0.0
 11
1679.498445190368
 21
224.1682754578428
 31
0.0
  0
LINE
  5
227
330
17
100
AcDbEntity
  8
4
100
AcDbLine
 10
1653.008215190369
 20
217.1834479005415
 30
0.0
 11
1651.498447190369
 21
217.1834479005415
 31
0.0
  0
LINE
  5
228
330
17
100
AcDbEntity
  8
4
100
AcDbLine
 10
1660.498445190368
 20
213.1986203432398
 30
0.0
 11
1669.998445190368
 21
207.7137927859385
 31
0.0
  0
LINE
  5
229
330
17
100
AcDbEntity
  8
4
100
AcDbLine
 10
1660.498445190368
 20
224.1682754578428
 30
0.0
 11
1660.498445190368
 21
213.1986203432398
 31
0.0
  0
LINE
  5
22A
330
17
100
AcDbEntity
  8
4
100
AcDbLine
 10
1669.998445190368
 20
229.6531030151441
 30
0.0
 11
1660.498445190368
 21
224.1682754578428
 31
0.0
  0
LINE
  5
22B
330
17
100
AcDbEntity
  8
4
100
AcDbLine
 10
1669.998445190368
 20
207.7137927859385
 30
0.0
 11
1679.498445190368
 21
213.1986203432398
 31
0.0
  0
CIRCLE
  5
22C
330
17
100
AcDbEntity
  8
4
100
AcDbCircle
 10
1669.998445190368
 20
218.6834479005415
 30
0.0
 40
9.5
  0
LINE
  5
22D
330
17
100
AcDbEntity
  8
4
100
AcDbLine
 10
1679.498445190368
 20
224.1682754578428
 30
0.0
 11
1669.998445190368
 21
229.6531030151441
 31
0.0
  0
ARC
  5
22E
330
17
100
AcDbEntity
  8
4
100
AcDbCircle
 10
1624.498447190369
 20
221.1834499005415
 30
0.0
 40
1.000002
100
AcDbArc
 50
180.0
 51
270.0
  0
LINE
  5
22F
330
17
100
AcDbEntity
  8
4
100
AcDbLine
 10
1651.498447190369
 20
220.1834479005415
 30
0.0
 11
1624.498447190369
 21
220.1834479005415
 31
0.0
  0
LINE
  5
230
330
17
100
AcDbEntity
  8
4
100
AcDbLine
 10
1603.498447190369
 20
398.6834479005415
 30
0.0
 11
1623.498445190368
 21
250.1834479005415
 31
0.0
  0
LINE
  5
231
330
17
100
AcDbEntity
  8
4
100
AcDbLine
 10
1623.498445190368
 20
265.1661139005414
 30
0.0
 11
1605.480379190368
 21
398.9502919005415
 31
0.0
  0
LINE
  5
240
330
17
100
AcDbEntity
  8
L-CENTER
 48
2.0
100
AcDbLine
 10
1617.498445190368
 20
123.6834459005415
 30
0.0
 11
1617.498445190368
 21
28.68344990054152
 31
0.0
  0
ARC
  5
241
330
17
100
AcDbEntity
  8
4
100
AcDbCircle
 10
1637.998447190369
 20
118.6834459005415
 30
0.0
 40
15.0
100
AcDbArc
 50
270.0
 51
0.0
  0
ARC
  5
244
330
17
100
AcDbEntity
  8
4
100
AcDbCircle
 10
1580.498449190369
 20
100.6834459005415
 30
0.0
 40
3.0
100
AcDbArc
 50
90.0
 51
180.0
  0
LINE
  5
245
330
17
100
AcDbEntity
  8
4
100
AcDbLine
 10
1577.498449190369
 20
100.6834459005415
 30
0.0
 11
1577.498449190369
 21
48.68344990054152
 31
0.0
  0
LINE
  5
24E
330
17
100
AcDbEntity
  8
4
100
AcDbLine
 10
1597.498447190369
 20
103.6834459005415
 30
0.0
 11
1652.998447190369
 21
218.6834479005415
 31
0.0
  0
LINE
  5
24F
330
17
100
AcDbEntity
  8
4
100
AcDbLine
 10
1652.998447190369
 20
118.6834459005415
 30
0.0
 11
1652.998447190369
 21
218.6834479005415
 31
0.0
  0
CIRCLE
  5
253
330
17
100
AcDbEntity
  8
4
100
AcDbCircle
 10
1767.498445190368
 20
218.6834479005415
 30
0.0
 40
114.499998
  0
CIRCLE
  5
254
330
17
100
AcDbEntity
  8
L-CENTER
 48
2.0
100
AcDbCircle
 10
1767.498445190368
 20
218.6834479005415
 30
0.0
 40
97.5
  0
LINE
  5
255
330
17
100
AcDbEntity
  8
4
100
AcDbLine
 10
1957.498447190369
 20
48.68344990054152
 30
0.0
 11
1577.498449190369
 21
48.68344990054152
 31
0.0
  0
LINE
  5
256
330
17
100
AcDbEntity
  8
4
100
AcDbLine
 10
1954.498447190369
 20
103.6834459005415
 30
0.0
 11
1580.498449190369
 21
103.6834459005415
 31
0.0
  0
LINE
  5
257
330
17
100
AcDbEntity
  8
L-CENTER
 48
2.0
100
AcDbLine
 10
1727.975571859832
 20
150.2283247899591
 30
0.0
 11
1709.520888108601
 21
118.2638657725497
 31
0.0
  0
LINE
  5
25A
330
17
100
AcDbEntity
  8
L-CENTER
 48
2.0
100
AcDbLine
 10
2137.871431190369
 20
513.6834499005415
 30
0.0
 11
1562.144228134205
 21
513.6834499005415
 31
0.0
  0
LINE
  5
25B
330
17
100
AcDbEntity
  8
L-CENTER
 48
2.0
100
AcDbLine
 10
1709.520866678074
 20
319.1030176553977
 30
0.0
 11
1727.975497190368
 21
287.1385279005417
 31
0.0
  0
LINE
  5
25C
330
17
100
AcDbEntity
  8
L-CENTER
 48
2.0
100
AcDbLine
 10
1895.631027795522
 20
218.6834479005415
 30
0.0
 11
1639.365862585214
 21
218.6834479005415
 31
0.0
  0
CIRCLE
  5
25D
330
17
100
AcDbEntity
  8
4
100
AcDbCircle
 10
1767.498445190368
 20
218.6834479005415
 30
0.0
 40
72.0
  0
LINE
  5
25F
330
17
100
AcDbEntity
  8
L-CENTER
 48
2.0
100
AcDbLine
 10
1767.498445190368
 20
924.2902720765021
 30
0.0
 11
1767.498445190368
 21
26.66515390054155
 31
0.0
  0
LINE
  5
262
330
17
100
AcDbEntity
  8
4
100
AcDbLine
 10
1577.498449190369
 20
406.4498059005416
 30
0.0
 11
1577.498449190369
 21
620.9170939005414
 31
0.0
  0
LINE
  5
263
330
17
100
AcDbEntity
  8
4
100
AcDbLine
 10
1603.498447190369
 20
628.6834459005413
 30
0.0
 11
1603.498447190369
 21
398.6834479005415
 31
0.0
  0
LINE
  5
264
330
17
100
AcDbEntity
  8
4
100
AcDbLine
 10
1623.498445190368
 20
806.1834499005417
 30
0.0
 11
1623.498445190368
 21
221.1834499005415
 31
0.0
  0
LINE
  5
265
330
17
100
AcDbEntity
  8
4
100
AcDbLine
 10
1651.498447190369
 20
217.1834479005415
 30
0.0
 11
1651.498447190369
 21
810.1834459005413
 31
0.0
  0
LINE
  5
266
330
17
100
AcDbEntity
  8
4
100
AcDbLine
 10
1957.498351190369
 20
620.9170939005414
 30
0.0
 11
1957.498351190369
 21
406.4498059005416
 31
0.0
  0
LINE
  5
267
330
17
100
AcDbEntity
  8
4
100
AcDbLine
 10
1931.498347190368
 20
398.6834479005415
 30
0.0
 11
1931.498347190368
 21
628.6834459005413
 31
0.0
  0
LINE
  5
268
330
17
100
AcDbEntity
  8
4
100
AcDbLine
 10
1886.498449190368
 20
220.1834479005415
 30
0.0
 11
1886.498449190368
 21
807.1834459005413
 31
0.0
  0
LINE
  5
269
330
17
100
AcDbEntity
  8
4
100
AcDbLine
 10
1883.498449190368
 20
215.1700219005415
 30
0.0
 11
1883.498449190368
 21
810.1834459005413
 31
0.0
  0
LINE
  5
26A
330
17
100
AcDbEntity
  8
4
100
AcDbLine
 10
1913.498347190368
 20
806.1834499005417
 30
0.0
 11
1913.498347190368
 21
221.1834499005415
 31
0.0
  0
LINE
  5
26D
330
17
100
AcDbEntity
  8
4
100
AcDbLine
 10
1603.498447190369
 20
586.6834499005415
 30
0.0
 11
1623.498445190368
 21
573.2051892067796
 31
0.0
  0
LINE
  5
26E
330
17
100
AcDbEntity
  8
4
100
AcDbLine
 10
1006.468813913678
 20
1629.433295598586
 30
0.0
 11
1006.468813913679
 21
1632.433295598586
 31
0.0
  0
LINE
  5
26F
330
17
100
AcDbEntity
  8
4
100
AcDbLine
 10
1024.268813913679
 20
1627.933295598586
 30
0.0
 11
1009.468813913679
 21
1627.933295598586
 31
0.0
  0
ARC
  5
270
330
17
100
AcDbEntity
  8
4
100
AcDbCircle
 10
1024.268813913679
 20
1626.933295598586
 30
0.0
 40
1.0
100
AcDbArc
 50
0.0
 51
90.0
  0
LINE
  5
271
330
17
100
AcDbEntity
  8
4
100
AcDbLine
 10
1008.468813913679
 20
1632.733295598586
 30
0.0
 11
1008.468813913679
 21
1658.733295598586
 31
0.0
  0
ARC
  5
272
330
17
100
AcDbEntity
  8
4
100
AcDbCircle
 10
1007.468813913678
 20
1658.733295598586
 30
0.0
 40
1.0
100
AcDbArc
 50
0.0
 51
90.0
  0
ARC
  5
273
330
17
100
AcDbEntity
  8
4
100
AcDbCircle
 10
1032.3934350384
 20
1619.160536934539
 30
0.0
 40
3.875378875279244
100
AcDbArc
 50
314.9559267627452
 51
45.04407323725481
  0
ARC
  5
274
330
17
100
AcDbEntity
  8
4
100
AcDbCircle
 10
1022.473069778501
 20
1610.933295598586
 30
0.0
 40
13.7957441351769
100
AcDbArc
 50
336.5734024913729
 51
23.42659750862713
  0
LINE
  5
275
330
17
100
AcDbEntity
  8
4
100
AcDbLine
 10
1036.268813913679
 20
1602.706054262634
 30
0.0
 11
1036.268813913679
 21
1619.160536934539
 31
0.0
  0
ARC
  5
276
330
17
100
AcDbEntity
  8
4
100
AcDbCircle
 10
1032.3934350384
 20
1602.706054262634
 30
0.0
 40
3.875378875279264
100
AcDbArc
 50
314.9559267627452
 51
45.04407323725481
  0
LINE
  5
277
330
17
100
AcDbEntity
  8
4
100
AcDbLine
 10
1028.268813913679
 20
1621.902950713189
 30
0.0
 11
1028.268813913679
 21
1599.963640483984
 31
0.0
  0
LINE
  5
278
330
17
100
AcDbEntity
  8
4
100
AcDbLine
 10
1025.268813913679
 20
1621.902950713189
 30
0.0
 11
1025.268813913679
 21
1599.963640483984
 31
0.0
  0
LINE
  5
279
330
17
100
AcDbEntity
  8
4
100
AcDbLine
 10
1035.131633003053
 20
1573.153213969337
 30
0.0
 11
1025.268813913679
 21
1573.153213969337
 31
0.0
  0
LINE
  5
27A
330
17
100
AcDbEntity
  8
4
100
AcDbLine
 10
1025.268813913679
 20
1599.963640483984
 30
0.0
 11
1035.131633003053
 21
1599.963640483984
 31
0.0
  0
LINE
  5
27B
330
17
100
AcDbEntity
  8
4
100
AcDbLine
 10
1035.131633003053
 20
1605.448468041285
 30
0.0
 11
1028.268813913679
 21
1605.448468041285
 31
0.0
  0
LINE
  5
27C
330
17
100
AcDbEntity
  8
4
100
AcDbLine
 10
1035.131633003053
 20
1616.418123155888
 30
0.0
 11
1028.268813913679
 21
1616.418123155888
 31
0.0
  0
LINE
  5
27D
330
17
100
AcDbEntity
  8
4
100
AcDbLine
 10
1035.131633003053
 20
1621.902950713189
 30
0.0
 11
1025.268813913679
 21
1621.902950713189
 31
0.0
  0
LINE
  5
27E
330
17
100
AcDbEntity
  8
4
100
AcDbLine
 10
1161.968813913679
 20
1544.933295598586
 30
0.0
 11
1162.968813913679
 21
1543.933295598586
 31
0.0
  0
LINE
  5
27F
330
17
100
AcDbEntity
  8
4
100
AcDbLine
 10
1161.968813913679
 20
1544.933295598586
 30
0.0
 11
1161.968813913679
 21
1522.433295598586
 31
0.0
  0
LINE
  5
280
330
17
100
AcDbEntity
  8
4
100
AcDbLine
 10
1161.968813913679
 20
1481.933295598586
 30
0.0
 11
1162.968813913679
 21
1482.933295598586
 31
0.0
  0
LINE
  5
281
330
17
100
AcDbEntity
  8
4
100
AcDbLine
 10
1161.968813913679
 20
1504.433295598586
 30
0.0
 11
1161.968813913679
 21
1481.933295598586
 31
0.0
  0
LINE
  5
282
330
17
100
AcDbEntity
  8
4
100
AcDbLine
 10
1162.968813913679
 20
1543.933295598586
 30
0.0
 11
1162.968813913679
 21
1482.933295598586
 31
0.0
  0
ARC
  5
283
330
17
100
AcDbEntity
  8
4
100
AcDbCircle
 10
1032.3934350384
 20
1553.956317518782
 30
0.0
 40
3.875378875279264
100
AcDbArc
 50
314.9559267627452
 51
45.04407323725481
  0
ARC
  5
284
330
17
100
AcDbEntity
  8
4
100
AcDbCircle
 10
1022.473069778501
 20
1562.183558854734
 30
0.0
 40
13.7957441351769
100
AcDbArc
 50
336.5734024913729
 51
23.42659750862713
  0
ARC
  5
285
330
17
100
AcDbEntity
  8
4
100
AcDbCircle
 10
1043.968813913679
 20
1545.933295598586
 30
0.0
 40
1.0
100
AcDbArc
 50
180.0
 51
270.0
  0
LINE
  5
286
330
17
100
AcDbEntity
  8
4
100
AcDbLine
 10
1035.131633003053
 20
1567.668386412035
 30
0.0
 11
1028.268813913679
 21
1567.668386412035
 31
0.0
  0
LINE
  5
287
330
17
100
AcDbEntity
  8
4
100
AcDbLine
 10
1035.131633003053
 20
1556.698731297432
 30
0.0
 11
1028.268813913679
 21
1556.698731297432
 31
0.0
  0
LINE
  5
288
330
17
100
AcDbEntity
  8
4
100
AcDbLine
 10
1025.268813913679
 20
1551.213903740131
 30
0.0
 11
1035.131633003053
 21
1551.213903740131
 31
0.0
  0
LINE
  5
289
330
17
100
AcDbEntity
  8
4
100
AcDbLine
 10
1042.968813913679
 20
1545.933295598586
 30
0.0
 11
1026.268813913679
 21
1545.933295598586
 31
0.0
  0
LINE
  5
28A
330
17
100
AcDbEntity
  8
4
100
AcDbLine
 10
1036.268813913679
 20
1472.910273678391
 30
0.0
 11
1036.268813913679
 21
1456.455791006487
 31
0.0
  0
ARC
  5
28B
330
17
100
AcDbEntity
  8
4
100
AcDbCircle
 10
1022.473069778501
 20
1464.683032342439
 30
0.0
 40
13.7957441351769
100
AcDbArc
 50
336.5734024913729
 51
23.42659750862713
  0
ARC
  5
28C
330
17
100
AcDbEntity
  8
4
100
AcDbCircle
 10
1032.3934350384
 20
1472.910273678391
 30
0.0
 40
3.875378875279264
100
AcDbArc
 50
314.9559267627452
 51
45.04407323725481
  0
ARC
  5
28D
330
17
100
AcDbEntity
  8
4
100
AcDbCircle
 10
1043.968813913679
 20
1480.933295598586
 30
0.0
 40
1.0
100
AcDbArc
 50
90.0
 51
180.0
  0
LINE
  5
28E
330
17
100
AcDbEntity
  8
4
100
AcDbLine
 10
1025.268813913679
 20
1475.652687457042
 30
0.0
 11
1035.131633003053
 21
1475.652687457042
 31
0.0
  0
LINE
  5
28F
330
17
100
AcDbEntity
  8
4
100
AcDbLine
 10
1035.131633003053
 20
1470.16785989974
 30
0.0
 11
1028.268813913679
 21
1470.16785989974
 31
0.0
  0
LINE
  5
290
330
17
100
AcDbEntity
  8
4
100
AcDbLine
 10
1035.131633003053
 20
1459.198204785137
 30
0.0
 11
1028.268813913679
 21
1459.198204785137
 31
0.0
  0
LINE
  5
291
330
17
100
AcDbEntity
  8
4
100
AcDbLine
 10
1042.968813913679
 20
1480.933295598587
 30
0.0
 11
1026.268813913679
 21
1480.933295598587
 31
0.0
  0
LINE
  5
292
330
17
100
AcDbEntity
  8
4
100
AcDbLine
 10
1026.268813913679
 20
1475.652687457042
 30
0.0
 11
1026.268813913679
 21
1551.21390374013
 31
0.0
  0
ARC
  5
293
330
17
100
AcDbEntity
  8
4
100
AcDbCircle
 10
1061.968813913679
 20
1513.433295598586
 30
0.0
 40
9.0
100
AcDbArc
 50
90.0
 51
270.0
  0
LINE
  5
294
330
17
100
AcDbEntity
  8
4
100
AcDbLine
 10
1042.968813913679
 20
1545.933295598586
 30
0.0
 11
1042.968813913679
 21
1480.933295598586
 31
0.0
  0
LINE
  5
295
330
17
100
AcDbEntity
  8
4
100
AcDbLine
 10
1036.268813913679
 20
1424.160536934538
 30
0.0
 11
1036.268813913679
 21
1407.706054262634
 31
0.0
  0
ARC
  5
296
330
17
100
AcDbEntity
  8
4
100
AcDbCircle
 10
1022.473069778501
 20
1415.933295598586
 30
0.0
 40
13.7957441351769
100
AcDbArc
 50
336.5734024913729
 51
23.42659750862713
  0
ARC
  5
297
330
17
100
AcDbEntity
  8
4
100
AcDbCircle
 10
1032.3934350384
 20
1424.160536934538
 30
0.0
 40
3.875378875279264
100
AcDbArc
 50
314.9559267627452
 51
45.04407323725481
  0
ARC
  5
298
330
17
100
AcDbEntity
  8
4
100
AcDbCircle
 10
1032.3934350384
 20
1407.706054262634
 30
0.0
 40
3.875378875279244
100
AcDbArc
 50
314.9559267627452
 51
45.04407323725481
  0
LINE
  5
299
330
17
100
AcDbEntity
  8
4
100
AcDbLine
 10
1024.268813913679
 20
1398.933295598586
 30
0.0
 11
1009.468813913679
 21
1398.933295598586
 31
0.0
  0
ARC
  5
29A
330
17
100
AcDbEntity
  8
4
100
AcDbCircle
 10
1024.268813913679
 20
1399.933295598586
 30
0.0
 40
1.0
100
AcDbArc
 50
270.0
 51
0.0
  0
LINE
  5
29B
330
17
100
AcDbEntity
  8
4
100
AcDbLine
 10
1025.268813913679
 20
1404.963640483983
 30
0.0
 11
1025.268813913679
 21
1426.902950713189
 31
0.0
  0
LINE
  5
29C
330
17
100
AcDbEntity
  8
4
100
AcDbLine
 10
1028.268813913679
 20
1404.963640483983
 30
0.0
 11
1028.268813913679
 21
1426.902950713189
 31
0.0
  0
LINE
  5
29D
330
17
100
AcDbEntity
  8
4
100
AcDbLine
 10
1035.131633003053
 20
1410.448468041285
 30
0.0
 11
1028.268813913679
 21
1410.448468041285
 31
0.0
  0
LINE
  5
29E
330
17
100
AcDbEntity
  8
4
100
AcDbLine
 10
1035.131633003053
 20
1421.418123155888
 30
0.0
 11
1028.268813913679
 21
1421.418123155888
 31
0.0
  0
LINE
  5
29F
330
17
100
AcDbEntity
  8
4
100
AcDbLine
 10
1025.268813913679
 20
1426.902950713189
 30
0.0
 11
1035.131633003053
 21
1426.902950713189
 31
0.0
  0
LINE
  5
2A0
330
17
100
AcDbEntity
  8
4
100
AcDbLine
 10
1035.131633003053
 20
1453.713377227836
 30
0.0
 11
1025.268813913679
 21
1453.713377227836
 31
0.0
  0
LINE
  5
2A1
330
17
100
AcDbEntity
  8
4
100
AcDbLine
 10
1035.131633003053
 20
1404.963640483983
 30
0.0
 11
1025.268813913679
 21
1404.963640483983
 31
0.0
  0
LINE
  5
2A2
330
17
100
AcDbEntity
  8
4
100
AcDbLine
 10
1006.468813913679
 20
1369.433295598586
 30
0.0
 11
1006.468813913679
 21
1397.433295598586
 31
0.0
  0
LINE
  5
2A3
330
17
100
AcDbEntity
  8
4
100
AcDbLine
 10
1028.268813913679
 20
1453.713377227836
 30
0.0
 11
1028.268813913679
 21
1475.652687457042
 31
0.0
  0
LINE
  5
2A4
330
17
100
AcDbEntity
  8
4
100
AcDbLine
 10
1025.268813913679
 20
1453.713377227836
 30
0.0
 11
1025.268813913679
 21
1475.652687457042
 31
0.0
  0
ARC
  5
2A5
330
17
100
AcDbEntity
  8
4
100
AcDbCircle
 10
1032.3934350384
 20
1456.455791006487
 30
0.0
 40
3.875378875279244
100
AcDbArc
 50
314.9559267627452
 51
45.04407323725481
  0
LINE
  5
2A6
330
17
100
AcDbEntity
  8
4
100
AcDbLine
 10
1061.968813913679
 20
1522.433295598586
 30
0.0
 11
1162.968813913679
 21
1522.433295598586
 31
0.0
  0
LINE
  5
2A7
330
17
100
AcDbEntity
  8
4
100
AcDbLine
 10
1061.968813913679
 20
1504.433295598586
 30
0.0
 11
1162.968813913679
 21
1504.433295598586
 31
0.0
  0
LINE
  5
2A8
330
17
100
AcDbEntity
  8
4
100
AcDbLine
 10
1043.968813913679
 20
1544.933295598586
 30
0.0
 11
1161.968813913679
 21
1544.933295598586
 31
0.0
  0
LINE
  5
2A9
330
17
100
AcDbEntity
  8
4
100
AcDbLine
 10
1043.968813913679
 20
1481.933295598586
 30
0.0
 11
1161.968813913679
 21
1481.933295598586
 31
0.0
  0
LINE
  5
2AA
330
17
100
AcDbEntity
  8
4
100
AcDbLine
 10
1009.468813913678
 20
1397.433295598586
 30
0.0
 11
1009.468813913679
 21
1629.433295598587
 31
0.0
  0
LINE
  5
2AB
330
17
100
AcDbEntity
  8
4
100
AcDbLine
 10
1025.268813913679
 20
1399.933295598586
 30
0.0
 11
1025.268813913679
 21
1626.933295598586
 31
0.0
  0
ARC
  5
2AC
330
17
100
AcDbEntity
  8
4
100
AcDbCircle
 10
1032.3934350384
 20
1570.410800190686
 30
0.0
 40
3.875378875279244
100
AcDbArc
 50
314.9559267627452
 51
45.04407323725481
  0
LINE
  5
2AD
330
17
100
AcDbEntity
  8
4
100
AcDbLine
 10
1025.268813913679
 20
1573.153213969337
 30
0.0
 11
1025.268813913679
 21
1551.213903740131
 31
0.0
  0
LINE
  5
2AE
330
17
100
AcDbEntity
  8
4
100
AcDbLine
 10
1036.268813913679
 20
1553.956317518782
 30
0.0
 11
1036.268813913679
 21
1570.410800190686
 31
0.0
  0
LINE
  5
2AF
330
17
100
AcDbEntity
  8
4
100
AcDbLine
 10
1028.268813913679
 20
1573.153213969337
 30
0.0
 11
1028.268813913679
 21
1551.213903740131
 31
0.0
  0
LINE
  5
2B0
330
17
100
AcDbEntity
  8
4
100
AcDbLine
 10
759.4688139136792
 20
1871.433295598586
 30
0.0
 11
757.4688139136792
 21
1873.433295598586
 31
0.0
  0
LINE
  5
2B1
330
17
100
AcDbEntity
  8
4
100
AcDbLine
 10
666.4688139136792
 20
1871.433295598586
 30
0.0
 11
668.4688139136792
 21
1873.433295598586
 31
0.0
  0
LINE
  5
2B2
330
17
100
AcDbEntity
  8
4
100
AcDbLine
 10
666.4688139136792
 20
1871.433295598586
 30
0.0
 11
700.9688139136792
 21
1871.433295598586
 31
0.0
  0
LINE
  5
2B3
330
17
100
AcDbEntity
  8
4
100
AcDbLine
 10
668.4688139136792
 20
1873.433295598586
 30
0.0
 11
757.4688139136792
 21
1873.433295598586
 31
0.0
  0
LINE
  5
2B4
330
17
100
AcDbEntity
  8
4
100
AcDbLine
 10
724.9688139136792
 20
1871.433295598586
 30
0.0
 11
759.4688139136792
 21
1871.433295598586
 31
0.0
  0
ARC
  5
2B5
330
17
100
AcDbEntity
  8
4
100
AcDbCircle
 10
976.9688139136792
 20
1693.433295598586
 30
0.0
 40
10.0
100
AcDbArc
 50
0.0
 51
90.0
  0
LINE
  5
2B6
330
17
100
AcDbEntity
  8
4
100
AcDbLine
 10
999.6960552496307
 20
1670.733295598586
 30
0.0
 11
983.2415725777278
 21
1670.733295598586
 31
0.0
  0
LINE
  5
2B7
330
17
100
AcDbEntity
  8
4
100
AcDbLine
 10
980.4991587990767
 20
1659.733295598586
 30
0.0
 11
1002.438469028282
 21
1659.733295598586
 31
0.0
  0
ARC
  5
2B8
330
17
100
AcDbEntity
  8
4
100
AcDbCircle
 10
983.2415725777278
 20
1666.857916723308
 30
0.0
 40
3.875378875279244
100
AcDbArc
 50
44.95592676275351
 51
135.044073237256
  0
LINE
  5
2B9
330
17
100
AcDbEntity
  8
4
100
AcDbLine
 10
980.4991587990767
 20
1662.733295598586
 30
0.0
 11
1002.438469028282
 21
1662.733295598586
 31
0.0
  0
LINE
  5
2BA
330
17
100
AcDbEntity
  8
4
100
AcDbLine
 10
980.4991587990767
 20
1669.59611468796
 30
0.0
 11
980.4991587990767
 21
1659.733295598586
 31
0.0
  0
ARC
  5
2BB
330
17
100
AcDbEntity
  8
4
100
AcDbCircle
 10
999.6960552496316
 20
1666.857916723308
 30
0.0
 40
3.875378875279264
100
AcDbArc
 50
44.95592676275351
 51
135.0440732372572
  0
LINE
  5
2BC
330
17
100
AcDbEntity
  8
4
100
AcDbLine
 10
996.9536414709814
 20
1669.59611468796
 30
0.0
 11
996.9536414709814
 21
1662.733295598586
 31
0.0
  0
LINE
  5
2BD
330
17
100
AcDbEntity
  8
4
100
AcDbLine
 10
1002.438469028282
 20
1659.733295598586
 30
0.0
 11
1002.438469028282
 21
1669.59611468796
 31
0.0
  0
LINE
  5
2BE
330
17
100
AcDbEntity
  8
4
100
AcDbLine
 10
985.983986356377
 20
1669.59611468796
 30
0.0
 11
985.983986356377
 21
1662.733295598586
 31
0.0
  0
ARC
  5
2BF
330
17
100
AcDbEntity
  8
4
100
AcDbCircle
 10
991.4688139136802
 20
1656.93755146341
 30
0.0
 40
13.7957441351769
100
AcDbArc
 50
66.57340249137289
 51
113.4265975086271
  0
LINE
  5
2C0
330
17
100
AcDbEntity
  8
L-CENTER
 48
2.0
100
AcDbLine
 10
991.4688139136792
 20
1674.334135478691
 30
0.0
 11
991.4688139136792
 21
1620.056681840645
 31
0.0
  0
ARC
  5
2C1
330
17
100
AcDbEntity
  8
4
100
AcDbCircle
 10
892.9688139136792
 20
1663.433295598586
 30
0.0
 40
13.0
100
AcDbArc
 50
24.83251994856615
 51
139.0693566480893
  0
LINE
  5
2C2
330
17
100
AcDbEntity
  8
4
100
AcDbLine
 10
986.9688139136792
 20
1693.433295598586
 30
0.0
 11
986.9688139136783
 21
1670.733295598586
 31
0.0
  0
LINE
  5
2C3
330
17
100
AcDbEntity
  8
L-CENTER
 48
2.0
100
AcDbLine
 10
892.9688139136792
 20
1690.733295598586
 30
0.0
 11
892.9688139136792
 21
1636.133295598586
 31
0.0
  0
ARC
  5
2C4
330
17
100
AcDbEntity
  8
4
100
AcDbCircle
 10
820.2024360661521
 20
1702.733295598586
 30
0.0
 40
1.0
100
AcDbArc
 50
15.06848815950598
 51
90.0
  0
LINE
  5
2C5
330
17
100
AcDbEntity
  8
4
100
AcDbLine
 10
777.9688139136792
 20
1703.733295598586
 30
0.0
 11
777.9688139136792
 21
1704.733295598586
 31
0.0
  0
LINE
  5
2C6
330
17
100
AcDbEntity
  8
4
100
AcDbLine
 10
760.4688139136783
 20
1704.733295598586
 30
0.0
 11
760.4688139136792
 21
1713.433295598586
 31
0.0
  0
ARC
  5
2C7
330
17
100
AcDbEntity
  8
4
100
AcDbCircle
 10
760.4688139136792
 20
1714.433295598586
 30
0.0
 40
1.0
100
AcDbArc
 50
180.0
 51
270.0
  0
LINE
  5
2C8
330
17
100
AcDbEntity
  8
4
100
AcDbLine
 10
760.4688139136792
 20
1713.433295598586
 30
0.0
 11
760.4688139136792
 21
1713.433295598586
 31
0.0
  0
LINE
  5
2C9
330
17
100
AcDbEntity
  8
4
100
AcDbLine
 10
857.7036414709814
 20
1669.59611468796
 30
0.0
 11
857.7036414709814
 21
1662.733295598586
 31
0.0
  0
LINE
  5
2CA
330
17
100
AcDbEntity
  8
4
100
AcDbLine
 10
863.1884690282827
 20
1659.733295598586
 30
0.0
 11
863.1884690282827
 21
1669.59611468796
 31
0.0
  0
ARC
  5
2CB
330
17
100
AcDbEntity
  8
4
100
AcDbCircle
 10
860.4460552496316
 20
1666.857916723308
 30
0.0
 40
3.875378875279264
100
AcDbArc
 50
44.95592676275351
 51
135.0440732372572
  0
ARC
  5
2CC
330
17
100
AcDbEntity
  8
4
100
AcDbCircle
 10
829.5566665690963
 20
1679.528649745797
 30
0.0
 40
2.0
100
AcDbArc
 50
195.0684881594925
 51
261.9509382983153
  0
LINE
  5
2CD
330
17
100
AcDbEntity
  8
4
100
AcDbLine
 10
846.733986356378
 20
1669.59611468796
 30
0.0
 11
846.733986356378
 21
1662.733295598586
 31
0.0
  0
LINE
  5
2CE
330
17
100
AcDbEntity
  8
4
100
AcDbLine
 10
841.2491587990767
 20
1669.59611468796
 30
0.0
 11
841.2491587990767
 21
1659.733295598586
 31
0.0
  0
ARC
  5
2CF
330
17
100
AcDbEntity
  8
4
100
AcDbCircle
 10
843.9915725777278
 20
1666.857916723308
 30
0.0
 40
3.875378875279244
100
AcDbArc
 50
44.95592676274281
 51
135.044073237256
  0
LINE
  5
2D0
330
17
100
AcDbEntity
  8
4
100
AcDbLine
 10
841.2491587990767
 20
1659.733295598586
 30
0.0
 11
863.1884690282827
 21
1659.733295598586
 31
0.0
  0
LINE
  5
2D1
330
17
100
AcDbEntity
  8
4
100
AcDbLine
 10
841.2491587990767
 20
1662.733295598586
 30
0.0
 11
863.1884690282827
 21
1662.733295598586
 31
0.0
  0
LINE
  5
2D2
330
17
100
AcDbEntity
  8
4
100
AcDbLine
 10
860.4460552496316
 20
1670.733295598586
 30
0.0
 11
843.9915725777278
 21
1670.733295598586
 31
0.0
  0
ARC
  5
2D3
330
17
100
AcDbEntity
  8
4
100
AcDbCircle
 10
852.2188139136802
 20
1656.93755146341
 30
0.0
 40
13.7957441351769
100
AcDbArc
 50
66.57340249137289
 51
113.4265975086271
  0
LINE
  5
2D4
330
17
100
AcDbEntity
  8
L-CENTER
 48
2.0
100
AcDbLine
 10
852.2188139136802
 20
1674.334135478691
 30
0.0
 11
852.2188139136802
 21
1620.056681840645
 31
0.0
  0
LINE
  5
2D5
330
17
100
AcDbEntity
  8
4
100
AcDbLine
 10
827.6254350520553
 20
1679.008702798902
 30
0.0
 11
821.1680518246735
 21
1702.993269072035
 31
0.0
  0
LINE
  5
2D6
330
17
100
AcDbEntity
  8
L-CENTER
 48
2.0
100
AcDbLine
 10
920.2688139136785
 20
1663.433295598586
 30
0.0
 11
865.66881391368
 21
1663.433295598586
 31
0.0
  0
LINE
  5
2D7
330
17
100
AcDbEntity
  8
4
100
AcDbLine
 10
976.9688139136792
 20
1703.433295598586
 30
0.0
 11
820.9165789090061
 21
1703.433295598586
 31
0.0
  0
LINE
  5
2D8
330
17
100
AcDbEntity
  8
4
100
AcDbLine
 10
955.2545281993894
 20
1659.733295598586
 30
0.0
 11
829.2766245596445
 21
1677.548352678956
 31
0.0
  0
LINE
  5
2D9
330
17
100
AcDbEntity
  8
4
100
AcDbLine
 10
969.5380994672364
 20
1659.733295598586
 30
0.0
 11
828.248855923131
 21
1679.713592665428
 31
0.0
  0
ARC
  5
2DA
330
17
100
AcDbEntity
  8
4
100
AcDbCircle
 10
892.9688139136792
 20
1363.433295598586
 30
0.0
 40
13.0
100
AcDbArc
 50
215.7272285348463
 51
341.8810499694306
  0
ARC
  5
2DB
330
17
100
AcDbEntity
  8
4
100
AcDbCircle
 10
829.5615656674067
 20
1347.656138102242
 30
0.0
 40
2.0
100
AcDbArc
 50
98.80413925214573
 51
164.9315118405074
  0
LINE
  5
2DC
330
17
100
AcDbEntity
  8
4
100
AcDbLine
 10
812.9688139136792
 20
1349.433295598587
 30
0.0
 11
812.9688139136792
 21
1364.264295598587
 31
0.0
  0
LINE
  5
2DD
330
17
100
AcDbEntity
  8
4
100
AcDbLine
 10
804.9688139136792
 20
1350.182295598586
 30
0.0
 11
804.9688139136792
 21
1363.039295598586
 31
0.0
  0
LINE
  5
2DE
330
17
100
AcDbEntity
  8
4
100
AcDbLine
 10
788.9688139136792
 20
1358.601060279587
 30
0.0
 11
788.9688139136792
 21
1354.621530881587
 31
0.0
  0
LINE
  5
2DF
330
17
100
AcDbEntity
  8
4
100
AcDbLine
 10
796.9688139136792
 20
1358.601060279587
 30
0.0
 11
796.9688139136792
 21
1354.621530881587
 31
0.0
  0
LINE
  5
2E0
330
17
100
AcDbEntity
  8
4
100
AcDbLine
 10
775.9740073489133
 20
1364.264295598587
 30
0.0
 11
772.4905532199168
 21
1369.433291598587
 31
0.0
  0
LINE
  5
2E1
330
17
100
AcDbEntity
  8
4
100
AcDbLine
 10
762.9688139136792
 20
1358.601060279586
 30
0.0
 11
762.9688139136792
 21
1354.621530881586
 31
0.0
  0
LINE
  5
2E2
330
17
100
AcDbEntity
  8
4
100
AcDbLine
 10
754.9688139136792
 20
1358.601060279587
 30
0.0
 11
754.9688139136783
 21
1354.621530881587
 31
0.0
  0
LINE
  5
2E3
330
17
100
AcDbEntity
  8
4
100
AcDbLine
 10
812.9688139136792
 20
1364.264295598587
 30
0.0
 11
775.9740073489133
 21
1364.264295598587
 31
0.0
  0
ELLIPSE
  5
2E4
330
17
100
AcDbEntity
  8
4
100
AcDbEllipse
 10
775.9688139136792
 20
1358.601060279587
 30
0.0
 11
-13.0
 21
0.0
 31
0.0
210
0.0
220
0.0
230
1.0
 40
0.1530588230000026
 41
3.141592653589793
 42
6.283185307179586
  0
ELLIPSE
  5
2E5
330
17
100
AcDbEntity
  8
4
100
AcDbEllipse
 10
775.9688139136792
 20
1354.621530881587
 30
0.0
 11
-13.0
 21
0.0
 31
0.0
210
0.0
220
0.0
230
1.0
 40
0.1530588230000026
 41
0.0
 42
3.141592653589793
  0
ELLIPSE
  5
2E6
330
17
100
AcDbEntity
  8
4
100
AcDbEllipse
 10
775.9688139136792
 20
1358.601060279587
 30
0.0
 11
-21.0
 21
0.0
 31
0.0
210
0.0
220
0.0
230
1.0
 40
0.1530588230000051
 41
3.141592653589793
 42
6.283185307179586
  0
ELLIPSE
  5
2E7
330
17
100
AcDbEntity
  8
4
100
AcDbEllipse
 10
775.9688139136792
 20
1354.621530881587
 30
0.0
 11
-21.0
 21
0.0
 31
0.0
210
0.0
220
0.0
230
1.0
 40
0.1530588230000051
 41
0.0
 42
3.141592653589793
  0
LINE
  5
2E8
330
17
100
AcDbEntity
  8
L-CENTER
 48
2.0
100
AcDbLine
 10
920.2688139136785
 20
1363.433295598586
 30
0.0
 11
865.66881391368
 21
1363.433295598586
 31
0.0
  0
LINE
  5
2E9
330
17
100
AcDbEntity
  8
4
100
AcDbLine
 10
970.1662564590274
 20
1369.433295598586
 30
0.0
 11
827.400222494814
 21
1347.321384614231
 31
0.0
  0
LINE
  5
2EA
330
17
100
AcDbEntity
  8
4
100
AcDbLine
 10
957.0992486962873
 20
1369.433295598586
 30
0.0
 11
829.2554512093279
 21
1349.632572755488
 31
0.0
  0
ARC
  5
2EB
330
17
100
AcDbEntity
  8
4
100
AcDbCircle
 10
712.9688139136792
 20
1735.433295598586
 30
0.0
 40
12.0
100
AcDbArc
 50
180.0
 51
0.0
  0
LINE
  5
2EC
330
17
100
AcDbEntity
  8
4
100
AcDbLine
 10
665.4688139136792
 20
1704.733295598586
 30
0.0
 11
665.4688139136792
 21
1713.433295598586
 31
0.0
  0
LINE
  5
2ED
330
17
100
AcDbEntity
  8
4
100
AcDbLine
 10
665.4688139136792
 20
1713.433295598586
 30
0.0
 11
665.4688139136792
 21
1713.433295598586
 31
0.0
  0
ARC
  5
2EE
330
17
100
AcDbEntity
  8
4
100
AcDbCircle
 10
665.4688139136792
 20
1714.433295598586
 30
0.0
 40
1.0
100
AcDbArc
 50
270.0
 51
0.0
  0
LINE
  5
2EF
330
17
100
AcDbEntity
  8
4
100
AcDbLine
 10
647.9688139136783
 20
1703.733295598586
 30
0.0
 11
647.9688139136792
 21
1704.733295598586
 31
0.0
  0
LINE
  5
2F0
330
17
100
AcDbEntity
  8
4
100
AcDbLine
 10
737.9688139136792
 20
1669.733295598586
 30
0.0
 11
737.9688139136792
 21
1662.076426888987
 31
0.0
  0
LINE
  5
2F1
330
17
100
AcDbEntity
  8
4
100
AcDbLine
 10
712.9688139136792
 20
1632.733295598586
 30
0.0
 11
712.9688139136792
 21
1632.733295598586
 31
0.0
  0
LINE
  5
2F2
330
17
100
AcDbEntity
  8
4
100
AcDbLine
 10
712.9688139136792
 20
1632.733295598586
 30
0.0
 11
712.9688139136792
 21
1632.733295598586
 31
0.0
  0
LINE
  5
2F3
330
17
100
AcDbEntity
  8
4
100
AcDbLine
 10
687.9688139136792
 20
1662.076426888987
 30
0.0
 11
687.9688139136792
 21
1669.733295598586
 31
0.0
  0
LINE
  5
2F4
330
17
100
AcDbEntity
  8
4
100
AcDbLine
 10
687.9688139136792
 20
1669.147133959694
 30
0.0
 11
687.9688139136792
 21
1669.147133959694
 31
0.0
  0
LINE
  5
2F5
330
17
100
AcDbEntity
  8
4
100
AcDbLine
 10
737.9688139136792
 20
1662.076426888987
 30
0.0
 11
687.9688139136792
 21
1662.076426888987
 31
0.0
  0
LINE
  5
2F6
330
17
100
AcDbEntity
  8
4
100
AcDbLine
 10
737.9688139136792
 20
1669.733295598586
 30
0.0
 11
687.9688139136792
 21
1669.733295598586
 31
0.0
  0
ARC
  5
2F7
330
17
100
AcDbEntity
  8
4
100
AcDbCircle
 10
605.7351917612045
 20
1702.733295598586
 30
0.0
 40
1.0
100
AcDbArc
 50
90.0
 51
164.931511840494
  0
ARC
  5
2F8
330
17
100
AcDbEntity
  8
4
100
AcDbCircle
 10
596.3809612582604
 20
1679.528649745797
 30
0.0
 40
2.0
100
AcDbArc
 50
278.0490617016579
 51
344.9315118405075
  0
LINE
  5
2F9
330
17
100
AcDbEntity
  8
4
100
AcDbLine
 10
584.6884690282809
 20
1669.59611468796
 30
0.0
 11
584.6884690282809
 21
1659.733295598586
 31
0.0
  0
ARC
  5
2FA
330
17
100
AcDbEntity
  8
4
100
AcDbCircle
 10
581.9460552496298
 20
1666.857916723308
 30
0.0
 40
3.875378875279244
100
AcDbArc
 50
44.95592676274281
 51
135.0440732372465
  0
LINE
  5
2FB
330
17
100
AcDbEntity
  8
4
100
AcDbLine
 10
579.2036414709796
 20
1669.59611468796
 30
0.0
 11
579.2036414709796
 21
1662.733295598586
 31
0.0
  0
LINE
  5
2FC
330
17
100
AcDbEntity
  8
L-CENTER
 48
2.0
100
AcDbLine
 10
573.7188139136774
 20
1674.334135478691
 30
0.0
 11
573.7188139136774
 21
1620.056681840645
 31
0.0
  0
LINE
  5
2FD
330
17
100
AcDbEntity
  8
4
100
AcDbLine
 10
562.7491587990748
 20
1659.733295598586
 30
0.0
 11
562.7491587990748
 21
1669.59611468796
 31
0.0
  0
ARC
  5
2FE
330
17
100
AcDbEntity
  8
4
100
AcDbCircle
 10
565.491572577726
 20
1666.857916723308
 30
0.0
 40
3.875378875279264
100
AcDbArc
 50
44.95592676274281
 51
135.0440732372572
  0
LINE
  5
2FF
330
17
100
AcDbEntity
  8
4
100
AcDbLine
 10
568.2339863563761
 20
1669.59611468796
 30
0.0
 11
568.2339863563761
 21
1662.733295598586
 31
0.0
  0
LINE
  5
300
330
17
100
AcDbEntity
  8
4
100
AcDbLine
 10
532.9688139136792
 20
1670.561275373836
 30
0.0
 11
532.9688139136792
 21
1672.733295598586
 31
0.0
  0
ARC
  5
301
330
17
100
AcDbEntity
  8
4
100
AcDbCircle
 10
532.9688139136792
 20
1663.433295598586
 30
0.0
 40
13.0
100
AcDbArc
 50
40.93064335191357
 51
134.3252713414577
  0
LINE
  5
302
330
17
100
AcDbEntity
  8
4
100
AcDbLine
 10
584.6884690282809
 20
1659.733295598586
 30
0.0
 11
562.7491587990748
 21
1659.733295598586
 31
0.0
  0
ARC
  5
303
330
17
100
AcDbEntity
  8
4
100
AcDbCircle
 10
573.7188139136774
 20
1656.93755146341
 30
0.0
 40
13.7957441351769
100
AcDbArc
 50
66.57340249137289
 51
113.4265975086271
  0
LINE
  5
304
330
17
100
AcDbEntity
  8
4
100
AcDbLine
 10
565.491572577726
 20
1670.733295598586
 30
0.0
 11
581.9460552496298
 21
1670.733295598586
 31
0.0
  0
LINE
  5
305
330
17
100
AcDbEntity
  8
4
100
AcDbLine
 10
584.6884690282809
 20
1662.733295598586
 30
0.0
 11
562.7491587990748
 21
1662.733295598586
 31
0.0
  0
LINE
  5
306
330
17
100
AcDbEntity
  8
L-CENTER
 48
2.0
100
AcDbLine
 10
532.9688139136792
 20
1690.733295598586
 30
0.0
 11
532.9688139136792
 21
1636.133295598586
 31
0.0
  0
LINE
  5
307
330
17
100
AcDbEntity
  8
4
100
AcDbLine
 10
598.3121927753014
 20
1679.008702798902
 30
0.0
 11
604.7695760026832
 21
1702.993269072035
 31
0.0
  0
ARC
  5
308
330
17
100
AcDbEntity
  8
4
100
AcDbCircle
 10
712.9688139136792
 20
1513.433295598586
 30
0.0
 40
20.0
100
AcDbArc
 50
29.99999999999988
 51
150.0000000000001
  0
ARC
  5
309
330
17
100
AcDbEntity
  8
4
100
AcDbCircle
 10
712.9688139136792
 20
1513.433295598586
 30
0.0
 40
20.0
100
AcDbArc
 50
209.9999999999999
 51
330.0000000000002
  0
ARC
  5
30A
330
17
100
AcDbEntity
  8
4
100
AcDbCircle
 10
677.9688139136792
 20
1513.433295598586
 30
0.0
 40
10.0
100
AcDbArc
 50
90.0
 51
270.0
  0
ARC
  5
30B
330
17
100
AcDbEntity
  8
4
100
AcDbCircle
 10
712.9688139136792
 20
1513.433295598586
 30
0.0
 40
25.0
100
AcDbArc
 50
23.57817847820185
 51
156.4218215217994
  0
LINE
  5
30C
330
17
100
AcDbEntity
  8
4
100
AcDbLine
 10
677.9688139136792
 20
1503.433295598586
 30
0.0
 11
747.9688139136792
 21
1503.433295598586
 31
0.0
  0
ARC
  5
30D
330
17
100
AcDbEntity
  8
4
100
AcDbCircle
 10
712.9688139136792
 20
1513.433295598586
 30
0.0
 40
22.5
100
AcDbArc
 50
206.387799961243
 51
333.612200038757
  0
LINE
  5
30E
330
17
100
AcDbEntity
  8
4
100
AcDbLine
 10
677.9688139136792
 20
1523.433295598586
 30
0.0
 11
747.9688139136792
 21
1523.433295598586
 31
0.0
  0
ARC
  5
30F
330
17
100
AcDbEntity
  8
4
100
AcDbCircle
 10
712.9688139136792
 20
1513.433295598586
 30
0.0
 40
22.5
100
AcDbArc
 50
26.38779996124302
 51
153.612200038757
  0
ARC
  5
310
330
17
100
AcDbEntity
  8
4
100
AcDbCircle
 10
712.9688139136792
 20
1513.433295598586
 30
0.0
 40
25.0
100
AcDbArc
 50
203.5781784782006
 51
336.4218215217981
  0
LINE
  5
311
330
17
100
AcDbEntity
  8
4
100
AcDbLine
 10
732.9688139136792
 20
1357.223530872586
 30
0.0
 11
732.9688139136792
 21
1355.999060288586
 31
0.0
  0
LINE
  5
312
330
17
100
AcDbEntity
  8
4
100
AcDbLine
 10
746.9688139136792
 20
1361.815295562586
 30
0.0
 11
738.9688139136792
 21
1361.815295562586
 31
0.0
  0
LINE
  5
313
330
17
100
AcDbEntity
  8
4
100
AcDbLine
 10
738.9688139136792
 20
1351.407295598586
 30
0.0
 11
746.9688139136792
 21
1351.407295598586
 31
0.0
  0
LINE
  5
314
330
17
100
AcDbEntity
  8
4
100
AcDbLine
 10
746.9688139136792
 20
1361.815295562586
 30
0.0
 11
746.9688139136792
 21
1351.407295598586
 31
0.0
  0
LINE
  5
315
330
17
100
AcDbEntity
  8
4
100
AcDbLine
 10
738.9688139136792
 20
1361.815295562586
 30
0.0
 11
738.9688139136792
 21
1351.407295598586
 31
0.0
  0
LINE
  5
316
330
17
100
AcDbEntity
  8
4
100
AcDbLine
 10
696.9688139136792
 20
1361.815295562586
 30
0.0
 11
717.9688139136792
 21
1351.407295598586
 31
0.0
  0
LINE
  5
317
330
17
100
AcDbEntity
  8
4
100
AcDbLine
 10
709.5960123378386
 20
1351.407295598586
 30
0.0
 11
717.9688139136792
 21
1351.407295598586
 31
0.0
  0
LINE
  5
318
330
17
100
AcDbEntity
  8
4
100
AcDbLine
 10
692.9688139136792
 20
1359.648051817638
 30
0.0
 11
700.9489535143107
 21
1355.692942642587
 31
0.0
  0
LINE
  5
319
330
17
100
AcDbEntity
  8
4
100
AcDbLine
 10
703.4195417496035
 20
1354.468472058586
 30
0.0
 11
709.5960123378386
 21
1351.407295598586
 31
0.0
  0
LINE
  5
31A
330
17
100
AcDbEntity
  8
4
100
AcDbLine
 10
718.9688139136792
 20
1357.223530872586
 30
0.0
 11
718.9688139136792
 21
1355.999060288586
 31
0.0
  0
LINE
  5
31B
330
17
100
AcDbEntity
  8
4
100
AcDbLine
 10
732.9688139136792
 20
1355.999060288586
 30
0.0
 11
718.9688139136792
 21
1355.999060288586
 31
0.0
  0
LINE
  5
31C
330
17
100
AcDbEntity
  8
4
100
AcDbLine
 10
732.9688139136792
 20
1357.223530872586
 30
0.0
 11
718.9688139136792
 21
1357.223530872586
 31
0.0
  0
LINE
  5
31D
330
17
100
AcDbEntity
  8
4
100
AcDbLine
 10
667.9688139136792
 20
1351.407295598586
 30
0.0
 11
688.9688139136792
 21
1361.815295562586
 31
0.0
  0
LINE
  5
31E
330
17
100
AcDbEntity
  8
4
100
AcDbLine
 10
676.3416154895181
 20
1351.407295598586
 30
0.0
 11
682.5180860777532
 21
1354.468472058586
 31
0.0
  0
LINE
  5
31F
330
17
100
AcDbEntity
  8
4
100
AcDbLine
 10
667.9688139136792
 20
1351.407295598586
 30
0.0
 11
676.3416154895181
 21
1351.407295598586
 31
0.0
  0
LINE
  5
320
330
17
100
AcDbEntity
  8
4
100
AcDbLine
 10
664.9688139136783
 20
1352.631766182587
 30
0.0
 11
664.9688139136792
 21
1351.407295598586
 31
0.0
  0
LINE
  5
321
330
17
100
AcDbEntity
  8
4
100
AcDbLine
 10
649.9636204784451
 20
1364.264295598586
 30
0.0
 11
653.4470746074408
 21
1369.433291598586
 31
0.0
  0
LINE
  5
322
330
17
100
AcDbEntity
  8
4
100
AcDbLine
 10
636.9688139136792
 20
1361.815295562586
 30
0.0
 11
636.9688139136792
 21
1352.631766182586
 31
0.0
  0
LINE
  5
323
330
17
100
AcDbEntity
  8
4
100
AcDbLine
 10
636.9688139136792
 20
1352.631766182586
 30
0.0
 11
664.9688139136783
 21
1352.631766182587
 31
0.0
  0
LINE
  5
324
330
17
100
AcDbEntity
  8
4
100
AcDbLine
 10
684.988674313046
 20
1355.692942642587
 30
0.0
 11
692.9688139136792
 21
1359.648051817638
 31
0.0
  0
LINE
  5
325
330
17
100
AcDbEntity
  8
4
100
AcDbLine
 10
700.9489535143107
 20
1355.692942642587
 30
0.0
 11
684.988674313046
 21
1355.692942642587
 31
0.0
  0
LINE
  5
326
330
17
100
AcDbEntity
  8
4
100
AcDbLine
 10
703.4195417496035
 20
1354.468472058586
 30
0.0
 11
682.5180860777532
 21
1354.468472058587
 31
0.0
  0
LINE
  5
327
330
17
100
AcDbEntity
  8
4
100
AcDbLine
 10
696.9688139136792
 20
1361.815295562586
 30
0.0
 11
688.9688139136792
 21
1361.815295562587
 31
0.0
  0
LINE
  5
328
330
17
100
AcDbEntity
  8
L-CENTER
 48
2.0
100
AcDbLine
 10
572.9688139136792
 20
1477.398881310266
 30
0.0
 11
572.9688139136792
 21
1549.467709886907
 31
0.0
  0
CIRCLE
  5
329
330
17
100
AcDbEntity
  8
4
100
AcDbCircle
 10
572.9688139136792
 20
1513.433295598586
 30
0.0
 40
25.0
  0
CIRCLE
  5
32A
330
17
100
AcDbEntity
  8
4
100
AcDbCircle
 10
572.9688139136792
 20
1513.433295598586
 30
0.0
 40
23.0
  0
LWPOLYLINE
  5
32B
330
17
100
AcDbEntity
  8
4
100
AcDbPolyline
 90
        6
 70
     1
 43
0.0
 10
595.9688139136792
 20
1513.433295598586
 10
584.4688139136792
 20
1533.351879885628
 10
561.4688139136792
 20
1533.351879885628
 10
549.9688139136792
 20
1513.433295598586
 10
561.4688139136792
 20
1493.514711311544
 10
584.4688139136792
 20
1493.514711311544
  0
LINE
  5
32C
330
17
100
AcDbEntity
  8
4
100
AcDbLine
 10
612.9688139136783
 20
1349.433295598586
 30
0.0
 11
612.9688139136792
 21
1364.264295598586
 31
0.0
  0
LINE
  5
32D
330
17
100
AcDbEntity
  8
4
100
AcDbLine
 10
620.9688139136792
 20
1350.182295598586
 30
0.0
 11
620.9688139136792
 21
1363.039295598586
 31
0.0
  0
LINE
  5
32E
330
17
100
AcDbEntity
  8
4
100
AcDbLine
 10
628.9688139136792
 20
1361.815295562586
 30
0.0
 11
628.9688139136792
 21
1351.407295598586
 31
0.0
  0
ARC
  5
32F
330
17
100
AcDbEntity
  8
4
100
AcDbCircle
 10
596.3760621599508
 20
1347.656138102242
 30
0.0
 40
2.0
100
AcDbArc
 50
15.06848815949257
 51
81.19586074785427
  0
ARC
  5
330
330
17
100
AcDbEntity
  8
4
100
AcDbCircle
 10
532.9688139136792
 20
1363.433295598586
 30
0.0
 40
13.0
100
AcDbArc
 50
198.1189500305673
 51
324.2727714651537
  0
LINE
  5
331
330
17
100
AcDbEntity
  8
4
100
AcDbLine
 10
649.9636204784451
 20
1364.264295598586
 30
0.0
 11
612.9688139136792
 21
1364.264295598586
 31
0.0
  0
LINE
  5
332
330
17
100
AcDbEntity
  8
4
100
AcDbLine
 10
628.9688139136792
 20
1351.407295598586
 30
0.0
 11
664.9688139136792
 21
1351.407295598586
 31
0.0
  0
LINE
  5
333
330
17
100
AcDbEntity
  8
4
100
AcDbLine
 10
628.9688139136792
 20
1361.815295562586
 30
0.0
 11
636.9688139136792
 21
1361.815295562586
 31
0.0
  0
LINE
  5
334
330
17
100
AcDbEntity
  8
4
100
AcDbLine
 10
647.9688139136792
 20
1704.733295598586
 30
0.0
 11
777.9688139136792
 21
1704.733295598586
 31
0.0
  0
LINE
  5
335
330
17
100
AcDbEntity
  8
4
100
AcDbLine
 10
605.7351917612045
 20
1677.733295598586
 30
0.0
 11
820.2024360661521
 21
1677.733295598586
 31
0.0
  0
LINE
  5
336
330
17
100
AcDbEntity
  8
4
100
AcDbLine
 10
605.7351917612045
 20
1703.733295598586
 30
0.0
 11
820.2024360661521
 21
1703.733295598586
 31
0.0
  0
ARC
  5
337
330
17
100
AcDbEntity
  8
4
100
AcDbCircle
 10
747.9688139136792
 20
1513.433295598586
 30
0.0
 40
10.0
100
AcDbArc
 50
270.0
 51
90.0
  0
LINE
  5
338
330
17
100
AcDbEntity
  8
4
100
AcDbLine
 10
665.4688139136792
 20
1713.433295598586
 30
0.0
 11
760.4688139136792
 21
1713.433295598586
 31
0.0
  0
LINE
  5
339
330
17
100
AcDbEntity
  8
4
100
AcDbLine
 10
597.2935103782106
 20
1349.433295598586
 30
0.0
 11
828.6441174491479
 21
1349.433295598587
 31
0.0
  0
LINE
  5
33A
330
17
100
AcDbEntity
  8
4
100
AcDbLine
 10
804.9688139136792
 20
1350.182295598586
 30
0.0
 11
620.9688139136792
 21
1350.182295598586
 31
0.0
  0
LINE
  5
33B
330
17
100
AcDbEntity
  8
4
100
AcDbLine
 10
804.9688139136792
 20
1363.039295598586
 30
0.0
 11
620.9688139136792
 21
1363.039295598586
 31
0.0
  0
LINE
  5
33C
330
17
100
AcDbEntity
  8
4
100
AcDbLine
 10
666.4688139136792
 20
1714.433295598586
 30
0.0
 11
666.4688139136792
 21
1871.433295598586
 31
0.0
  0
LINE
  5
33D
330
17
100
AcDbEntity
  8
4
100
AcDbLine
 10
700.9688139136792
 20
1873.433295598586
 30
0.0
 11
700.9688139136792
 21
1735.433295598586
 31
0.0
  0
LINE
  5
33E
330
17
100
AcDbEntity
  8
4
100
AcDbLine
 10
724.9688139136792
 20
1873.433295598586
 30
0.0
 11
724.9688139136792
 21
1735.433295598586
 31
0.0
  0
LINE
  5
33F
330
17
100
AcDbEntity
  8
4
100
AcDbLine
 10
759.4688139136792
 20
1714.433295598586
 30
0.0
 11
759.4688139136792
 21
1871.433295598586
 31
0.0
  0
LINE
  5
340
330
17
100
AcDbEntity
  8
L-CENTER
 48
2.0
100
AcDbLine
 10
1043.288955913679
 20
1464.683032342439
 30
0.0
 11
971.5525059136785
 21
1464.683032342439
 31
0.0
  0
LINE
  5
341
330
17
100
AcDbEntity
  8
L-CENTER
 48
2.0
100
AcDbLine
 10
1043.288955913679
 20
1415.933295598586
 30
0.0
 11
971.5525059136794
 21
1415.933295598586
 31
0.0
  0
LINE
  5
342
330
17
100
AcDbEntity
  8
L-CENTER
 48
2.0
100
AcDbLine
 10
1043.288955913679
 20
1610.933295598586
 30
0.0
 11
971.5525059136794
 21
1610.933295598586
 31
0.0
  0
LINE
  5
343
330
17
100
AcDbEntity
  8
L-CENTER
 48
2.0
100
AcDbLine
 10
1043.288955913679
 20
1562.183558854734
 30
0.0
 11
971.5525059136785
 21
1562.183558854734
 31
0.0
  0
ARC
  5
347
330
17
100
AcDbEntity
  8
4
100
AcDbCircle
 10
976.9688139136792
 20
1333.433295598586
 30
0.0
 40
10.0
100
AcDbArc
 50
270.0
 51
0.0
  0
ARC
  5
348
330
17
100
AcDbEntity
  8
4
100
AcDbCircle
 10
819.4360582186268
 20
1325.433295598587
 30
0.0
 40
2.0
100
AcDbArc
 50
270.0
 51
344.9315118405075
  0
LINE
  5
349
330
17
100
AcDbEntity
  8
4
100
AcDbLine
 10
812.9688139136792
 20
1323.433295598586
 30
0.0
 11
976.9688139136792
 21
1323.433295598586
 31
0.0
  0
ARC
  5
34A
330
17
100
AcDbEntity
  8
4
100
AcDbCircle
 10
606.5015696087307
 20
1325.433295598587
 30
0.0
 40
2.0
100
AcDbArc
 50
195.0684881594925
 51
270.0
  0
LINE
  5
34C
330
17
100
AcDbEntity
  8
4
100
AcDbLine
 10
820.2024579136792
 20
1323.433295598586
 30
0.0
 11
605.7351699136793
 21
1323.433295598586
 31
0.0
  0
ARC
  5
34E
330
17
100
AcDbEntity
  8
4
100
AcDbCircle
 10
970.5498699136783
 20
771.2645059005415
 30
0.0
 40
5.000052
100
AcDbArc
 50
15.00385500000127
 51
74.99614499999373
  0
ARC
  5
34F
330
17
100
AcDbEntity
  8
4
100
AcDbCircle
 10
775.0353066422063
 20
765.651702822174
 30
0.0
 40
4.0
100
AcDbArc
 50
76.1620147383712
 51
185.9985940830366
  0
ARC
  5
350
330
17
100
AcDbEntity
  8
4
100
AcDbCircle
 10
801.9688139136792
 20
727.6834499005417
 30
0.0
 40
3.0
100
AcDbArc
 50
0.0
 51
90.0
  0
ARC
  5
351
330
17
100
AcDbEntity
  8
4
100
AcDbCircle
 10
809.9688139136792
 20
735.6834499005417
 30
0.0
 40
3.0
100
AcDbArc
 50
0.0
 51
90.0
  0
ARC
  5
352
330
17
100
AcDbEntity
  8
4
100
AcDbCircle
 10
776.5483712239616
 20
741.6834499005417
 30
0.0
 40
3.0
100
AcDbArc
 50
185.9985940830388
 51
270.0
  0
ARC
  5
353
330
17
100
AcDbEntity
  8
4
100
AcDbCircle
 10
775.9688139136792
 20
701.6834499005417
 30
0.0
 40
13.0
100
AcDbArc
 50
0.0
 51
180.0
  0
ARC
  5
354
330
17
100
AcDbEntity
  8
4
100
AcDbCircle
 10
775.9688139136792
 20
701.6834499005417
 30
0.0
 40
21.0
100
AcDbArc
 50
0.0
 51
180.0
  0
LINE
  5
355
330
17
100
AcDbEntity
  8
4
100
AcDbLine
 10
809.9688139136792
 20
738.6834499005417
 30
0.0
 11
776.5483712239616
 21
738.6834499005417
 31
0.0
  0
LINE
  5
356
330
17
100
AcDbEntity
  8
4
100
AcDbLine
 10
773.5647978440352
 20
741.3699377212099
 30
0.0
 11
771.0572088023032
 21
765.2336865830648
 31
0.0
  0
ARC
  5
357
330
17
100
AcDbEntity
  8
4
100
AcDbCircle
 10
823.4863899136785
 20
587.5970239005414
 30
0.0
 40
1.000044
100
AcDbArc
 50
188.4941080000015
 51
264.0027190000202
  0
ARC
  5
358
330
17
100
AcDbEntity
  8
4
100
AcDbCircle
 10
801.9688139136792
 20
649.6834499005417
 30
0.0
 40
3.0
100
AcDbArc
 50
270.0
 51
0.0
  0
ARC
  5
359
330
17
100
AcDbEntity
  8
4
100
AcDbCircle
 10
775.9688139136792
 20
675.6834499005417
 30
0.0
 40
13.0
100
AcDbArc
 50
180.0
 51
0.0
  0
ARC
  5
35A
330
17
100
AcDbEntity
  8
4
100
AcDbCircle
 10
775.9688139136792
 20
675.6834499005417
 30
0.0
 40
21.0
100
AcDbArc
 50
180.0
 51
0.0
  0
ARC
  5
35B
330
17
100
AcDbEntity
  8
4
100
AcDbCircle
 10
809.5195959136786
 20
610.2342319005415
 30
0.0
 40
1.999902
100
AcDbArc
 50
11.18512099999722
 51
78.81487900000216
  0
LINE
  5
35C
330
17
100
AcDbEntity
  8
4
100
AcDbLine
 10
809.9688139136792
 20
638.6834499005417
 30
0.0
 11
787.6867904204696
 21
638.6834499005417
 31
0.0
  0
ARC
  5
35D
330
17
100
AcDbEntity
  8
4
100
AcDbCircle
 10
809.9688139136792
 20
641.6834499005417
 30
0.0
 40
3.0
100
AcDbArc
 50
270.0
 51
0.0
  0
LINE
  5
35E
330
17
100
AcDbEntity
  8
4
100
AcDbLine
 10
785.164497594305
 20
630.9801102388597
 30
0.0
 11
784.7032170405432
 21
635.3699377212099
 31
0.0
  0
ARC
  5
35F
330
17
100
AcDbEntity
  8
4
100
AcDbCircle
 10
795.1097421940626
 20
632.0251508366323
 30
0.0
 40
10.0
100
AcDbArc
 50
185.9985940830393
 51
260.7315348759754
  0
ARC
  5
360
330
17
100
AcDbEntity
  8
4
100
AcDbCircle
 10
787.6867904204696
 20
635.6834499005417
 30
0.0
 40
3.0
100
AcDbArc
 50
90.0
 51
185.9985940830388
  0
ARC
  5
361
330
17
100
AcDbEntity
  8
4
100
AcDbCircle
 10
815.3345379136786
 20
616.0491739005415
 30
0.0
 40
1.999986
100
AcDbArc
 50
11.86270200000191
 51
78.13726999999531
  0
LINE
  5
362
330
17
100
AcDbEntity
  8
4
100
AcDbLine
 10
804.9688139136792
 20
727.6834499005417
 30
0.0
 11
804.9688139136792
 21
649.6834499005417
 31
0.0
  0
LINE
  5
363
330
17
100
AcDbEntity
  8
4
100
AcDbLine
 10
812.9688139136792
 20
735.6834499005417
 30
0.0
 11
812.9688139136792
 21
641.6834499005417
 31
0.0
  0
LINE
  5
364
330
17
100
AcDbEntity
  8
4
100
AcDbLine
 10
762.9688139136792
 20
675.6834499005417
 30
0.0
 11
762.9688139136792
 21
701.6834499005417
 31
0.0
  0
LINE
  5
365
330
17
100
AcDbEntity
  8
4
100
AcDbLine
 10
754.9688139136792
 20
675.6834499005417
 30
0.0
 11
754.9688139136792
 21
701.6834499005417
 31
0.0
  0
LINE
  5
366
330
17
100
AcDbEntity
  8
4
100
AcDbLine
 10
796.9688139136792
 20
701.6834499005417
 30
0.0
 11
796.9688139136792
 21
675.6834499005417
 31
0.0
  0
LINE
  5
367
330
17
100
AcDbEntity
  8
4
100
AcDbLine
 10
788.9688139136792
 20
701.6834499005417
 30
0.0
 11
788.9688139136792
 21
675.6834499005417
 31
0.0
  0
LINE
  5
36D
330
17
100
AcDbEntity
  8
4
100
AcDbLine
 10
734.8403979136788
 20
836.6834479005415
 30
0.0
 11
735.4688139136792
 21
818.6834479005415
 31
0.0
  0
LINE
  5
36E
330
17
100
AcDbEntity
  8
4
100
AcDbLine
 10
737.968815913679
 20
818.6834479005415
 30
0.0
 11
737.968815913679
 21
812.7925819005416
 31
0.0
  0
LINE
  5
36F
330
17
100
AcDbEntity
  8
4
100
AcDbLine
 10
712.9688139136792
 20
838.6834459005413
 30
0.0
 11
734.8403979136788
 21
836.6834479005415
 31
0.0
  0
LINE
  5
370
330
17
100
AcDbEntity
  8
4
100
AcDbLine
 10
691.0974759136784
 20
836.6834479005415
 30
0.0
 11
690.4688139136792
 21
818.6834479005415
 31
0.0
  0
LINE
  5
371
330
17
100
AcDbEntity
  8
4
100
AcDbLine
 10
687.9688119136786
 20
818.6834479005415
 30
0.0
 11
687.9688119136786
 21
812.7925819005416
 31
0.0
  0
LINE
  5
372
330
17
100
AcDbEntity
  8
4
100
AcDbLine
 10
690.4688139136792
 20
818.6834479005415
 30
0.0
 11
735.4688139136792
 21
818.6834479005415
 31
0.0
  0
LINE
  5
373
330
17
100
AcDbEntity
  8
4
100
AcDbLine
 10
687.9688119136786
 20
818.6834479005415
 30
0.0
 11
737.968815913679
 21
818.6834479005415
 31
0.0
  0
LINE
  5
374
330
17
100
AcDbEntity
  8
4
100
AcDbLine
 10
691.0974759136784
 20
836.6834479005415
 30
0.0
 11
734.8403979136788
 21
836.6834479005415
 31
0.0
  0
CIRCLE
  5
375
330
17
100
AcDbEntity
  8
4
100
AcDbCircle
 10
712.9688139136792
 20
863.6834479005415
 30
0.0
 40
25.00000199999999
  0
LINE
  5
376
330
17
100
AcDbEntity
  8
4
100
AcDbLine
 10
691.0974759136784
 20
836.6834479005415
 30
0.0
 11
712.9688139136792
 21
838.6834459005413
 31
0.0
  0
LINE
  5
378
330
17
100
AcDbEntity
  8
4
100
AcDbLine
 10
584.4688119136786
 20
812.6834479005415
 30
0.0
 11
584.4688119136786
 21
817.6834459005413
 31
0.0
  0
LINE
  5
379
330
17
100
AcDbEntity
  8
4
100
AcDbLine
 10
561.4688139136792
 20
812.6834479005415
 30
0.0
 11
561.4688139136792
 21
817.6834459005413
 31
0.0
  0
LINE
  5
37A
330
17
100
AcDbEntity
  8
4
100
AcDbLine
 10
549.9688119136786
 20
812.6834479005415
 30
0.0
 11
595.9688139136792
 21
812.6834479005415
 31
0.0
  0
LINE
  5
37B
330
17
100
AcDbEntity
  8
4
100
AcDbLine
 10
549.9688119136786
 20
817.6834459005413
 30
0.0
 11
595.9688139136792
 21
817.6834459005413
 31
0.0
  0
LINE
  5
37C
330
17
100
AcDbEntity
  8
4
100
AcDbLine
 10
738.9688139136792
 20
722.6834499005417
 30
0.0
 11
746.9688139136792
 21
722.6834499005417
 31
0.0
  0
ARC
  5
37D
330
17
100
AcDbEntity
  8
4
100
AcDbCircle
 10
650.9023211851522
 20
765.651702822174
 30
0.0
 40
4.0
100
AcDbArc
 50
354.0014059169634
 51
103.8379852616557
  0
ARC
  5
37E
330
17
100
AcDbEntity
  8
4
100
AcDbCircle
 10
649.3892566033969
 20
741.6834499005417
 30
0.0
 40
3.0
100
AcDbArc
 50
270.0
 51
354.0014059169612
  0
LINE
  5
37F
330
17
100
AcDbEntity
  8
4
100
AcDbLine
 10
652.3728299833233
 20
741.3699377212099
 30
0.0
 11
654.8804190250553
 21
765.2336865830648
 31
0.0
  0
LINE
  5
380
330
17
100
AcDbEntity
  8
4
100
AcDbLine
 10
688.9688139136792
 20
722.6834499005417
 30
0.0
 11
696.9688139136792
 21
722.6834499005417
 31
0.0
  0
LINE
  5
381
330
17
100
AcDbEntity
  8
4
100
AcDbLine
 10
738.9688139136792
 20
654.6834499005417
 30
0.0
 11
746.9688139136792
 21
654.6834499005417
 31
0.0
  0
LINE
  5
382
330
17
100
AcDbEntity
  8
4
100
AcDbLine
 10
732.9688139136792
 20
692.6834499005417
 30
0.0
 11
732.9688139136792
 21
684.6834499005417
 31
0.0
  0
LINE
  5
383
330
17
100
AcDbEntity
  8
4
100
AcDbLine
 10
718.9688139136792
 20
692.6834499005417
 30
0.0
 11
718.9688139136792
 21
684.6834499005417
 31
0.0
  0
LINE
  5
384
330
17
100
AcDbEntity
  8
4
100
AcDbLine
 10
709.5960123378386
 20
654.6834499005417
 30
0.0
 11
717.9688139136792
 21
654.6834499005417
 31
0.0
  0
LINE
  5
385
330
17
100
AcDbEntity
  8
4
100
AcDbLine
 10
703.4195417496044
 20
674.6834499005417
 30
0.0
 11
709.5960123378386
 21
654.6834499005417
 31
0.0
  0
LINE
  5
386
330
17
100
AcDbEntity
  8
4
100
AcDbLine
 10
718.9688139136792
 20
684.6834499005417
 30
0.0
 11
732.9688139136792
 21
684.6834499005417
 31
0.0
  0
LINE
  5
387
330
17
100
AcDbEntity
  8
4
100
AcDbLine
 10
718.9688139136792
 20
692.6834499005417
 30
0.0
 11
732.9688139136792
 21
692.6834499005417
 31
0.0
  0
LINE
  5
388
330
17
100
AcDbEntity
  8
4
100
AcDbLine
 10
667.9688139136792
 20
654.6834499005417
 30
0.0
 11
676.3416154895181
 21
654.6834499005417
 31
0.0
  0
LINE
  5
389
330
17
100
AcDbEntity
  8
4
100
AcDbLine
 10
664.9688139136792
 20
662.6834499005417
 30
0.0
 11
664.9688139136792
 21
654.6834499005417
 31
0.0
  0
LINE
  5
38A
330
17
100
AcDbEntity
  8
4
100
AcDbLine
 10
676.3416154895181
 20
654.6834499005417
 30
0.0
 11
682.5180860777523
 21
674.6834499005417
 31
0.0
  0
LINE
  5
38B
330
17
100
AcDbEntity
  8
4
100
AcDbLine
 10
636.9688139136792
 20
662.6834499005417
 30
0.0
 11
664.9688139136792
 21
662.6834499005417
 31
0.0
  0
ARC
  5
38C
330
17
100
AcDbEntity
  8
4
100
AcDbCircle
 10
630.8278856332959
 20
632.0251508366323
 30
0.0
 40
10.0
100
AcDbArc
 50
279.2684651240194
 51
354.0014059169607
  0
ARC
  5
38D
330
17
100
AcDbEntity
  8
4
100
AcDbCircle
 10
638.2508374068871
 20
635.6834499005417
 30
0.0
 40
3.0
100
AcDbArc
 50
354.0014059169612
 51
90.0
  0
LINE
  5
38E
330
17
100
AcDbEntity
  8
4
100
AcDbLine
 10
640.7731302330535
 20
630.9801102388597
 30
0.0
 11
641.2344107868153
 21
635.3699377212099
 31
0.0
  0
LINE
  5
38F
330
17
100
AcDbEntity
  8
4
100
AcDbLine
 10
682.5180860777523
 20
674.6834499005417
 30
0.0
 11
703.4195417496044
 21
674.6834499005417
 31
0.0
  0
LINE
  5
390
330
17
100
AcDbEntity
  8
4
100
AcDbLine
 10
684.988674313046
 20
682.6834499005417
 30
0.0
 11
700.9489535143107
 21
682.6834499005417
 31
0.0
  0
LINE
  5
391
330
17
100
AcDbEntity
  8
4
100
AcDbLine
 10
746.9688139136792
 20
722.6834499005417
 30
0.0
 11
746.9688139136792
 21
654.6834499005417
 31
0.0
  0
LINE
  5
392
330
17
100
AcDbEntity
  8
4
100
AcDbLine
 10
738.9688139136792
 20
722.6834499005417
 30
0.0
 11
738.9688139136792
 21
654.6834499005417
 31
0.0
  0
LINE
  5
393
330
17
100
AcDbEntity
  8
4
100
AcDbLine
 10
636.9688139136792
 20
722.6834499005417
 30
0.0
 11
636.9688139136792
 21
662.6834499005417
 31
0.0
  0
LINE
  5
394
330
17
100
AcDbEntity
  8
4
100
AcDbLine
 10
667.9688139136792
 20
654.6834499005417
 30
0.0
 11
688.9688139136792
 21
722.6834499005417
 31
0.0
  0
LINE
  5
395
330
17
100
AcDbEntity
  8
4
100
AcDbLine
 10
692.9688139136792
 20
708.5239019406818
 30
0.0
 11
700.9489535143107
 21
682.6834499005417
 31
0.0
  0
LINE
  5
396
330
17
100
AcDbEntity
  8
4
100
AcDbLine
 10
684.988674313046
 20
682.6834499005417
 30
0.0
 11
692.9688139136792
 21
708.5239019406818
 31
0.0
  0
LINE
  5
397
330
17
100
AcDbEntity
  8
4
100
AcDbLine
 10
696.9688139136792
 20
722.6834499005417
 30
0.0
 11
717.9688139136792
 21
654.6834499005417
 31
0.0
  0
LINE
  5
398
330
17
100
AcDbEntity
  8
4
100
AcDbLine
 10
594.9688119136786
 20
808.6834459005413
 30
0.0
 11
594.9688119136786
 21
806.6834479005415
 31
0.0
  0
ARC
  5
399
330
17
100
AcDbEntity
  8
4
100
AcDbCircle
 10
600.9688119136786
 20
806.9104999005417
 30
0.0
 40
2.999982
100
AcDbArc
 50
180.0
 51
276.4107370000103
  0
ARC
  5
39A
330
17
100
AcDbEntity
  8
4
100
AcDbCircle
 10
615.9688139136792
 20
735.6834499005417
 30
0.0
 40
3.0
100
AcDbArc
 50
90.0
 51
180.0
  0
ARC
  5
39B
330
17
100
AcDbEntity
  8
4
100
AcDbCircle
 10
623.9688139136792
 20
727.6834499005417
 30
0.0
 40
3.0
100
AcDbArc
 50
90.0
 51
180.0
  0
LINE
  5
39C
330
17
100
AcDbEntity
  8
4
100
AcDbLine
 10
550.9688139136792
 20
808.6834459005413
 30
0.0
 11
550.9688139136792
 21
806.6834479005415
 31
0.0
  0
LINE
  5
39D
330
17
100
AcDbEntity
  8
4
100
AcDbLine
 10
547.9688139136792
 20
806.6834479005415
 30
0.0
 11
547.9688139136792
 21
799.0135279005415
 31
0.0
  0
ARC
  5
39E
330
17
100
AcDbEntity
  8
4
100
AcDbCircle
 10
544.9688139136792
 20
799.0135279005415
 30
0.0
 40
2.999946
100
AcDbArc
 50
279.6417139999876
 51
0.0
  0
LINE
  5
39F
330
17
100
AcDbEntity
  8
4
100
AcDbLine
 10
550.9688139136792
 20
806.6834479005415
 30
0.0
 11
594.9688119136786
 21
806.6834479005415
 31
0.0
  0
LINE
  5
3A0
330
17
100
AcDbEntity
  8
4
100
AcDbLine
 10
549.9688119136786
 20
808.6834459005413
 30
0.0
 11
595.9688139136792
 21
808.6834459005413
 31
0.0
  0
LINE
  5
3A1
330
17
100
AcDbEntity
  8
4
100
AcDbLine
 10
547.9688139136792
 20
806.6834479005415
 30
0.0
 11
597.9688119136786
 21
806.6834479005415
 31
0.0
  0
ARC
  5
3A2
330
17
100
AcDbEntity
  8
4
100
AcDbCircle
 10
623.9688139136792
 20
649.6834499005417
 30
0.0
 40
3.0
100
AcDbArc
 50
180.0
 51
270.0
  0
ARC
  5
3A3
330
17
100
AcDbEntity
  8
4
100
AcDbCircle
 10
602.451237913679
 20
587.5970239005414
 30
0.0
 40
1.000044
100
AcDbArc
 50
275.9972809999798
 51
351.5059010000007
  0
ARC
  5
3A4
330
17
100
AcDbEntity
  8
4
100
AcDbCircle
 10
616.418031913679
 20
610.2342319005415
 30
0.0
 40
1.999902
100
AcDbArc
 50
101.1851209999978
 51
168.8148790000028
  0
ARC
  5
3A5
330
17
100
AcDbEntity
  8
4
100
AcDbCircle
 10
610.603089913679
 20
616.0491739005415
 30
0.0
 40
1.999986
100
AcDbArc
 50
101.8627020000019
 51
168.1372979999981
  0
ARC
  5
3A6
330
17
100
AcDbEntity
  8
4
100
AcDbCircle
 10
615.9688139136792
 20
641.6834499005417
 30
0.0
 40
3.0
100
AcDbArc
 50
180.0
 51
270.0
  0
LINE
  5
3A7
330
17
100
AcDbEntity
  8
4
100
AcDbLine
 10
612.9688139136792
 20
735.6834499005417
 30
0.0
 11
612.9688139136792
 21
641.6834499005417
 31
0.0
  0
LINE
  5
3A8
330
17
100
AcDbEntity
  8
4
100
AcDbLine
 10
620.9688139136792
 20
727.6834499005417
 30
0.0
 11
620.9688139136792
 21
649.6834499005417
 31
0.0
  0
LINE
  5
3A9
330
17
100
AcDbEntity
  8
4
100
AcDbLine
 10
628.9688139136792
 20
722.6834499005417
 30
0.0
 11
628.9688139136792
 21
654.6834499005417
 31
0.0
  0
LINE
  5
3AA
330
17
100
AcDbEntity
  8
4
100
AcDbLine
 10
615.9688139136792
 20
738.6834499005417
 30
0.0
 11
649.3892566033969
 21
738.6834499005417
 31
0.0
  0
LINE
  5
3AB
330
17
100
AcDbEntity
  8
4
100
AcDbLine
 10
615.9688139136792
 20
638.6834499005417
 30
0.0
 11
638.2508374068871
 21
638.6834499005417
 31
0.0
  0
LINE
  5
3AC
330
17
100
AcDbEntity
  8
4
100
AcDbLine
 10
628.9688139136792
 20
654.6834499005417
 30
0.0
 11
664.9688139136792
 21
654.6834499005417
 31
0.0
  0
LINE
  5
3AD
330
17
100
AcDbEntity
  8
4
100
AcDbLine
 10
628.9688139136792
 20
722.6834499005417
 30
0.0
 11
636.9688139136792
 21
722.6834499005417
 31
0.0
  0
LINE
  5
3AE
330
17
100
AcDbEntity
  8
4
100
AcDbLine
 10
549.9688119136786
 20
808.6834459005413
 30
0.0
 11
549.9688119136786
 21
817.6834459005413
 31
0.0
  0
LINE
  5
3AF
330
17
100
AcDbEntity
  8
L-CENTER
 48
2.0
100
AcDbLine
 10
572.968815913679
 20
778.4204638190977
 30
0.0
 11
572.968815913679
 21
822.8052739005416
 31
0.0
  0
LINE
  5
3B0
330
17
100
AcDbEntity
  8
4
100
AcDbLine
 10
595.9688139136792
 20
808.6834459005413
 30
0.0
 11
595.9688139136792
 21
817.6834459005413
 31
0.0
  0
ARC
  5
3B1
330
17
100
AcDbEntity
  8
4
100
AcDbCircle
 10
684.9688119136786
 20
812.7925819005416
 30
0.0
 40
2.999976
100
AcDbArc
 50
271.5995520000048
 51
0.0
  0
ARC
  5
3B2
330
17
100
AcDbEntity
  8
4
100
AcDbCircle
 10
740.968815913679
 20
812.7925819005416
 30
0.0
 40
2.999976
100
AcDbArc
 50
180.0
 51
268.4004479999952
  0
ARC
  5
3B3
330
17
100
AcDbEntity
  8
4
100
AcDbCircle
 10
712.9688139136792
 20
863.6834479005415
 30
0.0
 40
44.99995799999999
100
AcDbArc
 50
299.6975339999996
 51
240.3031599999997
  0
ARC
  5
3B4
330
17
100
AcDbEntity
  8
4
100
AcDbCircle
 10
712.9688139136792
 20
121.6834459005415
 30
0.0
 40
499.9999800000001
100
AcDbArc
 50
78.82099100000002
 51
101.1791000000001
  0
ARC
  5
3B5
330
17
100
AcDbEntity
  8
4
100
AcDbCircle
 10
712.9688139136792
 20
128.6834479005415
 30
0.0
 40
500.000016
100
AcDbArc
 50
78.13814300000011
 51
101.8618870000001
  0
LINE
  5
3B6
330
17
100
AcDbEntity
  8
L-CENTER
 48
2.0
100
AcDbLine
 10
652.361989737718
 20
863.6834479005415
 30
0.0
 11
773.5756380896396
 21
863.6834479005415
 31
0.0
  0
LINE
  5
3B7
330
17
100
AcDbEntity
  8
4
100
AcDbLine
 10
801.9688139136792
 20
730.6834499005417
 30
0.0
 11
623.9688139136792
 21
730.6834499005417
 31
0.0
  0
LINE
  5
3B8
330
17
100
AcDbEntity
  8
4
100
AcDbLine
 10
801.9688139136792
 20
646.6834499005417
 30
0.0
 11
623.9688139136792
 21
646.6834499005417
 31
0.0
  0
LINE
  5
3BA
330
17
100
AcDbEntity
  8
L-CENTER
 48
2.0
100
AcDbLine
 10
532.9688139136792
 20
1390.733295598586
 30
0.0
 11
532.9688139136792
 21
1336.133295598586
 31
0.0
  0
LINE
  5
3BB
330
17
100
AcDbEntity
  8
L-CENTER
 48
2.0
100
AcDbLine
 10
712.9688139136792
 20
1308.433295598586
 30
0.0
 11
712.9688139136792
 21
1885.784667565742
 31
0.0
  0
LINE
  5
3BC
330
17
100
AcDbEntity
  8
L-CENTER
 48
2.0
100
AcDbLine
 10
892.9688139136792
 20
1390.733295598586
 30
0.0
 11
892.9688139136792
 21
1336.133295598586
 31
0.0
  0
LINE
  5
3BD
330
17
100
AcDbEntity
  8
4
100
AcDbLine
 10
986.9688139136792
 20
1369.433295598586
 30
0.0
 11
986.9688139136792
 21
1333.433295598586
 31
0.0
  0
LINE
  5
3BE
330
17
100
AcDbEntity
  8
4
100
AcDbLine
 10
604.5703380916889
 20
1324.913348651691
 30
0.0
 11
598.3072936769927
 21
1348.176085049137
 31
0.0
  0
LINE
  5
3BF
330
17
100
AcDbEntity
  8
4
100
AcDbLine
 10
821.3672897356678
 20
1324.913348651691
 30
0.0
 11
827.6303341503658
 21
1348.176085049137
 31
0.0
  0
ARC
  5
3C0
330
17
100
AcDbEntity
  8
4
100
AcDbCircle
 10
448.9688139136788
 20
1693.433295598586
 30
0.0
 40
10.0
100
AcDbArc
 50
90.0
 51
180.0
  0
LINE
  5
3C1
330
17
100
AcDbEntity
  8
4
100
AcDbLine
 10
482.9688139136788
 20
1663.490568303128
 30
0.0
 11
482.9688139136788
 21
1672.733295598586
 31
0.0
  0
LINE
  5
3C2
330
17
100
AcDbEntity
  8
4
100
AcDbLine
 10
445.4384690282814
 20
1669.59611468796
 30
0.0
 11
445.4384690282814
 21
1659.733295598586
 31
0.0
  0
LINE
  5
3C3
330
17
100
AcDbEntity
  8
4
100
AcDbLine
 10
419.4688139136788
 20
1629.433295598586
 30
0.0
 11
419.4688139136788
 21
1632.433295598586
 31
0.0
  0
LINE
  5
3C4
330
17
100
AcDbEntity
  8
4
100
AcDbLine
 10
417.4688139136783
 20
1632.733295598586
 30
0.0
 11
417.4688139136783
 21
1658.733295598586
 31
0.0
  0
ARC
  5
3C5
330
17
100
AcDbEntity
  8
4
100
AcDbCircle
 10
418.4688139136779
 20
1658.733295598586
 30
0.0
 40
1.0
100
AcDbArc
 50
90.0
 51
180.0
  0
LINE
  5
3C6
330
17
100
AcDbEntity
  8
4
100
AcDbLine
 10
423.4991587990753
 20
1659.733295598586
 30
0.0
 11
423.4991587990753
 21
1669.59611468796
 31
0.0
  0
ARC
  5
3C7
330
17
100
AcDbEntity
  8
4
100
AcDbCircle
 10
426.2415725777259
 20
1666.857916723308
 30
0.0
 40
3.875378875279264
100
AcDbArc
 50
44.95592676274281
 51
135.044073237256
  0
ARC
  5
3C8
330
17
100
AcDbEntity
  8
4
100
AcDbCircle
 10
434.4688139136774
 20
1656.93755146341
 30
0.0
 40
13.7957441351769
100
AcDbArc
 50
66.57340249137077
 51
113.4265975086273
  0
LINE
  5
3C9
330
17
100
AcDbEntity
  8
4
100
AcDbLine
 10
426.2415725777264
 20
1670.733295598586
 30
0.0
 11
442.6960552496303
 21
1670.733295598586
 31
0.0
  0
LINE
  5
3CA
330
17
100
AcDbEntity
  8
4
100
AcDbLine
 10
439.9536414709801
 20
1669.59611468796
 30
0.0
 11
439.9536414709801
 21
1662.733295598586
 31
0.0
  0
LINE
  5
3CB
330
17
100
AcDbEntity
  8
4
100
AcDbLine
 10
428.9839863563766
 20
1669.59611468796
 30
0.0
 11
428.9839863563766
 21
1662.733295598586
 31
0.0
  0
ARC
  5
3CC
330
17
100
AcDbEntity
  8
4
100
AcDbCircle
 10
401.6688139136786
 20
1626.933295598586
 30
0.0
 40
1.0
100
AcDbArc
 50
90.0
 51
180.0
  0
LINE
  5
3CD
330
17
100
AcDbEntity
  8
4
100
AcDbLine
 10
416.4688139136788
 20
1627.933295598587
 30
0.0
 11
401.6688139136786
 21
1627.933295598586
 31
0.0
  0
LINE
  5
3CE
330
17
100
AcDbEntity
  8
4
100
AcDbLine
 10
390.8059948243053
 20
1573.153213969337
 30
0.0
 11
400.6688139136786
 21
1573.153213969337
 31
0.0
  0
LINE
  5
3CF
330
17
100
AcDbEntity
  8
4
100
AcDbLine
 10
390.8059948243053
 20
1616.418123155888
 30
0.0
 11
397.6688139136786
 21
1616.418123155888
 31
0.0
  0
LINE
  5
3D0
330
17
100
AcDbEntity
  8
4
100
AcDbLine
 10
390.8059948243053
 20
1621.902950713189
 30
0.0
 11
400.6688139136786
 21
1621.902950713189
 31
0.0
  0
ARC
  5
3D1
330
17
100
AcDbEntity
  8
4
100
AcDbCircle
 10
393.5441927889578
 20
1619.160536934539
 30
0.0
 40
3.875378875279244
100
AcDbArc
 50
134.9559267627464
 51
225.0440732372536
  0
LINE
  5
3D2
330
17
100
AcDbEntity
  8
4
100
AcDbLine
 10
390.8059948243053
 20
1605.448468041285
 30
0.0
 11
397.6688139136786
 21
1605.448468041285
 31
0.0
  0
LINE
  5
3D3
330
17
100
AcDbEntity
  8
4
100
AcDbLine
 10
400.6688139136786
 20
1599.963640483984
 30
0.0
 11
390.8059948243053
 21
1599.963640483984
 31
0.0
  0
ARC
  5
3D4
330
17
100
AcDbEntity
  8
4
100
AcDbCircle
 10
393.5441927889578
 20
1602.706054262634
 30
0.0
 40
3.875378875279264
100
AcDbArc
 50
134.9559267627464
 51
225.0440732372536
  0
LINE
  5
3D5
330
17
100
AcDbEntity
  8
4
100
AcDbLine
 10
400.6688139136786
 20
1621.902950713189
 30
0.0
 11
400.6688139136786
 21
1599.963640483984
 31
0.0
  0
LINE
  5
3D6
330
17
100
AcDbEntity
  8
4
100
AcDbLine
 10
389.6688139136786
 20
1602.706054262634
 30
0.0
 11
389.6688139136786
 21
1619.160536934539
 31
0.0
  0
LINE
  5
3D7
330
17
100
AcDbEntity
  8
4
100
AcDbLine
 10
397.6688139136786
 20
1621.902950713189
 30
0.0
 11
397.6688139136786
 21
1599.963640483984
 31
0.0
  0
ARC
  5
3D8
330
17
100
AcDbEntity
  8
4
100
AcDbCircle
 10
403.4645580488559
 20
1610.933295598586
 30
0.0
 40
13.7957441351769
100
AcDbArc
 50
156.5734024913727
 51
203.4265975086273
  0
LINE
  5
3D9
330
17
100
AcDbEntity
  8
L-CENTER
 48
2.0
100
AcDbLine
 10
434.4688139136779
 20
1674.334135478691
 30
0.0
 11
434.4688139136779
 21
1620.056681840645
 31
0.0
  0
LINE
  5
3DA
330
17
100
AcDbEntity
  8
4
100
AcDbLine
 10
445.4384690282814
 20
1659.733295598586
 30
0.0
 11
423.4991587990753
 21
1659.733295598586
 31
0.0
  0
ARC
  5
3DB
330
17
100
AcDbEntity
  8
4
100
AcDbCircle
 10
442.6960552496298
 20
1666.857916723308
 30
0.0
 40
3.875378875279244
100
AcDbArc
 50
44.95592676274341
 51
135.044073237256
  0
LINE
  5
3DC
330
17
100
AcDbEntity
  8
4
100
AcDbLine
 10
445.4384690282814
 20
1662.733295598586
 30
0.0
 11
423.4991587990753
 21
1662.733295598586
 31
0.0
  0
LINE
  5
3DD
330
17
100
AcDbEntity
  8
4
100
AcDbLine
 10
438.9688139136788
 20
1693.433295598586
 30
0.0
 11
438.9688139136788
 21
1670.733295598586
 31
0.0
  0
LINE
  5
3DE
330
17
100
AcDbEntity
  8
L-CENTER
 48
2.0
100
AcDbLine
 10
382.6486719136788
 20
1610.933295598586
 30
0.0
 11
454.3851219136786
 21
1610.933295598586
 31
0.0
  0
ARC
  5
3DF
330
17
100
AcDbEntity
  8
4
100
AcDbCircle
 10
403.4645580488559
 20
1562.183558854734
 30
0.0
 40
13.7957441351769
100
AcDbArc
 50
156.5734024913727
 51
203.4265975086273
  0
ARC
  5
3E0
330
17
100
AcDbEntity
  8
4
100
AcDbCircle
 10
393.5441927889578
 20
1553.956317518782
 30
0.0
 40
3.875378875279264
100
AcDbArc
 50
134.9559267627464
 51
225.0440732372536
  0
LINE
  5
3E1
330
17
100
AcDbEntity
  8
4
100
AcDbLine
 10
400.6688139136786
 20
1551.213903740131
 30
0.0
 11
390.8059948243053
 21
1551.213903740131
 31
0.0
  0
LINE
  5
3E2
330
17
100
AcDbEntity
  8
4
100
AcDbLine
 10
390.8059948243053
 20
1556.698731297432
 30
0.0
 11
397.6688139136786
 21
1556.698731297432
 31
0.0
  0
LINE
  5
3E3
330
17
100
AcDbEntity
  8
4
100
AcDbLine
 10
390.8059948243053
 20
1567.668386412035
 30
0.0
 11
397.6688139136786
 21
1567.668386412035
 31
0.0
  0
LINE
  5
3E4
330
17
100
AcDbEntity
  8
4
100
AcDbLine
 10
390.8059948243053
 20
1459.198204785137
 30
0.0
 11
397.6688139136786
 21
1459.198204785137
 31
0.0
  0
LINE
  5
3E5
330
17
100
AcDbEntity
  8
4
100
AcDbLine
 10
390.8059948243053
 20
1470.16785989974
 30
0.0
 11
397.6688139136786
 21
1470.16785989974
 31
0.0
  0
LINE
  5
3E6
330
17
100
AcDbEntity
  8
4
100
AcDbLine
 10
400.6688139136786
 20
1475.652687457042
 30
0.0
 11
390.8059948243053
 21
1475.652687457042
 31
0.0
  0
ARC
  5
3E7
330
17
100
AcDbEntity
  8
4
100
AcDbCircle
 10
393.5441927889578
 20
1472.910273678391
 30
0.0
 40
3.875378875279264
100
AcDbArc
 50
134.9559267627464
 51
225.0440732372536
  0
LINE
  5
3E8
330
17
100
AcDbEntity
  8
4
100
AcDbLine
 10
389.6688139136786
 20
1472.910273678391
 30
0.0
 11
389.6688139136786
 21
1456.455791006487
 31
0.0
  0
ARC
  5
3E9
330
17
100
AcDbEntity
  8
4
100
AcDbCircle
 10
403.4645580488559
 20
1464.683032342439
 30
0.0
 40
13.7957441351769
100
AcDbArc
 50
156.5734024913727
 51
203.4265975086273
  0
ARC
  5
3EA
330
17
100
AcDbEntity
  8
4
100
AcDbCircle
 10
401.6688139136786
 20
1399.933295598587
 30
0.0
 40
1.0
100
AcDbArc
 50
180.0
 51
270.0
  0
LINE
  5
3EB
330
17
100
AcDbEntity
  8
4
100
AcDbLine
 10
390.8059948243053
 20
1453.713377227836
 30
0.0
 11
400.6688139136786
 21
1453.713377227836
 31
0.0
  0
LINE
  5
3EC
330
17
100
AcDbEntity
  8
4
100
AcDbLine
 10
397.6688139136786
 20
1404.963640483983
 30
0.0
 11
397.6688139136786
 21
1426.902950713189
 31
0.0
  0
LINE
  5
3ED
330
17
100
AcDbEntity
  8
4
100
AcDbLine
 10
400.6688139136786
 20
1404.963640483983
 30
0.0
 11
400.6688139136786
 21
1426.902950713189
 31
0.0
  0
ARC
  5
3EE
330
17
100
AcDbEntity
  8
4
100
AcDbCircle
 10
393.5441927889578
 20
1407.706054262634
 30
0.0
 40
3.875378875279244
100
AcDbArc
 50
134.9559267627464
 51
225.0440732372536
  0
ARC
  5
3EF
330
17
100
AcDbEntity
  8
4
100
AcDbCircle
 10
403.4645580488559
 20
1415.933295598586
 30
0.0
 40
13.7957441351769
100
AcDbArc
 50
156.5734024913727
 51
203.4265975086273
  0
LINE
  5
3F0
330
17
100
AcDbEntity
  8
4
100
AcDbLine
 10
389.6688139136786
 20
1424.160536934538
 30
0.0
 11
389.6688139136786
 21
1407.706054262634
 31
0.0
  0
ARC
  5
3F1
330
17
100
AcDbEntity
  8
4
100
AcDbCircle
 10
393.5441927889578
 20
1424.160536934538
 30
0.0
 40
3.875378875279264
100
AcDbArc
 50
134.9559267627464
 51
225.0440732372536
  0
LINE
  5
3F2
330
17
100
AcDbEntity
  8
4
100
AcDbLine
 10
400.6688139136786
 20
1426.902950713189
 30
0.0
 11
390.8059948243053
 21
1426.902950713189
 31
0.0
  0
LINE
  5
3F3
330
17
100
AcDbEntity
  8
4
100
AcDbLine
 10
390.8059948243053
 20
1421.418123155888
 30
0.0
 11
397.6688139136786
 21
1421.418123155888
 31
0.0
  0
LINE
  5
3F4
330
17
100
AcDbEntity
  8
4
100
AcDbLine
 10
390.8059948243053
 20
1410.448468041285
 30
0.0
 11
397.6688139136786
 21
1410.448468041285
 31
0.0
  0
LINE
  5
3F5
330
17
100
AcDbEntity
  8
4
100
AcDbLine
 10
390.8059948243053
 20
1404.963640483983
 30
0.0
 11
400.6688139136786
 21
1404.963640483983
 31
0.0
  0
LINE
  5
3F6
330
17
100
AcDbEntity
  8
4
100
AcDbLine
 10
416.4688139136788
 20
1398.933295598586
 30
0.0
 11
401.6688139136786
 21
1398.933295598587
 31
0.0
  0
LINE
  5
3F7
330
17
100
AcDbEntity
  8
4
100
AcDbLine
 10
419.4688139136788
 20
1369.433295598586
 30
0.0
 11
419.4688139136788
 21
1397.433295598586
 31
0.0
  0
ARC
  5
3F8
330
17
100
AcDbEntity
  8
4
100
AcDbCircle
 10
393.5441927889578
 20
1456.455791006487
 30
0.0
 40
3.875378875279244
100
AcDbArc
 50
134.9559267627464
 51
225.0440732372536
  0
LINE
  5
3F9
330
17
100
AcDbEntity
  8
4
100
AcDbLine
 10
400.6688139136786
 20
1453.713377227836
 30
0.0
 11
400.6688139136786
 21
1475.652687457042
 31
0.0
  0
LINE
  5
3FA
330
17
100
AcDbEntity
  8
4
100
AcDbLine
 10
397.6688139136786
 20
1453.713377227836
 30
0.0
 11
397.6688139136786
 21
1475.652687457042
 31
0.0
  0
LINE
  5
3FB
330
17
100
AcDbEntity
  8
L-CENTER
 48
2.0
100
AcDbLine
 10
382.6486719136788
 20
1562.183558854734
 30
0.0
 11
454.3851219136791
 21
1562.183558854734
 31
0.0
  0
LINE
  5
3FC
330
17
100
AcDbEntity
  8
L-CENTER
 48
2.0
100
AcDbLine
 10
382.6486719136788
 20
1415.933295598586
 30
0.0
 11
454.3851219136786
 21
1415.933295598586
 31
0.0
  0
LINE
  5
3FD
330
17
100
AcDbEntity
  8
L-CENTER
 48
2.0
100
AcDbLine
 10
382.6486719136788
 20
1464.683032342439
 30
0.0
 11
454.3851219136791
 21
1464.683032342439
 31
0.0
  0
LINE
  5
3FE
330
17
100
AcDbEntity
  8
4
100
AcDbLine
 10
416.4688139136788
 20
1397.433295598586
 30
0.0
 11
416.4688139136788
 21
1629.433295598586
 31
0.0
  0
LINE
  5
3FF
330
17
100
AcDbEntity
  8
4
100
AcDbLine
 10
400.6688139136786
 20
1399.933295598587
 30
0.0
 11
400.6688139136786
 21
1626.933295598586
 31
0.0
  0
LINE
  5
400
330
17
100
AcDbEntity
  8
4
100
AcDbLine
 10
397.6688139136786
 20
1573.153213969337
 30
0.0
 11
397.6688139136786
 21
1551.213903740131
 31
0.0
  0
LINE
  5
401
330
17
100
AcDbEntity
  8
4
100
AcDbLine
 10
389.6688139136786
 20
1553.956317518782
 30
0.0
 11
389.6688139136786
 21
1570.410800190686
 31
0.0
  0
LINE
  5
402
330
17
100
AcDbEntity
  8
4
100
AcDbLine
 10
400.6688139136786
 20
1573.153213969337
 30
0.0
 11
400.6688139136786
 21
1551.213903740131
 31
0.0
  0
ARC
  5
403
330
17
100
AcDbEntity
  8
4
100
AcDbCircle
 10
393.5441927889578
 20
1570.410800190686
 30
0.0
 40
3.875378875279244
100
AcDbArc
 50
134.9559267627464
 51
225.0440732372536
  0
ARC
  5
404
330
17
100
AcDbEntity
  8
4
100
AcDbCircle
 10
448.9688139136788
 20
1333.433295598586
 30
0.0
 40
10.0
100
AcDbArc
 50
180.0
 51
270.0
  0
ARC
  5
407
330
17
100
AcDbEntity
  8
4
100
AcDbCircle
 10
455.3877579136788
 20
771.2645059005415
 30
0.0
 40
5.000052
100
AcDbArc
 50
105.0038550000012
 51
164.9961419999994
  0
LINE
  5
409
330
17
100
AcDbEntity
  8
4
100
AcDbLine
 10
438.9688139136788
 20
1369.433295598586
 30
0.0
 11
438.9688139136788
 21
1333.433295598586
 31
0.0
  0
ARC
  5
40A
330
17
100
AcDbEntity
  8
4
100
AcDbCircle
 10
712.9688139136792
 20
-189.8165500994585
 30
0.0
 40
999.9999660000001
100
AcDbArc
 50
74.99662500000004
 51
105.00351
  0
LINE
  5
40D
330
17
100
AcDbEntity
  8
4
100
AcDbLine
 10
1006.468813913679
 20
1632.433295598586
 30
0.0
 11
419.4688139136788
 21
1632.433295598586
 31
0.0
  0
LINE
  5
40E
330
17
100
AcDbEntity
  8
4
100
AcDbLine
 10
1006.468813913679
 20
1369.433295598586
 30
0.0
 11
419.4688139136788
 21
1369.433295598586
 31
0.0
  0
LINE
  5
40F
330
17
100
AcDbEntity
  8
4
100
AcDbLine
 10
448.9688139136788
 20
1323.433295598586
 30
0.0
 11
612.9688139136792
 21
1323.433295598586
 31
0.0
  0
LINE
  5
410
330
17
100
AcDbEntity
  8
L-CENTER
 48
2.0
100
AcDbLine
 10
1175.424246577047
 20
1513.433295598586
 30
0.0
 11
250.5133812503113
 21
1513.433295598586
 31
0.0
  0
LINE
  5
411
330
17
100
AcDbEntity
  8
L-CENTER
 48
2.0
100
AcDbLine
 10
560.2688139136785
 20
1363.433295598586
 30
0.0
 11
505.6688139136782
 21
1363.433295598586
 31
0.0
  0
LINE
  5
412
330
17
100
AcDbEntity
  8
L-CENTER
 48
2.0
100
AcDbLine
 10
560.2688139136803
 20
1663.433295598586
 30
0.0
 11
505.66881391368
 21
1663.433295598586
 31
0.0
  0
LINE
  5
413
330
17
100
AcDbEntity
  8
4
100
AcDbLine
 10
605.0210489183496
 20
1703.433295598586
 30
0.0
 11
448.9688139136788
 21
1703.433295598586
 31
0.0
  0
LINE
  5
414
330
17
100
AcDbEntity
  8
4
100
AcDbLine
 10
1009.468813913679
 20
1629.433295598587
 30
0.0
 11
416.4688139136788
 21
1629.433295598586
 31
0.0
  0
LINE
  5
415
330
17
100
AcDbEntity
  8
4
100
AcDbLine
 10
1009.468813913678
 20
1397.433295598586
 30
0.0
 11
416.4688139136788
 21
1397.433295598586
 31
0.0
  0
LINE
  5
416
330
17
100
AcDbEntity
  8
4
100
AcDbLine
 10
418.4688139136783
 20
1659.733295598586
 30
0.0
 11
1007.468813913678
 21
1659.733295598586
 31
0.0
  0
LINE
  5
417
330
17
100
AcDbEntity
  8
4
100
AcDbLine
 10
417.4688139136783
 20
1632.733295598586
 30
0.0
 11
1008.468813913679
 21
1632.733295598586
 31
0.0
  0
LINE
  5
418
330
17
100
AcDbEntity
  8
4
100
AcDbLine
 10
470.6830996279623
 20
1659.733295598586
 30
0.0
 11
596.6610032677122
 21
1677.548352678956
 31
0.0
  0
LINE
  5
419
330
17
100
AcDbEntity
  8
4
100
AcDbLine
 10
456.3995283601266
 20
1659.733295598586
 30
0.0
 11
597.6887719042256
 21
1679.713592665428
 31
0.0
  0
LINE
  5
41A
330
17
100
AcDbEntity
  8
4
100
AcDbLine
 10
532.9688139136792
 20
1672.733295598586
 30
0.0
 11
482.9688139136788
 21
1672.733295598586
 31
0.0
  0
LINE
  5
41B
330
17
100
AcDbEntity
  8
4
100
AcDbLine
 10
468.8383791310703
 20
1369.433295598586
 30
0.0
 11
596.6821766180296
 21
1349.632572755488
 31
0.0
  0
LINE
  5
41C
330
17
100
AcDbEntity
  8
4
100
AcDbLine
 10
455.7713713683306
 20
1369.433295598586
 30
0.0
 11
598.5374053325445
 21
1347.321384614231
 31
0.0
  0
LINE
  5
41F
330
17
100
AcDbEntity
  8
4
100
AcDbLine
 10
1162.968813913679
 20
249.1834459005415
 30
0.0
 11
1161.968811913679
 21
250.1834479005415
 31
0.0
  0
LINE
  5
421
330
17
100
AcDbEntity
  8
4
100
AcDbLine
 10
1161.968811913679
 20
187.1834479005415
 30
0.0
 11
1162.968813913679
 21
188.1834499005415
 31
0.0
  0
LINE
  5
423
330
17
100
AcDbEntity
  8
4
100
AcDbLine
 10
1161.968811913679
 20
187.1834479005415
 30
0.0
 11
1161.968811913679
 21
250.1834479005415
 31
0.0
  0
LINE
  5
424
330
17
100
AcDbEntity
  8
4
100
AcDbLine
 10
1162.968813913679
 20
256.1834479005415
 30
0.0
 11
1162.968813913679
 21
188.1834499005415
 31
0.0
  0
ARC
  5
425
330
17
100
AcDbEntity
  8
4
100
AcDbCircle
 10
1032.493335038399
 20
311.3479452364938
 30
0.0
 40
3.875378875279244
100
AcDbArc
 50
314.9559267627428
 51
45.04407323725719
  0
ARC
  5
426
330
17
100
AcDbEntity
  8
4
100
AcDbCircle
 10
1024.368717913679
 20
332.1834499005415
 30
0.0
 40
1.000002
100
AcDbArc
 50
0.0
 51
90.0
  0
LINE
  5
427
330
17
100
AcDbEntity
  8
4
100
AcDbLine
 10
1035.231533003052
 20
314.0903590151445
 30
0.0
 11
1025.368713913679
 21
314.0903590151445
 31
0.0
  0
LINE
  5
428
330
17
100
AcDbEntity
  8
4
100
AcDbLine
 10
1035.231533003052
 20
308.6055314578432
 30
0.0
 11
1028.368713913679
 21
308.6055314578432
 31
0.0
  0
LINE
  5
429
330
17
100
AcDbEntity
  8
4
100
AcDbLine
 10
1052.968815913679
 20
256.1834479005415
 30
0.0
 11
1052.968815913679
 21
250.1834479005415
 31
0.0
  0
ARC
  5
42A
330
17
100
AcDbEntity
  8
4
100
AcDbCircle
 10
1032.493335038399
 20
294.8934625645895
 30
0.0
 40
3.875378875279264
100
AcDbArc
 50
314.955926762744
 51
45.04407323725719
  0
LINE
  5
42B
330
17
100
AcDbEntity
  8
4
100
AcDbLine
 10
1026.368713913679
 20
263.6834479005415
 30
0.0
 11
1025.368713913679
 21
263.6834479005415
 31
0.0
  0
LINE
  5
42C
330
17
100
AcDbEntity
  8
4
100
AcDbLine
 10
1042.968813913679
 20
251.1834499005415
 30
0.0
 11
1026.368715913678
 21
251.1834499005415
 31
0.0
  0
LINE
  5
42D
330
17
100
AcDbEntity
  8
4
100
AcDbLine
 10
1025.368713913679
 20
292.1510487859389
 30
0.0
 11
1035.231533003052
 21
292.1510487859389
 31
0.0
  0
LINE
  5
42E
330
17
100
AcDbEntity
  8
4
100
AcDbLine
 10
1035.231533003052
 20
297.6358763432402
 30
0.0
 11
1028.368713913679
 21
297.6358763432402
 31
0.0
  0
ARC
  5
42F
330
17
100
AcDbEntity
  8
4
100
AcDbCircle
 10
1022.572969778501
 20
303.1207039005415
 30
0.0
 40
13.7957441351769
100
AcDbArc
 50
336.5734024913738
 51
23.42659750862626
  0
LINE
  5
430
330
17
100
AcDbEntity
  8
4
100
AcDbLine
 10
1028.368713913679
 20
314.0903590151445
 30
0.0
 11
1028.368713913679
 21
292.1510487859389
 31
0.0
  0
LINE
  5
431
330
17
100
AcDbEntity
  8
4
100
AcDbLine
 10
1036.368713913679
 20
294.8934625645895
 30
0.0
 11
1036.368713913679
 21
311.3479452364938
 31
0.0
  0
LINE
  5
432
330
17
100
AcDbEntity
  8
4
100
AcDbLine
 10
1025.368713913679
 20
314.0903590151445
 30
0.0
 11
1025.368713913679
 21
292.1510487859389
 31
0.0
  0
ARC
  5
433
330
17
100
AcDbEntity
  8
4
100
AcDbCircle
 10
1022.572969778501
 20
218.6834479005415
 30
0.0
 40
13.7957441351769
100
AcDbArc
 50
336.5734024913738
 51
23.42659750862626
  0
LINE
  5
434
330
17
100
AcDbEntity
  8
4
100
AcDbLine
 10
1036.368713913679
 20
210.4562065645896
 30
0.0
 11
1036.368713913679
 21
226.9106892364939
 31
0.0
  0
ARC
  5
435
330
17
100
AcDbEntity
  8
4
100
AcDbCircle
 10
1032.493335038399
 20
210.4562065645896
 30
0.0
 40
3.875378875279264
100
AcDbArc
 50
314.955926762744
 51
45.04407323725601
  0
ARC
  5
436
330
17
100
AcDbEntity
  8
4
100
AcDbCircle
 10
1032.493335038399
 20
226.9106892364939
 30
0.0
 40
3.875378875279244
100
AcDbArc
 50
314.955926762744
 51
45.04407323725601
  0
LINE
  5
437
330
17
100
AcDbEntity
  8
4
100
AcDbLine
 10
1028.368713913679
 20
229.6531030151446
 30
0.0
 11
1028.368713913679
 21
207.7137927859389
 31
0.0
  0
LINE
  5
438
330
17
100
AcDbEntity
  8
4
100
AcDbLine
 10
1025.368713913679
 20
229.6531030151446
 30
0.0
 11
1025.368713913679
 21
207.7137927859389
 31
0.0
  0
LINE
  5
439
330
17
100
AcDbEntity
  8
4
100
AcDbLine
 10
1025.368713913679
 20
207.7137927859389
 30
0.0
 11
1035.231533003052
 21
207.7137927859389
 31
0.0
  0
LINE
  5
43A
330
17
100
AcDbEntity
  8
4
100
AcDbLine
 10
1035.231533003052
 20
213.1986203432402
 30
0.0
 11
1028.368713913679
 21
213.1986203432402
 31
0.0
  0
LINE
  5
43B
330
17
100
AcDbEntity
  8
4
100
AcDbLine
 10
1035.231533003052
 20
229.6531030151446
 30
0.0
 11
1025.368713913679
 21
229.6531030151446
 31
0.0
  0
LINE
  5
43C
330
17
100
AcDbEntity
  8
4
100
AcDbLine
 10
1035.231533003052
 20
224.1682754578433
 30
0.0
 11
1028.368713913679
 21
224.1682754578433
 31
0.0
  0
ARC
  5
43D
330
17
100
AcDbEntity
  8
4
100
AcDbCircle
 10
1032.493335038399
 20
142.4734332364939
 30
0.0
 40
3.875378875279244
100
AcDbArc
 50
314.955926762744
 51
45.04407323725601
  0
LINE
  5
43E
330
17
100
AcDbEntity
  8
4
100
AcDbLine
 10
1026.368713913679
 20
173.6834479005414
 30
0.0
 11
1025.368713913679
 21
173.6834479005414
 31
0.0
  0
LINE
  5
43F
330
17
100
AcDbEntity
  8
4
100
AcDbLine
 10
1042.968813913679
 20
186.1834459005415
 30
0.0
 11
1026.368715913678
 21
186.1834459005415
 31
0.0
  0
LINE
  5
440
330
17
100
AcDbEntity
  8
4
100
AcDbLine
 10
1035.231533003052
 20
145.2158470151445
 30
0.0
 11
1025.368713913679
 21
145.2158470151445
 31
0.0
  0
LINE
  5
441
330
17
100
AcDbEntity
  8
4
100
AcDbLine
 10
1035.231533003052
 20
139.7310194578432
 30
0.0
 11
1028.368713913679
 21
139.7310194578432
 31
0.0
  0
LINE
  5
442
330
17
100
AcDbEntity
  8
4
100
AcDbLine
 10
1026.368713913679
 20
207.7137927859388
 30
0.0
 11
1026.368713913679
 21
173.6834479005414
 31
0.0
  0
LINE
  5
443
330
17
100
AcDbEntity
  8
4
100
AcDbLine
 10
1042.968813913679
 20
251.1834499005415
 30
0.0
 11
1042.968813913679
 21
186.1834459005415
 31
0.0
  0
LINE
  5
444
330
17
100
AcDbEntity
  8
4
100
AcDbLine
 10
1026.368713913679
 20
263.6834479005416
 30
0.0
 11
1026.368713913679
 21
229.6531030151446
 31
0.0
  0
LINE
  5
445
330
17
100
AcDbEntity
  8
4
100
AcDbLine
 10
1162.968813913679
 20
256.1834479005415
 30
0.0
 11
1052.968815913679
 21
256.1834479005415
 31
0.0
  0
LINE
  5
446
330
17
100
AcDbEntity
  8
4
100
AcDbLine
 10
1042.968813913679
 20
250.1834479005415
 30
0.0
 11
1161.968811913679
 21
250.1834479005415
 31
0.0
  0
LINE
  5
447
330
17
100
AcDbEntity
  8
4
100
AcDbLine
 10
1042.968813913679
 20
187.1834479005415
 30
0.0
 11
1161.968811913679
 21
187.1834479005415
 31
0.0
  0
ARC
  5
451
330
17
100
AcDbEntity
  8
4
100
AcDbCircle
 10
1032.493335038399
 20
126.0189505645895
 30
0.0
 40
3.875378875279264
100
AcDbArc
 50
314.955926762744
 51
45.04407323725601
  0
ARC
  5
452
330
17
100
AcDbEntity
  8
4
100
AcDbCircle
 10
1024.368717913679
 20
105.1834459005415
 30
0.0
 40
1.000002
100
AcDbArc
 50
270.0
 51
0.0
  0
LINE
  5
453
330
17
100
AcDbEntity
  8
4
100
AcDbLine
 10
1025.368713913679
 20
123.2765367859389
 30
0.0
 11
1035.231533003052
 21
123.2765367859389
 31
0.0
  0
LINE
  5
454
330
17
100
AcDbEntity
  8
4
100
AcDbLine
 10
1035.231533003052
 20
128.7613643432402
 30
0.0
 11
1028.368713913679
 21
128.7613643432402
 31
0.0
  0
TEXT
  5
456
330
17
100
AcDbEntity
  8
3
100
AcDbText
 10
1242.693808417479
 20
20.39460434413104
 30
0.0
 40
21.86125196538633
  1
LA10-04
  7
KANJI
100
AcDbText
  0
LINE
  5
457
330
17
100
AcDbEntity
  8
4
100
AcDbLine
 10
1025.368713913679
 20
332.1834499005415
 30
0.0
 11
1025.368713913679
 21
105.1834459005415
 31
0.0
  0
LINE
  5
458
330
17
100
AcDbEntity
  8
4
100
AcDbLine
 10
1004.968815913679
 20
333.1834459005415
 30
0.0
 11
1004.968815913679
 21
104.1834499005415
 31
0.0
  0
ARC
  5
459
330
17
100
AcDbEntity
  8
4
100
AcDbCircle
 10
1022.572969778501
 20
134.2461919005415
 30
0.0
 40
13.7957441351769
100
AcDbArc
 50
336.5734024913738
 51
23.42659750862626
  0
LINE
  5
45A
330
17
100
AcDbEntity
  8
4
100
AcDbLine
 10
1028.368713913679
 20
145.2158470151445
 30
0.0
 11
1028.368713913679
 21
123.2765367859389
 31
0.0
  0
LINE
  5
45B
330
17
100
AcDbEntity
  8
4
100
AcDbLine
 10
1036.368713913679
 20
126.0189505645895
 30
0.0
 11
1036.368713913679
 21
142.4734332364939
 31
0.0
  0
LINE
  5
45C
330
17
100
AcDbEntity
  8
4
100
AcDbLine
 10
1025.368713913679
 20
145.2158470151445
 30
0.0
 11
1025.368713913679
 21
123.2765367859389
 31
0.0
  0
ARC
  5
45D
330
17
100
AcDbEntity
  8
4
100
AcDbCircle
 10
964.9370739136789
 20
575.7498559005414
 30
0.0
 40
3.999918
100
AcDbArc
 50
264.0019730000074
 51
13.83946400000168
  0
ARC
  5
45E
330
17
100
AcDbEntity
  8
4
100
AcDbCircle
 10
964.9370739136789
 20
451.6170439005416
 30
0.0
 40
3.999918
100
AcDbArc
 50
346.1605359999984
 51
95.99802699999265
  0
ARC
  5
45F
330
17
100
AcDbEntity
  8
4
100
AcDbCircle
 10
823.4863899136785
 20
439.7698759005416
 30
0.0
 40
1.000044
100
AcDbArc
 50
95.99728099997981
 51
171.5058919999985
  0
ARC
  5
460
330
17
100
AcDbEntity
  8
4
100
AcDbCircle
 10
831.3106119136787
 20
431.5425799005416
 30
0.0
 40
10.000008
100
AcDbArc
 50
95.99926800000128
 51
170.7315380000005
  0
ARC
  5
461
330
17
100
AcDbEntity
  8
4
100
AcDbCircle
 10
809.5195959136786
 20
417.1326679005415
 30
0.0
 40
1.999902
100
AcDbArc
 50
281.1851209999978
 51
348.8148790000027
  0
ARC
  5
462
330
17
100
AcDbEntity
  8
4
100
AcDbCircle
 10
795.1096839136785
 20
395.3416519005416
 30
0.0
 40
10.000008
100
AcDbArc
 50
99.26845599999626
 51
174.000732
  0
ARC
  5
463
330
17
100
AcDbEntity
  8
4
100
AcDbCircle
 10
815.3345379136786
 20
411.3177259005415
 30
0.0
 40
1.999986
100
AcDbArc
 50
281.8627300000047
 51
348.1372979999981
  0
ARC
  5
464
330
17
100
AcDbEntity
  8
4
100
AcDbCircle
 10
320.968815913679
 20
513.6834499005415
 30
0.0
 40
500.00001
100
AcDbArc
 50
348.82116
 51
0.0
  0
ARC
  5
465
330
17
100
AcDbEntity
  8
4
100
AcDbCircle
 10
327.9688119136786
 20
513.6834499005415
 30
0.0
 40
499.99995
100
AcDbArc
 50
348.138455
 51
0.0
  0
LINE
  5
466
330
17
100
AcDbEntity
  8
4
100
AcDbLine
 10
830.2654419136793
 20
441.4878919005414
 30
0.0
 11
964.5191079136789
 21
455.5950679005416
 31
0.0
  0
ARC
  5
467
330
17
100
AcDbEntity
  8
4
100
AcDbCircle
 10
970.5498699136783
 20
256.1023939005415
 30
0.0
 40
5.000052
100
AcDbArc
 50
285.0038550000066
 51
344.996145
  0
ARC
  5
468
330
17
100
AcDbEntity
  8
4
100
AcDbCircle
 10
775.0352199136792
 20
261.7151839005414
 30
0.0
 40
3.999918
100
AcDbArc
 50
174.0019730000007
 51
283.8394639999985
  0
ARC
  5
469
330
17
100
AcDbEntity
  8
4
100
AcDbCircle
 10
890.4688119136786
 20
218.6834479005415
 30
0.0
 40
72.499998
100
AcDbArc
 50
180.0001930000602
 51
0.0
  0
LINE
  5
46A
330
17
100
AcDbEntity
  8
4
100
AcDbLine
 10
785.164611913679
 20
396.3868159005415
 30
0.0
 11
771.0571899136789
 21
262.1331559005416
 31
0.0
  0
ARC
  5
46B
330
17
100
AcDbEntity
  8
4
100
AcDbCircle
 10
630.8279439136791
 20
395.3416519005416
 30
0.0
 40
10.000008
100
AcDbArc
 50
5.999267999999993
 51
80.73153800000188
  0
ARC
  5
46C
330
17
100
AcDbEntity
  8
4
100
AcDbCircle
 10
616.418031913679
 20
417.1326679005415
 30
0.0
 40
1.999902
100
AcDbArc
 50
191.1851209999972
 51
258.8148790000022
  0
ARC
  5
46D
330
17
100
AcDbEntity
  8
4
100
AcDbCircle
 10
602.451237913679
 20
439.7698759005416
 30
0.0
 40
1.000044
100
AcDbArc
 50
8.4940989999993
 51
84.0027190000202
  0
ARC
  5
46E
330
17
100
AcDbEntity
  8
4
100
AcDbCircle
 10
594.6270159136789
 20
431.5425799005416
 30
0.0
 40
10.000008
100
AcDbArc
 50
9.26846199999955
 51
84.00073199999873
  0
ARC
  5
46F
330
17
100
AcDbEntity
  8
4
100
AcDbCircle
 10
610.603089913679
 20
411.3177259005415
 30
0.0
 40
1.999986
100
AcDbArc
 50
191.8627020000019
 51
258.1372979999981
  0
ARC
  5
470
330
17
100
AcDbEntity
  8
4
100
AcDbCircle
 10
1097.968815913679
 20
513.6834499005415
 30
0.0
 40
499.9999800000001
100
AcDbArc
 50
180.0001399980527
 51
191.861715
  0
ARC
  5
471
330
17
100
AcDbEntity
  8
4
100
AcDbCircle
 10
1104.968811913679
 20
513.6834499005415
 30
0.0
 40
500.000028
100
AcDbArc
 50
180.0001399980527
 51
191.17901
  0
ARC
  5
472
330
17
100
AcDbEntity
  8
4
100
AcDbCircle
 10
650.9024079136793
 20
261.7151839005414
 30
0.0
 40
3.999918
100
AcDbArc
 50
256.160535999988
 51
5.998027000000934
  0
LINE
  5
473
330
17
100
AcDbEntity
  8
4
100
AcDbLine
 10
712.9688139136792
 20
206.6834479005415
 30
0.0
 11
697.3801899136793
 21
197.6834479005415
 31
0.0
  0
LINE
  5
474
330
17
100
AcDbEntity
  8
4
100
AcDbLine
 10
728.5571919136787
 20
197.6834479005415
 30
0.0
 11
712.9688139136792
 21
206.6834479005415
 31
0.0
  0
LINE
  5
475
330
17
100
AcDbEntity
  8
4
100
AcDbLine
 10
697.3801899136793
 20
179.6834479005415
 30
0.0
 11
712.9688139136792
 21
170.6834479005415
 31
0.0
  0
LINE
  5
476
330
17
100
AcDbEntity
  8
4
100
AcDbLine
 10
712.9688139136792
 20
170.6834479005415
 30
0.0
 11
728.5571919136787
 21
179.6834479005415
 31
0.0
  0
CIRCLE
  5
477
330
17
100
AcDbEntity
  8
4
100
AcDbCircle
 10
712.9688139136792
 20
188.6834479005415
 30
0.0
 40
18.0
  0
CIRCLE
  5
478
330
17
100
AcDbEntity
  8
4
100
AcDbCircle
 10
712.9688139136792
 20
188.6834479005415
 30
0.0
 40
19.999998
  0
LINE
  5
479
330
17
100
AcDbEntity
  8
4
100
AcDbLine
 10
697.3801899136793
 20
179.6834479005415
 30
0.0
 11
697.3801899136793
 21
197.6834479005415
 31
0.0
  0
LINE
  5
47A
330
17
100
AcDbEntity
  8
4
100
AcDbLine
 10
728.5571919136787
 20
179.6834479005415
 30
0.0
 11
728.5571919136787
 21
197.6834479005415
 31
0.0
  0
LINE
  5
47B
330
17
100
AcDbEntity
  8
L-CENTER
 48
2.0
100
AcDbLine
 10
684.4519540032957
 20
188.6834479005415
 30
0.0
 11
741.485673824061
 21
188.6834479005415
 31
0.0
  0
LINE
  5
47C
330
17
100
AcDbEntity
  8
4
100
AcDbLine
 10
640.7730099136784
 20
396.3868159005415
 30
0.0
 11
654.8804319136793
 21
262.1331559005416
 31
0.0
  0
ARC
  5
47D
330
17
100
AcDbEntity
  8
4
100
AcDbCircle
 10
712.9688139136792
 20
905.6834479005415
 30
0.0
 40
500.00001
100
AcDbArc
 50
258.821015
 51
281.179322
  0
ARC
  5
47E
330
17
100
AcDbEntity
  8
4
100
AcDbCircle
 10
712.9688139136792
 20
898.6834459005413
 30
0.0
 40
500.000058
100
AcDbArc
 50
258.1382009999999
 51
281.8620809999999
  0
ARC
  5
47F
330
17
100
AcDbEntity
  8
4
100
AcDbCircle
 10
992.5317999136782
 20
99.18344590054153
 30
0.0
 40
4.999956
100
AcDbArc
 50
90.0
 51
176.9686880000001
  0
LINE
  5
480
330
17
100
AcDbEntity
  8
4
100
AcDbLine
 10
986.968815913679
 20
103.6834459005415
 30
0.0
 11
986.968815913679
 21
48.68344990054152
 31
0.0
  0
LINE
  5
482
330
17
100
AcDbEntity
  8
4
100
AcDbLine
 10
905.968815913679
 20
48.68344990054152
 30
0.0
 11
905.968815913679
 21
103.6834459005415
 31
0.0
  0
LINE
  5
483
330
17
100
AcDbEntity
  8
4
100
AcDbLine
 10
879.9688119136786
 20
48.68344990054152
 30
0.0
 11
879.9688119136786
 21
103.6834459005415
 31
0.0
  0
LWPOLYLINE
  5
486
330
17
100
AcDbEntity
  8
4
 62
     3
100
AcDbPolyline
 90
       30
 70
     0
 43
0.0
 10
845.3479179136789
 20
103.4065999005416
 10
846.5155719136787
 20
102.4380079005415
 10
847.6543719136785
 20
101.4678979005416
 10
848.7354459136791
 20
100.4947519005416
 10
851.343729913679
 20
97.54187590054153
 10
851.9053119136784
 20
96.54138190054152
 10
852.2648679136787
 20
95.53024990054155
 10
852.393543913679
 20
94.50696190054157
 10
852.2065299136789
 20
93.2017399005415
 10
851.690727913679
 20
91.87422190054144
 10
850.9276359136788
 20
90.52372390054165
 10
847.9693659136788
 20
86.32739590054155
 10
847.0318899136787
 20
84.87802990054149
 10
846.2545239136784
 20
83.40221590054148
 10
845.7187539136789
 20
81.89925790054156
 10
845.483865913679
 20
80.35855990054154
 10
845.527785913679
 20
78.79595590054146
 10
845.8015959136787
 20
77.21777590054148
 10
847.5131799136793
 20
72.45315790054156
 10
849.5327199136786
 20
67.77638590054153
 10
850.0460499136784
 20
66.2665399005416
 10
850.3979199136788
 20
64.79178790054152
 10
850.5394179136788
 20
63.35845990054156
 10
850.3373379136788
 20
61.48959190054154
 10
849.712155913679
 20
59.69865190054156
 10
848.7167559136792
 20
57.97590190054143
 10
844.0381419136788
 20
53.11937590054163
 10
842.0907579136788
 20
51.57196990054149
 10
840.0375999136791
 20
50.04404590054151
 10
837.9315519136785
 20
48.52585990054149
  0
ARC
  5
487
330
17
100
AcDbEntity
  8
4
100
AcDbCircle
 10
799.9688139136792
 20
65.68344790054152
 30
0.0
 40
3.0
100
AcDbArc
 50
0.0
 51
90.0
  0
LINE
  5
488
330
17
100
AcDbEntity
  8
4
100
AcDbLine
 10
986.968815913679
 20
103.6834459005415
 30
0.0
 11
802.9688139136792
 21
103.6834459005415
 31
0.0
  0
LINE
  5
489
330
17
100
AcDbEntity
  8
4
100
AcDbLine
 10
986.968815913679
 20
48.68344990054152
 30
0.0
 11
802.9688139136792
 21
48.68344990054152
 31
0.0
  0
LINE
  5
490
330
17
100
AcDbEntity
  8
4
 62
     3
100
AcDbLine
 10
712.9688139136792
 20
94.83814990054157
 30
0.0
 11
720.6290679136787
 21
99.26079790054155
 31
0.0
  0
LINE
  5
491
330
17
100
AcDbEntity
  8
4
 62
     3
100
AcDbLine
 10
705.3085599136789
 20
99.26079790054155
 30
0.0
 11
712.9688139136792
 21
94.83814990054157
 31
0.0
  0
CIRCLE
  5
492
330
17
100
AcDbEntity
  8
4
100
AcDbCircle
 10
712.9688139136792
 20
103.6834459005415
 30
0.0
 40
11.000002
  0
CIRCLE
  5
493
330
17
100
AcDbEntity
  8
2
100
AcDbCircle
 10
712.9688139136792
 20
103.6834459005415
 30
0.0
 40
10.000002
  0
LINE
  5
494
330
17
100
AcDbEntity
  8
4
 62
     3
100
AcDbLine
 10
712.9688139136792
 20
112.5287479005415
 30
0.0
 11
720.6290679136787
 21
108.1060999005415
 31
0.0
  0
LINE
  5
495
330
17
100
AcDbEntity
  8
4
 62
     3
100
AcDbLine
 10
712.9688139136792
 20
112.5287479005415
 30
0.0
 11
705.3085599136789
 21
108.1060999005415
 31
0.0
  0
LINE
  5
496
330
17
100
AcDbEntity
  8
4
 62
     3
100
AcDbLine
 10
705.3085599136789
 20
108.1060999005415
 30
0.0
 11
705.3085599136789
 21
99.26079790054155
 31
0.0
  0
LINE
  5
497
330
17
100
AcDbEntity
  8
4
 62
     3
100
AcDbLine
 10
720.6290679136787
 20
99.26079790054155
 30
0.0
 11
720.6290679136787
 21
108.1060999005415
 31
0.0
  0
CIRCLE
  5
498
330
17
100
AcDbEntity
  8
4
100
AcDbCircle
 10
712.9688139136792
 20
103.6834459005415
 30
0.0
 40
15.0
  0
LINE
  5
499
330
17
100
AcDbEntity
  8
L-CENTER
 48
2.0
100
AcDbLine
 10
688.3648119136792
 20
103.6834459005415
 30
0.0
 11
737.5728159136784
 21
103.6834459005415
 31
0.0
  0
ARC
  5
49B
330
17
100
AcDbEntity
  8
4
100
AcDbCircle
 10
625.9688139136792
 20
65.68344790054152
 30
0.0
 40
3.0
100
AcDbArc
 50
90.0
 51
180.0
  0
LINE
  5
49F
330
17
100
AcDbEntity
  8
4
100
AcDbLine
 10
625.9688139136792
 20
68.68344790054152
 30
0.0
 11
799.9688139136792
 21
68.68344790054152
 31
0.0
  0
LINE
  5
4A1
330
17
100
AcDbEntity
  8
4
100
AcDbLine
 10
962.968815913679
 20
218.6834479005415
 30
0.0
 11
962.968815913679
 21
103.6834459005415
 31
0.0
  0
LINE
  5
4A2
330
17
100
AcDbEntity
  8
4
100
AcDbLine
 10
817.9688139136792
 20
103.6834459005415
 30
0.0
 11
817.9688139136792
 21
218.6834479005415
 31
0.0
  0
LINE
  5
4A3
330
17
100
AcDbEntity
  8
4
100
AcDbLine
 10
802.9688139136792
 20
218.6834479005415
 30
0.0
 11
802.9688139136792
 21
48.68344990054152
 31
0.0
  0
LINE
  5
4A4
330
17
100
AcDbEntity
  8
4
100
AcDbLine
 10
607.9688139136792
 20
103.6834459005415
 30
0.0
 11
607.9688139136792
 21
218.6834479005415
 31
0.0
  0
LINE
  5
4A5
330
17
100
AcDbEntity
  8
4
100
AcDbLine
 10
622.9688139136792
 20
218.6834479005415
 30
0.0
 11
622.9688139136792
 21
48.68344990054152
 31
0.0
  0
LINE
  5
4A6
330
17
100
AcDbEntity
  8
L-CENTER
 48
2.0
100
AcDbLine
 10
532.9688139136792
 20
123.6834459005415
 30
0.0
 11
532.9688139136792
 21
28.68344990054152
 31
0.0
  0
LINE
  5
4A7
330
17
100
AcDbEntity
  8
4
100
AcDbLine
 10
697.9688139136792
 20
175.4546899005416
 30
0.0
 11
697.9688139136792
 21
103.6834459005415
 31
0.0
  0
LINE
  5
4A8
330
17
100
AcDbEntity
  8
4
100
AcDbLine
 10
727.9688139136792
 20
175.4546899005416
 30
0.0
 11
727.9688139136792
 21
103.6834459005415
 31
0.0
  0
LINE
  5
4A9
330
17
100
AcDbEntity
  8
L-CENTER
 48
2.0
100
AcDbLine
 10
892.9688139136792
 20
123.6834459005415
 30
0.0
 11
892.9688139136792
 21
28.68344990054152
 31
0.0
  0
LINE
  5
4AA
330
17
100
AcDbEntity
  8
4
100
AcDbLine
 10
986.968815913679
 20
88.68344590054153
 30
0.0
 11
1009.468815913679
 21
513.6834499005415
 31
0.0
  0
LINE
  5
4AC
330
17
100
AcDbEntity
  8
L-CENTER
 48
2.0
100
AcDbLine
 10
1042.367685913679
 20
134.2461919005415
 30
0.0
 11
979.7866839136791
 21
134.2461919005415
 31
0.0
  0
LINE
  5
4AD
330
17
100
AcDbEntity
  8
4
100
AcDbLine
 10
1024.368717913679
 20
104.1834499005415
 30
0.0
 11
992.5317999136782
 21
104.1834499005415
 31
0.0
  0
LINE
  5
4B0
330
17
100
AcDbEntity
  8
L-CENTER
 48
2.0
100
AcDbLine
 10
1041.097437913678
 20
303.1207039005415
 30
0.0
 11
979.0120239136791
 21
303.1207039005415
 31
0.0
  0
ARC
  5
4B1
330
17
100
AcDbEntity
  8
4
100
AcDbCircle
 10
9.468813913678787
 20
513.6834499005415
 30
0.0
 40
1000.000032
100
AcDbArc
 50
344.997058
 51
0.0
  0
LINE
  5
4B2
330
17
100
AcDbEntity
  8
4
100
AcDbLine
 10
1024.368717913679
 20
333.1834459005415
 30
0.0
 11
999.9129039136783
 21
333.1834459005415
 31
0.0
  0
LINE
  5
4B8
330
17
100
AcDbEntity
  8
4
100
AcDbLine
 10
2290.996404221473
 20
568.1834479005415
 30
0.0
 11
2266.996404221473
 21
568.1834479005415
 31
0.0
  0
LINE
  5
4B9
330
17
100
AcDbEntity
  8
4
100
AcDbLine
 10
2290.996404221473
 20
552.1834459005413
 30
0.0
 11
2266.996404221473
 21
552.1834459005413
 31
0.0
  0
LINE
  5
4BA
330
17
100
AcDbEntity
  8
4
100
AcDbLine
 10
2266.996404221473
 20
568.1834479005415
 30
0.0
 11
2266.996404221473
 21
552.1834459005413
 31
0.0
  0
LINE
  5
4BB
330
17
100
AcDbEntity
  8
4
100
AcDbLine
 10
2290.996404221473
 20
552.1834459005413
 30
0.0
 11
2290.996404221473
 21
568.1834479005415
 31
0.0
  0
LINE
  5
4BE
330
17
100
AcDbEntity
  8
L-CENTER
 48
2.0
100
AcDbLine
 10
2278.996404221473
 20
446.4248059005417
 30
0.0
 11
2278.996404221473
 21
580.9420939005413
 31
0.0
  0
LINE
  5
4CE
330
17
100
AcDbEntity
  8
L-CENTER
 48
2.0
100
AcDbLine
 10
2211.737760221473
 20
513.6834499005417
 30
0.0
 11
2346.255048221473
 21
513.6834499005413
 31
0.0
  0
ARC
  5
4CF
330
17
100
AcDbEntity
  8
4
100
AcDbCircle
 10
2278.996404221473
 20
513.6834499005413
 30
0.0
 40
46.500054
100
AcDbArc
 50
104.9552305438094
 51
75.04478700000072
  0
ARC
  5
4D2
330
17
100
AcDbEntity
  8
4
100
AcDbCircle
 10
461.0005539136787
 20
575.7498559005414
 30
0.0
 40
3.999918
100
AcDbArc
 50
166.1605359999983
 51
275.9980270000059
  0
ARC
  5
4D3
330
17
100
AcDbEntity
  8
4
100
AcDbCircle
 10
461.0005539136787
 20
451.6170439005416
 30
0.0
 40
3.999918
100
AcDbArc
 50
84.00197299999405
 51
193.8394640000017
  0
ARC
  5
4D4
330
17
100
AcDbEntity
  8
4
100
AcDbCircle
 10
455.3877579136788
 20
256.1023939005415
 30
0.0
 40
5.000052
100
AcDbArc
 50
195.0038580000019
 51
254.9961449999988
  0
ARC
  5
4D5
330
17
100
AcDbEntity
  8
4
100
AcDbCircle
 10
401.5689099136789
 20
332.1834499005415
 30
0.0
 40
1.000002
100
AcDbArc
 50
90.0
 51
180.0
  0
LINE
  5
4D6
330
17
100
AcDbEntity
  8
4
100
AcDbLine
 10
390.7060948243056
 20
308.6055314578432
 30
0.0
 11
397.5689139136789
 21
308.6055314578432
 31
0.0
  0
LINE
  5
4D7
330
17
100
AcDbEntity
  8
4
100
AcDbLine
 10
390.7060948243056
 20
314.0903590151445
 30
0.0
 11
400.5689139136789
 21
314.0903590151445
 31
0.0
  0
ARC
  5
4D8
330
17
100
AcDbEntity
  8
4
100
AcDbCircle
 10
393.4442927889581
 20
311.3479452364938
 30
0.0
 40
3.875378875279244
100
AcDbArc
 50
134.9559267627517
 51
225.0440732372483
  0
LINE
  5
4D9
330
17
100
AcDbEntity
  8
4
100
AcDbLine
 10
401.5689099136789
 20
333.1834459005415
 30
0.0
 11
426.0247239136788
 21
333.1834459005415
 31
0.0
  0
LINE
  5
4DA
330
17
100
AcDbEntity
  8
4
100
AcDbLine
 10
390.7060948243056
 20
297.6358763432402
 30
0.0
 11
397.5689139136789
 21
297.6358763432402
 31
0.0
  0
LINE
  5
4DB
330
17
100
AcDbEntity
  8
4
100
AcDbLine
 10
400.5689139136789
 20
292.1510487859389
 30
0.0
 11
390.7060948243056
 21
292.1510487859389
 31
0.0
  0
ARC
  5
4DC
330
17
100
AcDbEntity
  8
4
100
AcDbCircle
 10
393.4442927889581
 20
294.8934625645895
 30
0.0
 40
3.875378875279264
100
AcDbArc
 50
134.9559267627517
 51
225.0440732372483
  0
LINE
  5
4DD
330
17
100
AcDbEntity
  8
4
100
AcDbLine
 10
400.5689139136789
 20
314.0903590151445
 30
0.0
 11
400.5689139136789
 21
292.1510487859389
 31
0.0
  0
LINE
  5
4DE
330
17
100
AcDbEntity
  8
4
100
AcDbLine
 10
389.5689139136789
 20
294.8934625645895
 30
0.0
 11
389.5689139136789
 21
311.3479452364938
 31
0.0
  0
LINE
  5
4DF
330
17
100
AcDbEntity
  8
4
100
AcDbLine
 10
397.5689139136789
 20
314.0903590151445
 30
0.0
 11
397.5689139136789
 21
292.1510487859389
 31
0.0
  0
ARC
  5
4E0
330
17
100
AcDbEntity
  8
4
100
AcDbCircle
 10
403.3646580488562
 20
303.1207039005415
 30
0.0
 40
13.7957441351769
100
AcDbArc
 50
156.5734024913727
 51
203.4265975086273
  0
LINE
  5
4E1
330
17
100
AcDbEntity
  8
4
100
AcDbLine
 10
400.5689139136789
 20
229.6531030151446
 30
0.0
 11
400.5689139136789
 21
207.7137927859389
 31
0.0
  0
LINE
  5
4E2
330
17
100
AcDbEntity
  8
4
100
AcDbLine
 10
389.5689139136789
 20
210.4562065645896
 30
0.0
 11
389.5689139136789
 21
226.9106892364939
 31
0.0
  0
LINE
  5
4E3
330
17
100
AcDbEntity
  8
4
100
AcDbLine
 10
397.5689139136789
 20
229.6531030151446
 30
0.0
 11
397.5689139136789
 21
207.7137927859389
 31
0.0
  0
ARC
  5
4E4
330
17
100
AcDbEntity
  8
4
100
AcDbCircle
 10
403.3646580488562
 20
218.6834479005415
 30
0.0
 40
13.7957441351769
100
AcDbArc
 50
156.5734024913727
 51
203.4265975086273
  0
LINE
  5
4E5
330
17
100
AcDbEntity
  8
4
100
AcDbLine
 10
390.7060948243056
 20
213.1986203432402
 30
0.0
 11
397.5689139136789
 21
213.1986203432402
 31
0.0
  0
LINE
  5
4E6
330
17
100
AcDbEntity
  8
4
100
AcDbLine
 10
400.5689139136789
 20
207.7137927859389
 30
0.0
 11
390.7060948243056
 21
207.7137927859389
 31
0.0
  0
ARC
  5
4E7
330
17
100
AcDbEntity
  8
4
100
AcDbCircle
 10
393.4442927889581
 20
210.4562065645896
 30
0.0
 40
3.875378875279264
100
AcDbArc
 50
134.9559267627517
 51
225.0440732372483
  0
LINE
  5
4E8
330
17
100
AcDbEntity
  8
4
100
AcDbLine
 10
390.7060948243056
 20
224.1682754578433
 30
0.0
 11
397.5689139136789
 21
224.1682754578433
 31
0.0
  0
LINE
  5
4E9
330
17
100
AcDbEntity
  8
4
100
AcDbLine
 10
390.7060948243056
 20
229.6531030151446
 30
0.0
 11
400.5689139136789
 21
229.6531030151446
 31
0.0
  0
ARC
  5
4EA
330
17
100
AcDbEntity
  8
4
100
AcDbCircle
 10
393.4442927889581
 20
226.9106892364939
 30
0.0
 40
3.875378875279244
100
AcDbArc
 50
134.9559267627517
 51
225.0440732372471
  0
LINE
  5
4EB
330
17
100
AcDbEntity
  8
4
100
AcDbLine
 10
390.7060948243056
 20
139.7310194578432
 30
0.0
 11
397.5689139136789
 21
139.7310194578432
 31
0.0
  0
LINE
  5
4EC
330
17
100
AcDbEntity
  8
4
100
AcDbLine
 10
390.7060948243056
 20
145.2158470151445
 30
0.0
 11
400.5689139136789
 21
145.2158470151445
 31
0.0
  0
ARC
  5
4ED
330
17
100
AcDbEntity
  8
4
100
AcDbCircle
 10
393.4442927889581
 20
142.4734332364939
 30
0.0
 40
3.875378875279244
100
AcDbArc
 50
134.9559267627517
 51
225.0440732372471
  0
LINE
  5
4EE
330
17
100
AcDbEntity
  8
L-CENTER
 48
2.0
100
AcDbLine
 10
383.525547913679
 20
134.2461919005415
 30
0.0
 11
449.4426879136786
 21
134.2461919005415
 31
0.0
  0
LINE
  5
4EF
330
17
100
AcDbEntity
  8
L-CENTER
 48
2.0
100
AcDbLine
 10
382.5487719136786
 20
303.1207039005415
 30
0.0
 11
454.2852219136789
 21
303.1207039005415
 31
0.0
  0
ARC
  5
4F0
330
17
100
AcDbEntity
  8
4
100
AcDbCircle
 10
1416.468813913679
 20
513.6834499005415
 30
0.0
 40
1000.000032
100
AcDbArc
 50
180.0001259887593
 51
195.0031589999999
  0
ARC
  5
4F1
330
17
100
AcDbEntity
  8
4
100
AcDbCircle
 10
433.4058279136789
 20
99.18344590054153
 30
0.0
 40
4.999956
100
AcDbArc
 50
3.031311999999935
 51
90.0
  0
ARC
  5
4F2
330
17
100
AcDbEntity
  8
4
100
AcDbCircle
 10
401.5689099136789
 20
105.1834459005415
 30
0.0
 40
1.000002
100
AcDbArc
 50
180.0
 51
270.0
  0
LINE
  5
4F3
330
17
100
AcDbEntity
  8
4
100
AcDbLine
 10
390.7060948243056
 20
128.7613643432402
 30
0.0
 11
397.5689139136789
 21
128.7613643432402
 31
0.0
  0
LINE
  5
4F4
330
17
100
AcDbEntity
  8
4
100
AcDbLine
 10
400.5689139136789
 20
123.2765367859389
 30
0.0
 11
390.7060948243056
 21
123.2765367859389
 31
0.0
  0
ARC
  5
4F5
330
17
100
AcDbEntity
  8
4
100
AcDbCircle
 10
393.4442927889581
 20
126.0189505645895
 30
0.0
 40
3.875378875279264
100
AcDbArc
 50
134.9559267627517
 51
225.0440732372483
  0
LINE
  5
4F6
330
17
100
AcDbEntity
  8
4
100
AcDbLine
 10
401.5689099136789
 20
104.1834499005415
 30
0.0
 11
433.4058279136789
 21
104.1834499005415
 31
0.0
  0
LINE
  5
4F7
330
17
100
AcDbEntity
  8
4
100
AcDbLine
 10
438.9688119136786
 20
103.6834459005415
 30
0.0
 11
438.9688119136786
 21
48.68344990054152
 31
0.0
  0
LINE
  5
4FE
330
17
100
AcDbEntity
  8
4
100
AcDbLine
 10
462.9688119136786
 20
218.6834479005415
 30
0.0
 11
462.9688119136786
 21
103.6834459005415
 31
0.0
  0
LINE
  5
4FF
330
17
100
AcDbEntity
  8
4
100
AcDbLine
 10
438.9688119136786
 20
88.68344590054153
 30
0.0
 11
416.4688119136786
 21
513.6834499005415
 31
0.0
  0
LINE
  5
500
330
17
100
AcDbEntity
  8
4
100
AcDbLine
 10
400.5689139136789
 20
105.1834459005415
 30
0.0
 11
400.5689139136789
 21
332.1834499005415
 31
0.0
  0
LINE
  5
501
330
17
100
AcDbEntity
  8
4
100
AcDbLine
 10
420.9688119136786
 20
333.1834459005415
 30
0.0
 11
420.9688119136786
 21
104.1834499005415
 31
0.0
  0
LINE
  5
502
330
17
100
AcDbEntity
  8
4
100
AcDbLine
 10
400.5689139136789
 20
145.2158470151445
 30
0.0
 11
400.5689139136789
 21
123.2765367859389
 31
0.0
  0
LINE
  5
503
330
17
100
AcDbEntity
  8
4
100
AcDbLine
 10
389.5689139136789
 20
126.0189505645895
 30
0.0
 11
389.5689139136789
 21
142.4734332364939
 31
0.0
  0
LINE
  5
504
330
17
100
AcDbEntity
  8
4
100
AcDbLine
 10
397.5689139136789
 20
145.2158470151445
 30
0.0
 11
397.5689139136789
 21
123.2765367859389
 31
0.0
  0
ARC
  5
505
330
17
100
AcDbEntity
  8
4
100
AcDbCircle
 10
403.3646580488562
 20
134.2461919005415
 30
0.0
 40
13.7957441351769
100
AcDbArc
 50
156.5734024913727
 51
203.4265975086273
  0
ARC
  5
525
330
17
100
AcDbEntity
  8
4
100
AcDbCircle
 10
535.468815913679
 20
218.6834479005415
 30
0.0
 40
72.499998
100
AcDbArc
 50
180.0
 51
0.0
  0
LINE
  5
526
330
17
100
AcDbEntity
  8
4
100
AcDbLine
 10
438.9688119136786
 20
48.68344990054152
 30
0.0
 11
622.9688139136792
 21
48.68344990054152
 31
0.0
  0
LINE
  5
527
330
17
100
AcDbEntity
  8
4
100
AcDbLine
 10
438.9688119136786
 20
103.6834459005415
 30
0.0
 11
622.9688139136792
 21
103.6834459005415
 31
0.0
  0
LINE
  5
529
330
17
100
AcDbEntity
  8
L-CENTER
 48
2.0
100
AcDbLine
 10
398.1696219136788
 20
513.6834499005415
 30
0.0
 11
1027.768005913679
 21
513.6834499005415
 31
0.0
  0
LINE
  5
52A
330
17
100
AcDbEntity
  8
4
100
AcDbLine
 10
595.672179913679
 20
441.4878919005414
 30
0.0
 11
461.4185199136787
 21
455.5950679005416
 31
0.0
  0
LINE
  5
52B
330
17
100
AcDbEntity
  8
L-CENTER
 48
2.0
100
AcDbLine
 10
1174.052811913679
 20
218.6834479005415
 30
0.0
 11
251.8848159136792
 21
218.6834479005416
 31
0.0
  0
ARC
  5
52C
330
17
100
AcDbEntity
  8
4
100
AcDbCircle
 10
712.9688139136792
 20
1217.183449900541
 30
0.0
 40
1000.000002
100
AcDbArc
 50
254.9966359999999
 51
285.0036359999999
  0
LINE
  5
52D
330
17
100
AcDbEntity
  8
L-CENTER
 48
2.0
100
AcDbLine
 10
712.9688139136792
 20
51.74057988686855
 30
0.0
 11
712.9688139136792
 21
924.2902720765021
 31
0.0
  0
ARC
  5
52E
330
17
100
AcDbEntity
  8
4
100
AcDbCircle
 10
712.9688139136792
 20
513.6834499005415
 30
0.0
 40
263.500002
100
AcDbArc
 50
90.00000200000005
 51
270.0000519999998
  0
LINE
  5
52F
330
17
100
AcDbEntity
  8
4
100
AcDbLine
 10
595.672179913679
 20
585.8790079005414
 30
0.0
 11
461.4185199136787
 21
571.7718259005414
 31
0.0
  0
ARC
  5
530
330
17
100
AcDbEntity
  8
4
100
AcDbCircle
 10
712.9688139136792
 20
513.6834499005415
 30
0.0
 40
293.500002
100
AcDbArc
 50
90.00000200000007
 51
270.0000459999998
  0
ARC
  5
531
330
17
100
AcDbEntity
  8
4
100
AcDbCircle
 10
1416.468813913679
 20
513.6834499005415
 30
0.0
 40
999.99993
100
AcDbArc
 50
164.996939
 51
180.0001259887593
  0
ARC
  5
533
330
17
100
AcDbEntity
  8
4
100
AcDbCircle
 10
9.468813913678787
 20
513.6834499005415
 30
0.0
 40
999.999996
100
AcDbArc
 50
0.0
 51
15.00330500000001
  0
ARC
  5
534
330
17
100
AcDbEntity
  8
4
100
AcDbCircle
 10
712.9688139136792
 20
513.6834499005415
 30
0.0
 40
293.500002
100
AcDbArc
 50
270.0002839999997
 51
90.00000200000007
  0
ARC
  5
535
330
17
100
AcDbEntity
  8
4
100
AcDbCircle
 10
712.9688139136792
 20
513.6834499005415
 30
0.0
 40
263.500002
100
AcDbArc
 50
270.000264
 51
90.00000200000005
  0
ARC
  5
536
330
17
100
AcDbEntity
  8
4
100
AcDbCircle
 10
594.6270159136789
 20
595.8243199005415
 30
0.0
 40
10.000008
100
AcDbArc
 50
275.9992680000012
 51
350.7315380000005
  0
ARC
  5
537
330
17
100
AcDbEntity
  8
4
100
AcDbCircle
 10
1104.968811913679
 20
513.6834499005415
 30
0.0
 40
499.999962
100
AcDbArc
 50
168.821072
 51
180.000140000656
  0
ARC
  5
538
330
17
100
AcDbEntity
  8
4
100
AcDbCircle
 10
1097.968815913679
 20
513.6834499005415
 30
0.0
 40
499.9999319999999
100
AcDbArc
 50
168.138339
 51
180.0001399980527
  0
LINE
  5
539
330
17
100
AcDbEntity
  8
4
100
AcDbLine
 10
830.2654419136793
 20
585.8790079005414
 30
0.0
 11
964.5191079136789
 21
571.7718259005414
 31
0.0
  0
ARC
  5
53A
330
17
100
AcDbEntity
  8
4
100
AcDbCircle
 10
831.3106119136787
 20
595.8243199005415
 30
0.0
 40
10.000008
100
AcDbArc
 50
189.2684619999995
 51
264.0007319999988
  0
ARC
  5
53B
330
17
100
AcDbEntity
  8
4
100
AcDbCircle
 10
320.968815913679
 20
513.6834499005415
 30
0.0
 40
500.000004
100
AcDbArc
 50
0.0
 51
11.17912600000009
  0
ARC
  5
53C
330
17
100
AcDbEntity
  8
4
100
AcDbCircle
 10
327.9688119136786
 20
513.6834499005415
 30
0.0
 40
500.00004
100
AcDbArc
 50
0.0
 51
11.86191299999992
  0
LINE
  5
560
330
17
100
AcDbEntity
  8
4
100
AcDbLine
 10
382.9688139136792
 20
187.1834479005415
 30
0.0
 11
263.9688159136799
 21
187.1834479005415
 31
0.0
  0
LINE
  5
561
330
17
100
AcDbEntity
  8
4
100
AcDbLine
 10
382.9688139136792
 20
250.1834479005415
 30
0.0
 11
263.9688159136799
 21
250.1834479005415
 31
0.0
  0
LINE
  5
562
330
17
100
AcDbEntity
  8
4
100
AcDbLine
 10
262.9688139136792
 20
256.1834479005415
 30
0.0
 11
372.9688119136795
 21
256.1834479005415
 31
0.0
  0
LINE
  5
563
330
17
100
AcDbEntity
  8
4
100
AcDbLine
 10
399.5689139136798
 20
263.6834479005416
 30
0.0
 11
399.5689139136798
 21
229.6531030151446
 31
0.0
  0
LINE
  5
564
330
17
100
AcDbEntity
  8
4
100
AcDbLine
 10
382.9688139136792
 20
251.1834499005415
 30
0.0
 11
382.9688139136792
 21
186.1834459005415
 31
0.0
  0
LINE
  5
565
330
17
100
AcDbEntity
  8
4
100
AcDbLine
 10
399.5689139136798
 20
207.7137927859388
 30
0.0
 11
399.5689139136798
 21
173.6834479005414
 31
0.0
  0
LINE
  5
566
330
17
100
AcDbEntity
  8
4
100
AcDbLine
 10
382.9688139136792
 20
186.1834459005415
 30
0.0
 11
399.56891191368
 21
186.1834459005415
 31
0.0
  0
LINE
  5
567
330
17
100
AcDbEntity
  8
4
100
AcDbLine
 10
399.5689139136798
 20
173.6834479005414
 30
0.0
 11
400.5689139136798
 21
173.6834479005414
 31
0.0
  0
LINE
  5
568
330
17
100
AcDbEntity
  8
4
100
AcDbLine
 10
382.9688139136792
 20
251.1834499005415
 30
0.0
 11
399.56891191368
 21
251.1834499005415
 31
0.0
  0
LINE
  5
569
330
17
100
AcDbEntity
  8
4
100
AcDbLine
 10
399.5689139136798
 20
263.6834479005415
 30
0.0
 11
400.5689139136798
 21
263.6834479005415
 31
0.0
  0
LINE
  5
56A
330
17
100
AcDbEntity
  8
4
100
AcDbLine
 10
372.9688119136795
 20
256.1834479005415
 30
0.0
 11
372.9688119136795
 21
250.1834479005415
 31
0.0
  0
LINE
  5
56B
330
17
100
AcDbEntity
  8
4
100
AcDbLine
 10
262.9688139136792
 20
256.1834479005415
 30
0.0
 11
262.9688139136792
 21
188.1834499005415
 31
0.0
  0
LINE
  5
56C
330
17
100
AcDbEntity
  8
4
100
AcDbLine
 10
263.9688159136799
 20
187.1834479005415
 30
0.0
 11
263.9688159136799
 21
250.1834479005415
 31
0.0
  0
LINE
  5
56D
330
17
100
AcDbEntity
  8
4
100
AcDbLine
 10
263.9688159136799
 20
187.1834479005415
 30
0.0
 11
262.9688139136792
 21
188.1834499005415
 31
0.0
  0
LINE
  5
56E
330
17
100
AcDbEntity
  8
4
100
AcDbLine
 10
262.9688139136792
 20
249.1834459005415
 30
0.0
 11
263.9688159136799
 21
250.1834479005415
 31
0.0
  0
LINE
  5
592
330
17
100
AcDbEntity
  8
4
100
AcDbLine
 10
381.9688139136795
 20
1481.933295598586
 30
0.0
 11
263.9688139136795
 21
1481.933295598586
 31
0.0
  0
LINE
  5
593
330
17
100
AcDbEntity
  8
4
100
AcDbLine
 10
381.9688139136795
 20
1544.933295598586
 30
0.0
 11
263.9688139136795
 21
1544.933295598586
 31
0.0
  0
LINE
  5
594
330
17
100
AcDbEntity
  8
4
100
AcDbLine
 10
363.9688139136795
 20
1504.433295598586
 30
0.0
 11
262.9688139136795
 21
1504.433295598586
 31
0.0
  0
LINE
  5
595
330
17
100
AcDbEntity
  8
4
100
AcDbLine
 10
363.9688139136795
 20
1522.433295598586
 30
0.0
 11
262.9688139136795
 21
1522.433295598586
 31
0.0
  0
LINE
  5
596
330
17
100
AcDbEntity
  8
4
100
AcDbLine
 10
382.9688139136795
 20
1545.933295598586
 30
0.0
 11
382.9688139136795
 21
1480.933295598586
 31
0.0
  0
ARC
  5
597
330
17
100
AcDbEntity
  8
4
100
AcDbCircle
 10
363.9688139136795
 20
1513.433295598586
 30
0.0
 40
9.0
100
AcDbArc
 50
270.0
 51
90.0
  0
LINE
  5
598
330
17
100
AcDbEntity
  8
4
100
AcDbLine
 10
399.6688139136802
 20
1475.652687457042
 30
0.0
 11
399.6688139136802
 21
1551.21390374013
 31
0.0
  0
LINE
  5
599
330
17
100
AcDbEntity
  8
4
100
AcDbLine
 10
382.9688139136795
 20
1480.933295598587
 30
0.0
 11
399.6688139136802
 21
1480.933295598587
 31
0.0
  0
ARC
  5
59A
330
17
100
AcDbEntity
  8
4
100
AcDbCircle
 10
381.9688139136795
 20
1480.933295598586
 30
0.0
 40
1.0
100
AcDbArc
 50
0.0
 51
90.0
  0
LINE
  5
59B
330
17
100
AcDbEntity
  8
4
100
AcDbLine
 10
382.9688139136795
 20
1545.933295598586
 30
0.0
 11
399.6688139136802
 21
1545.933295598586
 31
0.0
  0
ARC
  5
59C
330
17
100
AcDbEntity
  8
4
100
AcDbCircle
 10
381.9688139136795
 20
1545.933295598586
 30
0.0
 40
1.0
100
AcDbArc
 50
270.0
 51
0.0
  0
LINE
  5
59D
330
17
100
AcDbEntity
  8
4
100
AcDbLine
 10
262.9688139136795
 20
1543.933295598586
 30
0.0
 11
262.9688139136795
 21
1482.933295598586
 31
0.0
  0
LINE
  5
59E
330
17
100
AcDbEntity
  8
4
100
AcDbLine
 10
263.9688139136795
 20
1504.433295598586
 30
0.0
 11
263.9688139136795
 21
1481.933295598586
 31
0.0
  0
LINE
  5
59F
330
17
100
AcDbEntity
  8
4
100
AcDbLine
 10
263.9688139136795
 20
1481.933295598586
 30
0.0
 11
262.9688139136795
 21
1482.933295598586
 31
0.0
  0
LINE
  5
5A0
330
17
100
AcDbEntity
  8
4
100
AcDbLine
 10
263.9688139136795
 20
1544.933295598586
 30
0.0
 11
263.9688139136795
 21
1522.433295598586
 31
0.0
  0
LINE
  5
5A1
330
17
100
AcDbEntity
  8
4
100
AcDbLine
 10
263.9688139136795
 20
1544.933295598586
 30
0.0
 11
262.9688139136795
 21
1543.933295598586
 31
0.0
  0
ENDSEC
  0
SECTION
  2
OBJECTS
  0
DICTIONARY
  5
5
330
0
100
AcDbDictionary
281
     1
  3
ACAD_COLOR
350
28
  3
ACAD_GROUP
350
26
  3
ACAD_LAYOUT
350
1E
  3
ACAD_MATERIAL
350
7
  3
ACAD_MLEADERSTYLE
350
541
  3
ACAD_MLINESTYLE
350
15
  3
ACAD_PLOTSETTINGS
350
27
  3
ACAD_PLOTSTYLENAME
350
4
  3
ACAD_SCALELIST
350
2C
  3
ACAD_TABLESTYLE
350
540
  3
ACAD_VISUALSTYLE
350
29
  3
ACDBHEADERROUNDTRIPXREC
350
5AB
  3
AcDbVariableDictionary
350
53E
  3
DWGPROPS
350
5AE
  0
DICTIONARY
  5
5AF
330
25
100
AcDbDictionary
280
     1
281
     1
  3
ACAD_XREC_ROUNDTRIP
360
5B0
  0
DICTIONARY
  5
18
330
17
100
AcDbDictionary
280
     1
281
     1
  3
ACAD_SORTENTS
360
19
  0
DICTIONARY
  5
28
102
{ACAD_REACTORS
330
5
102
}
330
5
100
AcDbDictionary
281
     1
  0
DICTIONARY
  5
26
102
{ACAD_REACTORS
330
5
102
}
330
5
100
AcDbDictionary
281
     1
  0
DICTIONARY
  5
1E
102
{ACAD_REACTORS
330
5
102
}
330
5
100
AcDbDictionary
281
     1
  3
Model
350
1D
  3
ﾚｲｱｳﾄ1
350
22
  0
DICTIONARY
  5
7
102
{ACAD_REACTORS
330
5
102
}
330
5
100
AcDbDictionary
281
     1
  3
ByBlock
350
4F
  3
ByLayer
350
10
  3
Global
350
6
  0
DICTIONARY
  5
541
102
{ACAD_REACTORS
330
5
102
}
330
5
100
AcDbDictionary
281
     1
  3
Standard
350
5A3
  0
DICTIONARY
  5
15
102
{ACAD_REACTORS
330
5
102
}
330
5
100
AcDbDictionary
281
     1
  3
STANDARD
350
14
  0
DICTIONARY
  5
27
102
{ACAD_REACTORS
330
5
102
}
330
5
100
AcDbDictionary
281
     1
  0
ACDBDICTIONARYWDFLT
  5
4
102
{ACAD_REACTORS
330
5
102
}
330
5
100
AcDbDictionary
281
     1
  3
Normal
350
3
100
AcDbDictionaryWithDefault
340
3
  0
DICTIONARY
  5
2C
102
{ACAD_REACTORS
330
5
102
}
330
5
100
AcDbDictionary
281
     1
  3
*A1
350
4E
  0
DICTIONARY
  5
540
102
{ACAD_REACTORS
330
5
102
}
330
5
100
AcDbDictionary
281
     1
  3
Standard
350
5A7
  0
DICTIONARY
  5
29
102
{ACAD_REACTORS
330
5
102
}
330
5
100
AcDbDictionary
281
     1
  3
2dWireframe
350
549
  3
Basic
350
54C
  3
Brighten
350
550
  3
ColorChange
350
554
  3
Conceptual
350
54E
  3
Dim
350
54F
  3
EdgeColorOff
350
557
  3
Facepattern
350
553
  3
Flat
350
545
  3
FlatWithEdges
350
546
  3
Gouraud
350
547
  3
GouraudWithEdges
350
548
  3
Hidden
350
54B
  3
JitterOff
350
555
  3
Linepattern
350
552
  3
OverhangOff
350
556
  3
Realistic
350
54D
  3
Shaded
350
55C
  3
Shaded with edges
350
55B
  3
Shades of Gray
350
558
  3
Sketchy
350
559
  3
Thicken
350
551
  3
Wireframe
350
54A
  3
X-Ray
350
55A
  0
DICTIONARY
  5
5AB
102
{ACAD_REACTORS
330
5
102
}
330
5
100
AcDbDictionary
281
     1
  3
COLORDICT
350
5AC
  3
MATERIALDICT
350
5AD
  0
DICTIONARY
  5
53E
102
{ACAD_REACTORS
330
5
102
}
330
5
100
AcDbDictionary
281
     1
  3
CANNOSCALE
350
53F
  3
CMLEADERSTYLE
350
5A5
  3
CTABLESTYLE
350
5A8
  3
DIMASSOC
350
5A9
  3
HIDETEXT
350
5AA
  3
MSLTSCALE
350
5B1
  3
XCLIPFRAME
350
542
  0
XRECORD
  5
5AE
102
{ACAD_REACTORS
330
5
102
}
330
5
100
AcDbXrecord
280
     1
  1
DWGPROPS COOKIE
  2

  3

  4

  6

  7

  8
sg-d04
  9

300
=
301
=
302
=
303
=
304
=
305
=
306
=
307
=
308
=
309
=
 40
0.0
 41
2457463.99366897
 42
2457871.447851968
  1

 90
        0
  0
XRECORD
  5
5B0
102
{ACAD_REACTORS
330
5AF
102
}
330
5AF
100
AcDbXrecord
280
     1
102
VTR_0.000_0.000_1.000_1.000_VISUALSTYLE
340
549
102
VTR_0.000_0.000_1.000_1.000_GRIDDISPLAY
 70
     3
102
VTR_0.000_0.000_1.000_1.000_GRIDMAJOR
 70
     5
102
VTR_0.000_0.000_1.000_1.000_DEFAULTLIGHTING
280
     1
102
VTR_0.000_0.000_1.000_1.000_DEFAULTLIGHTINGTYPE
 70
     1
102
VTR_0.000_0.000_1.000_1.000_BRIGHTNESS
141
0.0
102
VTR_0.000_0.000_1.000_1.000_CONTRAST
142
0.0
  0
SORTENTSTABLE
  5
19
102
{ACAD_REACTORS
330
18
102
}
330
18
100
AcDbSortentsTable
330
17
331
0
  5
21E
331
180
  5
3E2
331
188
  5
3DA
331
189
  5
3D9
331
18A
  5
3D8
331
18B
  5
3D7
331
18C
  5
3D6
331
18D
  5
3D5
331
18E
  5
3D4
331
18F
  5
3D3
331
190
  5
3D2
331
191
  5
3D1
331
192
  5
3D0
331
193
  5
3CF
331
194
  5
3CE
331
195
  5
3CD
331
197
  5
3CB
331
198
  5
3CA
331
199
  5
3C9
331
19A
  5
3C8
331
19B
  5
3C7
331
19C
  5
3C6
331
19D
  5
3C5
331
19E
  5
3C4
331
19F
  5
3C3
331
1A0
  5
3C2
331
1A1
  5
3C1
331
1A2
  5
3C0
331
1A3
  5
3BF
331
1A4
  5
3BE
331
1A5
  5
3BD
331
1A6
  5
3BC
331
1A7
  5
3BB
331
1A8
  5
3BA
331
1A9
  5
3B9
331
1B0
  5
3B2
331
1B1
  5
3B1
331
1B2
  5
3B0
331
1B3
  5
3AF
331
1B4
  5
3AE
331
1B5
  5
3AD
331
1BC
  5
3A6
331
1C2
  5
3A0
331
1C3
  5
39F
331
1C4
  5
39E
331
1C5
  5
39D
331
1C6
  5
39C
331
1C7
  5
39B
331
1C8
  5
39A
331
1C9
  5
399
331
1CA
  5
398
331
1CB
  5
397
331
1CC
  5
396
331
1CD
  5
395
331
1CE
  5
394
331
1CF
  5
393
331
1D0
  5
392
331
1D1
  5
391
331
1D2
  5
390
331
1D3
  5
38F
331
1D4
  5
38E
331
1D5
  5
38D
331
1D6
  5
38C
331
1D7
  5
38B
331
1D8
  5
38A
331
1D9
  5
389
331
1DA
  5
388
331
1DB
  5
387
331
1DC
  5
386
331
1DD
  5
385
331
1DE
  5
384
331
1DF
  5
383
331
1E0
  5
382
331
1E1
  5
381
331
1E2
  5
380
331
1E3
  5
37F
331
1E4
  5
37E
331
1E5
  5
37D
331
1E6
  5
37C
331
1E7
  5
37B
331
1E8
  5
37A
331
1E9
  5
379
331
1EA
  5
378
331
1EB
  5
377
331
1EC
  5
376
331
1ED
  5
375
331
1EE
  5
374
331
1EF
  5
373
331
1F0
  5
372
331
1F1
  5
371
331
1F2
  5
370
331
1F3
  5
36F
331
1F4
  5
36E
331
1F5
  5
36D
331
1F6
  5
36C
331
1F7
  5
36B
331
1F8
  5
36A
331
1F9
  5
369
331
1FA
  5
368
331
1FB
  5
367
331
1FC
  5
366
331
1FD
  5
365
331
1FE
  5
364
331
1FF
  5
363
331
200
  5
362
331
201
  5
361
331
202
  5
360
331
203
  5
35F
331
204
  5
35E
331
205
  5
35D
331
206
  5
35C
331
207
  5
35B
331
208
  5
35A
331
209
  5
359
331
20A
  5
358
331
20B
  5
357
331
20C
  5
356
331
20D
  5
355
331
20F
  5
353
331
212
  5
350
331
213
  5
34F
331
214
  5
34E
331
215
  5
34D
331
219
  5
349
331
21A
  5
348
331
21B
  5
347
331
21C
  5
346
331
21D
  5
345
331
21E
  5
344
331
21F
  5
343
331
220
  5
342
331
221
  5
341
331
222
  5
340
331
223
  5
33F
331
224
  5
33E
331
225
  5
33D
331
226
  5
33C
331
227
  5
33B
331
228
  5
33A
331
229
  5
339
331
22A
  5
338
331
22B
  5
337
331
22C
  5
336
331
22D
  5
335
331
22E
  5
334
331
22F
  5
333
331
230
  5
332
331
231
  5
331
331
240
  5
322
331
241
  5
321
331
244
  5
31E
331
245
  5
31D
331
24E
  5
314
331
24F
  5
313
331
253
  5
30F
331
254
  5
30E
331
255
  5
30D
331
256
  5
30C
331
257
  5
30B
331
25A
  5
308
331
25B
  5
307
331
25C
  5
306
331
25D
  5
305
331
25F
  5
303
331
262
  5
300
331
263
  5
2FF
331
264
  5
2FE
331
265
  5
2FD
331
266
  5
2FC
331
267
  5
2FB
331
268
  5
2FA
331
269
  5
2F9
331
26A
  5
2F8
331
26D
  5
2F5
331
26E
  5
2F4
331
26F
  5
2F3
331
270
  5
2F2
331
271
  5
2F1
331
272
  5
2F0
331
273
  5
2EF
331
274
  5
2EE
331
275
  5
2ED
331
276
  5
2EC
331
277
  5
2EB
331
278
  5
2EA
331
279
  5
2E9
331
27A
  5
2E8
331
27B
  5
2E7
331
27C
  5
2E6
331
27D
  5
2E5
331
27E
  5
2E4
331
27F
  5
2E3
331
280
  5
2E2
331
281
  5
2E1
331
282
  5
2E0
331
283
  5
2DF
331
284
  5
2DE
331
285
  5
2DD
331
286
  5
2DC
331
287
  5
2DB
331
288
  5
2DA
331
289
  5
2D9
331
28A
  5
2D8
331
28B
  5
2D7
331
28C
  5
2D6
331
28D
  5
2D5
331
28E
  5
2D4
331
28F
  5
2D3
331
290
  5
2D2
331
291
  5
2D1
331
292
  5
2D0
331
293
  5
2CF
331
294
  5
2CE
331
295
  5
2CD
331
296
  5
2CC
331
297
  5
2CB
331
298
  5
2CA
331
299
  5
2C9
331
29A
  5
2C8
331
29B
  5
2C7
331
29C
  5
2C6
331
29D
  5
2C5
331
29E
  5
2C4
331
29F
  5
2C3
331
2A0
  5
2C2
331
2A1
  5
2C1
331
2A2
  5
2C0
331
2A3
  5
2BF
331
2A4
  5
2BE
331
2A5
  5
2BD
331
2A6
  5
2BC
331
2A7
  5
2BB
331
2A8
  5
2BA
331
2A9
  5
2B9
331
2AA
  5
2B8
331
2AB
  5
2B7
331
2AC
  5
2B6
331
2AD
  5
2B5
331
2AE
  5
2B4
331
2AF
  5
2B3
331
2B0
  5
2B2
331
2B2
  5
2B0
331
2B3
  5
2AF
331
2B4
  5
2AE
331
2B5
  5
2AD
331
2B6
  5
2AC
331
2B7
  5
2AB
331
2B8
  5
2AA
331
2B9
  5
2A9
331
2BA
  5
2A8
331
2BB
  5
2A7
331
2BC
  5
2A6
331
2BD
  5
2A5
331
2BE
  5
2A4
331
2BF
  5
2A3
331
2C0
  5
2A2
331
2C1
  5
2A1
331
2C2
  5
2A0
331
2C3
  5
29F
331
2C4
  5
29E
331
2C5
  5
29D
331
2C6
  5
29C
331
2C7
  5
29B
331
2C8
  5
29A
331
2C9
  5
299
331
2CA
  5
298
331
2CB
  5
297
331
2CC
  5
296
331
2CD
  5
295
331
2CE
  5
294
331
2CF
  5
293
331
2D0
  5
292
331
2D1
  5
291
331
2D2
  5
290
331
2D3
  5
28F
331
2D4
  5
28E
331
2D5
  5
28D
331
2D6
  5
28C
331
2D7
  5
28B
331
2D8
  5
28A
331
2D9
  5
289
331
2DA
  5
288
331
2DB
  5
287
331
2DC
  5
286
331
2DD
  5
285
331
2DE
  5
284
331
2DF
  5
283
331
2E0
  5
282
331
2E1
  5
281
331
2E2
  5
280
331
2E3
  5
27F
331
2E4
  5
27E
331
2E5
  5
27D
331
2E6
  5
27C
331
2E7
  5
27B
331
2E8
  5
27A
331
2E9
  5
279
331
2EA
  5
278
331
2EB
  5
277
331
2EC
  5
276
331
2ED
  5
275
331
2EE
  5
274
331
2EF
  5
273
331
2F0
  5
272
331
2F1
  5
271
331
2F2
  5
270
331
2F3
  5
26F
331
2F4
  5
26E
331
2F5
  5
26D
331
2F6
  5
26C
331
2F7
  5
26B
331
2F8
  5
26A
331
2F9
  5
269
331
2FA
  5
268
331
2FB
  5
267
331
2FC
  5
266
331
2FD
  5
265
331
2FE
  5
264
331
2FF
  5
263
331
300
  5
262
331
301
  5
261
331
302
  5
260
331
303
  5
25F
331
304
  5
25E
331
305
  5
25D
331
306
  5
25C
331
307
  5
25B
331
308
  5
25A
331
309
  5
259
331
30A
  5
258
331
30B
  5
257
331
30C
  5
256
331
30D
  5
255
331
30E
  5
254
331
30F
  5
253
331
310
  5
252
331
311
  5
251
331
312
  5
250
331
313
  5
24F
331
314
  5
24E
331
315
  5
24D
331
316
  5
24C
331
317
  5
24B
331
318
  5
24A
331
319
  5
249
331
31A
  5
248
331
31B
  5
247
331
31C
  5
246
331
31D
  5
245
331
31E
  5
244
331
31F
  5
243
331
320
  5
242
331
321
  5
241
331
322
  5
240
331
323
  5
23F
331
324
  5
23E
331
325
  5
23D
331
326
  5
23C
331
327
  5
23B
331
328
  5
23A
331
329
  5
239
331
32A
  5
238
331
32B
  5
237
331
32C
  5
236
331
32D
  5
235
331
32E
  5
234
331
32F
  5
233
331
330
  5
232
331
331
  5
231
331
332
  5
230
331
333
  5
22F
331
334
  5
22E
331
335
  5
22D
331
336
  5
22C
331
337
  5
22B
331
338
  5
22A
331
339
  5
229
331
33A
  5
228
331
33B
  5
227
331
33C
  5
226
331
33D
  5
225
331
33E
  5
224
331
33F
  5
223
331
340
  5
222
331
341
  5
221
331
342
  5
220
331
343
  5
21F
331
347
  5
21B
331
348
  5
21A
331
349
  5
219
331
34A
  5
218
331
34C
  5
216
331
34E
  5
214
331
34F
  5
213
331
350
  5
212
331
351
  5
211
331
352
  5
210
331
353
  5
20F
331
354
  5
20E
331
355
  5
20D
331
356
  5
20C
331
357
  5
20B
331
358
  5
20A
331
359
  5
209
331
35A
  5
208
331
35B
  5
207
331
35C
  5
206
331
35D
  5
205
331
35E
  5
204
331
35F
  5
203
331
360
  5
202
331
361
  5
201
331
362
  5
200
331
363
  5
1FF
331
364
  5
1FE
331
365
  5
1FD
331
366
  5
1FC
331
367
  5
1FB
331
36D
  5
1F5
331
36E
  5
1F4
331
36F
  5
1F3
331
370
  5
1F2
331
371
  5
1F1
331
372
  5
1F0
331
373
  5
1EF
331
374
  5
1EE
331
375
  5
1ED
331
376
  5
1EC
331
378
  5
1EA
331
379
  5
1E9
331
37A
  5
1E8
331
37B
  5
1E7
331
37C
  5
1E6
331
37D
  5
1E5
331
37E
  5
1E4
331
37F
  5
1E3
331
380
  5
1E2
331
381
  5
1E1
331
382
  5
1E0
331
383
  5
1DF
331
384
  5
1DE
331
385
  5
1DD
331
386
  5
1DC
331
387
  5
1DB
331
388
  5
1DA
331
389
  5
1D9
331
38A
  5
1D8
331
38B
  5
1D7
331
38C
  5
1D6
331
38D
  5
1D5
331
38E
  5
1D4
331
38F
  5
1D3
331
390
  5
1D2
331
391
  5
1D1
331
392
  5
1D0
331
393
  5
1CF
331
394
  5
1CE
331
395
  5
1CD
331
396
  5
1CC
331
397
  5
1CB
331
398
  5
1CA
331
399
  5
1C9
331
39A
  5
1C8
331
39B
  5
1C7
331
39C
  5
1C6
331
39D
  5
1C5
331
39E
  5
1C4
331
39F
  5
1C3
331
3A0
  5
1C2
331
3A1
  5
1C1
331
3A2
  5
1C0
331
3A3
  5
1BF
331
3A4
  5
1BE
331
3A5
  5
1BD
331
3A6
  5
1BC
331
3A7
  5
1BB
331
3A8
  5
1BA
331
3A9
  5
1B9
331
3AA
  5
1B8
331
3AB
  5
1B7
331
3AC
  5
1B6
331
3AD
  5
1B5
331
3AE
  5
1B4
331
3AF
  5
1B3
331
3B0
  5
1B2
331
3B1
  5
1B1
331
3B2
  5
1B0
331
3B3
  5
1AF
331
3B4
  5
1AE
331
3B5
  5
1AD
331
3B6
  5
1AC
331
3B7
  5
1AB
331
3B8
  5
1AA
331
3BA
  5
1A8
331
3BB
  5
1A7
331
3BC
  5
1A6
331
3BD
  5
1A5
331
3BE
  5
1A4
331
3BF
  5
1A3
331
3C0
  5
1A2
331
3C1
  5
1A1
331
3C2
  5
1A0
331
3C3
  5
19F
331
3C4
  5
19E
331
3C5
  5
19D
331
3C6
  5
19C
331
3C7
  5
19B
331
3C8
  5
19A
331
3C9
  5
199
331
3CA
  5
198
331
3CB
  5
197
331
3CC
  5
196
331
3CD
  5
195
331
3CE
  5
194
331
3CF
  5
193
331
3D0
  5
192
331
3D1
  5
191
331
3D2
  5
190
331
3D3
  5
18F
331
3D4
  5
18E
331
3D5
  5
18D
331
3D6
  5
18C
331
3D7
  5
18B
331
3D8
  5
18A
331
3D9
  5
189
331
3DA
  5
188
331
3DB
  5
187
331
3DC
  5
186
331
3DD
  5
185
331
3DE
  5
184
331
3DF
  5
183
331
3E0
  5
182
331
3E1
  5
181
331
3E2
  5
180
331
3E3
  5
17F
331
3E4
  5
17E
331
3E5
  5
17D
331
3E6
  5
17C
331
3E7
  5
17B
331
3E8
  5
17A
331
3E9
  5
179
331
3EA
  5
178
331
3EB
  5
177
331
3EC
  5
176
331
3ED
  5
175
331
3EE
  5
174
331
3EF
  5
173
331
3F0
  5
172
331
3F1
  5
171
331
3F2
  5
170
331
3F3
  5
16F
331
3F4
  5
16E
331
3F5
  5
16D
331
3F6
  5
16C
331
3F7
  5
16B
331
3F8
  5
16A
331
3F9
  5
169
331
3FA
  5
168
331
3FB
  5
167
331
3FC
  5
166
331
3FD
  5
165
331
3FE
  5
164
331
3FF
  5
163
331
400
  5
162
331
401
  5
161
331
402
  5
160
331
403
  5
15F
331
404
  5
15E
331
407
  5
15B
331
409
  5
159
331
40A
  5
158
331
40D
  5
155
331
40E
  5
154
331
40F
  5
153
331
410
  5
152
331
411
  5
151
331
412
  5
150
331
413
  5
14F
331
414
  5
14E
331
415
  5
14D
331
416
  5
14C
331
417
  5
14B
331
418
  5
14A
331
419
  5
149
331
41A
  5
148
331
41B
  5
147
331
41C
  5
146
331
41F
  5
143
331
421
  5
141
331
423
  5
13F
331
424
  5
13E
331
425
  5
13D
331
426
  5
13C
331
427
  5
13B
331
428
  5
13A
331
429
  5
139
331
42A
  5
138
331
42B
  5
137
331
42C
  5
136
331
42D
  5
135
331
42E
  5
134
331
42F
  5
133
331
430
  5
132
331
431
  5
131
331
432
  5
130
331
433
  5
12F
331
434
  5
12E
331
435
  5
12D
331
436
  5
12C
331
437
  5
12B
331
438
  5
12A
331
439
  5
129
331
43A
  5
128
331
43B
  5
127
331
43C
  5
126
331
43D
  5
125
331
43E
  5
124
331
43F
  5
123
331
440
  5
122
331
441
  5
121
331
442
  5
120
331
443
  5
11F
331
444
  5
11E
331
445
  5
11D
331
446
  5
11C
331
447
  5
11B
331
451
  5
111
331
452
  5
110
331
453
  5
10F
331
454
  5
10E
331
456
  5
10C
331
457
  5
10B
331
458
  5
10A
331
459
  5
109
331
45A
  5
108
331
45B
  5
107
331
45C
  5
106
331
45D
  5
105
331
45E
  5
104
331
45F
  5
103
331
460
  5
102
331
461
  5
101
331
462
  5
100
331
463
  5
FF
331
464
  5
FE
331
465
  5
FD
331
466
  5
FC
331
467
  5
FB
331
468
  5
FA
331
469
  5
F9
331
46A
  5
F8
331
46B
  5
F7
331
46C
  5
F6
331
46D
  5
F5
331
46E
  5
F4
331
46F
  5
F3
331
470
  5
F2
331
471
  5
F1
331
472
  5
F0
331
473
  5
EF
331
474
  5
EE
331
475
  5
ED
331
476
  5
EC
331
477
  5
EB
331
478
  5
EA
331
479
  5
E9
331
47A
  5
E8
331
47B
  5
E7
331
47C
  5
E6
331
47D
  5
E5
331
47E
  5
E4
331
47F
  5
E3
331
480
  5
E2
331
482
  5
E0
331
483
  5
DF
331
486
  5
DC
331
487
  5
DB
331
488
  5
DA
331
489
  5
D9
331
490
  5
D2
331
491
  5
D1
331
492
  5
D0
  0
LAYOUT
  5
1D
102
{ACAD_REACTORS
330
1E
102
}
330
1E
100
AcDbPlotSettings
  1

  2
Bullzip PDF Printer.pc3
  4
A3
  6

 40
0.2
 41
0.0
 42
0.0
 43
0.0
 44
420.2
 45
297.1
 46
25.0
 47
12.0
 48
139.9999997783334
 49
0.0
140
2813.999993653335
141
1907.499995549166
142
1.0
143
7.0
 70
 11936
 72
     1
 73
     0
 74
     4
  7
monochrome.ctb
 75
     0
147
0.1428571428571428
148
-139.9999997783334
149
0.0
100
AcDbLayout
  1
Model
 70
     0
 71
     0
 10
0.0
 20
0.0
 11
12.0
 21
9.0
 12
0.0
 22
0.0
 32
0.0
 14
250.5133812503109
 24
20.39460434413104
 34
0.0
 15
2346.255048221473
 25
1885.784667565742
 35
0.0
146
0.0
 13
0.0
 23
0.0
 33
0.0
 16
1.0
 26
0.0
 36
0.0
 17
0.0
 27
1.0
 37
0.0
 76
     0
330
17
331
2A
1001
ACAD_PSEXT
1000
Bullzip PDF Printer.pc3
1000
Bullzip PDF Printer
1000
BULLZIP
1000
Bullzip PDF Printer 10.1.0.1871
1070
     0
  0
LAYOUT
  5
22
102
{ACAD_REACTORS
330
1E
102
}
330
1E
100
AcDbPlotSettings
  1

  2
SR-LP8300F
  4

  6

 40
0.0
 41
0.0
 42
0.0
 43
0.0
 44
0.0
 45
0.0
 46
0.0
 47
0.0
 48
0.0
 49
0.0
140
0.0
141
0.0
142
1.0
143
1.0
 70
   688
 72
     0
 73
     0
 74
     5
  7
monochrome.ctb
 75
    16
147
1.0
148
0.0
149
0.0
100
AcDbLayout
  1
ﾚｲｱｳﾄ1
 70
     0
 71
     1
 10
0.0
 20
0.0
 11
12.0
 21
9.0
 12
0.0
 22
0.0
 32
0.0
 14
1.000000000000000E+20
 24
1.000000000000000E+20
 34
1.000000000000000E+20
 15
-1.000000000000000E+20
 25
-1.000000000000000E+20
 35
-1.000000000000000E+20
146
0.0
 13
0.0
 23
0.0
 33
0.0
 16
1.0
 26
0.0
 36
0.0
 17
0.0
 27
1.0
 37
0.0
 76
     0
330
1F
  0
MATERIAL
  5
4F
102
{ACAD_REACTORS
330
7
102
}
102
{ACAD_XDICTIONARY
360
5B6
102
}
330
7
100
AcDbMaterial
  1
ByBlock
  0
MATERIAL
  5
10
102
{ACAD_REACTORS
330
7
102
}
102
{ACAD_XDICTIONARY
360
5B2
102
}
330
7
100
AcDbMaterial
  1
ByLayer
  0
MATERIAL
  5
6
102
{ACAD_REACTORS
330
7
102
}
102
{ACAD_XDICTIONARY
360
5B4
102
}
330
7
100
AcDbMaterial
  1
Global
1001
ACAD
1070
    -1
1070
     3
1070
     0
1000

1071
        0
  0
MLEADERSTYLE
  5
5A3
102
{ACAD_REACTORS
330
541
102
}
102
{ACAD_XDICTIONARY
360
5E8
102
}
330
541
100
AcDbMLeaderStyle
170
     2
171
     1
172
     0
 90
        2
 40
0.0
 41
0.0
173
     1
 91
-1056964608
340
D
 92
       -2
290
     1
 42
0.09
291
     1
 43
0.36
  3
Standard
341
0
 44
0.18
300

342
E
174
     1
178
     6
175
     1
176
     0
 93
-1056964608
 45
0.18
292
     0
297
     0
 46
0.18
343
0
 94
-1056964608
 47
1.0
 49
1.0
140
1.0
293
     1
141
0.0
294
     1
177
     0
142
1.0
295
     0
296
     0
143
0.125
1001
ACAD_MLEADERVER
1070
     2
  0
MLINESTYLE
  5
14
102
{ACAD_REACTORS
330
15
102
}
330
15
100
AcDbMlineStyle
  2
STANDARD
 70
     0
  3

 62
     0
 51
90.0
 52
90.0
 71
     2
 49
0.5
 62
   256
  6
BYLAYER
 49
-0.5
 62
   256
  6
BYLAYER
  0
ACDBPLACEHOLDER
  5
3
102
{ACAD_REACTORS
330
4
102
}
330
4
  0
SCALE
  5
4E
102
{ACAD_REACTORS
330
2C
102
}
330
2C
100
AcDbScale
 70
     0
300
1:1
140
1.0
141
1.0
290
     1
  0
TABLESTYLE
  5
5A7
102
{ACAD_REACTORS
330
540
102
}
330
540
100
AcDbTableStyle
  3
Standard
 70
     0
 71
     0
 40
0.06
 41
0.06
280
     0
281
     0
  7
STANDARD
140
0.18
170
     2
 62
     0
 63
   257
283
     0
274
    -2
284
     1
 64
     0
275
    -2
285
     1
 65
     0
276
    -2
286
     1
 66
     0
277
    -2
287
     1
 67
     0
278
    -2
288
     1
 68
     0
279
    -2
289
     1
 69
     0
  7
STANDARD
140
0.25
170
     5
 62
     0
 63
   257
283
     0
274
    -2
284
     1
 64
     0
275
    -2
285
     1
 65
     0
276
    -2
286
     1
 66
     0
277
    -2
287
     1
 67
     0
278
    -2
288
     1
 68
     0
279
    -2
289
     1
 69
     0
  7
STANDARD
140
0.18
170
     5
 62
     0
 63
   257
283
     0
274
    -2
284
     1
 64
     0
275
    -2
285
     1
 65
     0
276
    -2
286
     1
 66
     0
277
    -2
287
     1
 67
     0
278
    -2
288
     1
 68
     0
279
    -2
289
     1
 69
     0
  0
VISUALSTYLE
  5
549
102
{ACAD_REACTORS
330
29
102
}
102
{ACAD_XDICTIONARY
360
5C0
102
}
330
29
100
AcDbVisualStyle
  2
2dWireframe
 70
     4
 71
     0
 72
     2
 73
     0
 90
        0
 40
0.6
 41
30.0
 62
     5
 63
     7
 74
     1
 91
        4
 64
     7
 65
   257
 75
     1
175
     1
 42
1.0
 92
        0
 66
   257
 43
1.0
 76
     1
 77
     6
 78
     2
 67
     7
 79
     5
170
     0
171
     0
290
     0
174
     0
 93
        1
 44
0.0
173
     0
291
     0
 45
0.0
1001
ACAD
1000
AcDbSavedByObjectVersion
1070
     0
  0
VISUALSTYLE
  5
54C
102
{ACAD_REACTORS
330
29
102
}
102
{ACAD_XDICTIONARY
360
5C6
102
}
330
29
100
AcDbVisualStyle
  2
Basic
 70
     7
 71
     1
 72
     0
 73
     1
 90
        0
 40
0.6
 41
30.0
 62
     5
 63
     7
 74
     0
 91
        4
 64
     7
 65
   257
 75
     1
175
     1
 42
1.0
 92
        8
 66
     7
 43
1.0
 76
     1
 77
     6
 78
     2
 67
     7
 79
     5
170
     0
171
     0
290
     0
174
     0
 93
        1
 44
0.0
173
     0
291
     1
 45
0.0
1001
ACAD
1000
AcDbSavedByObjectVersion
1070
     0
  0
VISUALSTYLE
  5
550
102
{ACAD_REACTORS
330
29
102
}
102
{ACAD_XDICTIONARY
360
5CE
102
}
330
29
100
AcDbVisualStyle
  2
Brighten
 70
    12
 71
     2
 72
     2
 73
     0
 90
        0
 40
0.6
 41
30.0
 62
     5
 63
     7
 74
     1
 91
        4
 64
     7
 65
   257
 75
     1
175
     1
 42
1.0
 92
        8
 66
     7
 43
1.0
 76
     1
 77
     6
 78
     2
 67
     7
 79
     5
170
     0
171
     0
290
     0
174
     0
 93
        1
 44
50.0
173
     0
291
     1
 45
0.0
1001
ACAD
1000
AcDbSavedByObjectVersion
1070
     0
  0
VISUALSTYLE
  5
554
102
{ACAD_REACTORS
330
29
102
}
102
{ACAD_XDICTIONARY
360
5D6
102
}
330
29
100
AcDbVisualStyle
  2
ColorChange
 70
    16
 71
     2
 72
     2
 73
     3
 90
        0
 40
0.6
 41
30.0
 62
     5
 63
     8
 74
     1
 91
        4
 64
     7
 65
   257
 75
     1
175
     1
 42
1.0
 92
        8
 66
     8
 43
1.0
 76
     1
 77
     6
 78
     2
 67
     7
 79
     5
170
     0
171
     0
290
     0
174
     0
 93
        1
 44
0.0
173
     0
291
     1
 45
0.0
1001
ACAD
1000
AcDbSavedByObjectVersion
1070
     0
  0
VISUALSTYLE
  5
54E
102
{ACAD_REACTORS
330
29
102
}
102
{ACAD_XDICTIONARY
360
5CA
102
}
330
29
100
AcDbVisualStyle
  2
Conceptual
 70
     9
 71
     3
 72
     2
 73
     0
 90
        0
 40
0.6
 41
30.0
 62
     5
 63
     7
 74
     2
 91
        2
 64
     7
 65
   257
 75
     1
175
     1
 42
40.0
 92
        8
 66
     7
 43
1.0
 76
     1
 77
     6
 78
     2
 67
     7
 79
     3
170
     0
171
     0
290
     0
174
     0
 93
        1
 44
0.0
173
     0
291
     0
 45
0.0
1001
ACAD
1000
AcDbSavedByObjectVersion
1070
     0
  0
VISUALSTYLE
  5
54F
102
{ACAD_REACTORS
330
29
102
}
102
{ACAD_XDICTIONARY
360
5CC
102
}
330
29
100
AcDbVisualStyle
  2
Dim
 70
    11
 71
     2
 72
     2
 73
     0
 90
        0
 40
0.6
 41
30.0
 62
     5
 63
     7
 74
     1
 91
        4
 64
     7
 65
   257
 75
     1
175
     1
 42
1.0
 92
        8
 66
     7
 43
1.0
 76
     1
 77
     6
 78
     2
 67
     7
 79
     5
170
     0
171
     0
290
     0
174
     0
 93
        1
 44
-50.0
173
     0
291
     1
 45
0.0
1001
ACAD
1000
AcDbSavedByObjectVersion
1070
     0
  0
VISUALSTYLE
  5
557
102
{ACAD_REACTORS
330
29
102
}
102
{ACAD_XDICTIONARY
360
5DC
102
}
330
29
100
AcDbVisualStyle
  2
EdgeColorOff
 70
    22
 71
     2
 72
     2
 73
     0
 90
        0
 40
0.6
 41
30.0
 62
     5
 63
     7
 74
     1
 91
        4
 64
     7
 65
   257
 75
     1
175
     1
 42
1.0
 92
        8
 66
     7
 43
1.0
 76
     1
 77
     6
 78
     2
 67
     7
 79
     5
170
     0
171
     0
290
     0
174
     0
 93
        1
 44
0.0
173
     0
291
     1
 45
0.0
1001
ACAD
1000
AcDbSavedByObjectVersion
1070
     0
  0
VISUALSTYLE
  5
553
102
{ACAD_REACTORS
330
29
102
}
102
{ACAD_XDICTIONARY
360
5D4
102
}
330
29
100
AcDbVisualStyle
  2
Facepattern
 70
    15
 71
     2
 72
     2
 73
     0
 90
        0
 40
0.6
 41
30.0
 62
     5
 63
     7
 74
     1
 91
        4
 64
     7
 65
   257
 75
     1
175
     1
 42
1.0
 92
        8
 66
     7
 43
1.0
 76
     1
 77
     6
 78
     2
 67
     7
 79
     5
170
     0
171
     0
290
     0
174
     0
 93
        1
 44
0.0
173
     0
291
     1
 45
0.0
1001
ACAD
1000
AcDbSavedByObjectVersion
1070
     0
  0
VISUALSTYLE
  5
545
102
{ACAD_REACTORS
330
29
102
}
102
{ACAD_XDICTIONARY
360
5B8
102
}
330
29
100
AcDbVisualStyle
  2
Flat
 70
     0
 71
     2
 72
     1
 73
     1
 90
        2
 40
0.6
 41
30.0
 62
     5
 63
     7
 74
     0
 91
        4
 64
     7
 65
   257
 75
     1
175
     1
 42
1.0
 92
        8
 66
     7
 43
1.0
 76
     1
 77
     6
 78
     2
 67
     7
 79
     5
170
     0
171
     0
290
     0
174
     0
 93
       13
 44
0.0
173
     0
291
     1
 45
0.0
1001
ACAD
1000
AcDbSavedByObjectVersion
1070
     0
  0
VISUALSTYLE
  5
546
102
{ACAD_REACTORS
330
29
102
}
102
{ACAD_XDICTIONARY
360
5BA
102
}
330
29
100
AcDbVisualStyle
  2
FlatWithEdges
 70
     1
 71
     2
 72
     1
 73
     1
 90
        2
 40
0.6
 41
30.0
 62
     5
 63
     7
 74
     1
 91
        4
 64
     7
 65
   257
 75
     1
175
     1
 42
1.0
 92
        0
 66
   257
 43
1.0
 76
     1
 77
     6
 78
     2
 67
     7
 79
     5
170
     0
171
     0
290
     0
174
     0
 93
       13
 44
0.0
173
     0
291
     1
 45
0.0
1001
ACAD
1000
AcDbSavedByObjectVersion
1070
     0
  0
VISUALSTYLE
  5
547
102
{ACAD_REACTORS
330
29
102
}
102
{ACAD_XDICTIONARY
360
5BC
102
}
330
29
100
AcDbVisualStyle
  2
Gouraud
 70
     2
 71
     2
 72
     2
 73
     1
 90
        2
 40
0.6
 41
30.0
 62
     5
 63
     7
 74
     0
 91
        4
 64
     7
 65
   257
 75
     1
175
     1
 42
1.0
 92
        0
 66
     7
 43
1.0
 76
     1
 77
     6
 78
     2
 67
     7
 79
     5
170
     0
171
     0
290
     0
174
     0
 93
       13
 44
0.0
173
     0
291
     1
 45
0.0
1001
ACAD
1000
AcDbSavedByObjectVersion
1070
     0
  0
VISUALSTYLE
  5
548
102
{ACAD_REACTORS
330
29
102
}
102
{ACAD_XDICTIONARY
360
5BE
102
}
330
29
100
AcDbVisualStyle
  2
GouraudWithEdges
 70
     3
 71
     2
 72
     2
 73
     1
 90
        2
 40
0.6
 41
30.0
 62
     5
 63
     7
 74
     1
 91
        4
 64
     7
 65
   257
 75
     1
175
     1
 42
1.0
 92
        0
 66
   257
 43
1.0
 76
     1
 77
     6
 78
     2
 67
     7
 79
     5
170
     0
171
     0
290
     0
174
     0
 93
       13
 44
0.0
173
     0
291
     1
 45
0.0
1001
ACAD
1000
AcDbSavedByObjectVersion
1070
     0
  0
VISUALSTYLE
  5
54B
102
{ACAD_REACTORS
330
29
102
}
102
{ACAD_XDICTIONARY
360
5C4
102
}
330
29
100
AcDbVisualStyle
  2
Hidden
 70
     6
 71
     1
 72
     2
 73
     2
 90
        0
 40
0.6
 41
30.0
 62
     5
 63
     7
 74
     2
 91
        2
 64
     7
 65
   257
 75
     2
175
     1
 42
40.0
 92
        0
 66
   257
 43
1.0
 76
     1
 77
     6
 78
     2
 67
     7
 79
     3
170
     0
171
     0
290
     0
174
     0
 93
        1
 44
0.0
173
     0
291
     0
 45
0.0
1001
ACAD
1000
AcDbSavedByObjectVersion
1070
     0
  0
VISUALSTYLE
  5
555
102
{ACAD_REACTORS
330
29
102
}
102
{ACAD_XDICTIONARY
360
5D8
102
}
330
29
100
AcDbVisualStyle
  2
JitterOff
 70
    20
 71
     2
 72
     2
 73
     0
 90
        0
 40
0.6
 41
30.0
 62
     5
 63
     7
 74
     1
 91
        4
 64
     7
 65
   257
 75
     1
175
     1
 42
1.0
 92
       10
 66
     7
 43
1.0
 76
     1
 77
     6
 78
     2
 67
     7
 79
     5
170
     0
171
     0
290
     0
174
     0
 93
        1
 44
0.0
173
     0
291
     1
 45
0.0
1001
ACAD
1000
AcDbSavedByObjectVersion
1070
     0
  0
VISUALSTYLE
  5
552
102
{ACAD_REACTORS
330
29
102
}
102
{ACAD_XDICTIONARY
360
5D2
102
}
330
29
100
AcDbVisualStyle
  2
Linepattern
 70
    14
 71
     2
 72
     2
 73
     0
 90
        0
 40
0.6
 41
30.0
 62
     5
 63
     7
 74
     1
 91
        4
 64
     7
 65
   257
 75
     7
175
     7
 42
1.0
 92
        8
 66
     7
 43
1.0
 76
     1
 77
     6
 78
     2
 67
     7
 79
     5
170
     0
171
     0
290
     0
174
     0
 93
        1
 44
0.0
173
     0
291
     1
 45
0.0
1001
ACAD
1000
AcDbSavedByObjectVersion
1070
     0
  0
VISUALSTYLE
  5
556
102
{ACAD_REACTORS
330
29
102
}
102
{ACAD_XDICTIONARY
360
5DA
102
}
330
29
100
AcDbVisualStyle
  2
OverhangOff
 70
    21
 71
     2
 72
     2
 73
     0
 90
        0
 40
0.6
 41
30.0
 62
     5
 63
     7
 74
     1
 91
        4
 64
     7
 65
   257
 75
     1
175
     1
 42
1.0
 92
        9
 66
     7
 43
1.0
 76
     1
 77
     6
 78
     2
 67
     7
 79
     5
170
     0
171
     0
290
     0
174
     0
 93
        1
 44
0.0
173
     0
291
     1
 45
0.0
1001
ACAD
1000
AcDbSavedByObjectVersion
1070
     0
  0
VISUALSTYLE
  5
54D
102
{ACAD_REACTORS
330
29
102
}
102
{ACAD_XDICTIONARY
360
5C8
102
}
330
29
100
AcDbVisualStyle
  2
Realistic
 70
     8
 71
     2
 72
     3
 73
     0
 90
        2
 40
0.6
 41
30.0
 62
     5
 63
     7
 74
     0
 91
        0
 64
     7
 65
   257
 75
     1
175
     1
 42
1.0
 92
        8
 66
   257
 43
1.0
 76
     1
 77
     6
 78
     2
 67
     7
 79
     3
170
     0
171
     0
290
     0
174
     0
 93
       13
 44
0.0
173
     0
291
     0
 45
0.0
1001
ACAD
1000
AcDbSavedByObjectVersion
1070
     0
  0
VISUALSTYLE
  5
55C
102
{ACAD_REACTORS
330
29
102
}
102
{ACAD_XDICTIONARY
360
5E6
102
}
330
29
100
AcDbVisualStyle
  2
Shaded
 70
    27
 71
     2
 72
     2
 73
     1
 90
        2
 40
0.6
 41
30.0
 62
     5
 63
     7
 74
     0
 91
        4
 64
     7
 65
   257
 75
     1
175
     1
 42
1.0
 92
        8
 66
   257
 43
1.0
 76
     1
 77
     6
 78
     2
 67
   251
 79
     3
170
     0
171
     0
290
     0
174
     0
 93
        5
 44
0.0
173
     0
291
     0
 45
0.0
1001
ACAD
1000
AcDbSavedByObjectVersion
1070
     0
  0
VISUALSTYLE
  5
55B
102
{ACAD_REACTORS
330
29
102
}
102
{ACAD_XDICTIONARY
360
5E4
102
}
330
29
100
AcDbVisualStyle
  2
Shaded with edges
 70
    26
 71
     2
 72
     2
 73
     1
 90
        2
 40
0.6
 41
30.0
 62
     5
 63
     7
 74
     1
 91
       10
 64
     7
 65
   257
 75
     2
175
     1
 42
1.0
 92
        8
 66
   257
 43
1.0
 76
     1
 77
     6
 78
     2
 67
     7
 79
     3
170
     0
171
     0
290
     0
174
     0
 93
        5
 44
0.0
173
     0
291
     0
 45
0.0
1001
ACAD
1000
AcDbSavedByObjectVersion
1070
     0
  0
VISUALSTYLE
  5
558
102
{ACAD_REACTORS
330
29
102
}
102
{ACAD_XDICTIONARY
360
5DE
102
}
330
29
100
AcDbVisualStyle
  2
Shades of Gray
 70
    23
 71
     2
 72
     2
 73
     3
 90
        0
 40
0.6
 41
30.0
 62
     5
 63
     7
 74
     2
 91
        2
 64
     7
 65
     7
 75
     1
175
     1
 42
40.0
 92
        8
 66
     7
 43
1.0
 76
     1
 77
     6
 78
     2
 67
     7
 79
     3
170
     0
171
     0
290
     0
174
     0
 93
        1
 44
0.0
173
     0
291
     0
 45
0.0
1001
ACAD
1000
AcDbSavedByObjectVersion
1070
     0
  0
VISUALSTYLE
  5
559
102
{ACAD_REACTORS
330
29
102
}
102
{ACAD_XDICTIONARY
360
5E0
102
}
330
29
100
AcDbVisualStyle
  2
Sketchy
 70
    24
 71
     1
 72
     2
 73
     2
 90
        0
 40
0.6
 41
30.0
 62
     5
 63
     7
 74
     2
 91
        2
 64
     7
 65
     7
 75
     1
175
     1
 42
40.0
 92
       11
 66
     7
 43
1.0
 76
     1
 77
     6
 78
     2
 67
     7
 79
     6
170
     0
171
     0
290
     0
174
     0
 93
        1
 44
0.0
173
     0
291
     0
 45
0.0
1001
ACAD
1000
AcDbSavedByObjectVersion
1070
     0
  0
VISUALSTYLE
  5
551
102
{ACAD_REACTORS
330
29
102
}
102
{ACAD_XDICTIONARY
360
5D0
102
}
330
29
100
AcDbVisualStyle
  2
Thicken
 70
    13
 71
     2
 72
     2
 73
     0
 90
        0
 40
0.6
 41
30.0
 62
     5
 63
     7
 74
     1
 91
        4
 64
     7
 65
   257
 75
     1
175
     1
 42
1.0
 92
       12
 66
     7
 43
1.0
 76
     1
 77
     6
 78
     2
 67
     7
 79
     5
170
     0
171
     0
290
     0
174
     0
 93
        1
 44
0.0
173
     0
291
     1
 45
0.0
1001
ACAD
1000
AcDbSavedByObjectVersion
1070
     0
  0
VISUALSTYLE
  5
54A
102
{ACAD_REACTORS
330
29
102
}
102
{ACAD_XDICTIONARY
360
5C2
102
}
330
29
100
AcDbVisualStyle
  2
Wireframe
 70
     5
 71
     0
 72
     2
 73
     0
 90
        0
 40
0.6
 41
30.0
 62
     5
 63
     7
 74
     1
 91
        4
 64
     7
 65
   257
 75
     1
175
     1
 42
1.0
 92
        0
 66
   257
 43
1.0
 76
     1
 77
     6
 78
     2
 67
     7
 79
     5
170
     0
171
     0
290
     0
174
     0
 93
        1
 44
0.0
173
     0
291
     0
 45
0.0
1001
ACAD
1000
AcDbSavedByObjectVersion
1070
     0
  0
VISUALSTYLE
  5
55A
102
{ACAD_REACTORS
330
29
102
}
102
{ACAD_XDICTIONARY
360
5E2
102
}
330
29
100
AcDbVisualStyle
  2
X-Ray
 70
    25
 71
     2
 72
     2
 73
     1
 90
        1
 40
0.5
 41
30.0
 62
     5
 63
     7
 74
     1
 91
        0
 64
     7
 65
   257
 75
     1
175
     1
 42
1.0
 92
        8
 66
     7
 43
1.0
 76
     1
 77
     6
 78
     2
 67
     7
 79
     3
170
     0
171
     0
290
     0
174
     0
 93
       13
 44
0.0
173
     0
291
     0
 45
0.0
1001
ACAD
1000
AcDbSavedByObjectVersion
1070
     0
  0
XRECORD
  5
5AC
102
{ACAD_REACTORS
330
5AB
102
}
330
5AB
100
AcDbXrecord
280
     1
340
28
  0
XRECORD
  5
5AD
102
{ACAD_REACTORS
330
5AB
102
}
330
5AB
100
AcDbXrecord
280
     1
340
7
  0
DICTIONARYVAR
  5
53F
102
{ACAD_REACTORS
330
53E
102
}
330
53E
100
DictionaryVariables
280
     0
  1
1:1
  0
DICTIONARYVAR
  5
5A5
102
{ACAD_REACTORS
330
53E
102
}
330
53E
100
DictionaryVariables
280
     0
  1
Standard
  0
DICTIONARYVAR
  5
5A8
102
{ACAD_REACTORS
330
53E
102
}
330
53E
100
DictionaryVariables
280
     0
  1
Standard
  0
DICTIONARYVAR
  5
5A9
102
{ACAD_REACTORS
330
53E
102
}
330
53E
100
DictionaryVariables
280
     0
  1
0
  0
DICTIONARYVAR
  5
5AA
102
{ACAD_REACTORS
330
53E
102
}
330
53E
100
DictionaryVariables
280
     0
  1
1
  0
DICTIONARYVAR
  5
5B1
102
{ACAD_REACTORS
330
53E
102
}
330
53E
100
DictionaryVariables
280
     0
  1
1
  0
DICTIONARYVAR
  5
542
102
{ACAD_REACTORS
330
53E
102
}
330
53E
100
DictionaryVariables
280
     0
  1
0
  0
DICTIONARY
  5
5B6
330
4F
100
AcDbDictionary
280
     1
281
     1
  3
ACAD_XREC_ROUNDTRIP
360
5B7
  0
DICTIONARY
  5
5B2
330
10
100
AcDbDictionary
280
     1
281
     1
  3
ACAD_XREC_ROUNDTRIP
360
5B3
  0
DICTIONARY
  5
5B4
330
6
100
AcDbDictionary
280
     1
281
     1
  3
ACAD_XREC_ROUNDTRIP
360
5B5
  0
DICTIONARY
  5
5E8
330
5A3
100
AcDbDictionary
280
     1
281
     1
  3
ACAD_XREC_ROUNDTRIP
360
5E9
  0
DICTIONARY
  5
5C0
330
549
100
AcDbDictionary
280
     1
281
     1
  3
ACAD_XREC_ROUNDTRIP
360
5C1
  0
DICTIONARY
  5
5C6
330
54C
100
AcDbDictionary
280
     1
281
     1
  3
ACAD_XREC_ROUNDTRIP
360
5C7
  0
DICTIONARY
  5
5CE
330
550
100
AcDbDictionary
280
     1
281
     1
  3
ACAD_XREC_ROUNDTRIP
360
5CF
  0
DICTIONARY
  5
5D6
330
554
100
AcDbDictionary
280
     1
281
     1
  3
ACAD_XREC_ROUNDTRIP
360
5D7
  0
DICTIONARY
  5
5CA
330
54E
100
AcDbDictionary
280
     1
281
     1
  3
ACAD_XREC_ROUNDTRIP
360
5CB
  0
DICTIONARY
  5
5CC
330
54F
100
AcDbDictionary
280
     1
281
     1
  3
ACAD_XREC_ROUNDTRIP
360
5CD
  0
DICTIONARY
  5
5DC
330
557
100
AcDbDictionary
280
     1
281
     1
  3
ACAD_XREC_ROUNDTRIP
360
5DD
  0
DICTIONARY
  5
5D4
330
553
100
AcDbDictionary
280
     1
281
     1
  3
ACAD_XREC_ROUNDTRIP
360
5D5
  0
DICTIONARY
  5
5B8
330
545
100
AcDbDictionary
280
     1
281
     1
  3
ACAD_XREC_ROUNDTRIP
360
5B9
  0
DICTIONARY
  5
5BA
330
546
100
AcDbDictionary
280
     1
281
     1
  3
ACAD_XREC_ROUNDTRIP
360
5BB
  0
DICTIONARY
  5
5BC
330
547
100
AcDbDictionary
280
     1
281
     1
  3
ACAD_XREC_ROUNDTRIP
360
5BD
  0
DICTIONARY
  5
5BE
330
548
100
AcDbDictionary
280
     1
281
     1
  3
ACAD_XREC_ROUNDTRIP
360
5BF
  0
DICTIONARY
  5
5C4
330
54B
100
AcDbDictionary
280
     1
281
     1
  3
ACAD_XREC_ROUNDTRIP
360
5C5
  0
DICTIONARY
  5
5D8
330
555
100
AcDbDictionary
280
     1
281
     1
  3
ACAD_XREC_ROUNDTRIP
360
5D9
  0
DICTIONARY
  5
5D2
330
552
100
AcDbDictionary
280
     1
281
     1
  3
ACAD_XREC_ROUNDTRIP
360
5D3
  0
DICTIONARY
  5
5DA
330
556
100
AcDbDictionary
280
     1
281
     1
  3
ACAD_XREC_ROUNDTRIP
360
5DB
  0
DICTIONARY
  5
5C8
330
54D
100
AcDbDictionary
280
     1
281
     1
  3
ACAD_XREC_ROUNDTRIP
360
5C9
  0
DICTIONARY
  5
5E6
330
55C
100
AcDbDictionary
280
     1
281
     1
  3
ACAD_XREC_ROUNDTRIP
360
5E7
  0
DICTIONARY
  5
5E4
330
55B
100
AcDbDictionary
280
     1
281
     1
  3
ACAD_XREC_ROUNDTRIP
360
5E5
  0
DICTIONARY
  5
5DE
330
558
100
AcDbDictionary
280
     1
281
     1
  3
ACAD_XREC_ROUNDTRIP
360
5DF
  0
DICTIONARY
  5
5E0
330
559
100
AcDbDictionary
280
     1
281
     1
  3
ACAD_XREC_ROUNDTRIP
360
5E1
  0
DICTIONARY
  5
5D0
330
551
100
AcDbDictionary
280
     1
281
     1
  3
ACAD_XREC_ROUNDTRIP
360
5D1
  0
DICTIONARY
  5
5C2
330
54A
100
AcDbDictionary
280
     1
281
     1
  3
ACAD_XREC_ROUNDTRIP
360
5C3
  0
DICTIONARY
  5
5E2
330
55A
100
AcDbDictionary
280
     1
281
     1
  3
ACAD_XREC_ROUNDTRIP
360
5E3
  0
XRECORD
  5
5B7
102
{ACAD_REACTORS
330
5B6
102
}
330
5B6
100
AcDbXrecord
280
     1
102
MATERIAL
148
0.0
149
0.0
149
0.0
 93
        0
 94
      127
282
     0
 72
     1
 77
     1
171
     1
175
     1
179
     1
273
     0
  0
XRECORD
  5
5B3
102
{ACAD_REACTORS
330
5B2
102
}
330
5B2
100
AcDbXrecord
280
     1
102
MATERIAL
148
0.0
149
0.0
149
0.0
 93
        0
 94
      127
282
     0
 72
     1
 77
     1
171
     1
175
     1
179
     1
273
     0
  0
XRECORD
  5
5B5
102
{ACAD_REACTORS
330
5B4
102
}
330
5B4
100
AcDbXrecord
280
     1
102
MATERIAL
148
0.0
149
0.0
149
0.0
 93
        0
 94
      127
282
     0
 72
     1
 77
     1
171
     1
175
     1
179
     1
273
     0
  0
XRECORD
  5
5E9
102
{ACAD_REACTORS
330
5E8
102
}
330
5E8
100
AcDbXrecord
280
     1
102
ACAD_ROUNDTRIP_2010_MLEADER_STYLE
  0
XRECORD
  5
5C1
102
{ACAD_REACTORS
330
5C0
102
}
330
5C0
100
AcDbXrecord
280
     1
102
RTVSPropertyOp0
 70
     1
102
RTVSPropertyOp1
 70
     1
102
RTVSPropertyOp2
 70
     1
102
RTVSPropertyOp3
 70
     1
102
RTVSPropertyOp4
 70
     1
102
RTVSPropertyOp5
 70
     1
102
RTVSPropertyOp6
 70
     1
102
RTVSPropertyOp7
 70
     1
102
RTVSPropertyOp8
 70
     1
102
RTVSPropertyOp9
 70
     1
102
RTVSPropertyOp10
 70
     1
102
RTVSPropertyOp11
 70
     1
102
RTVSPropertyOp12
 70
     1
102
RTVSPropertyOp13
 70
     1
102
RTVSPropertyOp14
 70
     1
102
RTVSPropertyOp15
 70
     1
102
RTVSPropertyOp16
 70
     1
102
RTVSPropertyOp17
 70
     1
102
RTVSPropertyOp18
 70
     1
102
RTVSPropertyOp19
 70
     1
102
RTVSPropertyOp20
 70
     1
102
RTVSPropertyOp21
 70
     1
102
RTVSPropertyOp22
 70
     1
102
RTVSPropertyOp23
 70
     1
102
RTVSPropertyOp24
 70
     1
102
RTVSPropertyOp25
 70
     1
102
RTVSPropertyOp26
 70
     1
102
RTVSPropertyOp27
 70
     1
102
RTVSPropertyOp28
 70
     1
102
RTVSPropertyOp29
 70
     1
102
RTVSPropertyOp30
 70
     1
102
RTVSPropertyOp31
 70
     1
102
RTVSPropertyOp32
 70
     1
102
RTVSPropertyOp33
 70
     1
102
RTVSPropertyOp34
 70
     1
102
RTVSPropertyOp35
 70
     1
102
RTVSPropertyOp36
 70
     1
102
RTVSPropertyOp37
 70
     1
102
RTVSPropertyOp38
 70
     1
102
RTVSPropertyOp39
 70
     1
102
RTVSPropertyOp40
 70
     1
102
RTVSPropertyOp41
 70
     1
102
RTVSPropertyOp42
 70
     1
102
RTVSPropertyOp43
 70
     1
102
RTVSPropertyOp44
 70
     1
102
RTVSPropertyOp45
 70
     1
102
RTVSPropertyOp46
 70
     1
102
RTVSPropertyOp47
 70
     1
102
RTVSPropertyOp48
 70
     1
102
RTVSPropertyOp49
 70
     1
102
RTVSPropertyOp50
 70
     1
102
RTVSPropertyOp51
 70
     0
102
RTVSPropertyOp52
 70
     0
102
RTVSPropertyOp53
 70
     1
102
RTVSPropertyOp54
 70
     1
102
RTVSPropertyOp55
 70
     1
102
RTVSPropertyOp56
 70
     1
102
RTVSPropertyOp57
 70
     1
102
RTVSPost2010Prop28
280
     1
102
RTVSPost2010PropOp28
 70
     1
102
RTVSPost2010Prop29
280
     1
102
RTVSPost2010PropOp29
 70
     1
102
RTVSPost2010Prop30
280
     0
102
RTVSPost2010PropOp30
 70
     1
102
RTVSPost2010Prop31
280
     0
102
RTVSPost2010PropOp31
 70
     1
102
RTVSPost2010Prop32
280
     0
102
RTVSPost2010PropOp32
 70
     1
102
RTVSPost2010Prop33
280
     0
102
RTVSPost2010PropOp33
 70
     1
102
RTVSPost2010Prop34
280
     0
102
RTVSPost2010PropOp34
 70
     1
102
RTVSPost2010Prop35
280
     0
102
RTVSPost2010PropOp35
 70
     1
102
RTVSPost2010Prop36
280
     0
102
RTVSPost2010PropOp36
 70
     1
102
RTVSPost2010Prop37
 90
       50
102
RTVSPost2010PropOp37
 70
     1
102
RTVSPost2010Prop38
140
0.0
102
RTVSPost2010PropOp38
 70
     1
102
RTVSPost2010Prop39
140
1.0
102
RTVSPost2010PropOp39
 70
     1
102
RTVSPost2010Prop40
 90
        0
102
RTVSPost2010PropOp40
 70
     1
102
RTVSPost2010Prop41ColorIndex
 90
       18
102
RTVSPost2010Prop41ColorRGB
 90
        0
102
RTVSPost2010PropOp41
 70
     1
102
RTVSPost2010Prop42
 90
       50
102
RTVSPost2010PropOp42
 70
     1
102
RTVSPost2010Prop43
 90
        3
102
RTVSPost2010PropOp43
 70
     1
102
RTVSPost2010Prop44ColorIndex
 90
        5
102
RTVSPost2010Prop44ColorRGB
 90
      255
102
RTVSPost2010PropOp44
 70
     1
102
RTVSPost2010Prop45
280
     0
102
RTVSPost2010PropOp45
 70
     1
102
RTVSPost2010Prop46
 90
       50
102
RTVSPost2010PropOp46
 70
     1
102
RTVSPost2010Prop47
 90
       50
102
RTVSPost2010PropOp47
 70
     1
102
RTVSPost2010Prop48
 90
       50
102
RTVSPost2010PropOp48
 70
     1
102
RTVSPost2010Prop49
280
     0
102
RTVSPost2010PropOp49
 70
     1
102
RTVSPost2010Prop50
 90
       50
102
RTVSPost2010PropOp50
 70
     1
102
RTVSPost2010Prop51ColorIndex
 90
      256
102
RTVSPost2010Prop51ColorRGB
 90
-16777216
102
RTVSPost2010PropOp51
 70
     0
102
RTVSPost2010Prop52
140
1.0
102
RTVSPost2010PropOp52
 70
     0
102
RTVSPost2010Prop53
 90
        2
102
RTVSPost2010PropOp53
 70
     1
102
RTVSPost2010Prop54
  1
strokes_ogs.tif
102
RTVSPost2010PropOp54
 70
     1
102
RTVSPost2010Prop55
280
     0
102
RTVSPost2010PropOp55
 70
     1
102
RTVSPost2010Prop56
140
1.0
102
RTVSPost2010PropOp56
 70
     1
102
RTVSPost2010Prop57
140
1.0
102
RTVSPost2010PropOp57
 70
     1
  0
XRECORD
  5
5C7
102
{ACAD_REACTORS
330
5C6
102
}
330
5C6
100
AcDbXrecord
280
     1
102
RTVSPropertyOp0
 70
     1
102
RTVSPropertyOp1
 70
     1
102
RTVSPropertyOp2
 70
     1
102
RTVSPropertyOp3
 70
     1
102
RTVSPropertyOp4
 70
     1
102
RTVSPropertyOp5
 70
     1
102
RTVSPropertyOp6
 70
     1
102
RTVSPropertyOp7
 70
     1
102
RTVSPropertyOp8
 70
     1
102
RTVSPropertyOp9
 70
     1
102
RTVSPropertyOp10
 70
     1
102
RTVSPropertyOp11
 70
     1
102
RTVSPropertyOp12
 70
     1
102
RTVSPropertyOp13
 70
     1
102
RTVSPropertyOp14
 70
     1
102
RTVSPropertyOp15
 70
     1
102
RTVSPropertyOp16
 70
     1
102
RTVSPropertyOp17
 70
     1
102
RTVSPropertyOp18
 70
     1
102
RTVSPropertyOp19
 70
     1
102
RTVSPropertyOp20
 70
     1
102
RTVSPropertyOp21
 70
     1
102
RTVSPropertyOp22
 70
     1
102
RTVSPropertyOp23
 70
     1
102
RTVSPropertyOp24
 70
     1
102
RTVSPropertyOp25
 70
     1
102
RTVSPropertyOp26
 70
     1
102
RTVSPropertyOp27
 70
     1
102
RTVSPropertyOp28
 70
     1
102
RTVSPropertyOp29
 70
     1
102
RTVSPropertyOp30
 70
     1
102
RTVSPropertyOp31
 70
     1
102
RTVSPropertyOp32
 70
     1
102
RTVSPropertyOp33
 70
     1
102
RTVSPropertyOp34
 70
     1
102
RTVSPropertyOp35
 70
     1
102
RTVSPropertyOp36
 70
     1
102
RTVSPropertyOp37
 70
     1
102
RTVSPropertyOp38
 70
     1
102
RTVSPropertyOp39
 70
     1
102
RTVSPropertyOp40
 70
     1
102
RTVSPropertyOp41
 70
     1
102
RTVSPropertyOp42
 70
     1
102
RTVSPropertyOp43
 70
     1
102
RTVSPropertyOp44
 70
     1
102
RTVSPropertyOp45
 70
     1
102
RTVSPropertyOp46
 70
     1
102
RTVSPropertyOp47
 70
     1
102
RTVSPropertyOp48
 70
     1
102
RTVSPropertyOp49
 70
     1
102
RTVSPropertyOp50
 70
     1
102
RTVSPropertyOp51
 70
     0
102
RTVSPropertyOp52
 70
     0
102
RTVSPropertyOp53
 70
     1
102
RTVSPropertyOp54
 70
     1
102
RTVSPropertyOp55
 70
     1
102
RTVSPropertyOp56
 70
     1
102
RTVSPropertyOp57
 70
     1
102
RTVSPost2010Prop28
280
     0
102
RTVSPost2010PropOp28
 70
     1
102
RTVSPost2010Prop29
280
     1
102
RTVSPost2010PropOp29
 70
     1
102
RTVSPost2010Prop30
280
     1
102
RTVSPost2010PropOp30
 70
     1
102
RTVSPost2010Prop31
280
     0
102
RTVSPost2010PropOp31
 70
     1
102
RTVSPost2010Prop32
280
     0
102
RTVSPost2010PropOp32
 70
     1
102
RTVSPost2010Prop33
280
     0
102
RTVSPost2010PropOp33
 70
     1
102
RTVSPost2010Prop34
280
     0
102
RTVSPost2010PropOp34
 70
     1
102
RTVSPost2010Prop35
280
     0
102
RTVSPost2010PropOp35
 70
     1
102
RTVSPost2010Prop36
280
     0
102
RTVSPost2010PropOp36
 70
     1
102
RTVSPost2010Prop37
 90
       50
102
RTVSPost2010PropOp37
 70
     1
102
RTVSPost2010Prop38
140
0.0
102
RTVSPost2010PropOp38
 70
     1
102
RTVSPost2010Prop39
140
1.0
102
RTVSPost2010PropOp39
 70
     1
102
RTVSPost2010Prop40
 90
        0
102
RTVSPost2010PropOp40
 70
     1
102
RTVSPost2010Prop41ColorIndex
 90
       18
102
RTVSPost2010Prop41ColorRGB
 90
        0
102
RTVSPost2010PropOp41
 70
     1
102
RTVSPost2010Prop42
 90
       50
102
RTVSPost2010PropOp42
 70
     1
102
RTVSPost2010Prop43
 90
        3
102
RTVSPost2010PropOp43
 70
     1
102
RTVSPost2010Prop44ColorIndex
 90
        5
102
RTVSPost2010Prop44ColorRGB
 90
      255
102
RTVSPost2010PropOp44
 70
     1
102
RTVSPost2010Prop45
280
     0
102
RTVSPost2010PropOp45
 70
     1
102
RTVSPost2010Prop46
 90
       50
102
RTVSPost2010PropOp46
 70
     1
102
RTVSPost2010Prop47
 90
       50
102
RTVSPost2010PropOp47
 70
     1
102
RTVSPost2010Prop48
 90
       50
102
RTVSPost2010PropOp48
 70
     1
102
RTVSPost2010Prop49
280
     0
102
RTVSPost2010PropOp49
 70
     1
102
RTVSPost2010Prop50
 90
       50
102
RTVSPost2010PropOp50
 70
     1
102
RTVSPost2010Prop51ColorIndex
 90
      256
102
RTVSPost2010Prop51ColorRGB
 90
-16777216
102
RTVSPost2010PropOp51
 70
     0
102
RTVSPost2010Prop52
140
1.0
102
RTVSPost2010PropOp52
 70
     0
102
RTVSPost2010Prop53
 90
        2
102
RTVSPost2010PropOp53
 70
     1
102
RTVSPost2010Prop54
  1
strokes_ogs.tif
102
RTVSPost2010PropOp54
 70
     1
102
RTVSPost2010Prop55
280
     0
102
RTVSPost2010PropOp55
 70
     1
102
RTVSPost2010Prop56
140
1.0
102
RTVSPost2010PropOp56
 70
     1
102
RTVSPost2010Prop57
140
1.0
102
RTVSPost2010PropOp57
 70
     1
  0
XRECORD
  5
5CF
102
{ACAD_REACTORS
330
5CE
102
}
330
5CE
100
AcDbXrecord
280
     1
102
RTVSPropertyOp0
 70
     1
102
RTVSPropertyOp1
 70
     1
102
RTVSPropertyOp2
 70
     1
102
RTVSPropertyOp3
 70
     1
102
RTVSPropertyOp4
 70
     1
102
RTVSPropertyOp5
 70
     1
102
RTVSPropertyOp6
 70
     1
102
RTVSPropertyOp7
 70
     1
102
RTVSPropertyOp8
 70
     1
102
RTVSPropertyOp9
 70
     1
102
RTVSPropertyOp10
 70
     1
102
RTVSPropertyOp11
 70
     1
102
RTVSPropertyOp12
 70
     1
102
RTVSPropertyOp13
 70
     1
102
RTVSPropertyOp14
 70
     1
102
RTVSPropertyOp15
 70
     1
102
RTVSPropertyOp16
 70
     1
102
RTVSPropertyOp17
 70
     1
102
RTVSPropertyOp18
 70
     1
102
RTVSPropertyOp19
 70
     1
102
RTVSPropertyOp20
 70
     1
102
RTVSPropertyOp21
 70
     1
102
RTVSPropertyOp22
 70
     1
102
RTVSPropertyOp23
 70
     1
102
RTVSPropertyOp24
 70
     1
102
RTVSPropertyOp25
 70
     1
102
RTVSPropertyOp26
 70
     1
102
RTVSPropertyOp27
 70
     1
102
RTVSPropertyOp28
 70
     1
102
RTVSPropertyOp29
 70
     1
102
RTVSPropertyOp30
 70
     1
102
RTVSPropertyOp31
 70
     1
102
RTVSPropertyOp32
 70
     1
102
RTVSPropertyOp33
 70
     1
102
RTVSPropertyOp34
 70
     1
102
RTVSPropertyOp35
 70
     1
102
RTVSPropertyOp36
 70
     1
102
RTVSPropertyOp37
 70
     1
102
RTVSPropertyOp38
 70
     1
102
RTVSPropertyOp39
 70
     1
102
RTVSPropertyOp40
 70
     1
102
RTVSPropertyOp41
 70
     1
102
RTVSPropertyOp42
 70
     1
102
RTVSPropertyOp43
 70
     1
102
RTVSPropertyOp44
 70
     1
102
RTVSPropertyOp45
 70
     1
102
RTVSPropertyOp46
 70
     1
102
RTVSPropertyOp47
 70
     1
102
RTVSPropertyOp48
 70
     1
102
RTVSPropertyOp49
 70
     1
102
RTVSPropertyOp50
 70
     1
102
RTVSPropertyOp51
 70
     0
102
RTVSPropertyOp52
 70
     0
102
RTVSPropertyOp53
 70
     1
102
RTVSPropertyOp54
 70
     1
102
RTVSPropertyOp55
 70
     1
102
RTVSPropertyOp56
 70
     1
102
RTVSPropertyOp57
 70
     1
102
RTVSPost2010Prop28
280
     0
102
RTVSPost2010PropOp28
 70
     1
102
RTVSPost2010Prop29
280
     1
102
RTVSPost2010PropOp29
 70
     1
102
RTVSPost2010Prop30
280
     1
102
RTVSPost2010PropOp30
 70
     1
102
RTVSPost2010Prop31
280
     0
102
RTVSPost2010PropOp31
 70
     1
102
RTVSPost2010Prop32
280
     0
102
RTVSPost2010PropOp32
 70
     1
102
RTVSPost2010Prop33
280
     0
102
RTVSPost2010PropOp33
 70
     1
102
RTVSPost2010Prop34
280
     0
102
RTVSPost2010PropOp34
 70
     1
102
RTVSPost2010Prop35
280
     0
102
RTVSPost2010PropOp35
 70
     1
102
RTVSPost2010Prop36
280
     0
102
RTVSPost2010PropOp36
 70
     1
102
RTVSPost2010Prop37
 90
       50
102
RTVSPost2010PropOp37
 70
     1
102
RTVSPost2010Prop38
140
0.0
102
RTVSPost2010PropOp38
 70
     1
102
RTVSPost2010Prop39
140
1.0
102
RTVSPost2010PropOp39
 70
     1
102
RTVSPost2010Prop40
 90
        0
102
RTVSPost2010PropOp40
 70
     1
102
RTVSPost2010Prop41ColorIndex
 90
       18
102
RTVSPost2010Prop41ColorRGB
 90
        0
102
RTVSPost2010PropOp41
 70
     1
102
RTVSPost2010Prop42
 90
       50
102
RTVSPost2010PropOp42
 70
     1
102
RTVSPost2010Prop43
 90
        3
102
RTVSPost2010PropOp43
 70
     1
102
RTVSPost2010Prop44ColorIndex
 90
        5
102
RTVSPost2010Prop44ColorRGB
 90
      255
102
RTVSPost2010PropOp44
 70
     1
102
RTVSPost2010Prop45
280
     0
102
RTVSPost2010PropOp45
 70
     1
102
RTVSPost2010Prop46
 90
       50
102
RTVSPost2010PropOp46
 70
     1
102
RTVSPost2010Prop47
 90
       50
102
RTVSPost2010PropOp47
 70
     1
102
RTVSPost2010Prop48
 90
       50
102
RTVSPost2010PropOp48
 70
     1
102
RTVSPost2010Prop49
280
     0
102
RTVSPost2010PropOp49
 70
     1
102
RTVSPost2010Prop50
 90
       50
102
RTVSPost2010PropOp50
 70
     1
102
RTVSPost2010Prop51ColorIndex
 90
      256
102
RTVSPost2010Prop51ColorRGB
 90
-16777216
102
RTVSPost2010PropOp51
 70
     0
102
RTVSPost2010Prop52
140
1.0
102
RTVSPost2010PropOp52
 70
     0
102
RTVSPost2010Prop53
 90
        2
102
RTVSPost2010PropOp53
 70
     1
102
RTVSPost2010Prop54
  1
strokes_ogs.tif
102
RTVSPost2010PropOp54
 70
     1
102
RTVSPost2010Prop55
280
     0
102
RTVSPost2010PropOp55
 70
     1
102
RTVSPost2010Prop56
140
1.0
102
RTVSPost2010PropOp56
 70
     1
102
RTVSPost2010Prop57
140
1.0
102
RTVSPost2010PropOp57
 70
     1
  0
XRECORD
  5
5D7
102
{ACAD_REACTORS
330
5D6
102
}
330
5D6
100
AcDbXrecord
280
     1
102
RTVSPropertyOp0
 70
     1
102
RTVSPropertyOp1
 70
     1
102
RTVSPropertyOp2
 70
     1
102
RTVSPropertyOp3
 70
     1
102
RTVSPropertyOp4
 70
     1
102
RTVSPropertyOp5
 70
     1
102
RTVSPropertyOp6
 70
     1
102
RTVSPropertyOp7
 70
     1
102
RTVSPropertyOp8
 70
     1
102
RTVSPropertyOp9
 70
     1
102
RTVSPropertyOp10
 70
     1
102
RTVSPropertyOp11
 70
     1
102
RTVSPropertyOp12
 70
     1
102
RTVSPropertyOp13
 70
     1
102
RTVSPropertyOp14
 70
     1
102
RTVSPropertyOp15
 70
     1
102
RTVSPropertyOp16
 70
     1
102
RTVSPropertyOp17
 70
     1
102
RTVSPropertyOp18
 70
     1
102
RTVSPropertyOp19
 70
     1
102
RTVSPropertyOp20
 70
     1
102
RTVSPropertyOp21
 70
     1
102
RTVSPropertyOp22
 70
     1
102
RTVSPropertyOp23
 70
     1
102
RTVSPropertyOp24
 70
     1
102
RTVSPropertyOp25
 70
     1
102
RTVSPropertyOp26
 70
     1
102
RTVSPropertyOp27
 70
     1
102
RTVSPropertyOp28
 70
     1
102
RTVSPropertyOp29
 70
     1
102
RTVSPropertyOp30
 70
     1
102
RTVSPropertyOp31
 70
     1
102
RTVSPropertyOp32
 70
     1
102
RTVSPropertyOp33
 70
     1
102
RTVSPropertyOp34
 70
     1
102
RTVSPropertyOp35
 70
     1
102
RTVSPropertyOp36
 70
     1
102
RTVSPropertyOp37
 70
     1
102
RTVSPropertyOp38
 70
     1
102
RTVSPropertyOp39
 70
     1
102
RTVSPropertyOp40
 70
     1
102
RTVSPropertyOp41
 70
     1
102
RTVSPropertyOp42
 70
     1
102
RTVSPropertyOp43
 70
     1
102
RTVSPropertyOp44
 70
     1
102
RTVSPropertyOp45
 70
     1
102
RTVSPropertyOp46
 70
     1
102
RTVSPropertyOp47
 70
     1
102
RTVSPropertyOp48
 70
     1
102
RTVSPropertyOp49
 70
     1
102
RTVSPropertyOp50
 70
     1
102
RTVSPropertyOp51
 70
     0
102
RTVSPropertyOp52
 70
     0
102
RTVSPropertyOp53
 70
     1
102
RTVSPropertyOp54
 70
     1
102
RTVSPropertyOp55
 70
     1
102
RTVSPropertyOp56
 70
     1
102
RTVSPropertyOp57
 70
     1
102
RTVSPost2010Prop28
280
     0
102
RTVSPost2010PropOp28
 70
     1
102
RTVSPost2010Prop29
280
     1
102
RTVSPost2010PropOp29
 70
     1
102
RTVSPost2010Prop30
280
     1
102
RTVSPost2010PropOp30
 70
     1
102
RTVSPost2010Prop31
280
     0
102
RTVSPost2010PropOp31
 70
     1
102
RTVSPost2010Prop32
280
     0
102
RTVSPost2010PropOp32
 70
     1
102
RTVSPost2010Prop33
280
     0
102
RTVSPost2010PropOp33
 70
     1
102
RTVSPost2010Prop34
280
     0
102
RTVSPost2010PropOp34
 70
     1
102
RTVSPost2010Prop35
280
     0
102
RTVSPost2010PropOp35
 70
     1
102
RTVSPost2010Prop36
280
     0
102
RTVSPost2010PropOp36
 70
     1
102
RTVSPost2010Prop37
 90
       50
102
RTVSPost2010PropOp37
 70
     1
102
RTVSPost2010Prop38
140
0.0
102
RTVSPost2010PropOp38
 70
     1
102
RTVSPost2010Prop39
140
1.0
102
RTVSPost2010PropOp39
 70
     1
102
RTVSPost2010Prop40
 90
        0
102
RTVSPost2010PropOp40
 70
     1
102
RTVSPost2010Prop41ColorIndex
 90
       18
102
RTVSPost2010Prop41ColorRGB
 90
        0
102
RTVSPost2010PropOp41
 70
     1
102
RTVSPost2010Prop42
 90
       50
102
RTVSPost2010PropOp42
 70
     1
102
RTVSPost2010Prop43
 90
        3
102
RTVSPost2010PropOp43
 70
     1
102
RTVSPost2010Prop44ColorIndex
 90
        5
102
RTVSPost2010Prop44ColorRGB
 90
      255
102
RTVSPost2010PropOp44
 70
     1
102
RTVSPost2010Prop45
280
     0
102
RTVSPost2010PropOp45
 70
     1
102
RTVSPost2010Prop46
 90
       50
102
RTVSPost2010PropOp46
 70
     1
102
RTVSPost2010Prop47
 90
       50
102
RTVSPost2010PropOp47
 70
     1
102
RTVSPost2010Prop48
 90
       50
102
RTVSPost2010PropOp48
 70
     1
102
RTVSPost2010Prop49
280
     0
102
RTVSPost2010PropOp49
 70
     1
102
RTVSPost2010Prop50
 90
       50
102
RTVSPost2010PropOp50
 70
     1
102
RTVSPost2010Prop51ColorIndex
 90
      256
102
RTVSPost2010Prop51ColorRGB
 90
-16777216
102
RTVSPost2010PropOp51
 70
     0
102
RTVSPost2010Prop52
140
1.0
102
RTVSPost2010PropOp52
 70
     0
102
RTVSPost2010Prop53
 90
        2
102
RTVSPost2010PropOp53
 70
     1
102
RTVSPost2010Prop54
  1
strokes_ogs.tif
102
RTVSPost2010PropOp54
 70
     1
102
RTVSPost2010Prop55
280
     0
102
RTVSPost2010PropOp55
 70
     1
102
RTVSPost2010Prop56
140
1.0
102
RTVSPost2010PropOp56
 70
     1
102
RTVSPost2010Prop57
140
1.0
102
RTVSPost2010PropOp57
 70
     1
  0
XRECORD
  5
5CB
102
{ACAD_REACTORS
330
5CA
102
}
330
5CA
100
AcDbXrecord
280
     1
102
RTVSPropertyOp0
 70
     1
102
RTVSPropertyOp1
 70
     1
102
RTVSPropertyOp2
 70
     1
102
RTVSPropertyOp3
 70
     1
102
RTVSPropertyOp4
 70
     1
102
RTVSPropertyOp5
 70
     1
102
RTVSPropertyOp6
 70
     1
102
RTVSPropertyOp7
 70
     1
102
RTVSPropertyOp8
 70
     1
102
RTVSPropertyOp9
 70
     1
102
RTVSPropertyOp10
 70
     1
102
RTVSPropertyOp11
 70
     1
102
RTVSPropertyOp12
 70
     1
102
RTVSPropertyOp13
 70
     1
102
RTVSPropertyOp14
 70
     1
102
RTVSPropertyOp15
 70
     1
102
RTVSPropertyOp16
 70
     1
102
RTVSPropertyOp17
 70
     1
102
RTVSPropertyOp18
 70
     1
102
RTVSPropertyOp19
 70
     1
102
RTVSPropertyOp20
 70
     1
102
RTVSPropertyOp21
 70
     1
102
RTVSPropertyOp22
 70
     1
102
RTVSPropertyOp23
 70
     1
102
RTVSPropertyOp24
 70
     1
102
RTVSPropertyOp25
 70
     1
102
RTVSPropertyOp26
 70
     1
102
RTVSPropertyOp27
 70
     1
102
RTVSPropertyOp28
 70
     1
102
RTVSPropertyOp29
 70
     1
102
RTVSPropertyOp30
 70
     1
102
RTVSPropertyOp31
 70
     1
102
RTVSPropertyOp32
 70
     1
102
RTVSPropertyOp33
 70
     1
102
RTVSPropertyOp34
 70
     1
102
RTVSPropertyOp35
 70
     1
102
RTVSPropertyOp36
 70
     1
102
RTVSPropertyOp37
 70
     1
102
RTVSPropertyOp38
 70
     1
102
RTVSPropertyOp39
 70
     1
102
RTVSPropertyOp40
 70
     1
102
RTVSPropertyOp41
 70
     1
102
RTVSPropertyOp42
 70
     1
102
RTVSPropertyOp43
 70
     1
102
RTVSPropertyOp44
 70
     1
102
RTVSPropertyOp45
 70
     1
102
RTVSPropertyOp46
 70
     1
102
RTVSPropertyOp47
 70
     1
102
RTVSPropertyOp48
 70
     1
102
RTVSPropertyOp49
 70
     1
102
RTVSPropertyOp50
 70
     1
102
RTVSPropertyOp51
 70
     0
102
RTVSPropertyOp52
 70
     0
102
RTVSPropertyOp53
 70
     1
102
RTVSPropertyOp54
 70
     1
102
RTVSPropertyOp55
 70
     1
102
RTVSPropertyOp56
 70
     1
102
RTVSPropertyOp57
 70
     1
102
RTVSPost2010Prop28
280
     0
102
RTVSPost2010PropOp28
 70
     1
102
RTVSPost2010Prop29
280
     1
102
RTVSPost2010PropOp29
 70
     1
102
RTVSPost2010Prop30
280
     1
102
RTVSPost2010PropOp30
 70
     1
102
RTVSPost2010Prop31
280
     0
102
RTVSPost2010PropOp31
 70
     1
102
RTVSPost2010Prop32
280
     0
102
RTVSPost2010PropOp32
 70
     1
102
RTVSPost2010Prop33
280
     0
102
RTVSPost2010PropOp33
 70
     1
102
RTVSPost2010Prop34
280
     0
102
RTVSPost2010PropOp34
 70
     1
102
RTVSPost2010Prop35
280
     0
102
RTVSPost2010PropOp35
 70
     1
102
RTVSPost2010Prop36
280
     0
102
RTVSPost2010PropOp36
 70
     1
102
RTVSPost2010Prop37
 90
       50
102
RTVSPost2010PropOp37
 70
     1
102
RTVSPost2010Prop38
140
0.0
102
RTVSPost2010PropOp38
 70
     1
102
RTVSPost2010Prop39
140
1.0
102
RTVSPost2010PropOp39
 70
     1
102
RTVSPost2010Prop40
 90
        0
102
RTVSPost2010PropOp40
 70
     1
102
RTVSPost2010Prop41ColorIndex
 90
       18
102
RTVSPost2010Prop41ColorRGB
 90
        0
102
RTVSPost2010PropOp41
 70
     1
102
RTVSPost2010Prop42
 90
       50
102
RTVSPost2010PropOp42
 70
     1
102
RTVSPost2010Prop43
 90
        3
102
RTVSPost2010PropOp43
 70
     1
102
RTVSPost2010Prop44ColorIndex
 90
        5
102
RTVSPost2010Prop44ColorRGB
 90
      255
102
RTVSPost2010PropOp44
 70
     1
102
RTVSPost2010Prop45
280
     0
102
RTVSPost2010PropOp45
 70
     1
102
RTVSPost2010Prop46
 90
       50
102
RTVSPost2010PropOp46
 70
     1
102
RTVSPost2010Prop47
 90
       50
102
RTVSPost2010PropOp47
 70
     1
102
RTVSPost2010Prop48
 90
       50
102
RTVSPost2010PropOp48
 70
     1
102
RTVSPost2010Prop49
280
     0
102
RTVSPost2010PropOp49
 70
     1
102
RTVSPost2010Prop50
 90
       50
102
RTVSPost2010PropOp50
 70
     1
102
RTVSPost2010Prop51ColorIndex
 90
      256
102
RTVSPost2010Prop51ColorRGB
 90
-16777216
102
RTVSPost2010PropOp51
 70
     0
102
RTVSPost2010Prop52
140
1.0
102
RTVSPost2010PropOp52
 70
     0
102
RTVSPost2010Prop53
 90
        2
102
RTVSPost2010PropOp53
 70
     1
102
RTVSPost2010Prop54
  1
strokes_ogs.tif
102
RTVSPost2010PropOp54
 70
     1
102
RTVSPost2010Prop55
280
     0
102
RTVSPost2010PropOp55
 70
     1
102
RTVSPost2010Prop56
140
1.0
102
RTVSPost2010PropOp56
 70
     1
102
RTVSPost2010Prop57
140
1.0
102
RTVSPost2010PropOp57
 70
     1
  0
XRECORD
  5
5CD
102
{ACAD_REACTORS
330
5CC
102
}
330
5CC
100
AcDbXrecord
280
     1
102
RTVSPropertyOp0
 70
     1
102
RTVSPropertyOp1
 70
     1
102
RTVSPropertyOp2
 70
     1
102
RTVSPropertyOp3
 70
     1
102
RTVSPropertyOp4
 70
     1
102
RTVSPropertyOp5
 70
     1
102
RTVSPropertyOp6
 70
     1
102
RTVSPropertyOp7
 70
     1
102
RTVSPropertyOp8
 70
     1
102
RTVSPropertyOp9
 70
     1
102
RTVSPropertyOp10
 70
     1
102
RTVSPropertyOp11
 70
     1
102
RTVSPropertyOp12
 70
     1
102
RTVSPropertyOp13
 70
     1
102
RTVSPropertyOp14
 70
     1
102
RTVSPropertyOp15
 70
     1
102
RTVSPropertyOp16
 70
     1
102
RTVSPropertyOp17
 70
     1
102
RTVSPropertyOp18
 70
     1
102
RTVSPropertyOp19
 70
     1
102
RTVSPropertyOp20
 70
     1
102
RTVSPropertyOp21
 70
     1
102
RTVSPropertyOp22
 70
     1
102
RTVSPropertyOp23
 70
     1
102
RTVSPropertyOp24
 70
     1
102
RTVSPropertyOp25
 70
     1
102
RTVSPropertyOp26
 70
     1
102
RTVSPropertyOp27
 70
     1
102
RTVSPropertyOp28
 70
     1
102
RTVSPropertyOp29
 70
     1
102
RTVSPropertyOp30
 70
     1
102
RTVSPropertyOp31
 70
     1
102
RTVSPropertyOp32
 70
     1
102
RTVSPropertyOp33
 70
     1
102
RTVSPropertyOp34
 70
     1
102
RTVSPropertyOp35
 70
     1
102
RTVSPropertyOp36
 70
     1
102
RTVSPropertyOp37
 70
     1
102
RTVSPropertyOp38
 70
     1
102
RTVSPropertyOp39
 70
     1
102
RTVSPropertyOp40
 70
     1
102
RTVSPropertyOp41
 70
     1
102
RTVSPropertyOp42
 70
     1
102
RTVSPropertyOp43
 70
     1
102
RTVSPropertyOp44
 70
     1
102
RTVSPropertyOp45
 70
     1
102
RTVSPropertyOp46
 70
     1
102
RTVSPropertyOp47
 70
     1
102
RTVSPropertyOp48
 70
     1
102
RTVSPropertyOp49
 70
     1
102
RTVSPropertyOp50
 70
     1
102
RTVSPropertyOp51
 70
     0
102
RTVSPropertyOp52
 70
     0
102
RTVSPropertyOp53
 70
     1
102
RTVSPropertyOp54
 70
     1
102
RTVSPropertyOp55
 70
     1
102
RTVSPropertyOp56
 70
     1
102
RTVSPropertyOp57
 70
     1
102
RTVSPost2010Prop28
280
     0
102
RTVSPost2010PropOp28
 70
     1
102
RTVSPost2010Prop29
280
     1
102
RTVSPost2010PropOp29
 70
     1
102
RTVSPost2010Prop30
280
     1
102
RTVSPost2010PropOp30
 70
     1
102
RTVSPost2010Prop31
280
     0
102
RTVSPost2010PropOp31
 70
     1
102
RTVSPost2010Prop32
280
     0
102
RTVSPost2010PropOp32
 70
     1
102
RTVSPost2010Prop33
280
     0
102
RTVSPost2010PropOp33
 70
     1
102
RTVSPost2010Prop34
280
     0
102
RTVSPost2010PropOp34
 70
     1
102
RTVSPost2010Prop35
280
     0
102
RTVSPost2010PropOp35
 70
     1
102
RTVSPost2010Prop36
280
     0
102
RTVSPost2010PropOp36
 70
     1
102
RTVSPost2010Prop37
 90
       50
102
RTVSPost2010PropOp37
 70
     1
102
RTVSPost2010Prop38
140
0.0
102
RTVSPost2010PropOp38
 70
     1
102
RTVSPost2010Prop39
140
1.0
102
RTVSPost2010PropOp39
 70
     1
102
RTVSPost2010Prop40
 90
        0
102
RTVSPost2010PropOp40
 70
     1
102
RTVSPost2010Prop41ColorIndex
 90
       18
102
RTVSPost2010Prop41ColorRGB
 90
        0
102
RTVSPost2010PropOp41
 70
     1
102
RTVSPost2010Prop42
 90
       50
102
RTVSPost2010PropOp42
 70
     1
102
RTVSPost2010Prop43
 90
        3
102
RTVSPost2010PropOp43
 70
     1
102
RTVSPost2010Prop44ColorIndex
 90
        5
102
RTVSPost2010Prop44ColorRGB
 90
      255
102
RTVSPost2010PropOp44
 70
     1
102
RTVSPost2010Prop45
280
     0
102
RTVSPost2010PropOp45
 70
     1
102
RTVSPost2010Prop46
 90
       50
102
RTVSPost2010PropOp46
 70
     1
102
RTVSPost2010Prop47
 90
       50
102
RTVSPost2010PropOp47
 70
     1
102
RTVSPost2010Prop48
 90
       50
102
RTVSPost2010PropOp48
 70
     1
102
RTVSPost2010Prop49
280
     0
102
RTVSPost2010PropOp49
 70
     1
102
RTVSPost2010Prop50
 90
       50
102
RTVSPost2010PropOp50
 70
     1
102
RTVSPost2010Prop51ColorIndex
 90
      256
102
RTVSPost2010Prop51ColorRGB
 90
-16777216
102
RTVSPost2010PropOp51
 70
     0
102
RTVSPost2010Prop52
140
1.0
102
RTVSPost2010PropOp52
 70
     0
102
RTVSPost2010Prop53
 90
        2
102
RTVSPost2010PropOp53
 70
     1
102
RTVSPost2010Prop54
  1
strokes_ogs.tif
102
RTVSPost2010PropOp54
 70
     1
102
RTVSPost2010Prop55
280
     0
102
RTVSPost2010PropOp55
 70
     1
102
RTVSPost2010Prop56
140
1.0
102
RTVSPost2010PropOp56
 70
     1
102
RTVSPost2010Prop57
140
1.0
102
RTVSPost2010PropOp57
 70
     1
  0
XRECORD
  5
5DD
102
{ACAD_REACTORS
330
5DC
102
}
330
5DC
100
AcDbXrecord
280
     1
102
RTVSPropertyOp0
 70
     0
102
RTVSPropertyOp1
 70
     0
102
RTVSPropertyOp2
 70
     0
102
RTVSPropertyOp3
 70
     0
102
RTVSPropertyOp4
 70
     0
102
RTVSPropertyOp5
 70
     0
102
RTVSPropertyOp6
 70
     0
102
RTVSPropertyOp7
 70
     0
102
RTVSPropertyOp8
 70
     0
102
RTVSPropertyOp9
 70
     0
102
RTVSPropertyOp10
 70
     0
102
RTVSPropertyOp11
 70
     0
102
RTVSPropertyOp12
 70
     0
102
RTVSPropertyOp13
 70
     0
102
RTVSPropertyOp14
 70
     0
102
RTVSPropertyOp15
 70
     0
102
RTVSPropertyOp16
 70
     0
102
RTVSPropertyOp17
 70
     0
102
RTVSPropertyOp18
 70
     0
102
RTVSPropertyOp19
 70
     0
102
RTVSPropertyOp20
 70
     0
102
RTVSPropertyOp21
 70
     0
102
RTVSPropertyOp22
 70
     0
102
RTVSPropertyOp23
 70
     0
102
RTVSPropertyOp24
 70
     0
102
RTVSPropertyOp25
 70
     0
102
RTVSPropertyOp26
 70
     0
102
RTVSPropertyOp27
 70
     0
102
RTVSPropertyOp28
 70
     1
102
RTVSPropertyOp29
 70
     1
102
RTVSPropertyOp30
 70
     1
102
RTVSPropertyOp31
 70
     1
102
RTVSPropertyOp32
 70
     1
102
RTVSPropertyOp33
 70
     1
102
RTVSPropertyOp34
 70
     1
102
RTVSPropertyOp35
 70
     1
102
RTVSPropertyOp36
 70
     1
102
RTVSPropertyOp37
 70
     1
102
RTVSPropertyOp38
 70
     1
102
RTVSPropertyOp39
 70
     1
102
RTVSPropertyOp40
 70
     1
102
RTVSPropertyOp41
 70
     1
102
RTVSPropertyOp42
 70
     1
102
RTVSPropertyOp43
 70
     1
102
RTVSPropertyOp44
 70
     1
102
RTVSPropertyOp45
 70
     1
102
RTVSPropertyOp46
 70
     1
102
RTVSPropertyOp47
 70
     1
102
RTVSPropertyOp48
 70
     1
102
RTVSPropertyOp49
 70
     1
102
RTVSPropertyOp50
 70
     1
102
RTVSPropertyOp51
 70
     0
102
RTVSPropertyOp52
 70
     0
102
RTVSPropertyOp53
 70
     1
102
RTVSPropertyOp54
 70
     1
102
RTVSPropertyOp55
 70
     1
102
RTVSPropertyOp56
 70
     1
102
RTVSPropertyOp57
 70
     1
102
RTVSPost2010Prop28
280
     0
102
RTVSPost2010PropOp28
 70
     1
102
RTVSPost2010Prop29
280
     1
102
RTVSPost2010PropOp29
 70
     1
102
RTVSPost2010Prop30
280
     1
102
RTVSPost2010PropOp30
 70
     1
102
RTVSPost2010Prop31
280
     0
102
RTVSPost2010PropOp31
 70
     1
102
RTVSPost2010Prop32
280
     0
102
RTVSPost2010PropOp32
 70
     1
102
RTVSPost2010Prop33
280
     0
102
RTVSPost2010PropOp33
 70
     1
102
RTVSPost2010Prop34
280
     0
102
RTVSPost2010PropOp34
 70
     1
102
RTVSPost2010Prop35
280
     0
102
RTVSPost2010PropOp35
 70
     1
102
RTVSPost2010Prop36
280
     0
102
RTVSPost2010PropOp36
 70
     1
102
RTVSPost2010Prop37
 90
       50
102
RTVSPost2010PropOp37
 70
     1
102
RTVSPost2010Prop38
140
0.0
102
RTVSPost2010PropOp38
 70
     1
102
RTVSPost2010Prop39
140
1.0
102
RTVSPost2010PropOp39
 70
     1
102
RTVSPost2010Prop40
 90
        0
102
RTVSPost2010PropOp40
 70
     1
102
RTVSPost2010Prop41ColorIndex
 90
       18
102
RTVSPost2010Prop41ColorRGB
 90
        0
102
RTVSPost2010PropOp41
 70
     1
102
RTVSPost2010Prop42
 90
       50
102
RTVSPost2010PropOp42
 70
     1
102
RTVSPost2010Prop43
 90
        3
102
RTVSPost2010PropOp43
 70
     1
102
RTVSPost2010Prop44ColorIndex
 90
        5
102
RTVSPost2010Prop44ColorRGB
 90
      255
102
RTVSPost2010PropOp44
 70
     1
102
RTVSPost2010Prop45
280
     0
102
RTVSPost2010PropOp45
 70
     1
102
RTVSPost2010Prop46
 90
       50
102
RTVSPost2010PropOp46
 70
     1
102
RTVSPost2010Prop47
 90
       50
102
RTVSPost2010PropOp47
 70
     1
102
RTVSPost2010Prop48
 90
       50
102
RTVSPost2010PropOp48
 70
     1
102
RTVSPost2010Prop49
280
     0
102
RTVSPost2010PropOp49
 70
     1
102
RTVSPost2010Prop50
 90
       50
102
RTVSPost2010PropOp50
 70
     1
102
RTVSPost2010Prop51ColorIndex
 90
      256
102
RTVSPost2010Prop51ColorRGB
 90
-16777216
102
RTVSPost2010PropOp51
 70
     0
102
RTVSPost2010Prop52
140
1.0
102
RTVSPost2010PropOp52
 70
     0
102
RTVSPost2010Prop53
 90
        2
102
RTVSPost2010PropOp53
 70
     1
102
RTVSPost2010Prop54
  1
strokes_ogs.tif
102
RTVSPost2010PropOp54
 70
     1
102
RTVSPost2010Prop55
280
     0
102
RTVSPost2010PropOp55
 70
     1
102
RTVSPost2010Prop56
140
1.0
102
RTVSPost2010PropOp56
 70
     1
102
RTVSPost2010Prop57
140
1.0
102
RTVSPost2010PropOp57
 70
     1
  0
XRECORD
  5
5D5
102
{ACAD_REACTORS
330
5D4
102
}
330
5D4
100
AcDbXrecord
280
     1
102
RTVSPropertyOp0
 70
     1
102
RTVSPropertyOp1
 70
     1
102
RTVSPropertyOp2
 70
     1
102
RTVSPropertyOp3
 70
     1
102
RTVSPropertyOp4
 70
     1
102
RTVSPropertyOp5
 70
     1
102
RTVSPropertyOp6
 70
     1
102
RTVSPropertyOp7
 70
     1
102
RTVSPropertyOp8
 70
     1
102
RTVSPropertyOp9
 70
     1
102
RTVSPropertyOp10
 70
     1
102
RTVSPropertyOp11
 70
     1
102
RTVSPropertyOp12
 70
     1
102
RTVSPropertyOp13
 70
     1
102
RTVSPropertyOp14
 70
     1
102
RTVSPropertyOp15
 70
     1
102
RTVSPropertyOp16
 70
     1
102
RTVSPropertyOp17
 70
     1
102
RTVSPropertyOp18
 70
     1
102
RTVSPropertyOp19
 70
     1
102
RTVSPropertyOp20
 70
     1
102
RTVSPropertyOp21
 70
     1
102
RTVSPropertyOp22
 70
     1
102
RTVSPropertyOp23
 70
     1
102
RTVSPropertyOp24
 70
     1
102
RTVSPropertyOp25
 70
     1
102
RTVSPropertyOp26
 70
     1
102
RTVSPropertyOp27
 70
     1
102
RTVSPropertyOp28
 70
     1
102
RTVSPropertyOp29
 70
     1
102
RTVSPropertyOp30
 70
     1
102
RTVSPropertyOp31
 70
     1
102
RTVSPropertyOp32
 70
     1
102
RTVSPropertyOp33
 70
     1
102
RTVSPropertyOp34
 70
     1
102
RTVSPropertyOp35
 70
     1
102
RTVSPropertyOp36
 70
     1
102
RTVSPropertyOp37
 70
     1
102
RTVSPropertyOp38
 70
     1
102
RTVSPropertyOp39
 70
     1
102
RTVSPropertyOp40
 70
     1
102
RTVSPropertyOp41
 70
     1
102
RTVSPropertyOp42
 70
     1
102
RTVSPropertyOp43
 70
     1
102
RTVSPropertyOp44
 70
     1
102
RTVSPropertyOp45
 70
     1
102
RTVSPropertyOp46
 70
     1
102
RTVSPropertyOp47
 70
     1
102
RTVSPropertyOp48
 70
     1
102
RTVSPropertyOp49
 70
     1
102
RTVSPropertyOp50
 70
     1
102
RTVSPropertyOp51
 70
     0
102
RTVSPropertyOp52
 70
     0
102
RTVSPropertyOp53
 70
     1
102
RTVSPropertyOp54
 70
     1
102
RTVSPropertyOp55
 70
     1
102
RTVSPropertyOp56
 70
     1
102
RTVSPropertyOp57
 70
     1
102
RTVSPost2010Prop28
280
     0
102
RTVSPost2010PropOp28
 70
     1
102
RTVSPost2010Prop29
280
     1
102
RTVSPost2010PropOp29
 70
     1
102
RTVSPost2010Prop30
280
     1
102
RTVSPost2010PropOp30
 70
     1
102
RTVSPost2010Prop31
280
     0
102
RTVSPost2010PropOp31
 70
     1
102
RTVSPost2010Prop32
280
     0
102
RTVSPost2010PropOp32
 70
     1
102
RTVSPost2010Prop33
280
     0
102
RTVSPost2010PropOp33
 70
     1
102
RTVSPost2010Prop34
280
     0
102
RTVSPost2010PropOp34
 70
     1
102
RTVSPost2010Prop35
280
     0
102
RTVSPost2010PropOp35
 70
     1
102
RTVSPost2010Prop36
280
     0
102
RTVSPost2010PropOp36
 70
     1
102
RTVSPost2010Prop37
 90
       50
102
RTVSPost2010PropOp37
 70
     1
102
RTVSPost2010Prop38
140
0.0
102
RTVSPost2010PropOp38
 70
     1
102
RTVSPost2010Prop39
140
1.0
102
RTVSPost2010PropOp39
 70
     1
102
RTVSPost2010Prop40
 90
        0
102
RTVSPost2010PropOp40
 70
     1
102
RTVSPost2010Prop41ColorIndex
 90
       18
102
RTVSPost2010Prop41ColorRGB
 90
        0
102
RTVSPost2010PropOp41
 70
     1
102
RTVSPost2010Prop42
 90
       50
102
RTVSPost2010PropOp42
 70
     1
102
RTVSPost2010Prop43
 90
        3
102
RTVSPost2010PropOp43
 70
     1
102
RTVSPost2010Prop44ColorIndex
 90
        5
102
RTVSPost2010Prop44ColorRGB
 90
      255
102
RTVSPost2010PropOp44
 70
     1
102
RTVSPost2010Prop45
280
     0
102
RTVSPost2010PropOp45
 70
     1
102
RTVSPost2010Prop46
 90
       50
102
RTVSPost2010PropOp46
 70
     1
102
RTVSPost2010Prop47
 90
       50
102
RTVSPost2010PropOp47
 70
     1
102
RTVSPost2010Prop48
 90
       50
102
RTVSPost2010PropOp48
 70
     1
102
RTVSPost2010Prop49
280
     0
102
RTVSPost2010PropOp49
 70
     1
102
RTVSPost2010Prop50
 90
       50
102
RTVSPost2010PropOp50
 70
     1
102
RTVSPost2010Prop51ColorIndex
 90
      256
102
RTVSPost2010Prop51ColorRGB
 90
-16777216
102
RTVSPost2010PropOp51
 70
     0
102
RTVSPost2010Prop52
140
1.0
102
RTVSPost2010PropOp52
 70
     0
102
RTVSPost2010Prop53
 90
        2
102
RTVSPost2010PropOp53
 70
     1
102
RTVSPost2010Prop54
  1
strokes_ogs.tif
102
RTVSPost2010PropOp54
 70
     1
102
RTVSPost2010Prop55
280
     0
102
RTVSPost2010PropOp55
 70
     1
102
RTVSPost2010Prop56
140
1.0
102
RTVSPost2010PropOp56
 70
     1
102
RTVSPost2010Prop57
140
1.0
102
RTVSPost2010PropOp57
 70
     1
  0
XRECORD
  5
5B9
102
{ACAD_REACTORS
330
5B8
102
}
330
5B8
100
AcDbXrecord
280
     1
102
RTVSPropertyOp0
 70
     1
102
RTVSPropertyOp1
 70
     1
102
RTVSPropertyOp2
 70
     1
102
RTVSPropertyOp3
 70
     1
102
RTVSPropertyOp4
 70
     1
102
RTVSPropertyOp5
 70
     1
102
RTVSPropertyOp6
 70
     1
102
RTVSPropertyOp7
 70
     1
102
RTVSPropertyOp8
 70
     1
102
RTVSPropertyOp9
 70
     1
102
RTVSPropertyOp10
 70
     1
102
RTVSPropertyOp11
 70
     1
102
RTVSPropertyOp12
 70
     1
102
RTVSPropertyOp13
 70
     1
102
RTVSPropertyOp14
 70
     1
102
RTVSPropertyOp15
 70
     1
102
RTVSPropertyOp16
 70
     1
102
RTVSPropertyOp17
 70
     1
102
RTVSPropertyOp18
 70
     1
102
RTVSPropertyOp19
 70
     1
102
RTVSPropertyOp20
 70
     1
102
RTVSPropertyOp21
 70
     1
102
RTVSPropertyOp22
 70
     1
102
RTVSPropertyOp23
 70
     1
102
RTVSPropertyOp24
 70
     1
102
RTVSPropertyOp25
 70
     1
102
RTVSPropertyOp26
 70
     1
102
RTVSPropertyOp27
 70
     1
102
RTVSPropertyOp28
 70
     1
102
RTVSPropertyOp29
 70
     1
102
RTVSPropertyOp30
 70
     1
102
RTVSPropertyOp31
 70
     1
102
RTVSPropertyOp32
 70
     1
102
RTVSPropertyOp33
 70
     1
102
RTVSPropertyOp34
 70
     1
102
RTVSPropertyOp35
 70
     1
102
RTVSPropertyOp36
 70
     1
102
RTVSPropertyOp37
 70
     1
102
RTVSPropertyOp38
 70
     1
102
RTVSPropertyOp39
 70
     1
102
RTVSPropertyOp40
 70
     1
102
RTVSPropertyOp41
 70
     1
102
RTVSPropertyOp42
 70
     1
102
RTVSPropertyOp43
 70
     1
102
RTVSPropertyOp44
 70
     1
102
RTVSPropertyOp45
 70
     1
102
RTVSPropertyOp46
 70
     1
102
RTVSPropertyOp47
 70
     1
102
RTVSPropertyOp48
 70
     1
102
RTVSPropertyOp49
 70
     1
102
RTVSPropertyOp50
 70
     1
102
RTVSPropertyOp51
 70
     0
102
RTVSPropertyOp52
 70
     0
102
RTVSPropertyOp53
 70
     1
102
RTVSPropertyOp54
 70
     1
102
RTVSPropertyOp55
 70
     1
102
RTVSPropertyOp56
 70
     1
102
RTVSPropertyOp57
 70
     1
102
RTVSPost2010Prop28
280
     0
102
RTVSPost2010PropOp28
 70
     1
102
RTVSPost2010Prop29
280
     1
102
RTVSPost2010PropOp29
 70
     1
102
RTVSPost2010Prop30
280
     1
102
RTVSPost2010PropOp30
 70
     1
102
RTVSPost2010Prop31
280
     0
102
RTVSPost2010PropOp31
 70
     1
102
RTVSPost2010Prop32
280
     0
102
RTVSPost2010PropOp32
 70
     1
102
RTVSPost2010Prop33
280
     0
102
RTVSPost2010PropOp33
 70
     1
102
RTVSPost2010Prop34
280
     0
102
RTVSPost2010PropOp34
 70
     1
102
RTVSPost2010Prop35
280
     0
102
RTVSPost2010PropOp35
 70
     1
102
RTVSPost2010Prop36
280
     0
102
RTVSPost2010PropOp36
 70
     1
102
RTVSPost2010Prop37
 90
       50
102
RTVSPost2010PropOp37
 70
     1
102
RTVSPost2010Prop38
140
0.0
102
RTVSPost2010PropOp38
 70
     1
102
RTVSPost2010Prop39
140
1.0
102
RTVSPost2010PropOp39
 70
     1
102
RTVSPost2010Prop40
 90
        0
102
RTVSPost2010PropOp40
 70
     1
102
RTVSPost2010Prop41ColorIndex
 90
       18
102
RTVSPost2010Prop41ColorRGB
 90
        0
102
RTVSPost2010PropOp41
 70
     1
102
RTVSPost2010Prop42
 90
       50
102
RTVSPost2010PropOp42
 70
     1
102
RTVSPost2010Prop43
 90
        3
102
RTVSPost2010PropOp43
 70
     1
102
RTVSPost2010Prop44ColorIndex
 90
        5
102
RTVSPost2010Prop44ColorRGB
 90
      255
102
RTVSPost2010PropOp44
 70
     1
102
RTVSPost2010Prop45
280
     0
102
RTVSPost2010PropOp45
 70
     1
102
RTVSPost2010Prop46
 90
       50
102
RTVSPost2010PropOp46
 70
     1
102
RTVSPost2010Prop47
 90
       50
102
RTVSPost2010PropOp47
 70
     1
102
RTVSPost2010Prop48
 90
       50
102
RTVSPost2010PropOp48
 70
     1
102
RTVSPost2010Prop49
280
     0
102
RTVSPost2010PropOp49
 70
     1
102
RTVSPost2010Prop50
 90
       50
102
RTVSPost2010PropOp50
 70
     1
102
RTVSPost2010Prop51ColorIndex
 90
      256
102
RTVSPost2010Prop51ColorRGB
 90
-16777216
102
RTVSPost2010PropOp51
 70
     0
102
RTVSPost2010Prop52
140
1.0
102
RTVSPost2010PropOp52
 70
     0
102
RTVSPost2010Prop53
 90
        2
102
RTVSPost2010PropOp53
 70
     1
102
RTVSPost2010Prop54
  1
strokes_ogs.tif
102
RTVSPost2010PropOp54
 70
     1
102
RTVSPost2010Prop55
280
     0
102
RTVSPost2010PropOp55
 70
     1
102
RTVSPost2010Prop56
140
1.0
102
RTVSPost2010PropOp56
 70
     1
102
RTVSPost2010Prop57
140
1.0
102
RTVSPost2010PropOp57
 70
     1
  0
XRECORD
  5
5BB
102
{ACAD_REACTORS
330
5BA
102
}
330
5BA
100
AcDbXrecord
280
     1
102
RTVSPropertyOp0
 70
     1
102
RTVSPropertyOp1
 70
     1
102
RTVSPropertyOp2
 70
     1
102
RTVSPropertyOp3
 70
     1
102
RTVSPropertyOp4
 70
     1
102
RTVSPropertyOp5
 70
     1
102
RTVSPropertyOp6
 70
     1
102
RTVSPropertyOp7
 70
     1
102
RTVSPropertyOp8
 70
     1
102
RTVSPropertyOp9
 70
     1
102
RTVSPropertyOp10
 70
     1
102
RTVSPropertyOp11
 70
     1
102
RTVSPropertyOp12
 70
     1
102
RTVSPropertyOp13
 70
     1
102
RTVSPropertyOp14
 70
     1
102
RTVSPropertyOp15
 70
     1
102
RTVSPropertyOp16
 70
     1
102
RTVSPropertyOp17
 70
     1
102
RTVSPropertyOp18
 70
     1
102
RTVSPropertyOp19
 70
     1
102
RTVSPropertyOp20
 70
     1
102
RTVSPropertyOp21
 70
     1
102
RTVSPropertyOp22
 70
     1
102
RTVSPropertyOp23
 70
     1
102
RTVSPropertyOp24
 70
     1
102
RTVSPropertyOp25
 70
     1
102
RTVSPropertyOp26
 70
     1
102
RTVSPropertyOp27
 70
     1
102
RTVSPropertyOp28
 70
     1
102
RTVSPropertyOp29
 70
     1
102
RTVSPropertyOp30
 70
     1
102
RTVSPropertyOp31
 70
     1
102
RTVSPropertyOp32
 70
     1
102
RTVSPropertyOp33
 70
     1
102
RTVSPropertyOp34
 70
     1
102
RTVSPropertyOp35
 70
     1
102
RTVSPropertyOp36
 70
     1
102
RTVSPropertyOp37
 70
     1
102
RTVSPropertyOp38
 70
     1
102
RTVSPropertyOp39
 70
     1
102
RTVSPropertyOp40
 70
     1
102
RTVSPropertyOp41
 70
     1
102
RTVSPropertyOp42
 70
     1
102
RTVSPropertyOp43
 70
     1
102
RTVSPropertyOp44
 70
     1
102
RTVSPropertyOp45
 70
     1
102
RTVSPropertyOp46
 70
     1
102
RTVSPropertyOp47
 70
     1
102
RTVSPropertyOp48
 70
     1
102
RTVSPropertyOp49
 70
     1
102
RTVSPropertyOp50
 70
     1
102
RTVSPropertyOp51
 70
     0
102
RTVSPropertyOp52
 70
     0
102
RTVSPropertyOp53
 70
     1
102
RTVSPropertyOp54
 70
     1
102
RTVSPropertyOp55
 70
     1
102
RTVSPropertyOp56
 70
     1
102
RTVSPropertyOp57
 70
     1
102
RTVSPost2010Prop28
280
     0
102
RTVSPost2010PropOp28
 70
     1
102
RTVSPost2010Prop29
280
     1
102
RTVSPost2010PropOp29
 70
     1
102
RTVSPost2010Prop30
280
     1
102
RTVSPost2010PropOp30
 70
     1
102
RTVSPost2010Prop31
280
     0
102
RTVSPost2010PropOp31
 70
     1
102
RTVSPost2010Prop32
280
     0
102
RTVSPost2010PropOp32
 70
     1
102
RTVSPost2010Prop33
280
     0
102
RTVSPost2010PropOp33
 70
     1
102
RTVSPost2010Prop34
280
     0
102
RTVSPost2010PropOp34
 70
     1
102
RTVSPost2010Prop35
280
     0
102
RTVSPost2010PropOp35
 70
     1
102
RTVSPost2010Prop36
280
     0
102
RTVSPost2010PropOp36
 70
     1
102
RTVSPost2010Prop37
 90
       50
102
RTVSPost2010PropOp37
 70
     1
102
RTVSPost2010Prop38
140
0.0
102
RTVSPost2010PropOp38
 70
     1
102
RTVSPost2010Prop39
140
1.0
102
RTVSPost2010PropOp39
 70
     1
102
RTVSPost2010Prop40
 90
        0
102
RTVSPost2010PropOp40
 70
     1
102
RTVSPost2010Prop41ColorIndex
 90
       18
102
RTVSPost2010Prop41ColorRGB
 90
        0
102
RTVSPost2010PropOp41
 70
     1
102
RTVSPost2010Prop42
 90
       50
102
RTVSPost2010PropOp42
 70
     1
102
RTVSPost2010Prop43
 90
        3
102
RTVSPost2010PropOp43
 70
     1
102
RTVSPost2010Prop44ColorIndex
 90
        5
102
RTVSPost2010Prop44ColorRGB
 90
      255
102
RTVSPost2010PropOp44
 70
     1
102
RTVSPost2010Prop45
280
     0
102
RTVSPost2010PropOp45
 70
     1
102
RTVSPost2010Prop46
 90
       50
102
RTVSPost2010PropOp46
 70
     1
102
RTVSPost2010Prop47
 90
       50
102
RTVSPost2010PropOp47
 70
     1
102
RTVSPost2010Prop48
 90
       50
102
RTVSPost2010PropOp48
 70
     1
102
RTVSPost2010Prop49
280
     0
102
RTVSPost2010PropOp49
 70
     1
102
RTVSPost2010Prop50
 90
       50
102
RTVSPost2010PropOp50
 70
     1
102
RTVSPost2010Prop51ColorIndex
 90
      256
102
RTVSPost2010Prop51ColorRGB
 90
-16777216
102
RTVSPost2010PropOp51
 70
     0
102
RTVSPost2010Prop52
140
1.0
102
RTVSPost2010PropOp52
 70
     0
102
RTVSPost2010Prop53
 90
        2
102
RTVSPost2010PropOp53
 70
     1
102
RTVSPost2010Prop54
  1
strokes_ogs.tif
102
RTVSPost2010PropOp54
 70
     1
102
RTVSPost2010Prop55
280
     0
102
RTVSPost2010PropOp55
 70
     1
102
RTVSPost2010Prop56
140
1.0
102
RTVSPost2010PropOp56
 70
     1
102
RTVSPost2010Prop57
140
1.0
102
RTVSPost2010PropOp57
 70
     1
  0
XRECORD
  5
5BD
102
{ACAD_REACTORS
330
5BC
102
}
330
5BC
100
AcDbXrecord
280
     1
102
RTVSPropertyOp0
 70
     1
102
RTVSPropertyOp1
 70
     1
102
RTVSPropertyOp2
 70
     1
102
RTVSPropertyOp3
 70
     1
102
RTVSPropertyOp4
 70
     1
102
RTVSPropertyOp5
 70
     1
102
RTVSPropertyOp6
 70
     1
102
RTVSPropertyOp7
 70
     1
102
RTVSPropertyOp8
 70
     1
102
RTVSPropertyOp9
 70
     1
102
RTVSPropertyOp10
 70
     1
102
RTVSPropertyOp11
 70
     1
102
RTVSPropertyOp12
 70
     1
102
RTVSPropertyOp13
 70
     1
102
RTVSPropertyOp14
 70
     1
102
RTVSPropertyOp15
 70
     1
102
RTVSPropertyOp16
 70
     1
102
RTVSPropertyOp17
 70
     1
102
RTVSPropertyOp18
 70
     1
102
RTVSPropertyOp19
 70
     1
102
RTVSPropertyOp20
 70
     1
102
RTVSPropertyOp21
 70
     1
102
RTVSPropertyOp22
 70
     1
102
RTVSPropertyOp23
 70
     1
102
RTVSPropertyOp24
 70
     1
102
RTVSPropertyOp25
 70
     1
102
RTVSPropertyOp26
 70
     1
102
RTVSPropertyOp27
 70
     1
102
RTVSPropertyOp28
 70
     1
102
RTVSPropertyOp29
 70
     1
102
RTVSPropertyOp30
 70
     1
102
RTVSPropertyOp31
 70
     1
102
RTVSPropertyOp32
 70
     1
102
RTVSPropertyOp33
 70
     1
102
RTVSPropertyOp34
 70
     1
102
RTVSPropertyOp35
 70
     1
102
RTVSPropertyOp36
 70
     1
102
RTVSPropertyOp37
 70
     1
102
RTVSPropertyOp38
 70
     1
102
RTVSPropertyOp39
 70
     1
102
RTVSPropertyOp40
 70
     1
102
RTVSPropertyOp41
 70
     1
102
RTVSPropertyOp42
 70
     1
102
RTVSPropertyOp43
 70
     1
102
RTVSPropertyOp44
 70
     1
102
RTVSPropertyOp45
 70
     1
102
RTVSPropertyOp46
 70
     1
102
RTVSPropertyOp47
 70
     1
102
RTVSPropertyOp48
 70
     1
102
RTVSPropertyOp49
 70
     1
102
RTVSPropertyOp50
 70
     1
102
RTVSPropertyOp51
 70
     0
102
RTVSPropertyOp52
 70
     0
102
RTVSPropertyOp53
 70
     1
102
RTVSPropertyOp54
 70
     1
102
RTVSPropertyOp55
 70
     1
102
RTVSPropertyOp56
 70
     1
102
RTVSPropertyOp57
 70
     1
102
RTVSPost2010Prop28
280
     0
102
RTVSPost2010PropOp28
 70
     1
102
RTVSPost2010Prop29
280
     1
102
RTVSPost2010PropOp29
 70
     1
102
RTVSPost2010Prop30
280
     1
102
RTVSPost2010PropOp30
 70
     1
102
RTVSPost2010Prop31
280
     0
102
RTVSPost2010PropOp31
 70
     1
102
RTVSPost2010Prop32
280
     0
102
RTVSPost2010PropOp32
 70
     1
102
RTVSPost2010Prop33
280
     0
102
RTVSPost2010PropOp33
 70
     1
102
RTVSPost2010Prop34
280
     0
102
RTVSPost2010PropOp34
 70
     1
102
RTVSPost2010Prop35
280
     0
102
RTVSPost2010PropOp35
 70
     1
102
RTVSPost2010Prop36
280
     0
102
RTVSPost2010PropOp36
 70
     1
102
RTVSPost2010Prop37
 90
       50
102
RTVSPost2010PropOp37
 70
     1
102
RTVSPost2010Prop38
140
0.0
102
RTVSPost2010PropOp38
 70
     1
102
RTVSPost2010Prop39
140
1.0
102
RTVSPost2010PropOp39
 70
     1
102
RTVSPost2010Prop40
 90
        0
102
RTVSPost2010PropOp40
 70
     1
102
RTVSPost2010Prop41ColorIndex
 90
       18
102
RTVSPost2010Prop41ColorRGB
 90
        0
102
RTVSPost2010PropOp41
 70
     1
102
RTVSPost2010Prop42
 90
       50
102
RTVSPost2010PropOp42
 70
     1
102
RTVSPost2010Prop43
 90
        3
102
RTVSPost2010PropOp43
 70
     1
102
RTVSPost2010Prop44ColorIndex
 90
        5
102
RTVSPost2010Prop44ColorRGB
 90
      255
102
RTVSPost2010PropOp44
 70
     1
102
RTVSPost2010Prop45
280
     0
102
RTVSPost2010PropOp45
 70
     1
102
RTVSPost2010Prop46
 90
       50
102
RTVSPost2010PropOp46
 70
     1
102
RTVSPost2010Prop47
 90
       50
102
RTVSPost2010PropOp47
 70
     1
102
RTVSPost2010Prop48
 90
       50
102
RTVSPost2010PropOp48
 70
     1
102
RTVSPost2010Prop49
280
     0
102
RTVSPost2010PropOp49
 70
     1
102
RTVSPost2010Prop50
 90
       50
102
RTVSPost2010PropOp50
 70
     1
102
RTVSPost2010Prop51ColorIndex
 90
      256
102
RTVSPost2010Prop51ColorRGB
 90
-16777216
102
RTVSPost2010PropOp51
 70
     0
102
RTVSPost2010Prop52
140
1.0
102
RTVSPost2010PropOp52
 70
     0
102
RTVSPost2010Prop53
 90
        2
102
RTVSPost2010PropOp53
 70
     1
102
RTVSPost2010Prop54
  1
strokes_ogs.tif
102
RTVSPost2010PropOp54
 70
     1
102
RTVSPost2010Prop55
280
     0
102
RTVSPost2010PropOp55
 70
     1
102
RTVSPost2010Prop56
140
1.0
102
RTVSPost2010PropOp56
 70
     1
102
RTVSPost2010Prop57
140
1.0
102
RTVSPost2010PropOp57
 70
     1
  0
XRECORD
  5
5BF
102
{ACAD_REACTORS
330
5BE
102
}
330
5BE
100
AcDbXrecord
280
     1
102
RTVSPropertyOp0
 70
     1
102
RTVSPropertyOp1
 70
     1
102
RTVSPropertyOp2
 70
     1
102
RTVSPropertyOp3
 70
     1
102
RTVSPropertyOp4
 70
     1
102
RTVSPropertyOp5
 70
     1
102
RTVSPropertyOp6
 70
     1
102
RTVSPropertyOp7
 70
     1
102
RTVSPropertyOp8
 70
     1
102
RTVSPropertyOp9
 70
     1
102
RTVSPropertyOp10
 70
     1
102
RTVSPropertyOp11
 70
     1
102
RTVSPropertyOp12
 70
     1
102
RTVSPropertyOp13
 70
     1
102
RTVSPropertyOp14
 70
     1
102
RTVSPropertyOp15
 70
     1
102
RTVSPropertyOp16
 70
     1
102
RTVSPropertyOp17
 70
     1
102
RTVSPropertyOp18
 70
     1
102
RTVSPropertyOp19
 70
     1
102
RTVSPropertyOp20
 70
     1
102
RTVSPropertyOp21
 70
     1
102
RTVSPropertyOp22
 70
     1
102
RTVSPropertyOp23
 70
     1
102
RTVSPropertyOp24
 70
     1
102
RTVSPropertyOp25
 70
     1
102
RTVSPropertyOp26
 70
     1
102
RTVSPropertyOp27
 70
     1
102
RTVSPropertyOp28
 70
     1
102
RTVSPropertyOp29
 70
     1
102
RTVSPropertyOp30
 70
     1
102
RTVSPropertyOp31
 70
     1
102
RTVSPropertyOp32
 70
     1
102
RTVSPropertyOp33
 70
     1
102
RTVSPropertyOp34
 70
     1
102
RTVSPropertyOp35
 70
     1
102
RTVSPropertyOp36
 70
     1
102
RTVSPropertyOp37
 70
     1
102
RTVSPropertyOp38
 70
     1
102
RTVSPropertyOp39
 70
     1
102
RTVSPropertyOp40
 70
     1
102
RTVSPropertyOp41
 70
     1
102
RTVSPropertyOp42
 70
     1
102
RTVSPropertyOp43
 70
     1
102
RTVSPropertyOp44
 70
     1
102
RTVSPropertyOp45
 70
     1
102
RTVSPropertyOp46
 70
     1
102
RTVSPropertyOp47
 70
     1
102
RTVSPropertyOp48
 70
     1
102
RTVSPropertyOp49
 70
     1
102
RTVSPropertyOp50
 70
     1
102
RTVSPropertyOp51
 70
     0
102
RTVSPropertyOp52
 70
     0
102
RTVSPropertyOp53
 70
     1
102
RTVSPropertyOp54
 70
     1
102
RTVSPropertyOp55
 70
     1
102
RTVSPropertyOp56
 70
     1
102
RTVSPropertyOp57
 70
     1
102
RTVSPost2010Prop28
280
     0
102
RTVSPost2010PropOp28
 70
     1
102
RTVSPost2010Prop29
280
     1
102
RTVSPost2010PropOp29
 70
     1
102
RTVSPost2010Prop30
280
     1
102
RTVSPost2010PropOp30
 70
     1
102
RTVSPost2010Prop31
280
     0
102
RTVSPost2010PropOp31
 70
     1
102
RTVSPost2010Prop32
280
     0
102
RTVSPost2010PropOp32
 70
     1
102
RTVSPost2010Prop33
280
     0
102
RTVSPost2010PropOp33
 70
     1
102
RTVSPost2010Prop34
280
     0
102
RTVSPost2010PropOp34
 70
     1
102
RTVSPost2010Prop35
280
     0
102
RTVSPost2010PropOp35
 70
     1
102
RTVSPost2010Prop36
280
     0
102
RTVSPost2010PropOp36
 70
     1
102
RTVSPost2010Prop37
 90
       50
102
RTVSPost2010PropOp37
 70
     1
102
RTVSPost2010Prop38
140
0.0
102
RTVSPost2010PropOp38
 70
     1
102
RTVSPost2010Prop39
140
1.0
102
RTVSPost2010PropOp39
 70
     1
102
RTVSPost2010Prop40
 90
        0
102
RTVSPost2010PropOp40
 70
     1
102
RTVSPost2010Prop41ColorIndex
 90
       18
102
RTVSPost2010Prop41ColorRGB
 90
        0
102
RTVSPost2010PropOp41
 70
     1
102
RTVSPost2010Prop42
 90
       50
102
RTVSPost2010PropOp42
 70
     1
102
RTVSPost2010Prop43
 90
        3
102
RTVSPost2010PropOp43
 70
     1
102
RTVSPost2010Prop44ColorIndex
 90
        5
102
RTVSPost2010Prop44ColorRGB
 90
      255
102
RTVSPost2010PropOp44
 70
     1
102
RTVSPost2010Prop45
280
     0
102
RTVSPost2010PropOp45
 70
     1
102
RTVSPost2010Prop46
 90
       50
102
RTVSPost2010PropOp46
 70
     1
102
RTVSPost2010Prop47
 90
       50
102
RTVSPost2010PropOp47
 70
     1
102
RTVSPost2010Prop48
 90
       50
102
RTVSPost2010PropOp48
 70
     1
102
RTVSPost2010Prop49
280
     0
102
RTVSPost2010PropOp49
 70
     1
102
RTVSPost2010Prop50
 90
       50
102
RTVSPost2010PropOp50
 70
     1
102
RTVSPost2010Prop51ColorIndex
 90
      256
102
RTVSPost2010Prop51ColorRGB
 90
-16777216
102
RTVSPost2010PropOp51
 70
     0
102
RTVSPost2010Prop52
140
1.0
102
RTVSPost2010PropOp52
 70
     0
102
RTVSPost2010Prop53
 90
        2
102
RTVSPost2010PropOp53
 70
     1
102
RTVSPost2010Prop54
  1
strokes_ogs.tif
102
RTVSPost2010PropOp54
 70
     1
102
RTVSPost2010Prop55
280
     0
102
RTVSPost2010PropOp55
 70
     1
102
RTVSPost2010Prop56
140
1.0
102
RTVSPost2010PropOp56
 70
     1
102
RTVSPost2010Prop57
140
1.0
102
RTVSPost2010PropOp57
 70
     1
  0
XRECORD
  5
5C5
102
{ACAD_REACTORS
330
5C4
102
}
330
5C4
100
AcDbXrecord
280
     1
102
RTVSPropertyOp0
 70
     1
102
RTVSPropertyOp1
 70
     1
102
RTVSPropertyOp2
 70
     1
102
RTVSPropertyOp3
 70
     1
102
RTVSPropertyOp4
 70
     1
102
RTVSPropertyOp5
 70
     1
102
RTVSPropertyOp6
 70
     1
102
RTVSPropertyOp7
 70
     1
102
RTVSPropertyOp8
 70
     1
102
RTVSPropertyOp9
 70
     1
102
RTVSPropertyOp10
 70
     1
102
RTVSPropertyOp11
 70
     1
102
RTVSPropertyOp12
 70
     1
102
RTVSPropertyOp13
 70
     1
102
RTVSPropertyOp14
 70
     1
102
RTVSPropertyOp15
 70
     1
102
RTVSPropertyOp16
 70
     1
102
RTVSPropertyOp17
 70
     1
102
RTVSPropertyOp18
 70
     1
102
RTVSPropertyOp19
 70
     1
102
RTVSPropertyOp20
 70
     1
102
RTVSPropertyOp21
 70
     1
102
RTVSPropertyOp22
 70
     1
102
RTVSPropertyOp23
 70
     1
102
RTVSPropertyOp24
 70
     1
102
RTVSPropertyOp25
 70
     1
102
RTVSPropertyOp26
 70
     1
102
RTVSPropertyOp27
 70
     1
102
RTVSPropertyOp28
 70
     1
102
RTVSPropertyOp29
 70
     1
102
RTVSPropertyOp30
 70
     1
102
RTVSPropertyOp31
 70
     1
102
RTVSPropertyOp32
 70
     1
102
RTVSPropertyOp33
 70
     1
102
RTVSPropertyOp34
 70
     1
102
RTVSPropertyOp35
 70
     1
102
RTVSPropertyOp36
 70
     1
102
RTVSPropertyOp37
 70
     1
102
RTVSPropertyOp38
 70
     1
102
RTVSPropertyOp39
 70
     1
102
RTVSPropertyOp40
 70
     1
102
RTVSPropertyOp41
 70
     1
102
RTVSPropertyOp42
 70
     1
102
RTVSPropertyOp43
 70
     1
102
RTVSPropertyOp44
 70
     1
102
RTVSPropertyOp45
 70
     1
102
RTVSPropertyOp46
 70
     1
102
RTVSPropertyOp47
 70
     1
102
RTVSPropertyOp48
 70
     1
102
RTVSPropertyOp49
 70
     1
102
RTVSPropertyOp50
 70
     1
102
RTVSPropertyOp51
 70
     0
102
RTVSPropertyOp52
 70
     0
102
RTVSPropertyOp53
 70
     1
102
RTVSPropertyOp54
 70
     1
102
RTVSPropertyOp55
 70
     1
102
RTVSPropertyOp56
 70
     1
102
RTVSPropertyOp57
 70
     1
102
RTVSPost2010Prop28
280
     0
102
RTVSPost2010PropOp28
 70
     1
102
RTVSPost2010Prop29
280
     1
102
RTVSPost2010PropOp29
 70
     1
102
RTVSPost2010Prop30
280
     1
102
RTVSPost2010PropOp30
 70
     1
102
RTVSPost2010Prop31
280
     0
102
RTVSPost2010PropOp31
 70
     1
102
RTVSPost2010Prop32
280
     0
102
RTVSPost2010PropOp32
 70
     1
102
RTVSPost2010Prop33
280
     0
102
RTVSPost2010PropOp33
 70
     1
102
RTVSPost2010Prop34
280
     0
102
RTVSPost2010PropOp34
 70
     1
102
RTVSPost2010Prop35
280
     0
102
RTVSPost2010PropOp35
 70
     1
102
RTVSPost2010Prop36
280
     0
102
RTVSPost2010PropOp36
 70
     1
102
RTVSPost2010Prop37
 90
       50
102
RTVSPost2010PropOp37
 70
     1
102
RTVSPost2010Prop38
140
0.0
102
RTVSPost2010PropOp38
 70
     1
102
RTVSPost2010Prop39
140
1.0
102
RTVSPost2010PropOp39
 70
     1
102
RTVSPost2010Prop40
 90
        0
102
RTVSPost2010PropOp40
 70
     1
102
RTVSPost2010Prop41ColorIndex
 90
       18
102
RTVSPost2010Prop41ColorRGB
 90
        0
102
RTVSPost2010PropOp41
 70
     1
102
RTVSPost2010Prop42
 90
       50
102
RTVSPost2010PropOp42
 70
     1
102
RTVSPost2010Prop43
 90
        3
102
RTVSPost2010PropOp43
 70
     1
102
RTVSPost2010Prop44ColorIndex
 90
        5
102
RTVSPost2010Prop44ColorRGB
 90
      255
102
RTVSPost2010PropOp44
 70
     1
102
RTVSPost2010Prop45
280
     0
102
RTVSPost2010PropOp45
 70
     1
102
RTVSPost2010Prop46
 90
       50
102
RTVSPost2010PropOp46
 70
     1
102
RTVSPost2010Prop47
 90
       50
102
RTVSPost2010PropOp47
 70
     1
102
RTVSPost2010Prop48
 90
       50
102
RTVSPost2010PropOp48
 70
     1
102
RTVSPost2010Prop49
280
     0
102
RTVSPost2010PropOp49
 70
     1
102
RTVSPost2010Prop50
 90
       50
102
RTVSPost2010PropOp50
 70
     1
102
RTVSPost2010Prop51ColorIndex
 90
      256
102
RTVSPost2010Prop51ColorRGB
 90
-16777216
102
RTVSPost2010PropOp51
 70
     0
102
RTVSPost2010Prop52
140
1.0
102
RTVSPost2010PropOp52
 70
     0
102
RTVSPost2010Prop53
 90
        2
102
RTVSPost2010PropOp53
 70
     1
102
RTVSPost2010Prop54
  1
strokes_ogs.tif
102
RTVSPost2010PropOp54
 70
     1
102
RTVSPost2010Prop55
280
     0
102
RTVSPost2010PropOp55
 70
     1
102
RTVSPost2010Prop56
140
1.0
102
RTVSPost2010PropOp56
 70
     1
102
RTVSPost2010Prop57
140
1.0
102
RTVSPost2010PropOp57
 70
     1
  0
XRECORD
  5
5D9
102
{ACAD_REACTORS
330
5D8
102
}
330
5D8
100
AcDbXrecord
280
     1
102
RTVSPropertyOp0
 70
     0
102
RTVSPropertyOp1
 70
     0
102
RTVSPropertyOp2
 70
     0
102
RTVSPropertyOp3
 70
     0
102
RTVSPropertyOp4
 70
     0
102
RTVSPropertyOp5
 70
     0
102
RTVSPropertyOp6
 70
     0
102
RTVSPropertyOp7
 70
     0
102
RTVSPropertyOp8
 70
     0
102
RTVSPropertyOp9
 70
     0
102
RTVSPropertyOp10
 70
     0
102
RTVSPropertyOp11
 70
     0
102
RTVSPropertyOp12
 70
     0
102
RTVSPropertyOp13
 70
     0
102
RTVSPropertyOp14
 70
     0
102
RTVSPropertyOp15
 70
     0
102
RTVSPropertyOp16
 70
     0
102
RTVSPropertyOp17
 70
     0
102
RTVSPropertyOp18
 70
     0
102
RTVSPropertyOp19
 70
     0
102
RTVSPropertyOp20
 70
     0
102
RTVSPropertyOp21
 70
     0
102
RTVSPropertyOp22
 70
     0
102
RTVSPropertyOp23
 70
     0
102
RTVSPropertyOp24
 70
     0
102
RTVSPropertyOp25
 70
     0
102
RTVSPropertyOp26
 70
     0
102
RTVSPropertyOp27
 70
     0
102
RTVSPropertyOp28
 70
     1
102
RTVSPropertyOp29
 70
     1
102
RTVSPropertyOp30
 70
     1
102
RTVSPropertyOp31
 70
     1
102
RTVSPropertyOp32
 70
     1
102
RTVSPropertyOp33
 70
     1
102
RTVSPropertyOp34
 70
     1
102
RTVSPropertyOp35
 70
     1
102
RTVSPropertyOp36
 70
     1
102
RTVSPropertyOp37
 70
     1
102
RTVSPropertyOp38
 70
     1
102
RTVSPropertyOp39
 70
     1
102
RTVSPropertyOp40
 70
     1
102
RTVSPropertyOp41
 70
     1
102
RTVSPropertyOp42
 70
     1
102
RTVSPropertyOp43
 70
     1
102
RTVSPropertyOp44
 70
     1
102
RTVSPropertyOp45
 70
     1
102
RTVSPropertyOp46
 70
     1
102
RTVSPropertyOp47
 70
     1
102
RTVSPropertyOp48
 70
     1
102
RTVSPropertyOp49
 70
     1
102
RTVSPropertyOp50
 70
     1
102
RTVSPropertyOp51
 70
     0
102
RTVSPropertyOp52
 70
     0
102
RTVSPropertyOp53
 70
     1
102
RTVSPropertyOp54
 70
     1
102
RTVSPropertyOp55
 70
     1
102
RTVSPropertyOp56
 70
     1
102
RTVSPropertyOp57
 70
     1
102
RTVSPost2010Prop28
280
     0
102
RTVSPost2010PropOp28
 70
     1
102
RTVSPost2010Prop29
280
     1
102
RTVSPost2010PropOp29
 70
     1
102
RTVSPost2010Prop30
280
     1
102
RTVSPost2010PropOp30
 70
     1
102
RTVSPost2010Prop31
280
     0
102
RTVSPost2010PropOp31
 70
     1
102
RTVSPost2010Prop32
280
     0
102
RTVSPost2010PropOp32
 70
     1
102
RTVSPost2010Prop33
280
     0
102
RTVSPost2010PropOp33
 70
     1
102
RTVSPost2010Prop34
280
     0
102
RTVSPost2010PropOp34
 70
     1
102
RTVSPost2010Prop35
280
     0
102
RTVSPost2010PropOp35
 70
     1
102
RTVSPost2010Prop36
280
     0
102
RTVSPost2010PropOp36
 70
     1
102
RTVSPost2010Prop37
 90
       50
102
RTVSPost2010PropOp37
 70
     1
102
RTVSPost2010Prop38
140
0.0
102
RTVSPost2010PropOp38
 70
     1
102
RTVSPost2010Prop39
140
1.0
102
RTVSPost2010PropOp39
 70
     1
102
RTVSPost2010Prop40
 90
        0
102
RTVSPost2010PropOp40
 70
     1
102
RTVSPost2010Prop41ColorIndex
 90
       18
102
RTVSPost2010Prop41ColorRGB
 90
        0
102
RTVSPost2010PropOp41
 70
     1
102
RTVSPost2010Prop42
 90
       50
102
RTVSPost2010PropOp42
 70
     1
102
RTVSPost2010Prop43
 90
        3
102
RTVSPost2010PropOp43
 70
     1
102
RTVSPost2010Prop44ColorIndex
 90
        5
102
RTVSPost2010Prop44ColorRGB
 90
      255
102
RTVSPost2010PropOp44
 70
     1
102
RTVSPost2010Prop45
280
     0
102
RTVSPost2010PropOp45
 70
     1
102
RTVSPost2010Prop46
 90
       50
102
RTVSPost2010PropOp46
 70
     1
102
RTVSPost2010Prop47
 90
       50
102
RTVSPost2010PropOp47
 70
     1
102
RTVSPost2010Prop48
 90
       50
102
RTVSPost2010PropOp48
 70
     1
102
RTVSPost2010Prop49
280
     0
102
RTVSPost2010PropOp49
 70
     1
102
RTVSPost2010Prop50
 90
       50
102
RTVSPost2010PropOp50
 70
     1
102
RTVSPost2010Prop51ColorIndex
 90
      256
102
RTVSPost2010Prop51ColorRGB
 90
-16777216
102
RTVSPost2010PropOp51
 70
     0
102
RTVSPost2010Prop52
140
1.0
102
RTVSPost2010PropOp52
 70
     0
102
RTVSPost2010Prop53
 90
        2
102
RTVSPost2010PropOp53
 70
     1
102
RTVSPost2010Prop54
  1
strokes_ogs.tif
102
RTVSPost2010PropOp54
 70
     1
102
RTVSPost2010Prop55
280
     0
102
RTVSPost2010PropOp55
 70
     1
102
RTVSPost2010Prop56
140
1.0
102
RTVSPost2010PropOp56
 70
     1
102
RTVSPost2010Prop57
140
1.0
102
RTVSPost2010PropOp57
 70
     1
  0
XRECORD
  5
5D3
102
{ACAD_REACTORS
330
5D2
102
}
330
5D2
100
AcDbXrecord
280
     1
102
RTVSPropertyOp0
 70
     1
102
RTVSPropertyOp1
 70
     1
102
RTVSPropertyOp2
 70
     1
102
RTVSPropertyOp3
 70
     1
102
RTVSPropertyOp4
 70
     1
102
RTVSPropertyOp5
 70
     1
102
RTVSPropertyOp6
 70
     1
102
RTVSPropertyOp7
 70
     1
102
RTVSPropertyOp8
 70
     1
102
RTVSPropertyOp9
 70
     1
102
RTVSPropertyOp10
 70
     1
102
RTVSPropertyOp11
 70
     1
102
RTVSPropertyOp12
 70
     1
102
RTVSPropertyOp13
 70
     1
102
RTVSPropertyOp14
 70
     1
102
RTVSPropertyOp15
 70
     1
102
RTVSPropertyOp16
 70
     1
102
RTVSPropertyOp17
 70
     1
102
RTVSPropertyOp18
 70
     1
102
RTVSPropertyOp19
 70
     1
102
RTVSPropertyOp20
 70
     1
102
RTVSPropertyOp21
 70
     1
102
RTVSPropertyOp22
 70
     1
102
RTVSPropertyOp23
 70
     1
102
RTVSPropertyOp24
 70
     1
102
RTVSPropertyOp25
 70
     1
102
RTVSPropertyOp26
 70
     1
102
RTVSPropertyOp27
 70
     1
102
RTVSPropertyOp28
 70
     1
102
RTVSPropertyOp29
 70
     1
102
RTVSPropertyOp30
 70
     1
102
RTVSPropertyOp31
 70
     1
102
RTVSPropertyOp32
 70
     1
102
RTVSPropertyOp33
 70
     1
102
RTVSPropertyOp34
 70
     1
102
RTVSPropertyOp35
 70
     1
102
RTVSPropertyOp36
 70
     1
102
RTVSPropertyOp37
 70
     1
102
RTVSPropertyOp38
 70
     1
102
RTVSPropertyOp39
 70
     1
102
RTVSPropertyOp40
 70
     1
102
RTVSPropertyOp41
 70
     1
102
RTVSPropertyOp42
 70
     1
102
RTVSPropertyOp43
 70
     1
102
RTVSPropertyOp44
 70
     1
102
RTVSPropertyOp45
 70
     1
102
RTVSPropertyOp46
 70
     1
102
RTVSPropertyOp47
 70
     1
102
RTVSPropertyOp48
 70
     1
102
RTVSPropertyOp49
 70
     1
102
RTVSPropertyOp50
 70
     1
102
RTVSPropertyOp51
 70
     0
102
RTVSPropertyOp52
 70
     0
102
RTVSPropertyOp53
 70
     1
102
RTVSPropertyOp54
 70
     1
102
RTVSPropertyOp55
 70
     1
102
RTVSPropertyOp56
 70
     1
102
RTVSPropertyOp57
 70
     1
102
RTVSPost2010Prop28
280
     0
102
RTVSPost2010PropOp28
 70
     1
102
RTVSPost2010Prop29
280
     1
102
RTVSPost2010PropOp29
 70
     1
102
RTVSPost2010Prop30
280
     1
102
RTVSPost2010PropOp30
 70
     1
102
RTVSPost2010Prop31
280
     0
102
RTVSPost2010PropOp31
 70
     1
102
RTVSPost2010Prop32
280
     0
102
RTVSPost2010PropOp32
 70
     1
102
RTVSPost2010Prop33
280
     0
102
RTVSPost2010PropOp33
 70
     1
102
RTVSPost2010Prop34
280
     0
102
RTVSPost2010PropOp34
 70
     1
102
RTVSPost2010Prop35
280
     0
102
RTVSPost2010PropOp35
 70
     1
102
RTVSPost2010Prop36
280
     0
102
RTVSPost2010PropOp36
 70
     1
102
RTVSPost2010Prop37
 90
       50
102
RTVSPost2010PropOp37
 70
     1
102
RTVSPost2010Prop38
140
0.0
102
RTVSPost2010PropOp38
 70
     1
102
RTVSPost2010Prop39
140
1.0
102
RTVSPost2010PropOp39
 70
     1
102
RTVSPost2010Prop40
 90
        0
102
RTVSPost2010PropOp40
 70
     1
102
RTVSPost2010Prop41ColorIndex
 90
       18
102
RTVSPost2010Prop41ColorRGB
 90
        0
102
RTVSPost2010PropOp41
 70
     1
102
RTVSPost2010Prop42
 90
       50
102
RTVSPost2010PropOp42
 70
     1
102
RTVSPost2010Prop43
 90
        3
102
RTVSPost2010PropOp43
 70
     1
102
RTVSPost2010Prop44ColorIndex
 90
        5
102
RTVSPost2010Prop44ColorRGB
 90
      255
102
RTVSPost2010PropOp44
 70
     1
102
RTVSPost2010Prop45
280
     0
102
RTVSPost2010PropOp45
 70
     1
102
RTVSPost2010Prop46
 90
       50
102
RTVSPost2010PropOp46
 70
     1
102
RTVSPost2010Prop47
 90
       50
102
RTVSPost2010PropOp47
 70
     1
102
RTVSPost2010Prop48
 90
       50
102
RTVSPost2010PropOp48
 70
     1
102
RTVSPost2010Prop49
280
     0
102
RTVSPost2010PropOp49
 70
     1
102
RTVSPost2010Prop50
 90
       50
102
RTVSPost2010PropOp50
 70
     1
102
RTVSPost2010Prop51ColorIndex
 90
      256
102
RTVSPost2010Prop51ColorRGB
 90
-16777216
102
RTVSPost2010PropOp51
 70
     0
102
RTVSPost2010Prop52
140
1.0
102
RTVSPost2010PropOp52
 70
     0
102
RTVSPost2010Prop53
 90
        2
102
RTVSPost2010PropOp53
 70
     1
102
RTVSPost2010Prop54
  1
strokes_ogs.tif
102
RTVSPost2010PropOp54
 70
     1
102
RTVSPost2010Prop55
280
     0
102
RTVSPost2010PropOp55
 70
     1
102
RTVSPost2010Prop56
140
1.0
102
RTVSPost2010PropOp56
 70
     1
102
RTVSPost2010Prop57
140
1.0
102
RTVSPost2010PropOp57
 70
     1
  0
XRECORD
  5
5DB
102
{ACAD_REACTORS
330
5DA
102
}
330
5DA
100
AcDbXrecord
280
     1
102
RTVSPropertyOp0
 70
     0
102
RTVSPropertyOp1
 70
     0
102
RTVSPropertyOp2
 70
     0
102
RTVSPropertyOp3
 70
     0
102
RTVSPropertyOp4
 70
     0
102
RTVSPropertyOp5
 70
     0
102
RTVSPropertyOp6
 70
     0
102
RTVSPropertyOp7
 70
     0
102
RTVSPropertyOp8
 70
     0
102
RTVSPropertyOp9
 70
     0
102
RTVSPropertyOp10
 70
     0
102
RTVSPropertyOp11
 70
     0
102
RTVSPropertyOp12
 70
     0
102
RTVSPropertyOp13
 70
     0
102
RTVSPropertyOp14
 70
     0
102
RTVSPropertyOp15
 70
     0
102
RTVSPropertyOp16
 70
     0
102
RTVSPropertyOp17
 70
     0
102
RTVSPropertyOp18
 70
     0
102
RTVSPropertyOp19
 70
     0
102
RTVSPropertyOp20
 70
     0
102
RTVSPropertyOp21
 70
     0
102
RTVSPropertyOp22
 70
     0
102
RTVSPropertyOp23
 70
     0
102
RTVSPropertyOp24
 70
     0
102
RTVSPropertyOp25
 70
     0
102
RTVSPropertyOp26
 70
     0
102
RTVSPropertyOp27
 70
     0
102
RTVSPropertyOp28
 70
     1
102
RTVSPropertyOp29
 70
     1
102
RTVSPropertyOp30
 70
     1
102
RTVSPropertyOp31
 70
     1
102
RTVSPropertyOp32
 70
     1
102
RTVSPropertyOp33
 70
     1
102
RTVSPropertyOp34
 70
     1
102
RTVSPropertyOp35
 70
     1
102
RTVSPropertyOp36
 70
     1
102
RTVSPropertyOp37
 70
     1
102
RTVSPropertyOp38
 70
     1
102
RTVSPropertyOp39
 70
     1
102
RTVSPropertyOp40
 70
     1
102
RTVSPropertyOp41
 70
     1
102
RTVSPropertyOp42
 70
     1
102
RTVSPropertyOp43
 70
     1
102
RTVSPropertyOp44
 70
     1
102
RTVSPropertyOp45
 70
     1
102
RTVSPropertyOp46
 70
     1
102
RTVSPropertyOp47
 70
     1
102
RTVSPropertyOp48
 70
     1
102
RTVSPropertyOp49
 70
     1
102
RTVSPropertyOp50
 70
     1
102
RTVSPropertyOp51
 70
     0
102
RTVSPropertyOp52
 70
     0
102
RTVSPropertyOp53
 70
     1
102
RTVSPropertyOp54
 70
     1
102
RTVSPropertyOp55
 70
     1
102
RTVSPropertyOp56
 70
     1
102
RTVSPropertyOp57
 70
     1
102
RTVSPost2010Prop28
280
     0
102
RTVSPost2010PropOp28
 70
     1
102
RTVSPost2010Prop29
280
     1
102
RTVSPost2010PropOp29
 70
     1
102
RTVSPost2010Prop30
280
     1
102
RTVSPost2010PropOp30
 70
     1
102
RTVSPost2010Prop31
280
     0
102
RTVSPost2010PropOp31
 70
     1
102
RTVSPost2010Prop32
280
     0
102
RTVSPost2010PropOp32
 70
     1
102
RTVSPost2010Prop33
280
     0
102
RTVSPost2010PropOp33
 70
     1
102
RTVSPost2010Prop34
280
     0
102
RTVSPost2010PropOp34
 70
     1
102
RTVSPost2010Prop35
280
     0
102
RTVSPost2010PropOp35
 70
     1
102
RTVSPost2010Prop36
280
     0
102
RTVSPost2010PropOp36
 70
     1
102
RTVSPost2010Prop37
 90
       50
102
RTVSPost2010PropOp37
 70
     1
102
RTVSPost2010Prop38
140
0.0
102
RTVSPost2010PropOp38
 70
     1
102
RTVSPost2010Prop39
140
1.0
102
RTVSPost2010PropOp39
 70
     1
102
RTVSPost2010Prop40
 90
        0
102
RTVSPost2010PropOp40
 70
     1
102
RTVSPost2010Prop41ColorIndex
 90
       18
102
RTVSPost2010Prop41ColorRGB
 90
        0
102
RTVSPost2010PropOp41
 70
     1
102
RTVSPost2010Prop42
 90
       50
102
RTVSPost2010PropOp42
 70
     1
102
RTVSPost2010Prop43
 90
        3
102
RTVSPost2010PropOp43
 70
     1
102
RTVSPost2010Prop44ColorIndex
 90
        5
102
RTVSPost2010Prop44ColorRGB
 90
      255
102
RTVSPost2010PropOp44
 70
     1
102
RTVSPost2010Prop45
280
     0
102
RTVSPost2010PropOp45
 70
     1
102
RTVSPost2010Prop46
 90
       50
102
RTVSPost2010PropOp46
 70
     1
102
RTVSPost2010Prop47
 90
       50
102
RTVSPost2010PropOp47
 70
     1
102
RTVSPost2010Prop48
 90
       50
102
RTVSPost2010PropOp48
 70
     1
102
RTVSPost2010Prop49
280
     0
102
RTVSPost2010PropOp49
 70
     1
102
RTVSPost2010Prop50
 90
       50
102
RTVSPost2010PropOp50
 70
     1
102
RTVSPost2010Prop51ColorIndex
 90
      256
102
RTVSPost2010Prop51ColorRGB
 90
-16777216
102
RTVSPost2010PropOp51
 70
     0
102
RTVSPost2010Prop52
140
1.0
102
RTVSPost2010PropOp52
 70
     0
102
RTVSPost2010Prop53
 90
        2
102
RTVSPost2010PropOp53
 70
     1
102
RTVSPost2010Prop54
  1
strokes_ogs.tif
102
RTVSPost2010PropOp54
 70
     1
102
RTVSPost2010Prop55
280
     0
102
RTVSPost2010PropOp55
 70
     1
102
RTVSPost2010Prop56
140
1.0
102
RTVSPost2010PropOp56
 70
     1
102
RTVSPost2010Prop57
140
1.0
102
RTVSPost2010PropOp57
 70
     1
  0
XRECORD
  5
5C9
102
{ACAD_REACTORS
330
5C8
102
}
330
5C8
100
AcDbXrecord
280
     1
102
RTVSPropertyOp0
 70
     1
102
RTVSPropertyOp1
 70
     1
102
RTVSPropertyOp2
 70
     1
102
RTVSPropertyOp3
 70
     1
102
RTVSPropertyOp4
 70
     1
102
RTVSPropertyOp5
 70
     1
102
RTVSPropertyOp6
 70
     1
102
RTVSPropertyOp7
 70
     1
102
RTVSPropertyOp8
 70
     1
102
RTVSPropertyOp9
 70
     1
102
RTVSPropertyOp10
 70
     1
102
RTVSPropertyOp11
 70
     1
102
RTVSPropertyOp12
 70
     1
102
RTVSPropertyOp13
 70
     1
102
RTVSPropertyOp14
 70
     1
102
RTVSPropertyOp15
 70
     1
102
RTVSPropertyOp16
 70
     1
102
RTVSPropertyOp17
 70
     1
102
RTVSPropertyOp18
 70
     1
102
RTVSPropertyOp19
 70
     1
102
RTVSPropertyOp20
 70
     1
102
RTVSPropertyOp21
 70
     1
102
RTVSPropertyOp22
 70
     1
102
RTVSPropertyOp23
 70
     1
102
RTVSPropertyOp24
 70
     1
102
RTVSPropertyOp25
 70
     1
102
RTVSPropertyOp26
 70
     1
102
RTVSPropertyOp27
 70
     1
102
RTVSPropertyOp28
 70
     1
102
RTVSPropertyOp29
 70
     1
102
RTVSPropertyOp30
 70
     1
102
RTVSPropertyOp31
 70
     1
102
RTVSPropertyOp32
 70
     1
102
RTVSPropertyOp33
 70
     1
102
RTVSPropertyOp34
 70
     1
102
RTVSPropertyOp35
 70
     1
102
RTVSPropertyOp36
 70
     1
102
RTVSPropertyOp37
 70
     1
102
RTVSPropertyOp38
 70
     1
102
RTVSPropertyOp39
 70
     1
102
RTVSPropertyOp40
 70
     1
102
RTVSPropertyOp41
 70
     1
102
RTVSPropertyOp42
 70
     1
102
RTVSPropertyOp43
 70
     1
102
RTVSPropertyOp44
 70
     1
102
RTVSPropertyOp45
 70
     1
102
RTVSPropertyOp46
 70
     1
102
RTVSPropertyOp47
 70
     1
102
RTVSPropertyOp48
 70
     1
102
RTVSPropertyOp49
 70
     1
102
RTVSPropertyOp50
 70
     1
102
RTVSPropertyOp51
 70
     0
102
RTVSPropertyOp52
 70
     0
102
RTVSPropertyOp53
 70
     1
102
RTVSPropertyOp54
 70
     1
102
RTVSPropertyOp55
 70
     1
102
RTVSPropertyOp56
 70
     1
102
RTVSPropertyOp57
 70
     1
102
RTVSPost2010Prop28
280
     0
102
RTVSPost2010PropOp28
 70
     1
102
RTVSPost2010Prop29
280
     1
102
RTVSPost2010PropOp29
 70
     1
102
RTVSPost2010Prop30
280
     1
102
RTVSPost2010PropOp30
 70
     1
102
RTVSPost2010Prop31
280
     0
102
RTVSPost2010PropOp31
 70
     1
102
RTVSPost2010Prop32
280
     0
102
RTVSPost2010PropOp32
 70
     1
102
RTVSPost2010Prop33
280
     0
102
RTVSPost2010PropOp33
 70
     1
102
RTVSPost2010Prop34
280
     0
102
RTVSPost2010PropOp34
 70
     1
102
RTVSPost2010Prop35
280
     0
102
RTVSPost2010PropOp35
 70
     1
102
RTVSPost2010Prop36
280
     0
102
RTVSPost2010PropOp36
 70
     1
102
RTVSPost2010Prop37
 90
       50
102
RTVSPost2010PropOp37
 70
     1
102
RTVSPost2010Prop38
140
0.0
102
RTVSPost2010PropOp38
 70
     1
102
RTVSPost2010Prop39
140
1.0
102
RTVSPost2010PropOp39
 70
     1
102
RTVSPost2010Prop40
 90
        0
102
RTVSPost2010PropOp40
 70
     1
102
RTVSPost2010Prop41ColorIndex
 90
       18
102
RTVSPost2010Prop41ColorRGB
 90
        0
102
RTVSPost2010PropOp41
 70
     1
102
RTVSPost2010Prop42
 90
       50
102
RTVSPost2010PropOp42
 70
     1
102
RTVSPost2010Prop43
 90
        3
102
RTVSPost2010PropOp43
 70
     1
102
RTVSPost2010Prop44ColorIndex
 90
        5
102
RTVSPost2010Prop44ColorRGB
 90
      255
102
RTVSPost2010PropOp44
 70
     1
102
RTVSPost2010Prop45
280
     0
102
RTVSPost2010PropOp45
 70
     1
102
RTVSPost2010Prop46
 90
       50
102
RTVSPost2010PropOp46
 70
     1
102
RTVSPost2010Prop47
 90
       50
102
RTVSPost2010PropOp47
 70
     1
102
RTVSPost2010Prop48
 90
       50
102
RTVSPost2010PropOp48
 70
     1
102
RTVSPost2010Prop49
280
     0
102
RTVSPost2010PropOp49
 70
     1
102
RTVSPost2010Prop50
 90
       50
102
RTVSPost2010PropOp50
 70
     1
102
RTVSPost2010Prop51ColorIndex
 90
      256
102
RTVSPost2010Prop51ColorRGB
 90
-16777216
102
RTVSPost2010PropOp51
 70
     0
102
RTVSPost2010Prop52
140
1.0
102
RTVSPost2010PropOp52
 70
     0
102
RTVSPost2010Prop53
 90
        2
102
RTVSPost2010PropOp53
 70
     1
102
RTVSPost2010Prop54
  1
strokes_ogs.tif
102
RTVSPost2010PropOp54
 70
     1
102
RTVSPost2010Prop55
280
     0
102
RTVSPost2010PropOp55
 70
     1
102
RTVSPost2010Prop56
140
1.0
102
RTVSPost2010PropOp56
 70
     1
102
RTVSPost2010Prop57
140
1.0
102
RTVSPost2010PropOp57
 70
     1
  0
XRECORD
  5
5E7
102
{ACAD_REACTORS
330
5E6
102
}
330
5E6
100
AcDbXrecord
280
     1
102
RTVSPropertyOp0
 70
     1
102
RTVSPropertyOp1
 70
     1
102
RTVSPropertyOp2
 70
     1
102
RTVSPropertyOp3
 70
     1
102
RTVSPropertyOp4
 70
     1
102
RTVSPropertyOp5
 70
     1
102
RTVSPropertyOp6
 70
     1
102
RTVSPropertyOp7
 70
     1
102
RTVSPropertyOp8
 70
     1
102
RTVSPropertyOp9
 70
     1
102
RTVSPropertyOp10
 70
     1
102
RTVSPropertyOp11
 70
     1
102
RTVSPropertyOp12
 70
     1
102
RTVSPropertyOp13
 70
     1
102
RTVSPropertyOp14
 70
     1
102
RTVSPropertyOp15
 70
     1
102
RTVSPropertyOp16
 70
     1
102
RTVSPropertyOp17
 70
     1
102
RTVSPropertyOp18
 70
     1
102
RTVSPropertyOp19
 70
     1
102
RTVSPropertyOp20
 70
     1
102
RTVSPropertyOp21
 70
     1
102
RTVSPropertyOp22
 70
     1
102
RTVSPropertyOp23
 70
     1
102
RTVSPropertyOp24
 70
     1
102
RTVSPropertyOp25
 70
     1
102
RTVSPropertyOp26
 70
     1
102
RTVSPropertyOp27
 70
     1
102
RTVSPropertyOp28
 70
     1
102
RTVSPropertyOp29
 70
     1
102
RTVSPropertyOp30
 70
     1
102
RTVSPropertyOp31
 70
     1
102
RTVSPropertyOp32
 70
     1
102
RTVSPropertyOp33
 70
     1
102
RTVSPropertyOp34
 70
     1
102
RTVSPropertyOp35
 70
     1
102
RTVSPropertyOp36
 70
     1
102
RTVSPropertyOp37
 70
     1
102
RTVSPropertyOp38
 70
     1
102
RTVSPropertyOp39
 70
     1
102
RTVSPropertyOp40
 70
     1
102
RTVSPropertyOp41
 70
     1
102
RTVSPropertyOp42
 70
     1
102
RTVSPropertyOp43
 70
     1
102
RTVSPropertyOp44
 70
     1
102
RTVSPropertyOp45
 70
     1
102
RTVSPropertyOp46
 70
     1
102
RTVSPropertyOp47
 70
     1
102
RTVSPropertyOp48
 70
     1
102
RTVSPropertyOp49
 70
     1
102
RTVSPropertyOp50
 70
     1
102
RTVSPropertyOp51
 70
     0
102
RTVSPropertyOp52
 70
     0
102
RTVSPropertyOp53
 70
     1
102
RTVSPropertyOp54
 70
     1
102
RTVSPropertyOp55
 70
     1
102
RTVSPropertyOp56
 70
     1
102
RTVSPropertyOp57
 70
     1
102
RTVSPost2010Prop28
280
     0
102
RTVSPost2010PropOp28
 70
     1
102
RTVSPost2010Prop29
280
     1
102
RTVSPost2010PropOp29
 70
     1
102
RTVSPost2010Prop30
280
     1
102
RTVSPost2010PropOp30
 70
     1
102
RTVSPost2010Prop31
280
     0
102
RTVSPost2010PropOp31
 70
     1
102
RTVSPost2010Prop32
280
     0
102
RTVSPost2010PropOp32
 70
     1
102
RTVSPost2010Prop33
280
     0
102
RTVSPost2010PropOp33
 70
     1
102
RTVSPost2010Prop34
280
     0
102
RTVSPost2010PropOp34
 70
     1
102
RTVSPost2010Prop35
280
     0
102
RTVSPost2010PropOp35
 70
     1
102
RTVSPost2010Prop36
280
     0
102
RTVSPost2010PropOp36
 70
     1
102
RTVSPost2010Prop37
 90
       50
102
RTVSPost2010PropOp37
 70
     1
102
RTVSPost2010Prop38
140
0.0
102
RTVSPost2010PropOp38
 70
     1
102
RTVSPost2010Prop39
140
1.0
102
RTVSPost2010PropOp39
 70
     1
102
RTVSPost2010Prop40
 90
        0
102
RTVSPost2010PropOp40
 70
     1
102
RTVSPost2010Prop41ColorIndex
 90
       18
102
RTVSPost2010Prop41ColorRGB
 90
        0
102
RTVSPost2010PropOp41
 70
     1
102
RTVSPost2010Prop42
 90
       50
102
RTVSPost2010PropOp42
 70
     1
102
RTVSPost2010Prop43
 90
        3
102
RTVSPost2010PropOp43
 70
     1
102
RTVSPost2010Prop44ColorIndex
 90
        5
102
RTVSPost2010Prop44ColorRGB
 90
      255
102
RTVSPost2010PropOp44
 70
     1
102
RTVSPost2010Prop45
280
     0
102
RTVSPost2010PropOp45
 70
     1
102
RTVSPost2010Prop46
 90
       50
102
RTVSPost2010PropOp46
 70
     1
102
RTVSPost2010Prop47
 90
       50
102
RTVSPost2010PropOp47
 70
     1
102
RTVSPost2010Prop48
 90
       50
102
RTVSPost2010PropOp48
 70
     1
102
RTVSPost2010Prop49
280
     0
102
RTVSPost2010PropOp49
 70
     1
102
RTVSPost2010Prop50
 90
       50
102
RTVSPost2010PropOp50
 70
     1
102
RTVSPost2010Prop51ColorIndex
 90
      256
102
RTVSPost2010Prop51ColorRGB
 90
-16777216
102
RTVSPost2010PropOp51
 70
     0
102
RTVSPost2010Prop52
140
1.0
102
RTVSPost2010PropOp52
 70
     0
102
RTVSPost2010Prop53
 90
        2
102
RTVSPost2010PropOp53
 70
     1
102
RTVSPost2010Prop54
  1
strokes_ogs.tif
102
RTVSPost2010PropOp54
 70
     1
102
RTVSPost2010Prop55
280
     0
102
RTVSPost2010PropOp55
 70
     1
102
RTVSPost2010Prop56
140
1.0
102
RTVSPost2010PropOp56
 70
     1
102
RTVSPost2010Prop57
140
1.0
102
RTVSPost2010PropOp57
 70
     1
  0
XRECORD
  5
5E5
102
{ACAD_REACTORS
330
5E4
102
}
330
5E4
100
AcDbXrecord
280
     1
102
RTVSPropertyOp0
 70
     1
102
RTVSPropertyOp1
 70
     1
102
RTVSPropertyOp2
 70
     1
102
RTVSPropertyOp3
 70
     1
102
RTVSPropertyOp4
 70
     1
102
RTVSPropertyOp5
 70
     1
102
RTVSPropertyOp6
 70
     1
102
RTVSPropertyOp7
 70
     1
102
RTVSPropertyOp8
 70
     1
102
RTVSPropertyOp9
 70
     1
102
RTVSPropertyOp10
 70
     1
102
RTVSPropertyOp11
 70
     1
102
RTVSPropertyOp12
 70
     1
102
RTVSPropertyOp13
 70
     1
102
RTVSPropertyOp14
 70
     1
102
RTVSPropertyOp15
 70
     1
102
RTVSPropertyOp16
 70
     1
102
RTVSPropertyOp17
 70
     1
102
RTVSPropertyOp18
 70
     1
102
RTVSPropertyOp19
 70
     1
102
RTVSPropertyOp20
 70
     1
102
RTVSPropertyOp21
 70
     1
102
RTVSPropertyOp22
 70
     1
102
RTVSPropertyOp23
 70
     1
102
RTVSPropertyOp24
 70
     1
102
RTVSPropertyOp25
 70
     1
102
RTVSPropertyOp26
 70
     1
102
RTVSPropertyOp27
 70
     1
102
RTVSPropertyOp28
 70
     1
102
RTVSPropertyOp29
 70
     1
102
RTVSPropertyOp30
 70
     1
102
RTVSPropertyOp31
 70
     1
102
RTVSPropertyOp32
 70
     1
102
RTVSPropertyOp33
 70
     1
102
RTVSPropertyOp34
 70
     1
102
RTVSPropertyOp35
 70
     1
102
RTVSPropertyOp36
 70
     1
102
RTVSPropertyOp37
 70
     1
102
RTVSPropertyOp38
 70
     1
102
RTVSPropertyOp39
 70
     1
102
RTVSPropertyOp40
 70
     1
102
RTVSPropertyOp41
 70
     1
102
RTVSPropertyOp42
 70
     1
102
RTVSPropertyOp43
 70
     1
102
RTVSPropertyOp44
 70
     1
102
RTVSPropertyOp45
 70
     1
102
RTVSPropertyOp46
 70
     1
102
RTVSPropertyOp47
 70
     1
102
RTVSPropertyOp48
 70
     1
102
RTVSPropertyOp49
 70
     1
102
RTVSPropertyOp50
 70
     1
102
RTVSPropertyOp51
 70
     0
102
RTVSPropertyOp52
 70
     0
102
RTVSPropertyOp53
 70
     1
102
RTVSPropertyOp54
 70
     1
102
RTVSPropertyOp55
 70
     1
102
RTVSPropertyOp56
 70
     1
102
RTVSPropertyOp57
 70
     1
102
RTVSPost2010Prop28
280
     0
102
RTVSPost2010PropOp28
 70
     1
102
RTVSPost2010Prop29
280
     1
102
RTVSPost2010PropOp29
 70
     1
102
RTVSPost2010Prop30
280
     1
102
RTVSPost2010PropOp30
 70
     1
102
RTVSPost2010Prop31
280
     0
102
RTVSPost2010PropOp31
 70
     1
102
RTVSPost2010Prop32
280
     0
102
RTVSPost2010PropOp32
 70
     1
102
RTVSPost2010Prop33
280
     0
102
RTVSPost2010PropOp33
 70
     1
102
RTVSPost2010Prop34
280
     0
102
RTVSPost2010PropOp34
 70
     1
102
RTVSPost2010Prop35
280
     0
102
RTVSPost2010PropOp35
 70
     1
102
RTVSPost2010Prop36
280
     0
102
RTVSPost2010PropOp36
 70
     1
102
RTVSPost2010Prop37
 90
       50
102
RTVSPost2010PropOp37
 70
     1
102
RTVSPost2010Prop38
140
0.0
102
RTVSPost2010PropOp38
 70
     1
102
RTVSPost2010Prop39
140
1.0
102
RTVSPost2010PropOp39
 70
     1
102
RTVSPost2010Prop40
 90
        0
102
RTVSPost2010PropOp40
 70
     1
102
RTVSPost2010Prop41ColorIndex
 90
       18
102
RTVSPost2010Prop41ColorRGB
 90
        0
102
RTVSPost2010PropOp41
 70
     1
102
RTVSPost2010Prop42
 90
       50
102
RTVSPost2010PropOp42
 70
     1
102
RTVSPost2010Prop43
 90
        3
102
RTVSPost2010PropOp43
 70
     1
102
RTVSPost2010Prop44ColorIndex
 90
        5
102
RTVSPost2010Prop44ColorRGB
 90
      255
102
RTVSPost2010PropOp44
 70
     1
102
RTVSPost2010Prop45
280
     0
102
RTVSPost2010PropOp45
 70
     1
102
RTVSPost2010Prop46
 90
       50
102
RTVSPost2010PropOp46
 70
     1
102
RTVSPost2010Prop47
 90
       50
102
RTVSPost2010PropOp47
 70
     1
102
RTVSPost2010Prop48
 90
       50
102
RTVSPost2010PropOp48
 70
     1
102
RTVSPost2010Prop49
280
     0
102
RTVSPost2010PropOp49
 70
     1
102
RTVSPost2010Prop50
 90
       50
102
RTVSPost2010PropOp50
 70
     1
102
RTVSPost2010Prop51ColorIndex
 90
      256
102
RTVSPost2010Prop51ColorRGB
 90
-16777216
102
RTVSPost2010PropOp51
 70
     0
102
RTVSPost2010Prop52
140
1.0
102
RTVSPost2010PropOp52
 70
     0
102
RTVSPost2010Prop53
 90
        2
102
RTVSPost2010PropOp53
 70
     1
102
RTVSPost2010Prop54
  1
strokes_ogs.tif
102
RTVSPost2010PropOp54
 70
     1
102
RTVSPost2010Prop55
280
     0
102
RTVSPost2010PropOp55
 70
     1
102
RTVSPost2010Prop56
140
1.0
102
RTVSPost2010PropOp56
 70
     1
102
RTVSPost2010Prop57
140
1.0
102
RTVSPost2010PropOp57
 70
     1
  0
XRECORD
  5
5DF
102
{ACAD_REACTORS
330
5DE
102
}
330
5DE
100
AcDbXrecord
280
     1
102
RTVSPropertyOp0
 70
     1
102
RTVSPropertyOp1
 70
     1
102
RTVSPropertyOp2
 70
     1
102
RTVSPropertyOp3
 70
     1
102
RTVSPropertyOp4
 70
     1
102
RTVSPropertyOp5
 70
     1
102
RTVSPropertyOp6
 70
     1
102
RTVSPropertyOp7
 70
     1
102
RTVSPropertyOp8
 70
     1
102
RTVSPropertyOp9
 70
     1
102
RTVSPropertyOp10
 70
     1
102
RTVSPropertyOp11
 70
     1
102
RTVSPropertyOp12
 70
     1
102
RTVSPropertyOp13
 70
     1
102
RTVSPropertyOp14
 70
     1
102
RTVSPropertyOp15
 70
     1
102
RTVSPropertyOp16
 70
     1
102
RTVSPropertyOp17
 70
     1
102
RTVSPropertyOp18
 70
     1
102
RTVSPropertyOp19
 70
     1
102
RTVSPropertyOp20
 70
     1
102
RTVSPropertyOp21
 70
     1
102
RTVSPropertyOp22
 70
     1
102
RTVSPropertyOp23
 70
     1
102
RTVSPropertyOp24
 70
     1
102
RTVSPropertyOp25
 70
     1
102
RTVSPropertyOp26
 70
     1
102
RTVSPropertyOp27
 70
     1
102
RTVSPropertyOp28
 70
     1
102
RTVSPropertyOp29
 70
     1
102
RTVSPropertyOp30
 70
     1
102
RTVSPropertyOp31
 70
     1
102
RTVSPropertyOp32
 70
     1
102
RTVSPropertyOp33
 70
     1
102
RTVSPropertyOp34
 70
     1
102
RTVSPropertyOp35
 70
     1
102
RTVSPropertyOp36
 70
     1
102
RTVSPropertyOp37
 70
     1
102
RTVSPropertyOp38
 70
     1
102
RTVSPropertyOp39
 70
     1
102
RTVSPropertyOp40
 70
     1
102
RTVSPropertyOp41
 70
     1
102
RTVSPropertyOp42
 70
     1
102
RTVSPropertyOp43
 70
     1
102
RTVSPropertyOp44
 70
     1
102
RTVSPropertyOp45
 70
     1
102
RTVSPropertyOp46
 70
     1
102
RTVSPropertyOp47
 70
     1
102
RTVSPropertyOp48
 70
     1
102
RTVSPropertyOp49
 70
     1
102
RTVSPropertyOp50
 70
     1
102
RTVSPropertyOp51
 70
     0
102
RTVSPropertyOp52
 70
     0
102
RTVSPropertyOp53
 70
     1
102
RTVSPropertyOp54
 70
     1
102
RTVSPropertyOp55
 70
     1
102
RTVSPropertyOp56
 70
     1
102
RTVSPropertyOp57
 70
     1
102
RTVSPost2010Prop28
280
     0
102
RTVSPost2010PropOp28
 70
     1
102
RTVSPost2010Prop29
280
     1
102
RTVSPost2010PropOp29
 70
     1
102
RTVSPost2010Prop30
280
     1
102
RTVSPost2010PropOp30
 70
     1
102
RTVSPost2010Prop31
280
     0
102
RTVSPost2010PropOp31
 70
     1
102
RTVSPost2010Prop32
280
     0
102
RTVSPost2010PropOp32
 70
     1
102
RTVSPost2010Prop33
280
     0
102
RTVSPost2010PropOp33
 70
     1
102
RTVSPost2010Prop34
280
     0
102
RTVSPost2010PropOp34
 70
     1
102
RTVSPost2010Prop35
280
     0
102
RTVSPost2010PropOp35
 70
     1
102
RTVSPost2010Prop36
280
     0
102
RTVSPost2010PropOp36
 70
     1
102
RTVSPost2010Prop37
 90
       50
102
RTVSPost2010PropOp37
 70
     1
102
RTVSPost2010Prop38
140
0.0
102
RTVSPost2010PropOp38
 70
     1
102
RTVSPost2010Prop39
140
1.0
102
RTVSPost2010PropOp39
 70
     1
102
RTVSPost2010Prop40
 90
        0
102
RTVSPost2010PropOp40
 70
     1
102
RTVSPost2010Prop41ColorIndex
 90
       18
102
RTVSPost2010Prop41ColorRGB
 90
        0
102
RTVSPost2010PropOp41
 70
     1
102
RTVSPost2010Prop42
 90
       50
102
RTVSPost2010PropOp42
 70
     1
102
RTVSPost2010Prop43
 90
        3
102
RTVSPost2010PropOp43
 70
     1
102
RTVSPost2010Prop44ColorIndex
 90
        5
102
RTVSPost2010Prop44ColorRGB
 90
      255
102
RTVSPost2010PropOp44
 70
     1
102
RTVSPost2010Prop45
280
     0
102
RTVSPost2010PropOp45
 70
     1
102
RTVSPost2010Prop46
 90
       50
102
RTVSPost2010PropOp46
 70
     1
102
RTVSPost2010Prop47
 90
       50
102
RTVSPost2010PropOp47
 70
     1
102
RTVSPost2010Prop48
 90
       50
102
RTVSPost2010PropOp48
 70
     1
102
RTVSPost2010Prop49
280
     0
102
RTVSPost2010PropOp49
 70
     1
102
RTVSPost2010Prop50
 90
       50
102
RTVSPost2010PropOp50
 70
     1
102
RTVSPost2010Prop51ColorIndex
 90
      256
102
RTVSPost2010Prop51ColorRGB
 90
-16777216
102
RTVSPost2010PropOp51
 70
     0
102
RTVSPost2010Prop52
140
1.0
102
RTVSPost2010PropOp52
 70
     0
102
RTVSPost2010Prop53
 90
        2
102
RTVSPost2010PropOp53
 70
     1
102
RTVSPost2010Prop54
  1
strokes_ogs.tif
102
RTVSPost2010PropOp54
 70
     1
102
RTVSPost2010Prop55
280
     0
102
RTVSPost2010PropOp55
 70
     1
102
RTVSPost2010Prop56
140
1.0
102
RTVSPost2010PropOp56
 70
     1
102
RTVSPost2010Prop57
140
1.0
102
RTVSPost2010PropOp57
 70
     1
  0
XRECORD
  5
5E1
102
{ACAD_REACTORS
330
5E0
102
}
330
5E0
100
AcDbXrecord
280
     1
102
RTVSPropertyOp0
 70
     1
102
RTVSPropertyOp1
 70
     1
102
RTVSPropertyOp2
 70
     1
102
RTVSPropertyOp3
 70
     1
102
RTVSPropertyOp4
 70
     1
102
RTVSPropertyOp5
 70
     1
102
RTVSPropertyOp6
 70
     1
102
RTVSPropertyOp7
 70
     1
102
RTVSPropertyOp8
 70
     1
102
RTVSPropertyOp9
 70
     1
102
RTVSPropertyOp10
 70
     1
102
RTVSPropertyOp11
 70
     1
102
RTVSPropertyOp12
 70
     1
102
RTVSPropertyOp13
 70
     1
102
RTVSPropertyOp14
 70
     1
102
RTVSPropertyOp15
 70
     1
102
RTVSPropertyOp16
 70
     1
102
RTVSPropertyOp17
 70
     1
102
RTVSPropertyOp18
 70
     1
102
RTVSPropertyOp19
 70
     1
102
RTVSPropertyOp20
 70
     1
102
RTVSPropertyOp21
 70
     1
102
RTVSPropertyOp22
 70
     1
102
RTVSPropertyOp23
 70
     1
102
RTVSPropertyOp24
 70
     1
102
RTVSPropertyOp25
 70
     1
102
RTVSPropertyOp26
 70
     1
102
RTVSPropertyOp27
 70
     1
102
RTVSPropertyOp28
 70
     1
102
RTVSPropertyOp29
 70
     1
102
RTVSPropertyOp30
 70
     1
102
RTVSPropertyOp31
 70
     1
102
RTVSPropertyOp32
 70
     1
102
RTVSPropertyOp33
 70
     1
102
RTVSPropertyOp34
 70
     1
102
RTVSPropertyOp35
 70
     1
102
RTVSPropertyOp36
 70
     1
102
RTVSPropertyOp37
 70
     1
102
RTVSPropertyOp38
 70
     1
102
RTVSPropertyOp39
 70
     1
102
RTVSPropertyOp40
 70
     1
102
RTVSPropertyOp41
 70
     1
102
RTVSPropertyOp42
 70
     1
102
RTVSPropertyOp43
 70
     1
102
RTVSPropertyOp44
 70
     1
102
RTVSPropertyOp45
 70
     1
102
RTVSPropertyOp46
 70
     1
102
RTVSPropertyOp47
 70
     1
102
RTVSPropertyOp48
 70
     1
102
RTVSPropertyOp49
 70
     1
102
RTVSPropertyOp50
 70
     1
102
RTVSPropertyOp51
 70
     0
102
RTVSPropertyOp52
 70
     0
102
RTVSPropertyOp53
 70
     1
102
RTVSPropertyOp54
 70
     1
102
RTVSPropertyOp55
 70
     1
102
RTVSPropertyOp56
 70
     1
102
RTVSPropertyOp57
 70
     1
102
RTVSPost2010Prop28
280
     0
102
RTVSPost2010PropOp28
 70
     1
102
RTVSPost2010Prop29
280
     1
102
RTVSPost2010PropOp29
 70
     1
102
RTVSPost2010Prop30
280
     1
102
RTVSPost2010PropOp30
 70
     1
102
RTVSPost2010Prop31
280
     0
102
RTVSPost2010PropOp31
 70
     1
102
RTVSPost2010Prop32
280
     0
102
RTVSPost2010PropOp32
 70
     1
102
RTVSPost2010Prop33
280
     0
102
RTVSPost2010PropOp33
 70
     1
102
RTVSPost2010Prop34
280
     0
102
RTVSPost2010PropOp34
 70
     1
102
RTVSPost2010Prop35
280
     0
102
RTVSPost2010PropOp35
 70
     1
102
RTVSPost2010Prop36
280
     0
102
RTVSPost2010PropOp36
 70
     1
102
RTVSPost2010Prop37
 90
       50
102
RTVSPost2010PropOp37
 70
     1
102
RTVSPost2010Prop38
140
0.0
102
RTVSPost2010PropOp38
 70
     1
102
RTVSPost2010Prop39
140
1.0
102
RTVSPost2010PropOp39
 70
     1
102
RTVSPost2010Prop40
 90
        0
102
RTVSPost2010PropOp40
 70
     1
102
RTVSPost2010Prop41ColorIndex
 90
       18
102
RTVSPost2010Prop41ColorRGB
 90
        0
102
RTVSPost2010PropOp41
 70
     1
102
RTVSPost2010Prop42
 90
       50
102
RTVSPost2010PropOp42
 70
     1
102
RTVSPost2010Prop43
 90
        3
102
RTVSPost2010PropOp43
 70
     1
102
RTVSPost2010Prop44ColorIndex
 90
        5
102
RTVSPost2010Prop44ColorRGB
 90
      255
102
RTVSPost2010PropOp44
 70
     1
102
RTVSPost2010Prop45
280
     0
102
RTVSPost2010PropOp45
 70
     1
102
RTVSPost2010Prop46
 90
       50
102
RTVSPost2010PropOp46
 70
     1
102
RTVSPost2010Prop47
 90
       50
102
RTVSPost2010PropOp47
 70
     1
102
RTVSPost2010Prop48
 90
       50
102
RTVSPost2010PropOp48
 70
     1
102
RTVSPost2010Prop49
280
     0
102
RTVSPost2010PropOp49
 70
     1
102
RTVSPost2010Prop50
 90
       50
102
RTVSPost2010PropOp50
 70
     1
102
RTVSPost2010Prop51ColorIndex
 90
      256
102
RTVSPost2010Prop51ColorRGB
 90
-16777216
102
RTVSPost2010PropOp51
 70
     0
102
RTVSPost2010Prop52
140
1.0
102
RTVSPost2010PropOp52
 70
     0
102
RTVSPost2010Prop53
 90
        2
102
RTVSPost2010PropOp53
 70
     1
102
RTVSPost2010Prop54
  1
strokes_ogs.tif
102
RTVSPost2010PropOp54
 70
     1
102
RTVSPost2010Prop55
280
     0
102
RTVSPost2010PropOp55
 70
     1
102
RTVSPost2010Prop56
140
1.0
102
RTVSPost2010PropOp56
 70
     1
102
RTVSPost2010Prop57
140
1.0
102
RTVSPost2010PropOp57
 70
     1
  0
XRECORD
  5
5D1
102
{ACAD_REACTORS
330
5D0
102
}
330
5D0
100
AcDbXrecord
280
     1
102
RTVSPropertyOp0
 70
     1
102
RTVSPropertyOp1
 70
     1
102
RTVSPropertyOp2
 70
     1
102
RTVSPropertyOp3
 70
     1
102
RTVSPropertyOp4
 70
     1
102
RTVSPropertyOp5
 70
     1
102
RTVSPropertyOp6
 70
     1
102
RTVSPropertyOp7
 70
     1
102
RTVSPropertyOp8
 70
     1
102
RTVSPropertyOp9
 70
     1
102
RTVSPropertyOp10
 70
     1
102
RTVSPropertyOp11
 70
     1
102
RTVSPropertyOp12
 70
     1
102
RTVSPropertyOp13
 70
     1
102
RTVSPropertyOp14
 70
     1
102
RTVSPropertyOp15
 70
     1
102
RTVSPropertyOp16
 70
     1
102
RTVSPropertyOp17
 70
     1
102
RTVSPropertyOp18
 70
     1
102
RTVSPropertyOp19
 70
     1
102
RTVSPropertyOp20
 70
     1
102
RTVSPropertyOp21
 70
     1
102
RTVSPropertyOp22
 70
     1
102
RTVSPropertyOp23
 70
     1
102
RTVSPropertyOp24
 70
     1
102
RTVSPropertyOp25
 70
     1
102
RTVSPropertyOp26
 70
     1
102
RTVSPropertyOp27
 70
     1
102
RTVSPropertyOp28
 70
     1
102
RTVSPropertyOp29
 70
     1
102
RTVSPropertyOp30
 70
     1
102
RTVSPropertyOp31
 70
     1
102
RTVSPropertyOp32
 70
     1
102
RTVSPropertyOp33
 70
     1
102
RTVSPropertyOp34
 70
     1
102
RTVSPropertyOp35
 70
     1
102
RTVSPropertyOp36
 70
     1
102
RTVSPropertyOp37
 70
     1
102
RTVSPropertyOp38
 70
     1
102
RTVSPropertyOp39
 70
     1
102
RTVSPropertyOp40
 70
     1
102
RTVSPropertyOp41
 70
     1
102
RTVSPropertyOp42
 70
     1
102
RTVSPropertyOp43
 70
     1
102
RTVSPropertyOp44
 70
     1
102
RTVSPropertyOp45
 70
     1
102
RTVSPropertyOp46
 70
     1
102
RTVSPropertyOp47
 70
     1
102
RTVSPropertyOp48
 70
     1
102
RTVSPropertyOp49
 70
     1
102
RTVSPropertyOp50
 70
     1
102
RTVSPropertyOp51
 70
     0
102
RTVSPropertyOp52
 70
     0
102
RTVSPropertyOp53
 70
     1
102
RTVSPropertyOp54
 70
     1
102
RTVSPropertyOp55
 70
     1
102
RTVSPropertyOp56
 70
     1
102
RTVSPropertyOp57
 70
     1
102
RTVSPost2010Prop28
280
     0
102
RTVSPost2010PropOp28
 70
     1
102
RTVSPost2010Prop29
280
     1
102
RTVSPost2010PropOp29
 70
     1
102
RTVSPost2010Prop30
280
     1
102
RTVSPost2010PropOp30
 70
     1
102
RTVSPost2010Prop31
280
     0
102
RTVSPost2010PropOp31
 70
     1
102
RTVSPost2010Prop32
280
     0
102
RTVSPost2010PropOp32
 70
     1
102
RTVSPost2010Prop33
280
     0
102
RTVSPost2010PropOp33
 70
     1
102
RTVSPost2010Prop34
280
     0
102
RTVSPost2010PropOp34
 70
     1
102
RTVSPost2010Prop35
280
     0
102
RTVSPost2010PropOp35
 70
     1
102
RTVSPost2010Prop36
280
     0
102
RTVSPost2010PropOp36
 70
     1
102
RTVSPost2010Prop37
 90
       50
102
RTVSPost2010PropOp37
 70
     1
102
RTVSPost2010Prop38
140
0.0
102
RTVSPost2010PropOp38
 70
     1
102
RTVSPost2010Prop39
140
1.0
102
RTVSPost2010PropOp39
 70
     1
102
RTVSPost2010Prop40
 90
        0
102
RTVSPost2010PropOp40
 70
     1
102
RTVSPost2010Prop41ColorIndex
 90
       18
102
RTVSPost2010Prop41ColorRGB
 90
        0
102
RTVSPost2010PropOp41
 70
     1
102
RTVSPost2010Prop42
 90
       50
102
RTVSPost2010PropOp42
 70
     1
102
RTVSPost2010Prop43
 90
        3
102
RTVSPost2010PropOp43
 70
     1
102
RTVSPost2010Prop44ColorIndex
 90
        5
102
RTVSPost2010Prop44ColorRGB
 90
      255
102
RTVSPost2010PropOp44
 70
     1
102
RTVSPost2010Prop45
280
     0
102
RTVSPost2010PropOp45
 70
     1
102
RTVSPost2010Prop46
 90
       50
102
RTVSPost2010PropOp46
 70
     1
102
RTVSPost2010Prop47
 90
       50
102
RTVSPost2010PropOp47
 70
     1
102
RTVSPost2010Prop48
 90
       50
102
RTVSPost2010PropOp48
 70
     1
102
RTVSPost2010Prop49
280
     0
102
RTVSPost2010PropOp49
 70
     1
102
RTVSPost2010Prop50
 90
       50
102
RTVSPost2010PropOp50
 70
     1
102
RTVSPost2010Prop51ColorIndex
 90
      256
102
RTVSPost2010Prop51ColorRGB
 90
-16777216
102
RTVSPost2010PropOp51
 70
     0
102
RTVSPost2010Prop52
140
1.0
102
RTVSPost2010PropOp52
 70
     0
102
RTVSPost2010Prop53
 90
        2
102
RTVSPost2010PropOp53
 70
     1
102
RTVSPost2010Prop54
  1
strokes_ogs.tif
102
RTVSPost2010PropOp54
 70
     1
102
RTVSPost2010Prop55
280
     0
102
RTVSPost2010PropOp55
 70
     1
102
RTVSPost2010Prop56
140
1.0
102
RTVSPost2010PropOp56
 70
     1
102
RTVSPost2010Prop57
140
1.0
102
RTVSPost2010PropOp57
 70
     1
  0
XRECORD
  5
5C3
102
{ACAD_REACTORS
330
5C2
102
}
330
5C2
100
AcDbXrecord
280
     1
102
RTVSPropertyOp0
 70
     1
102
RTVSPropertyOp1
 70
     1
102
RTVSPropertyOp2
 70
     1
102
RTVSPropertyOp3
 70
     1
102
RTVSPropertyOp4
 70
     1
102
RTVSPropertyOp5
 70
     1
102
RTVSPropertyOp6
 70
     1
102
RTVSPropertyOp7
 70
     1
102
RTVSPropertyOp8
 70
     1
102
RTVSPropertyOp9
 70
     1
102
RTVSPropertyOp10
 70
     1
102
RTVSPropertyOp11
 70
     1
102
RTVSPropertyOp12
 70
     1
102
RTVSPropertyOp13
 70
     1
102
RTVSPropertyOp14
 70
     1
102
RTVSPropertyOp15
 70
     1
102
RTVSPropertyOp16
 70
     1
102
RTVSPropertyOp17
 70
     1
102
RTVSPropertyOp18
 70
     1
102
RTVSPropertyOp19
 70
     1
102
RTVSPropertyOp20
 70
     1
102
RTVSPropertyOp21
 70
     1
102
RTVSPropertyOp22
 70
     1
102
RTVSPropertyOp23
 70
     1
102
RTVSPropertyOp24
 70
     1
102
RTVSPropertyOp25
 70
     1
102
RTVSPropertyOp26
 70
     1
102
RTVSPropertyOp27
 70
     1
102
RTVSPropertyOp28
 70
     1
102
RTVSPropertyOp29
 70
     1
102
RTVSPropertyOp30
 70
     1
102
RTVSPropertyOp31
 70
     1
102
RTVSPropertyOp32
 70
     1
102
RTVSPropertyOp33
 70
     1
102
RTVSPropertyOp34
 70
     1
102
RTVSPropertyOp35
 70
     1
102
RTVSPropertyOp36
 70
     1
102
RTVSPropertyOp37
 70
     1
102
RTVSPropertyOp38
 70
     1
102
RTVSPropertyOp39
 70
     1
102
RTVSPropertyOp40
 70
     1
102
RTVSPropertyOp41
 70
     1
102
RTVSPropertyOp42
 70
     1
102
RTVSPropertyOp43
 70
     1
102
RTVSPropertyOp44
 70
     1
102
RTVSPropertyOp45
 70
     1
102
RTVSPropertyOp46
 70
     1
102
RTVSPropertyOp47
 70
     1
102
RTVSPropertyOp48
 70
     1
102
RTVSPropertyOp49
 70
     1
102
RTVSPropertyOp50
 70
     1
102
RTVSPropertyOp51
 70
     0
102
RTVSPropertyOp52
 70
     0
102
RTVSPropertyOp53
 70
     1
102
RTVSPropertyOp54
 70
     1
102
RTVSPropertyOp55
 70
     1
102
RTVSPropertyOp56
 70
     1
102
RTVSPropertyOp57
 70
     1
102
RTVSPost2010Prop28
280
     0
102
RTVSPost2010PropOp28
 70
     1
102
RTVSPost2010Prop29
280
     1
102
RTVSPost2010PropOp29
 70
     1
102
RTVSPost2010Prop30
280
     1
102
RTVSPost2010PropOp30
 70
     1
102
RTVSPost2010Prop31
280
     0
102
RTVSPost2010PropOp31
 70
     1
102
RTVSPost2010Prop32
280
     0
102
RTVSPost2010PropOp32
 70
     1
102
RTVSPost2010Prop33
280
     0
102
RTVSPost2010PropOp33
 70
     1
102
RTVSPost2010Prop34
280
     0
102
RTVSPost2010PropOp34
 70
     1
102
RTVSPost2010Prop35
280
     0
102
RTVSPost2010PropOp35
 70
     1
102
RTVSPost2010Prop36
280
     0
102
RTVSPost2010PropOp36
 70
     1
102
RTVSPost2010Prop37
 90
       50
102
RTVSPost2010PropOp37
 70
     1
102
RTVSPost2010Prop38
140
0.0
102
RTVSPost2010PropOp38
 70
     1
102
RTVSPost2010Prop39
140
1.0
102
RTVSPost2010PropOp39
 70
     1
102
RTVSPost2010Prop40
 90
        0
102
RTVSPost2010PropOp40
 70
     1
102
RTVSPost2010Prop41ColorIndex
 90
       18
102
RTVSPost2010Prop41ColorRGB
 90
        0
102
RTVSPost2010PropOp41
 70
     1
102
RTVSPost2010Prop42
 90
       50
102
RTVSPost2010PropOp42
 70
     1
102
RTVSPost2010Prop43
 90
        3
102
RTVSPost2010PropOp43
 70
     1
102
RTVSPost2010Prop44ColorIndex
 90
        5
102
RTVSPost2010Prop44ColorRGB
 90
      255
102
RTVSPost2010PropOp44
 70
     1
102
RTVSPost2010Prop45
280
     0
102
RTVSPost2010PropOp45
 70
     1
102
RTVSPost2010Prop46
 90
       50
102
RTVSPost2010PropOp46
 70
     1
102
RTVSPost2010Prop47
 90
       50
102
RTVSPost2010PropOp47
 70
     1
102
RTVSPost2010Prop48
 90
       50
102
RTVSPost2010PropOp48
 70
     1
102
RTVSPost2010Prop49
280
     0
102
RTVSPost2010PropOp49
 70
     1
102
RTVSPost2010Prop50
 90
       50
102
RTVSPost2010PropOp50
 70
     1
102
RTVSPost2010Prop51ColorIndex
 90
      256
102
RTVSPost2010Prop51ColorRGB
 90
-16777216
102
RTVSPost2010PropOp51
 70
     0
102
RTVSPost2010Prop52
140
1.0
102
RTVSPost2010PropOp52
 70
     0
102
RTVSPost2010Prop53
 90
        2
102
RTVSPost2010PropOp53
 70
     1
102
RTVSPost2010Prop54
  1
strokes_ogs.tif
102
RTVSPost2010PropOp54
 70
     1
102
RTVSPost2010Prop55
280
     0
102
RTVSPost2010PropOp55
 70
     1
102
RTVSPost2010Prop56
140
1.0
102
RTVSPost2010PropOp56
 70
     1
102
RTVSPost2010Prop57
140
1.0
102
RTVSPost2010PropOp57
 70
     1
  0
XRECORD
  5
5E3
102
{ACAD_REACTORS
330
5E2
102
}
330
5E2
100
AcDbXrecord
280
     1
102
RTVSPropertyOp0
 70
     1
102
RTVSPropertyOp1
 70
     1
102
RTVSPropertyOp2
 70
     1
102
RTVSPropertyOp3
 70
     1
102
RTVSPropertyOp4
 70
     1
102
RTVSPropertyOp5
 70
     1
102
RTVSPropertyOp6
 70
     1
102
RTVSPropertyOp7
 70
     1
102
RTVSPropertyOp8
 70
     1
102
RTVSPropertyOp9
 70
     1
102
RTVSPropertyOp10
 70
     1
102
RTVSPropertyOp11
 70
     1
102
RTVSPropertyOp12
 70
     1
102
RTVSPropertyOp13
 70
     1
102
RTVSPropertyOp14
 70
     1
102
RTVSPropertyOp15
 70
     1
102
RTVSPropertyOp16
 70
     1
102
RTVSPropertyOp17
 70
     1
102
RTVSPropertyOp18
 70
     1
102
RTVSPropertyOp19
 70
     1
102
RTVSPropertyOp20
 70
     1
102
RTVSPropertyOp21
 70
     1
102
RTVSPropertyOp22
 70
     1
102
RTVSPropertyOp23
 70
     1
102
RTVSPropertyOp24
 70
     1
102
RTVSPropertyOp25
 70
     1
102
RTVSPropertyOp26
 70
     1
102
RTVSPropertyOp27
 70
     1
102
RTVSPropertyOp28
 70
     1
102
RTVSPropertyOp29
 70
     1
102
RTVSPropertyOp30
 70
     1
102
RTVSPropertyOp31
 70
     1
102
RTVSPropertyOp32
 70
     1
102
RTVSPropertyOp33
 70
     1
102
RTVSPropertyOp34
 70
     1
102
RTVSPropertyOp35
 70
     1
102
RTVSPropertyOp36
 70
     1
102
RTVSPropertyOp37
 70
     1
102
RTVSPropertyOp38
 70
     1
102
RTVSPropertyOp39
 70
     1
102
RTVSPropertyOp40
 70
     1
102
RTVSPropertyOp41
 70
     1
102
RTVSPropertyOp42
 70
     1
102
RTVSPropertyOp43
 70
     1
102
RTVSPropertyOp44
 70
     1
102
RTVSPropertyOp45
 70
     1
102
RTVSPropertyOp46
 70
     1
102
RTVSPropertyOp47
 70
     1
102
RTVSPropertyOp48
 70
     1
102
RTVSPropertyOp49
 70
     1
102
RTVSPropertyOp50
 70
     1
102
RTVSPropertyOp51
 70
     0
102
RTVSPropertyOp52
 70
     0
102
RTVSPropertyOp53
 70
     1
102
RTVSPropertyOp54
 70
     1
102
RTVSPropertyOp55
 70
     1
102
RTVSPropertyOp56
 70
     1
102
RTVSPropertyOp57
 70
     1
102
RTVSPost2010Prop28
280
     0
102
RTVSPost2010PropOp28
 70
     1
102
RTVSPost2010Prop29
280
     1
102
RTVSPost2010PropOp29
 70
     1
102
RTVSPost2010Prop30
280
     1
102
RTVSPost2010PropOp30
 70
     1
102
RTVSPost2010Prop31
280
     0
102
RTVSPost2010PropOp31
 70
     1
102
RTVSPost2010Prop32
280
     0
102
RTVSPost2010PropOp32
 70
     1
102
RTVSPost2010Prop33
280
     0
102
RTVSPost2010PropOp33
 70
     1
102
RTVSPost2010Prop34
280
     0
102
RTVSPost2010PropOp34
 70
     1
102
RTVSPost2010Prop35
280
     0
102
RTVSPost2010PropOp35
 70
     1
102
RTVSPost2010Prop36
280
     0
102
RTVSPost2010PropOp36
 70
     1
102
RTVSPost2010Prop37
 90
       50
102
RTVSPost2010PropOp37
 70
     1
102
RTVSPost2010Prop38
140
0.0
102
RTVSPost2010PropOp38
 70
     1
102
RTVSPost2010Prop39
140
1.0
102
RTVSPost2010PropOp39
 70
     1
102
RTVSPost2010Prop40
 90
        0
102
RTVSPost2010PropOp40
 70
     1
102
RTVSPost2010Prop41ColorIndex
 90
       18
102
RTVSPost2010Prop41ColorRGB
 90
        0
102
RTVSPost2010PropOp41
 70
     1
102
RTVSPost2010Prop42
 90
       50
102
RTVSPost2010PropOp42
 70
     1
102
RTVSPost2010Prop43
 90
        3
102
RTVSPost2010PropOp43
 70
     1
102
RTVSPost2010Prop44ColorIndex
 90
        5
102
RTVSPost2010Prop44ColorRGB
 90
      255
102
RTVSPost2010PropOp44
 70
     1
102
RTVSPost2010Prop45
280
     0
102
RTVSPost2010PropOp45
 70
     1
102
RTVSPost2010Prop46
 90
       50
102
RTVSPost2010PropOp46
 70
     1
102
RTVSPost2010Prop47
 90
       50
102
RTVSPost2010PropOp47
 70
     1
102
RTVSPost2010Prop48
 90
       50
102
RTVSPost2010PropOp48
 70
     1
102
RTVSPost2010Prop49
280
     0
102
RTVSPost2010PropOp49
 70
     1
102
RTVSPost2010Prop50
 90
       50
102
RTVSPost2010PropOp50
 70
     1
102
RTVSPost2010Prop51ColorIndex
 90
      256
102
RTVSPost2010Prop51ColorRGB
 90
-16777216
102
RTVSPost2010PropOp51
 70
     0
102
RTVSPost2010Prop52
140
1.0
102
RTVSPost2010PropOp52
 70
     0
102
RTVSPost2010Prop53
 90
        2
102
RTVSPost2010PropOp53
 70
     1
102
RTVSPost2010Prop54
  1
strokes_ogs.tif
102
RTVSPost2010PropOp54
 70
     1
102
RTVSPost2010Prop55
280
     0
102
RTVSPost2010PropOp55
 70
     1
102
RTVSPost2010Prop56
140
1.0
102
RTVSPost2010PropOp56
 70
     1
102
RTVSPost2010Prop57
140
1.0
102
RTVSPost2010PropOp57
 70
     1
  0
ENDSEC
  0
EOF
