  0
SECTION
  2
HEADER
  9
$ACADVER
  1
AC1015
  9
$ACADMAINTVER
 70
     6
  9
$DWGCODEPAGE
  3
ANSI_932
  9
$INSBASE
 10
2097.256832162797
 20
1537.442413933432
 30
0.0
  9
$EXTMIN
 10
162.5583266993422
 20
32.61028232280944
 30
0.0
  9
$EXTMAX
 10
2313.150698996392
 20
1811.038606962362
 30
0.0
  9
$LIMMIN
 10
0.0
 20
0.0
  9
$LIMMAX
 10
816.5000000000001
 20
565.0
  9
$ORTHOMODE
 70
     1
  9
$REGENMODE
 70
     1
  9
$FILLMODE
 70
     1
  9
$QTEXTMODE
 70
     0
  9
$MIRRTEXT
 70
     1
  9
$LTSCALE
 40
20.0
  9
$ATTMODE
 70
     1
  9
$TEXTSIZE
 40
21.0
  9
$TRACEWID
 40
0.05
  9
$TEXTSTYLE
  7
KANJI
  9
$CLAYER
  8
2
  9
$CELTYPE
  6
BYLAYER
  9
$CECOLOR
 62
   256
  9
$CELTSCALE
 40
1.0
  9
$DISPSILH
 70
     0
  9
$DIMSCALE
 40
7.0
  9
$DIMASZ
 40
2.0
  9
$DIMEXO
 40
0.5
  9
$DIMDLI
 40
0.0
  9
$DIMRND
 40
0.0
  9
$DIMDLE
 40
0.0
  9
$DIMEXE
 40
1.0
  9
$DIMTP
 40
0.0
  9
$DIMTM
 40
0.0
  9
$DIMTXT
 40
3.0
  9
$DIMCEN
 40
0.09
  9
$DIMTSZ
 40
0.0
  9
$DIMTOL
 70
     0
  9
$DIMLIM
 70
     0
  9
$DIMTIH
 70
     0
  9
$DIMTOH
 70
     0
  9
$DIMSE1
 70
     0
  9
$DIMSE2
 70
     0
  9
$DIMTAD
 70
     0
  9
$DIMZIN
 70
     8
  9
$DIMBLK
  1

  9
$DIMASO
 70
     0
  9
$DIMSHO
 70
     0
  9
$DIMPOST
  1

  9
$DIMAPOST
  1

  9
$DIMALT
 70
     0
  9
$DIMALTD
 70
     2
  9
$DIMALTF
 40
25.4
  9
$DIMLFAC
 40
1.0
  9
$DIMTOFL
 70
     1
  9
$DIMTVP
 40
1.0
  9
$DIMTIX
 70
     1
  9
$DIMSOXD
 70
     1
  9
$DIMSAH
 70
     0
  9
$DIMBLK1
  1

  9
$DIMBLK2
  1

  9
$DIMSTYLE
  2
STANDARD
  9
$DIMCLRD
 70
   256
  9
$DIMCLRE
 70
   256
  9
$DIMCLRT
 70
   256
  9
$DIMTFAC
 40
1.0
  9
$DIMGAP
 40
0.09
  9
$DIMJUST
 70
     0
  9
$DIMSD1
 70
     0
  9
$DIMSD2
 70
     0
  9
$DIMTOLJ
 70
     1
  9
$DIMTZIN
 70
     0
  9
$DIMALTZ
 70
     0
  9
$DIMALTTZ
 70
     0
  9
$DIMUPT
 70
     0
  9
$DIMDEC
 70
     1
  9
$DIMTDEC
 70
     4
  9
$DIMALTU
 70
     2
  9
$DIMALTTD
 70
     2
  9
$DIMTXSTY
  7
STANDARD
  9
$DIMAUNIT
 70
     0
  9
$DIMADEC
 70
     0
  9
$DIMALTRND
 40
0.0
  9
$DIMAZIN
 70
     0
  9
$DIMDSEP
 70
    46
  9
$DIMATFIT
 70
     3
  9
$DIMFRAC
 70
     0
  9
$DIMLDRBLK
  1

  9
$DIMLUNIT
 70
     2
  9
$DIMLWD
 70
    -2
  9
$DIMLWE
 70
    -2
  9
$DIMTMOVE
 70
     0
  9
$LUNITS
 70
     2
  9
$LUPREC
 70
     3
  9
$SKETCHINC
 40
0.1
  9
$FILLETRAD
 40
1.0
  9
$AUNITS
 70
     0
  9
$AUPREC
 70
     3
  9
$MENU
  1
C:\R13\WIN\SUPPORT\ACADFULL
  9
$ELEVATION
 40
0.0
  9
$PELEVATION
 40
0.0
  9
$THICKNESS
 40
0.0
  9
$LIMCHECK
 70
     0
  9
$CHAMFERA
 40
0.0
  9
$CHAMFERB
 40
0.0
  9
$CHAMFERC
 40
0.0
  9
$CHAMFERD
 40
0.0
  9
$SKPOLY
 70
     0
  9
$TDCREATE
 40
2457465.801151042
  9
$TDUCREATE
 40
2457465.426151042
  9
$TDUPDATE
 40
2457871.822441921
  9
$TDUUPDATE
 40
2457871.447441921
  9
$TDINDWG
 40
0.0124531019
  9
$TDUSRTIMER
 40
0.0124527662
  9
$USRTIMER
 70
     1
  9
$ANGBASE
 50
0.0
  9
$ANGDIR
 70
     0
  9
$PDMODE
 70
     0
  9
$PDSIZE
 40
0.0
  9
$PLINEWID
 40
0.0
  9
$SPLFRAME
 70
     0
  9
$SPLINETYPE
 70
     6
  9
$SPLINESEGS
 70
     8
  9
$HANDSEED
  5
601
  9
$SURFTAB1
 70
     6
  9
$SURFTAB2
 70
     6
  9
$SURFTYPE
 70
     6
  9
$SURFU
 70
     6
  9
$SURFV
 70
     6
  9
$UCSBASE
  2

  9
$UCSNAME
  2

  9
$UCSORG
 10
0.0
 20
0.0
 30
0.0
  9
$UCSXDIR
 10
1.0
 20
0.0
 30
0.0
  9
$UCSYDIR
 10
0.0
 20
1.0
 30
0.0
  9
$UCSORTHOREF
  2

  9
$UCSORTHOVIEW
 70
     0
  9
$UCSORGTOP
 10
0.0
 20
0.0
 30
0.0
  9
$UCSORGBOTTOM
 10
0.0
 20
0.0
 30
0.0
  9
$UCSORGLEFT
 10
0.0
 20
0.0
 30
0.0
  9
$UCSORGRIGHT
 10
0.0
 20
0.0
 30
0.0
  9
$UCSORGFRONT
 10
0.0
 20
0.0
 30
0.0
  9
$UCSORGBACK
 10
0.0
 20
0.0
 30
0.0
  9
$PUCSBASE
  2

  9
$PUCSNAME
  2

  9
$PUCSORG
 10
0.0
 20
0.0
 30
0.0
  9
$PUCSXDIR
 10
1.0
 20
0.0
 30
0.0
  9
$PUCSYDIR
 10
0.0
 20
1.0
 30
0.0
  9
$PUCSORTHOREF
  2

  9
$PUCSORTHOVIEW
 70
     0
  9
$PUCSORGTOP
 10
0.0
 20
0.0
 30
0.0
  9
$PUCSORGBOTTOM
 10
0.0
 20
0.0
 30
0.0
  9
$PUCSORGLEFT
 10
0.0
 20
0.0
 30
0.0
  9
$PUCSORGRIGHT
 10
0.0
 20
0.0
 30
0.0
  9
$PUCSORGFRONT
 10
0.0
 20
0.0
 30
0.0
  9
$PUCSORGBACK
 10
0.0
 20
0.0
 30
0.0
  9
$USERI1
 70
     0
  9
$USERI2
 70
     0
  9
$USERI3
 70
     0
  9
$USERI4
 70
     0
  9
$USERI5
 70
     0
  9
$USERR1
 40
0.0
  9
$USERR2
 40
0.0
  9
$USERR3
 40
0.0
  9
$USERR4
 40
2448925.372986111
  9
$USERR5
 40
0.04166667
  9
$WORLDVIEW
 70
     1
  9
$SHADEDGE
 70
     3
  9
$SHADEDIF
 70
    70
  9
$TILEMODE
 70
     1
  9
$MAXACTVP
 70
    16
  9
$PINSBASE
 10
0.0
 20
0.0
 30
0.0
  9
$PLIMCHECK
 70
     0
  9
$PEXTMIN
 10
1.000000000000000E+20
 20
1.000000000000000E+20
 30
1.000000000000000E+20
  9
$PEXTMAX
 10
-1.000000000000000E+20
 20
-1.000000000000000E+20
 30
-1.000000000000000E+20
  9
$PLIMMIN
 10
0.0
 20
0.0
  9
$PLIMMAX
 10
12.0
 20
9.0
  9
$UNITMODE
 70
     0
  9
$VISRETAIN
 70
     0
  9
$PLINEGEN
 70
     0
  9
$PSLTSCALE
 70
     0
  9
$TREEDEPTH
 70
  3020
  9
$CMLSTYLE
  2
STANDARD
  9
$CMLJUST
 70
     0
  9
$CMLSCALE
 40
1.0
  9
$PROXYGRAPHICS
 70
     1
  9
$MEASUREMENT
 70
     0
  9
$CELWEIGHT
370
    -1
  9
$ENDCAPS
280
     0
  9
$JOINSTYLE
280
     0
  9
$LWDISPLAY
290
     0
  9
$INSUNITS
 70
     0
  9
$HYPERLINKBASE
  1

  9
$STYLESHEET
  1

  9
$XEDIT
290
     1
  9
$CEPSNTYPE
380
     0
  9
$PSTYLEMODE
290
     1
  9
$FINGERPRINTGUID
  2
{9B8406AC-E6DF-45F0-AE4A-E9AE62F92418}
  9
$VERSIONGUID
  2
{0D65D973-C7EA-4D4C-A03B-262C14081B33}
  9
$EXTNAMES
290
     1
  9
$PSVPSCALE
 40
0.0
  9
$OLESTARTUP
290
     0
  0
ENDSEC
  0
SECTION
  2
CLASSES
  0
CLASS
  1
ACDBDICTIONARYWDFLT
  2
AcDbDictionaryWithDefault
  3
ObjectDBX Classes
 90
        0
280
     0
281
     0
  0
CLASS
  1
MATERIAL
  2
AcDbMaterial
  3
ObjectDBX Classes
 90
     1153
280
     0
281
     0
  0
CLASS
  1
SORTENTSTABLE
  2
AcDbSortentsTable
  3
ObjectDBX Classes
 90
        0
280
     0
281
     0
  0
CLASS
  1
SCALE
  2
AcDbScale
  3
ObjectDBX Classes
 90
     1153
280
     0
281
     0
  0
CLASS
  1
DICTIONARYVAR
  2
AcDbDictionaryVar
  3
ObjectDBX Classes
 90
        0
280
     0
281
     0
  0
CLASS
  1
VISUALSTYLE
  2
AcDbVisualStyle
  3
ObjectDBX Classes
 90
     4095
280
     0
281
     0
  0
CLASS
  1
MLEADERSTYLE
  2
AcDbMLeaderStyle
  3
ACDB_MLEADERSTYLE_CLASS
 90
     4095
280
     0
281
     0
  0
CLASS
  1
TABLESTYLE
  2
AcDbTableStyle
  3
ObjectDBX Classes
 90
     4095
280
     0
281
     0
  0
CLASS
  1
ACDBPLACEHOLDER
  2
AcDbPlaceHolder
  3
ObjectDBX Classes
 90
        0
280
     0
281
     0
  0
CLASS
  1
LAYOUT
  2
AcDbLayout
  3
ObjectDBX Classes
 90
        0
280
     0
281
     0
  0
ENDSEC
  0
SECTION
  2
TABLES
  0
TABLE
  2
VPORT
  5
25
102
{ACAD_XDICTIONARY
360
5C6
102
}
330
0
100
AcDbSymbolTable
 70
     1
  0
VPORT
  5
2A
330
25
100
AcDbSymbolTableRecord
100
AcDbViewportTableRecord
  2
*Active
 70
     0
 10
0.0
 20
0.0
 11
1.0
 21
1.0
 12
2085.512561487079
 22
948.6905173960089
 13
0.0
 23
0.0
 14
1.0
 24
1.0
 15
50.0
 25
50.0
 16
0.0
 26
0.0
 36
1.0
 17
0.0
 27
0.0
 37
0.0
 40
2121.171990095927
 41
2.174107142857143
 42
50.0
 43
0.0
 44
0.0
 50
0.0
 51
0.0
 71
     0
 72
  5000
 73
     1
 74
     0
 75
     0
 76
     0
 77
     0
 78
     0
281
     0
 65
     1
110
0.0
120
0.0
130
0.0
111
1.0
121
0.0
131
0.0
112
0.0
122
1.0
132
0.0
 79
     0
146
0.0
  0
ENDTAB
  0
TABLE
  2
LTYPE
  5
B
330
0
100
AcDbSymbolTable
 70
     2
  0
LTYPE
  5
C
330
B
100
AcDbSymbolTableRecord
100
AcDbLinetypeTableRecord
  2
BYBLOCK
 70
     0
  3

 72
    65
 73
     0
 40
0.0
  0
LTYPE
  5
D
330
B
100
AcDbSymbolTableRecord
100
AcDbLinetypeTableRecord
  2
BYLAYER
 70
     0
  3

 72
    65
 73
     0
 40
0.0
  0
LTYPE
  5
A
330
B
100
AcDbSymbolTableRecord
100
AcDbLinetypeTableRecord
  2
CONTINUOUS
 70
     0
  3
Solid line
 72
    65
 73
     0
 40
0.0
  0
LTYPE
  5
52
330
B
100
AcDbSymbolTableRecord
100
AcDbLinetypeTableRecord
  2
CENTER
 70
     0
  3
____ _ ____ _ ____ _ ____ _ ____ _ ____ _ ____
 72
    65
 73
     4
 40
2.0
 49
1.25
 74
     0
 49
-0.25
 74
     0
 49
0.25
 74
     0
 49
-0.25
 74
     0
  0
ENDTAB
  0
TABLE
  2
LAYER
  5
2
330
0
100
AcDbSymbolTable
 70
     8
  0
LAYER
  5
1B
330
2
100
AcDbSymbolTableRecord
100
AcDbLayerTableRecord
  2
0
 70
     0
 62
     7
  6
CONTINUOUS
370
    -3
390
3
  0
LAYER
  5
B5
330
2
100
AcDbSymbolTableRecord
100
AcDbLayerTableRecord
  2
1
 70
     0
 62
     9
  6
CONTINUOUS
370
    -3
390
3
  0
LAYER
  5
1
330
2
100
AcDbSymbolTableRecord
100
AcDbLayerTableRecord
  2
2
 70
     0
 62
     4
  6
CONTINUOUS
370
    -3
390
3
  0
LAYER
  5
B2
330
2
100
AcDbSymbolTableRecord
100
AcDbLayerTableRecord
  2
4
 70
     0
 62
     3
  6
CONTINUOUS
370
    -3
390
3
  0
LAYER
  5
51
330
2
100
AcDbSymbolTableRecord
100
AcDbLayerTableRecord
  2
L-CENTER
 70
     0
 62
     1
  6
CENTER
370
    -3
390
3
  0
LAYER
  5
57
330
2
100
AcDbSymbolTableRecord
100
AcDbLayerTableRecord
  2
3
 70
     0
 62
     2
  6
CONTINUOUS
370
    -3
390
3
  0
LAYER
  5
AD
330
2
100
AcDbSymbolTableRecord
100
AcDbLayerTableRecord
  2
5
 70
     0
 62
     6
  6
CONTINUOUS
370
    -3
390
3
  0
LAYER
  5
573
330
2
100
AcDbSymbolTableRecord
100
AcDbLayerTableRecord
  2
Defpoints
 70
     0
 62
     7
  6
CONTINUOUS
290
     0
370
    -3
390
3
  0
ENDTAB
  0
TABLE
  2
STYLE
  5
F
330
0
100
AcDbSymbolTable
 70
     2
  0
STYLE
  5
13
330
F
100
AcDbSymbolTableRecord
100
AcDbTextStyleTableRecord
  2
STANDARD
 70
     0
 40
0.0
 41
1.0
 50
0.0
 71
     0
 42
12.6
  3
TXT
  4

  0
STYLE
  5
E
330
F
100
AcDbSymbolTableRecord
100
AcDbTextStyleTableRecord
  2
KANJI
 70
     0
 40
0.0
 41
1.0
 50
0.0
 71
     0
 42
21.0
  3
TXT
  4
BIGFONT
  0
ENDTAB
  0
TABLE
  2
VIEW
  5
23
330
0
100
AcDbSymbolTable
 70
     0
  0
ENDTAB
  0
TABLE
  2
UCS
  5
24
330
0
100
AcDbSymbolTable
 70
     0
  0
ENDTAB
  0
TABLE
  2
APPID
  5
9
330
0
100
AcDbSymbolTable
 70
     3
  0
APPID
  5
8
330
9
100
AcDbSymbolTableRecord
100
AcDbRegAppTableRecord
  2
ACAD
 70
     0
  0
APPID
  5
55D
330
9
100
AcDbSymbolTableRecord
100
AcDbRegAppTableRecord
  2
ACAD_PSEXT
 70
     0
  0
APPID
  5
5B9
330
9
100
AcDbSymbolTableRecord
100
AcDbRegAppTableRecord
  2
ACAD_MLEADERVER
 70
     0
  0
ENDTAB
  0
TABLE
  2
DIMSTYLE
  5
12
330
0
100
AcDbSymbolTable
 70
     1
100
AcDbDimStyleTable
  0
DIMSTYLE
105
11
330
12
100
AcDbSymbolTableRecord
100
AcDbDimStyleTableRecord
  2
STANDARD
 70
     0
178
     0
340
13
  0
ENDTAB
  0
TABLE
  2
BLOCK_RECORD
  5
16
330
0
100
AcDbSymbolTable
 70
     0
  0
BLOCK_RECORD
  5
17
102
{ACAD_XDICTIONARY
360
18
102
}
330
16
100
AcDbSymbolTableRecord
100
AcDbBlockTableRecord
  2
*MODEL_SPACE
340
1D
  0
BLOCK_RECORD
  5
1F
330
16
100
AcDbSymbolTableRecord
100
AcDbBlockTableRecord
  2
*PAPER_SPACE
340
22
  0
ENDTAB
  0
ENDSEC
  0
SECTION
  2
BLOCKS
  0
BLOCK
  5
1A
330
17
100
AcDbEntity
  8
0
100
AcDbBlockBegin
  2
*MODEL_SPACE
 70
     0
 10
0.0
 20
0.0
 30
0.0
  3
*MODEL_SPACE
  1

  0
ENDBLK
  5
1C
330
17
100
AcDbEntity
  8
0
100
AcDbBlockEnd
  0
BLOCK
  5
20
330
1F
100
AcDbEntity
 67
     1
  8
0
100
AcDbBlockBegin
  2
*PAPER_SPACE
 70
     0
 10
0.0
 20
0.0
 30
0.0
  3
*PAPER_SPACE
  1

  0
ENDBLK
  5
21
330
1F
100
AcDbEntity
 67
     1
  8
0
100
AcDbBlockEnd
  0
ENDSEC
  0
SECTION
  2
ENTITIES
  0
ARC
  5
180
330
17
100
AcDbEntity
  8
4
100
AcDbCircle
 10
1927.647884920313
 20
637.0784043012734
 30
0.0
 40
0.999984
100
AcDbArc
 50
0.0
 51
74.92889900002666
  0
LINE
  5
188
330
17
100
AcDbEntity
  8
4
100
AcDbLine
 10
1760.519564920314
 20
852.8447583012735
 30
0.0
 11
1761.147980920313
 21
834.8447583012735
 31
0.0
  0
LINE
  5
189
330
17
100
AcDbEntity
  8
4
100
AcDbLine
 10
1763.647982920314
 20
834.8447583012735
 30
0.0
 11
1763.647982920314
 21
829.3447563012733
 31
0.0
  0
LINE
  5
18A
330
17
100
AcDbEntity
  8
4
100
AcDbLine
 10
1748.647982920314
 20
852.8447583012735
 30
0.0
 11
1760.519564920314
 21
852.8447583012735
 31
0.0
  0
LINE
  5
18B
330
17
100
AcDbEntity
  8
4
100
AcDbLine
 10
1748.647982920314
 20
853.9302063012733
 30
0.0
 11
1760.519564920314
 21
852.8447583012735
 31
0.0
  0
LINE
  5
18C
330
17
100
AcDbEntity
  8
4
100
AcDbLine
 10
1748.647982920314
 20
841.1870463012735
 30
0.0
 11
1748.647982920314
 21
914.8447563012733
 31
0.0
  0
LINE
  5
18D
330
17
100
AcDbEntity
  8
4
100
AcDbLine
 10
1716.776642920313
 20
852.8447583012735
 30
0.0
 11
1716.147980920313
 21
834.8447583012735
 31
0.0
  0
LINE
  5
18E
330
17
100
AcDbEntity
  8
4
100
AcDbLine
 10
1713.647984920314
 20
834.8447583012735
 30
0.0
 11
1713.647984920314
 21
829.3447563012733
 31
0.0
  0
LINE
  5
18F
330
17
100
AcDbEntity
  8
4
100
AcDbLine
 10
1728.648224920314
 20
852.8447583012735
 30
0.0
 11
1716.776642920313
 21
852.8447583012735
 31
0.0
  0
LINE
  5
190
330
17
100
AcDbEntity
  8
4
100
AcDbLine
 10
1728.647984920314
 20
853.9302063012733
 30
0.0
 11
1716.776642920313
 21
852.8447583012735
 31
0.0
  0
LINE
  5
191
330
17
100
AcDbEntity
  8
4
100
AcDbLine
 10
1728.647984920314
 20
840.9980763012736
 30
0.0
 11
1728.647984920314
 21
914.8447563012733
 31
0.0
  0
LINE
  5
192
330
17
100
AcDbEntity
  8
4
100
AcDbLine
 10
1763.647982920314
 20
834.8447583012735
 30
0.0
 11
1713.647984920314
 21
834.8447583012735
 31
0.0
  0
LINE
  5
193
330
17
100
AcDbEntity
  8
4
100
AcDbLine
 10
1716.147980920313
 20
834.8447583012735
 30
0.0
 11
1761.147980920313
 21
834.8447583012735
 31
0.0
  0
ARC
  5
194
330
17
100
AcDbEntity
  8
4
100
AcDbCircle
 10
1738.647980920313
 20
914.8447563012733
 30
0.0
 40
10.000002
100
AcDbArc
 50
0.0
 51
180.0
  0
LINE
  5
195
330
17
100
AcDbEntity
  8
L-CENTER
 48
2.0
100
AcDbLine
 10
1764.474152920314
 20
879.8447583012735
 30
0.0
 11
1712.821808920314
 21
879.8447583012735
 31
0.0
  0
ARC
  5
197
330
17
100
AcDbEntity
  8
4
100
AcDbCircle
 10
1891.772504045034
 20
779.2600765911916
 30
0.0
 40
3.875378875279244
100
AcDbArc
 50
314.9559267627452
 51
45.04407323725481
  0
ARC
  5
198
330
17
100
AcDbEntity
  8
4
100
AcDbCircle
 10
1883.647886920314
 20
822.3447603012737
 30
0.0
 40
1.000002
100
AcDbArc
 50
0.0
 51
90.0
  0
LINE
  5
199
330
17
100
AcDbEntity
  8
4
100
AcDbLine
 10
1894.510702009687
 20
776.517662812541
 30
0.0
 11
1887.647882920313
 21
776.517662812541
 31
0.0
  0
LINE
  5
19A
330
17
100
AcDbEntity
  8
4
100
AcDbLine
 10
1894.510702009687
 20
782.0024903698422
 30
0.0
 11
1884.647882920313
 21
782.0024903698422
 31
0.0
  0
ARC
  5
19B
330
17
100
AcDbEntity
  8
4
100
AcDbCircle
 10
1891.772504045034
 20
762.8055939192873
 30
0.0
 40
3.875378875279264
100
AcDbArc
 50
314.9559267627452
 51
45.04407323725481
  0
LINE
  5
19C
330
17
100
AcDbEntity
  8
4
100
AcDbLine
 10
1894.510702009687
 20
765.5480076979379
 30
0.0
 11
1887.647882920313
 21
765.5480076979379
 31
0.0
  0
LINE
  5
19D
330
17
100
AcDbEntity
  8
4
100
AcDbLine
 10
1884.647882920313
 20
760.0631801406366
 30
0.0
 11
1894.510702009687
 21
760.0631801406366
 31
0.0
  0
LINE
  5
19E
330
17
100
AcDbEntity
  8
4
100
AcDbLine
 10
1884.647882920313
 20
782.0024903698422
 30
0.0
 11
1884.647882920313
 21
760.0631801406366
 31
0.0
  0
LINE
  5
19F
330
17
100
AcDbEntity
  8
4
100
AcDbLine
 10
1887.647882920313
 20
782.0024903698422
 30
0.0
 11
1887.647882920313
 21
760.0631801406366
 31
0.0
  0
LINE
  5
1A0
330
17
100
AcDbEntity
  8
4
100
AcDbLine
 10
1895.647882920313
 20
762.8055939192873
 30
0.0
 11
1895.647882920313
 21
779.2600765911916
 31
0.0
  0
ARC
  5
1A1
330
17
100
AcDbEntity
  8
4
100
AcDbCircle
 10
1881.852138785135
 20
771.0328352552392
 30
0.0
 40
13.7957441351769
100
AcDbArc
 50
336.5734024913729
 51
23.42659750862713
  0
LINE
  5
1A2
330
17
100
AcDbEntity
  8
4
100
AcDbLine
 10
1857.647984920313
 20
823.3447563012733
 30
0.0
 11
1854.647984920313
 21
823.3447563012733
 31
0.0
  0
LINE
  5
1A3
330
17
100
AcDbEntity
  8
4
100
AcDbLine
 10
1857.647984920313
 20
823.3447563012733
 30
0.0
 11
1883.647886920314
 21
823.3447563012733
 31
0.0
  0
LINE
  5
1A4
330
17
100
AcDbEntity
  8
L-CENTER
 48
2.0
100
AcDbLine
 10
1899.248722800417
 20
771.0328352552392
 30
0.0
 11
1844.971269162371
 21
771.0328352552392
 31
0.0
  0
LINE
  5
1A5
330
17
100
AcDbEntity
  8
4
100
AcDbLine
 10
1888.898813294244
 20
760.0631801406366
 30
0.0
 11
1902.647882920313
 21
644.8447563012733
 31
0.0
  0
LINE
  5
1A6
330
17
100
AcDbEntity
  8
4
100
AcDbLine
 10
1886.881457046545
 20
760.0631801406366
 30
0.0
 11
1900.665950920314
 21
644.5779123012735
 31
0.0
  0
ARC
  5
1A7
330
17
100
AcDbEntity
  8
4
100
AcDbCircle
 10
1710.647984920314
 20
829.3447563012733
 30
0.0
 40
3.0
100
AcDbArc
 50
270.0
 51
0.0
  0
ARC
  5
1A8
330
17
100
AcDbEntity
  8
4
100
AcDbCircle
 10
1766.647982920314
 20
829.3447563012733
 30
0.0
 40
3.0
100
AcDbArc
 50
180.0
 51
270.0
  0
LINE
  5
1A9
330
17
100
AcDbEntity
  8
4
100
AcDbLine
 10
1927.907894920313
 20
638.0439783012735
 30
0.0
 11
1900.554134920313
 21
645.4084803012736
 31
0.0
  0
ARC
  5
1B0
330
17
100
AcDbEntity
  8
4
100
AcDbCircle
 10
1595.647982920314
 20
822.3447603012737
 30
0.0
 40
1.000002
100
AcDbArc
 50
90.0
 51
180.0
  0
LINE
  5
1B1
330
17
100
AcDbEntity
  8
4
100
AcDbLine
 10
1622.647982920314
 20
823.3447563012733
 30
0.0
 11
1595.647982920314
 21
823.3447563012733
 31
0.0
  0
LINE
  5
1B2
330
17
100
AcDbEntity
  8
4
100
AcDbLine
 10
1574.647982920314
 20
644.8447563012733
 30
0.0
 11
1594.647980920313
 21
793.3447563012733
 31
0.0
  0
LINE
  5
1B3
330
17
100
AcDbEntity
  8
4
100
AcDbLine
 10
1594.647980920313
 20
778.3620903012734
 30
0.0
 11
1576.629914920313
 21
644.5779123012735
 31
0.0
  0
ARC
  5
1B4
330
17
100
AcDbEntity
  8
4
100
AcDbCircle
 10
1549.647980920313
 20
637.0784043012734
 30
0.0
 40
0.999984
100
AcDbArc
 50
105.0711009999734
 51
180.0
  0
LINE
  5
1B5
330
17
100
AcDbEntity
  8
4
100
AcDbLine
 10
1549.387970920313
 20
638.0439783012735
 30
0.0
 11
1576.741730920313
 21
645.4084803012736
 31
0.0
  0
LINE
  5
1BC
330
17
100
AcDbEntity
  8
4
100
AcDbLine
 10
1854.647984920313
 20
826.3447563012733
 30
0.0
 11
1622.647982920314
 21
826.3447563012733
 31
0.0
  0
LINE
  5
1C2
330
17
100
AcDbEntity
  8
4
100
AcDbLine
 10
2098.647980920313
 20
574.3447563012735
 30
0.0
 11
2096.647982920314
 21
576.3447603012735
 31
0.0
  0
LINE
  5
1C3
330
17
100
AcDbEntity
  8
4
100
AcDbLine
 10
2096.647982920314
 20
483.3447603012735
 30
0.0
 11
2098.647980920313
 21
485.3447583012735
 31
0.0
  0
LINE
  5
1C4
330
17
100
AcDbEntity
  8
4
100
AcDbLine
 10
2096.647982920314
 20
576.3447603012735
 30
0.0
 11
2096.647982920314
 21
483.3447603012735
 31
0.0
  0
LINE
  5
1C5
330
17
100
AcDbEntity
  8
4
100
AcDbLine
 10
2098.647980920313
 20
584.3447583012735
 30
0.0
 11
2098.647980920313
 21
485.3447583012735
 31
0.0
  0
LINE
  5
1C6
330
17
100
AcDbEntity
  8
4
100
AcDbLine
 10
1928.647886920314
 20
589.8447603012735
 30
0.0
 11
1929.647882920313
 21
589.8447603012735
 31
0.0
  0
LINE
  5
1C7
330
17
100
AcDbEntity
  8
4
100
AcDbLine
 10
1938.647984920313
 20
577.3447563012735
 30
0.0
 11
1929.647882920313
 21
577.3447563012735
 31
0.0
  0
LINE
  5
1C8
330
17
100
AcDbEntity
  8
4
100
AcDbLine
 10
1948.647980920313
 20
584.3447583012735
 30
0.0
 11
1948.647980920313
 21
576.3447603012735
 31
0.0
  0
LINE
  5
1C9
330
17
100
AcDbEntity
  8
4
100
AcDbLine
 10
1928.647886920314
 20
469.8447603012735
 30
0.0
 11
1929.647882920313
 21
469.8447603012735
 31
0.0
  0
LINE
  5
1CA
330
17
100
AcDbEntity
  8
4
100
AcDbLine
 10
1929.647882920313
 20
482.3447583012735
 30
0.0
 11
1938.647984920313
 21
482.3447583012735
 31
0.0
  0
ARC
  5
1CB
330
17
100
AcDbEntity
  8
4
100
AcDbCircle
 10
1927.647884920313
 20
422.6111163012736
 30
0.0
 40
0.999984
100
AcDbArc
 50
285.0711009999733
 51
0.0
  0
LINE
  5
1CC
330
17
100
AcDbEntity
  8
4
100
AcDbLine
 10
1929.647882920313
 20
469.8447603012735
 30
0.0
 11
1929.647882920313
 21
589.8447603012735
 31
0.0
  0
LINE
  5
1CD
330
17
100
AcDbEntity
  8
4
100
AcDbLine
 10
1938.647984920313
 20
577.3447563012735
 30
0.0
 11
1938.647984920313
 21
482.3447583012735
 31
0.0
  0
LINE
  5
1CE
330
17
100
AcDbEntity
  8
4
100
AcDbLine
 10
1938.647984920313
 20
483.3447603012735
 30
0.0
 11
2096.647982920314
 21
483.3447603012735
 31
0.0
  0
LINE
  5
1CF
330
17
100
AcDbEntity
  8
4
100
AcDbLine
 10
1938.647984920313
 20
576.3447603012735
 30
0.0
 11
2096.647982920314
 21
576.3447603012735
 31
0.0
  0
LINE
  5
1D0
330
17
100
AcDbEntity
  8
4
100
AcDbLine
 10
2098.647980920313
 20
584.3447583012735
 30
0.0
 11
1948.647980920313
 21
584.3447583012735
 31
0.0
  0
ARC
  5
1D1
330
17
100
AcDbEntity
  8
4
100
AcDbCircle
 10
1891.772504045034
 20
538.0720016372259
 30
0.0
 40
3.875378875279244
100
AcDbArc
 50
314.9559267627452
 51
45.04407323725481
  0
LINE
  5
1D2
330
17
100
AcDbEntity
  8
4
100
AcDbLine
 10
1895.647882920313
 20
521.6175189653216
 30
0.0
 11
1895.647882920313
 21
538.0720016372259
 31
0.0
  0
ARC
  5
1D3
330
17
100
AcDbEntity
  8
4
100
AcDbCircle
 10
1891.772504045034
 20
521.6175189653216
 30
0.0
 40
3.875378875279264
100
AcDbArc
 50
314.9559267627452
 51
45.04407323725481
  0
ARC
  5
1D4
330
17
100
AcDbEntity
  8
4
100
AcDbCircle
 10
1881.852138785135
 20
529.8447603012735
 30
0.0
 40
13.7957441351769
100
AcDbArc
 50
336.5734024913729
 51
23.42659750862626
  0
LINE
  5
1D5
330
17
100
AcDbEntity
  8
4
100
AcDbLine
 10
1884.647882920313
 20
540.8144154158765
 30
0.0
 11
1884.647882920313
 21
518.8751051866709
 31
0.0
  0
LINE
  5
1D6
330
17
100
AcDbEntity
  8
4
100
AcDbLine
 10
1887.647882920313
 20
540.8144154158765
 30
0.0
 11
1887.647882920313
 21
518.8751051866709
 31
0.0
  0
LINE
  5
1D7
330
17
100
AcDbEntity
  8
4
100
AcDbLine
 10
1894.510702009687
 20
524.3599327439722
 30
0.0
 11
1887.647882920313
 21
524.3599327439722
 31
0.0
  0
LINE
  5
1D8
330
17
100
AcDbEntity
  8
4
100
AcDbLine
 10
1884.647882920313
 20
518.8751051866709
 30
0.0
 11
1894.510702009687
 21
518.8751051866709
 31
0.0
  0
LINE
  5
1D9
330
17
100
AcDbEntity
  8
4
100
AcDbLine
 10
1894.510702009687
 20
535.3295878585752
 30
0.0
 11
1887.647882920313
 21
535.3295878585752
 31
0.0
  0
LINE
  5
1DA
330
17
100
AcDbEntity
  8
4
100
AcDbLine
 10
1894.510702009687
 20
540.8144154158765
 30
0.0
 11
1884.647882920313
 21
540.8144154158765
 31
0.0
  0
ARC
  5
1DB
330
17
100
AcDbEntity
  8
4
100
AcDbCircle
 10
1881.852138785144
 20
288.6566853473098
 30
0.0
 40
13.7957441351769
100
AcDbArc
 50
336.573402491375
 51
23.42659750863178
  0
LINE
  5
1DC
330
17
100
AcDbEntity
  8
4
100
AcDbLine
 10
1895.647882920322
 20
296.8839266832622
 30
0.0
 11
1895.647882920322
 21
280.4294440113579
 31
0.0
  0
ARC
  5
1DD
330
17
100
AcDbEntity
  8
4
100
AcDbCircle
 10
1891.772504045042
 20
296.8839266832622
 30
0.0
 40
3.875378875279264
100
AcDbArc
 50
314.955926762744
 51
45.04407323725719
  0
ARC
  5
1DE
330
17
100
AcDbEntity
  8
4
100
AcDbCircle
 10
1891.772504045043
 20
280.4294440113579
 30
0.0
 40
3.875378875279244
100
AcDbArc
 50
314.955926762744
 51
45.04407323725719
  0
LINE
  5
1DF
330
17
100
AcDbEntity
  8
4
100
AcDbLine
 10
1887.647882920322
 20
277.687030232707
 30
0.0
 11
1887.647882920322
 21
299.6263404619126
 31
0.0
  0
LINE
  5
1E0
330
17
100
AcDbEntity
  8
4
100
AcDbLine
 10
1884.647882920322
 20
277.687030232707
 30
0.0
 11
1884.647882920322
 21
299.6263404619126
 31
0.0
  0
LINE
  5
1E1
330
17
100
AcDbEntity
  8
4
100
AcDbLine
 10
1884.647882920322
 20
299.6263404619126
 30
0.0
 11
1894.510702009694
 21
299.6263404619128
 31
0.0
  0
LINE
  5
1E2
330
17
100
AcDbEntity
  8
4
100
AcDbLine
 10
1894.510702009694
 20
294.1415129046115
 30
0.0
 11
1887.647882920322
 21
294.1415129046113
 31
0.0
  0
LINE
  5
1E3
330
17
100
AcDbEntity
  8
4
100
AcDbLine
 10
1894.510702009696
 20
277.6870302327072
 30
0.0
 11
1884.647882920322
 21
277.687030232707
 31
0.0
  0
LINE
  5
1E4
330
17
100
AcDbEntity
  8
4
100
AcDbLine
 10
1894.510702009695
 20
283.1718577900085
 30
0.0
 11
1887.647882920322
 21
283.1718577900083
 31
0.0
  0
LINE
  5
1E5
330
17
100
AcDbEntity
  8
L-CENTER
 48
2.0
100
AcDbLine
 10
1899.248722800426
 20
288.6566853473105
 30
0.0
 11
1844.97126916238
 21
288.6566853473084
 31
0.0
  0
ARC
  5
1E6
330
17
100
AcDbEntity
  8
4
100
AcDbCircle
 10
1883.647886920314
 20
237.3447603012735
 30
0.0
 40
1.000002
100
AcDbArc
 50
270.0
 51
0.0
  0
LINE
  5
1E7
330
17
100
AcDbEntity
  8
4
100
AcDbLine
 10
1854.647984920313
 20
236.3447583012735
 30
0.0
 11
1857.647984920313
 21
236.3447583012735
 31
0.0
  0
LINE
  5
1E8
330
17
100
AcDbEntity
  8
4
100
AcDbLine
 10
1845.647980920313
 20
229.3599307439717
 30
0.0
 11
1845.647980920313
 21
240.3295858585748
 31
0.0
  0
LINE
  5
1E9
330
17
100
AcDbEntity
  8
4
100
AcDbLine
 10
1836.147980920313
 20
223.8751031866705
 30
0.0
 11
1845.647980920313
 21
229.3599307439717
 31
0.0
  0
LINE
  5
1EA
330
17
100
AcDbEntity
  8
4
100
AcDbLine
 10
1845.647980920313
 20
240.3295858585748
 30
0.0
 11
1836.147980920313
 21
245.8144134158761
 31
0.0
  0
LINE
  5
1EB
330
17
100
AcDbEntity
  8
4
100
AcDbLine
 10
1826.647980920313
 20
240.3295858585748
 30
0.0
 11
1826.647980920313
 21
229.3599307439717
 31
0.0
  0
LINE
  5
1EC
330
17
100
AcDbEntity
  8
4
100
AcDbLine
 10
1826.647980920313
 20
229.3599307439717
 30
0.0
 11
1836.147980920313
 21
223.8751031866705
 31
0.0
  0
LINE
  5
1ED
330
17
100
AcDbEntity
  8
4
100
AcDbLine
 10
1836.147980920313
 20
245.8144134158761
 30
0.0
 11
1826.647980920313
 21
240.3295858585748
 31
0.0
  0
CIRCLE
  5
1EE
330
17
100
AcDbEntity
  8
4
100
AcDbCircle
 10
1836.147980920313
 20
234.8447583012735
 30
0.0
 40
9.5
  0
LINE
  5
1EF
330
17
100
AcDbEntity
  8
4
100
AcDbLine
 10
1857.647984920313
 20
236.3447583012735
 30
0.0
 11
1883.647886920314
 21
236.3447583012735
 31
0.0
  0
LINE
  5
1F0
330
17
100
AcDbEntity
  8
4
100
AcDbLine
 10
1787.397706286454
 20
330.2520488441965
 30
0.0
 11
1777.897706286454
 21
324.7672212868952
 31
0.0
  0
LINE
  5
1F1
330
17
100
AcDbEntity
  8
4
100
AcDbLine
 10
1796.897706286454
 20
324.7672212868952
 30
0.0
 11
1787.397706286454
 21
330.2520488441965
 31
0.0
  0
LINE
  5
1F2
330
17
100
AcDbEntity
  8
4
100
AcDbLine
 10
1777.897706286454
 20
313.7975661722921
 30
0.0
 11
1787.397706286454
 21
308.312738614991
 31
0.0
  0
LINE
  5
1F3
330
17
100
AcDbEntity
  8
4
100
AcDbLine
 10
1787.397706286454
 20
308.312738614991
 30
0.0
 11
1796.897706286454
 21
313.7975661722921
 31
0.0
  0
LINE
  5
1F4
330
17
100
AcDbEntity
  8
4
100
AcDbLine
 10
1796.897706286454
 20
313.7975661722921
 30
0.0
 11
1796.897706286454
 21
324.7672212868952
 31
0.0
  0
LINE
  5
1F5
330
17
100
AcDbEntity
  8
4
100
AcDbLine
 10
1777.897706286454
 20
324.7672212868952
 30
0.0
 11
1777.897706286454
 21
313.7975661722921
 31
0.0
  0
CIRCLE
  5
1F6
330
17
100
AcDbEntity
  8
4
100
AcDbCircle
 10
1787.397706286454
 20
319.2823937295939
 30
0.0
 40
9.5
  0
LINE
  5
1F7
330
17
100
AcDbEntity
  8
4
100
AcDbLine
 10
1689.897717664167
 20
330.2517382933042
 30
0.0
 11
1680.397717664167
 21
324.766910736003
 31
0.0
  0
LINE
  5
1F8
330
17
100
AcDbEntity
  8
4
100
AcDbLine
 10
1699.397717664167
 20
324.766910736003
 30
0.0
 11
1689.897717664167
 21
330.2517382933042
 31
0.0
  0
LINE
  5
1F9
330
17
100
AcDbEntity
  8
4
100
AcDbLine
 10
1680.397717664167
 20
313.7972556213999
 30
0.0
 11
1689.897717664167
 21
308.3124280640986
 31
0.0
  0
LINE
  5
1FA
330
17
100
AcDbEntity
  8
4
100
AcDbLine
 10
1689.897717664167
 20
308.3124280640986
 30
0.0
 11
1699.397717664167
 21
313.7972556213999
 31
0.0
  0
LINE
  5
1FB
330
17
100
AcDbEntity
  8
4
100
AcDbLine
 10
1699.397717664167
 20
313.7972556213999
 30
0.0
 11
1699.397717664167
 21
324.766910736003
 31
0.0
  0
LINE
  5
1FC
330
17
100
AcDbEntity
  8
4
100
AcDbLine
 10
1680.397717664167
 20
324.766910736003
 30
0.0
 11
1680.397717664167
 21
313.7972556213999
 31
0.0
  0
CIRCLE
  5
1FD
330
17
100
AcDbEntity
  8
4
100
AcDbCircle
 10
1689.897717664167
 20
319.2820831787017
 30
0.0
 40
9.5
  0
LINE
  5
1FF
330
17
100
AcDbEntity
  8
4
100
AcDbLine
 10
1787.397771923948
 20
161.3768158831298
 30
0.0
 11
1777.897771923948
 21
155.8919883258285
 31
0.0
  0
LINE
  5
200
330
17
100
AcDbEntity
  8
4
100
AcDbLine
 10
1796.897771923948
 20
155.8919883258285
 30
0.0
 11
1787.397771923948
 21
161.3768158831298
 31
0.0
  0
LINE
  5
201
330
17
100
AcDbEntity
  8
4
100
AcDbLine
 10
1689.897765714162
 20
161.3770607965888
 30
0.0
 11
1680.397765714162
 21
155.8922332392875
 31
0.0
  0
LINE
  5
202
330
17
100
AcDbEntity
  8
4
100
AcDbLine
 10
1699.397765714162
 20
155.8922332392875
 30
0.0
 11
1689.897765714162
 21
161.3770607965888
 31
0.0
  0
LINE
  5
208
330
17
100
AcDbEntity
  8
L-CENTER
 48
2.0
100
AcDbLine
 10
1778.170377540044
 20
303.3001566407481
 30
0.0
 11
1796.625035032862
 21
335.2646308184401
 31
0.0
  0
LINE
  5
209
330
17
100
AcDbEntity
  8
4
100
AcDbLine
 10
1888.898813377119
 20
299.6263404619127
 30
0.0
 11
1902.647882920313
 21
414.8447583012735
 31
0.0
  0
LINE
  5
20A
330
17
100
AcDbEntity
  8
4
100
AcDbLine
 10
1886.881457129272
 20
299.6263404619126
 30
0.0
 11
1900.665950920314
 21
415.1116023012735
 31
0.0
  0
LINE
  5
20B
330
17
100
AcDbEntity
  8
4
100
AcDbLine
 10
1927.907894920313
 20
421.6455423012735
 30
0.0
 11
1900.554134920313
 21
414.2810403012736
 31
0.0
  0
ARC
  5
20C
330
17
100
AcDbEntity
  8
4
100
AcDbCircle
 10
1925.647982920314
 20
116.8447563012735
 30
0.0
 40
3.0
100
AcDbArc
 50
0.0
 51
90.0
  0
LINE
  5
20D
330
17
100
AcDbEntity
  8
4
100
AcDbLine
 10
1928.647982920314
 20
116.8447563012735
 30
0.0
 11
1928.647982920314
 21
64.84476030127348
 31
0.0
  0
ARC
  5
20F
330
17
100
AcDbEntity
  8
4
100
AcDbCircle
 10
1868.147984920313
 20
134.8447563012735
 30
0.0
 40
15.0
100
AcDbArc
 50
180.0
 51
270.0
  0
LINE
  5
212
330
17
100
AcDbEntity
  8
4
100
AcDbLine
 10
1777.897771923948
 20
144.9223332112255
 30
0.0
 11
1787.397771923948
 21
139.4375056539242
 31
0.0
  0
LINE
  5
213
330
17
100
AcDbEntity
  8
4
100
AcDbLine
 10
1787.397771923948
 20
139.4375056539242
 30
0.0
 11
1796.897771923948
 21
144.9223332112255
 31
0.0
  0
LINE
  5
214
330
17
100
AcDbEntity
  8
4
100
AcDbLine
 10
1680.397765714162
 20
144.9225781246845
 30
0.0
 11
1689.897765714162
 21
139.4377505673832
 31
0.0
  0
LINE
  5
215
330
17
100
AcDbEntity
  8
4
100
AcDbLine
 10
1689.897765714162
 20
139.4377505673832
 30
0.0
 11
1699.397765714162
 21
144.9225781246845
 31
0.0
  0
LINE
  5
219
330
17
100
AcDbEntity
  8
4
100
AcDbLine
 10
1853.147984920313
 20
234.8447583012735
 30
0.0
 11
1908.647984920313
 21
119.8447563012735
 31
0.0
  0
LINE
  5
21A
330
17
100
AcDbEntity
  8
4
100
AcDbLine
 10
1853.147984920313
 20
134.8447563012735
 30
0.0
 11
1853.147984920313
 21
234.8447583012735
 31
0.0
  0
LINE
  5
21B
330
17
100
AcDbEntity
  8
L-CENTER
 48
2.0
100
AcDbLine
 10
1796.625089798077
 20
134.4249174025867
 30
0.0
 11
1778.170454049817
 21
166.3894041344677
 31
0.0
  0
LINE
  5
21C
330
17
100
AcDbEntity
  8
L-CENTER
 48
2.0
100
AcDbLine
 10
1888.647980920313
 20
139.8447563012735
 30
0.0
 11
1888.647980920313
 21
44.84476030127348
 31
0.0
  0
LINE
  5
21D
330
17
100
AcDbEntity
  8
4
100
AcDbLine
 10
1796.897771923948
 20
144.9223332112255
 30
0.0
 11
1796.897771923948
 21
155.8919883258285
 31
0.0
  0
LINE
  5
21E
330
17
100
AcDbEntity
  8
4
100
AcDbLine
 10
1777.897771923948
 20
155.8919883258285
 30
0.0
 11
1777.897771923948
 21
144.9223332112255
 31
0.0
  0
CIRCLE
  5
21F
330
17
100
AcDbEntity
  8
4
100
AcDbCircle
 10
1787.397771923948
 20
150.4071607685272
 30
0.0
 40
9.5
  0
LINE
  5
220
330
17
100
AcDbEntity
  8
4
100
AcDbLine
 10
1699.397765714162
 20
144.9225781246845
 30
0.0
 11
1699.397765714162
 21
155.8922332392875
 31
0.0
  0
LINE
  5
221
330
17
100
AcDbEntity
  8
4
100
AcDbLine
 10
1680.397765714162
 20
155.8922332392875
 30
0.0
 11
1680.397765714162
 21
144.9225781246845
 31
0.0
  0
CIRCLE
  5
222
330
17
100
AcDbEntity
  8
4
100
AcDbCircle
 10
1689.897765714162
 20
150.4074056819862
 30
0.0
 40
9.5
  0
LINE
  5
223
330
17
100
AcDbEntity
  8
4
100
AcDbLine
 10
1574.647982920315
 20
456.8447603012735
 30
0.0
 11
1594.647980920315
 21
470.3230209950357
 31
0.0
  0
ARC
  5
224
330
17
100
AcDbEntity
  8
4
100
AcDbCircle
 10
1549.647980920313
 20
422.6111163012736
 30
0.0
 40
0.999984
100
AcDbArc
 50
180.0
 51
254.9288990000266
  0
LINE
  5
225
330
17
100
AcDbEntity
  8
4
100
AcDbLine
 10
1549.387970920313
 20
421.6455423012735
 30
0.0
 11
1576.741730920313
 21
414.2810403012736
 31
0.0
  0
LINE
  5
226
330
17
100
AcDbEntity
  8
4
100
AcDbLine
 10
1650.647980920313
 20
229.3599307439717
 30
0.0
 11
1650.647980920313
 21
240.3295858585748
 31
0.0
  0
LINE
  5
227
330
17
100
AcDbEntity
  8
4
100
AcDbLine
 10
1624.157750920314
 20
233.3447583012735
 30
0.0
 11
1622.647982920314
 21
233.3447583012735
 31
0.0
  0
LINE
  5
228
330
17
100
AcDbEntity
  8
4
100
AcDbLine
 10
1631.647980920313
 20
229.3599307439717
 30
0.0
 11
1641.147980920313
 21
223.8751031866705
 31
0.0
  0
LINE
  5
229
330
17
100
AcDbEntity
  8
4
100
AcDbLine
 10
1631.647980920313
 20
240.3295858585748
 30
0.0
 11
1631.647980920313
 21
229.3599307439717
 31
0.0
  0
LINE
  5
22A
330
17
100
AcDbEntity
  8
4
100
AcDbLine
 10
1641.147980920313
 20
245.8144134158761
 30
0.0
 11
1631.647980920313
 21
240.3295858585748
 31
0.0
  0
LINE
  5
22B
330
17
100
AcDbEntity
  8
4
100
AcDbLine
 10
1641.147980920313
 20
223.8751031866705
 30
0.0
 11
1650.647980920313
 21
229.3599307439717
 31
0.0
  0
CIRCLE
  5
22C
330
17
100
AcDbEntity
  8
4
100
AcDbCircle
 10
1641.147980920313
 20
234.8447583012735
 30
0.0
 40
9.5
  0
LINE
  5
22D
330
17
100
AcDbEntity
  8
4
100
AcDbLine
 10
1650.647980920313
 20
240.3295858585748
 30
0.0
 11
1641.147980920313
 21
245.8144134158761
 31
0.0
  0
ARC
  5
22E
330
17
100
AcDbEntity
  8
4
100
AcDbCircle
 10
1595.647982920314
 20
237.3447603012735
 30
0.0
 40
1.000002
100
AcDbArc
 50
180.0
 51
270.0
  0
LINE
  5
22F
330
17
100
AcDbEntity
  8
4
100
AcDbLine
 10
1622.647982920314
 20
236.3447583012735
 30
0.0
 11
1595.647982920314
 21
236.3447583012735
 31
0.0
  0
LINE
  5
230
330
17
100
AcDbEntity
  8
4
100
AcDbLine
 10
1574.647982920314
 20
414.8447583012735
 30
0.0
 11
1594.647980920313
 21
266.3447583012735
 31
0.0
  0
LINE
  5
231
330
17
100
AcDbEntity
  8
4
100
AcDbLine
 10
1594.647980920313
 20
281.3274243012734
 30
0.0
 11
1576.629914920313
 21
415.1116023012735
 31
0.0
  0
LINE
  5
240
330
17
100
AcDbEntity
  8
L-CENTER
 48
2.0
100
AcDbLine
 10
1588.647980920313
 20
139.8447563012735
 30
0.0
 11
1588.647980920313
 21
44.84476030127348
 31
0.0
  0
ARC
  5
241
330
17
100
AcDbEntity
  8
4
100
AcDbCircle
 10
1609.147982920314
 20
134.8447563012735
 30
0.0
 40
15.0
100
AcDbArc
 50
270.0
 51
0.0
  0
ARC
  5
244
330
17
100
AcDbEntity
  8
4
100
AcDbCircle
 10
1551.647984920314
 20
116.8447563012735
 30
0.0
 40
3.0
100
AcDbArc
 50
90.0
 51
180.0
  0
LINE
  5
245
330
17
100
AcDbEntity
  8
4
100
AcDbLine
 10
1548.647984920314
 20
116.8447563012735
 30
0.0
 11
1548.647984920314
 21
64.84476030127348
 31
0.0
  0
LINE
  5
24E
330
17
100
AcDbEntity
  8
4
100
AcDbLine
 10
1568.647982920314
 20
119.8447563012735
 30
0.0
 11
1624.147982920314
 21
234.8447583012735
 31
0.0
  0
LINE
  5
24F
330
17
100
AcDbEntity
  8
4
100
AcDbLine
 10
1624.147982920314
 20
134.8447563012735
 30
0.0
 11
1624.147982920314
 21
234.8447583012735
 31
0.0
  0
CIRCLE
  5
253
330
17
100
AcDbEntity
  8
4
100
AcDbCircle
 10
1738.647980920313
 20
234.8447583012735
 30
0.0
 40
114.499998
  0
CIRCLE
  5
254
330
17
100
AcDbEntity
  8
L-CENTER
 48
2.0
100
AcDbCircle
 10
1738.647980920313
 20
234.8447583012735
 30
0.0
 40
97.5
  0
LINE
  5
255
330
17
100
AcDbEntity
  8
4
100
AcDbLine
 10
1928.647982920314
 20
64.84476030127348
 30
0.0
 11
1548.647984920314
 21
64.84476030127348
 31
0.0
  0
LINE
  5
256
330
17
100
AcDbEntity
  8
4
100
AcDbLine
 10
1925.647982920314
 20
119.8447563012735
 30
0.0
 11
1551.647984920314
 21
119.8447563012735
 31
0.0
  0
LINE
  5
257
330
17
100
AcDbEntity
  8
L-CENTER
 48
2.0
100
AcDbLine
 10
1699.125107589777
 20
166.389635190691
 30
0.0
 11
1680.670423838546
 21
134.4251761732817
 31
0.0
  0
LINE
  5
25A
330
17
100
AcDbEntity
  8
L-CENTER
 48
2.0
100
AcDbLine
 10
2109.020966920313
 20
529.8447603012735
 30
0.0
 11
1533.29376386415
 21
529.8447603012735
 31
0.0
  0
LINE
  5
25B
330
17
100
AcDbEntity
  8
L-CENTER
 48
2.0
100
AcDbLine
 10
1680.670402408019
 20
335.2643280561297
 30
0.0
 11
1699.125032920313
 21
303.2998383012737
 31
0.0
  0
LINE
  5
25C
330
17
100
AcDbEntity
  8
L-CENTER
 48
2.0
100
AcDbLine
 10
1866.780563525467
 20
234.8447583012735
 30
0.0
 11
1610.515398315159
 21
234.8447583012735
 31
0.0
  0
LINE
  5
25F
330
17
100
AcDbEntity
  8
L-CENTER
 48
2.0
100
AcDbLine
 10
1738.647980920313
 20
940.4515824772341
 30
0.0
 11
1738.647980920313
 21
42.82646430127352
 31
0.0
  0
LINE
  5
262
330
17
100
AcDbEntity
  8
4
100
AcDbLine
 10
1548.647984920314
 20
422.6111163012736
 30
0.0
 11
1548.647984920314
 21
637.0784043012734
 31
0.0
  0
LINE
  5
263
330
17
100
AcDbEntity
  8
4
100
AcDbLine
 10
1574.647982920314
 20
644.8447563012733
 30
0.0
 11
1574.647982920314
 21
414.8447583012735
 31
0.0
  0
LINE
  5
264
330
17
100
AcDbEntity
  8
4
100
AcDbLine
 10
1594.647980920313
 20
822.3447603012737
 30
0.0
 11
1594.647980920313
 21
237.3447603012735
 31
0.0
  0
LINE
  5
265
330
17
100
AcDbEntity
  8
4
100
AcDbLine
 10
1622.647982920314
 20
233.3447583012735
 30
0.0
 11
1622.647982920314
 21
826.3447563012733
 31
0.0
  0
LINE
  5
266
330
17
100
AcDbEntity
  8
4
100
AcDbLine
 10
1928.647886920314
 20
637.0784043012734
 30
0.0
 11
1928.647886920314
 21
422.6111163012736
 31
0.0
  0
LINE
  5
267
330
17
100
AcDbEntity
  8
4
100
AcDbLine
 10
1902.647882920313
 20
414.8447583012735
 30
0.0
 11
1902.647882920313
 21
644.8447563012733
 31
0.0
  0
LINE
  5
268
330
17
100
AcDbEntity
  8
4
100
AcDbLine
 10
1857.647984920313
 20
236.3447583012735
 30
0.0
 11
1857.647984920313
 21
823.3447563012733
 31
0.0
  0
LINE
  5
269
330
17
100
AcDbEntity
  8
4
100
AcDbLine
 10
1854.647984920313
 20
231.3313323012735
 30
0.0
 11
1854.647984920313
 21
826.3447563012733
 31
0.0
  0
LINE
  5
26A
330
17
100
AcDbEntity
  8
4
100
AcDbLine
 10
1884.647882920313
 20
822.3447603012737
 30
0.0
 11
1884.647882920313
 21
237.3447603012735
 31
0.0
  0
LINE
  5
26D
330
17
100
AcDbEntity
  8
4
100
AcDbLine
 10
1574.647982920314
 20
602.8447603012735
 30
0.0
 11
1594.647980920313
 21
589.3664996075115
 31
0.0
  0
LINE
  5
26E
330
17
100
AcDbEntity
  8
4
100
AcDbLine
 10
1054.952745115871
 20
1554.687234995207
 30
0.0
 11
1054.952745115871
 21
1557.687234995207
 31
0.0
  0
LINE
  5
26F
330
17
100
AcDbEntity
  8
4
100
AcDbLine
 10
1072.752745115871
 20
1553.187234995207
 30
0.0
 11
1057.952745115871
 21
1553.187234995207
 31
0.0
  0
ARC
  5
270
330
17
100
AcDbEntity
  8
4
100
AcDbCircle
 10
1072.752745115871
 20
1552.187234995207
 30
0.0
 40
1.0
100
AcDbArc
 50
0.0
 51
90.0
  0
LINE
  5
271
330
17
100
AcDbEntity
  8
4
100
AcDbLine
 10
1056.952745115871
 20
1557.987234995207
 30
0.0
 11
1056.952745115871
 21
1583.987234995207
 31
0.0
  0
ARC
  5
272
330
17
100
AcDbEntity
  8
4
100
AcDbCircle
 10
1055.952745115871
 20
1583.987234995207
 30
0.0
 40
1.0
100
AcDbArc
 50
0.0
 51
90.0
  0
ARC
  5
273
330
17
100
AcDbEntity
  8
4
100
AcDbCircle
 10
1080.877366240592
 20
1544.414476331159
 30
0.0
 40
3.875378875279244
100
AcDbArc
 50
314.9559267627452
 51
45.04407323725481
  0
ARC
  5
274
330
17
100
AcDbEntity
  8
4
100
AcDbCircle
 10
1070.957000980693
 20
1536.187234995207
 30
0.0
 40
13.7957441351769
100
AcDbArc
 50
336.5734024913729
 51
23.42659750862713
  0
LINE
  5
275
330
17
100
AcDbEntity
  8
4
100
AcDbLine
 10
1084.752745115871
 20
1527.959993659255
 30
0.0
 11
1084.752745115871
 21
1544.414476331159
 31
0.0
  0
ARC
  5
276
330
17
100
AcDbEntity
  8
4
100
AcDbCircle
 10
1080.877366240592
 20
1527.959993659255
 30
0.0
 40
3.875378875279264
100
AcDbArc
 50
314.9559267627452
 51
45.04407323725481
  0
LINE
  5
277
330
17
100
AcDbEntity
  8
4
100
AcDbLine
 10
1076.752745115871
 20
1547.15689010981
 30
0.0
 11
1076.752745115871
 21
1525.217579880604
 31
0.0
  0
LINE
  5
278
330
17
100
AcDbEntity
  8
4
100
AcDbLine
 10
1073.752745115871
 20
1547.15689010981
 30
0.0
 11
1073.752745115871
 21
1525.217579880604
 31
0.0
  0
LINE
  5
279
330
17
100
AcDbEntity
  8
4
100
AcDbLine
 10
1083.615564205245
 20
1498.407153365957
 30
0.0
 11
1073.752745115871
 21
1498.407153365957
 31
0.0
  0
LINE
  5
27A
330
17
100
AcDbEntity
  8
4
100
AcDbLine
 10
1073.752745115871
 20
1525.217579880604
 30
0.0
 11
1083.615564205245
 21
1525.217579880604
 31
0.0
  0
LINE
  5
27B
330
17
100
AcDbEntity
  8
4
100
AcDbLine
 10
1083.615564205245
 20
1530.702407437906
 30
0.0
 11
1076.752745115871
 21
1530.702407437906
 31
0.0
  0
LINE
  5
27C
330
17
100
AcDbEntity
  8
4
100
AcDbLine
 10
1083.615564205245
 20
1541.672062552509
 30
0.0
 11
1076.752745115871
 21
1541.672062552509
 31
0.0
  0
LINE
  5
27D
330
17
100
AcDbEntity
  8
4
100
AcDbLine
 10
1083.615564205245
 20
1547.15689010981
 30
0.0
 11
1073.752745115871
 21
1547.15689010981
 31
0.0
  0
ARC
  5
283
330
17
100
AcDbEntity
  8
4
100
AcDbCircle
 10
1080.877366240592
 20
1479.210256915402
 30
0.0
 40
3.875378875279264
100
AcDbArc
 50
314.9559267627452
 51
45.04407323725481
  0
ARC
  5
284
330
17
100
AcDbEntity
  8
4
100
AcDbCircle
 10
1070.957000980693
 20
1487.437498251354
 30
0.0
 40
13.7957441351769
100
AcDbArc
 50
336.5734024913729
 51
23.42659750862713
  0
LINE
  5
286
330
17
100
AcDbEntity
  8
4
100
AcDbLine
 10
1083.615564205245
 20
1492.922325808656
 30
0.0
 11
1076.752745115871
 21
1492.922325808656
 31
0.0
  0
LINE
  5
287
330
17
100
AcDbEntity
  8
4
100
AcDbLine
 10
1083.615564205245
 20
1481.952670694053
 30
0.0
 11
1076.752745115871
 21
1481.952670694053
 31
0.0
  0
LINE
  5
288
330
17
100
AcDbEntity
  8
4
100
AcDbLine
 10
1073.752745115871
 20
1476.467843136752
 30
0.0
 11
1083.615564205245
 21
1476.467843136752
 31
0.0
  0
LINE
  5
28A
330
17
100
AcDbEntity
  8
4
100
AcDbLine
 10
1084.752745115871
 20
1398.164213075012
 30
0.0
 11
1084.752745115871
 21
1381.709730403107
 31
0.0
  0
ARC
  5
28B
330
17
100
AcDbEntity
  8
4
100
AcDbCircle
 10
1070.957000980693
 20
1389.93697173906
 30
0.0
 40
13.7957441351769
100
AcDbArc
 50
336.5734024913729
 51
23.42659750862713
  0
ARC
  5
28C
330
17
100
AcDbEntity
  8
4
100
AcDbCircle
 10
1080.877366240592
 20
1398.164213075012
 30
0.0
 40
3.875378875279264
100
AcDbArc
 50
314.9559267627452
 51
45.04407323725481
  0
LINE
  5
28E
330
17
100
AcDbEntity
  8
4
100
AcDbLine
 10
1073.752745115871
 20
1400.906626853662
 30
0.0
 11
1083.615564205245
 21
1400.906626853662
 31
0.0
  0
LINE
  5
28F
330
17
100
AcDbEntity
  8
4
100
AcDbLine
 10
1083.615564205245
 20
1395.421799296361
 30
0.0
 11
1076.752745115871
 21
1395.421799296361
 31
0.0
  0
LINE
  5
290
330
17
100
AcDbEntity
  8
4
100
AcDbLine
 10
1083.615564205245
 20
1384.452144181758
 30
0.0
 11
1076.752745115871
 21
1384.452144181758
 31
0.0
  0
LINE
  5
295
330
17
100
AcDbEntity
  8
4
100
AcDbLine
 10
1084.752745115871
 20
1349.414476331159
 30
0.0
 11
1084.752745115871
 21
1332.959993659255
 31
0.0
  0
ARC
  5
296
330
17
100
AcDbEntity
  8
4
100
AcDbCircle
 10
1070.957000980693
 20
1341.187234995207
 30
0.0
 40
13.7957441351769
100
AcDbArc
 50
336.5734024913729
 51
23.42659750862713
  0
ARC
  5
297
330
17
100
AcDbEntity
  8
4
100
AcDbCircle
 10
1080.877366240592
 20
1349.414476331159
 30
0.0
 40
3.875378875279264
100
AcDbArc
 50
314.9559267627452
 51
45.04407323725481
  0
ARC
  5
298
330
17
100
AcDbEntity
  8
4
100
AcDbCircle
 10
1080.877366240592
 20
1332.959993659255
 30
0.0
 40
3.875378875279244
100
AcDbArc
 50
314.9559267627452
 51
45.04407323725481
  0
LINE
  5
299
330
17
100
AcDbEntity
  8
4
100
AcDbLine
 10
1072.752745115871
 20
1324.187234995207
 30
0.0
 11
1057.952745115871
 21
1324.187234995207
 31
0.0
  0
ARC
  5
29A
330
17
100
AcDbEntity
  8
4
100
AcDbCircle
 10
1072.752745115871
 20
1325.187234995207
 30
0.0
 40
1.0
100
AcDbArc
 50
270.0
 51
0.0
  0
LINE
  5
29B
330
17
100
AcDbEntity
  8
4
100
AcDbLine
 10
1073.752745115871
 20
1330.217579880604
 30
0.0
 11
1073.752745115871
 21
1352.15689010981
 31
0.0
  0
LINE
  5
29C
330
17
100
AcDbEntity
  8
4
100
AcDbLine
 10
1076.752745115871
 20
1330.217579880604
 30
0.0
 11
1076.752745115871
 21
1352.15689010981
 31
0.0
  0
LINE
  5
29D
330
17
100
AcDbEntity
  8
4
100
AcDbLine
 10
1083.615564205245
 20
1335.702407437905
 30
0.0
 11
1076.752745115871
 21
1335.702407437905
 31
0.0
  0
LINE
  5
29E
330
17
100
AcDbEntity
  8
4
100
AcDbLine
 10
1083.615564205245
 20
1346.672062552508
 30
0.0
 11
1076.752745115871
 21
1346.672062552508
 31
0.0
  0
LINE
  5
29F
330
17
100
AcDbEntity
  8
4
100
AcDbLine
 10
1073.752745115871
 20
1352.15689010981
 30
0.0
 11
1083.615564205245
 21
1352.15689010981
 31
0.0
  0
LINE
  5
2A0
330
17
100
AcDbEntity
  8
4
100
AcDbLine
 10
1083.615564205245
 20
1378.967316624457
 30
0.0
 11
1073.752745115871
 21
1378.967316624457
 31
0.0
  0
LINE
  5
2A1
330
17
100
AcDbEntity
  8
4
100
AcDbLine
 10
1083.615564205245
 20
1330.217579880604
 30
0.0
 11
1073.752745115871
 21
1330.217579880604
 31
0.0
  0
LINE
  5
2A2
330
17
100
AcDbEntity
  8
4
100
AcDbLine
 10
1054.952745115871
 20
1294.687234995207
 30
0.0
 11
1054.952745115871
 21
1322.687234995207
 31
0.0
  0
LINE
  5
2A3
330
17
100
AcDbEntity
  8
4
100
AcDbLine
 10
1076.752745115871
 20
1378.967316624457
 30
0.0
 11
1076.752745115871
 21
1400.906626853662
 31
0.0
  0
LINE
  5
2A4
330
17
100
AcDbEntity
  8
4
100
AcDbLine
 10
1073.752745115871
 20
1378.967316624457
 30
0.0
 11
1073.752745115871
 21
1400.906626853662
 31
0.0
  0
ARC
  5
2A5
330
17
100
AcDbEntity
  8
4
100
AcDbCircle
 10
1080.877366240592
 20
1381.709730403107
 30
0.0
 40
3.875378875279244
100
AcDbArc
 50
314.9559267627452
 51
45.04407323725481
  0
LINE
  5
2AA
330
17
100
AcDbEntity
  8
4
100
AcDbLine
 10
1057.952745115871
 20
1322.687234995207
 30
0.0
 11
1057.952745115871
 21
1554.687234995208
 31
0.0
  0
LINE
  5
2AB
330
17
100
AcDbEntity
  8
4
100
AcDbLine
 10
1073.752745115871
 20
1325.187234995207
 30
0.0
 11
1073.752745115871
 21
1552.187234995207
 31
0.0
  0
ARC
  5
2AC
330
17
100
AcDbEntity
  8
4
100
AcDbCircle
 10
1080.877366240592
 20
1495.664739587307
 30
0.0
 40
3.875378875279244
100
AcDbArc
 50
314.9559267627452
 51
45.04407323725481
  0
LINE
  5
2AD
330
17
100
AcDbEntity
  8
4
100
AcDbLine
 10
1073.752745115871
 20
1498.407153365957
 30
0.0
 11
1073.752745115871
 21
1476.467843136752
 31
0.0
  0
LINE
  5
2AE
330
17
100
AcDbEntity
  8
4
100
AcDbLine
 10
1084.752745115871
 20
1479.210256915402
 30
0.0
 11
1084.752745115871
 21
1495.664739587307
 31
0.0
  0
LINE
  5
2AF
330
17
100
AcDbEntity
  8
4
100
AcDbLine
 10
1076.752745115871
 20
1498.407153365957
 30
0.0
 11
1076.752745115871
 21
1476.467843136752
 31
0.0
  0
LINE
  5
2B0
330
17
100
AcDbEntity
  8
4
100
AcDbLine
 10
807.9527451158715
 20
1796.687234995207
 30
0.0
 11
805.9527451158715
 21
1798.687234995207
 31
0.0
  0
LINE
  5
2B1
330
17
100
AcDbEntity
  8
4
100
AcDbLine
 10
714.9527451158715
 20
1796.687234995207
 30
0.0
 11
716.9527451158715
 21
1798.687234995207
 31
0.0
  0
LINE
  5
2B2
330
17
100
AcDbEntity
  8
4
100
AcDbLine
 10
714.9527451158715
 20
1796.687234995207
 30
0.0
 11
749.4527451158715
 21
1796.687234995207
 31
0.0
  0
LINE
  5
2B3
330
17
100
AcDbEntity
  8
4
100
AcDbLine
 10
716.9527451158715
 20
1798.687234995207
 30
0.0
 11
805.9527451158715
 21
1798.687234995207
 31
0.0
  0
LINE
  5
2B4
330
17
100
AcDbEntity
  8
4
100
AcDbLine
 10
773.4527451158715
 20
1796.687234995207
 30
0.0
 11
807.9527451158715
 21
1796.687234995207
 31
0.0
  0
ARC
  5
2B5
330
17
100
AcDbEntity
  8
4
100
AcDbCircle
 10
1025.452745115871
 20
1618.687234995207
 30
0.0
 40
10.0
100
AcDbArc
 50
0.0
 51
90.0
  0
LINE
  5
2B6
330
17
100
AcDbEntity
  8
4
100
AcDbLine
 10
1048.179986451823
 20
1595.987234995207
 30
0.0
 11
1031.72550377992
 21
1595.987234995207
 31
0.0
  0
LINE
  5
2B7
330
17
100
AcDbEntity
  8
4
100
AcDbLine
 10
1028.983090001269
 20
1584.987234995207
 30
0.0
 11
1050.922400230474
 21
1584.987234995207
 31
0.0
  0
ARC
  5
2B8
330
17
100
AcDbEntity
  8
4
100
AcDbCircle
 10
1031.72550377992
 20
1592.111856119928
 30
0.0
 40
3.875378875279244
100
AcDbArc
 50
44.9559267627547
 51
135.0440732372572
  0
LINE
  5
2B9
330
17
100
AcDbEntity
  8
4
100
AcDbLine
 10
1028.983090001269
 20
1587.987234995207
 30
0.0
 11
1050.922400230474
 21
1587.987234995207
 31
0.0
  0
LINE
  5
2BA
330
17
100
AcDbEntity
  8
4
100
AcDbLine
 10
1028.983090001269
 20
1594.850054084581
 30
0.0
 11
1028.983090001269
 21
1584.987234995207
 31
0.0
  0
ARC
  5
2BB
330
17
100
AcDbEntity
  8
4
100
AcDbCircle
 10
1048.179986451824
 20
1592.111856119928
 30
0.0
 40
3.875378875279264
100
AcDbArc
 50
44.9559267627547
 51
135.0440732372572
  0
LINE
  5
2BC
330
17
100
AcDbEntity
  8
4
100
AcDbLine
 10
1045.437572673174
 20
1594.850054084581
 30
0.0
 11
1045.437572673174
 21
1587.987234995207
 31
0.0
  0
LINE
  5
2BD
330
17
100
AcDbEntity
  8
4
100
AcDbLine
 10
1050.922400230474
 20
1584.987234995207
 30
0.0
 11
1050.922400230474
 21
1594.850054084581
 31
0.0
  0
LINE
  5
2BE
330
17
100
AcDbEntity
  8
4
100
AcDbLine
 10
1034.467917558569
 20
1594.850054084581
 30
0.0
 11
1034.467917558569
 21
1587.987234995207
 31
0.0
  0
ARC
  5
2BF
330
17
100
AcDbEntity
  8
4
100
AcDbCircle
 10
1039.952745115872
 20
1582.19149086003
 30
0.0
 40
13.7957441351769
100
AcDbArc
 50
66.57340249137289
 51
113.4265975086271
  0
LINE
  5
2C0
330
17
100
AcDbEntity
  8
L-CENTER
 48
2.0
100
AcDbLine
 10
1039.952745115871
 20
1599.588074875311
 30
0.0
 11
1039.952745115871
 21
1545.310621237266
 31
0.0
  0
ARC
  5
2C1
330
17
100
AcDbEntity
  8
4
100
AcDbCircle
 10
941.4527451158715
 20
1588.687234995207
 30
0.0
 40
13.0
100
AcDbArc
 50
24.83251994856615
 51
139.0693566480893
  0
LINE
  5
2C2
330
17
100
AcDbEntity
  8
4
100
AcDbLine
 10
1035.452745115871
 20
1618.687234995207
 30
0.0
 11
1035.452745115871
 21
1595.987234995207
 31
0.0
  0
LINE
  5
2C3
330
17
100
AcDbEntity
  8
L-CENTER
 48
2.0
100
AcDbLine
 10
941.4527451158715
 20
1615.987234995207
 30
0.0
 11
941.4527451158715
 21
1561.387234995207
 31
0.0
  0
ARC
  5
2C4
330
17
100
AcDbEntity
  8
4
100
AcDbCircle
 10
868.6863672683444
 20
1627.987234995207
 30
0.0
 40
1.0
100
AcDbArc
 50
15.06848815950598
 51
90.0
  0
LINE
  5
2C5
330
17
100
AcDbEntity
  8
4
100
AcDbLine
 10
826.4527451158715
 20
1628.987234995207
 30
0.0
 11
826.4527451158715
 21
1629.987234995207
 31
0.0
  0
LINE
  5
2C6
330
17
100
AcDbEntity
  8
4
100
AcDbLine
 10
808.9527451158706
 20
1629.987234995207
 30
0.0
 11
808.9527451158715
 21
1638.687234995207
 31
0.0
  0
ARC
  5
2C7
330
17
100
AcDbEntity
  8
4
100
AcDbCircle
 10
808.9527451158715
 20
1639.687234995207
 30
0.0
 40
1.0
100
AcDbArc
 50
180.0
 51
270.0
  0
LINE
  5
2C8
330
17
100
AcDbEntity
  8
4
100
AcDbLine
 10
808.9527451158715
 20
1638.687234995207
 30
0.0
 11
808.9527451158715
 21
1638.687234995207
 31
0.0
  0
LINE
  5
2C9
330
17
100
AcDbEntity
  8
4
100
AcDbLine
 10
906.1875726731737
 20
1594.850054084581
 30
0.0
 11
906.1875726731737
 21
1587.987234995207
 31
0.0
  0
LINE
  5
2CA
330
17
100
AcDbEntity
  8
4
100
AcDbLine
 10
911.672400230475
 20
1584.987234995207
 30
0.0
 11
911.672400230475
 21
1594.850054084581
 31
0.0
  0
ARC
  5
2CB
330
17
100
AcDbEntity
  8
4
100
AcDbCircle
 10
908.9299864518239
 20
1592.111856119928
 30
0.0
 40
3.875378875279264
100
AcDbArc
 50
44.95592676275351
 51
135.0440732372572
  0
ARC
  5
2CC
330
17
100
AcDbEntity
  8
4
100
AcDbCircle
 10
878.0405977712885
 20
1604.782589142418
 30
0.0
 40
2.0
100
AcDbArc
 50
195.0684881594925
 51
261.9509382983153
  0
LINE
  5
2CD
330
17
100
AcDbEntity
  8
4
100
AcDbLine
 10
895.2179175585702
 20
1594.850054084581
 30
0.0
 11
895.2179175585702
 21
1587.987234995207
 31
0.0
  0
LINE
  5
2CE
330
17
100
AcDbEntity
  8
4
100
AcDbLine
 10
889.7330900012689
 20
1594.850054084581
 30
0.0
 11
889.7330900012689
 21
1584.987234995207
 31
0.0
  0
ARC
  5
2CF
330
17
100
AcDbEntity
  8
4
100
AcDbCircle
 10
892.47550377992
 20
1592.111856119928
 30
0.0
 40
3.875378875279244
100
AcDbArc
 50
44.95592676274281
 51
135.044073237256
  0
LINE
  5
2D0
330
17
100
AcDbEntity
  8
4
100
AcDbLine
 10
889.7330900012689
 20
1584.987234995207
 30
0.0
 11
911.672400230475
 21
1584.987234995207
 31
0.0
  0
LINE
  5
2D1
330
17
100
AcDbEntity
  8
4
100
AcDbLine
 10
889.7330900012689
 20
1587.987234995207
 30
0.0
 11
911.672400230475
 21
1587.987234995207
 31
0.0
  0
LINE
  5
2D2
330
17
100
AcDbEntity
  8
4
100
AcDbLine
 10
908.9299864518239
 20
1595.987234995207
 30
0.0
 11
892.47550377992
 21
1595.987234995207
 31
0.0
  0
ARC
  5
2D3
330
17
100
AcDbEntity
  8
4
100
AcDbCircle
 10
900.7027451158724
 20
1582.19149086003
 30
0.0
 40
13.7957441351769
100
AcDbArc
 50
66.57340249137289
 51
113.4265975086271
  0
LINE
  5
2D4
330
17
100
AcDbEntity
  8
L-CENTER
 48
2.0
100
AcDbLine
 10
900.7027451158724
 20
1599.588074875311
 30
0.0
 11
900.7027451158724
 21
1545.310621237266
 31
0.0
  0
LINE
  5
2D5
330
17
100
AcDbEntity
  8
4
100
AcDbLine
 10
876.1093662542476
 20
1604.262642195523
 30
0.0
 11
869.6519830268658
 21
1628.247208468656
 31
0.0
  0
LINE
  5
2D6
330
17
100
AcDbEntity
  8
L-CENTER
 48
2.0
100
AcDbLine
 10
968.7527451158708
 20
1588.687234995207
 30
0.0
 11
914.1527451158722
 21
1588.687234995207
 31
0.0
  0
LINE
  5
2D7
330
17
100
AcDbEntity
  8
4
100
AcDbLine
 10
1025.452745115871
 20
1628.687234995207
 30
0.0
 11
869.4005101111984
 21
1628.687234995207
 31
0.0
  0
LINE
  5
2D8
330
17
100
AcDbEntity
  8
4
100
AcDbLine
 10
1003.738459401582
 20
1584.987234995207
 30
0.0
 11
877.7605557618367
 21
1602.802292075576
 31
0.0
  0
LINE
  5
2D9
330
17
100
AcDbEntity
  8
4
100
AcDbLine
 10
1018.022030669429
 20
1584.987234995207
 30
0.0
 11
876.7327871253233
 21
1604.967532062049
 31
0.0
  0
ARC
  5
2DA
330
17
100
AcDbEntity
  8
4
100
AcDbCircle
 10
941.4527451158715
 20
1288.687234995207
 30
0.0
 40
13.0
100
AcDbArc
 50
215.7272285348463
 51
341.8810499694306
  0
ARC
  5
2DB
330
17
100
AcDbEntity
  8
4
100
AcDbCircle
 10
878.045496869599
 20
1272.910077498863
 30
0.0
 40
2.0
100
AcDbArc
 50
98.80413925214573
 51
164.9315118405074
  0
LINE
  5
2DC
330
17
100
AcDbEntity
  8
4
100
AcDbLine
 10
861.4527451158715
 20
1274.687234995208
 30
0.0
 11
861.4527451158715
 21
1289.518234995208
 31
0.0
  0
LINE
  5
2DD
330
17
100
AcDbEntity
  8
4
100
AcDbLine
 10
853.4527451158715
 20
1275.436234995207
 30
0.0
 11
853.4527451158715
 21
1288.293234995207
 31
0.0
  0
LINE
  5
2DE
330
17
100
AcDbEntity
  8
4
100
AcDbLine
 10
837.4527451158715
 20
1283.854999676207
 30
0.0
 11
837.4527451158715
 21
1279.875470278208
 31
0.0
  0
LINE
  5
2DF
330
17
100
AcDbEntity
  8
4
100
AcDbLine
 10
845.4527451158715
 20
1283.854999676207
 30
0.0
 11
845.4527451158715
 21
1279.875470278207
 31
0.0
  0
LINE
  5
2E0
330
17
100
AcDbEntity
  8
4
100
AcDbLine
 10
824.4579385511056
 20
1289.518234995208
 30
0.0
 11
820.9744844221091
 21
1294.687230995208
 31
0.0
  0
LINE
  5
2E1
330
17
100
AcDbEntity
  8
4
100
AcDbLine
 10
811.4527451158715
 20
1283.854999676206
 30
0.0
 11
811.4527451158715
 21
1279.875470278206
 31
0.0
  0
LINE
  5
2E2
330
17
100
AcDbEntity
  8
4
100
AcDbLine
 10
803.4527451158715
 20
1283.854999676207
 30
0.0
 11
803.4527451158706
 21
1279.875470278207
 31
0.0
  0
LINE
  5
2E3
330
17
100
AcDbEntity
  8
4
100
AcDbLine
 10
861.4527451158715
 20
1289.518234995208
 30
0.0
 11
824.4579385511056
 21
1289.518234995208
 31
0.0
  0
ELLIPSE
  5
2E4
330
17
100
AcDbEntity
  8
4
100
AcDbEllipse
 10
824.4527451158715
 20
1283.854999676207
 30
0.0
 11
-13.0
 21
0.0
 31
0.0
210
0.0
220
0.0
230
1.0
 40
0.1530588230000026
 41
3.141592653589793
 42
6.283185307179586
  0
ELLIPSE
  5
2E5
330
17
100
AcDbEntity
  8
4
100
AcDbEllipse
 10
824.4527451158715
 20
1279.875470278207
 30
0.0
 11
-13.0
 21
0.0
 31
0.0
210
0.0
220
0.0
230
1.0
 40
0.1530588230000026
 41
0.0
 42
3.141592653589793
  0
ELLIPSE
  5
2E6
330
17
100
AcDbEntity
  8
4
100
AcDbEllipse
 10
824.4527451158715
 20
1283.854999676207
 30
0.0
 11
-21.0
 21
0.0
 31
0.0
210
0.0
220
0.0
230
1.0
 40
0.1530588230000051
 41
3.141592653589793
 42
6.283185307179586
  0
ELLIPSE
  5
2E7
330
17
100
AcDbEntity
  8
4
100
AcDbEllipse
 10
824.4527451158715
 20
1279.875470278207
 30
0.0
 11
-21.0
 21
0.0
 31
0.0
210
0.0
220
0.0
230
1.0
 40
0.1530588230000051
 41
0.0
 42
3.141592653589793
  0
LINE
  5
2E8
330
17
100
AcDbEntity
  8
L-CENTER
 48
2.0
100
AcDbLine
 10
968.7527451158708
 20
1288.687234995207
 30
0.0
 11
914.1527451158722
 21
1288.687234995207
 31
0.0
  0
LINE
  5
2E9
330
17
100
AcDbEntity
  8
4
100
AcDbLine
 10
1018.65018766122
 20
1294.687234995207
 30
0.0
 11
875.8841536970062
 21
1272.575324010851
 31
0.0
  0
LINE
  5
2EA
330
17
100
AcDbEntity
  8
4
100
AcDbLine
 10
1005.58317989848
 20
1294.687234995207
 30
0.0
 11
877.7393824115202
 21
1274.886512152109
 31
0.0
  0
ARC
  5
2EB
330
17
100
AcDbEntity
  8
4
100
AcDbCircle
 10
761.4527451158715
 20
1660.687234995207
 30
0.0
 40
12.0
100
AcDbArc
 50
180.0
 51
0.0
  0
LINE
  5
2EC
330
17
100
AcDbEntity
  8
4
100
AcDbLine
 10
713.9527451158715
 20
1629.987234995206
 30
0.0
 11
713.9527451158715
 21
1638.687234995207
 31
0.0
  0
LINE
  5
2ED
330
17
100
AcDbEntity
  8
4
100
AcDbLine
 10
713.9527451158715
 20
1638.687234995207
 30
0.0
 11
713.9527451158715
 21
1638.687234995207
 31
0.0
  0
ARC
  5
2EE
330
17
100
AcDbEntity
  8
4
100
AcDbCircle
 10
713.9527451158715
 20
1639.687234995207
 30
0.0
 40
1.0
100
AcDbArc
 50
270.0
 51
0.0
  0
LINE
  5
2EF
330
17
100
AcDbEntity
  8
4
100
AcDbLine
 10
696.4527451158706
 20
1628.987234995207
 30
0.0
 11
696.4527451158715
 21
1629.987234995207
 31
0.0
  0
LINE
  5
2F0
330
17
100
AcDbEntity
  8
4
100
AcDbLine
 10
786.4527451158715
 20
1594.987234995207
 30
0.0
 11
786.4527451158715
 21
1587.330366285608
 31
0.0
  0
LINE
  5
2F1
330
17
100
AcDbEntity
  8
4
100
AcDbLine
 10
761.4527451158715
 20
1557.987234995207
 30
0.0
 11
761.4527451158715
 21
1557.987234995207
 31
0.0
  0
LINE
  5
2F2
330
17
100
AcDbEntity
  8
4
100
AcDbLine
 10
761.4527451158715
 20
1557.987234995207
 30
0.0
 11
761.4527451158715
 21
1557.987234995207
 31
0.0
  0
LINE
  5
2F3
330
17
100
AcDbEntity
  8
4
100
AcDbLine
 10
736.4527451158715
 20
1587.330366285608
 30
0.0
 11
736.4527451158715
 21
1594.987234995207
 31
0.0
  0
LINE
  5
2F4
330
17
100
AcDbEntity
  8
4
100
AcDbLine
 10
736.4527451158715
 20
1594.401073356315
 30
0.0
 11
736.4527451158715
 21
1594.401073356315
 31
0.0
  0
LINE
  5
2F5
330
17
100
AcDbEntity
  8
4
100
AcDbLine
 10
786.4527451158715
 20
1587.330366285608
 30
0.0
 11
736.4527451158715
 21
1587.330366285608
 31
0.0
  0
LINE
  5
2F6
330
17
100
AcDbEntity
  8
4
100
AcDbLine
 10
786.4527451158715
 20
1594.987234995207
 30
0.0
 11
736.4527451158715
 21
1594.987234995207
 31
0.0
  0
ARC
  5
2F7
330
17
100
AcDbEntity
  8
4
100
AcDbCircle
 10
654.2191229633968
 20
1627.987234995207
 30
0.0
 40
1.0
100
AcDbArc
 50
90.0
 51
164.931511840494
  0
ARC
  5
2F8
330
17
100
AcDbEntity
  8
4
100
AcDbCircle
 10
644.8648924604527
 20
1604.782589142418
 30
0.0
 40
2.0
100
AcDbArc
 50
278.0490617016579
 51
344.9315118405075
  0
LINE
  5
2F9
330
17
100
AcDbEntity
  8
4
100
AcDbLine
 10
633.1724002304732
 20
1594.850054084581
 30
0.0
 11
633.1724002304732
 21
1584.987234995207
 31
0.0
  0
ARC
  5
2FA
330
17
100
AcDbEntity
  8
4
100
AcDbCircle
 10
630.4299864518221
 20
1592.111856119928
 30
0.0
 40
3.875378875279244
100
AcDbArc
 50
44.95592676274281
 51
135.0440732372465
  0
LINE
  5
2FB
330
17
100
AcDbEntity
  8
4
100
AcDbLine
 10
627.6875726731719
 20
1594.850054084581
 30
0.0
 11
627.6875726731719
 21
1587.987234995207
 31
0.0
  0
LINE
  5
2FC
330
17
100
AcDbEntity
  8
L-CENTER
 48
2.0
100
AcDbLine
 10
622.2027451158697
 20
1599.588074875311
 30
0.0
 11
622.2027451158697
 21
1545.310621237266
 31
0.0
  0
LINE
  5
2FD
330
17
100
AcDbEntity
  8
4
100
AcDbLine
 10
611.2330900012671
 20
1584.987234995207
 30
0.0
 11
611.2330900012671
 21
1594.850054084581
 31
0.0
  0
ARC
  5
2FE
330
17
100
AcDbEntity
  8
4
100
AcDbCircle
 10
613.9755037799182
 20
1592.111856119928
 30
0.0
 40
3.875378875279264
100
AcDbArc
 50
44.95592676274281
 51
135.0440732372572
  0
LINE
  5
2FF
330
17
100
AcDbEntity
  8
4
100
AcDbLine
 10
616.7179175585684
 20
1594.850054084581
 30
0.0
 11
616.7179175585684
 21
1587.987234995207
 31
0.0
  0
LINE
  5
300
330
17
100
AcDbEntity
  8
4
100
AcDbLine
 10
581.4527451158715
 20
1595.815214770457
 30
0.0
 11
581.4527451158715
 21
1597.987234995207
 31
0.0
  0
ARC
  5
301
330
17
100
AcDbEntity
  8
4
100
AcDbCircle
 10
581.4527451158715
 20
1588.687234995207
 30
0.0
 40
13.0
100
AcDbArc
 50
40.93064335191357
 51
134.3252713414577
  0
LINE
  5
302
330
17
100
AcDbEntity
  8
4
100
AcDbLine
 10
633.1724002304732
 20
1584.987234995207
 30
0.0
 11
611.2330900012671
 21
1584.987234995207
 31
0.0
  0
ARC
  5
303
330
17
100
AcDbEntity
  8
4
100
AcDbCircle
 10
622.2027451158697
 20
1582.19149086003
 30
0.0
 40
13.7957441351769
100
AcDbArc
 50
66.57340249137289
 51
113.4265975086271
  0
LINE
  5
304
330
17
100
AcDbEntity
  8
4
100
AcDbLine
 10
613.9755037799182
 20
1595.987234995207
 30
0.0
 11
630.4299864518221
 21
1595.987234995207
 31
0.0
  0
LINE
  5
305
330
17
100
AcDbEntity
  8
4
100
AcDbLine
 10
633.1724002304732
 20
1587.987234995207
 30
0.0
 11
611.2330900012671
 21
1587.987234995207
 31
0.0
  0
LINE
  5
306
330
17
100
AcDbEntity
  8
L-CENTER
 48
2.0
100
AcDbLine
 10
581.4527451158715
 20
1615.987234995207
 30
0.0
 11
581.4527451158715
 21
1561.387234995207
 31
0.0
  0
LINE
  5
307
330
17
100
AcDbEntity
  8
4
100
AcDbLine
 10
646.7961239774936
 20
1604.262642195523
 30
0.0
 11
653.2535072048754
 21
1628.247208468656
 31
0.0
  0
ARC
  5
308
330
17
100
AcDbEntity
  8
4
100
AcDbCircle
 10
761.4527451158715
 20
1438.687234995207
 30
0.0
 40
20.0
100
AcDbArc
 50
29.99999999999988
 51
150.0000000000001
  0
ARC
  5
309
330
17
100
AcDbEntity
  8
4
100
AcDbCircle
 10
761.4527451158715
 20
1438.687234995207
 30
0.0
 40
20.0
100
AcDbArc
 50
209.9999999999999
 51
330.0000000000002
  0
ARC
  5
30A
330
17
100
AcDbEntity
  8
4
100
AcDbCircle
 10
726.4527451158715
 20
1438.687234995207
 30
0.0
 40
10.0
100
AcDbArc
 50
90.0
 51
270.0
  0
ARC
  5
30B
330
17
100
AcDbEntity
  8
4
100
AcDbCircle
 10
761.4527451158715
 20
1438.687234995207
 30
0.0
 40
25.0
100
AcDbArc
 50
23.57817847820185
 51
156.4218215217994
  0
LINE
  5
30C
330
17
100
AcDbEntity
  8
4
100
AcDbLine
 10
726.4527451158715
 20
1428.687234995207
 30
0.0
 11
796.4527451158715
 21
1428.687234995207
 31
0.0
  0
ARC
  5
30D
330
17
100
AcDbEntity
  8
4
100
AcDbCircle
 10
761.4527451158715
 20
1438.687234995207
 30
0.0
 40
22.5
100
AcDbArc
 50
206.387799961243
 51
333.612200038757
  0
LINE
  5
30E
330
17
100
AcDbEntity
  8
4
100
AcDbLine
 10
726.4527451158715
 20
1448.687234995207
 30
0.0
 11
796.4527451158715
 21
1448.687234995207
 31
0.0
  0
ARC
  5
30F
330
17
100
AcDbEntity
  8
4
100
AcDbCircle
 10
761.4527451158715
 20
1438.687234995207
 30
0.0
 40
22.5
100
AcDbArc
 50
26.38779996124302
 51
153.612200038757
  0
ARC
  5
310
330
17
100
AcDbEntity
  8
4
100
AcDbCircle
 10
761.4527451158715
 20
1438.687234995207
 30
0.0
 40
25.0
100
AcDbArc
 50
203.5781784782006
 51
336.4218215217981
  0
LINE
  5
311
330
17
100
AcDbEntity
  8
4
100
AcDbLine
 10
781.4527451158715
 20
1282.477470269207
 30
0.0
 11
781.4527451158715
 21
1281.252999685207
 31
0.0
  0
LINE
  5
312
330
17
100
AcDbEntity
  8
4
100
AcDbLine
 10
795.4527451158715
 20
1287.069234959207
 30
0.0
 11
787.4527451158715
 21
1287.069234959207
 31
0.0
  0
LINE
  5
313
330
17
100
AcDbEntity
  8
4
100
AcDbLine
 10
787.4527451158715
 20
1276.661234995207
 30
0.0
 11
795.4527451158715
 21
1276.661234995207
 31
0.0
  0
LINE
  5
314
330
17
100
AcDbEntity
  8
4
100
AcDbLine
 10
795.4527451158715
 20
1287.069234959207
 30
0.0
 11
795.4527451158715
 21
1276.661234995207
 31
0.0
  0
LINE
  5
315
330
17
100
AcDbEntity
  8
4
100
AcDbLine
 10
787.4527451158715
 20
1287.069234959207
 30
0.0
 11
787.4527451158715
 21
1276.661234995207
 31
0.0
  0
LINE
  5
316
330
17
100
AcDbEntity
  8
4
100
AcDbLine
 10
745.4527451158715
 20
1287.069234959207
 30
0.0
 11
766.4527451158715
 21
1276.661234995207
 31
0.0
  0
LINE
  5
317
330
17
100
AcDbEntity
  8
4
100
AcDbLine
 10
758.0799435400309
 20
1276.661234995207
 30
0.0
 11
766.4527451158715
 21
1276.661234995207
 31
0.0
  0
LINE
  5
318
330
17
100
AcDbEntity
  8
4
100
AcDbLine
 10
741.4527451158715
 20
1284.901991214259
 30
0.0
 11
749.4328847165029
 21
1280.946882039207
 31
0.0
  0
LINE
  5
319
330
17
100
AcDbEntity
  8
4
100
AcDbLine
 10
751.9034729517957
 20
1279.722411455207
 30
0.0
 11
758.0799435400309
 21
1276.661234995207
 31
0.0
  0
LINE
  5
31A
330
17
100
AcDbEntity
  8
4
100
AcDbLine
 10
767.4527451158715
 20
1282.477470269207
 30
0.0
 11
767.4527451158715
 21
1281.252999685207
 31
0.0
  0
LINE
  5
31B
330
17
100
AcDbEntity
  8
4
100
AcDbLine
 10
781.4527451158715
 20
1281.252999685207
 30
0.0
 11
767.4527451158715
 21
1281.252999685207
 31
0.0
  0
LINE
  5
31C
330
17
100
AcDbEntity
  8
4
100
AcDbLine
 10
781.4527451158715
 20
1282.477470269207
 30
0.0
 11
767.4527451158715
 21
1282.477470269207
 31
0.0
  0
LINE
  5
31D
330
17
100
AcDbEntity
  8
4
100
AcDbLine
 10
716.4527451158715
 20
1276.661234995207
 30
0.0
 11
737.4527451158715
 21
1287.069234959207
 31
0.0
  0
LINE
  5
31E
330
17
100
AcDbEntity
  8
4
100
AcDbLine
 10
724.8255466917103
 20
1276.661234995207
 30
0.0
 11
731.0020172799454
 21
1279.722411455207
 31
0.0
  0
LINE
  5
31F
330
17
100
AcDbEntity
  8
4
100
AcDbLine
 10
716.4527451158715
 20
1276.661234995207
 30
0.0
 11
724.8255466917103
 21
1276.661234995207
 31
0.0
  0
LINE
  5
320
330
17
100
AcDbEntity
  8
4
100
AcDbLine
 10
713.4527451158706
 20
1277.885705579208
 30
0.0
 11
713.4527451158715
 21
1276.661234995207
 31
0.0
  0
LINE
  5
321
330
17
100
AcDbEntity
  8
4
100
AcDbLine
 10
698.4475516806374
 20
1289.518234995207
 30
0.0
 11
701.931005809633
 21
1294.687230995207
 31
0.0
  0
LINE
  5
322
330
17
100
AcDbEntity
  8
4
100
AcDbLine
 10
685.4527451158715
 20
1287.069234959207
 30
0.0
 11
685.4527451158715
 21
1277.885705579207
 31
0.0
  0
LINE
  5
323
330
17
100
AcDbEntity
  8
4
100
AcDbLine
 10
685.4527451158715
 20
1277.885705579207
 30
0.0
 11
713.4527451158706
 21
1277.885705579208
 31
0.0
  0
LINE
  5
324
330
17
100
AcDbEntity
  8
4
100
AcDbLine
 10
733.4726055152382
 20
1280.946882039207
 30
0.0
 11
741.4527451158715
 21
1284.901991214259
 31
0.0
  0
LINE
  5
325
330
17
100
AcDbEntity
  8
4
100
AcDbLine
 10
749.4328847165029
 20
1280.946882039207
 30
0.0
 11
733.4726055152382
 21
1280.946882039207
 31
0.0
  0
LINE
  5
326
330
17
100
AcDbEntity
  8
4
100
AcDbLine
 10
751.9034729517957
 20
1279.722411455207
 30
0.0
 11
731.0020172799454
 21
1279.722411455208
 31
0.0
  0
LINE
  5
327
330
17
100
AcDbEntity
  8
4
100
AcDbLine
 10
745.4527451158715
 20
1287.069234959207
 30
0.0
 11
737.4527451158715
 21
1287.069234959208
 31
0.0
  0
LINE
  5
328
330
17
100
AcDbEntity
  8
L-CENTER
 48
2.0
100
AcDbLine
 10
621.4527451158715
 20
1402.652820706887
 30
0.0
 11
621.4527451158715
 21
1474.721649283528
 31
0.0
  0
CIRCLE
  5
329
330
17
100
AcDbEntity
  8
4
100
AcDbCircle
 10
621.4527451158715
 20
1438.687234995207
 30
0.0
 40
25.0
  0
CIRCLE
  5
32A
330
17
100
AcDbEntity
  8
4
100
AcDbCircle
 10
621.4527451158715
 20
1438.687234995207
 30
0.0
 40
23.0
  0
LWPOLYLINE
  5
32B
330
17
100
AcDbEntity
  8
4
100
AcDbPolyline
 90
        6
 70
     1
 43
0.0
 10
644.4527451158715
 20
1438.687234995207
 10
632.9527451158715
 20
1458.605819282249
 10
609.9527451158715
 20
1458.605819282249
 10
598.4527451158715
 20
1438.687234995207
 10
609.9527451158715
 20
1418.768650708165
 10
632.9527451158715
 20
1418.768650708165
  0
LINE
  5
32C
330
17
100
AcDbEntity
  8
4
100
AcDbLine
 10
661.4527451158706
 20
1274.687234995207
 30
0.0
 11
661.4527451158715
 21
1289.518234995207
 31
0.0
  0
LINE
  5
32D
330
17
100
AcDbEntity
  8
4
100
AcDbLine
 10
669.4527451158715
 20
1275.436234995207
 30
0.0
 11
669.4527451158715
 21
1288.293234995207
 31
0.0
  0
LINE
  5
32E
330
17
100
AcDbEntity
  8
4
100
AcDbLine
 10
677.4527451158715
 20
1287.069234959207
 30
0.0
 11
677.4527451158715
 21
1276.661234995207
 31
0.0
  0
ARC
  5
32F
330
17
100
AcDbEntity
  8
4
100
AcDbCircle
 10
644.8599933621431
 20
1272.910077498863
 30
0.0
 40
2.0
100
AcDbArc
 50
15.06848815949257
 51
81.19586074785427
  0
ARC
  5
330
330
17
100
AcDbEntity
  8
4
100
AcDbCircle
 10
581.4527451158715
 20
1288.687234995207
 30
0.0
 40
13.0
100
AcDbArc
 50
198.1189500305673
 51
324.2727714651537
  0
LINE
  5
331
330
17
100
AcDbEntity
  8
4
100
AcDbLine
 10
698.4475516806374
 20
1289.518234995207
 30
0.0
 11
661.4527451158715
 21
1289.518234995207
 31
0.0
  0
LINE
  5
332
330
17
100
AcDbEntity
  8
4
100
AcDbLine
 10
677.4527451158715
 20
1276.661234995207
 30
0.0
 11
713.4527451158715
 21
1276.661234995207
 31
0.0
  0
LINE
  5
333
330
17
100
AcDbEntity
  8
4
100
AcDbLine
 10
677.4527451158715
 20
1287.069234959207
 30
0.0
 11
685.4527451158715
 21
1287.069234959207
 31
0.0
  0
LINE
  5
334
330
17
100
AcDbEntity
  8
4
100
AcDbLine
 10
696.4527451158715
 20
1629.987234995207
 30
0.0
 11
826.4527451158715
 21
1629.987234995207
 31
0.0
  0
LINE
  5
335
330
17
100
AcDbEntity
  8
4
100
AcDbLine
 10
654.2191229633968
 20
1602.987234995207
 30
0.0
 11
868.6863672683444
 21
1602.987234995207
 31
0.0
  0
LINE
  5
336
330
17
100
AcDbEntity
  8
4
100
AcDbLine
 10
654.2191229633968
 20
1628.987234995207
 30
0.0
 11
868.6863672683444
 21
1628.987234995207
 31
0.0
  0
ARC
  5
337
330
17
100
AcDbEntity
  8
4
100
AcDbCircle
 10
796.4527451158715
 20
1438.687234995207
 30
0.0
 40
10.0
100
AcDbArc
 50
270.0
 51
90.0
  0
LINE
  5
338
330
17
100
AcDbEntity
  8
4
100
AcDbLine
 10
713.9527451158715
 20
1638.687234995207
 30
0.0
 11
808.9527451158715
 21
1638.687234995207
 31
0.0
  0
LINE
  5
339
330
17
100
AcDbEntity
  8
4
100
AcDbLine
 10
645.7774415804029
 20
1274.687234995207
 30
0.0
 11
877.1280486513401
 21
1274.687234995208
 31
0.0
  0
LINE
  5
33A
330
17
100
AcDbEntity
  8
4
100
AcDbLine
 10
853.4527451158715
 20
1275.436234995207
 30
0.0
 11
669.4527451158715
 21
1275.436234995207
 31
0.0
  0
LINE
  5
33B
330
17
100
AcDbEntity
  8
4
100
AcDbLine
 10
853.4527451158715
 20
1288.293234995207
 30
0.0
 11
669.4527451158715
 21
1288.293234995207
 31
0.0
  0
LINE
  5
33C
330
17
100
AcDbEntity
  8
4
100
AcDbLine
 10
714.9527451158715
 20
1639.687234995207
 30
0.0
 11
714.9527451158715
 21
1796.687234995207
 31
0.0
  0
LINE
  5
33D
330
17
100
AcDbEntity
  8
4
100
AcDbLine
 10
749.4527451158715
 20
1798.687234995207
 30
0.0
 11
749.4527451158715
 21
1660.687234995207
 31
0.0
  0
LINE
  5
33E
330
17
100
AcDbEntity
  8
4
100
AcDbLine
 10
773.4527451158715
 20
1798.687234995207
 30
0.0
 11
773.4527451158715
 21
1660.687234995207
 31
0.0
  0
LINE
  5
33F
330
17
100
AcDbEntity
  8
4
100
AcDbLine
 10
807.9527451158715
 20
1639.687234995207
 30
0.0
 11
807.9527451158715
 21
1796.687234995207
 31
0.0
  0
LINE
  5
340
330
17
100
AcDbEntity
  8
L-CENTER
 48
2.0
100
AcDbLine
 10
1091.772887115871
 20
1389.93697173906
 30
0.0
 11
1020.036437115871
 21
1389.93697173906
 31
0.0
  0
LINE
  5
341
330
17
100
AcDbEntity
  8
L-CENTER
 48
2.0
100
AcDbLine
 10
1091.772887115871
 20
1341.187234995207
 30
0.0
 11
1020.036437115872
 21
1341.187234995207
 31
0.0
  0
LINE
  5
342
330
17
100
AcDbEntity
  8
L-CENTER
 48
2.0
100
AcDbLine
 10
1091.772887115871
 20
1536.187234995207
 30
0.0
 11
1020.036437115872
 21
1536.187234995207
 31
0.0
  0
LINE
  5
343
330
17
100
AcDbEntity
  8
L-CENTER
 48
2.0
100
AcDbLine
 10
1091.772887115871
 20
1487.437498251354
 30
0.0
 11
1020.036437115871
 21
1487.437498251354
 31
0.0
  0
ARC
  5
347
330
17
100
AcDbEntity
  8
4
100
AcDbCircle
 10
1025.452745115871
 20
1258.687234995207
 30
0.0
 40
10.0
100
AcDbArc
 50
270.0
 51
0.0
  0
ARC
  5
348
330
17
100
AcDbEntity
  8
4
100
AcDbCircle
 10
867.9199894208191
 20
1250.687234995208
 30
0.0
 40
2.0
100
AcDbArc
 50
270.0
 51
344.9315118405075
  0
LINE
  5
349
330
17
100
AcDbEntity
  8
4
100
AcDbLine
 10
861.4527451158715
 20
1248.687234995207
 30
0.0
 11
1025.452745115871
 21
1248.687234995207
 31
0.0
  0
ARC
  5
34A
330
17
100
AcDbEntity
  8
4
100
AcDbCircle
 10
654.985500810923
 20
1250.687234995208
 30
0.0
 40
2.0
100
AcDbArc
 50
195.0684881594925
 51
270.0
  0
LINE
  5
34C
330
17
100
AcDbEntity
  8
4
100
AcDbLine
 10
868.6863891158714
 20
1248.687234995207
 30
0.0
 11
654.2191011158716
 21
1248.687234995207
 31
0.0
  0
ARC
  5
34E
330
17
100
AcDbEntity
  8
4
100
AcDbCircle
 10
1019.033801115871
 20
787.4258163012735
 30
0.0
 40
5.000052
100
AcDbArc
 50
15.00385500000127
 51
74.99614499999373
  0
ARC
  5
34F
330
17
100
AcDbEntity
  8
4
100
AcDbCircle
 10
823.5192378443985
 20
781.813013222906
 30
0.0
 40
4.0
100
AcDbArc
 50
76.1620147383712
 51
185.9985940830366
  0
ARC
  5
350
330
17
100
AcDbEntity
  8
4
100
AcDbCircle
 10
850.4527451158715
 20
743.8447603012737
 30
0.0
 40
3.0
100
AcDbArc
 50
0.0
 51
90.0
  0
ARC
  5
351
330
17
100
AcDbEntity
  8
4
100
AcDbCircle
 10
858.4527451158715
 20
751.8447603012737
 30
0.0
 40
3.0
100
AcDbArc
 50
0.0
 51
90.0
  0
ARC
  5
352
330
17
100
AcDbEntity
  8
4
100
AcDbCircle
 10
825.0323024261538
 20
757.8447603012737
 30
0.0
 40
3.0
100
AcDbArc
 50
185.9985940830388
 51
270.0
  0
ARC
  5
353
330
17
100
AcDbEntity
  8
4
100
AcDbCircle
 10
824.4527451158715
 20
717.8447603012737
 30
0.0
 40
13.0
100
AcDbArc
 50
0.0
 51
180.0
  0
ARC
  5
354
330
17
100
AcDbEntity
  8
4
100
AcDbCircle
 10
824.4527451158715
 20
717.8447603012737
 30
0.0
 40
21.0
100
AcDbArc
 50
0.0
 51
180.0
  0
LINE
  5
355
330
17
100
AcDbEntity
  8
4
100
AcDbLine
 10
858.4527451158715
 20
754.8447603012737
 30
0.0
 11
825.0323024261538
 21
754.8447603012737
 31
0.0
  0
LINE
  5
356
330
17
100
AcDbEntity
  8
4
100
AcDbLine
 10
822.0487290462274
 20
757.5312481219419
 30
0.0
 11
819.5411400044954
 21
781.3949969837968
 31
0.0
  0
ARC
  5
357
330
17
100
AcDbEntity
  8
4
100
AcDbCircle
 10
871.9703211158708
 20
603.7583343012734
 30
0.0
 40
1.000044
100
AcDbArc
 50
188.4941080000015
 51
264.0027190000202
  0
ARC
  5
358
330
17
100
AcDbEntity
  8
4
100
AcDbCircle
 10
850.4527451158715
 20
665.8447603012737
 30
0.0
 40
3.0
100
AcDbArc
 50
270.0
 51
0.0
  0
ARC
  5
359
330
17
100
AcDbEntity
  8
4
100
AcDbCircle
 10
824.4527451158715
 20
691.8447603012737
 30
0.0
 40
13.0
100
AcDbArc
 50
180.0
 51
0.0
  0
ARC
  5
35A
330
17
100
AcDbEntity
  8
4
100
AcDbCircle
 10
824.4527451158715
 20
691.8447603012737
 30
0.0
 40
21.0
100
AcDbArc
 50
180.0
 51
0.0
  0
ARC
  5
35B
330
17
100
AcDbEntity
  8
4
100
AcDbCircle
 10
858.0035271158708
 20
626.3955423012735
 30
0.0
 40
1.999902
100
AcDbArc
 50
11.18512099999722
 51
78.81487900000216
  0
LINE
  5
35C
330
17
100
AcDbEntity
  8
4
100
AcDbLine
 10
858.4527451158715
 20
654.8447603012737
 30
0.0
 11
836.1707216226619
 21
654.8447603012737
 31
0.0
  0
ARC
  5
35D
330
17
100
AcDbEntity
  8
4
100
AcDbCircle
 10
858.4527451158715
 20
657.8447603012737
 30
0.0
 40
3.0
100
AcDbArc
 50
270.0
 51
0.0
  0
LINE
  5
35E
330
17
100
AcDbEntity
  8
4
100
AcDbLine
 10
833.6484287964972
 20
647.1414206395916
 30
0.0
 11
833.1871482427355
 21
651.5312481219419
 31
0.0
  0
ARC
  5
35F
330
17
100
AcDbEntity
  8
4
100
AcDbCircle
 10
843.5936733962549
 20
648.1864612373643
 30
0.0
 40
10.0
100
AcDbArc
 50
185.9985940830393
 51
260.7315348759754
  0
ARC
  5
360
330
17
100
AcDbEntity
  8
4
100
AcDbCircle
 10
836.1707216226619
 20
651.8447603012737
 30
0.0
 40
3.0
100
AcDbArc
 50
90.0
 51
185.9985940830388
  0
ARC
  5
361
330
17
100
AcDbEntity
  8
4
100
AcDbCircle
 10
863.8184691158708
 20
632.2104843012735
 30
0.0
 40
1.999986
100
AcDbArc
 50
11.86270200000191
 51
78.13726999999531
  0
LINE
  5
362
330
17
100
AcDbEntity
  8
4
100
AcDbLine
 10
853.4527451158715
 20
743.8447603012737
 30
0.0
 11
853.4527451158715
 21
665.8447603012737
 31
0.0
  0
LINE
  5
363
330
17
100
AcDbEntity
  8
4
100
AcDbLine
 10
861.4527451158715
 20
751.8447603012737
 30
0.0
 11
861.4527451158715
 21
657.8447603012737
 31
0.0
  0
LINE
  5
364
330
17
100
AcDbEntity
  8
4
100
AcDbLine
 10
811.4527451158715
 20
691.8447603012737
 30
0.0
 11
811.4527451158715
 21
717.8447603012737
 31
0.0
  0
LINE
  5
365
330
17
100
AcDbEntity
  8
4
100
AcDbLine
 10
803.4527451158715
 20
691.8447603012737
 30
0.0
 11
803.4527451158715
 21
717.8447603012737
 31
0.0
  0
LINE
  5
366
330
17
100
AcDbEntity
  8
4
100
AcDbLine
 10
845.4527451158715
 20
717.8447603012737
 30
0.0
 11
845.4527451158715
 21
691.8447603012737
 31
0.0
  0
LINE
  5
367
330
17
100
AcDbEntity
  8
4
100
AcDbLine
 10
837.4527451158715
 20
717.8447603012737
 30
0.0
 11
837.4527451158715
 21
691.8447603012737
 31
0.0
  0
LINE
  5
36D
330
17
100
AcDbEntity
  8
4
100
AcDbLine
 10
783.324329115871
 20
852.8447583012735
 30
0.0
 11
783.9527451158715
 21
834.8447583012735
 31
0.0
  0
LINE
  5
36E
330
17
100
AcDbEntity
  8
4
100
AcDbLine
 10
786.4527471158713
 20
834.8447583012735
 30
0.0
 11
786.4527471158713
 21
828.9538923012735
 31
0.0
  0
LINE
  5
36F
330
17
100
AcDbEntity
  8
4
100
AcDbLine
 10
761.4527451158715
 20
854.8447563012733
 30
0.0
 11
783.324329115871
 21
852.8447583012735
 31
0.0
  0
LINE
  5
370
330
17
100
AcDbEntity
  8
4
100
AcDbLine
 10
739.5814071158707
 20
852.8447583012735
 30
0.0
 11
738.9527451158715
 21
834.8447583012735
 31
0.0
  0
LINE
  5
371
330
17
100
AcDbEntity
  8
4
100
AcDbLine
 10
736.4527431158708
 20
834.8447583012735
 30
0.0
 11
736.4527431158708
 21
828.9538923012735
 31
0.0
  0
LINE
  5
372
330
17
100
AcDbEntity
  8
4
100
AcDbLine
 10
738.9527451158715
 20
834.8447583012735
 30
0.0
 11
783.9527451158715
 21
834.8447583012735
 31
0.0
  0
LINE
  5
373
330
17
100
AcDbEntity
  8
4
100
AcDbLine
 10
736.4527431158708
 20
834.8447583012735
 30
0.0
 11
786.4527471158713
 21
834.8447583012735
 31
0.0
  0
LINE
  5
374
330
17
100
AcDbEntity
  8
4
100
AcDbLine
 10
739.5814071158707
 20
852.8447583012735
 30
0.0
 11
783.324329115871
 21
852.8447583012735
 31
0.0
  0
CIRCLE
  5
375
330
17
100
AcDbEntity
  8
4
100
AcDbCircle
 10
761.4527451158715
 20
879.8447583012735
 30
0.0
 40
25.00000199999999
  0
LINE
  5
376
330
17
100
AcDbEntity
  8
4
100
AcDbLine
 10
739.5814071158707
 20
852.8447583012735
 30
0.0
 11
761.4527451158715
 21
854.8447563012733
 31
0.0
  0
LINE
  5
378
330
17
100
AcDbEntity
  8
4
100
AcDbLine
 10
632.9527431158708
 20
828.8447583012735
 30
0.0
 11
632.9527431158708
 21
833.8447563012733
 31
0.0
  0
LINE
  5
379
330
17
100
AcDbEntity
  8
4
100
AcDbLine
 10
609.9527451158715
 20
828.8447583012735
 30
0.0
 11
609.9527451158715
 21
833.8447563012733
 31
0.0
  0
LINE
  5
37A
330
17
100
AcDbEntity
  8
4
100
AcDbLine
 10
598.4527431158708
 20
828.8447583012735
 30
0.0
 11
644.4527451158715
 21
828.8447583012735
 31
0.0
  0
LINE
  5
37B
330
17
100
AcDbEntity
  8
4
100
AcDbLine
 10
598.4527431158708
 20
833.8447563012733
 30
0.0
 11
644.4527451158715
 21
833.8447563012733
 31
0.0
  0
LINE
  5
37C
330
17
100
AcDbEntity
  8
4
100
AcDbLine
 10
787.4527451158715
 20
738.8447603012737
 30
0.0
 11
795.4527451158715
 21
738.8447603012737
 31
0.0
  0
ARC
  5
37D
330
17
100
AcDbEntity
  8
4
100
AcDbCircle
 10
699.3862523873445
 20
781.813013222906
 30
0.0
 40
4.0
100
AcDbArc
 50
354.0014059169634
 51
103.8379852616557
  0
ARC
  5
37E
330
17
100
AcDbEntity
  8
4
100
AcDbCircle
 10
697.8731878055892
 20
757.8447603012737
 30
0.0
 40
3.0
100
AcDbArc
 50
270.0
 51
354.0014059169612
  0
LINE
  5
37F
330
17
100
AcDbEntity
  8
4
100
AcDbLine
 10
700.8567611855156
 20
757.5312481219419
 30
0.0
 11
703.3643502272475
 21
781.3949969837968
 31
0.0
  0
LINE
  5
380
330
17
100
AcDbEntity
  8
4
100
AcDbLine
 10
737.4527451158715
 20
738.8447603012737
 30
0.0
 11
745.4527451158715
 21
738.8447603012737
 31
0.0
  0
LINE
  5
381
330
17
100
AcDbEntity
  8
4
100
AcDbLine
 10
787.4527451158715
 20
670.8447603012737
 30
0.0
 11
795.4527451158715
 21
670.8447603012737
 31
0.0
  0
LINE
  5
382
330
17
100
AcDbEntity
  8
4
100
AcDbLine
 10
781.4527451158715
 20
708.8447603012737
 30
0.0
 11
781.4527451158715
 21
700.8447603012737
 31
0.0
  0
LINE
  5
383
330
17
100
AcDbEntity
  8
4
100
AcDbLine
 10
767.4527451158715
 20
708.8447603012737
 30
0.0
 11
767.4527451158715
 21
700.8447603012737
 31
0.0
  0
LINE
  5
384
330
17
100
AcDbEntity
  8
4
100
AcDbLine
 10
758.0799435400309
 20
670.8447603012737
 30
0.0
 11
766.4527451158715
 21
670.8447603012737
 31
0.0
  0
LINE
  5
385
330
17
100
AcDbEntity
  8
4
100
AcDbLine
 10
751.9034729517966
 20
690.8447603012737
 30
0.0
 11
758.0799435400309
 21
670.8447603012737
 31
0.0
  0
LINE
  5
386
330
17
100
AcDbEntity
  8
4
100
AcDbLine
 10
767.4527451158715
 20
700.8447603012737
 30
0.0
 11
781.4527451158715
 21
700.8447603012737
 31
0.0
  0
LINE
  5
387
330
17
100
AcDbEntity
  8
4
100
AcDbLine
 10
767.4527451158715
 20
708.8447603012737
 30
0.0
 11
781.4527451158715
 21
708.8447603012737
 31
0.0
  0
LINE
  5
388
330
17
100
AcDbEntity
  8
4
100
AcDbLine
 10
716.4527451158715
 20
670.8447603012737
 30
0.0
 11
724.8255466917103
 21
670.8447603012737
 31
0.0
  0
LINE
  5
389
330
17
100
AcDbEntity
  8
4
100
AcDbLine
 10
713.4527451158715
 20
678.8447603012737
 30
0.0
 11
713.4527451158715
 21
670.8447603012737
 31
0.0
  0
LINE
  5
38A
330
17
100
AcDbEntity
  8
4
100
AcDbLine
 10
724.8255466917103
 20
670.8447603012737
 30
0.0
 11
731.0020172799445
 21
690.8447603012737
 31
0.0
  0
LINE
  5
38B
330
17
100
AcDbEntity
  8
4
100
AcDbLine
 10
685.4527451158715
 20
678.8447603012737
 30
0.0
 11
713.4527451158715
 21
678.8447603012737
 31
0.0
  0
ARC
  5
38C
330
17
100
AcDbEntity
  8
4
100
AcDbCircle
 10
679.3118168354881
 20
648.1864612373643
 30
0.0
 40
10.0
100
AcDbArc
 50
279.2684651240194
 51
354.0014059169607
  0
ARC
  5
38D
330
17
100
AcDbEntity
  8
4
100
AcDbCircle
 10
686.7347686090793
 20
651.8447603012737
 30
0.0
 40
3.0
100
AcDbArc
 50
354.0014059169612
 51
90.0
  0
LINE
  5
38E
330
17
100
AcDbEntity
  8
4
100
AcDbLine
 10
689.2570614352458
 20
647.1414206395916
 30
0.0
 11
689.7183419890075
 21
651.5312481219419
 31
0.0
  0
LINE
  5
38F
330
17
100
AcDbEntity
  8
4
100
AcDbLine
 10
731.0020172799445
 20
690.8447603012737
 30
0.0
 11
751.9034729517966
 21
690.8447603012737
 31
0.0
  0
LINE
  5
390
330
17
100
AcDbEntity
  8
4
100
AcDbLine
 10
733.4726055152382
 20
698.8447603012737
 30
0.0
 11
749.4328847165029
 21
698.8447603012737
 31
0.0
  0
LINE
  5
391
330
17
100
AcDbEntity
  8
4
100
AcDbLine
 10
795.4527451158715
 20
738.8447603012737
 30
0.0
 11
795.4527451158715
 21
670.8447603012737
 31
0.0
  0
LINE
  5
392
330
17
100
AcDbEntity
  8
4
100
AcDbLine
 10
787.4527451158715
 20
738.8447603012737
 30
0.0
 11
787.4527451158715
 21
670.8447603012737
 31
0.0
  0
LINE
  5
393
330
17
100
AcDbEntity
  8
4
100
AcDbLine
 10
685.4527451158715
 20
738.8447603012737
 30
0.0
 11
685.4527451158715
 21
678.8447603012737
 31
0.0
  0
LINE
  5
394
330
17
100
AcDbEntity
  8
4
100
AcDbLine
 10
716.4527451158715
 20
670.8447603012737
 30
0.0
 11
737.4527451158715
 21
738.8447603012737
 31
0.0
  0
LINE
  5
395
330
17
100
AcDbEntity
  8
4
100
AcDbLine
 10
741.4527451158715
 20
724.6852123414137
 30
0.0
 11
749.4328847165029
 21
698.8447603012737
 31
0.0
  0
LINE
  5
396
330
17
100
AcDbEntity
  8
4
100
AcDbLine
 10
733.4726055152382
 20
698.8447603012737
 30
0.0
 11
741.4527451158715
 21
724.6852123414137
 31
0.0
  0
LINE
  5
397
330
17
100
AcDbEntity
  8
4
100
AcDbLine
 10
745.4527451158715
 20
738.8447603012737
 30
0.0
 11
766.4527451158715
 21
670.8447603012737
 31
0.0
  0
LINE
  5
398
330
17
100
AcDbEntity
  8
4
100
AcDbLine
 10
643.4527431158708
 20
824.8447563012733
 30
0.0
 11
643.4527431158708
 21
822.8447583012735
 31
0.0
  0
ARC
  5
399
330
17
100
AcDbEntity
  8
4
100
AcDbCircle
 10
649.4527431158708
 20
823.0718103012737
 30
0.0
 40
2.999982
100
AcDbArc
 50
180.0
 51
276.4107370000103
  0
ARC
  5
39A
330
17
100
AcDbEntity
  8
4
100
AcDbCircle
 10
664.4527451158715
 20
751.8447603012737
 30
0.0
 40
3.0
100
AcDbArc
 50
90.0
 51
180.0
  0
ARC
  5
39B
330
17
100
AcDbEntity
  8
4
100
AcDbCircle
 10
672.4527451158715
 20
743.8447603012737
 30
0.0
 40
3.0
100
AcDbArc
 50
90.0
 51
180.0
  0
LINE
  5
39C
330
17
100
AcDbEntity
  8
4
100
AcDbLine
 10
599.4527451158715
 20
824.8447563012733
 30
0.0
 11
599.4527451158715
 21
822.8447583012735
 31
0.0
  0
LINE
  5
39D
330
17
100
AcDbEntity
  8
4
100
AcDbLine
 10
596.4527451158715
 20
822.8447583012735
 30
0.0
 11
596.4527451158715
 21
815.1748383012734
 31
0.0
  0
ARC
  5
39E
330
17
100
AcDbEntity
  8
4
100
AcDbCircle
 10
593.4527451158715
 20
815.1748383012734
 30
0.0
 40
2.999946
100
AcDbArc
 50
279.6417139999876
 51
0.0
  0
LINE
  5
39F
330
17
100
AcDbEntity
  8
4
100
AcDbLine
 10
599.4527451158715
 20
822.8447583012735
 30
0.0
 11
643.4527431158708
 21
822.8447583012735
 31
0.0
  0
LINE
  5
3A0
330
17
100
AcDbEntity
  8
4
100
AcDbLine
 10
598.4527431158708
 20
824.8447563012733
 30
0.0
 11
644.4527451158715
 21
824.8447563012733
 31
0.0
  0
LINE
  5
3A1
330
17
100
AcDbEntity
  8
4
100
AcDbLine
 10
596.4527451158715
 20
822.8447583012735
 30
0.0
 11
646.4527431158708
 21
822.8447583012735
 31
0.0
  0
ARC
  5
3A2
330
17
100
AcDbEntity
  8
4
100
AcDbCircle
 10
672.4527451158715
 20
665.8447603012737
 30
0.0
 40
3.0
100
AcDbArc
 50
180.0
 51
270.0
  0
ARC
  5
3A3
330
17
100
AcDbEntity
  8
4
100
AcDbCircle
 10
650.9351691158713
 20
603.7583343012734
 30
0.0
 40
1.000044
100
AcDbArc
 50
275.9972809999798
 51
351.5059010000007
  0
ARC
  5
3A4
330
17
100
AcDbEntity
  8
4
100
AcDbCircle
 10
664.9019631158712
 20
626.3955423012735
 30
0.0
 40
1.999902
100
AcDbArc
 50
101.1851209999978
 51
168.8148790000028
  0
ARC
  5
3A5
330
17
100
AcDbEntity
  8
4
100
AcDbCircle
 10
659.0870211158713
 20
632.2104843012735
 30
0.0
 40
1.999986
100
AcDbArc
 50
101.8627020000019
 51
168.1372979999981
  0
ARC
  5
3A6
330
17
100
AcDbEntity
  8
4
100
AcDbCircle
 10
664.4527451158715
 20
657.8447603012737
 30
0.0
 40
3.0
100
AcDbArc
 50
180.0
 51
270.0
  0
LINE
  5
3A7
330
17
100
AcDbEntity
  8
4
100
AcDbLine
 10
661.4527451158715
 20
751.8447603012737
 30
0.0
 11
661.4527451158715
 21
657.8447603012737
 31
0.0
  0
LINE
  5
3A8
330
17
100
AcDbEntity
  8
4
100
AcDbLine
 10
669.4527451158715
 20
743.8447603012737
 30
0.0
 11
669.4527451158715
 21
665.8447603012737
 31
0.0
  0
LINE
  5
3A9
330
17
100
AcDbEntity
  8
4
100
AcDbLine
 10
677.4527451158715
 20
738.8447603012737
 30
0.0
 11
677.4527451158715
 21
670.8447603012737
 31
0.0
  0
LINE
  5
3AA
330
17
100
AcDbEntity
  8
4
100
AcDbLine
 10
664.4527451158715
 20
754.8447603012737
 30
0.0
 11
697.8731878055892
 21
754.8447603012737
 31
0.0
  0
LINE
  5
3AB
330
17
100
AcDbEntity
  8
4
100
AcDbLine
 10
664.4527451158715
 20
654.8447603012737
 30
0.0
 11
686.7347686090793
 21
654.8447603012737
 31
0.0
  0
LINE
  5
3AC
330
17
100
AcDbEntity
  8
4
100
AcDbLine
 10
677.4527451158715
 20
670.8447603012737
 30
0.0
 11
713.4527451158715
 21
670.8447603012737
 31
0.0
  0
LINE
  5
3AD
330
17
100
AcDbEntity
  8
4
100
AcDbLine
 10
677.4527451158715
 20
738.8447603012737
 30
0.0
 11
685.4527451158715
 21
738.8447603012737
 31
0.0
  0
LINE
  5
3AE
330
17
100
AcDbEntity
  8
4
100
AcDbLine
 10
598.4527431158708
 20
824.8447563012733
 30
0.0
 11
598.4527431158708
 21
833.8447563012733
 31
0.0
  0
LINE
  5
3AF
330
17
100
AcDbEntity
  8
L-CENTER
 48
2.0
100
AcDbLine
 10
621.4527471158713
 20
794.5817742198296
 30
0.0
 11
621.4527471158713
 21
838.9665843012735
 31
0.0
  0
LINE
  5
3B0
330
17
100
AcDbEntity
  8
4
100
AcDbLine
 10
644.4527451158715
 20
824.8447563012733
 30
0.0
 11
644.4527451158715
 21
833.8447563012733
 31
0.0
  0
ARC
  5
3B1
330
17
100
AcDbEntity
  8
4
100
AcDbCircle
 10
733.4527431158708
 20
828.9538923012735
 30
0.0
 40
2.999976
100
AcDbArc
 50
271.5995520000048
 51
0.0
  0
ARC
  5
3B2
330
17
100
AcDbEntity
  8
4
100
AcDbCircle
 10
789.4527471158713
 20
828.9538923012735
 30
0.0
 40
2.999976
100
AcDbArc
 50
180.0
 51
268.4004479999952
  0
ARC
  5
3B3
330
17
100
AcDbEntity
  8
4
100
AcDbCircle
 10
761.4527451158715
 20
879.8447583012735
 30
0.0
 40
44.99995799999999
100
AcDbArc
 50
299.6975339999996
 51
240.3031599999997
  0
ARC
  5
3B4
330
17
100
AcDbEntity
  8
4
100
AcDbCircle
 10
761.4527451158715
 20
137.8447563012735
 30
0.0
 40
499.9999800000001
100
AcDbArc
 50
78.82099100000002
 51
101.1791000000001
  0
ARC
  5
3B5
330
17
100
AcDbEntity
  8
4
100
AcDbCircle
 10
761.4527451158715
 20
144.8447583012735
 30
0.0
 40
500.000016
100
AcDbArc
 50
78.13814300000011
 51
101.8618870000001
  0
LINE
  5
3B6
330
17
100
AcDbEntity
  8
L-CENTER
 48
2.0
100
AcDbLine
 10
700.8459209399102
 20
879.8447583012735
 30
0.0
 11
822.0595692918318
 21
879.8447583012735
 31
0.0
  0
LINE
  5
3B7
330
17
100
AcDbEntity
  8
4
100
AcDbLine
 10
850.4527451158715
 20
746.8447603012737
 30
0.0
 11
672.4527451158715
 21
746.8447603012737
 31
0.0
  0
LINE
  5
3B8
330
17
100
AcDbEntity
  8
4
100
AcDbLine
 10
850.4527451158715
 20
662.8447603012737
 30
0.0
 11
672.4527451158715
 21
662.8447603012737
 31
0.0
  0
LINE
  5
3BA
330
17
100
AcDbEntity
  8
L-CENTER
 48
2.0
100
AcDbLine
 10
581.4527451158715
 20
1315.987234995207
 30
0.0
 11
581.4527451158715
 21
1261.387234995207
 31
0.0
  0
LINE
  5
3BB
330
17
100
AcDbEntity
  8
L-CENTER
 48
2.0
100
AcDbLine
 10
761.4527451158715
 20
1233.687234995207
 30
0.0
 11
761.4527451158715
 21
1811.038606962363
 31
0.0
  0
LINE
  5
3BC
330
17
100
AcDbEntity
  8
L-CENTER
 48
2.0
100
AcDbLine
 10
941.4527451158715
 20
1315.987234995207
 30
0.0
 11
941.4527451158715
 21
1261.387234995207
 31
0.0
  0
LINE
  5
3BD
330
17
100
AcDbEntity
  8
4
100
AcDbLine
 10
1035.452745115871
 20
1294.687234995207
 30
0.0
 11
1035.452745115871
 21
1258.687234995207
 31
0.0
  0
LINE
  5
3BE
330
17
100
AcDbEntity
  8
4
100
AcDbLine
 10
653.0542692938811
 20
1250.167288048312
 30
0.0
 11
646.7912248791849
 21
1273.430024445758
 31
0.0
  0
LINE
  5
3BF
330
17
100
AcDbEntity
  8
4
100
AcDbLine
 10
869.85122093786
 20
1250.167288048312
 30
0.0
 11
876.114265352558
 21
1273.430024445758
 31
0.0
  0
ARC
  5
3C0
330
17
100
AcDbEntity
  8
4
100
AcDbCircle
 10
497.452745115871
 20
1618.687234995207
 30
0.0
 40
10.0
100
AcDbArc
 50
90.0
 51
180.0
  0
LINE
  5
3C1
330
17
100
AcDbEntity
  8
4
100
AcDbLine
 10
531.452745115871
 20
1588.744507699749
 30
0.0
 11
531.452745115871
 21
1597.987234995207
 31
0.0
  0
LINE
  5
3C2
330
17
100
AcDbEntity
  8
4
100
AcDbLine
 10
493.9224002304736
 20
1594.850054084581
 30
0.0
 11
493.9224002304736
 21
1584.987234995207
 31
0.0
  0
LINE
  5
3C3
330
17
100
AcDbEntity
  8
4
100
AcDbLine
 10
467.952745115871
 20
1554.687234995207
 30
0.0
 11
467.952745115871
 21
1557.687234995207
 31
0.0
  0
LINE
  5
3C4
330
17
100
AcDbEntity
  8
4
100
AcDbLine
 10
465.9527451158706
 20
1557.987234995207
 30
0.0
 11
465.9527451158706
 21
1583.987234995207
 31
0.0
  0
ARC
  5
3C5
330
17
100
AcDbEntity
  8
4
100
AcDbCircle
 10
466.9527451158701
 20
1583.987234995207
 30
0.0
 40
1.0
100
AcDbArc
 50
90.0
 51
180.0
  0
LINE
  5
3C6
330
17
100
AcDbEntity
  8
4
100
AcDbLine
 10
471.9830900012676
 20
1584.987234995207
 30
0.0
 11
471.9830900012676
 21
1594.850054084581
 31
0.0
  0
ARC
  5
3C7
330
17
100
AcDbEntity
  8
4
100
AcDbCircle
 10
474.7255037799182
 20
1592.111856119928
 30
0.0
 40
3.875378875279264
100
AcDbArc
 50
44.95592676274281
 51
135.044073237256
  0
ARC
  5
3C8
330
17
100
AcDbEntity
  8
4
100
AcDbCircle
 10
482.9527451158697
 20
1582.19149086003
 30
0.0
 40
13.7957441351769
100
AcDbArc
 50
66.57340249137077
 51
113.4265975086273
  0
LINE
  5
3C9
330
17
100
AcDbEntity
  8
4
100
AcDbLine
 10
474.7255037799187
 20
1595.987234995207
 30
0.0
 11
491.1799864518225
 21
1595.987234995207
 31
0.0
  0
LINE
  5
3CA
330
17
100
AcDbEntity
  8
4
100
AcDbLine
 10
488.4375726731723
 20
1594.850054084581
 30
0.0
 11
488.4375726731723
 21
1587.987234995207
 31
0.0
  0
LINE
  5
3CB
330
17
100
AcDbEntity
  8
4
100
AcDbLine
 10
477.4679175585688
 20
1594.850054084581
 30
0.0
 11
477.4679175585688
 21
1587.987234995207
 31
0.0
  0
ARC
  5
3CC
330
17
100
AcDbEntity
  8
4
100
AcDbCircle
 10
450.1527451158709
 20
1552.187234995207
 30
0.0
 40
1.0
100
AcDbArc
 50
90.0
 51
180.0
  0
LINE
  5
3CD
330
17
100
AcDbEntity
  8
4
100
AcDbLine
 10
464.952745115871
 20
1553.187234995208
 30
0.0
 11
450.1527451158709
 21
1553.187234995207
 31
0.0
  0
LINE
  5
3CE
330
17
100
AcDbEntity
  8
4
100
AcDbLine
 10
439.2899260264976
 20
1498.407153365957
 30
0.0
 11
449.1527451158709
 21
1498.407153365957
 31
0.0
  0
LINE
  5
3CF
330
17
100
AcDbEntity
  8
4
100
AcDbLine
 10
439.2899260264976
 20
1541.672062552509
 30
0.0
 11
446.1527451158709
 21
1541.672062552509
 31
0.0
  0
LINE
  5
3D0
330
17
100
AcDbEntity
  8
4
100
AcDbLine
 10
439.2899260264976
 20
1547.15689010981
 30
0.0
 11
449.1527451158709
 21
1547.15689010981
 31
0.0
  0
ARC
  5
3D1
330
17
100
AcDbEntity
  8
4
100
AcDbCircle
 10
442.0281239911501
 20
1544.414476331159
 30
0.0
 40
3.875378875279244
100
AcDbArc
 50
134.9559267627464
 51
225.0440732372536
  0
LINE
  5
3D2
330
17
100
AcDbEntity
  8
4
100
AcDbLine
 10
439.2899260264976
 20
1530.702407437906
 30
0.0
 11
446.1527451158709
 21
1530.702407437906
 31
0.0
  0
LINE
  5
3D3
330
17
100
AcDbEntity
  8
4
100
AcDbLine
 10
449.1527451158709
 20
1525.217579880604
 30
0.0
 11
439.2899260264976
 21
1525.217579880604
 31
0.0
  0
ARC
  5
3D4
330
17
100
AcDbEntity
  8
4
100
AcDbCircle
 10
442.0281239911501
 20
1527.959993659255
 30
0.0
 40
3.875378875279264
100
AcDbArc
 50
134.9559267627464
 51
225.0440732372536
  0
LINE
  5
3D5
330
17
100
AcDbEntity
  8
4
100
AcDbLine
 10
449.1527451158709
 20
1547.15689010981
 30
0.0
 11
449.1527451158709
 21
1525.217579880604
 31
0.0
  0
LINE
  5
3D6
330
17
100
AcDbEntity
  8
4
100
AcDbLine
 10
438.1527451158709
 20
1527.959993659255
 30
0.0
 11
438.1527451158709
 21
1544.414476331159
 31
0.0
  0
LINE
  5
3D7
330
17
100
AcDbEntity
  8
4
100
AcDbLine
 10
446.1527451158709
 20
1547.15689010981
 30
0.0
 11
446.1527451158709
 21
1525.217579880604
 31
0.0
  0
ARC
  5
3D8
330
17
100
AcDbEntity
  8
4
100
AcDbCircle
 10
451.9484892510482
 20
1536.187234995207
 30
0.0
 40
13.7957441351769
100
AcDbArc
 50
156.5734024913727
 51
203.4265975086273
  0
LINE
  5
3D9
330
17
100
AcDbEntity
  8
L-CENTER
 48
2.0
100
AcDbLine
 10
482.9527451158701
 20
1599.588074875311
 30
0.0
 11
482.9527451158701
 21
1545.310621237266
 31
0.0
  0
LINE
  5
3DA
330
17
100
AcDbEntity
  8
4
100
AcDbLine
 10
493.9224002304736
 20
1584.987234995207
 30
0.0
 11
471.9830900012676
 21
1584.987234995207
 31
0.0
  0
ARC
  5
3DB
330
17
100
AcDbEntity
  8
4
100
AcDbCircle
 10
491.1799864518221
 20
1592.111856119928
 30
0.0
 40
3.875378875279244
100
AcDbArc
 50
44.95592676274341
 51
135.044073237256
  0
LINE
  5
3DC
330
17
100
AcDbEntity
  8
4
100
AcDbLine
 10
493.9224002304736
 20
1587.987234995207
 30
0.0
 11
471.9830900012676
 21
1587.987234995207
 31
0.0
  0
LINE
  5
3DD
330
17
100
AcDbEntity
  8
4
100
AcDbLine
 10
487.452745115871
 20
1618.687234995207
 30
0.0
 11
487.452745115871
 21
1595.987234995207
 31
0.0
  0
LINE
  5
3DE
330
17
100
AcDbEntity
  8
L-CENTER
 48
2.0
100
AcDbLine
 10
431.132603115871
 20
1536.187234995207
 30
0.0
 11
502.8690531158709
 21
1536.187234995207
 31
0.0
  0
ARC
  5
3DF
330
17
100
AcDbEntity
  8
4
100
AcDbCircle
 10
451.9484892510482
 20
1487.437498251354
 30
0.0
 40
13.7957441351769
100
AcDbArc
 50
156.5734024913727
 51
203.4265975086273
  0
ARC
  5
3E0
330
17
100
AcDbEntity
  8
4
100
AcDbCircle
 10
442.0281239911501
 20
1479.210256915402
 30
0.0
 40
3.875378875279264
100
AcDbArc
 50
134.9559267627464
 51
225.0440732372536
  0
LINE
  5
3E1
330
17
100
AcDbEntity
  8
4
100
AcDbLine
 10
449.1527451158709
 20
1476.467843136752
 30
0.0
 11
439.2899260264976
 21
1476.467843136752
 31
0.0
  0
LINE
  5
3E2
330
17
100
AcDbEntity
  8
4
100
AcDbLine
 10
439.2899260264976
 20
1481.952670694053
 30
0.0
 11
446.1527451158709
 21
1481.952670694053
 31
0.0
  0
LINE
  5
3E3
330
17
100
AcDbEntity
  8
4
100
AcDbLine
 10
439.2899260264976
 20
1492.922325808656
 30
0.0
 11
446.1527451158709
 21
1492.922325808656
 31
0.0
  0
LINE
  5
3E4
330
17
100
AcDbEntity
  8
4
100
AcDbLine
 10
439.2899260264976
 20
1384.452144181758
 30
0.0
 11
446.1527451158709
 21
1384.452144181758
 31
0.0
  0
LINE
  5
3E5
330
17
100
AcDbEntity
  8
4
100
AcDbLine
 10
439.2899260264976
 20
1395.421799296361
 30
0.0
 11
446.1527451158709
 21
1395.421799296361
 31
0.0
  0
LINE
  5
3E6
330
17
100
AcDbEntity
  8
4
100
AcDbLine
 10
449.1527451158709
 20
1400.906626853662
 30
0.0
 11
439.2899260264976
 21
1400.906626853662
 31
0.0
  0
ARC
  5
3E7
330
17
100
AcDbEntity
  8
4
100
AcDbCircle
 10
442.0281239911501
 20
1398.164213075012
 30
0.0
 40
3.875378875279264
100
AcDbArc
 50
134.9559267627464
 51
225.0440732372536
  0
LINE
  5
3E8
330
17
100
AcDbEntity
  8
4
100
AcDbLine
 10
438.1527451158709
 20
1398.164213075012
 30
0.0
 11
438.1527451158709
 21
1381.709730403107
 31
0.0
  0
ARC
  5
3E9
330
17
100
AcDbEntity
  8
4
100
AcDbCircle
 10
451.9484892510482
 20
1389.93697173906
 30
0.0
 40
13.7957441351769
100
AcDbArc
 50
156.5734024913727
 51
203.4265975086273
  0
ARC
  5
3EA
330
17
100
AcDbEntity
  8
4
100
AcDbCircle
 10
450.1527451158709
 20
1325.187234995208
 30
0.0
 40
1.0
100
AcDbArc
 50
180.0
 51
270.0
  0
LINE
  5
3EB
330
17
100
AcDbEntity
  8
4
100
AcDbLine
 10
439.2899260264976
 20
1378.967316624457
 30
0.0
 11
449.1527451158709
 21
1378.967316624457
 31
0.0
  0
LINE
  5
3EC
330
17
100
AcDbEntity
  8
4
100
AcDbLine
 10
446.1527451158709
 20
1330.217579880604
 30
0.0
 11
446.1527451158709
 21
1352.15689010981
 31
0.0
  0
LINE
  5
3ED
330
17
100
AcDbEntity
  8
4
100
AcDbLine
 10
449.1527451158709
 20
1330.217579880604
 30
0.0
 11
449.1527451158709
 21
1352.15689010981
 31
0.0
  0
ARC
  5
3EE
330
17
100
AcDbEntity
  8
4
100
AcDbCircle
 10
442.0281239911501
 20
1332.959993659255
 30
0.0
 40
3.875378875279244
100
AcDbArc
 50
134.9559267627464
 51
225.0440732372536
  0
ARC
  5
3EF
330
17
100
AcDbEntity
  8
4
100
AcDbCircle
 10
451.9484892510482
 20
1341.187234995207
 30
0.0
 40
13.7957441351769
100
AcDbArc
 50
156.5734024913727
 51
203.4265975086273
  0
LINE
  5
3F0
330
17
100
AcDbEntity
  8
4
100
AcDbLine
 10
438.1527451158709
 20
1349.414476331159
 30
0.0
 11
438.1527451158709
 21
1332.959993659255
 31
0.0
  0
ARC
  5
3F1
330
17
100
AcDbEntity
  8
4
100
AcDbCircle
 10
442.0281239911501
 20
1349.414476331159
 30
0.0
 40
3.875378875279264
100
AcDbArc
 50
134.9559267627464
 51
225.0440732372536
  0
LINE
  5
3F2
330
17
100
AcDbEntity
  8
4
100
AcDbLine
 10
449.1527451158709
 20
1352.15689010981
 30
0.0
 11
439.2899260264976
 21
1352.15689010981
 31
0.0
  0
LINE
  5
3F3
330
17
100
AcDbEntity
  8
4
100
AcDbLine
 10
439.2899260264976
 20
1346.672062552508
 30
0.0
 11
446.1527451158709
 21
1346.672062552508
 31
0.0
  0
LINE
  5
3F4
330
17
100
AcDbEntity
  8
4
100
AcDbLine
 10
439.2899260264976
 20
1335.702407437905
 30
0.0
 11
446.1527451158709
 21
1335.702407437905
 31
0.0
  0
LINE
  5
3F5
330
17
100
AcDbEntity
  8
4
100
AcDbLine
 10
439.2899260264976
 20
1330.217579880604
 30
0.0
 11
449.1527451158709
 21
1330.217579880604
 31
0.0
  0
LINE
  5
3F6
330
17
100
AcDbEntity
  8
4
100
AcDbLine
 10
464.952745115871
 20
1324.187234995207
 30
0.0
 11
450.1527451158709
 21
1324.187234995208
 31
0.0
  0
LINE
  5
3F7
330
17
100
AcDbEntity
  8
4
100
AcDbLine
 10
467.952745115871
 20
1294.687234995207
 30
0.0
 11
467.952745115871
 21
1322.687234995207
 31
0.0
  0
ARC
  5
3F8
330
17
100
AcDbEntity
  8
4
100
AcDbCircle
 10
442.0281239911501
 20
1381.709730403107
 30
0.0
 40
3.875378875279244
100
AcDbArc
 50
134.9559267627464
 51
225.0440732372536
  0
LINE
  5
3F9
330
17
100
AcDbEntity
  8
4
100
AcDbLine
 10
449.1527451158709
 20
1378.967316624457
 30
0.0
 11
449.1527451158709
 21
1400.906626853662
 31
0.0
  0
LINE
  5
3FA
330
17
100
AcDbEntity
  8
4
100
AcDbLine
 10
446.1527451158709
 20
1378.967316624457
 30
0.0
 11
446.1527451158709
 21
1400.906626853662
 31
0.0
  0
LINE
  5
3FB
330
17
100
AcDbEntity
  8
L-CENTER
 48
2.0
100
AcDbLine
 10
431.132603115871
 20
1487.437498251354
 30
0.0
 11
502.8690531158713
 21
1487.437498251354
 31
0.0
  0
LINE
  5
3FC
330
17
100
AcDbEntity
  8
L-CENTER
 48
2.0
100
AcDbLine
 10
431.132603115871
 20
1341.187234995207
 30
0.0
 11
502.8690531158709
 21
1341.187234995207
 31
0.0
  0
LINE
  5
3FD
330
17
100
AcDbEntity
  8
L-CENTER
 48
2.0
100
AcDbLine
 10
431.132603115871
 20
1389.93697173906
 30
0.0
 11
502.8690531158713
 21
1389.93697173906
 31
0.0
  0
LINE
  5
3FE
330
17
100
AcDbEntity
  8
4
100
AcDbLine
 10
464.952745115871
 20
1322.687234995207
 30
0.0
 11
464.952745115871
 21
1554.687234995207
 31
0.0
  0
LINE
  5
3FF
330
17
100
AcDbEntity
  8
4
100
AcDbLine
 10
449.1527451158709
 20
1325.187234995208
 30
0.0
 11
449.1527451158709
 21
1552.187234995207
 31
0.0
  0
LINE
  5
400
330
17
100
AcDbEntity
  8
4
100
AcDbLine
 10
446.1527451158709
 20
1498.407153365957
 30
0.0
 11
446.1527451158709
 21
1476.467843136752
 31
0.0
  0
LINE
  5
401
330
17
100
AcDbEntity
  8
4
100
AcDbLine
 10
438.1527451158709
 20
1479.210256915402
 30
0.0
 11
438.1527451158709
 21
1495.664739587307
 31
0.0
  0
LINE
  5
402
330
17
100
AcDbEntity
  8
4
100
AcDbLine
 10
449.1527451158709
 20
1498.407153365957
 30
0.0
 11
449.1527451158709
 21
1476.467843136752
 31
0.0
  0
ARC
  5
403
330
17
100
AcDbEntity
  8
4
100
AcDbCircle
 10
442.0281239911501
 20
1495.664739587307
 30
0.0
 40
3.875378875279244
100
AcDbArc
 50
134.9559267627464
 51
225.0440732372536
  0
ARC
  5
404
330
17
100
AcDbEntity
  8
4
100
AcDbCircle
 10
497.452745115871
 20
1258.687234995207
 30
0.0
 40
10.0
100
AcDbArc
 50
180.0
 51
270.0
  0
ARC
  5
407
330
17
100
AcDbEntity
  8
4
100
AcDbCircle
 10
503.871689115871
 20
787.4258163012735
 30
0.0
 40
5.000052
100
AcDbArc
 50
105.0038550000012
 51
164.9961419999994
  0
LINE
  5
409
330
17
100
AcDbEntity
  8
4
100
AcDbLine
 10
487.452745115871
 20
1294.687234995207
 30
0.0
 11
487.452745115871
 21
1258.687234995207
 31
0.0
  0
ARC
  5
40A
330
17
100
AcDbEntity
  8
4
100
AcDbCircle
 10
761.4527451158715
 20
-173.6552396987265
 30
0.0
 40
999.9999660000001
100
AcDbArc
 50
74.99662500000004
 51
105.00351
  0
LINE
  5
40D
330
17
100
AcDbEntity
  8
4
100
AcDbLine
 10
1054.952745115871
 20
1557.687234995207
 30
0.0
 11
467.952745115871
 21
1557.687234995207
 31
0.0
  0
LINE
  5
40E
330
17
100
AcDbEntity
  8
4
100
AcDbLine
 10
1054.952745115871
 20
1294.687234995207
 30
0.0
 11
467.952745115871
 21
1294.687234995207
 31
0.0
  0
LINE
  5
40F
330
17
100
AcDbEntity
  8
4
100
AcDbLine
 10
497.452745115871
 20
1248.687234995207
 30
0.0
 11
661.4527451158715
 21
1248.687234995207
 31
0.0
  0
LINE
  5
410
330
17
100
AcDbEntity
  8
L-CENTER
 48
2.0
100
AcDbLine
 10
1084.414202164141
 20
1438.687234995207
 30
0.0
 11
298.9973124525036
 21
1438.687234995207
 31
0.0
  0
LINE
  5
411
330
17
100
AcDbEntity
  8
L-CENTER
 48
2.0
100
AcDbLine
 10
608.7527451158708
 20
1288.687234995207
 30
0.0
 11
554.1527451158704
 21
1288.687234995207
 31
0.0
  0
LINE
  5
412
330
17
100
AcDbEntity
  8
L-CENTER
 48
2.0
100
AcDbLine
 10
608.7527451158726
 20
1588.687234995207
 30
0.0
 11
554.1527451158722
 21
1588.687234995207
 31
0.0
  0
LINE
  5
413
330
17
100
AcDbEntity
  8
4
100
AcDbLine
 10
653.5049801205419
 20
1628.687234995207
 30
0.0
 11
497.452745115871
 21
1628.687234995207
 31
0.0
  0
LINE
  5
414
330
17
100
AcDbEntity
  8
4
100
AcDbLine
 10
1057.952745115871
 20
1554.687234995208
 30
0.0
 11
464.952745115871
 21
1554.687234995207
 31
0.0
  0
LINE
  5
415
330
17
100
AcDbEntity
  8
4
100
AcDbLine
 10
1057.952745115871
 20
1322.687234995207
 30
0.0
 11
464.952745115871
 21
1322.687234995207
 31
0.0
  0
LINE
  5
416
330
17
100
AcDbEntity
  8
4
100
AcDbLine
 10
466.9527451158706
 20
1584.987234995207
 30
0.0
 11
1055.952745115871
 21
1584.987234995207
 31
0.0
  0
LINE
  5
417
330
17
100
AcDbEntity
  8
4
100
AcDbLine
 10
465.9527451158706
 20
1557.987234995207
 30
0.0
 11
1056.952745115871
 21
1557.987234995207
 31
0.0
  0
LINE
  5
418
330
17
100
AcDbEntity
  8
4
100
AcDbLine
 10
519.1670308301545
 20
1584.987234995207
 30
0.0
 11
645.1449344699045
 21
1602.802292075576
 31
0.0
  0
LINE
  5
419
330
17
100
AcDbEntity
  8
4
100
AcDbLine
 10
504.8834595623189
 20
1584.987234995207
 30
0.0
 11
646.1727031064179
 21
1604.967532062049
 31
0.0
  0
LINE
  5
41A
330
17
100
AcDbEntity
  8
4
100
AcDbLine
 10
581.4527451158715
 20
1597.987234995207
 30
0.0
 11
531.452745115871
 21
1597.987234995207
 31
0.0
  0
LINE
  5
41B
330
17
100
AcDbEntity
  8
4
100
AcDbLine
 10
517.3223103332625
 20
1294.687234995207
 30
0.0
 11
645.1661078202219
 21
1274.886512152109
 31
0.0
  0
LINE
  5
41C
330
17
100
AcDbEntity
  8
4
100
AcDbLine
 10
504.2553025705229
 20
1294.687234995207
 30
0.0
 11
647.0213365347367
 21
1272.575324010851
 31
0.0
  0
ARC
  5
425
330
17
100
AcDbEntity
  8
4
100
AcDbCircle
 10
1080.977266240592
 20
327.5092556372258
 30
0.0
 40
3.875378875279244
100
AcDbArc
 50
314.9559267627428
 51
45.04407323725719
  0
ARC
  5
426
330
17
100
AcDbEntity
  8
4
100
AcDbCircle
 10
1072.852649115871
 20
348.3447603012735
 30
0.0
 40
1.000002
100
AcDbArc
 50
0.0
 51
90.0
  0
LINE
  5
427
330
17
100
AcDbEntity
  8
4
100
AcDbLine
 10
1083.715464205244
 20
330.2516694158764
 30
0.0
 11
1073.852645115871
 21
330.2516694158764
 31
0.0
  0
LINE
  5
428
330
17
100
AcDbEntity
  8
4
100
AcDbLine
 10
1083.715464205244
 20
324.7668418585752
 30
0.0
 11
1076.852645115871
 21
324.7668418585752
 31
0.0
  0
ARC
  5
42A
330
17
100
AcDbEntity
  8
4
100
AcDbCircle
 10
1080.977266240592
 20
311.0547729653215
 30
0.0
 40
3.875378875279264
100
AcDbArc
 50
314.955926762744
 51
45.04407323725719
  0
LINE
  5
42D
330
17
100
AcDbEntity
  8
4
100
AcDbLine
 10
1073.852645115871
 20
308.3123591866708
 30
0.0
 11
1083.715464205244
 21
308.3123591866708
 31
0.0
  0
LINE
  5
42E
330
17
100
AcDbEntity
  8
4
100
AcDbLine
 10
1083.715464205244
 20
313.7971867439721
 30
0.0
 11
1076.852645115871
 21
313.7971867439721
 31
0.0
  0
ARC
  5
42F
330
17
100
AcDbEntity
  8
4
100
AcDbCircle
 10
1071.056900980694
 20
319.2820143012734
 30
0.0
 40
13.7957441351769
100
AcDbArc
 50
336.5734024913738
 51
23.42659750862626
  0
LINE
  5
430
330
17
100
AcDbEntity
  8
4
100
AcDbLine
 10
1076.852645115871
 20
330.2516694158764
 30
0.0
 11
1076.852645115871
 21
308.3123591866708
 31
0.0
  0
LINE
  5
431
330
17
100
AcDbEntity
  8
4
100
AcDbLine
 10
1084.852645115871
 20
311.0547729653215
 30
0.0
 11
1084.852645115871
 21
327.5092556372258
 31
0.0
  0
LINE
  5
432
330
17
100
AcDbEntity
  8
4
100
AcDbLine
 10
1073.852645115871
 20
330.2516694158764
 30
0.0
 11
1073.852645115871
 21
308.3123591866708
 31
0.0
  0
ARC
  5
433
330
17
100
AcDbEntity
  8
4
100
AcDbCircle
 10
1071.056900980694
 20
234.8447583012735
 30
0.0
 40
13.7957441351769
100
AcDbArc
 50
336.5734024913738
 51
23.42659750862626
  0
LINE
  5
434
330
17
100
AcDbEntity
  8
4
100
AcDbLine
 10
1084.852645115871
 20
226.6175169653216
 30
0.0
 11
1084.852645115871
 21
243.0719996372259
 31
0.0
  0
ARC
  5
435
330
17
100
AcDbEntity
  8
4
100
AcDbCircle
 10
1080.977266240592
 20
226.6175169653216
 30
0.0
 40
3.875378875279264
100
AcDbArc
 50
314.955926762744
 51
45.04407323725601
  0
ARC
  5
436
330
17
100
AcDbEntity
  8
4
100
AcDbCircle
 10
1080.977266240592
 20
243.0719996372259
 30
0.0
 40
3.875378875279244
100
AcDbArc
 50
314.955926762744
 51
45.04407323725601
  0
LINE
  5
437
330
17
100
AcDbEntity
  8
4
100
AcDbLine
 10
1076.852645115871
 20
245.8144134158765
 30
0.0
 11
1076.852645115871
 21
223.8751031866709
 31
0.0
  0
LINE
  5
438
330
17
100
AcDbEntity
  8
4
100
AcDbLine
 10
1073.852645115871
 20
245.8144134158765
 30
0.0
 11
1073.852645115871
 21
223.8751031866709
 31
0.0
  0
LINE
  5
439
330
17
100
AcDbEntity
  8
4
100
AcDbLine
 10
1073.852645115871
 20
223.8751031866709
 30
0.0
 11
1083.715464205244
 21
223.8751031866709
 31
0.0
  0
LINE
  5
43A
330
17
100
AcDbEntity
  8
4
100
AcDbLine
 10
1083.715464205244
 20
229.3599307439722
 30
0.0
 11
1076.852645115871
 21
229.3599307439722
 31
0.0
  0
LINE
  5
43B
330
17
100
AcDbEntity
  8
4
100
AcDbLine
 10
1083.715464205244
 20
245.8144134158765
 30
0.0
 11
1073.852645115871
 21
245.8144134158765
 31
0.0
  0
LINE
  5
43C
330
17
100
AcDbEntity
  8
4
100
AcDbLine
 10
1083.715464205244
 20
240.3295858585752
 30
0.0
 11
1076.852645115871
 21
240.3295858585752
 31
0.0
  0
ARC
  5
43D
330
17
100
AcDbEntity
  8
4
100
AcDbCircle
 10
1080.977266240592
 20
158.6347436372258
 30
0.0
 40
3.875378875279244
100
AcDbArc
 50
314.955926762744
 51
45.04407323725601
  0
LINE
  5
440
330
17
100
AcDbEntity
  8
4
100
AcDbLine
 10
1083.715464205244
 20
161.3771574158765
 30
0.0
 11
1073.852645115871
 21
161.3771574158765
 31
0.0
  0
LINE
  5
441
330
17
100
AcDbEntity
  8
4
100
AcDbLine
 10
1083.715464205244
 20
155.8923298585752
 30
0.0
 11
1076.852645115871
 21
155.8923298585752
 31
0.0
  0
ARC
  5
451
330
17
100
AcDbEntity
  8
4
100
AcDbCircle
 10
1080.977266240592
 20
142.1802609653215
 30
0.0
 40
3.875378875279264
100
AcDbArc
 50
314.955926762744
 51
45.04407323725601
  0
ARC
  5
452
330
17
100
AcDbEntity
  8
4
100
AcDbCircle
 10
1072.852649115871
 20
121.3447563012735
 30
0.0
 40
1.000002
100
AcDbArc
 50
270.0
 51
0.0
  0
LINE
  5
453
330
17
100
AcDbEntity
  8
4
100
AcDbLine
 10
1073.852645115871
 20
139.4378471866709
 30
0.0
 11
1083.715464205244
 21
139.4378471866709
 31
0.0
  0
LINE
  5
454
330
17
100
AcDbEntity
  8
4
100
AcDbLine
 10
1083.715464205244
 20
144.9226747439722
 30
0.0
 11
1076.852645115871
 21
144.9226747439722
 31
0.0
  0
TEXT
  5
456
330
17
100
AcDbEntity
  8
3
100
AcDbText
 10
1235.938885710923
 20
32.61028232280944
 30
0.0
 40
21.86125196538633
  1
LA10-02
  7
KANJI
100
AcDbText
  0
LINE
  5
457
330
17
100
AcDbEntity
  8
4
100
AcDbLine
 10
1073.852645115871
 20
348.3447603012735
 30
0.0
 11
1073.852645115871
 21
121.3447563012735
 31
0.0
  0
LINE
  5
458
330
17
100
AcDbEntity
  8
4
100
AcDbLine
 10
1053.452747115871
 20
349.3447563012735
 30
0.0
 11
1053.452747115871
 21
120.3447603012735
 31
0.0
  0
ARC
  5
459
330
17
100
AcDbEntity
  8
4
100
AcDbCircle
 10
1071.056900980694
 20
150.4075023012734
 30
0.0
 40
13.7957441351769
100
AcDbArc
 50
336.5734024913738
 51
23.42659750862626
  0
LINE
  5
45A
330
17
100
AcDbEntity
  8
4
100
AcDbLine
 10
1076.852645115871
 20
161.3771574158765
 30
0.0
 11
1076.852645115871
 21
139.4378471866709
 31
0.0
  0
LINE
  5
45B
330
17
100
AcDbEntity
  8
4
100
AcDbLine
 10
1084.852645115871
 20
142.1802609653215
 30
0.0
 11
1084.852645115871
 21
158.6347436372258
 31
0.0
  0
LINE
  5
45C
330
17
100
AcDbEntity
  8
4
100
AcDbLine
 10
1073.852645115871
 20
161.3771574158765
 30
0.0
 11
1073.852645115871
 21
139.4378471866709
 31
0.0
  0
ARC
  5
45D
330
17
100
AcDbEntity
  8
4
100
AcDbCircle
 10
1013.421005115871
 20
591.9111663012734
 30
0.0
 40
3.999918
100
AcDbArc
 50
264.0019730000074
 51
13.83946400000168
  0
ARC
  5
45E
330
17
100
AcDbEntity
  8
4
100
AcDbCircle
 10
1013.421005115871
 20
467.7783543012736
 30
0.0
 40
3.999918
100
AcDbArc
 50
346.1605359999984
 51
95.99802699999265
  0
ARC
  5
45F
330
17
100
AcDbEntity
  8
4
100
AcDbCircle
 10
871.9703211158708
 20
455.9311863012736
 30
0.0
 40
1.000044
100
AcDbArc
 50
95.99728099997981
 51
171.5058919999985
  0
ARC
  5
460
330
17
100
AcDbEntity
  8
4
100
AcDbCircle
 10
879.794543115871
 20
447.7038903012735
 30
0.0
 40
10.000008
100
AcDbArc
 50
95.99926800000128
 51
170.7315380000005
  0
ARC
  5
461
330
17
100
AcDbEntity
  8
4
100
AcDbCircle
 10
858.0035271158708
 20
433.2939783012735
 30
0.0
 40
1.999902
100
AcDbArc
 50
281.1851209999978
 51
348.8148790000027
  0
ARC
  5
462
330
17
100
AcDbEntity
  8
4
100
AcDbCircle
 10
843.5936151158708
 20
411.5029623012736
 30
0.0
 40
10.000008
100
AcDbArc
 50
99.26845599999626
 51
174.000732
  0
ARC
  5
463
330
17
100
AcDbEntity
  8
4
100
AcDbCircle
 10
863.8184691158708
 20
427.4790363012735
 30
0.0
 40
1.999986
100
AcDbArc
 50
281.8627300000047
 51
348.1372979999981
  0
ARC
  5
464
330
17
100
AcDbEntity
  8
4
100
AcDbCircle
 10
369.4527471158713
 20
529.8447603012735
 30
0.0
 40
500.00001
100
AcDbArc
 50
348.82116
 51
0.0
  0
ARC
  5
465
330
17
100
AcDbEntity
  8
4
100
AcDbCircle
 10
376.4527431158708
 20
529.8447603012735
 30
0.0
 40
499.99995
100
AcDbArc
 50
348.138455
 51
0.0
  0
LINE
  5
466
330
17
100
AcDbEntity
  8
4
100
AcDbLine
 10
878.7493731158715
 20
457.6492023012734
 30
0.0
 11
1013.003039115871
 21
471.7563783012736
 31
0.0
  0
ARC
  5
467
330
17
100
AcDbEntity
  8
4
100
AcDbCircle
 10
1019.033801115871
 20
272.2637043012735
 30
0.0
 40
5.000052
100
AcDbArc
 50
285.0038550000066
 51
344.996145
  0
ARC
  5
468
330
17
100
AcDbEntity
  8
4
100
AcDbCircle
 10
823.5191511158714
 20
277.8764943012734
 30
0.0
 40
3.999918
100
AcDbArc
 50
174.0019730000007
 51
283.8394639999985
  0
ARC
  5
469
330
17
100
AcDbEntity
  8
4
100
AcDbCircle
 10
938.9527431158708
 20
234.8447583012735
 30
0.0
 40
72.499998
100
AcDbArc
 50
180.0001930000602
 51
0.0
  0
LINE
  5
46A
330
17
100
AcDbEntity
  8
4
100
AcDbLine
 10
833.6485431158712
 20
412.5481263012734
 30
0.0
 11
819.5411211158712
 21
278.2944663012736
 31
0.0
  0
ARC
  5
46B
330
17
100
AcDbEntity
  8
4
100
AcDbCircle
 10
679.3118751158713
 20
411.5029623012736
 30
0.0
 40
10.000008
100
AcDbArc
 50
5.999267999999993
 51
80.73153800000188
  0
ARC
  5
46C
330
17
100
AcDbEntity
  8
4
100
AcDbCircle
 10
664.9019631158712
 20
433.2939783012735
 30
0.0
 40
1.999902
100
AcDbArc
 50
191.1851209999972
 51
258.8148790000022
  0
ARC
  5
46D
330
17
100
AcDbEntity
  8
4
100
AcDbCircle
 10
650.9351691158713
 20
455.9311863012736
 30
0.0
 40
1.000044
100
AcDbArc
 50
8.4940989999993
 51
84.0027190000202
  0
ARC
  5
46E
330
17
100
AcDbEntity
  8
4
100
AcDbCircle
 10
643.1109471158711
 20
447.7038903012735
 30
0.0
 40
10.000008
100
AcDbArc
 50
9.26846199999955
 51
84.00073199999873
  0
ARC
  5
46F
330
17
100
AcDbEntity
  8
4
100
AcDbCircle
 10
659.0870211158713
 20
427.4790363012735
 30
0.0
 40
1.999986
100
AcDbArc
 50
191.8627020000019
 51
258.1372979999981
  0
ARC
  5
470
330
17
100
AcDbEntity
  8
4
100
AcDbCircle
 10
1146.452747115871
 20
529.8447603012735
 30
0.0
 40
499.9999800000001
100
AcDbArc
 50
180.0001399980527
 51
191.861715
  0
ARC
  5
471
330
17
100
AcDbEntity
  8
4
100
AcDbCircle
 10
1153.452743115871
 20
529.8447603012735
 30
0.0
 40
500.000028
100
AcDbArc
 50
180.0001399980527
 51
191.17901
  0
ARC
  5
472
330
17
100
AcDbEntity
  8
4
100
AcDbCircle
 10
699.3863391158716
 20
277.8764943012734
 30
0.0
 40
3.999918
100
AcDbArc
 50
256.160535999988
 51
5.998027000000934
  0
LINE
  5
473
330
17
100
AcDbEntity
  8
4
100
AcDbLine
 10
761.4527451158715
 20
222.8447583012735
 30
0.0
 11
745.8641211158715
 21
213.8447583012735
 31
0.0
  0
LINE
  5
474
330
17
100
AcDbEntity
  8
4
100
AcDbLine
 10
777.041123115871
 20
213.8447583012735
 30
0.0
 11
761.4527451158715
 21
222.8447583012735
 31
0.0
  0
LINE
  5
475
330
17
100
AcDbEntity
  8
4
100
AcDbLine
 10
745.8641211158715
 20
195.8447583012735
 30
0.0
 11
761.4527451158715
 21
186.8447583012735
 31
0.0
  0
LINE
  5
476
330
17
100
AcDbEntity
  8
4
100
AcDbLine
 10
761.4527451158715
 20
186.8447583012735
 30
0.0
 11
777.041123115871
 21
195.8447583012735
 31
0.0
  0
CIRCLE
  5
477
330
17
100
AcDbEntity
  8
4
100
AcDbCircle
 10
761.4527451158715
 20
204.8447583012735
 30
0.0
 40
18.0
  0
CIRCLE
  5
478
330
17
100
AcDbEntity
  8
4
100
AcDbCircle
 10
761.4527451158715
 20
204.8447583012735
 30
0.0
 40
19.999998
  0
LINE
  5
479
330
17
100
AcDbEntity
  8
4
100
AcDbLine
 10
745.8641211158715
 20
195.8447583012735
 30
0.0
 11
745.8641211158715
 21
213.8447583012735
 31
0.0
  0
LINE
  5
47A
330
17
100
AcDbEntity
  8
4
100
AcDbLine
 10
777.041123115871
 20
195.8447583012735
 30
0.0
 11
777.041123115871
 21
213.8447583012735
 31
0.0
  0
LINE
  5
47B
330
17
100
AcDbEntity
  8
L-CENTER
 48
2.0
100
AcDbLine
 10
732.9358852054879
 20
204.8447583012735
 30
0.0
 11
789.9696050262532
 21
204.8447583012735
 31
0.0
  0
LINE
  5
47C
330
17
100
AcDbEntity
  8
4
100
AcDbLine
 10
689.2569411158706
 20
412.5481263012734
 30
0.0
 11
703.3643631158716
 21
278.2944663012736
 31
0.0
  0
ARC
  5
47D
330
17
100
AcDbEntity
  8
4
100
AcDbCircle
 10
761.4527451158715
 20
921.8447583012735
 30
0.0
 40
500.00001
100
AcDbArc
 50
258.821015
 51
281.179322
  0
ARC
  5
47E
330
17
100
AcDbEntity
  8
4
100
AcDbCircle
 10
761.4527451158715
 20
914.8447563012733
 30
0.0
 40
500.000058
100
AcDbArc
 50
258.1382009999999
 51
281.8620809999999
  0
ARC
  5
47F
330
17
100
AcDbEntity
  8
4
100
AcDbCircle
 10
1041.01573111587
 20
115.3447563012735
 30
0.0
 40
4.999956
100
AcDbArc
 50
90.0
 51
176.9686880000001
  0
LINE
  5
480
330
17
100
AcDbEntity
  8
4
100
AcDbLine
 10
1035.452747115871
 20
119.8447563012735
 30
0.0
 11
1035.452747115871
 21
64.84476030127348
 31
0.0
  0
LINE
  5
482
330
17
100
AcDbEntity
  8
4
100
AcDbLine
 10
954.4527471158713
 20
64.84476030127348
 30
0.0
 11
954.4527471158713
 21
119.8447563012735
 31
0.0
  0
LINE
  5
483
330
17
100
AcDbEntity
  8
4
100
AcDbLine
 10
928.4527431158708
 20
64.84476030127348
 30
0.0
 11
928.4527431158708
 21
119.8447563012735
 31
0.0
  0
LWPOLYLINE
  5
486
330
17
100
AcDbEntity
  8
4
 62
     3
100
AcDbPolyline
 90
       30
 70
     0
 43
0.0
 10
893.8318491158711
 20
119.5679103012735
 10
894.999503115871
 20
118.5993183012735
 10
896.1383031158707
 20
117.6292083012736
 10
897.2193771158713
 20
116.6560623012736
 10
899.8276611158713
 20
113.7031863012735
 10
900.3892431158706
 20
112.7026923012735
 10
900.748799115871
 20
111.6915603012735
 10
900.8774751158712
 20
110.6682723012735
 10
900.6904611158711
 20
109.3630503012735
 10
900.1746591158712
 20
108.0355323012734
 10
899.4115671158711
 20
106.6850343012736
 10
896.453297115871
 20
102.4887063012735
 10
895.515821115871
 20
101.0393403012735
 10
894.7384551158707
 20
99.56352630127344
 10
894.2026851158712
 20
98.06056830127352
 10
893.9677971158712
 20
96.5198703012735
 10
894.0117171158713
 20
94.95726630127342
 10
894.285527115871
 20
93.37908630127345
 10
895.9971111158716
 20
88.61446830127352
 10
898.0166511158709
 20
83.93769630127349
 10
898.5299811158707
 20
82.42785030127357
 10
898.8818511158711
 20
80.95309830127349
 10
899.023349115871
 20
79.51977030127352
 10
898.821269115871
 20
77.6509023012735
 10
898.1960871158713
 20
75.85996230127353
 10
897.2006871158715
 20
74.1372123012734
 10
892.5220731158711
 20
69.28068630127359
 10
890.574689115871
 20
67.73328030127345
 10
888.5215311158713
 20
66.20535630127347
 10
886.4154831158708
 20
64.68717030127345
  0
ARC
  5
487
330
17
100
AcDbEntity
  8
4
100
AcDbCircle
 10
848.4527451158715
 20
81.84475830127349
 30
0.0
 40
3.0
100
AcDbArc
 50
0.0
 51
90.0
  0
LINE
  5
488
330
17
100
AcDbEntity
  8
4
100
AcDbLine
 10
1035.452747115871
 20
119.8447563012735
 30
0.0
 11
851.4527451158715
 21
119.8447563012735
 31
0.0
  0
LINE
  5
489
330
17
100
AcDbEntity
  8
4
100
AcDbLine
 10
1035.452747115871
 20
64.84476030127348
 30
0.0
 11
851.4527451158715
 21
64.84476030127348
 31
0.0
  0
LINE
  5
490
330
17
100
AcDbEntity
  8
4
 62
     3
100
AcDbLine
 10
761.4527451158715
 20
110.9994603012735
 30
0.0
 11
769.1129991158709
 21
115.4221083012735
 31
0.0
  0
LINE
  5
491
330
17
100
AcDbEntity
  8
4
 62
     3
100
AcDbLine
 10
753.7924911158711
 20
115.4221083012735
 30
0.0
 11
761.4527451158715
 21
110.9994603012735
 31
0.0
  0
CIRCLE
  5
492
330
17
100
AcDbEntity
  8
4
100
AcDbCircle
 10
761.4527451158715
 20
119.8447563012735
 30
0.0
 40
11.000002
  0
CIRCLE
  5
493
330
17
100
AcDbEntity
  8
2
100
AcDbCircle
 10
761.4527451158715
 20
119.8447563012735
 30
0.0
 40
10.000002
  0
LINE
  5
494
330
17
100
AcDbEntity
  8
4
 62
     3
100
AcDbLine
 10
761.4527451158715
 20
128.6900583012734
 30
0.0
 11
769.1129991158709
 21
124.2674103012735
 31
0.0
  0
LINE
  5
495
330
17
100
AcDbEntity
  8
4
 62
     3
100
AcDbLine
 10
761.4527451158715
 20
128.6900583012734
 30
0.0
 11
753.7924911158711
 21
124.2674103012735
 31
0.0
  0
LINE
  5
496
330
17
100
AcDbEntity
  8
4
 62
     3
100
AcDbLine
 10
753.7924911158711
 20
124.2674103012735
 30
0.0
 11
753.7924911158711
 21
115.4221083012735
 31
0.0
  0
LINE
  5
497
330
17
100
AcDbEntity
  8
4
 62
     3
100
AcDbLine
 10
769.1129991158709
 20
115.4221083012735
 30
0.0
 11
769.1129991158709
 21
124.2674103012735
 31
0.0
  0
CIRCLE
  5
498
330
17
100
AcDbEntity
  8
4
100
AcDbCircle
 10
761.4527451158715
 20
119.8447563012735
 30
0.0
 40
15.0
  0
LINE
  5
499
330
17
100
AcDbEntity
  8
L-CENTER
 48
2.0
100
AcDbLine
 10
736.8487431158715
 20
119.8447563012735
 30
0.0
 11
786.0567471158706
 21
119.8447563012735
 31
0.0
  0
ARC
  5
49B
330
17
100
AcDbEntity
  8
4
100
AcDbCircle
 10
674.4527451158715
 20
81.84475830127349
 30
0.0
 40
3.0
100
AcDbArc
 50
90.0
 51
180.0
  0
LINE
  5
49F
330
17
100
AcDbEntity
  8
4
100
AcDbLine
 10
674.4527451158715
 20
84.84475830127349
 30
0.0
 11
848.4527451158715
 21
84.84475830127349
 31
0.0
  0
LINE
  5
4A1
330
17
100
AcDbEntity
  8
4
100
AcDbLine
 10
1011.452747115871
 20
234.8447583012735
 30
0.0
 11
1011.452747115871
 21
119.8447563012735
 31
0.0
  0
LINE
  5
4A2
330
17
100
AcDbEntity
  8
4
100
AcDbLine
 10
866.4527451158715
 20
119.8447563012735
 30
0.0
 11
866.4527451158715
 21
234.8447583012735
 31
0.0
  0
LINE
  5
4A3
330
17
100
AcDbEntity
  8
4
100
AcDbLine
 10
851.4527451158715
 20
234.8447583012735
 30
0.0
 11
851.4527451158715
 21
64.84476030127348
 31
0.0
  0
LINE
  5
4A4
330
17
100
AcDbEntity
  8
4
100
AcDbLine
 10
656.4527451158715
 20
119.8447563012735
 30
0.0
 11
656.4527451158715
 21
234.8447583012735
 31
0.0
  0
LINE
  5
4A5
330
17
100
AcDbEntity
  8
4
100
AcDbLine
 10
671.4527451158715
 20
234.8447583012735
 30
0.0
 11
671.4527451158715
 21
64.84476030127348
 31
0.0
  0
LINE
  5
4A6
330
17
100
AcDbEntity
  8
L-CENTER
 48
2.0
100
AcDbLine
 10
581.4527451158715
 20
139.8447563012735
 30
0.0
 11
581.4527451158715
 21
44.84476030127348
 31
0.0
  0
LINE
  5
4A7
330
17
100
AcDbEntity
  8
4
100
AcDbLine
 10
746.4527451158715
 20
191.6160003012735
 30
0.0
 11
746.4527451158715
 21
119.8447563012735
 31
0.0
  0
LINE
  5
4A8
330
17
100
AcDbEntity
  8
4
100
AcDbLine
 10
776.4527451158715
 20
191.6160003012735
 30
0.0
 11
776.4527451158715
 21
119.8447563012735
 31
0.0
  0
LINE
  5
4A9
330
17
100
AcDbEntity
  8
L-CENTER
 48
2.0
100
AcDbLine
 10
941.4527451158715
 20
139.8447563012735
 30
0.0
 11
941.4527451158715
 21
44.84476030127348
 31
0.0
  0
LINE
  5
4AA
330
17
100
AcDbEntity
  8
4
100
AcDbLine
 10
1035.452747115871
 20
104.8447563012735
 30
0.0
 11
1057.952747115871
 21
529.8447603012735
 31
0.0
  0
LINE
  5
4AC
330
17
100
AcDbEntity
  8
L-CENTER
 48
2.0
100
AcDbLine
 10
1090.851617115871
 20
150.4075023012734
 30
0.0
 11
1028.270615115871
 21
150.4075023012734
 31
0.0
  0
LINE
  5
4AD
330
17
100
AcDbEntity
  8
4
100
AcDbLine
 10
1072.852649115871
 20
120.3447603012735
 30
0.0
 11
1041.01573111587
 21
120.3447603012735
 31
0.0
  0
LINE
  5
4B0
330
17
100
AcDbEntity
  8
L-CENTER
 48
2.0
100
AcDbLine
 10
1089.581369115871
 20
319.2820143012734
 30
0.0
 11
1027.495955115871
 21
319.2820143012734
 31
0.0
  0
ARC
  5
4B1
330
17
100
AcDbEntity
  8
4
100
AcDbCircle
 10
57.95274511587104
 20
529.8447603012735
 30
0.0
 40
1000.000032
100
AcDbArc
 50
344.997058
 51
0.0
  0
LINE
  5
4B2
330
17
100
AcDbEntity
  8
4
100
AcDbLine
 10
1072.852649115871
 20
349.3447563012735
 30
0.0
 11
1048.396835115871
 21
349.3447563012735
 31
0.0
  0
LINE
  5
4B8
330
17
100
AcDbEntity
  8
4
100
AcDbLine
 10
2257.892054996392
 20
584.3447583012735
 30
0.0
 11
2233.892054996392
 21
584.3447583012735
 31
0.0
  0
LINE
  5
4B9
330
17
100
AcDbEntity
  8
4
100
AcDbLine
 10
2257.892054996392
 20
568.3447563012733
 30
0.0
 11
2233.892054996392
 21
568.3447563012733
 31
0.0
  0
LINE
  5
4BA
330
17
100
AcDbEntity
  8
4
100
AcDbLine
 10
2233.892054996392
 20
584.3447583012735
 30
0.0
 11
2233.892054996392
 21
568.3447563012733
 31
0.0
  0
LINE
  5
4BB
330
17
100
AcDbEntity
  8
4
100
AcDbLine
 10
2257.892054996392
 20
568.3447563012733
 30
0.0
 11
2257.892054996392
 21
584.3447583012735
 31
0.0
  0
LINE
  5
4BE
330
17
100
AcDbEntity
  8
L-CENTER
 48
2.0
100
AcDbLine
 10
2245.892054996392
 20
462.5861163012737
 30
0.0
 11
2245.892054996392
 21
597.1034043012733
 31
0.0
  0
LINE
  5
4CE
330
17
100
AcDbEntity
  8
L-CENTER
 48
2.0
100
AcDbLine
 10
2178.633410996392
 20
529.8447603012737
 30
0.0
 11
2313.150698996392
 21
529.8447603012733
 31
0.0
  0
ARC
  5
4CF
330
17
100
AcDbEntity
  8
4
100
AcDbCircle
 10
2245.892054996392
 20
529.8447603012733
 30
0.0
 40
46.500054
100
AcDbArc
 50
104.9552305438094
 51
75.04478700000072
  0
ARC
  5
4D2
330
17
100
AcDbEntity
  8
4
100
AcDbCircle
 10
509.4844851158709
 20
591.9111663012734
 30
0.0
 40
3.999918
100
AcDbArc
 50
166.1605359999983
 51
275.9980270000059
  0
ARC
  5
4D3
330
17
100
AcDbEntity
  8
4
100
AcDbCircle
 10
509.4844851158709
 20
467.7783543012736
 30
0.0
 40
3.999918
100
AcDbArc
 50
84.00197299999405
 51
193.8394640000017
  0
ARC
  5
4D4
330
17
100
AcDbEntity
  8
4
100
AcDbCircle
 10
503.871689115871
 20
272.2637043012735
 30
0.0
 40
5.000052
100
AcDbArc
 50
195.0038580000019
 51
254.9961449999988
  0
ARC
  5
4D5
330
17
100
AcDbEntity
  8
4
100
AcDbCircle
 10
450.0528411158712
 20
348.3447603012735
 30
0.0
 40
1.000002
100
AcDbArc
 50
90.0
 51
180.0
  0
LINE
  5
4D6
330
17
100
AcDbEntity
  8
4
100
AcDbLine
 10
439.1900260264979
 20
324.7668418585752
 30
0.0
 11
446.0528451158712
 21
324.7668418585752
 31
0.0
  0
LINE
  5
4D7
330
17
100
AcDbEntity
  8
4
100
AcDbLine
 10
439.1900260264979
 20
330.2516694158764
 30
0.0
 11
449.0528451158712
 21
330.2516694158764
 31
0.0
  0
ARC
  5
4D8
330
17
100
AcDbEntity
  8
4
100
AcDbCircle
 10
441.9282239911504
 20
327.5092556372258
 30
0.0
 40
3.875378875279244
100
AcDbArc
 50
134.9559267627517
 51
225.0440732372483
  0
LINE
  5
4D9
330
17
100
AcDbEntity
  8
4
100
AcDbLine
 10
450.0528411158712
 20
349.3447563012735
 30
0.0
 11
474.5086551158711
 21
349.3447563012735
 31
0.0
  0
LINE
  5
4DA
330
17
100
AcDbEntity
  8
4
100
AcDbLine
 10
439.1900260264979
 20
313.7971867439721
 30
0.0
 11
446.0528451158712
 21
313.7971867439721
 31
0.0
  0
LINE
  5
4DB
330
17
100
AcDbEntity
  8
4
100
AcDbLine
 10
449.0528451158712
 20
308.3123591866708
 30
0.0
 11
439.1900260264979
 21
308.3123591866708
 31
0.0
  0
ARC
  5
4DC
330
17
100
AcDbEntity
  8
4
100
AcDbCircle
 10
441.9282239911504
 20
311.0547729653215
 30
0.0
 40
3.875378875279264
100
AcDbArc
 50
134.9559267627517
 51
225.0440732372483
  0
LINE
  5
4DD
330
17
100
AcDbEntity
  8
4
100
AcDbLine
 10
449.0528451158712
 20
330.2516694158764
 30
0.0
 11
449.0528451158712
 21
308.3123591866708
 31
0.0
  0
LINE
  5
4DE
330
17
100
AcDbEntity
  8
4
100
AcDbLine
 10
438.0528451158712
 20
311.0547729653215
 30
0.0
 11
438.0528451158712
 21
327.5092556372258
 31
0.0
  0
LINE
  5
4DF
330
17
100
AcDbEntity
  8
4
100
AcDbLine
 10
446.0528451158712
 20
330.2516694158764
 30
0.0
 11
446.0528451158712
 21
308.3123591866708
 31
0.0
  0
ARC
  5
4E0
330
17
100
AcDbEntity
  8
4
100
AcDbCircle
 10
451.8485892510485
 20
319.2820143012734
 30
0.0
 40
13.7957441351769
100
AcDbArc
 50
156.5734024913727
 51
203.4265975086273
  0
LINE
  5
4E1
330
17
100
AcDbEntity
  8
4
100
AcDbLine
 10
449.0528451158712
 20
245.8144134158765
 30
0.0
 11
449.0528451158712
 21
223.8751031866709
 31
0.0
  0
LINE
  5
4E2
330
17
100
AcDbEntity
  8
4
100
AcDbLine
 10
438.0528451158712
 20
226.6175169653216
 30
0.0
 11
438.0528451158712
 21
243.0719996372259
 31
0.0
  0
LINE
  5
4E3
330
17
100
AcDbEntity
  8
4
100
AcDbLine
 10
446.0528451158712
 20
245.8144134158765
 30
0.0
 11
446.0528451158712
 21
223.8751031866709
 31
0.0
  0
ARC
  5
4E4
330
17
100
AcDbEntity
  8
4
100
AcDbCircle
 10
451.8485892510485
 20
234.8447583012735
 30
0.0
 40
13.7957441351769
100
AcDbArc
 50
156.5734024913727
 51
203.4265975086273
  0
LINE
  5
4E5
330
17
100
AcDbEntity
  8
4
100
AcDbLine
 10
439.1900260264979
 20
229.3599307439722
 30
0.0
 11
446.0528451158712
 21
229.3599307439722
 31
0.0
  0
LINE
  5
4E6
330
17
100
AcDbEntity
  8
4
100
AcDbLine
 10
449.0528451158712
 20
223.8751031866709
 30
0.0
 11
439.1900260264979
 21
223.8751031866709
 31
0.0
  0
ARC
  5
4E7
330
17
100
AcDbEntity
  8
4
100
AcDbCircle
 10
441.9282239911504
 20
226.6175169653216
 30
0.0
 40
3.875378875279264
100
AcDbArc
 50
134.9559267627517
 51
225.0440732372483
  0
LINE
  5
4E8
330
17
100
AcDbEntity
  8
4
100
AcDbLine
 10
439.1900260264979
 20
240.3295858585752
 30
0.0
 11
446.0528451158712
 21
240.3295858585752
 31
0.0
  0
LINE
  5
4E9
330
17
100
AcDbEntity
  8
4
100
AcDbLine
 10
439.1900260264979
 20
245.8144134158765
 30
0.0
 11
449.0528451158712
 21
245.8144134158765
 31
0.0
  0
ARC
  5
4EA
330
17
100
AcDbEntity
  8
4
100
AcDbCircle
 10
441.9282239911504
 20
243.0719996372259
 30
0.0
 40
3.875378875279244
100
AcDbArc
 50
134.9559267627517
 51
225.0440732372471
  0
LINE
  5
4EB
330
17
100
AcDbEntity
  8
4
100
AcDbLine
 10
439.1900260264979
 20
155.8923298585752
 30
0.0
 11
446.0528451158712
 21
155.8923298585752
 31
0.0
  0
LINE
  5
4EC
330
17
100
AcDbEntity
  8
4
100
AcDbLine
 10
439.1900260264979
 20
161.3771574158765
 30
0.0
 11
449.0528451158712
 21
161.3771574158765
 31
0.0
  0
ARC
  5
4ED
330
17
100
AcDbEntity
  8
4
100
AcDbCircle
 10
441.9282239911504
 20
158.6347436372258
 30
0.0
 40
3.875378875279244
100
AcDbArc
 50
134.9559267627517
 51
225.0440732372471
  0
LINE
  5
4EE
330
17
100
AcDbEntity
  8
L-CENTER
 48
2.0
100
AcDbLine
 10
432.0094791158713
 20
150.4075023012734
 30
0.0
 11
497.9266191158708
 21
150.4075023012734
 31
0.0
  0
LINE
  5
4EF
330
17
100
AcDbEntity
  8
L-CENTER
 48
2.0
100
AcDbLine
 10
431.0327031158708
 20
319.2820143012734
 30
0.0
 11
502.7691531158712
 21
319.2820143012734
 31
0.0
  0
ARC
  5
4F0
330
17
100
AcDbEntity
  8
4
100
AcDbCircle
 10
1464.952745115871
 20
529.8447603012735
 30
0.0
 40
1000.000032
100
AcDbArc
 50
180.0001259887593
 51
195.0031589999999
  0
ARC
  5
4F1
330
17
100
AcDbEntity
  8
4
100
AcDbCircle
 10
481.8897591158711
 20
115.3447563012735
 30
0.0
 40
4.999956
100
AcDbArc
 50
3.031311999999935
 51
90.0
  0
ARC
  5
4F2
330
17
100
AcDbEntity
  8
4
100
AcDbCircle
 10
450.0528411158712
 20
121.3447563012735
 30
0.0
 40
1.000002
100
AcDbArc
 50
180.0
 51
270.0
  0
LINE
  5
4F3
330
17
100
AcDbEntity
  8
4
100
AcDbLine
 10
439.1900260264979
 20
144.9226747439722
 30
0.0
 11
446.0528451158712
 21
144.9226747439722
 31
0.0
  0
LINE
  5
4F4
330
17
100
AcDbEntity
  8
4
100
AcDbLine
 10
449.0528451158712
 20
139.4378471866709
 30
0.0
 11
439.1900260264979
 21
139.4378471866709
 31
0.0
  0
ARC
  5
4F5
330
17
100
AcDbEntity
  8
4
100
AcDbCircle
 10
441.9282239911504
 20
142.1802609653215
 30
0.0
 40
3.875378875279264
100
AcDbArc
 50
134.9559267627517
 51
225.0440732372483
  0
LINE
  5
4F6
330
17
100
AcDbEntity
  8
4
100
AcDbLine
 10
450.0528411158712
 20
120.3447603012735
 30
0.0
 11
481.8897591158711
 21
120.3447603012735
 31
0.0
  0
LINE
  5
4F7
330
17
100
AcDbEntity
  8
4
100
AcDbLine
 10
487.4527431158708
 20
119.8447563012735
 30
0.0
 11
487.4527431158708
 21
64.84476030127348
 31
0.0
  0
LINE
  5
4FE
330
17
100
AcDbEntity
  8
4
100
AcDbLine
 10
511.4527431158708
 20
234.8447583012735
 30
0.0
 11
511.4527431158708
 21
119.8447563012735
 31
0.0
  0
LINE
  5
4FF
330
17
100
AcDbEntity
  8
4
100
AcDbLine
 10
487.4527431158708
 20
104.8447563012735
 30
0.0
 11
464.9527431158708
 21
529.8447603012735
 31
0.0
  0
LINE
  5
500
330
17
100
AcDbEntity
  8
4
100
AcDbLine
 10
449.0528451158712
 20
121.3447563012735
 30
0.0
 11
449.0528451158712
 21
348.3447603012735
 31
0.0
  0
LINE
  5
501
330
17
100
AcDbEntity
  8
4
100
AcDbLine
 10
469.4527431158708
 20
349.3447563012735
 30
0.0
 11
469.4527431158708
 21
120.3447603012735
 31
0.0
  0
LINE
  5
502
330
17
100
AcDbEntity
  8
4
100
AcDbLine
 10
449.0528451158712
 20
161.3771574158765
 30
0.0
 11
449.0528451158712
 21
139.4378471866709
 31
0.0
  0
LINE
  5
503
330
17
100
AcDbEntity
  8
4
100
AcDbLine
 10
438.0528451158712
 20
142.1802609653215
 30
0.0
 11
438.0528451158712
 21
158.6347436372258
 31
0.0
  0
LINE
  5
504
330
17
100
AcDbEntity
  8
4
100
AcDbLine
 10
446.0528451158712
 20
161.3771574158765
 30
0.0
 11
446.0528451158712
 21
139.4378471866709
 31
0.0
  0
ARC
  5
505
330
17
100
AcDbEntity
  8
4
100
AcDbCircle
 10
451.8485892510485
 20
150.4075023012734
 30
0.0
 40
13.7957441351769
100
AcDbArc
 50
156.5734024913727
 51
203.4265975086273
  0
LINE
  5
50B
330
17
100
AcDbEntity
  8
4
100
AcDbLine
 10
216.9033473537677
 20
272.3447583012736
 30
0.0
 11
198.9033473537677
 21
272.3447583012736
 31
0.0
  0
LINE
  5
50C
330
17
100
AcDbEntity
  8
4
100
AcDbLine
 10
216.9033473537677
 20
260.3447583012736
 30
0.0
 11
198.9033473537677
 21
260.3447583012736
 31
0.0
  0
LINE
  5
50D
330
17
100
AcDbEntity
  8
4
100
AcDbLine
 10
198.9033473537677
 20
272.3447583012736
 30
0.0
 11
198.9033473537677
 21
260.3447583012736
 31
0.0
  0
LINE
  5
50F
330
17
100
AcDbEntity
  8
4
100
AcDbLine
 10
216.9033473537677
 20
260.3447583012736
 30
0.0
 11
216.9033473537677
 21
272.3447583012736
 31
0.0
  0
LINE
  5
512
330
17
100
AcDbEntity
  8
L-CENTER
 48
2.0
100
AcDbLine
 10
207.9033473537677
 20
280.1897789556994
 30
0.0
 11
207.9033473537677
 21
189.4997376468478
 31
0.0
  0
ARC
  5
51E
330
17
100
AcDbEntity
  8
4
100
AcDbCircle
 10
207.9033473537677
 20
234.8447583012736
 30
0.0
 40
31.500048
100
AcDbArc
 50
106.6015235688887
 51
73.39849900000006
  0
LINE
  5
520
330
17
100
AcDbEntity
  8
L-CENTER
 48
2.0
100
AcDbLine
 10
253.2483680081934
 20
234.8447583012736
 30
0.0
 11
162.5583266993419
 21
234.8447583012736
 31
0.0
  0
ARC
  5
525
330
17
100
AcDbEntity
  8
4
100
AcDbCircle
 10
583.9527471158713
 20
234.8447583012735
 30
0.0
 40
72.499998
100
AcDbArc
 50
180.0
 51
0.0
  0
LINE
  5
526
330
17
100
AcDbEntity
  8
4
100
AcDbLine
 10
487.4527431158708
 20
64.84476030127348
 30
0.0
 11
671.4527451158715
 21
64.84476030127348
 31
0.0
  0
LINE
  5
527
330
17
100
AcDbEntity
  8
4
100
AcDbLine
 10
487.4527431158708
 20
119.8447563012735
 30
0.0
 11
671.4527451158715
 21
119.8447563012735
 31
0.0
  0
LINE
  5
529
330
17
100
AcDbEntity
  8
L-CENTER
 48
2.0
100
AcDbLine
 10
446.6535531158711
 20
529.8447603012735
 30
0.0
 11
1076.251937115871
 21
529.8447603012735
 31
0.0
  0
LINE
  5
52A
330
17
100
AcDbEntity
  8
4
100
AcDbLine
 10
644.1561111158712
 20
457.6492023012734
 30
0.0
 11
509.9024511158709
 21
471.7563783012736
 31
0.0
  0
LINE
  5
52B
330
17
100
AcDbEntity
  8
L-CENTER
 48
2.0
100
AcDbLine
 10
1093.199291417491
 20
234.8447583012735
 30
0.0
 11
300.3687471158714
 21
234.8447583012736
 31
0.0
  0
ARC
  5
52C
330
17
100
AcDbEntity
  8
4
100
AcDbCircle
 10
761.4527451158715
 20
1233.344760301273
 30
0.0
 40
1000.000002
100
AcDbArc
 50
254.9966359999999
 51
285.0036359999999
  0
LINE
  5
52D
330
17
100
AcDbEntity
  8
L-CENTER
 48
2.0
100
AcDbLine
 10
761.4527451158715
 20
67.90189028760051
 30
0.0
 11
761.4527451158715
 21
940.4515824772341
 31
0.0
  0
ARC
  5
52E
330
17
100
AcDbEntity
  8
4
100
AcDbCircle
 10
761.4527451158715
 20
529.8447603012735
 30
0.0
 40
263.500002
100
AcDbArc
 50
90.00000200000005
 51
270.0000519999998
  0
LINE
  5
52F
330
17
100
AcDbEntity
  8
4
100
AcDbLine
 10
644.1561111158712
 20
602.0403183012734
 30
0.0
 11
509.9024511158709
 21
587.9331363012734
 31
0.0
  0
ARC
  5
530
330
17
100
AcDbEntity
  8
4
100
AcDbCircle
 10
761.4527451158715
 20
529.8447603012735
 30
0.0
 40
293.500002
100
AcDbArc
 50
90.00000200000007
 51
270.0000459999998
  0
ARC
  5
531
330
17
100
AcDbEntity
  8
4
100
AcDbCircle
 10
1464.952745115871
 20
529.8447603012735
 30
0.0
 40
999.99993
100
AcDbArc
 50
164.996939
 51
180.0001259887593
  0
ARC
  5
533
330
17
100
AcDbEntity
  8
4
100
AcDbCircle
 10
57.95274511587104
 20
529.8447603012735
 30
0.0
 40
999.999996
100
AcDbArc
 50
0.0
 51
15.00330500000001
  0
ARC
  5
534
330
17
100
AcDbEntity
  8
4
100
AcDbCircle
 10
761.4527451158715
 20
529.8447603012735
 30
0.0
 40
293.500002
100
AcDbArc
 50
270.0002839999997
 51
90.00000200000007
  0
ARC
  5
535
330
17
100
AcDbEntity
  8
4
100
AcDbCircle
 10
761.4527451158715
 20
529.8447603012735
 30
0.0
 40
263.500002
100
AcDbArc
 50
270.000264
 51
90.00000200000005
  0
ARC
  5
536
330
17
100
AcDbEntity
  8
4
100
AcDbCircle
 10
643.1109471158711
 20
611.9856303012734
 30
0.0
 40
10.000008
100
AcDbArc
 50
275.9992680000012
 51
350.7315380000005
  0
ARC
  5
537
330
17
100
AcDbEntity
  8
4
100
AcDbCircle
 10
1153.452743115871
 20
529.8447603012735
 30
0.0
 40
499.999962
100
AcDbArc
 50
168.821072
 51
180.000140000656
  0
ARC
  5
538
330
17
100
AcDbEntity
  8
4
100
AcDbCircle
 10
1146.452747115871
 20
529.8447603012735
 30
0.0
 40
499.9999319999999
100
AcDbArc
 50
168.138339
 51
180.0001399980527
  0
LINE
  5
539
330
17
100
AcDbEntity
  8
4
100
AcDbLine
 10
878.7493731158715
 20
602.0403183012734
 30
0.0
 11
1013.003039115871
 21
587.9331363012734
 31
0.0
  0
ARC
  5
53A
330
17
100
AcDbEntity
  8
4
100
AcDbCircle
 10
879.794543115871
 20
611.9856303012734
 30
0.0
 40
10.000008
100
AcDbArc
 50
189.2684619999995
 51
264.0007319999988
  0
ARC
  5
53B
330
17
100
AcDbEntity
  8
4
100
AcDbCircle
 10
369.4527471158713
 20
529.8447603012735
 30
0.0
 40
500.000004
100
AcDbArc
 50
0.0
 51
11.17912600000009
  0
ARC
  5
53C
330
17
100
AcDbEntity
  8
4
100
AcDbCircle
 10
376.4527431158708
 20
529.8447603012735
 30
0.0
 40
500.00004
100
AcDbArc
 50
0.0
 51
11.86191299999992
  0
LINE
  5
560
330
17
100
AcDbEntity
  8
4
100
AcDbLine
 10
431.4527451158715
 20
203.3447583012735
 30
0.0
 11
312.4527471158722
 21
203.3447583012735
 31
0.0
  0
LINE
  5
561
330
17
100
AcDbEntity
  8
4
100
AcDbLine
 10
431.4527451158715
 20
266.3447583012735
 30
0.0
 11
312.4527471158722
 21
266.3447583012735
 31
0.0
  0
LINE
  5
562
330
17
100
AcDbEntity
  8
4
100
AcDbLine
 10
311.4527451158715
 20
272.3447583012735
 30
0.0
 11
421.4527431158717
 21
272.3447583012735
 31
0.0
  0
LINE
  5
563
330
17
100
AcDbEntity
  8
4
100
AcDbLine
 10
448.0528451158721
 20
279.8447583012736
 30
0.0
 11
448.0528451158721
 21
245.8144134158765
 31
0.0
  0
LINE
  5
564
330
17
100
AcDbEntity
  8
4
100
AcDbLine
 10
431.4527451158715
 20
267.3447603012735
 30
0.0
 11
431.4527451158715
 21
202.3447563012735
 31
0.0
  0
LINE
  5
565
330
17
100
AcDbEntity
  8
4
100
AcDbLine
 10
448.0528451158721
 20
223.8751031866708
 30
0.0
 11
448.0528451158721
 21
189.8447583012734
 31
0.0
  0
LINE
  5
566
330
17
100
AcDbEntity
  8
4
100
AcDbLine
 10
431.4527451158715
 20
202.3447563012735
 30
0.0
 11
448.0528431158723
 21
202.3447563012735
 31
0.0
  0
LINE
  5
567
330
17
100
AcDbEntity
  8
4
100
AcDbLine
 10
448.0528451158721
 20
189.8447583012734
 30
0.0
 11
449.0528451158721
 21
189.8447583012734
 31
0.0
  0
LINE
  5
568
330
17
100
AcDbEntity
  8
4
100
AcDbLine
 10
431.4527451158715
 20
267.3447603012735
 30
0.0
 11
448.0528431158723
 21
267.3447603012735
 31
0.0
  0
LINE
  5
569
330
17
100
AcDbEntity
  8
4
100
AcDbLine
 10
448.0528451158721
 20
279.8447583012735
 30
0.0
 11
449.0528451158721
 21
279.8447583012735
 31
0.0
  0
LINE
  5
56A
330
17
100
AcDbEntity
  8
4
100
AcDbLine
 10
421.4527431158717
 20
272.3447583012735
 30
0.0
 11
421.4527431158717
 21
266.3447583012735
 31
0.0
  0
LINE
  5
56B
330
17
100
AcDbEntity
  8
4
100
AcDbLine
 10
311.4527451158715
 20
272.3447583012735
 30
0.0
 11
311.4527451158715
 21
204.3447603012735
 31
0.0
  0
LINE
  5
56C
330
17
100
AcDbEntity
  8
4
100
AcDbLine
 10
312.4527471158722
 20
203.3447583012735
 30
0.0
 11
312.4527471158722
 21
266.3447583012735
 31
0.0
  0
LINE
  5
56D
330
17
100
AcDbEntity
  8
4
100
AcDbLine
 10
312.4527471158722
 20
203.3447583012735
 30
0.0
 11
311.4527451158715
 21
204.3447603012735
 31
0.0
  0
LINE
  5
56E
330
17
100
AcDbEntity
  8
4
100
AcDbLine
 10
311.4527451158715
 20
265.3447563012735
 30
0.0
 11
312.4527471158722
 21
266.3447583012735
 31
0.0
  0
LINE
  5
592
330
17
100
AcDbEntity
  8
4
100
AcDbLine
 10
430.4527451158717
 20
1407.187234995207
 30
0.0
 11
312.4527451158717
 21
1407.187234995207
 31
0.0
  0
LINE
  5
593
330
17
100
AcDbEntity
  8
4
100
AcDbLine
 10
430.4527451158717
 20
1470.187234995207
 30
0.0
 11
312.4527451158717
 21
1470.187234995207
 31
0.0
  0
LINE
  5
594
330
17
100
AcDbEntity
  8
4
100
AcDbLine
 10
412.4527451158717
 20
1429.687234995207
 30
0.0
 11
311.4527451158717
 21
1429.687234995207
 31
0.0
  0
LINE
  5
595
330
17
100
AcDbEntity
  8
4
100
AcDbLine
 10
412.4527451158717
 20
1447.687234995207
 30
0.0
 11
311.4527451158717
 21
1447.687234995207
 31
0.0
  0
LINE
  5
596
330
17
100
AcDbEntity
  8
4
100
AcDbLine
 10
431.4527451158717
 20
1471.187234995207
 30
0.0
 11
431.4527451158717
 21
1406.187234995207
 31
0.0
  0
ARC
  5
597
330
17
100
AcDbEntity
  8
4
100
AcDbCircle
 10
412.4527451158717
 20
1438.687234995207
 30
0.0
 40
9.0
100
AcDbArc
 50
270.0
 51
90.0
  0
LINE
  5
598
330
17
100
AcDbEntity
  8
4
100
AcDbLine
 10
448.1527451158724
 20
1400.906626853662
 30
0.0
 11
448.1527451158724
 21
1476.467843136751
 31
0.0
  0
LINE
  5
599
330
17
100
AcDbEntity
  8
4
100
AcDbLine
 10
431.4527451158717
 20
1406.187234995208
 30
0.0
 11
448.1527451158724
 21
1406.187234995208
 31
0.0
  0
ARC
  5
59A
330
17
100
AcDbEntity
  8
4
100
AcDbCircle
 10
430.4527451158717
 20
1406.187234995207
 30
0.0
 40
1.0
100
AcDbArc
 50
0.0
 51
90.0
  0
LINE
  5
59B
330
17
100
AcDbEntity
  8
4
100
AcDbLine
 10
431.4527451158717
 20
1471.187234995207
 30
0.0
 11
448.1527451158724
 21
1471.187234995207
 31
0.0
  0
ARC
  5
59C
330
17
100
AcDbEntity
  8
4
100
AcDbCircle
 10
430.4527451158717
 20
1471.187234995207
 30
0.0
 40
1.0
100
AcDbArc
 50
270.0
 51
0.0
  0
LINE
  5
59D
330
17
100
AcDbEntity
  8
4
100
AcDbLine
 10
311.4527451158717
 20
1469.187234995207
 30
0.0
 11
311.4527451158717
 21
1408.187234995207
 31
0.0
  0
LINE
  5
59E
330
17
100
AcDbEntity
  8
4
100
AcDbLine
 10
312.4527451158717
 20
1429.687234995207
 30
0.0
 11
312.4527451158717
 21
1407.187234995207
 31
0.0
  0
LINE
  5
59F
330
17
100
AcDbEntity
  8
4
100
AcDbLine
 10
312.4527451158717
 20
1407.187234995207
 30
0.0
 11
311.4527451158717
 21
1408.187234995207
 31
0.0
  0
LINE
  5
5A0
330
17
100
AcDbEntity
  8
4
100
AcDbLine
 10
312.4527451158717
 20
1470.187234995207
 30
0.0
 11
312.4527451158717
 21
1447.687234995207
 31
0.0
  0
LINE
  5
5A1
330
17
100
AcDbEntity
  8
4
100
AcDbLine
 10
312.4527451158717
 20
1470.187234995207
 30
0.0
 11
311.4527451158717
 21
1469.187234995207
 31
0.0
  0
CIRCLE
  5
5A3
330
17
100
AcDbEntity
  8
4
100
AcDbCircle
 10
1738.647980920313
 20
234.8447583012735
 30
0.0
 40
50.0
  0
CIRCLE
  5
5A4
330
17
100
AcDbEntity
  8
4
100
AcDbCircle
 10
1738.647980920313
 20
234.8447583012735
 30
0.0
 40
72.0
  0
ENDSEC
  0
SECTION
  2
OBJECTS
  0
DICTIONARY
  5
5
330
0
100
AcDbDictionary
281
     1
  3
ACAD_COLOR
350
28
  3
ACAD_GROUP
350
26
  3
ACAD_LAYOUT
350
1E
  3
ACAD_MATERIAL
350
7
  3
ACAD_MLEADERSTYLE
350
541
  3
ACAD_MLINESTYLE
350
15
  3
ACAD_PLOTSETTINGS
350
27
  3
ACAD_PLOTSTYLENAME
350
4
  3
ACAD_SCALELIST
350
2C
  3
ACAD_TABLESTYLE
350
540
  3
ACAD_VISUALSTYLE
350
29
  3
ACDBHEADERROUNDTRIPXREC
350
5C2
  3
AcDbVariableDictionary
350
53E
  3
DWGPROPS
350
5C5
  0
DICTIONARY
  5
5C6
330
25
100
AcDbDictionary
280
     1
281
     1
  3
ACAD_XREC_ROUNDTRIP
360
5C7
  0
DICTIONARY
  5
18
330
17
100
AcDbDictionary
280
     1
281
     1
  3
ACAD_SORTENTS
360
19
  0
DICTIONARY
  5
28
102
{ACAD_REACTORS
330
5
102
}
330
5
100
AcDbDictionary
281
     1
  0
DICTIONARY
  5
26
102
{ACAD_REACTORS
330
5
102
}
330
5
100
AcDbDictionary
281
     1
  0
DICTIONARY
  5
1E
102
{ACAD_REACTORS
330
5
102
}
330
5
100
AcDbDictionary
281
     1
  3
Model
350
1D
  3
ﾚｲｱｳﾄ1
350
22
  0
DICTIONARY
  5
7
102
{ACAD_REACTORS
330
5
102
}
330
5
100
AcDbDictionary
281
     1
  3
ByBlock
350
4F
  3
ByLayer
350
10
  3
Global
350
6
  0
DICTIONARY
  5
541
102
{ACAD_REACTORS
330
5
102
}
330
5
100
AcDbDictionary
281
     1
  3
Standard
350
5B8
  0
DICTIONARY
  5
15
102
{ACAD_REACTORS
330
5
102
}
330
5
100
AcDbDictionary
281
     1
  3
STANDARD
350
14
  0
DICTIONARY
  5
27
102
{ACAD_REACTORS
330
5
102
}
330
5
100
AcDbDictionary
281
     1
  0
ACDBDICTIONARYWDFLT
  5
4
102
{ACAD_REACTORS
330
5
102
}
330
5
100
AcDbDictionary
281
     1
  3
Normal
350
3
100
AcDbDictionaryWithDefault
340
3
  0
DICTIONARY
  5
2C
102
{ACAD_REACTORS
330
5
102
}
330
5
100
AcDbDictionary
281
     1
  3
*A1
350
4E
  0
DICTIONARY
  5
540
102
{ACAD_REACTORS
330
5
102
}
330
5
100
AcDbDictionary
281
     1
  3
Standard
350
5BE
  0
DICTIONARY
  5
29
102
{ACAD_REACTORS
330
5
102
}
330
5
100
AcDbDictionary
281
     1
  3
2dWireframe
350
549
  3
Basic
350
54C
  3
Brighten
350
550
  3
ColorChange
350
554
  3
Conceptual
350
54E
  3
Dim
350
54F
  3
EdgeColorOff
350
557
  3
Facepattern
350
553
  3
Flat
350
545
  3
FlatWithEdges
350
546
  3
Gouraud
350
547
  3
GouraudWithEdges
350
548
  3
Hidden
350
54B
  3
JitterOff
350
555
  3
Linepattern
350
552
  3
OverhangOff
350
556
  3
Realistic
350
54D
  3
Shaded
350
55C
  3
Shaded with edges
350
55B
  3
Shades of Gray
350
558
  3
Sketchy
350
559
  3
Thicken
350
551
  3
Wireframe
350
54A
  3
X-Ray
350
55A
  0
DICTIONARY
  5
5C2
102
{ACAD_REACTORS
330
5
102
}
330
5
100
AcDbDictionary
281
     1
  3
COLORDICT
350
5C3
  3
MATERIALDICT
350
5C4
  0
DICTIONARY
  5
53E
102
{ACAD_REACTORS
330
5
102
}
330
5
100
AcDbDictionary
281
     1
  3
CANNOSCALE
350
53F
  3
CMLEADERSTYLE
350
5BA
  3
CTABLESTYLE
350
5BF
  3
DIMASSOC
350
5C0
  3
HIDETEXT
350
5C1
  3
MSLTSCALE
350
5C8
  3
XCLIPFRAME
350
542
  0
XRECORD
  5
5C5
102
{ACAD_REACTORS
330
5
102
}
330
5
100
AcDbXrecord
280
     1
  1
DWGPROPS COOKIE
  2

  3

  4

  6

  7

  8
sg-d04
  9

300
=
301
=
302
=
303
=
304
=
305
=
306
=
307
=
308
=
309
=
 40
0.0
 41
2457465.426151042
 42
2457871.447441921
  1

 90
        0
  0
XRECORD
  5
5C7
102
{ACAD_REACTORS
330
5C6
102
}
330
5C6
100
AcDbXrecord
280
     1
102
VTR_0.000_0.000_1.000_1.000_VISUALSTYLE
340
549
102
VTR_0.000_0.000_1.000_1.000_GRIDDISPLAY
 70
     3
102
VTR_0.000_0.000_1.000_1.000_GRIDMAJOR
 70
     5
102
VTR_0.000_0.000_1.000_1.000_DEFAULTLIGHTING
280
     1
102
VTR_0.000_0.000_1.000_1.000_DEFAULTLIGHTINGTYPE
 70
     1
102
VTR_0.000_0.000_1.000_1.000_BRIGHTNESS
141
0.0
102
VTR_0.000_0.000_1.000_1.000_CONTRAST
142
0.0
  0
SORTENTSTABLE
  5
19
102
{ACAD_REACTORS
330
18
102
}
330
18
100
AcDbSortentsTable
330
17
331
0
  5
364
331
180
  5
3E2
331
188
  5
3DA
331
189
  5
3D9
331
18A
  5
3D8
331
18B
  5
3D7
331
18C
  5
3D6
331
18D
  5
3D5
331
18E
  5
3D4
331
18F
  5
3D3
331
190
  5
3D2
331
191
  5
3D1
331
192
  5
3D0
331
193
  5
3CF
331
194
  5
3CE
331
195
  5
3CD
331
197
  5
3CB
331
198
  5
3CA
331
199
  5
3C9
331
19A
  5
3C8
331
19B
  5
3C7
331
19C
  5
3C6
331
19D
  5
3C5
331
19E
  5
3C4
331
19F
  5
3C3
331
1A0
  5
3C2
331
1A1
  5
3C1
331
1A2
  5
3C0
331
1A3
  5
3BF
331
1A4
  5
3BE
331
1A5
  5
3BD
331
1A6
  5
3BC
331
1A7
  5
3BB
331
1A8
  5
3BA
331
1A9
  5
3B9
331
1B0
  5
3B2
331
1B1
  5
3B1
331
1B2
  5
3B0
331
1B3
  5
3AF
331
1B4
  5
3AE
331
1B5
  5
3AD
331
1BC
  5
3A6
331
1C2
  5
3A0
331
1C3
  5
39F
331
1C4
  5
39E
331
1C5
  5
39D
331
1C6
  5
39C
331
1C7
  5
39B
331
1C8
  5
39A
331
1C9
  5
399
331
1CA
  5
398
331
1CB
  5
397
331
1CC
  5
396
331
1CD
  5
395
331
1CE
  5
394
331
1CF
  5
393
331
1D0
  5
392
331
1D1
  5
391
331
1D2
  5
390
331
1D3
  5
38F
331
1D4
  5
38E
331
1D5
  5
38D
331
1D6
  5
38C
331
1D7
  5
38B
331
1D8
  5
38A
331
1D9
  5
389
331
1DA
  5
388
331
1DB
  5
387
331
1DC
  5
386
331
1DD
  5
385
331
1DE
  5
384
331
1DF
  5
383
331
1E0
  5
382
331
1E1
  5
381
331
1E2
  5
380
331
1E3
  5
37F
331
1E4
  5
37E
331
1E5
  5
37D
331
1E6
  5
37C
331
1E7
  5
37B
331
1E8
  5
37A
331
1E9
  5
379
331
1EA
  5
378
331
1EB
  5
377
331
1EC
  5
376
331
1ED
  5
375
331
1EE
  5
374
331
1EF
  5
373
331
1F0
  5
372
331
1F1
  5
371
331
1F2
  5
370
331
1F3
  5
36F
331
1F4
  5
36E
331
1F5
  5
36D
331
1F6
  5
36C
331
1F7
  5
36B
331
1F8
  5
36A
331
1F9
  5
369
331
1FA
  5
368
331
1FB
  5
367
331
1FC
  5
366
331
1FD
  5
365
331
1FF
  5
363
331
200
  5
362
331
201
  5
361
331
202
  5
360
331
208
  5
35A
331
209
  5
359
331
20A
  5
358
331
20B
  5
357
331
20C
  5
356
331
20D
  5
355
331
20F
  5
353
331
212
  5
350
331
213
  5
34F
331
214
  5
34E
331
215
  5
34D
331
219
  5
349
331
21A
  5
348
331
21B
  5
347
331
21C
  5
346
331
21D
  5
345
331
21E
  5
344
331
21F
  5
343
331
220
  5
342
331
221
  5
341
331
222
  5
340
331
223
  5
33F
331
224
  5
33E
331
225
  5
33D
331
226
  5
33C
331
227
  5
33B
331
228
  5
33A
331
229
  5
339
331
22A
  5
338
331
22B
  5
337
331
22C
  5
336
331
22D
  5
335
331
22E
  5
334
331
22F
  5
333
331
230
  5
332
331
231
  5
331
331
240
  5
322
331
241
  5
321
331
244
  5
31E
331
245
  5
31D
331
24E
  5
314
331
24F
  5
313
331
253
  5
30F
331
254
  5
30E
331
255
  5
30D
331
256
  5
30C
331
257
  5
30B
331
25A
  5
308
331
25B
  5
307
331
25C
  5
306
331
25F
  5
303
331
262
  5
300
331
263
  5
2FF
331
264
  5
2FE
331
265
  5
2FD
331
266
  5
2FC
331
267
  5
2FB
331
268
  5
2FA
331
269
  5
2F9
331
26A
  5
2F8
331
26D
  5
2F5
331
26E
  5
2F4
331
26F
  5
2F3
331
270
  5
2F2
331
271
  5
2F1
331
272
  5
2F0
331
273
  5
2EF
331
274
  5
2EE
331
275
  5
2ED
331
276
  5
2EC
331
277
  5
2EB
331
278
  5
2EA
331
279
  5
2E9
331
27A
  5
2E8
331
27B
  5
2E7
331
27C
  5
2E6
331
27D
  5
2E5
331
283
  5
2DF
331
284
  5
2DE
331
286
  5
2DC
331
287
  5
2DB
331
288
  5
2DA
331
28A
  5
2D8
331
28B
  5
2D7
331
28C
  5
2D6
331
28E
  5
2D4
331
28F
  5
2D3
331
290
  5
2D2
331
295
  5
2CD
331
296
  5
2CC
331
297
  5
2CB
331
298
  5
2CA
331
299
  5
2C9
331
29A
  5
2C8
331
29B
  5
2C7
331
29C
  5
2C6
331
29D
  5
2C5
331
29E
  5
2C4
331
29F
  5
2C3
331
2A0
  5
2C2
331
2A1
  5
2C1
331
2A2
  5
2C0
331
2A3
  5
2BF
331
2A4
  5
2BE
331
2A5
  5
2BD
331
2AA
  5
2B8
331
2AB
  5
2B7
331
2AC
  5
2B6
331
2AD
  5
2B5
331
2AE
  5
2B4
331
2AF
  5
2B3
331
2B0
  5
2B2
331
2B2
  5
2B0
331
2B3
  5
2AF
331
2B4
  5
2AE
331
2B5
  5
2AD
331
2B6
  5
2AC
331
2B7
  5
2AB
331
2B8
  5
2AA
331
2B9
  5
2A9
331
2BA
  5
2A8
331
2BB
  5
2A7
331
2BC
  5
2A6
331
2BD
  5
2A5
331
2BE
  5
2A4
331
2BF
  5
2A3
331
2C0
  5
2A2
331
2C1
  5
2A1
331
2C2
  5
2A0
331
2C3
  5
29F
331
2C4
  5
29E
331
2C5
  5
29D
331
2C6
  5
29C
331
2C7
  5
29B
331
2C8
  5
29A
331
2C9
  5
299
331
2CA
  5
298
331
2CB
  5
297
331
2CC
  5
296
331
2CD
  5
295
331
2CE
  5
294
331
2CF
  5
293
331
2D0
  5
292
331
2D1
  5
291
331
2D2
  5
290
331
2D3
  5
28F
331
2D4
  5
28E
331
2D5
  5
28D
331
2D6
  5
28C
331
2D7
  5
28B
331
2D8
  5
28A
331
2D9
  5
289
331
2DA
  5
288
331
2DB
  5
287
331
2DC
  5
286
331
2DD
  5
285
331
2DE
  5
284
331
2DF
  5
283
331
2E0
  5
282
331
2E1
  5
281
331
2E2
  5
280
331
2E3
  5
27F
331
2E4
  5
27E
331
2E5
  5
27D
331
2E6
  5
27C
331
2E7
  5
27B
331
2E8
  5
27A
331
2E9
  5
279
331
2EA
  5
278
331
2EB
  5
277
331
2EC
  5
276
331
2ED
  5
275
331
2EE
  5
274
331
2EF
  5
273
331
2F0
  5
272
331
2F1
  5
271
331
2F2
  5
270
331
2F3
  5
26F
331
2F4
  5
26E
331
2F5
  5
26D
331
2F6
  5
26C
331
2F7
  5
26B
331
2F8
  5
26A
331
2F9
  5
269
331
2FA
  5
268
331
2FB
  5
267
331
2FC
  5
266
331
2FD
  5
265
331
2FE
  5
264
331
2FF
  5
263
331
300
  5
262
331
301
  5
261
331
302
  5
260
331
303
  5
25F
331
304
  5
25E
331
305
  5
25D
331
306
  5
25C
331
307
  5
25B
331
308
  5
25A
331
309
  5
259
331
30A
  5
258
331
30B
  5
257
331
30C
  5
256
331
30D
  5
255
331
30E
  5
254
331
30F
  5
253
331
310
  5
252
331
311
  5
251
331
312
  5
250
331
313
  5
24F
331
314
  5
24E
331
315
  5
24D
331
316
  5
24C
331
317
  5
24B
331
318
  5
24A
331
319
  5
249
331
31A
  5
248
331
31B
  5
247
331
31C
  5
246
331
31D
  5
245
331
31E
  5
244
331
31F
  5
243
331
320
  5
242
331
321
  5
241
331
322
  5
240
331
323
  5
23F
331
324
  5
23E
331
325
  5
23D
331
326
  5
23C
331
327
  5
23B
331
328
  5
23A
331
329
  5
239
331
32A
  5
238
331
32B
  5
237
331
32C
  5
236
331
32D
  5
235
331
32E
  5
234
331
32F
  5
233
331
330
  5
232
331
331
  5
231
331
332
  5
230
331
333
  5
22F
331
334
  5
22E
331
335
  5
22D
331
336
  5
22C
331
337
  5
22B
331
338
  5
22A
331
339
  5
229
331
33A
  5
228
331
33B
  5
227
331
33C
  5
226
331
33D
  5
225
331
33E
  5
224
331
33F
  5
223
331
340
  5
222
331
341
  5
221
331
342
  5
220
331
343
  5
21F
331
347
  5
21B
331
348
  5
21A
331
349
  5
219
331
34A
  5
218
331
34C
  5
216
331
34E
  5
214
331
34F
  5
213
331
350
  5
212
331
351
  5
211
331
352
  5
210
331
353
  5
20F
331
354
  5
20E
331
355
  5
20D
331
356
  5
20C
331
357
  5
20B
331
358
  5
20A
331
359
  5
209
331
35A
  5
208
331
35B
  5
207
331
35C
  5
206
331
35D
  5
205
331
35E
  5
204
331
35F
  5
203
331
360
  5
202
331
361
  5
201
331
362
  5
200
331
363
  5
1FF
331
364
  5
1FE
331
365
  5
1FD
331
366
  5
1FC
331
367
  5
1FB
331
36D
  5
1F5
331
36E
  5
1F4
331
36F
  5
1F3
331
370
  5
1F2
331
371
  5
1F1
331
372
  5
1F0
331
373
  5
1EF
331
374
  5
1EE
331
375
  5
1ED
331
376
  5
1EC
331
378
  5
1EA
331
379
  5
1E9
331
37A
  5
1E8
331
37B
  5
1E7
331
37C
  5
1E6
331
37D
  5
1E5
331
37E
  5
1E4
331
37F
  5
1E3
331
380
  5
1E2
331
381
  5
1E1
331
382
  5
1E0
331
383
  5
1DF
331
384
  5
1DE
331
385
  5
1DD
331
386
  5
1DC
331
387
  5
1DB
331
388
  5
1DA
331
389
  5
1D9
331
38A
  5
1D8
331
38B
  5
1D7
331
38C
  5
1D6
331
38D
  5
1D5
331
38E
  5
1D4
331
38F
  5
1D3
331
390
  5
1D2
331
391
  5
1D1
331
392
  5
1D0
331
393
  5
1CF
331
394
  5
1CE
331
395
  5
1CD
331
396
  5
1CC
331
397
  5
1CB
331
398
  5
1CA
331
399
  5
1C9
331
39A
  5
1C8
331
39B
  5
1C7
331
39C
  5
1C6
331
39D
  5
1C5
331
39E
  5
1C4
331
39F
  5
1C3
331
3A0
  5
1C2
331
3A1
  5
1C1
331
3A2
  5
1C0
331
3A3
  5
1BF
331
3A4
  5
1BE
331
3A5
  5
1BD
331
3A6
  5
1BC
331
3A7
  5
1BB
331
3A8
  5
1BA
331
3A9
  5
1B9
331
3AA
  5
1B8
331
3AB
  5
1B7
331
3AC
  5
1B6
331
3AD
  5
1B5
331
3AE
  5
1B4
331
3AF
  5
1B3
331
3B0
  5
1B2
331
3B1
  5
1B1
331
3B2
  5
1B0
331
3B3
  5
1AF
331
3B4
  5
1AE
331
3B5
  5
1AD
331
3B6
  5
1AC
331
3B7
  5
1AB
331
3B8
  5
1AA
331
3BA
  5
1A8
331
3BB
  5
1A7
331
3BC
  5
1A6
331
3BD
  5
1A5
331
3BE
  5
1A4
331
3BF
  5
1A3
331
3C0
  5
1A2
331
3C1
  5
1A1
331
3C2
  5
1A0
331
3C3
  5
19F
331
3C4
  5
19E
331
3C5
  5
19D
331
3C6
  5
19C
331
3C7
  5
19B
331
3C8
  5
19A
331
3C9
  5
199
331
3CA
  5
198
331
3CB
  5
197
331
3CC
  5
196
331
3CD
  5
195
331
3CE
  5
194
331
3CF
  5
193
331
3D0
  5
192
331
3D1
  5
191
331
3D2
  5
190
331
3D3
  5
18F
331
3D4
  5
18E
331
3D5
  5
18D
331
3D6
  5
18C
331
3D7
  5
18B
331
3D8
  5
18A
331
3D9
  5
189
331
3DA
  5
188
331
3DB
  5
187
331
3DC
  5
186
331
3DD
  5
185
331
3DE
  5
184
331
3DF
  5
183
331
3E0
  5
182
331
3E1
  5
181
331
3E2
  5
180
331
3E3
  5
17F
331
3E4
  5
17E
331
3E5
  5
17D
331
3E6
  5
17C
331
3E7
  5
17B
331
3E8
  5
17A
331
3E9
  5
179
331
3EA
  5
178
331
3EB
  5
177
331
3EC
  5
176
331
3ED
  5
175
331
3EE
  5
174
331
3EF
  5
173
331
3F0
  5
172
331
3F1
  5
171
331
3F2
  5
170
331
3F3
  5
16F
331
3F4
  5
16E
331
3F5
  5
16D
331
3F6
  5
16C
331
3F7
  5
16B
331
3F8
  5
16A
331
3F9
  5
169
331
3FA
  5
168
331
3FB
  5
167
331
3FC
  5
166
331
3FD
  5
165
331
3FE
  5
164
331
3FF
  5
163
331
400
  5
162
331
401
  5
161
331
402
  5
160
331
403
  5
15F
331
404
  5
15E
331
407
  5
15B
331
409
  5
159
331
40A
  5
158
331
40D
  5
155
331
40E
  5
154
331
40F
  5
153
331
410
  5
152
331
411
  5
151
331
412
  5
150
331
413
  5
14F
331
414
  5
14E
331
415
  5
14D
331
416
  5
14C
331
417
  5
14B
331
418
  5
14A
331
419
  5
149
331
41A
  5
148
331
41B
  5
147
331
41C
  5
146
331
425
  5
13D
331
426
  5
13C
331
427
  5
13B
331
428
  5
13A
331
42A
  5
138
331
42D
  5
135
331
42E
  5
134
331
42F
  5
133
331
430
  5
132
331
431
  5
131
331
432
  5
130
331
433
  5
12F
331
434
  5
12E
331
435
  5
12D
331
436
  5
12C
331
437
  5
12B
331
438
  5
12A
331
439
  5
129
331
43A
  5
128
331
43B
  5
127
331
43C
  5
126
331
43D
  5
125
331
440
  5
122
331
441
  5
121
331
451
  5
111
331
452
  5
110
331
453
  5
10F
331
454
  5
10E
331
456
  5
10C
331
457
  5
10B
331
458
  5
10A
331
459
  5
109
331
45A
  5
108
331
45B
  5
107
331
45C
  5
106
331
45D
  5
105
331
45E
  5
104
331
45F
  5
103
331
460
  5
102
331
461
  5
101
331
462
  5
100
331
463
  5
FF
331
464
  5
FE
331
465
  5
FD
331
466
  5
FC
331
467
  5
FB
331
468
  5
FA
331
469
  5
F9
331
46A
  5
F8
331
46B
  5
F7
331
46C
  5
F6
331
46D
  5
F5
331
46E
  5
F4
331
46F
  5
F3
331
470
  5
F2
331
471
  5
F1
331
472
  5
F0
331
473
  5
EF
331
474
  5
EE
331
475
  5
ED
331
476
  5
EC
331
477
  5
EB
331
478
  5
EA
331
479
  5
E9
331
47A
  5
E8
331
47B
  5
E7
331
47C
  5
E6
331
47D
  5
E5
331
47E
  5
E4
331
47F
  5
E3
331
480
  5
E2
331
482
  5
E0
331
483
  5
DF
331
486
  5
DC
331
487
  5
DB
331
488
  5
DA
331
489
  5
D9
331
490
  5
D2
331
491
  5
D1
331
492
  5
D0
331
52C
  5
52E
331
52D
  5
52F
331
52E
  5
530
331
52F
  5
531
331
530
  5
532
331
531
  5
533
331
533
  5
535
331
534
  5
536
331
535
  5
537
331
536
  5
538
331
537
  5
539
331
538
  5
53A
331
539
  5
53B
331
53A
  5
53C
331
53B
  5
55E
331
53C
  5
55F
331
560
  5
562
331
561
  5
563
331
562
  5
564
331
563
  5
565
331
564
  5
566
331
565
  5
56A
331
566
  5
56B
331
567
  5
56C
331
568
  5
56D
331
569
  5
56E
331
56A
  5
570
331
56B
  5
571
331
56C
  5
572
331
56D
  5
574
331
56E
  5
575
331
592
  5
597
331
593
  5
598
331
594
  5
599
331
595
  5
59A
331
596
  5
59B
331
597
  5
59C
331
598
  5
59D
331
599
  5
59E
331
59A
  5
59F
331
59B
  5
5A0
331
59C
  5
5A1
331
59D
  5
5A3
331
59E
  5
5A4
331
59F
  5
5A5
331
5A0
  5
5A6
331
5A1
  5
5A7
331
5A3
  5
5A8
331
5A4
  5
5A9
  0
LAYOUT
  5
1D
102
{ACAD_REACTORS
330
1E
102
}
330
1E
100
AcDbPlotSettings
  1

  2
Bullzip PDF Printer.pc3
  4
A3
  6

 40
0.2
 41
0.0
 42
0.0
 43
0.0
 44
420.2
 45
297.1
 46
25.0
 47
12.0
 48
139.9999997783334
 49
0.0
140
2813.999993653335
141
1907.499995549166
142
1.0
143
7.0
 70
 11936
 72
     1
 73
     0
 74
     4
  7
monochrome.ctb
 75
     0
147
0.1428571428571428
148
-139.9999997783334
149
0.0
100
AcDbLayout
  1
Model
 70
     0
 71
     0
 10
0.0
 20
0.0
 11
12.0
 21
9.0
 12
0.0
 22
0.0
 32
0.0
 14
162.5583266993422
 24
32.61028232280944
 34
0.0
 15
2313.150698996392
 25
1811.038606962362
 35
0.0
146
0.0
 13
0.0
 23
0.0
 33
0.0
 16
1.0
 26
0.0
 36
0.0
 17
0.0
 27
1.0
 37
0.0
 76
     0
330
17
331
2A
1001
ACAD_PSEXT
1000
Bullzip PDF Printer.pc3
1000
Bullzip PDF Printer
1000
BULLZIP
1000
Bullzip PDF Printer 10.1.0.1871
1070
     0
  0
LAYOUT
  5
22
102
{ACAD_REACTORS
330
1E
102
}
330
1E
100
AcDbPlotSettings
  1

  2
SR-LP8300F
  4

  6

 40
0.0
 41
0.0
 42
0.0
 43
0.0
 44
0.0
 45
0.0
 46
0.0
 47
0.0
 48
0.0
 49
0.0
140
0.0
141
0.0
142
1.0
143
1.0
 70
   688
 72
     0
 73
     0
 74
     5
  7
monochrome.ctb
 75
    16
147
1.0
148
0.0
149
0.0
100
AcDbLayout
  1
ﾚｲｱｳﾄ1
 70
     0
 71
     1
 10
0.0
 20
0.0
 11
12.0
 21
9.0
 12
0.0
 22
0.0
 32
0.0
 14
1.000000000000000E+20
 24
1.000000000000000E+20
 34
1.000000000000000E+20
 15
-1.000000000000000E+20
 25
-1.000000000000000E+20
 35
-1.000000000000000E+20
146
0.0
 13
0.0
 23
0.0
 33
0.0
 16
1.0
 26
0.0
 36
0.0
 17
0.0
 27
1.0
 37
0.0
 76
     0
330
1F
  0
MATERIAL
  5
4F
102
{ACAD_REACTORS
330
7
102
}
102
{ACAD_XDICTIONARY
360
5CD
102
}
330
7
100
AcDbMaterial
  1
ByBlock
  0
MATERIAL
  5
10
102
{ACAD_REACTORS
330
7
102
}
102
{ACAD_XDICTIONARY
360
5C9
102
}
330
7
100
AcDbMaterial
  1
ByLayer
  0
MATERIAL
  5
6
102
{ACAD_REACTORS
330
7
102
}
102
{ACAD_XDICTIONARY
360
5CB
102
}
330
7
100
AcDbMaterial
  1
Global
1001
ACAD
1070
    -1
1070
     3
1070
     0
1000

1071
        0
  0
MLEADERSTYLE
  5
5B8
102
{ACAD_REACTORS
330
541
102
}
102
{ACAD_XDICTIONARY
360
5FF
102
}
330
541
100
AcDbMLeaderStyle
170
     2
171
     1
172
     0
 90
        2
 40
0.0
 41
0.0
173
     1
 91
-1056964608
340
D
 92
       -2
290
     1
 42
0.09
291
     1
 43
0.36
  3
Standard
341
0
 44
0.18
300

342
E
174
     1
178
     6
175
     1
176
     0
 93
-1056964608
 45
0.18
292
     0
297
     0
 46
0.18
343
0
 94
-1056964608
 47
1.0
 49
1.0
140
1.0
293
     1
141
0.0
294
     1
177
     0
142
1.0
295
     0
296
     0
143
0.125
1001
ACAD_MLEADERVER
1070
     2
  0
MLINESTYLE
  5
14
102
{ACAD_REACTORS
330
15
102
}
330
15
100
AcDbMlineStyle
  2
STANDARD
 70
     0
  3

 62
     0
 51
90.0
 52
90.0
 71
     2
 49
0.5
 62
   256
  6
BYLAYER
 49
-0.5
 62
   256
  6
BYLAYER
  0
ACDBPLACEHOLDER
  5
3
102
{ACAD_REACTORS
330
4
102
}
330
4
  0
SCALE
  5
4E
102
{ACAD_REACTORS
330
2C
102
}
330
2C
100
AcDbScale
 70
     0
300
1:1
140
1.0
141
1.0
290
     1
  0
TABLESTYLE
  5
5BE
102
{ACAD_REACTORS
330
540
102
}
330
540
100
AcDbTableStyle
  3
Standard
 70
     0
 71
     0
 40
0.06
 41
0.06
280
     0
281
     0
  7
STANDARD
140
0.18
170
     2
 62
     0
 63
   257
283
     0
274
    -2
284
     1
 64
     0
275
    -2
285
     1
 65
     0
276
    -2
286
     1
 66
     0
277
    -2
287
     1
 67
     0
278
    -2
288
     1
 68
     0
279
    -2
289
     1
 69
     0
  7
STANDARD
140
0.25
170
     5
 62
     0
 63
   257
283
     0
274
    -2
284
     1
 64
     0
275
    -2
285
     1
 65
     0
276
    -2
286
     1
 66
     0
277
    -2
287
     1
 67
     0
278
    -2
288
     1
 68
     0
279
    -2
289
     1
 69
     0
  7
STANDARD
140
0.18
170
     5
 62
     0
 63
   257
283
     0
274
    -2
284
     1
 64
     0
275
    -2
285
     1
 65
     0
276
    -2
286
     1
 66
     0
277
    -2
287
     1
 67
     0
278
    -2
288
     1
 68
     0
279
    -2
289
     1
 69
     0
  0
VISUALSTYLE
  5
549
102
{ACAD_REACTORS
330
29
102
}
102
{ACAD_XDICTIONARY
360
5D7
102
}
330
29
100
AcDbVisualStyle
  2
2dWireframe
 70
     4
 71
     0
 72
     2
 73
     0
 90
        0
 40
0.6
 41
30.0
 62
     5
 63
     7
 74
     1
 91
        4
 64
     7
 65
   257
 75
     1
175
     1
 42
1.0
 92
        0
 66
   257
 43
1.0
 76
     1
 77
     6
 78
     2
 67
     7
 79
     5
170
     0
171
     0
290
     0
174
     0
 93
        1
 44
0.0
173
     0
291
     0
 45
0.0
1001
ACAD
1000
AcDbSavedByObjectVersion
1070
     0
  0
VISUALSTYLE
  5
54C
102
{ACAD_REACTORS
330
29
102
}
102
{ACAD_XDICTIONARY
360
5DD
102
}
330
29
100
AcDbVisualStyle
  2
Basic
 70
     7
 71
     1
 72
     0
 73
     1
 90
        0
 40
0.6
 41
30.0
 62
     5
 63
     7
 74
     0
 91
        4
 64
     7
 65
   257
 75
     1
175
     1
 42
1.0
 92
        8
 66
     7
 43
1.0
 76
     1
 77
     6
 78
     2
 67
     7
 79
     5
170
     0
171
     0
290
     0
174
     0
 93
        1
 44
0.0
173
     0
291
     1
 45
0.0
1001
ACAD
1000
AcDbSavedByObjectVersion
1070
     0
  0
VISUALSTYLE
  5
550
102
{ACAD_REACTORS
330
29
102
}
102
{ACAD_XDICTIONARY
360
5E5
102
}
330
29
100
AcDbVisualStyle
  2
Brighten
 70
    12
 71
     2
 72
     2
 73
     0
 90
        0
 40
0.6
 41
30.0
 62
     5
 63
     7
 74
     1
 91
        4
 64
     7
 65
   257
 75
     1
175
     1
 42
1.0
 92
        8
 66
     7
 43
1.0
 76
     1
 77
     6
 78
     2
 67
     7
 79
     5
170
     0
171
     0
290
     0
174
     0
 93
        1
 44
50.0
173
     0
291
     1
 45
0.0
1001
ACAD
1000
AcDbSavedByObjectVersion
1070
     0
  0
VISUALSTYLE
  5
554
102
{ACAD_REACTORS
330
29
102
}
102
{ACAD_XDICTIONARY
360
5ED
102
}
330
29
100
AcDbVisualStyle
  2
ColorChange
 70
    16
 71
     2
 72
     2
 73
     3
 90
        0
 40
0.6
 41
30.0
 62
     5
 63
     8
 74
     1
 91
        4
 64
     7
 65
   257
 75
     1
175
     1
 42
1.0
 92
        8
 66
     8
 43
1.0
 76
     1
 77
     6
 78
     2
 67
     7
 79
     5
170
     0
171
     0
290
     0
174
     0
 93
        1
 44
0.0
173
     0
291
     1
 45
0.0
1001
ACAD
1000
AcDbSavedByObjectVersion
1070
     0
  0
VISUALSTYLE
  5
54E
102
{ACAD_REACTORS
330
29
102
}
102
{ACAD_XDICTIONARY
360
5E1
102
}
330
29
100
AcDbVisualStyle
  2
Conceptual
 70
     9
 71
     3
 72
     2
 73
     0
 90
        0
 40
0.6
 41
30.0
 62
     5
 63
     7
 74
     2
 91
        2
 64
     7
 65
   257
 75
     1
175
     1
 42
40.0
 92
        8
 66
     7
 43
1.0
 76
     1
 77
     6
 78
     2
 67
     7
 79
     3
170
     0
171
     0
290
     0
174
     0
 93
        1
 44
0.0
173
     0
291
     0
 45
0.0
1001
ACAD
1000
AcDbSavedByObjectVersion
1070
     0
  0
VISUALSTYLE
  5
54F
102
{ACAD_REACTORS
330
29
102
}
102
{ACAD_XDICTIONARY
360
5E3
102
}
330
29
100
AcDbVisualStyle
  2
Dim
 70
    11
 71
     2
 72
     2
 73
     0
 90
        0
 40
0.6
 41
30.0
 62
     5
 63
     7
 74
     1
 91
        4
 64
     7
 65
   257
 75
     1
175
     1
 42
1.0
 92
        8
 66
     7
 43
1.0
 76
     1
 77
     6
 78
     2
 67
     7
 79
     5
170
     0
171
     0
290
     0
174
     0
 93
        1
 44
-50.0
173
     0
291
     1
 45
0.0
1001
ACAD
1000
AcDbSavedByObjectVersion
1070
     0
  0
VISUALSTYLE
  5
557
102
{ACAD_REACTORS
330
29
102
}
102
{ACAD_XDICTIONARY
360
5F3
102
}
330
29
100
AcDbVisualStyle
  2
EdgeColorOff
 70
    22
 71
     2
 72
     2
 73
     0
 90
        0
 40
0.6
 41
30.0
 62
     5
 63
     7
 74
     1
 91
        4
 64
     7
 65
   257
 75
     1
175
     1
 42
1.0
 92
        8
 66
     7
 43
1.0
 76
     1
 77
     6
 78
     2
 67
     7
 79
     5
170
     0
171
     0
290
     0
174
     0
 93
        1
 44
0.0
173
     0
291
     1
 45
0.0
1001
ACAD
1000
AcDbSavedByObjectVersion
1070
     0
  0
VISUALSTYLE
  5
553
102
{ACAD_REACTORS
330
29
102
}
102
{ACAD_XDICTIONARY
360
5EB
102
}
330
29
100
AcDbVisualStyle
  2
Facepattern
 70
    15
 71
     2
 72
     2
 73
     0
 90
        0
 40
0.6
 41
30.0
 62
     5
 63
     7
 74
     1
 91
        4
 64
     7
 65
   257
 75
     1
175
     1
 42
1.0
 92
        8
 66
     7
 43
1.0
 76
     1
 77
     6
 78
     2
 67
     7
 79
     5
170
     0
171
     0
290
     0
174
     0
 93
        1
 44
0.0
173
     0
291
     1
 45
0.0
1001
ACAD
1000
AcDbSavedByObjectVersion
1070
     0
  0
VISUALSTYLE
  5
545
102
{ACAD_REACTORS
330
29
102
}
102
{ACAD_XDICTIONARY
360
5CF
102
}
330
29
100
AcDbVisualStyle
  2
Flat
 70
     0
 71
     2
 72
     1
 73
     1
 90
        2
 40
0.6
 41
30.0
 62
     5
 63
     7
 74
     0
 91
        4
 64
     7
 65
   257
 75
     1
175
     1
 42
1.0
 92
        8
 66
     7
 43
1.0
 76
     1
 77
     6
 78
     2
 67
     7
 79
     5
170
     0
171
     0
290
     0
174
     0
 93
       13
 44
0.0
173
     0
291
     1
 45
0.0
1001
ACAD
1000
AcDbSavedByObjectVersion
1070
     0
  0
VISUALSTYLE
  5
546
102
{ACAD_REACTORS
330
29
102
}
102
{ACAD_XDICTIONARY
360
5D1
102
}
330
29
100
AcDbVisualStyle
  2
FlatWithEdges
 70
     1
 71
     2
 72
     1
 73
     1
 90
        2
 40
0.6
 41
30.0
 62
     5
 63
     7
 74
     1
 91
        4
 64
     7
 65
   257
 75
     1
175
     1
 42
1.0
 92
        0
 66
   257
 43
1.0
 76
     1
 77
     6
 78
     2
 67
     7
 79
     5
170
     0
171
     0
290
     0
174
     0
 93
       13
 44
0.0
173
     0
291
     1
 45
0.0
1001
ACAD
1000
AcDbSavedByObjectVersion
1070
     0
  0
VISUALSTYLE
  5
547
102
{ACAD_REACTORS
330
29
102
}
102
{ACAD_XDICTIONARY
360
5D3
102
}
330
29
100
AcDbVisualStyle
  2
Gouraud
 70
     2
 71
     2
 72
     2
 73
     1
 90
        2
 40
0.6
 41
30.0
 62
     5
 63
     7
 74
     0
 91
        4
 64
     7
 65
   257
 75
     1
175
     1
 42
1.0
 92
        0
 66
     7
 43
1.0
 76
     1
 77
     6
 78
     2
 67
     7
 79
     5
170
     0
171
     0
290
     0
174
     0
 93
       13
 44
0.0
173
     0
291
     1
 45
0.0
1001
ACAD
1000
AcDbSavedByObjectVersion
1070
     0
  0
VISUALSTYLE
  5
548
102
{ACAD_REACTORS
330
29
102
}
102
{ACAD_XDICTIONARY
360
5D5
102
}
330
29
100
AcDbVisualStyle
  2
GouraudWithEdges
 70
     3
 71
     2
 72
     2
 73
     1
 90
        2
 40
0.6
 41
30.0
 62
     5
 63
     7
 74
     1
 91
        4
 64
     7
 65
   257
 75
     1
175
     1
 42
1.0
 92
        0
 66
   257
 43
1.0
 76
     1
 77
     6
 78
     2
 67
     7
 79
     5
170
     0
171
     0
290
     0
174
     0
 93
       13
 44
0.0
173
     0
291
     1
 45
0.0
1001
ACAD
1000
AcDbSavedByObjectVersion
1070
     0
  0
VISUALSTYLE
  5
54B
102
{ACAD_REACTORS
330
29
102
}
102
{ACAD_XDICTIONARY
360
5DB
102
}
330
29
100
AcDbVisualStyle
  2
Hidden
 70
     6
 71
     1
 72
     2
 73
     2
 90
        0
 40
0.6
 41
30.0
 62
     5
 63
     7
 74
     2
 91
        2
 64
     7
 65
   257
 75
     2
175
     1
 42
40.0
 92
        0
 66
   257
 43
1.0
 76
     1
 77
     6
 78
     2
 67
     7
 79
     3
170
     0
171
     0
290
     0
174
     0
 93
        1
 44
0.0
173
     0
291
     0
 45
0.0
1001
ACAD
1000
AcDbSavedByObjectVersion
1070
     0
  0
VISUALSTYLE
  5
555
102
{ACAD_REACTORS
330
29
102
}
102
{ACAD_XDICTIONARY
360
5EF
102
}
330
29
100
AcDbVisualStyle
  2
JitterOff
 70
    20
 71
     2
 72
     2
 73
     0
 90
        0
 40
0.6
 41
30.0
 62
     5
 63
     7
 74
     1
 91
        4
 64
     7
 65
   257
 75
     1
175
     1
 42
1.0
 92
       10
 66
     7
 43
1.0
 76
     1
 77
     6
 78
     2
 67
     7
 79
     5
170
     0
171
     0
290
     0
174
     0
 93
        1
 44
0.0
173
     0
291
     1
 45
0.0
1001
ACAD
1000
AcDbSavedByObjectVersion
1070
     0
  0
VISUALSTYLE
  5
552
102
{ACAD_REACTORS
330
29
102
}
102
{ACAD_XDICTIONARY
360
5E9
102
}
330
29
100
AcDbVisualStyle
  2
Linepattern
 70
    14
 71
     2
 72
     2
 73
     0
 90
        0
 40
0.6
 41
30.0
 62
     5
 63
     7
 74
     1
 91
        4
 64
     7
 65
   257
 75
     7
175
     7
 42
1.0
 92
        8
 66
     7
 43
1.0
 76
     1
 77
     6
 78
     2
 67
     7
 79
     5
170
     0
171
     0
290
     0
174
     0
 93
        1
 44
0.0
173
     0
291
     1
 45
0.0
1001
ACAD
1000
AcDbSavedByObjectVersion
1070
     0
  0
VISUALSTYLE
  5
556
102
{ACAD_REACTORS
330
29
102
}
102
{ACAD_XDICTIONARY
360
5F1
102
}
330
29
100
AcDbVisualStyle
  2
OverhangOff
 70
    21
 71
     2
 72
     2
 73
     0
 90
        0
 40
0.6
 41
30.0
 62
     5
 63
     7
 74
     1
 91
        4
 64
     7
 65
   257
 75
     1
175
     1
 42
1.0
 92
        9
 66
     7
 43
1.0
 76
     1
 77
     6
 78
     2
 67
     7
 79
     5
170
     0
171
     0
290
     0
174
     0
 93
        1
 44
0.0
173
     0
291
     1
 45
0.0
1001
ACAD
1000
AcDbSavedByObjectVersion
1070
     0
  0
VISUALSTYLE
  5
54D
102
{ACAD_REACTORS
330
29
102
}
102
{ACAD_XDICTIONARY
360
5DF
102
}
330
29
100
AcDbVisualStyle
  2
Realistic
 70
     8
 71
     2
 72
     3
 73
     0
 90
        2
 40
0.6
 41
30.0
 62
     5
 63
     7
 74
     0
 91
        0
 64
     7
 65
   257
 75
     1
175
     1
 42
1.0
 92
        8
 66
   257
 43
1.0
 76
     1
 77
     6
 78
     2
 67
     7
 79
     3
170
     0
171
     0
290
     0
174
     0
 93
       13
 44
0.0
173
     0
291
     0
 45
0.0
1001
ACAD
1000
AcDbSavedByObjectVersion
1070
     0
  0
VISUALSTYLE
  5
55C
102
{ACAD_REACTORS
330
29
102
}
102
{ACAD_XDICTIONARY
360
5FD
102
}
330
29
100
AcDbVisualStyle
  2
Shaded
 70
    27
 71
     2
 72
     2
 73
     1
 90
        2
 40
0.6
 41
30.0
 62
     5
 63
     7
 74
     0
 91
        4
 64
     7
 65
   257
 75
     1
175
     1
 42
1.0
 92
        8
 66
   257
 43
1.0
 76
     1
 77
     6
 78
     2
 67
   251
 79
     3
170
     0
171
     0
290
     0
174
     0
 93
        5
 44
0.0
173
     0
291
     0
 45
0.0
1001
ACAD
1000
AcDbSavedByObjectVersion
1070
     0
  0
VISUALSTYLE
  5
55B
102
{ACAD_REACTORS
330
29
102
}
102
{ACAD_XDICTIONARY
360
5FB
102
}
330
29
100
AcDbVisualStyle
  2
Shaded with edges
 70
    26
 71
     2
 72
     2
 73
     1
 90
        2
 40
0.6
 41
30.0
 62
     5
 63
     7
 74
     1
 91
       10
 64
     7
 65
   257
 75
     2
175
     1
 42
1.0
 92
        8
 66
   257
 43
1.0
 76
     1
 77
     6
 78
     2
 67
     7
 79
     3
170
     0
171
     0
290
     0
174
     0
 93
        5
 44
0.0
173
     0
291
     0
 45
0.0
1001
ACAD
1000
AcDbSavedByObjectVersion
1070
     0
  0
VISUALSTYLE
  5
558
102
{ACAD_REACTORS
330
29
102
}
102
{ACAD_XDICTIONARY
360
5F5
102
}
330
29
100
AcDbVisualStyle
  2
Shades of Gray
 70
    23
 71
     2
 72
     2
 73
     3
 90
        0
 40
0.6
 41
30.0
 62
     5
 63
     7
 74
     2
 91
        2
 64
     7
 65
     7
 75
     1
175
     1
 42
40.0
 92
        8
 66
     7
 43
1.0
 76
     1
 77
     6
 78
     2
 67
     7
 79
     3
170
     0
171
     0
290
     0
174
     0
 93
        1
 44
0.0
173
     0
291
     0
 45
0.0
1001
ACAD
1000
AcDbSavedByObjectVersion
1070
     0
  0
VISUALSTYLE
  5
559
102
{ACAD_REACTORS
330
29
102
}
102
{ACAD_XDICTIONARY
360
5F7
102
}
330
29
100
AcDbVisualStyle
  2
Sketchy
 70
    24
 71
     1
 72
     2
 73
     2
 90
        0
 40
0.6
 41
30.0
 62
     5
 63
     7
 74
     2
 91
        2
 64
     7
 65
     7
 75
     1
175
     1
 42
40.0
 92
       11
 66
     7
 43
1.0
 76
     1
 77
     6
 78
     2
 67
     7
 79
     6
170
     0
171
     0
290
     0
174
     0
 93
        1
 44
0.0
173
     0
291
     0
 45
0.0
1001
ACAD
1000
AcDbSavedByObjectVersion
1070
     0
  0
VISUALSTYLE
  5
551
102
{ACAD_REACTORS
330
29
102
}
102
{ACAD_XDICTIONARY
360
5E7
102
}
330
29
100
AcDbVisualStyle
  2
Thicken
 70
    13
 71
     2
 72
     2
 73
     0
 90
        0
 40
0.6
 41
30.0
 62
     5
 63
     7
 74
     1
 91
        4
 64
     7
 65
   257
 75
     1
175
     1
 42
1.0
 92
       12
 66
     7
 43
1.0
 76
     1
 77
     6
 78
     2
 67
     7
 79
     5
170
     0
171
     0
290
     0
174
     0
 93
        1
 44
0.0
173
     0
291
     1
 45
0.0
1001
ACAD
1000
AcDbSavedByObjectVersion
1070
     0
  0
VISUALSTYLE
  5
54A
102
{ACAD_REACTORS
330
29
102
}
102
{ACAD_XDICTIONARY
360
5D9
102
}
330
29
100
AcDbVisualStyle
  2
Wireframe
 70
     5
 71
     0
 72
     2
 73
     0
 90
        0
 40
0.6
 41
30.0
 62
     5
 63
     7
 74
     1
 91
        4
 64
     7
 65
   257
 75
     1
175
     1
 42
1.0
 92
        0
 66
   257
 43
1.0
 76
     1
 77
     6
 78
     2
 67
     7
 79
     5
170
     0
171
     0
290
     0
174
     0
 93
        1
 44
0.0
173
     0
291
     0
 45
0.0
1001
ACAD
1000
AcDbSavedByObjectVersion
1070
     0
  0
VISUALSTYLE
  5
55A
102
{ACAD_REACTORS
330
29
102
}
102
{ACAD_XDICTIONARY
360
5F9
102
}
330
29
100
AcDbVisualStyle
  2
X-Ray
 70
    25
 71
     2
 72
     2
 73
     1
 90
        1
 40
0.5
 41
30.0
 62
     5
 63
     7
 74
     1
 91
        0
 64
     7
 65
   257
 75
     1
175
     1
 42
1.0
 92
        8
 66
     7
 43
1.0
 76
     1
 77
     6
 78
     2
 67
     7
 79
     3
170
     0
171
     0
290
     0
174
     0
 93
       13
 44
0.0
173
     0
291
     0
 45
0.0
1001
ACAD
1000
AcDbSavedByObjectVersion
1070
     0
  0
XRECORD
  5
5C3
102
{ACAD_REACTORS
330
5C2
102
}
330
5C2
100
AcDbXrecord
280
     1
340
28
  0
XRECORD
  5
5C4
102
{ACAD_REACTORS
330
5C2
102
}
330
5C2
100
AcDbXrecord
280
     1
340
7
  0
DICTIONARYVAR
  5
53F
102
{ACAD_REACTORS
330
53E
102
}
330
53E
100
DictionaryVariables
280
     0
  1
1:1
  0
DICTIONARYVAR
  5
5BA
102
{ACAD_REACTORS
330
53E
102
}
330
53E
100
DictionaryVariables
280
     0
  1
Standard
  0
DICTIONARYVAR
  5
5BF
102
{ACAD_REACTORS
330
53E
102
}
330
53E
100
DictionaryVariables
280
     0
  1
Standard
  0
DICTIONARYVAR
  5
5C0
102
{ACAD_REACTORS
330
53E
102
}
330
53E
100
DictionaryVariables
280
     0
  1
0
  0
DICTIONARYVAR
  5
5C1
102
{ACAD_REACTORS
330
53E
102
}
330
53E
100
DictionaryVariables
280
     0
  1
1
  0
DICTIONARYVAR
  5
5C8
102
{ACAD_REACTORS
330
53E
102
}
330
53E
100
DictionaryVariables
280
     0
  1
1
  0
DICTIONARYVAR
  5
542
102
{ACAD_REACTORS
330
53E
102
}
330
53E
100
DictionaryVariables
280
     0
  1
0
  0
DICTIONARY
  5
5CD
330
4F
100
AcDbDictionary
280
     1
281
     1
  3
ACAD_XREC_ROUNDTRIP
360
5CE
  0
DICTIONARY
  5
5C9
330
10
100
AcDbDictionary
280
     1
281
     1
  3
ACAD_XREC_ROUNDTRIP
360
5CA
  0
DICTIONARY
  5
5CB
330
6
100
AcDbDictionary
280
     1
281
     1
  3
ACAD_XREC_ROUNDTRIP
360
5CC
  0
DICTIONARY
  5
5FF
330
5B8
100
AcDbDictionary
280
     1
281
     1
  3
ACAD_XREC_ROUNDTRIP
360
600
  0
DICTIONARY
  5
5D7
330
549
100
AcDbDictionary
280
     1
281
     1
  3
ACAD_XREC_ROUNDTRIP
360
5D8
  0
DICTIONARY
  5
5DD
330
54C
100
AcDbDictionary
280
     1
281
     1
  3
ACAD_XREC_ROUNDTRIP
360
5DE
  0
DICTIONARY
  5
5E5
330
550
100
AcDbDictionary
280
     1
281
     1
  3
ACAD_XREC_ROUNDTRIP
360
5E6
  0
DICTIONARY
  5
5ED
330
554
100
AcDbDictionary
280
     1
281
     1
  3
ACAD_XREC_ROUNDTRIP
360
5EE
  0
DICTIONARY
  5
5E1
330
54E
100
AcDbDictionary
280
     1
281
     1
  3
ACAD_XREC_ROUNDTRIP
360
5E2
  0
DICTIONARY
  5
5E3
330
54F
100
AcDbDictionary
280
     1
281
     1
  3
ACAD_XREC_ROUNDTRIP
360
5E4
  0
DICTIONARY
  5
5F3
330
557
100
AcDbDictionary
280
     1
281
     1
  3
ACAD_XREC_ROUNDTRIP
360
5F4
  0
DICTIONARY
  5
5EB
330
553
100
AcDbDictionary
280
     1
281
     1
  3
ACAD_XREC_ROUNDTRIP
360
5EC
  0
DICTIONARY
  5
5CF
330
545
100
AcDbDictionary
280
     1
281
     1
  3
ACAD_XREC_ROUNDTRIP
360
5D0
  0
DICTIONARY
  5
5D1
330
546
100
AcDbDictionary
280
     1
281
     1
  3
ACAD_XREC_ROUNDTRIP
360
5D2
  0
DICTIONARY
  5
5D3
330
547
100
AcDbDictionary
280
     1
281
     1
  3
ACAD_XREC_ROUNDTRIP
360
5D4
  0
DICTIONARY
  5
5D5
330
548
100
AcDbDictionary
280
     1
281
     1
  3
ACAD_XREC_ROUNDTRIP
360
5D6
  0
DICTIONARY
  5
5DB
330
54B
100
AcDbDictionary
280
     1
281
     1
  3
ACAD_XREC_ROUNDTRIP
360
5DC
  0
DICTIONARY
  5
5EF
330
555
100
AcDbDictionary
280
     1
281
     1
  3
ACAD_XREC_ROUNDTRIP
360
5F0
  0
DICTIONARY
  5
5E9
330
552
100
AcDbDictionary
280
     1
281
     1
  3
ACAD_XREC_ROUNDTRIP
360
5EA
  0
DICTIONARY
  5
5F1
330
556
100
AcDbDictionary
280
     1
281
     1
  3
ACAD_XREC_ROUNDTRIP
360
5F2
  0
DICTIONARY
  5
5DF
330
54D
100
AcDbDictionary
280
     1
281
     1
  3
ACAD_XREC_ROUNDTRIP
360
5E0
  0
DICTIONARY
  5
5FD
330
55C
100
AcDbDictionary
280
     1
281
     1
  3
ACAD_XREC_ROUNDTRIP
360
5FE
  0
DICTIONARY
  5
5FB
330
55B
100
AcDbDictionary
280
     1
281
     1
  3
ACAD_XREC_ROUNDTRIP
360
5FC
  0
DICTIONARY
  5
5F5
330
558
100
AcDbDictionary
280
     1
281
     1
  3
ACAD_XREC_ROUNDTRIP
360
5F6
  0
DICTIONARY
  5
5F7
330
559
100
AcDbDictionary
280
     1
281
     1
  3
ACAD_XREC_ROUNDTRIP
360
5F8
  0
DICTIONARY
  5
5E7
330
551
100
AcDbDictionary
280
     1
281
     1
  3
ACAD_XREC_ROUNDTRIP
360
5E8
  0
DICTIONARY
  5
5D9
330
54A
100
AcDbDictionary
280
     1
281
     1
  3
ACAD_XREC_ROUNDTRIP
360
5DA
  0
DICTIONARY
  5
5F9
330
55A
100
AcDbDictionary
280
     1
281
     1
  3
ACAD_XREC_ROUNDTRIP
360
5FA
  0
XRECORD
  5
5CE
102
{ACAD_REACTORS
330
5CD
102
}
330
5CD
100
AcDbXrecord
280
     1
102
MATERIAL
148
0.0
149
0.0
149
0.0
 93
        0
 94
      127
282
     0
 72
     1
 77
     1
171
     1
175
     1
179
     1
273
     0
  0
XRECORD
  5
5CA
102
{ACAD_REACTORS
330
5C9
102
}
330
5C9
100
AcDbXrecord
280
     1
102
MATERIAL
148
0.0
149
0.0
149
0.0
 93
        0
 94
      127
282
     0
 72
     1
 77
     1
171
     1
175
     1
179
     1
273
     0
  0
XRECORD
  5
5CC
102
{ACAD_REACTORS
330
5CB
102
}
330
5CB
100
AcDbXrecord
280
     1
102
MATERIAL
148
0.0
149
0.0
149
0.0
 93
        0
 94
      127
282
     0
 72
     1
 77
     1
171
     1
175
     1
179
     1
273
     0
  0
XRECORD
  5
600
102
{ACAD_REACTORS
330
5FF
102
}
330
5FF
100
AcDbXrecord
280
     1
102
ACAD_ROUNDTRIP_2010_MLEADER_STYLE
  0
XRECORD
  5
5D8
102
{ACAD_REACTORS
330
5D7
102
}
330
5D7
100
AcDbXrecord
280
     1
102
RTVSPropertyOp0
 70
     1
102
RTVSPropertyOp1
 70
     1
102
RTVSPropertyOp2
 70
     1
102
RTVSPropertyOp3
 70
     1
102
RTVSPropertyOp4
 70
     1
102
RTVSPropertyOp5
 70
     1
102
RTVSPropertyOp6
 70
     1
102
RTVSPropertyOp7
 70
     1
102
RTVSPropertyOp8
 70
     1
102
RTVSPropertyOp9
 70
     1
102
RTVSPropertyOp10
 70
     1
102
RTVSPropertyOp11
 70
     1
102
RTVSPropertyOp12
 70
     1
102
RTVSPropertyOp13
 70
     1
102
RTVSPropertyOp14
 70
     1
102
RTVSPropertyOp15
 70
     1
102
RTVSPropertyOp16
 70
     1
102
RTVSPropertyOp17
 70
     1
102
RTVSPropertyOp18
 70
     1
102
RTVSPropertyOp19
 70
     1
102
RTVSPropertyOp20
 70
     1
102
RTVSPropertyOp21
 70
     1
102
RTVSPropertyOp22
 70
     1
102
RTVSPropertyOp23
 70
     1
102
RTVSPropertyOp24
 70
     1
102
RTVSPropertyOp25
 70
     1
102
RTVSPropertyOp26
 70
     1
102
RTVSPropertyOp27
 70
     1
102
RTVSPropertyOp28
 70
     1
102
RTVSPropertyOp29
 70
     1
102
RTVSPropertyOp30
 70
     1
102
RTVSPropertyOp31
 70
     1
102
RTVSPropertyOp32
 70
     1
102
RTVSPropertyOp33
 70
     1
102
RTVSPropertyOp34
 70
     1
102
RTVSPropertyOp35
 70
     1
102
RTVSPropertyOp36
 70
     1
102
RTVSPropertyOp37
 70
     1
102
RTVSPropertyOp38
 70
     1
102
RTVSPropertyOp39
 70
     1
102
RTVSPropertyOp40
 70
     1
102
RTVSPropertyOp41
 70
     1
102
RTVSPropertyOp42
 70
     1
102
RTVSPropertyOp43
 70
     1
102
RTVSPropertyOp44
 70
     1
102
RTVSPropertyOp45
 70
     1
102
RTVSPropertyOp46
 70
     1
102
RTVSPropertyOp47
 70
     1
102
RTVSPropertyOp48
 70
     1
102
RTVSPropertyOp49
 70
     1
102
RTVSPropertyOp50
 70
     1
102
RTVSPropertyOp51
 70
     0
102
RTVSPropertyOp52
 70
     0
102
RTVSPropertyOp53
 70
     1
102
RTVSPropertyOp54
 70
     1
102
RTVSPropertyOp55
 70
     1
102
RTVSPropertyOp56
 70
     1
102
RTVSPropertyOp57
 70
     1
102
RTVSPost2010Prop28
280
     1
102
RTVSPost2010PropOp28
 70
     1
102
RTVSPost2010Prop29
280
     1
102
RTVSPost2010PropOp29
 70
     1
102
RTVSPost2010Prop30
280
     0
102
RTVSPost2010PropOp30
 70
     1
102
RTVSPost2010Prop31
280
     0
102
RTVSPost2010PropOp31
 70
     1
102
RTVSPost2010Prop32
280
     0
102
RTVSPost2010PropOp32
 70
     1
102
RTVSPost2010Prop33
280
     0
102
RTVSPost2010PropOp33
 70
     1
102
RTVSPost2010Prop34
280
     0
102
RTVSPost2010PropOp34
 70
     1
102
RTVSPost2010Prop35
280
     0
102
RTVSPost2010PropOp35
 70
     1
102
RTVSPost2010Prop36
280
     0
102
RTVSPost2010PropOp36
 70
     1
102
RTVSPost2010Prop37
 90
       50
102
RTVSPost2010PropOp37
 70
     1
102
RTVSPost2010Prop38
140
0.0
102
RTVSPost2010PropOp38
 70
     1
102
RTVSPost2010Prop39
140
1.0
102
RTVSPost2010PropOp39
 70
     1
102
RTVSPost2010Prop40
 90
        0
102
RTVSPost2010PropOp40
 70
     1
102
RTVSPost2010Prop41ColorIndex
 90
       18
102
RTVSPost2010Prop41ColorRGB
 90
        0
102
RTVSPost2010PropOp41
 70
     1
102
RTVSPost2010Prop42
 90
       50
102
RTVSPost2010PropOp42
 70
     1
102
RTVSPost2010Prop43
 90
        3
102
RTVSPost2010PropOp43
 70
     1
102
RTVSPost2010Prop44ColorIndex
 90
        5
102
RTVSPost2010Prop44ColorRGB
 90
      255
102
RTVSPost2010PropOp44
 70
     1
102
RTVSPost2010Prop45
280
     0
102
RTVSPost2010PropOp45
 70
     1
102
RTVSPost2010Prop46
 90
       50
102
RTVSPost2010PropOp46
 70
     1
102
RTVSPost2010Prop47
 90
       50
102
RTVSPost2010PropOp47
 70
     1
102
RTVSPost2010Prop48
 90
       50
102
RTVSPost2010PropOp48
 70
     1
102
RTVSPost2010Prop49
280
     0
102
RTVSPost2010PropOp49
 70
     1
102
RTVSPost2010Prop50
 90
       50
102
RTVSPost2010PropOp50
 70
     1
102
RTVSPost2010Prop51ColorIndex
 90
      256
102
RTVSPost2010Prop51ColorRGB
 90
-16777216
102
RTVSPost2010PropOp51
 70
     0
102
RTVSPost2010Prop52
140
1.0
102
RTVSPost2010PropOp52
 70
     0
102
RTVSPost2010Prop53
 90
        2
102
RTVSPost2010PropOp53
 70
     1
102
RTVSPost2010Prop54
  1
strokes_ogs.tif
102
RTVSPost2010PropOp54
 70
     1
102
RTVSPost2010Prop55
280
     0
102
RTVSPost2010PropOp55
 70
     1
102
RTVSPost2010Prop56
140
1.0
102
RTVSPost2010PropOp56
 70
     1
102
RTVSPost2010Prop57
140
1.0
102
RTVSPost2010PropOp57
 70
     1
  0
XRECORD
  5
5DE
102
{ACAD_REACTORS
330
5DD
102
}
330
5DD
100
AcDbXrecord
280
     1
102
RTVSPropertyOp0
 70
     1
102
RTVSPropertyOp1
 70
     1
102
RTVSPropertyOp2
 70
     1
102
RTVSPropertyOp3
 70
     1
102
RTVSPropertyOp4
 70
     1
102
RTVSPropertyOp5
 70
     1
102
RTVSPropertyOp6
 70
     1
102
RTVSPropertyOp7
 70
     1
102
RTVSPropertyOp8
 70
     1
102
RTVSPropertyOp9
 70
     1
102
RTVSPropertyOp10
 70
     1
102
RTVSPropertyOp11
 70
     1
102
RTVSPropertyOp12
 70
     1
102
RTVSPropertyOp13
 70
     1
102
RTVSPropertyOp14
 70
     1
102
RTVSPropertyOp15
 70
     1
102
RTVSPropertyOp16
 70
     1
102
RTVSPropertyOp17
 70
     1
102
RTVSPropertyOp18
 70
     1
102
RTVSPropertyOp19
 70
     1
102
RTVSPropertyOp20
 70
     1
102
RTVSPropertyOp21
 70
     1
102
RTVSPropertyOp22
 70
     1
102
RTVSPropertyOp23
 70
     1
102
RTVSPropertyOp24
 70
     1
102
RTVSPropertyOp25
 70
     1
102
RTVSPropertyOp26
 70
     1
102
RTVSPropertyOp27
 70
     1
102
RTVSPropertyOp28
 70
     1
102
RTVSPropertyOp29
 70
     1
102
RTVSPropertyOp30
 70
     1
102
RTVSPropertyOp31
 70
     1
102
RTVSPropertyOp32
 70
     1
102
RTVSPropertyOp33
 70
     1
102
RTVSPropertyOp34
 70
     1
102
RTVSPropertyOp35
 70
     1
102
RTVSPropertyOp36
 70
     1
102
RTVSPropertyOp37
 70
     1
102
RTVSPropertyOp38
 70
     1
102
RTVSPropertyOp39
 70
     1
102
RTVSPropertyOp40
 70
     1
102
RTVSPropertyOp41
 70
     1
102
RTVSPropertyOp42
 70
     1
102
RTVSPropertyOp43
 70
     1
102
RTVSPropertyOp44
 70
     1
102
RTVSPropertyOp45
 70
     1
102
RTVSPropertyOp46
 70
     1
102
RTVSPropertyOp47
 70
     1
102
RTVSPropertyOp48
 70
     1
102
RTVSPropertyOp49
 70
     1
102
RTVSPropertyOp50
 70
     1
102
RTVSPropertyOp51
 70
     0
102
RTVSPropertyOp52
 70
     0
102
RTVSPropertyOp53
 70
     1
102
RTVSPropertyOp54
 70
     1
102
RTVSPropertyOp55
 70
     1
102
RTVSPropertyOp56
 70
     1
102
RTVSPropertyOp57
 70
     1
102
RTVSPost2010Prop28
280
     0
102
RTVSPost2010PropOp28
 70
     1
102
RTVSPost2010Prop29
280
     1
102
RTVSPost2010PropOp29
 70
     1
102
RTVSPost2010Prop30
280
     1
102
RTVSPost2010PropOp30
 70
     1
102
RTVSPost2010Prop31
280
     0
102
RTVSPost2010PropOp31
 70
     1
102
RTVSPost2010Prop32
280
     0
102
RTVSPost2010PropOp32
 70
     1
102
RTVSPost2010Prop33
280
     0
102
RTVSPost2010PropOp33
 70
     1
102
RTVSPost2010Prop34
280
     0
102
RTVSPost2010PropOp34
 70
     1
102
RTVSPost2010Prop35
280
     0
102
RTVSPost2010PropOp35
 70
     1
102
RTVSPost2010Prop36
280
     0
102
RTVSPost2010PropOp36
 70
     1
102
RTVSPost2010Prop37
 90
       50
102
RTVSPost2010PropOp37
 70
     1
102
RTVSPost2010Prop38
140
0.0
102
RTVSPost2010PropOp38
 70
     1
102
RTVSPost2010Prop39
140
1.0
102
RTVSPost2010PropOp39
 70
     1
102
RTVSPost2010Prop40
 90
        0
102
RTVSPost2010PropOp40
 70
     1
102
RTVSPost2010Prop41ColorIndex
 90
       18
102
RTVSPost2010Prop41ColorRGB
 90
        0
102
RTVSPost2010PropOp41
 70
     1
102
RTVSPost2010Prop42
 90
       50
102
RTVSPost2010PropOp42
 70
     1
102
RTVSPost2010Prop43
 90
        3
102
RTVSPost2010PropOp43
 70
     1
102
RTVSPost2010Prop44ColorIndex
 90
        5
102
RTVSPost2010Prop44ColorRGB
 90
      255
102
RTVSPost2010PropOp44
 70
     1
102
RTVSPost2010Prop45
280
     0
102
RTVSPost2010PropOp45
 70
     1
102
RTVSPost2010Prop46
 90
       50
102
RTVSPost2010PropOp46
 70
     1
102
RTVSPost2010Prop47
 90
       50
102
RTVSPost2010PropOp47
 70
     1
102
RTVSPost2010Prop48
 90
       50
102
RTVSPost2010PropOp48
 70
     1
102
RTVSPost2010Prop49
280
     0
102
RTVSPost2010PropOp49
 70
     1
102
RTVSPost2010Prop50
 90
       50
102
RTVSPost2010PropOp50
 70
     1
102
RTVSPost2010Prop51ColorIndex
 90
      256
102
RTVSPost2010Prop51ColorRGB
 90
-16777216
102
RTVSPost2010PropOp51
 70
     0
102
RTVSPost2010Prop52
140
1.0
102
RTVSPost2010PropOp52
 70
     0
102
RTVSPost2010Prop53
 90
        2
102
RTVSPost2010PropOp53
 70
     1
102
RTVSPost2010Prop54
  1
strokes_ogs.tif
102
RTVSPost2010PropOp54
 70
     1
102
RTVSPost2010Prop55
280
     0
102
RTVSPost2010PropOp55
 70
     1
102
RTVSPost2010Prop56
140
1.0
102
RTVSPost2010PropOp56
 70
     1
102
RTVSPost2010Prop57
140
1.0
102
RTVSPost2010PropOp57
 70
     1
  0
XRECORD
  5
5E6
102
{ACAD_REACTORS
330
5E5
102
}
330
5E5
100
AcDbXrecord
280
     1
102
RTVSPropertyOp0
 70
     1
102
RTVSPropertyOp1
 70
     1
102
RTVSPropertyOp2
 70
     1
102
RTVSPropertyOp3
 70
     1
102
RTVSPropertyOp4
 70
     1
102
RTVSPropertyOp5
 70
     1
102
RTVSPropertyOp6
 70
     1
102
RTVSPropertyOp7
 70
     1
102
RTVSPropertyOp8
 70
     1
102
RTVSPropertyOp9
 70
     1
102
RTVSPropertyOp10
 70
     1
102
RTVSPropertyOp11
 70
     1
102
RTVSPropertyOp12
 70
     1
102
RTVSPropertyOp13
 70
     1
102
RTVSPropertyOp14
 70
     1
102
RTVSPropertyOp15
 70
     1
102
RTVSPropertyOp16
 70
     1
102
RTVSPropertyOp17
 70
     1
102
RTVSPropertyOp18
 70
     1
102
RTVSPropertyOp19
 70
     1
102
RTVSPropertyOp20
 70
     1
102
RTVSPropertyOp21
 70
     1
102
RTVSPropertyOp22
 70
     1
102
RTVSPropertyOp23
 70
     1
102
RTVSPropertyOp24
 70
     1
102
RTVSPropertyOp25
 70
     1
102
RTVSPropertyOp26
 70
     1
102
RTVSPropertyOp27
 70
     1
102
RTVSPropertyOp28
 70
     1
102
RTVSPropertyOp29
 70
     1
102
RTVSPropertyOp30
 70
     1
102
RTVSPropertyOp31
 70
     1
102
RTVSPropertyOp32
 70
     1
102
RTVSPropertyOp33
 70
     1
102
RTVSPropertyOp34
 70
     1
102
RTVSPropertyOp35
 70
     1
102
RTVSPropertyOp36
 70
     1
102
RTVSPropertyOp37
 70
     1
102
RTVSPropertyOp38
 70
     1
102
RTVSPropertyOp39
 70
     1
102
RTVSPropertyOp40
 70
     1
102
RTVSPropertyOp41
 70
     1
102
RTVSPropertyOp42
 70
     1
102
RTVSPropertyOp43
 70
     1
102
RTVSPropertyOp44
 70
     1
102
RTVSPropertyOp45
 70
     1
102
RTVSPropertyOp46
 70
     1
102
RTVSPropertyOp47
 70
     1
102
RTVSPropertyOp48
 70
     1
102
RTVSPropertyOp49
 70
     1
102
RTVSPropertyOp50
 70
     1
102
RTVSPropertyOp51
 70
     0
102
RTVSPropertyOp52
 70
     0
102
RTVSPropertyOp53
 70
     1
102
RTVSPropertyOp54
 70
     1
102
RTVSPropertyOp55
 70
     1
102
RTVSPropertyOp56
 70
     1
102
RTVSPropertyOp57
 70
     1
102
RTVSPost2010Prop28
280
     0
102
RTVSPost2010PropOp28
 70
     1
102
RTVSPost2010Prop29
280
     1
102
RTVSPost2010PropOp29
 70
     1
102
RTVSPost2010Prop30
280
     1
102
RTVSPost2010PropOp30
 70
     1
102
RTVSPost2010Prop31
280
     0
102
RTVSPost2010PropOp31
 70
     1
102
RTVSPost2010Prop32
280
     0
102
RTVSPost2010PropOp32
 70
     1
102
RTVSPost2010Prop33
280
     0
102
RTVSPost2010PropOp33
 70
     1
102
RTVSPost2010Prop34
280
     0
102
RTVSPost2010PropOp34
 70
     1
102
RTVSPost2010Prop35
280
     0
102
RTVSPost2010PropOp35
 70
     1
102
RTVSPost2010Prop36
280
     0
102
RTVSPost2010PropOp36
 70
     1
102
RTVSPost2010Prop37
 90
       50
102
RTVSPost2010PropOp37
 70
     1
102
RTVSPost2010Prop38
140
0.0
102
RTVSPost2010PropOp38
 70
     1
102
RTVSPost2010Prop39
140
1.0
102
RTVSPost2010PropOp39
 70
     1
102
RTVSPost2010Prop40
 90
        0
102
RTVSPost2010PropOp40
 70
     1
102
RTVSPost2010Prop41ColorIndex
 90
       18
102
RTVSPost2010Prop41ColorRGB
 90
        0
102
RTVSPost2010PropOp41
 70
     1
102
RTVSPost2010Prop42
 90
       50
102
RTVSPost2010PropOp42
 70
     1
102
RTVSPost2010Prop43
 90
        3
102
RTVSPost2010PropOp43
 70
     1
102
RTVSPost2010Prop44ColorIndex
 90
        5
102
RTVSPost2010Prop44ColorRGB
 90
      255
102
RTVSPost2010PropOp44
 70
     1
102
RTVSPost2010Prop45
280
     0
102
RTVSPost2010PropOp45
 70
     1
102
RTVSPost2010Prop46
 90
       50
102
RTVSPost2010PropOp46
 70
     1
102
RTVSPost2010Prop47
 90
       50
102
RTVSPost2010PropOp47
 70
     1
102
RTVSPost2010Prop48
 90
       50
102
RTVSPost2010PropOp48
 70
     1
102
RTVSPost2010Prop49
280
     0
102
RTVSPost2010PropOp49
 70
     1
102
RTVSPost2010Prop50
 90
       50
102
RTVSPost2010PropOp50
 70
     1
102
RTVSPost2010Prop51ColorIndex
 90
      256
102
RTVSPost2010Prop51ColorRGB
 90
-16777216
102
RTVSPost2010PropOp51
 70
     0
102
RTVSPost2010Prop52
140
1.0
102
RTVSPost2010PropOp52
 70
     0
102
RTVSPost2010Prop53
 90
        2
102
RTVSPost2010PropOp53
 70
     1
102
RTVSPost2010Prop54
  1
strokes_ogs.tif
102
RTVSPost2010PropOp54
 70
     1
102
RTVSPost2010Prop55
280
     0
102
RTVSPost2010PropOp55
 70
     1
102
RTVSPost2010Prop56
140
1.0
102
RTVSPost2010PropOp56
 70
     1
102
RTVSPost2010Prop57
140
1.0
102
RTVSPost2010PropOp57
 70
     1
  0
XRECORD
  5
5EE
102
{ACAD_REACTORS
330
5ED
102
}
330
5ED
100
AcDbXrecord
280
     1
102
RTVSPropertyOp0
 70
     1
102
RTVSPropertyOp1
 70
     1
102
RTVSPropertyOp2
 70
     1
102
RTVSPropertyOp3
 70
     1
102
RTVSPropertyOp4
 70
     1
102
RTVSPropertyOp5
 70
     1
102
RTVSPropertyOp6
 70
     1
102
RTVSPropertyOp7
 70
     1
102
RTVSPropertyOp8
 70
     1
102
RTVSPropertyOp9
 70
     1
102
RTVSPropertyOp10
 70
     1
102
RTVSPropertyOp11
 70
     1
102
RTVSPropertyOp12
 70
     1
102
RTVSPropertyOp13
 70
     1
102
RTVSPropertyOp14
 70
     1
102
RTVSPropertyOp15
 70
     1
102
RTVSPropertyOp16
 70
     1
102
RTVSPropertyOp17
 70
     1
102
RTVSPropertyOp18
 70
     1
102
RTVSPropertyOp19
 70
     1
102
RTVSPropertyOp20
 70
     1
102
RTVSPropertyOp21
 70
     1
102
RTVSPropertyOp22
 70
     1
102
RTVSPropertyOp23
 70
     1
102
RTVSPropertyOp24
 70
     1
102
RTVSPropertyOp25
 70
     1
102
RTVSPropertyOp26
 70
     1
102
RTVSPropertyOp27
 70
     1
102
RTVSPropertyOp28
 70
     1
102
RTVSPropertyOp29
 70
     1
102
RTVSPropertyOp30
 70
     1
102
RTVSPropertyOp31
 70
     1
102
RTVSPropertyOp32
 70
     1
102
RTVSPropertyOp33
 70
     1
102
RTVSPropertyOp34
 70
     1
102
RTVSPropertyOp35
 70
     1
102
RTVSPropertyOp36
 70
     1
102
RTVSPropertyOp37
 70
     1
102
RTVSPropertyOp38
 70
     1
102
RTVSPropertyOp39
 70
     1
102
RTVSPropertyOp40
 70
     1
102
RTVSPropertyOp41
 70
     1
102
RTVSPropertyOp42
 70
     1
102
RTVSPropertyOp43
 70
     1
102
RTVSPropertyOp44
 70
     1
102
RTVSPropertyOp45
 70
     1
102
RTVSPropertyOp46
 70
     1
102
RTVSPropertyOp47
 70
     1
102
RTVSPropertyOp48
 70
     1
102
RTVSPropertyOp49
 70
     1
102
RTVSPropertyOp50
 70
     1
102
RTVSPropertyOp51
 70
     0
102
RTVSPropertyOp52
 70
     0
102
RTVSPropertyOp53
 70
     1
102
RTVSPropertyOp54
 70
     1
102
RTVSPropertyOp55
 70
     1
102
RTVSPropertyOp56
 70
     1
102
RTVSPropertyOp57
 70
     1
102
RTVSPost2010Prop28
280
     0
102
RTVSPost2010PropOp28
 70
     1
102
RTVSPost2010Prop29
280
     1
102
RTVSPost2010PropOp29
 70
     1
102
RTVSPost2010Prop30
280
     1
102
RTVSPost2010PropOp30
 70
     1
102
RTVSPost2010Prop31
280
     0
102
RTVSPost2010PropOp31
 70
     1
102
RTVSPost2010Prop32
280
     0
102
RTVSPost2010PropOp32
 70
     1
102
RTVSPost2010Prop33
280
     0
102
RTVSPost2010PropOp33
 70
     1
102
RTVSPost2010Prop34
280
     0
102
RTVSPost2010PropOp34
 70
     1
102
RTVSPost2010Prop35
280
     0
102
RTVSPost2010PropOp35
 70
     1
102
RTVSPost2010Prop36
280
     0
102
RTVSPost2010PropOp36
 70
     1
102
RTVSPost2010Prop37
 90
       50
102
RTVSPost2010PropOp37
 70
     1
102
RTVSPost2010Prop38
140
0.0
102
RTVSPost2010PropOp38
 70
     1
102
RTVSPost2010Prop39
140
1.0
102
RTVSPost2010PropOp39
 70
     1
102
RTVSPost2010Prop40
 90
        0
102
RTVSPost2010PropOp40
 70
     1
102
RTVSPost2010Prop41ColorIndex
 90
       18
102
RTVSPost2010Prop41ColorRGB
 90
        0
102
RTVSPost2010PropOp41
 70
     1
102
RTVSPost2010Prop42
 90
       50
102
RTVSPost2010PropOp42
 70
     1
102
RTVSPost2010Prop43
 90
        3
102
RTVSPost2010PropOp43
 70
     1
102
RTVSPost2010Prop44ColorIndex
 90
        5
102
RTVSPost2010Prop44ColorRGB
 90
      255
102
RTVSPost2010PropOp44
 70
     1
102
RTVSPost2010Prop45
280
     0
102
RTVSPost2010PropOp45
 70
     1
102
RTVSPost2010Prop46
 90
       50
102
RTVSPost2010PropOp46
 70
     1
102
RTVSPost2010Prop47
 90
       50
102
RTVSPost2010PropOp47
 70
     1
102
RTVSPost2010Prop48
 90
       50
102
RTVSPost2010PropOp48
 70
     1
102
RTVSPost2010Prop49
280
     0
102
RTVSPost2010PropOp49
 70
     1
102
RTVSPost2010Prop50
 90
       50
102
RTVSPost2010PropOp50
 70
     1
102
RTVSPost2010Prop51ColorIndex
 90
      256
102
RTVSPost2010Prop51ColorRGB
 90
-16777216
102
RTVSPost2010PropOp51
 70
     0
102
RTVSPost2010Prop52
140
1.0
102
RTVSPost2010PropOp52
 70
     0
102
RTVSPost2010Prop53
 90
        2
102
RTVSPost2010PropOp53
 70
     1
102
RTVSPost2010Prop54
  1
strokes_ogs.tif
102
RTVSPost2010PropOp54
 70
     1
102
RTVSPost2010Prop55
280
     0
102
RTVSPost2010PropOp55
 70
     1
102
RTVSPost2010Prop56
140
1.0
102
RTVSPost2010PropOp56
 70
     1
102
RTVSPost2010Prop57
140
1.0
102
RTVSPost2010PropOp57
 70
     1
  0
XRECORD
  5
5E2
102
{ACAD_REACTORS
330
5E1
102
}
330
5E1
100
AcDbXrecord
280
     1
102
RTVSPropertyOp0
 70
     1
102
RTVSPropertyOp1
 70
     1
102
RTVSPropertyOp2
 70
     1
102
RTVSPropertyOp3
 70
     1
102
RTVSPropertyOp4
 70
     1
102
RTVSPropertyOp5
 70
     1
102
RTVSPropertyOp6
 70
     1
102
RTVSPropertyOp7
 70
     1
102
RTVSPropertyOp8
 70
     1
102
RTVSPropertyOp9
 70
     1
102
RTVSPropertyOp10
 70
     1
102
RTVSPropertyOp11
 70
     1
102
RTVSPropertyOp12
 70
     1
102
RTVSPropertyOp13
 70
     1
102
RTVSPropertyOp14
 70
     1
102
RTVSPropertyOp15
 70
     1
102
RTVSPropertyOp16
 70
     1
102
RTVSPropertyOp17
 70
     1
102
RTVSPropertyOp18
 70
     1
102
RTVSPropertyOp19
 70
     1
102
RTVSPropertyOp20
 70
     1
102
RTVSPropertyOp21
 70
     1
102
RTVSPropertyOp22
 70
     1
102
RTVSPropertyOp23
 70
     1
102
RTVSPropertyOp24
 70
     1
102
RTVSPropertyOp25
 70
     1
102
RTVSPropertyOp26
 70
     1
102
RTVSPropertyOp27
 70
     1
102
RTVSPropertyOp28
 70
     1
102
RTVSPropertyOp29
 70
     1
102
RTVSPropertyOp30
 70
     1
102
RTVSPropertyOp31
 70
     1
102
RTVSPropertyOp32
 70
     1
102
RTVSPropertyOp33
 70
     1
102
RTVSPropertyOp34
 70
     1
102
RTVSPropertyOp35
 70
     1
102
RTVSPropertyOp36
 70
     1
102
RTVSPropertyOp37
 70
     1
102
RTVSPropertyOp38
 70
     1
102
RTVSPropertyOp39
 70
     1
102
RTVSPropertyOp40
 70
     1
102
RTVSPropertyOp41
 70
     1
102
RTVSPropertyOp42
 70
     1
102
RTVSPropertyOp43
 70
     1
102
RTVSPropertyOp44
 70
     1
102
RTVSPropertyOp45
 70
     1
102
RTVSPropertyOp46
 70
     1
102
RTVSPropertyOp47
 70
     1
102
RTVSPropertyOp48
 70
     1
102
RTVSPropertyOp49
 70
     1
102
RTVSPropertyOp50
 70
     1
102
RTVSPropertyOp51
 70
     0
102
RTVSPropertyOp52
 70
     0
102
RTVSPropertyOp53
 70
     1
102
RTVSPropertyOp54
 70
     1
102
RTVSPropertyOp55
 70
     1
102
RTVSPropertyOp56
 70
     1
102
RTVSPropertyOp57
 70
     1
102
RTVSPost2010Prop28
280
     0
102
RTVSPost2010PropOp28
 70
     1
102
RTVSPost2010Prop29
280
     1
102
RTVSPost2010PropOp29
 70
     1
102
RTVSPost2010Prop30
280
     1
102
RTVSPost2010PropOp30
 70
     1
102
RTVSPost2010Prop31
280
     0
102
RTVSPost2010PropOp31
 70
     1
102
RTVSPost2010Prop32
280
     0
102
RTVSPost2010PropOp32
 70
     1
102
RTVSPost2010Prop33
280
     0
102
RTVSPost2010PropOp33
 70
     1
102
RTVSPost2010Prop34
280
     0
102
RTVSPost2010PropOp34
 70
     1
102
RTVSPost2010Prop35
280
     0
102
RTVSPost2010PropOp35
 70
     1
102
RTVSPost2010Prop36
280
     0
102
RTVSPost2010PropOp36
 70
     1
102
RTVSPost2010Prop37
 90
       50
102
RTVSPost2010PropOp37
 70
     1
102
RTVSPost2010Prop38
140
0.0
102
RTVSPost2010PropOp38
 70
     1
102
RTVSPost2010Prop39
140
1.0
102
RTVSPost2010PropOp39
 70
     1
102
RTVSPost2010Prop40
 90
        0
102
RTVSPost2010PropOp40
 70
     1
102
RTVSPost2010Prop41ColorIndex
 90
       18
102
RTVSPost2010Prop41ColorRGB
 90
        0
102
RTVSPost2010PropOp41
 70
     1
102
RTVSPost2010Prop42
 90
       50
102
RTVSPost2010PropOp42
 70
     1
102
RTVSPost2010Prop43
 90
        3
102
RTVSPost2010PropOp43
 70
     1
102
RTVSPost2010Prop44ColorIndex
 90
        5
102
RTVSPost2010Prop44ColorRGB
 90
      255
102
RTVSPost2010PropOp44
 70
     1
102
RTVSPost2010Prop45
280
     0
102
RTVSPost2010PropOp45
 70
     1
102
RTVSPost2010Prop46
 90
       50
102
RTVSPost2010PropOp46
 70
     1
102
RTVSPost2010Prop47
 90
       50
102
RTVSPost2010PropOp47
 70
     1
102
RTVSPost2010Prop48
 90
       50
102
RTVSPost2010PropOp48
 70
     1
102
RTVSPost2010Prop49
280
     0
102
RTVSPost2010PropOp49
 70
     1
102
RTVSPost2010Prop50
 90
       50
102
RTVSPost2010PropOp50
 70
     1
102
RTVSPost2010Prop51ColorIndex
 90
      256
102
RTVSPost2010Prop51ColorRGB
 90
-16777216
102
RTVSPost2010PropOp51
 70
     0
102
RTVSPost2010Prop52
140
1.0
102
RTVSPost2010PropOp52
 70
     0
102
RTVSPost2010Prop53
 90
        2
102
RTVSPost2010PropOp53
 70
     1
102
RTVSPost2010Prop54
  1
strokes_ogs.tif
102
RTVSPost2010PropOp54
 70
     1
102
RTVSPost2010Prop55
280
     0
102
RTVSPost2010PropOp55
 70
     1
102
RTVSPost2010Prop56
140
1.0
102
RTVSPost2010PropOp56
 70
     1
102
RTVSPost2010Prop57
140
1.0
102
RTVSPost2010PropOp57
 70
     1
  0
XRECORD
  5
5E4
102
{ACAD_REACTORS
330
5E3
102
}
330
5E3
100
AcDbXrecord
280
     1
102
RTVSPropertyOp0
 70
     1
102
RTVSPropertyOp1
 70
     1
102
RTVSPropertyOp2
 70
     1
102
RTVSPropertyOp3
 70
     1
102
RTVSPropertyOp4
 70
     1
102
RTVSPropertyOp5
 70
     1
102
RTVSPropertyOp6
 70
     1
102
RTVSPropertyOp7
 70
     1
102
RTVSPropertyOp8
 70
     1
102
RTVSPropertyOp9
 70
     1
102
RTVSPropertyOp10
 70
     1
102
RTVSPropertyOp11
 70
     1
102
RTVSPropertyOp12
 70
     1
102
RTVSPropertyOp13
 70
     1
102
RTVSPropertyOp14
 70
     1
102
RTVSPropertyOp15
 70
     1
102
RTVSPropertyOp16
 70
     1
102
RTVSPropertyOp17
 70
     1
102
RTVSPropertyOp18
 70
     1
102
RTVSPropertyOp19
 70
     1
102
RTVSPropertyOp20
 70
     1
102
RTVSPropertyOp21
 70
     1
102
RTVSPropertyOp22
 70
     1
102
RTVSPropertyOp23
 70
     1
102
RTVSPropertyOp24
 70
     1
102
RTVSPropertyOp25
 70
     1
102
RTVSPropertyOp26
 70
     1
102
RTVSPropertyOp27
 70
     1
102
RTVSPropertyOp28
 70
     1
102
RTVSPropertyOp29
 70
     1
102
RTVSPropertyOp30
 70
     1
102
RTVSPropertyOp31
 70
     1
102
RTVSPropertyOp32
 70
     1
102
RTVSPropertyOp33
 70
     1
102
RTVSPropertyOp34
 70
     1
102
RTVSPropertyOp35
 70
     1
102
RTVSPropertyOp36
 70
     1
102
RTVSPropertyOp37
 70
     1
102
RTVSPropertyOp38
 70
     1
102
RTVSPropertyOp39
 70
     1
102
RTVSPropertyOp40
 70
     1
102
RTVSPropertyOp41
 70
     1
102
RTVSPropertyOp42
 70
     1
102
RTVSPropertyOp43
 70
     1
102
RTVSPropertyOp44
 70
     1
102
RTVSPropertyOp45
 70
     1
102
RTVSPropertyOp46
 70
     1
102
RTVSPropertyOp47
 70
     1
102
RTVSPropertyOp48
 70
     1
102
RTVSPropertyOp49
 70
     1
102
RTVSPropertyOp50
 70
     1
102
RTVSPropertyOp51
 70
     0
102
RTVSPropertyOp52
 70
     0
102
RTVSPropertyOp53
 70
     1
102
RTVSPropertyOp54
 70
     1
102
RTVSPropertyOp55
 70
     1
102
RTVSPropertyOp56
 70
     1
102
RTVSPropertyOp57
 70
     1
102
RTVSPost2010Prop28
280
     0
102
RTVSPost2010PropOp28
 70
     1
102
RTVSPost2010Prop29
280
     1
102
RTVSPost2010PropOp29
 70
     1
102
RTVSPost2010Prop30
280
     1
102
RTVSPost2010PropOp30
 70
     1
102
RTVSPost2010Prop31
280
     0
102
RTVSPost2010PropOp31
 70
     1
102
RTVSPost2010Prop32
280
     0
102
RTVSPost2010PropOp32
 70
     1
102
RTVSPost2010Prop33
280
     0
102
RTVSPost2010PropOp33
 70
     1
102
RTVSPost2010Prop34
280
     0
102
RTVSPost2010PropOp34
 70
     1
102
RTVSPost2010Prop35
280
     0
102
RTVSPost2010PropOp35
 70
     1
102
RTVSPost2010Prop36
280
     0
102
RTVSPost2010PropOp36
 70
     1
102
RTVSPost2010Prop37
 90
       50
102
RTVSPost2010PropOp37
 70
     1
102
RTVSPost2010Prop38
140
0.0
102
RTVSPost2010PropOp38
 70
     1
102
RTVSPost2010Prop39
140
1.0
102
RTVSPost2010PropOp39
 70
     1
102
RTVSPost2010Prop40
 90
        0
102
RTVSPost2010PropOp40
 70
     1
102
RTVSPost2010Prop41ColorIndex
 90
       18
102
RTVSPost2010Prop41ColorRGB
 90
        0
102
RTVSPost2010PropOp41
 70
     1
102
RTVSPost2010Prop42
 90
       50
102
RTVSPost2010PropOp42
 70
     1
102
RTVSPost2010Prop43
 90
        3
102
RTVSPost2010PropOp43
 70
     1
102
RTVSPost2010Prop44ColorIndex
 90
        5
102
RTVSPost2010Prop44ColorRGB
 90
      255
102
RTVSPost2010PropOp44
 70
     1
102
RTVSPost2010Prop45
280
     0
102
RTVSPost2010PropOp45
 70
     1
102
RTVSPost2010Prop46
 90
       50
102
RTVSPost2010PropOp46
 70
     1
102
RTVSPost2010Prop47
 90
       50
102
RTVSPost2010PropOp47
 70
     1
102
RTVSPost2010Prop48
 90
       50
102
RTVSPost2010PropOp48
 70
     1
102
RTVSPost2010Prop49
280
     0
102
RTVSPost2010PropOp49
 70
     1
102
RTVSPost2010Prop50
 90
       50
102
RTVSPost2010PropOp50
 70
     1
102
RTVSPost2010Prop51ColorIndex
 90
      256
102
RTVSPost2010Prop51ColorRGB
 90
-16777216
102
RTVSPost2010PropOp51
 70
     0
102
RTVSPost2010Prop52
140
1.0
102
RTVSPost2010PropOp52
 70
     0
102
RTVSPost2010Prop53
 90
        2
102
RTVSPost2010PropOp53
 70
     1
102
RTVSPost2010Prop54
  1
strokes_ogs.tif
102
RTVSPost2010PropOp54
 70
     1
102
RTVSPost2010Prop55
280
     0
102
RTVSPost2010PropOp55
 70
     1
102
RTVSPost2010Prop56
140
1.0
102
RTVSPost2010PropOp56
 70
     1
102
RTVSPost2010Prop57
140
1.0
102
RTVSPost2010PropOp57
 70
     1
  0
XRECORD
  5
5F4
102
{ACAD_REACTORS
330
5F3
102
}
330
5F3
100
AcDbXrecord
280
     1
102
RTVSPropertyOp0
 70
     0
102
RTVSPropertyOp1
 70
     0
102
RTVSPropertyOp2
 70
     0
102
RTVSPropertyOp3
 70
     0
102
RTVSPropertyOp4
 70
     0
102
RTVSPropertyOp5
 70
     0
102
RTVSPropertyOp6
 70
     0
102
RTVSPropertyOp7
 70
     0
102
RTVSPropertyOp8
 70
     0
102
RTVSPropertyOp9
 70
     0
102
RTVSPropertyOp10
 70
     0
102
RTVSPropertyOp11
 70
     0
102
RTVSPropertyOp12
 70
     0
102
RTVSPropertyOp13
 70
     0
102
RTVSPropertyOp14
 70
     0
102
RTVSPropertyOp15
 70
     0
102
RTVSPropertyOp16
 70
     0
102
RTVSPropertyOp17
 70
     0
102
RTVSPropertyOp18
 70
     0
102
RTVSPropertyOp19
 70
     0
102
RTVSPropertyOp20
 70
     0
102
RTVSPropertyOp21
 70
     0
102
RTVSPropertyOp22
 70
     0
102
RTVSPropertyOp23
 70
     0
102
RTVSPropertyOp24
 70
     0
102
RTVSPropertyOp25
 70
     0
102
RTVSPropertyOp26
 70
     0
102
RTVSPropertyOp27
 70
     0
102
RTVSPropertyOp28
 70
     1
102
RTVSPropertyOp29
 70
     1
102
RTVSPropertyOp30
 70
     1
102
RTVSPropertyOp31
 70
     1
102
RTVSPropertyOp32
 70
     1
102
RTVSPropertyOp33
 70
     1
102
RTVSPropertyOp34
 70
     1
102
RTVSPropertyOp35
 70
     1
102
RTVSPropertyOp36
 70
     1
102
RTVSPropertyOp37
 70
     1
102
RTVSPropertyOp38
 70
     1
102
RTVSPropertyOp39
 70
     1
102
RTVSPropertyOp40
 70
     1
102
RTVSPropertyOp41
 70
     1
102
RTVSPropertyOp42
 70
     1
102
RTVSPropertyOp43
 70
     1
102
RTVSPropertyOp44
 70
     1
102
RTVSPropertyOp45
 70
     1
102
RTVSPropertyOp46
 70
     1
102
RTVSPropertyOp47
 70
     1
102
RTVSPropertyOp48
 70
     1
102
RTVSPropertyOp49
 70
     1
102
RTVSPropertyOp50
 70
     1
102
RTVSPropertyOp51
 70
     0
102
RTVSPropertyOp52
 70
     0
102
RTVSPropertyOp53
 70
     1
102
RTVSPropertyOp54
 70
     1
102
RTVSPropertyOp55
 70
     1
102
RTVSPropertyOp56
 70
     1
102
RTVSPropertyOp57
 70
     1
102
RTVSPost2010Prop28
280
     0
102
RTVSPost2010PropOp28
 70
     1
102
RTVSPost2010Prop29
280
     1
102
RTVSPost2010PropOp29
 70
     1
102
RTVSPost2010Prop30
280
     1
102
RTVSPost2010PropOp30
 70
     1
102
RTVSPost2010Prop31
280
     0
102
RTVSPost2010PropOp31
 70
     1
102
RTVSPost2010Prop32
280
     0
102
RTVSPost2010PropOp32
 70
     1
102
RTVSPost2010Prop33
280
     0
102
RTVSPost2010PropOp33
 70
     1
102
RTVSPost2010Prop34
280
     0
102
RTVSPost2010PropOp34
 70
     1
102
RTVSPost2010Prop35
280
     0
102
RTVSPost2010PropOp35
 70
     1
102
RTVSPost2010Prop36
280
     0
102
RTVSPost2010PropOp36
 70
     1
102
RTVSPost2010Prop37
 90
       50
102
RTVSPost2010PropOp37
 70
     1
102
RTVSPost2010Prop38
140
0.0
102
RTVSPost2010PropOp38
 70
     1
102
RTVSPost2010Prop39
140
1.0
102
RTVSPost2010PropOp39
 70
     1
102
RTVSPost2010Prop40
 90
        0
102
RTVSPost2010PropOp40
 70
     1
102
RTVSPost2010Prop41ColorIndex
 90
       18
102
RTVSPost2010Prop41ColorRGB
 90
        0
102
RTVSPost2010PropOp41
 70
     1
102
RTVSPost2010Prop42
 90
       50
102
RTVSPost2010PropOp42
 70
     1
102
RTVSPost2010Prop43
 90
        3
102
RTVSPost2010PropOp43
 70
     1
102
RTVSPost2010Prop44ColorIndex
 90
        5
102
RTVSPost2010Prop44ColorRGB
 90
      255
102
RTVSPost2010PropOp44
 70
     1
102
RTVSPost2010Prop45
280
     0
102
RTVSPost2010PropOp45
 70
     1
102
RTVSPost2010Prop46
 90
       50
102
RTVSPost2010PropOp46
 70
     1
102
RTVSPost2010Prop47
 90
       50
102
RTVSPost2010PropOp47
 70
     1
102
RTVSPost2010Prop48
 90
       50
102
RTVSPost2010PropOp48
 70
     1
102
RTVSPost2010Prop49
280
     0
102
RTVSPost2010PropOp49
 70
     1
102
RTVSPost2010Prop50
 90
       50
102
RTVSPost2010PropOp50
 70
     1
102
RTVSPost2010Prop51ColorIndex
 90
      256
102
RTVSPost2010Prop51ColorRGB
 90
-16777216
102
RTVSPost2010PropOp51
 70
     0
102
RTVSPost2010Prop52
140
1.0
102
RTVSPost2010PropOp52
 70
     0
102
RTVSPost2010Prop53
 90
        2
102
RTVSPost2010PropOp53
 70
     1
102
RTVSPost2010Prop54
  1
strokes_ogs.tif
102
RTVSPost2010PropOp54
 70
     1
102
RTVSPost2010Prop55
280
     0
102
RTVSPost2010PropOp55
 70
     1
102
RTVSPost2010Prop56
140
1.0
102
RTVSPost2010PropOp56
 70
     1
102
RTVSPost2010Prop57
140
1.0
102
RTVSPost2010PropOp57
 70
     1
  0
XRECORD
  5
5EC
102
{ACAD_REACTORS
330
5EB
102
}
330
5EB
100
AcDbXrecord
280
     1
102
RTVSPropertyOp0
 70
     1
102
RTVSPropertyOp1
 70
     1
102
RTVSPropertyOp2
 70
     1
102
RTVSPropertyOp3
 70
     1
102
RTVSPropertyOp4
 70
     1
102
RTVSPropertyOp5
 70
     1
102
RTVSPropertyOp6
 70
     1
102
RTVSPropertyOp7
 70
     1
102
RTVSPropertyOp8
 70
     1
102
RTVSPropertyOp9
 70
     1
102
RTVSPropertyOp10
 70
     1
102
RTVSPropertyOp11
 70
     1
102
RTVSPropertyOp12
 70
     1
102
RTVSPropertyOp13
 70
     1
102
RTVSPropertyOp14
 70
     1
102
RTVSPropertyOp15
 70
     1
102
RTVSPropertyOp16
 70
     1
102
RTVSPropertyOp17
 70
     1
102
RTVSPropertyOp18
 70
     1
102
RTVSPropertyOp19
 70
     1
102
RTVSPropertyOp20
 70
     1
102
RTVSPropertyOp21
 70
     1
102
RTVSPropertyOp22
 70
     1
102
RTVSPropertyOp23
 70
     1
102
RTVSPropertyOp24
 70
     1
102
RTVSPropertyOp25
 70
     1
102
RTVSPropertyOp26
 70
     1
102
RTVSPropertyOp27
 70
     1
102
RTVSPropertyOp28
 70
     1
102
RTVSPropertyOp29
 70
     1
102
RTVSPropertyOp30
 70
     1
102
RTVSPropertyOp31
 70
     1
102
RTVSPropertyOp32
 70
     1
102
RTVSPropertyOp33
 70
     1
102
RTVSPropertyOp34
 70
     1
102
RTVSPropertyOp35
 70
     1
102
RTVSPropertyOp36
 70
     1
102
RTVSPropertyOp37
 70
     1
102
RTVSPropertyOp38
 70
     1
102
RTVSPropertyOp39
 70
     1
102
RTVSPropertyOp40
 70
     1
102
RTVSPropertyOp41
 70
     1
102
RTVSPropertyOp42
 70
     1
102
RTVSPropertyOp43
 70
     1
102
RTVSPropertyOp44
 70
     1
102
RTVSPropertyOp45
 70
     1
102
RTVSPropertyOp46
 70
     1
102
RTVSPropertyOp47
 70
     1
102
RTVSPropertyOp48
 70
     1
102
RTVSPropertyOp49
 70
     1
102
RTVSPropertyOp50
 70
     1
102
RTVSPropertyOp51
 70
     0
102
RTVSPropertyOp52
 70
     0
102
RTVSPropertyOp53
 70
     1
102
RTVSPropertyOp54
 70
     1
102
RTVSPropertyOp55
 70
     1
102
RTVSPropertyOp56
 70
     1
102
RTVSPropertyOp57
 70
     1
102
RTVSPost2010Prop28
280
     0
102
RTVSPost2010PropOp28
 70
     1
102
RTVSPost2010Prop29
280
     1
102
RTVSPost2010PropOp29
 70
     1
102
RTVSPost2010Prop30
280
     1
102
RTVSPost2010PropOp30
 70
     1
102
RTVSPost2010Prop31
280
     0
102
RTVSPost2010PropOp31
 70
     1
102
RTVSPost2010Prop32
280
     0
102
RTVSPost2010PropOp32
 70
     1
102
RTVSPost2010Prop33
280
     0
102
RTVSPost2010PropOp33
 70
     1
102
RTVSPost2010Prop34
280
     0
102
RTVSPost2010PropOp34
 70
     1
102
RTVSPost2010Prop35
280
     0
102
RTVSPost2010PropOp35
 70
     1
102
RTVSPost2010Prop36
280
     0
102
RTVSPost2010PropOp36
 70
     1
102
RTVSPost2010Prop37
 90
       50
102
RTVSPost2010PropOp37
 70
     1
102
RTVSPost2010Prop38
140
0.0
102
RTVSPost2010PropOp38
 70
     1
102
RTVSPost2010Prop39
140
1.0
102
RTVSPost2010PropOp39
 70
     1
102
RTVSPost2010Prop40
 90
        0
102
RTVSPost2010PropOp40
 70
     1
102
RTVSPost2010Prop41ColorIndex
 90
       18
102
RTVSPost2010Prop41ColorRGB
 90
        0
102
RTVSPost2010PropOp41
 70
     1
102
RTVSPost2010Prop42
 90
       50
102
RTVSPost2010PropOp42
 70
     1
102
RTVSPost2010Prop43
 90
        3
102
RTVSPost2010PropOp43
 70
     1
102
RTVSPost2010Prop44ColorIndex
 90
        5
102
RTVSPost2010Prop44ColorRGB
 90
      255
102
RTVSPost2010PropOp44
 70
     1
102
RTVSPost2010Prop45
280
     0
102
RTVSPost2010PropOp45
 70
     1
102
RTVSPost2010Prop46
 90
       50
102
RTVSPost2010PropOp46
 70
     1
102
RTVSPost2010Prop47
 90
       50
102
RTVSPost2010PropOp47
 70
     1
102
RTVSPost2010Prop48
 90
       50
102
RTVSPost2010PropOp48
 70
     1
102
RTVSPost2010Prop49
280
     0
102
RTVSPost2010PropOp49
 70
     1
102
RTVSPost2010Prop50
 90
       50
102
RTVSPost2010PropOp50
 70
     1
102
RTVSPost2010Prop51ColorIndex
 90
      256
102
RTVSPost2010Prop51ColorRGB
 90
-16777216
102
RTVSPost2010PropOp51
 70
     0
102
RTVSPost2010Prop52
140
1.0
102
RTVSPost2010PropOp52
 70
     0
102
RTVSPost2010Prop53
 90
        2
102
RTVSPost2010PropOp53
 70
     1
102
RTVSPost2010Prop54
  1
strokes_ogs.tif
102
RTVSPost2010PropOp54
 70
     1
102
RTVSPost2010Prop55
280
     0
102
RTVSPost2010PropOp55
 70
     1
102
RTVSPost2010Prop56
140
1.0
102
RTVSPost2010PropOp56
 70
     1
102
RTVSPost2010Prop57
140
1.0
102
RTVSPost2010PropOp57
 70
     1
  0
XRECORD
  5
5D0
102
{ACAD_REACTORS
330
5CF
102
}
330
5CF
100
AcDbXrecord
280
     1
102
RTVSPropertyOp0
 70
     1
102
RTVSPropertyOp1
 70
     1
102
RTVSPropertyOp2
 70
     1
102
RTVSPropertyOp3
 70
     1
102
RTVSPropertyOp4
 70
     1
102
RTVSPropertyOp5
 70
     1
102
RTVSPropertyOp6
 70
     1
102
RTVSPropertyOp7
 70
     1
102
RTVSPropertyOp8
 70
     1
102
RTVSPropertyOp9
 70
     1
102
RTVSPropertyOp10
 70
     1
102
RTVSPropertyOp11
 70
     1
102
RTVSPropertyOp12
 70
     1
102
RTVSPropertyOp13
 70
     1
102
RTVSPropertyOp14
 70
     1
102
RTVSPropertyOp15
 70
     1
102
RTVSPropertyOp16
 70
     1
102
RTVSPropertyOp17
 70
     1
102
RTVSPropertyOp18
 70
     1
102
RTVSPropertyOp19
 70
     1
102
RTVSPropertyOp20
 70
     1
102
RTVSPropertyOp21
 70
     1
102
RTVSPropertyOp22
 70
     1
102
RTVSPropertyOp23
 70
     1
102
RTVSPropertyOp24
 70
     1
102
RTVSPropertyOp25
 70
     1
102
RTVSPropertyOp26
 70
     1
102
RTVSPropertyOp27
 70
     1
102
RTVSPropertyOp28
 70
     1
102
RTVSPropertyOp29
 70
     1
102
RTVSPropertyOp30
 70
     1
102
RTVSPropertyOp31
 70
     1
102
RTVSPropertyOp32
 70
     1
102
RTVSPropertyOp33
 70
     1
102
RTVSPropertyOp34
 70
     1
102
RTVSPropertyOp35
 70
     1
102
RTVSPropertyOp36
 70
     1
102
RTVSPropertyOp37
 70
     1
102
RTVSPropertyOp38
 70
     1
102
RTVSPropertyOp39
 70
     1
102
RTVSPropertyOp40
 70
     1
102
RTVSPropertyOp41
 70
     1
102
RTVSPropertyOp42
 70
     1
102
RTVSPropertyOp43
 70
     1
102
RTVSPropertyOp44
 70
     1
102
RTVSPropertyOp45
 70
     1
102
RTVSPropertyOp46
 70
     1
102
RTVSPropertyOp47
 70
     1
102
RTVSPropertyOp48
 70
     1
102
RTVSPropertyOp49
 70
     1
102
RTVSPropertyOp50
 70
     1
102
RTVSPropertyOp51
 70
     0
102
RTVSPropertyOp52
 70
     0
102
RTVSPropertyOp53
 70
     1
102
RTVSPropertyOp54
 70
     1
102
RTVSPropertyOp55
 70
     1
102
RTVSPropertyOp56
 70
     1
102
RTVSPropertyOp57
 70
     1
102
RTVSPost2010Prop28
280
     0
102
RTVSPost2010PropOp28
 70
     1
102
RTVSPost2010Prop29
280
     1
102
RTVSPost2010PropOp29
 70
     1
102
RTVSPost2010Prop30
280
     1
102
RTVSPost2010PropOp30
 70
     1
102
RTVSPost2010Prop31
280
     0
102
RTVSPost2010PropOp31
 70
     1
102
RTVSPost2010Prop32
280
     0
102
RTVSPost2010PropOp32
 70
     1
102
RTVSPost2010Prop33
280
     0
102
RTVSPost2010PropOp33
 70
     1
102
RTVSPost2010Prop34
280
     0
102
RTVSPost2010PropOp34
 70
     1
102
RTVSPost2010Prop35
280
     0
102
RTVSPost2010PropOp35
 70
     1
102
RTVSPost2010Prop36
280
     0
102
RTVSPost2010PropOp36
 70
     1
102
RTVSPost2010Prop37
 90
       50
102
RTVSPost2010PropOp37
 70
     1
102
RTVSPost2010Prop38
140
0.0
102
RTVSPost2010PropOp38
 70
     1
102
RTVSPost2010Prop39
140
1.0
102
RTVSPost2010PropOp39
 70
     1
102
RTVSPost2010Prop40
 90
        0
102
RTVSPost2010PropOp40
 70
     1
102
RTVSPost2010Prop41ColorIndex
 90
       18
102
RTVSPost2010Prop41ColorRGB
 90
        0
102
RTVSPost2010PropOp41
 70
     1
102
RTVSPost2010Prop42
 90
       50
102
RTVSPost2010PropOp42
 70
     1
102
RTVSPost2010Prop43
 90
        3
102
RTVSPost2010PropOp43
 70
     1
102
RTVSPost2010Prop44ColorIndex
 90
        5
102
RTVSPost2010Prop44ColorRGB
 90
      255
102
RTVSPost2010PropOp44
 70
     1
102
RTVSPost2010Prop45
280
     0
102
RTVSPost2010PropOp45
 70
     1
102
RTVSPost2010Prop46
 90
       50
102
RTVSPost2010PropOp46
 70
     1
102
RTVSPost2010Prop47
 90
       50
102
RTVSPost2010PropOp47
 70
     1
102
RTVSPost2010Prop48
 90
       50
102
RTVSPost2010PropOp48
 70
     1
102
RTVSPost2010Prop49
280
     0
102
RTVSPost2010PropOp49
 70
     1
102
RTVSPost2010Prop50
 90
       50
102
RTVSPost2010PropOp50
 70
     1
102
RTVSPost2010Prop51ColorIndex
 90
      256
102
RTVSPost2010Prop51ColorRGB
 90
-16777216
102
RTVSPost2010PropOp51
 70
     0
102
RTVSPost2010Prop52
140
1.0
102
RTVSPost2010PropOp52
 70
     0
102
RTVSPost2010Prop53
 90
        2
102
RTVSPost2010PropOp53
 70
     1
102
RTVSPost2010Prop54
  1
strokes_ogs.tif
102
RTVSPost2010PropOp54
 70
     1
102
RTVSPost2010Prop55
280
     0
102
RTVSPost2010PropOp55
 70
     1
102
RTVSPost2010Prop56
140
1.0
102
RTVSPost2010PropOp56
 70
     1
102
RTVSPost2010Prop57
140
1.0
102
RTVSPost2010PropOp57
 70
     1
  0
XRECORD
  5
5D2
102
{ACAD_REACTORS
330
5D1
102
}
330
5D1
100
AcDbXrecord
280
     1
102
RTVSPropertyOp0
 70
     1
102
RTVSPropertyOp1
 70
     1
102
RTVSPropertyOp2
 70
     1
102
RTVSPropertyOp3
 70
     1
102
RTVSPropertyOp4
 70
     1
102
RTVSPropertyOp5
 70
     1
102
RTVSPropertyOp6
 70
     1
102
RTVSPropertyOp7
 70
     1
102
RTVSPropertyOp8
 70
     1
102
RTVSPropertyOp9
 70
     1
102
RTVSPropertyOp10
 70
     1
102
RTVSPropertyOp11
 70
     1
102
RTVSPropertyOp12
 70
     1
102
RTVSPropertyOp13
 70
     1
102
RTVSPropertyOp14
 70
     1
102
RTVSPropertyOp15
 70
     1
102
RTVSPropertyOp16
 70
     1
102
RTVSPropertyOp17
 70
     1
102
RTVSPropertyOp18
 70
     1
102
RTVSPropertyOp19
 70
     1
102
RTVSPropertyOp20
 70
     1
102
RTVSPropertyOp21
 70
     1
102
RTVSPropertyOp22
 70
     1
102
RTVSPropertyOp23
 70
     1
102
RTVSPropertyOp24
 70
     1
102
RTVSPropertyOp25
 70
     1
102
RTVSPropertyOp26
 70
     1
102
RTVSPropertyOp27
 70
     1
102
RTVSPropertyOp28
 70
     1
102
RTVSPropertyOp29
 70
     1
102
RTVSPropertyOp30
 70
     1
102
RTVSPropertyOp31
 70
     1
102
RTVSPropertyOp32
 70
     1
102
RTVSPropertyOp33
 70
     1
102
RTVSPropertyOp34
 70
     1
102
RTVSPropertyOp35
 70
     1
102
RTVSPropertyOp36
 70
     1
102
RTVSPropertyOp37
 70
     1
102
RTVSPropertyOp38
 70
     1
102
RTVSPropertyOp39
 70
     1
102
RTVSPropertyOp40
 70
     1
102
RTVSPropertyOp41
 70
     1
102
RTVSPropertyOp42
 70
     1
102
RTVSPropertyOp43
 70
     1
102
RTVSPropertyOp44
 70
     1
102
RTVSPropertyOp45
 70
     1
102
RTVSPropertyOp46
 70
     1
102
RTVSPropertyOp47
 70
     1
102
RTVSPropertyOp48
 70
     1
102
RTVSPropertyOp49
 70
     1
102
RTVSPropertyOp50
 70
     1
102
RTVSPropertyOp51
 70
     0
102
RTVSPropertyOp52
 70
     0
102
RTVSPropertyOp53
 70
     1
102
RTVSPropertyOp54
 70
     1
102
RTVSPropertyOp55
 70
     1
102
RTVSPropertyOp56
 70
     1
102
RTVSPropertyOp57
 70
     1
102
RTVSPost2010Prop28
280
     0
102
RTVSPost2010PropOp28
 70
     1
102
RTVSPost2010Prop29
280
     1
102
RTVSPost2010PropOp29
 70
     1
102
RTVSPost2010Prop30
280
     1
102
RTVSPost2010PropOp30
 70
     1
102
RTVSPost2010Prop31
280
     0
102
RTVSPost2010PropOp31
 70
     1
102
RTVSPost2010Prop32
280
     0
102
RTVSPost2010PropOp32
 70
     1
102
RTVSPost2010Prop33
280
     0
102
RTVSPost2010PropOp33
 70
     1
102
RTVSPost2010Prop34
280
     0
102
RTVSPost2010PropOp34
 70
     1
102
RTVSPost2010Prop35
280
     0
102
RTVSPost2010PropOp35
 70
     1
102
RTVSPost2010Prop36
280
     0
102
RTVSPost2010PropOp36
 70
     1
102
RTVSPost2010Prop37
 90
       50
102
RTVSPost2010PropOp37
 70
     1
102
RTVSPost2010Prop38
140
0.0
102
RTVSPost2010PropOp38
 70
     1
102
RTVSPost2010Prop39
140
1.0
102
RTVSPost2010PropOp39
 70
     1
102
RTVSPost2010Prop40
 90
        0
102
RTVSPost2010PropOp40
 70
     1
102
RTVSPost2010Prop41ColorIndex
 90
       18
102
RTVSPost2010Prop41ColorRGB
 90
        0
102
RTVSPost2010PropOp41
 70
     1
102
RTVSPost2010Prop42
 90
       50
102
RTVSPost2010PropOp42
 70
     1
102
RTVSPost2010Prop43
 90
        3
102
RTVSPost2010PropOp43
 70
     1
102
RTVSPost2010Prop44ColorIndex
 90
        5
102
RTVSPost2010Prop44ColorRGB
 90
      255
102
RTVSPost2010PropOp44
 70
     1
102
RTVSPost2010Prop45
280
     0
102
RTVSPost2010PropOp45
 70
     1
102
RTVSPost2010Prop46
 90
       50
102
RTVSPost2010PropOp46
 70
     1
102
RTVSPost2010Prop47
 90
       50
102
RTVSPost2010PropOp47
 70
     1
102
RTVSPost2010Prop48
 90
       50
102
RTVSPost2010PropOp48
 70
     1
102
RTVSPost2010Prop49
280
     0
102
RTVSPost2010PropOp49
 70
     1
102
RTVSPost2010Prop50
 90
       50
102
RTVSPost2010PropOp50
 70
     1
102
RTVSPost2010Prop51ColorIndex
 90
      256
102
RTVSPost2010Prop51ColorRGB
 90
-16777216
102
RTVSPost2010PropOp51
 70
     0
102
RTVSPost2010Prop52
140
1.0
102
RTVSPost2010PropOp52
 70
     0
102
RTVSPost2010Prop53
 90
        2
102
RTVSPost2010PropOp53
 70
     1
102
RTVSPost2010Prop54
  1
strokes_ogs.tif
102
RTVSPost2010PropOp54
 70
     1
102
RTVSPost2010Prop55
280
     0
102
RTVSPost2010PropOp55
 70
     1
102
RTVSPost2010Prop56
140
1.0
102
RTVSPost2010PropOp56
 70
     1
102
RTVSPost2010Prop57
140
1.0
102
RTVSPost2010PropOp57
 70
     1
  0
XRECORD
  5
5D4
102
{ACAD_REACTORS
330
5D3
102
}
330
5D3
100
AcDbXrecord
280
     1
102
RTVSPropertyOp0
 70
     1
102
RTVSPropertyOp1
 70
     1
102
RTVSPropertyOp2
 70
     1
102
RTVSPropertyOp3
 70
     1
102
RTVSPropertyOp4
 70
     1
102
RTVSPropertyOp5
 70
     1
102
RTVSPropertyOp6
 70
     1
102
RTVSPropertyOp7
 70
     1
102
RTVSPropertyOp8
 70
     1
102
RTVSPropertyOp9
 70
     1
102
RTVSPropertyOp10
 70
     1
102
RTVSPropertyOp11
 70
     1
102
RTVSPropertyOp12
 70
     1
102
RTVSPropertyOp13
 70
     1
102
RTVSPropertyOp14
 70
     1
102
RTVSPropertyOp15
 70
     1
102
RTVSPropertyOp16
 70
     1
102
RTVSPropertyOp17
 70
     1
102
RTVSPropertyOp18
 70
     1
102
RTVSPropertyOp19
 70
     1
102
RTVSPropertyOp20
 70
     1
102
RTVSPropertyOp21
 70
     1
102
RTVSPropertyOp22
 70
     1
102
RTVSPropertyOp23
 70
     1
102
RTVSPropertyOp24
 70
     1
102
RTVSPropertyOp25
 70
     1
102
RTVSPropertyOp26
 70
     1
102
RTVSPropertyOp27
 70
     1
102
RTVSPropertyOp28
 70
     1
102
RTVSPropertyOp29
 70
     1
102
RTVSPropertyOp30
 70
     1
102
RTVSPropertyOp31
 70
     1
102
RTVSPropertyOp32
 70
     1
102
RTVSPropertyOp33
 70
     1
102
RTVSPropertyOp34
 70
     1
102
RTVSPropertyOp35
 70
     1
102
RTVSPropertyOp36
 70
     1
102
RTVSPropertyOp37
 70
     1
102
RTVSPropertyOp38
 70
     1
102
RTVSPropertyOp39
 70
     1
102
RTVSPropertyOp40
 70
     1
102
RTVSPropertyOp41
 70
     1
102
RTVSPropertyOp42
 70
     1
102
RTVSPropertyOp43
 70
     1
102
RTVSPropertyOp44
 70
     1
102
RTVSPropertyOp45
 70
     1
102
RTVSPropertyOp46
 70
     1
102
RTVSPropertyOp47
 70
     1
102
RTVSPropertyOp48
 70
     1
102
RTVSPropertyOp49
 70
     1
102
RTVSPropertyOp50
 70
     1
102
RTVSPropertyOp51
 70
     0
102
RTVSPropertyOp52
 70
     0
102
RTVSPropertyOp53
 70
     1
102
RTVSPropertyOp54
 70
     1
102
RTVSPropertyOp55
 70
     1
102
RTVSPropertyOp56
 70
     1
102
RTVSPropertyOp57
 70
     1
102
RTVSPost2010Prop28
280
     0
102
RTVSPost2010PropOp28
 70
     1
102
RTVSPost2010Prop29
280
     1
102
RTVSPost2010PropOp29
 70
     1
102
RTVSPost2010Prop30
280
     1
102
RTVSPost2010PropOp30
 70
     1
102
RTVSPost2010Prop31
280
     0
102
RTVSPost2010PropOp31
 70
     1
102
RTVSPost2010Prop32
280
     0
102
RTVSPost2010PropOp32
 70
     1
102
RTVSPost2010Prop33
280
     0
102
RTVSPost2010PropOp33
 70
     1
102
RTVSPost2010Prop34
280
     0
102
RTVSPost2010PropOp34
 70
     1
102
RTVSPost2010Prop35
280
     0
102
RTVSPost2010PropOp35
 70
     1
102
RTVSPost2010Prop36
280
     0
102
RTVSPost2010PropOp36
 70
     1
102
RTVSPost2010Prop37
 90
       50
102
RTVSPost2010PropOp37
 70
     1
102
RTVSPost2010Prop38
140
0.0
102
RTVSPost2010PropOp38
 70
     1
102
RTVSPost2010Prop39
140
1.0
102
RTVSPost2010PropOp39
 70
     1
102
RTVSPost2010Prop40
 90
        0
102
RTVSPost2010PropOp40
 70
     1
102
RTVSPost2010Prop41ColorIndex
 90
       18
102
RTVSPost2010Prop41ColorRGB
 90
        0
102
RTVSPost2010PropOp41
 70
     1
102
RTVSPost2010Prop42
 90
       50
102
RTVSPost2010PropOp42
 70
     1
102
RTVSPost2010Prop43
 90
        3
102
RTVSPost2010PropOp43
 70
     1
102
RTVSPost2010Prop44ColorIndex
 90
        5
102
RTVSPost2010Prop44ColorRGB
 90
      255
102
RTVSPost2010PropOp44
 70
     1
102
RTVSPost2010Prop45
280
     0
102
RTVSPost2010PropOp45
 70
     1
102
RTVSPost2010Prop46
 90
       50
102
RTVSPost2010PropOp46
 70
     1
102
RTVSPost2010Prop47
 90
       50
102
RTVSPost2010PropOp47
 70
     1
102
RTVSPost2010Prop48
 90
       50
102
RTVSPost2010PropOp48
 70
     1
102
RTVSPost2010Prop49
280
     0
102
RTVSPost2010PropOp49
 70
     1
102
RTVSPost2010Prop50
 90
       50
102
RTVSPost2010PropOp50
 70
     1
102
RTVSPost2010Prop51ColorIndex
 90
      256
102
RTVSPost2010Prop51ColorRGB
 90
-16777216
102
RTVSPost2010PropOp51
 70
     0
102
RTVSPost2010Prop52
140
1.0
102
RTVSPost2010PropOp52
 70
     0
102
RTVSPost2010Prop53
 90
        2
102
RTVSPost2010PropOp53
 70
     1
102
RTVSPost2010Prop54
  1
strokes_ogs.tif
102
RTVSPost2010PropOp54
 70
     1
102
RTVSPost2010Prop55
280
     0
102
RTVSPost2010PropOp55
 70
     1
102
RTVSPost2010Prop56
140
1.0
102
RTVSPost2010PropOp56
 70
     1
102
RTVSPost2010Prop57
140
1.0
102
RTVSPost2010PropOp57
 70
     1
  0
XRECORD
  5
5D6
102
{ACAD_REACTORS
330
5D5
102
}
330
5D5
100
AcDbXrecord
280
     1
102
RTVSPropertyOp0
 70
     1
102
RTVSPropertyOp1
 70
     1
102
RTVSPropertyOp2
 70
     1
102
RTVSPropertyOp3
 70
     1
102
RTVSPropertyOp4
 70
     1
102
RTVSPropertyOp5
 70
     1
102
RTVSPropertyOp6
 70
     1
102
RTVSPropertyOp7
 70
     1
102
RTVSPropertyOp8
 70
     1
102
RTVSPropertyOp9
 70
     1
102
RTVSPropertyOp10
 70
     1
102
RTVSPropertyOp11
 70
     1
102
RTVSPropertyOp12
 70
     1
102
RTVSPropertyOp13
 70
     1
102
RTVSPropertyOp14
 70
     1
102
RTVSPropertyOp15
 70
     1
102
RTVSPropertyOp16
 70
     1
102
RTVSPropertyOp17
 70
     1
102
RTVSPropertyOp18
 70
     1
102
RTVSPropertyOp19
 70
     1
102
RTVSPropertyOp20
 70
     1
102
RTVSPropertyOp21
 70
     1
102
RTVSPropertyOp22
 70
     1
102
RTVSPropertyOp23
 70
     1
102
RTVSPropertyOp24
 70
     1
102
RTVSPropertyOp25
 70
     1
102
RTVSPropertyOp26
 70
     1
102
RTVSPropertyOp27
 70
     1
102
RTVSPropertyOp28
 70
     1
102
RTVSPropertyOp29
 70
     1
102
RTVSPropertyOp30
 70
     1
102
RTVSPropertyOp31
 70
     1
102
RTVSPropertyOp32
 70
     1
102
RTVSPropertyOp33
 70
     1
102
RTVSPropertyOp34
 70
     1
102
RTVSPropertyOp35
 70
     1
102
RTVSPropertyOp36
 70
     1
102
RTVSPropertyOp37
 70
     1
102
RTVSPropertyOp38
 70
     1
102
RTVSPropertyOp39
 70
     1
102
RTVSPropertyOp40
 70
     1
102
RTVSPropertyOp41
 70
     1
102
RTVSPropertyOp42
 70
     1
102
RTVSPropertyOp43
 70
     1
102
RTVSPropertyOp44
 70
     1
102
RTVSPropertyOp45
 70
     1
102
RTVSPropertyOp46
 70
     1
102
RTVSPropertyOp47
 70
     1
102
RTVSPropertyOp48
 70
     1
102
RTVSPropertyOp49
 70
     1
102
RTVSPropertyOp50
 70
     1
102
RTVSPropertyOp51
 70
     0
102
RTVSPropertyOp52
 70
     0
102
RTVSPropertyOp53
 70
     1
102
RTVSPropertyOp54
 70
     1
102
RTVSPropertyOp55
 70
     1
102
RTVSPropertyOp56
 70
     1
102
RTVSPropertyOp57
 70
     1
102
RTVSPost2010Prop28
280
     0
102
RTVSPost2010PropOp28
 70
     1
102
RTVSPost2010Prop29
280
     1
102
RTVSPost2010PropOp29
 70
     1
102
RTVSPost2010Prop30
280
     1
102
RTVSPost2010PropOp30
 70
     1
102
RTVSPost2010Prop31
280
     0
102
RTVSPost2010PropOp31
 70
     1
102
RTVSPost2010Prop32
280
     0
102
RTVSPost2010PropOp32
 70
     1
102
RTVSPost2010Prop33
280
     0
102
RTVSPost2010PropOp33
 70
     1
102
RTVSPost2010Prop34
280
     0
102
RTVSPost2010PropOp34
 70
     1
102
RTVSPost2010Prop35
280
     0
102
RTVSPost2010PropOp35
 70
     1
102
RTVSPost2010Prop36
280
     0
102
RTVSPost2010PropOp36
 70
     1
102
RTVSPost2010Prop37
 90
       50
102
RTVSPost2010PropOp37
 70
     1
102
RTVSPost2010Prop38
140
0.0
102
RTVSPost2010PropOp38
 70
     1
102
RTVSPost2010Prop39
140
1.0
102
RTVSPost2010PropOp39
 70
     1
102
RTVSPost2010Prop40
 90
        0
102
RTVSPost2010PropOp40
 70
     1
102
RTVSPost2010Prop41ColorIndex
 90
       18
102
RTVSPost2010Prop41ColorRGB
 90
        0
102
RTVSPost2010PropOp41
 70
     1
102
RTVSPost2010Prop42
 90
       50
102
RTVSPost2010PropOp42
 70
     1
102
RTVSPost2010Prop43
 90
        3
102
RTVSPost2010PropOp43
 70
     1
102
RTVSPost2010Prop44ColorIndex
 90
        5
102
RTVSPost2010Prop44ColorRGB
 90
      255
102
RTVSPost2010PropOp44
 70
     1
102
RTVSPost2010Prop45
280
     0
102
RTVSPost2010PropOp45
 70
     1
102
RTVSPost2010Prop46
 90
       50
102
RTVSPost2010PropOp46
 70
     1
102
RTVSPost2010Prop47
 90
       50
102
RTVSPost2010PropOp47
 70
     1
102
RTVSPost2010Prop48
 90
       50
102
RTVSPost2010PropOp48
 70
     1
102
RTVSPost2010Prop49
280
     0
102
RTVSPost2010PropOp49
 70
     1
102
RTVSPost2010Prop50
 90
       50
102
RTVSPost2010PropOp50
 70
     1
102
RTVSPost2010Prop51ColorIndex
 90
      256
102
RTVSPost2010Prop51ColorRGB
 90
-16777216
102
RTVSPost2010PropOp51
 70
     0
102
RTVSPost2010Prop52
140
1.0
102
RTVSPost2010PropOp52
 70
     0
102
RTVSPost2010Prop53
 90
        2
102
RTVSPost2010PropOp53
 70
     1
102
RTVSPost2010Prop54
  1
strokes_ogs.tif
102
RTVSPost2010PropOp54
 70
     1
102
RTVSPost2010Prop55
280
     0
102
RTVSPost2010PropOp55
 70
     1
102
RTVSPost2010Prop56
140
1.0
102
RTVSPost2010PropOp56
 70
     1
102
RTVSPost2010Prop57
140
1.0
102
RTVSPost2010PropOp57
 70
     1
  0
XRECORD
  5
5DC
102
{ACAD_REACTORS
330
5DB
102
}
330
5DB
100
AcDbXrecord
280
     1
102
RTVSPropertyOp0
 70
     1
102
RTVSPropertyOp1
 70
     1
102
RTVSPropertyOp2
 70
     1
102
RTVSPropertyOp3
 70
     1
102
RTVSPropertyOp4
 70
     1
102
RTVSPropertyOp5
 70
     1
102
RTVSPropertyOp6
 70
     1
102
RTVSPropertyOp7
 70
     1
102
RTVSPropertyOp8
 70
     1
102
RTVSPropertyOp9
 70
     1
102
RTVSPropertyOp10
 70
     1
102
RTVSPropertyOp11
 70
     1
102
RTVSPropertyOp12
 70
     1
102
RTVSPropertyOp13
 70
     1
102
RTVSPropertyOp14
 70
     1
102
RTVSPropertyOp15
 70
     1
102
RTVSPropertyOp16
 70
     1
102
RTVSPropertyOp17
 70
     1
102
RTVSPropertyOp18
 70
     1
102
RTVSPropertyOp19
 70
     1
102
RTVSPropertyOp20
 70
     1
102
RTVSPropertyOp21
 70
     1
102
RTVSPropertyOp22
 70
     1
102
RTVSPropertyOp23
 70
     1
102
RTVSPropertyOp24
 70
     1
102
RTVSPropertyOp25
 70
     1
102
RTVSPropertyOp26
 70
     1
102
RTVSPropertyOp27
 70
     1
102
RTVSPropertyOp28
 70
     1
102
RTVSPropertyOp29
 70
     1
102
RTVSPropertyOp30
 70
     1
102
RTVSPropertyOp31
 70
     1
102
RTVSPropertyOp32
 70
     1
102
RTVSPropertyOp33
 70
     1
102
RTVSPropertyOp34
 70
     1
102
RTVSPropertyOp35
 70
     1
102
RTVSPropertyOp36
 70
     1
102
RTVSPropertyOp37
 70
     1
102
RTVSPropertyOp38
 70
     1
102
RTVSPropertyOp39
 70
     1
102
RTVSPropertyOp40
 70
     1
102
RTVSPropertyOp41
 70
     1
102
RTVSPropertyOp42
 70
     1
102
RTVSPropertyOp43
 70
     1
102
RTVSPropertyOp44
 70
     1
102
RTVSPropertyOp45
 70
     1
102
RTVSPropertyOp46
 70
     1
102
RTVSPropertyOp47
 70
     1
102
RTVSPropertyOp48
 70
     1
102
RTVSPropertyOp49
 70
     1
102
RTVSPropertyOp50
 70
     1
102
RTVSPropertyOp51
 70
     0
102
RTVSPropertyOp52
 70
     0
102
RTVSPropertyOp53
 70
     1
102
RTVSPropertyOp54
 70
     1
102
RTVSPropertyOp55
 70
     1
102
RTVSPropertyOp56
 70
     1
102
RTVSPropertyOp57
 70
     1
102
RTVSPost2010Prop28
280
     0
102
RTVSPost2010PropOp28
 70
     1
102
RTVSPost2010Prop29
280
     1
102
RTVSPost2010PropOp29
 70
     1
102
RTVSPost2010Prop30
280
     1
102
RTVSPost2010PropOp30
 70
     1
102
RTVSPost2010Prop31
280
     0
102
RTVSPost2010PropOp31
 70
     1
102
RTVSPost2010Prop32
280
     0
102
RTVSPost2010PropOp32
 70
     1
102
RTVSPost2010Prop33
280
     0
102
RTVSPost2010PropOp33
 70
     1
102
RTVSPost2010Prop34
280
     0
102
RTVSPost2010PropOp34
 70
     1
102
RTVSPost2010Prop35
280
     0
102
RTVSPost2010PropOp35
 70
     1
102
RTVSPost2010Prop36
280
     0
102
RTVSPost2010PropOp36
 70
     1
102
RTVSPost2010Prop37
 90
       50
102
RTVSPost2010PropOp37
 70
     1
102
RTVSPost2010Prop38
140
0.0
102
RTVSPost2010PropOp38
 70
     1
102
RTVSPost2010Prop39
140
1.0
102
RTVSPost2010PropOp39
 70
     1
102
RTVSPost2010Prop40
 90
        0
102
RTVSPost2010PropOp40
 70
     1
102
RTVSPost2010Prop41ColorIndex
 90
       18
102
RTVSPost2010Prop41ColorRGB
 90
        0
102
RTVSPost2010PropOp41
 70
     1
102
RTVSPost2010Prop42
 90
       50
102
RTVSPost2010PropOp42
 70
     1
102
RTVSPost2010Prop43
 90
        3
102
RTVSPost2010PropOp43
 70
     1
102
RTVSPost2010Prop44ColorIndex
 90
        5
102
RTVSPost2010Prop44ColorRGB
 90
      255
102
RTVSPost2010PropOp44
 70
     1
102
RTVSPost2010Prop45
280
     0
102
RTVSPost2010PropOp45
 70
     1
102
RTVSPost2010Prop46
 90
       50
102
RTVSPost2010PropOp46
 70
     1
102
RTVSPost2010Prop47
 90
       50
102
RTVSPost2010PropOp47
 70
     1
102
RTVSPost2010Prop48
 90
       50
102
RTVSPost2010PropOp48
 70
     1
102
RTVSPost2010Prop49
280
     0
102
RTVSPost2010PropOp49
 70
     1
102
RTVSPost2010Prop50
 90
       50
102
RTVSPost2010PropOp50
 70
     1
102
RTVSPost2010Prop51ColorIndex
 90
      256
102
RTVSPost2010Prop51ColorRGB
 90
-16777216
102
RTVSPost2010PropOp51
 70
     0
102
RTVSPost2010Prop52
140
1.0
102
RTVSPost2010PropOp52
 70
     0
102
RTVSPost2010Prop53
 90
        2
102
RTVSPost2010PropOp53
 70
     1
102
RTVSPost2010Prop54
  1
strokes_ogs.tif
102
RTVSPost2010PropOp54
 70
     1
102
RTVSPost2010Prop55
280
     0
102
RTVSPost2010PropOp55
 70
     1
102
RTVSPost2010Prop56
140
1.0
102
RTVSPost2010PropOp56
 70
     1
102
RTVSPost2010Prop57
140
1.0
102
RTVSPost2010PropOp57
 70
     1
  0
XRECORD
  5
5F0
102
{ACAD_REACTORS
330
5EF
102
}
330
5EF
100
AcDbXrecord
280
     1
102
RTVSPropertyOp0
 70
     0
102
RTVSPropertyOp1
 70
     0
102
RTVSPropertyOp2
 70
     0
102
RTVSPropertyOp3
 70
     0
102
RTVSPropertyOp4
 70
     0
102
RTVSPropertyOp5
 70
     0
102
RTVSPropertyOp6
 70
     0
102
RTVSPropertyOp7
 70
     0
102
RTVSPropertyOp8
 70
     0
102
RTVSPropertyOp9
 70
     0
102
RTVSPropertyOp10
 70
     0
102
RTVSPropertyOp11
 70
     0
102
RTVSPropertyOp12
 70
     0
102
RTVSPropertyOp13
 70
     0
102
RTVSPropertyOp14
 70
     0
102
RTVSPropertyOp15
 70
     0
102
RTVSPropertyOp16
 70
     0
102
RTVSPropertyOp17
 70
     0
102
RTVSPropertyOp18
 70
     0
102
RTVSPropertyOp19
 70
     0
102
RTVSPropertyOp20
 70
     0
102
RTVSPropertyOp21
 70
     0
102
RTVSPropertyOp22
 70
     0
102
RTVSPropertyOp23
 70
     0
102
RTVSPropertyOp24
 70
     0
102
RTVSPropertyOp25
 70
     0
102
RTVSPropertyOp26
 70
     0
102
RTVSPropertyOp27
 70
     0
102
RTVSPropertyOp28
 70
     1
102
RTVSPropertyOp29
 70
     1
102
RTVSPropertyOp30
 70
     1
102
RTVSPropertyOp31
 70
     1
102
RTVSPropertyOp32
 70
     1
102
RTVSPropertyOp33
 70
     1
102
RTVSPropertyOp34
 70
     1
102
RTVSPropertyOp35
 70
     1
102
RTVSPropertyOp36
 70
     1
102
RTVSPropertyOp37
 70
     1
102
RTVSPropertyOp38
 70
     1
102
RTVSPropertyOp39
 70
     1
102
RTVSPropertyOp40
 70
     1
102
RTVSPropertyOp41
 70
     1
102
RTVSPropertyOp42
 70
     1
102
RTVSPropertyOp43
 70
     1
102
RTVSPropertyOp44
 70
     1
102
RTVSPropertyOp45
 70
     1
102
RTVSPropertyOp46
 70
     1
102
RTVSPropertyOp47
 70
     1
102
RTVSPropertyOp48
 70
     1
102
RTVSPropertyOp49
 70
     1
102
RTVSPropertyOp50
 70
     1
102
RTVSPropertyOp51
 70
     0
102
RTVSPropertyOp52
 70
     0
102
RTVSPropertyOp53
 70
     1
102
RTVSPropertyOp54
 70
     1
102
RTVSPropertyOp55
 70
     1
102
RTVSPropertyOp56
 70
     1
102
RTVSPropertyOp57
 70
     1
102
RTVSPost2010Prop28
280
     0
102
RTVSPost2010PropOp28
 70
     1
102
RTVSPost2010Prop29
280
     1
102
RTVSPost2010PropOp29
 70
     1
102
RTVSPost2010Prop30
280
     1
102
RTVSPost2010PropOp30
 70
     1
102
RTVSPost2010Prop31
280
     0
102
RTVSPost2010PropOp31
 70
     1
102
RTVSPost2010Prop32
280
     0
102
RTVSPost2010PropOp32
 70
     1
102
RTVSPost2010Prop33
280
     0
102
RTVSPost2010PropOp33
 70
     1
102
RTVSPost2010Prop34
280
     0
102
RTVSPost2010PropOp34
 70
     1
102
RTVSPost2010Prop35
280
     0
102
RTVSPost2010PropOp35
 70
     1
102
RTVSPost2010Prop36
280
     0
102
RTVSPost2010PropOp36
 70
     1
102
RTVSPost2010Prop37
 90
       50
102
RTVSPost2010PropOp37
 70
     1
102
RTVSPost2010Prop38
140
0.0
102
RTVSPost2010PropOp38
 70
     1
102
RTVSPost2010Prop39
140
1.0
102
RTVSPost2010PropOp39
 70
     1
102
RTVSPost2010Prop40
 90
        0
102
RTVSPost2010PropOp40
 70
     1
102
RTVSPost2010Prop41ColorIndex
 90
       18
102
RTVSPost2010Prop41ColorRGB
 90
        0
102
RTVSPost2010PropOp41
 70
     1
102
RTVSPost2010Prop42
 90
       50
102
RTVSPost2010PropOp42
 70
     1
102
RTVSPost2010Prop43
 90
        3
102
RTVSPost2010PropOp43
 70
     1
102
RTVSPost2010Prop44ColorIndex
 90
        5
102
RTVSPost2010Prop44ColorRGB
 90
      255
102
RTVSPost2010PropOp44
 70
     1
102
RTVSPost2010Prop45
280
     0
102
RTVSPost2010PropOp45
 70
     1
102
RTVSPost2010Prop46
 90
       50
102
RTVSPost2010PropOp46
 70
     1
102
RTVSPost2010Prop47
 90
       50
102
RTVSPost2010PropOp47
 70
     1
102
RTVSPost2010Prop48
 90
       50
102
RTVSPost2010PropOp48
 70
     1
102
RTVSPost2010Prop49
280
     0
102
RTVSPost2010PropOp49
 70
     1
102
RTVSPost2010Prop50
 90
       50
102
RTVSPost2010PropOp50
 70
     1
102
RTVSPost2010Prop51ColorIndex
 90
      256
102
RTVSPost2010Prop51ColorRGB
 90
-16777216
102
RTVSPost2010PropOp51
 70
     0
102
RTVSPost2010Prop52
140
1.0
102
RTVSPost2010PropOp52
 70
     0
102
RTVSPost2010Prop53
 90
        2
102
RTVSPost2010PropOp53
 70
     1
102
RTVSPost2010Prop54
  1
strokes_ogs.tif
102
RTVSPost2010PropOp54
 70
     1
102
RTVSPost2010Prop55
280
     0
102
RTVSPost2010PropOp55
 70
     1
102
RTVSPost2010Prop56
140
1.0
102
RTVSPost2010PropOp56
 70
     1
102
RTVSPost2010Prop57
140
1.0
102
RTVSPost2010PropOp57
 70
     1
  0
XRECORD
  5
5EA
102
{ACAD_REACTORS
330
5E9
102
}
330
5E9
100
AcDbXrecord
280
     1
102
RTVSPropertyOp0
 70
     1
102
RTVSPropertyOp1
 70
     1
102
RTVSPropertyOp2
 70
     1
102
RTVSPropertyOp3
 70
     1
102
RTVSPropertyOp4
 70
     1
102
RTVSPropertyOp5
 70
     1
102
RTVSPropertyOp6
 70
     1
102
RTVSPropertyOp7
 70
     1
102
RTVSPropertyOp8
 70
     1
102
RTVSPropertyOp9
 70
     1
102
RTVSPropertyOp10
 70
     1
102
RTVSPropertyOp11
 70
     1
102
RTVSPropertyOp12
 70
     1
102
RTVSPropertyOp13
 70
     1
102
RTVSPropertyOp14
 70
     1
102
RTVSPropertyOp15
 70
     1
102
RTVSPropertyOp16
 70
     1
102
RTVSPropertyOp17
 70
     1
102
RTVSPropertyOp18
 70
     1
102
RTVSPropertyOp19
 70
     1
102
RTVSPropertyOp20
 70
     1
102
RTVSPropertyOp21
 70
     1
102
RTVSPropertyOp22
 70
     1
102
RTVSPropertyOp23
 70
     1
102
RTVSPropertyOp24
 70
     1
102
RTVSPropertyOp25
 70
     1
102
RTVSPropertyOp26
 70
     1
102
RTVSPropertyOp27
 70
     1
102
RTVSPropertyOp28
 70
     1
102
RTVSPropertyOp29
 70
     1
102
RTVSPropertyOp30
 70
     1
102
RTVSPropertyOp31
 70
     1
102
RTVSPropertyOp32
 70
     1
102
RTVSPropertyOp33
 70
     1
102
RTVSPropertyOp34
 70
     1
102
RTVSPropertyOp35
 70
     1
102
RTVSPropertyOp36
 70
     1
102
RTVSPropertyOp37
 70
     1
102
RTVSPropertyOp38
 70
     1
102
RTVSPropertyOp39
 70
     1
102
RTVSPropertyOp40
 70
     1
102
RTVSPropertyOp41
 70
     1
102
RTVSPropertyOp42
 70
     1
102
RTVSPropertyOp43
 70
     1
102
RTVSPropertyOp44
 70
     1
102
RTVSPropertyOp45
 70
     1
102
RTVSPropertyOp46
 70
     1
102
RTVSPropertyOp47
 70
     1
102
RTVSPropertyOp48
 70
     1
102
RTVSPropertyOp49
 70
     1
102
RTVSPropertyOp50
 70
     1
102
RTVSPropertyOp51
 70
     0
102
RTVSPropertyOp52
 70
     0
102
RTVSPropertyOp53
 70
     1
102
RTVSPropertyOp54
 70
     1
102
RTVSPropertyOp55
 70
     1
102
RTVSPropertyOp56
 70
     1
102
RTVSPropertyOp57
 70
     1
102
RTVSPost2010Prop28
280
     0
102
RTVSPost2010PropOp28
 70
     1
102
RTVSPost2010Prop29
280
     1
102
RTVSPost2010PropOp29
 70
     1
102
RTVSPost2010Prop30
280
     1
102
RTVSPost2010PropOp30
 70
     1
102
RTVSPost2010Prop31
280
     0
102
RTVSPost2010PropOp31
 70
     1
102
RTVSPost2010Prop32
280
     0
102
RTVSPost2010PropOp32
 70
     1
102
RTVSPost2010Prop33
280
     0
102
RTVSPost2010PropOp33
 70
     1
102
RTVSPost2010Prop34
280
     0
102
RTVSPost2010PropOp34
 70
     1
102
RTVSPost2010Prop35
280
     0
102
RTVSPost2010PropOp35
 70
     1
102
RTVSPost2010Prop36
280
     0
102
RTVSPost2010PropOp36
 70
     1
102
RTVSPost2010Prop37
 90
       50
102
RTVSPost2010PropOp37
 70
     1
102
RTVSPost2010Prop38
140
0.0
102
RTVSPost2010PropOp38
 70
     1
102
RTVSPost2010Prop39
140
1.0
102
RTVSPost2010PropOp39
 70
     1
102
RTVSPost2010Prop40
 90
        0
102
RTVSPost2010PropOp40
 70
     1
102
RTVSPost2010Prop41ColorIndex
 90
       18
102
RTVSPost2010Prop41ColorRGB
 90
        0
102
RTVSPost2010PropOp41
 70
     1
102
RTVSPost2010Prop42
 90
       50
102
RTVSPost2010PropOp42
 70
     1
102
RTVSPost2010Prop43
 90
        3
102
RTVSPost2010PropOp43
 70
     1
102
RTVSPost2010Prop44ColorIndex
 90
        5
102
RTVSPost2010Prop44ColorRGB
 90
      255
102
RTVSPost2010PropOp44
 70
     1
102
RTVSPost2010Prop45
280
     0
102
RTVSPost2010PropOp45
 70
     1
102
RTVSPost2010Prop46
 90
       50
102
RTVSPost2010PropOp46
 70
     1
102
RTVSPost2010Prop47
 90
       50
102
RTVSPost2010PropOp47
 70
     1
102
RTVSPost2010Prop48
 90
       50
102
RTVSPost2010PropOp48
 70
     1
102
RTVSPost2010Prop49
280
     0
102
RTVSPost2010PropOp49
 70
     1
102
RTVSPost2010Prop50
 90
       50
102
RTVSPost2010PropOp50
 70
     1
102
RTVSPost2010Prop51ColorIndex
 90
      256
102
RTVSPost2010Prop51ColorRGB
 90
-16777216
102
RTVSPost2010PropOp51
 70
     0
102
RTVSPost2010Prop52
140
1.0
102
RTVSPost2010PropOp52
 70
     0
102
RTVSPost2010Prop53
 90
        2
102
RTVSPost2010PropOp53
 70
     1
102
RTVSPost2010Prop54
  1
strokes_ogs.tif
102
RTVSPost2010PropOp54
 70
     1
102
RTVSPost2010Prop55
280
     0
102
RTVSPost2010PropOp55
 70
     1
102
RTVSPost2010Prop56
140
1.0
102
RTVSPost2010PropOp56
 70
     1
102
RTVSPost2010Prop57
140
1.0
102
RTVSPost2010PropOp57
 70
     1
  0
XRECORD
  5
5F2
102
{ACAD_REACTORS
330
5F1
102
}
330
5F1
100
AcDbXrecord
280
     1
102
RTVSPropertyOp0
 70
     0
102
RTVSPropertyOp1
 70
     0
102
RTVSPropertyOp2
 70
     0
102
RTVSPropertyOp3
 70
     0
102
RTVSPropertyOp4
 70
     0
102
RTVSPropertyOp5
 70
     0
102
RTVSPropertyOp6
 70
     0
102
RTVSPropertyOp7
 70
     0
102
RTVSPropertyOp8
 70
     0
102
RTVSPropertyOp9
 70
     0
102
RTVSPropertyOp10
 70
     0
102
RTVSPropertyOp11
 70
     0
102
RTVSPropertyOp12
 70
     0
102
RTVSPropertyOp13
 70
     0
102
RTVSPropertyOp14
 70
     0
102
RTVSPropertyOp15
 70
     0
102
RTVSPropertyOp16
 70
     0
102
RTVSPropertyOp17
 70
     0
102
RTVSPropertyOp18
 70
     0
102
RTVSPropertyOp19
 70
     0
102
RTVSPropertyOp20
 70
     0
102
RTVSPropertyOp21
 70
     0
102
RTVSPropertyOp22
 70
     0
102
RTVSPropertyOp23
 70
     0
102
RTVSPropertyOp24
 70
     0
102
RTVSPropertyOp25
 70
     0
102
RTVSPropertyOp26
 70
     0
102
RTVSPropertyOp27
 70
     0
102
RTVSPropertyOp28
 70
     1
102
RTVSPropertyOp29
 70
     1
102
RTVSPropertyOp30
 70
     1
102
RTVSPropertyOp31
 70
     1
102
RTVSPropertyOp32
 70
     1
102
RTVSPropertyOp33
 70
     1
102
RTVSPropertyOp34
 70
     1
102
RTVSPropertyOp35
 70
     1
102
RTVSPropertyOp36
 70
     1
102
RTVSPropertyOp37
 70
     1
102
RTVSPropertyOp38
 70
     1
102
RTVSPropertyOp39
 70
     1
102
RTVSPropertyOp40
 70
     1
102
RTVSPropertyOp41
 70
     1
102
RTVSPropertyOp42
 70
     1
102
RTVSPropertyOp43
 70
     1
102
RTVSPropertyOp44
 70
     1
102
RTVSPropertyOp45
 70
     1
102
RTVSPropertyOp46
 70
     1
102
RTVSPropertyOp47
 70
     1
102
RTVSPropertyOp48
 70
     1
102
RTVSPropertyOp49
 70
     1
102
RTVSPropertyOp50
 70
     1
102
RTVSPropertyOp51
 70
     0
102
RTVSPropertyOp52
 70
     0
102
RTVSPropertyOp53
 70
     1
102
RTVSPropertyOp54
 70
     1
102
RTVSPropertyOp55
 70
     1
102
RTVSPropertyOp56
 70
     1
102
RTVSPropertyOp57
 70
     1
102
RTVSPost2010Prop28
280
     0
102
RTVSPost2010PropOp28
 70
     1
102
RTVSPost2010Prop29
280
     1
102
RTVSPost2010PropOp29
 70
     1
102
RTVSPost2010Prop30
280
     1
102
RTVSPost2010PropOp30
 70
     1
102
RTVSPost2010Prop31
280
     0
102
RTVSPost2010PropOp31
 70
     1
102
RTVSPost2010Prop32
280
     0
102
RTVSPost2010PropOp32
 70
     1
102
RTVSPost2010Prop33
280
     0
102
RTVSPost2010PropOp33
 70
     1
102
RTVSPost2010Prop34
280
     0
102
RTVSPost2010PropOp34
 70
     1
102
RTVSPost2010Prop35
280
     0
102
RTVSPost2010PropOp35
 70
     1
102
RTVSPost2010Prop36
280
     0
102
RTVSPost2010PropOp36
 70
     1
102
RTVSPost2010Prop37
 90
       50
102
RTVSPost2010PropOp37
 70
     1
102
RTVSPost2010Prop38
140
0.0
102
RTVSPost2010PropOp38
 70
     1
102
RTVSPost2010Prop39
140
1.0
102
RTVSPost2010PropOp39
 70
     1
102
RTVSPost2010Prop40
 90
        0
102
RTVSPost2010PropOp40
 70
     1
102
RTVSPost2010Prop41ColorIndex
 90
       18
102
RTVSPost2010Prop41ColorRGB
 90
        0
102
RTVSPost2010PropOp41
 70
     1
102
RTVSPost2010Prop42
 90
       50
102
RTVSPost2010PropOp42
 70
     1
102
RTVSPost2010Prop43
 90
        3
102
RTVSPost2010PropOp43
 70
     1
102
RTVSPost2010Prop44ColorIndex
 90
        5
102
RTVSPost2010Prop44ColorRGB
 90
      255
102
RTVSPost2010PropOp44
 70
     1
102
RTVSPost2010Prop45
280
     0
102
RTVSPost2010PropOp45
 70
     1
102
RTVSPost2010Prop46
 90
       50
102
RTVSPost2010PropOp46
 70
     1
102
RTVSPost2010Prop47
 90
       50
102
RTVSPost2010PropOp47
 70
     1
102
RTVSPost2010Prop48
 90
       50
102
RTVSPost2010PropOp48
 70
     1
102
RTVSPost2010Prop49
280
     0
102
RTVSPost2010PropOp49
 70
     1
102
RTVSPost2010Prop50
 90
       50
102
RTVSPost2010PropOp50
 70
     1
102
RTVSPost2010Prop51ColorIndex
 90
      256
102
RTVSPost2010Prop51ColorRGB
 90
-16777216
102
RTVSPost2010PropOp51
 70
     0
102
RTVSPost2010Prop52
140
1.0
102
RTVSPost2010PropOp52
 70
     0
102
RTVSPost2010Prop53
 90
        2
102
RTVSPost2010PropOp53
 70
     1
102
RTVSPost2010Prop54
  1
strokes_ogs.tif
102
RTVSPost2010PropOp54
 70
     1
102
RTVSPost2010Prop55
280
     0
102
RTVSPost2010PropOp55
 70
     1
102
RTVSPost2010Prop56
140
1.0
102
RTVSPost2010PropOp56
 70
     1
102
RTVSPost2010Prop57
140
1.0
102
RTVSPost2010PropOp57
 70
     1
  0
XRECORD
  5
5E0
102
{ACAD_REACTORS
330
5DF
102
}
330
5DF
100
AcDbXrecord
280
     1
102
RTVSPropertyOp0
 70
     1
102
RTVSPropertyOp1
 70
     1
102
RTVSPropertyOp2
 70
     1
102
RTVSPropertyOp3
 70
     1
102
RTVSPropertyOp4
 70
     1
102
RTVSPropertyOp5
 70
     1
102
RTVSPropertyOp6
 70
     1
102
RTVSPropertyOp7
 70
     1
102
RTVSPropertyOp8
 70
     1
102
RTVSPropertyOp9
 70
     1
102
RTVSPropertyOp10
 70
     1
102
RTVSPropertyOp11
 70
     1
102
RTVSPropertyOp12
 70
     1
102
RTVSPropertyOp13
 70
     1
102
RTVSPropertyOp14
 70
     1
102
RTVSPropertyOp15
 70
     1
102
RTVSPropertyOp16
 70
     1
102
RTVSPropertyOp17
 70
     1
102
RTVSPropertyOp18
 70
     1
102
RTVSPropertyOp19
 70
     1
102
RTVSPropertyOp20
 70
     1
102
RTVSPropertyOp21
 70
     1
102
RTVSPropertyOp22
 70
     1
102
RTVSPropertyOp23
 70
     1
102
RTVSPropertyOp24
 70
     1
102
RTVSPropertyOp25
 70
     1
102
RTVSPropertyOp26
 70
     1
102
RTVSPropertyOp27
 70
     1
102
RTVSPropertyOp28
 70
     1
102
RTVSPropertyOp29
 70
     1
102
RTVSPropertyOp30
 70
     1
102
RTVSPropertyOp31
 70
     1
102
RTVSPropertyOp32
 70
     1
102
RTVSPropertyOp33
 70
     1
102
RTVSPropertyOp34
 70
     1
102
RTVSPropertyOp35
 70
     1
102
RTVSPropertyOp36
 70
     1
102
RTVSPropertyOp37
 70
     1
102
RTVSPropertyOp38
 70
     1
102
RTVSPropertyOp39
 70
     1
102
RTVSPropertyOp40
 70
     1
102
RTVSPropertyOp41
 70
     1
102
RTVSPropertyOp42
 70
     1
102
RTVSPropertyOp43
 70
     1
102
RTVSPropertyOp44
 70
     1
102
RTVSPropertyOp45
 70
     1
102
RTVSPropertyOp46
 70
     1
102
RTVSPropertyOp47
 70
     1
102
RTVSPropertyOp48
 70
     1
102
RTVSPropertyOp49
 70
     1
102
RTVSPropertyOp50
 70
     1
102
RTVSPropertyOp51
 70
     0
102
RTVSPropertyOp52
 70
     0
102
RTVSPropertyOp53
 70
     1
102
RTVSPropertyOp54
 70
     1
102
RTVSPropertyOp55
 70
     1
102
RTVSPropertyOp56
 70
     1
102
RTVSPropertyOp57
 70
     1
102
RTVSPost2010Prop28
280
     0
102
RTVSPost2010PropOp28
 70
     1
102
RTVSPost2010Prop29
280
     1
102
RTVSPost2010PropOp29
 70
     1
102
RTVSPost2010Prop30
280
     1
102
RTVSPost2010PropOp30
 70
     1
102
RTVSPost2010Prop31
280
     0
102
RTVSPost2010PropOp31
 70
     1
102
RTVSPost2010Prop32
280
     0
102
RTVSPost2010PropOp32
 70
     1
102
RTVSPost2010Prop33
280
     0
102
RTVSPost2010PropOp33
 70
     1
102
RTVSPost2010Prop34
280
     0
102
RTVSPost2010PropOp34
 70
     1
102
RTVSPost2010Prop35
280
     0
102
RTVSPost2010PropOp35
 70
     1
102
RTVSPost2010Prop36
280
     0
102
RTVSPost2010PropOp36
 70
     1
102
RTVSPost2010Prop37
 90
       50
102
RTVSPost2010PropOp37
 70
     1
102
RTVSPost2010Prop38
140
0.0
102
RTVSPost2010PropOp38
 70
     1
102
RTVSPost2010Prop39
140
1.0
102
RTVSPost2010PropOp39
 70
     1
102
RTVSPost2010Prop40
 90
        0
102
RTVSPost2010PropOp40
 70
     1
102
RTVSPost2010Prop41ColorIndex
 90
       18
102
RTVSPost2010Prop41ColorRGB
 90
        0
102
RTVSPost2010PropOp41
 70
     1
102
RTVSPost2010Prop42
 90
       50
102
RTVSPost2010PropOp42
 70
     1
102
RTVSPost2010Prop43
 90
        3
102
RTVSPost2010PropOp43
 70
     1
102
RTVSPost2010Prop44ColorIndex
 90
        5
102
RTVSPost2010Prop44ColorRGB
 90
      255
102
RTVSPost2010PropOp44
 70
     1
102
RTVSPost2010Prop45
280
     0
102
RTVSPost2010PropOp45
 70
     1
102
RTVSPost2010Prop46
 90
       50
102
RTVSPost2010PropOp46
 70
     1
102
RTVSPost2010Prop47
 90
       50
102
RTVSPost2010PropOp47
 70
     1
102
RTVSPost2010Prop48
 90
       50
102
RTVSPost2010PropOp48
 70
     1
102
RTVSPost2010Prop49
280
     0
102
RTVSPost2010PropOp49
 70
     1
102
RTVSPost2010Prop50
 90
       50
102
RTVSPost2010PropOp50
 70
     1
102
RTVSPost2010Prop51ColorIndex
 90
      256
102
RTVSPost2010Prop51ColorRGB
 90
-16777216
102
RTVSPost2010PropOp51
 70
     0
102
RTVSPost2010Prop52
140
1.0
102
RTVSPost2010PropOp52
 70
     0
102
RTVSPost2010Prop53
 90
        2
102
RTVSPost2010PropOp53
 70
     1
102
RTVSPost2010Prop54
  1
strokes_ogs.tif
102
RTVSPost2010PropOp54
 70
     1
102
RTVSPost2010Prop55
280
     0
102
RTVSPost2010PropOp55
 70
     1
102
RTVSPost2010Prop56
140
1.0
102
RTVSPost2010PropOp56
 70
     1
102
RTVSPost2010Prop57
140
1.0
102
RTVSPost2010PropOp57
 70
     1
  0
XRECORD
  5
5FE
102
{ACAD_REACTORS
330
5FD
102
}
330
5FD
100
AcDbXrecord
280
     1
102
RTVSPropertyOp0
 70
     1
102
RTVSPropertyOp1
 70
     1
102
RTVSPropertyOp2
 70
     1
102
RTVSPropertyOp3
 70
     1
102
RTVSPropertyOp4
 70
     1
102
RTVSPropertyOp5
 70
     1
102
RTVSPropertyOp6
 70
     1
102
RTVSPropertyOp7
 70
     1
102
RTVSPropertyOp8
 70
     1
102
RTVSPropertyOp9
 70
     1
102
RTVSPropertyOp10
 70
     1
102
RTVSPropertyOp11
 70
     1
102
RTVSPropertyOp12
 70
     1
102
RTVSPropertyOp13
 70
     1
102
RTVSPropertyOp14
 70
     1
102
RTVSPropertyOp15
 70
     1
102
RTVSPropertyOp16
 70
     1
102
RTVSPropertyOp17
 70
     1
102
RTVSPropertyOp18
 70
     1
102
RTVSPropertyOp19
 70
     1
102
RTVSPropertyOp20
 70
     1
102
RTVSPropertyOp21
 70
     1
102
RTVSPropertyOp22
 70
     1
102
RTVSPropertyOp23
 70
     1
102
RTVSPropertyOp24
 70
     1
102
RTVSPropertyOp25
 70
     1
102
RTVSPropertyOp26
 70
     1
102
RTVSPropertyOp27
 70
     1
102
RTVSPropertyOp28
 70
     1
102
RTVSPropertyOp29
 70
     1
102
RTVSPropertyOp30
 70
     1
102
RTVSPropertyOp31
 70
     1
102
RTVSPropertyOp32
 70
     1
102
RTVSPropertyOp33
 70
     1
102
RTVSPropertyOp34
 70
     1
102
RTVSPropertyOp35
 70
     1
102
RTVSPropertyOp36
 70
     1
102
RTVSPropertyOp37
 70
     1
102
RTVSPropertyOp38
 70
     1
102
RTVSPropertyOp39
 70
     1
102
RTVSPropertyOp40
 70
     1
102
RTVSPropertyOp41
 70
     1
102
RTVSPropertyOp42
 70
     1
102
RTVSPropertyOp43
 70
     1
102
RTVSPropertyOp44
 70
     1
102
RTVSPropertyOp45
 70
     1
102
RTVSPropertyOp46
 70
     1
102
RTVSPropertyOp47
 70
     1
102
RTVSPropertyOp48
 70
     1
102
RTVSPropertyOp49
 70
     1
102
RTVSPropertyOp50
 70
     1
102
RTVSPropertyOp51
 70
     0
102
RTVSPropertyOp52
 70
     0
102
RTVSPropertyOp53
 70
     1
102
RTVSPropertyOp54
 70
     1
102
RTVSPropertyOp55
 70
     1
102
RTVSPropertyOp56
 70
     1
102
RTVSPropertyOp57
 70
     1
102
RTVSPost2010Prop28
280
     0
102
RTVSPost2010PropOp28
 70
     1
102
RTVSPost2010Prop29
280
     1
102
RTVSPost2010PropOp29
 70
     1
102
RTVSPost2010Prop30
280
     1
102
RTVSPost2010PropOp30
 70
     1
102
RTVSPost2010Prop31
280
     0
102
RTVSPost2010PropOp31
 70
     1
102
RTVSPost2010Prop32
280
     0
102
RTVSPost2010PropOp32
 70
     1
102
RTVSPost2010Prop33
280
     0
102
RTVSPost2010PropOp33
 70
     1
102
RTVSPost2010Prop34
280
     0
102
RTVSPost2010PropOp34
 70
     1
102
RTVSPost2010Prop35
280
     0
102
RTVSPost2010PropOp35
 70
     1
102
RTVSPost2010Prop36
280
     0
102
RTVSPost2010PropOp36
 70
     1
102
RTVSPost2010Prop37
 90
       50
102
RTVSPost2010PropOp37
 70
     1
102
RTVSPost2010Prop38
140
0.0
102
RTVSPost2010PropOp38
 70
     1
102
RTVSPost2010Prop39
140
1.0
102
RTVSPost2010PropOp39
 70
     1
102
RTVSPost2010Prop40
 90
        0
102
RTVSPost2010PropOp40
 70
     1
102
RTVSPost2010Prop41ColorIndex
 90
       18
102
RTVSPost2010Prop41ColorRGB
 90
        0
102
RTVSPost2010PropOp41
 70
     1
102
RTVSPost2010Prop42
 90
       50
102
RTVSPost2010PropOp42
 70
     1
102
RTVSPost2010Prop43
 90
        3
102
RTVSPost2010PropOp43
 70
     1
102
RTVSPost2010Prop44ColorIndex
 90
        5
102
RTVSPost2010Prop44ColorRGB
 90
      255
102
RTVSPost2010PropOp44
 70
     1
102
RTVSPost2010Prop45
280
     0
102
RTVSPost2010PropOp45
 70
     1
102
RTVSPost2010Prop46
 90
       50
102
RTVSPost2010PropOp46
 70
     1
102
RTVSPost2010Prop47
 90
       50
102
RTVSPost2010PropOp47
 70
     1
102
RTVSPost2010Prop48
 90
       50
102
RTVSPost2010PropOp48
 70
     1
102
RTVSPost2010Prop49
280
     0
102
RTVSPost2010PropOp49
 70
     1
102
RTVSPost2010Prop50
 90
       50
102
RTVSPost2010PropOp50
 70
     1
102
RTVSPost2010Prop51ColorIndex
 90
      256
102
RTVSPost2010Prop51ColorRGB
 90
-16777216
102
RTVSPost2010PropOp51
 70
     0
102
RTVSPost2010Prop52
140
1.0
102
RTVSPost2010PropOp52
 70
     0
102
RTVSPost2010Prop53
 90
        2
102
RTVSPost2010PropOp53
 70
     1
102
RTVSPost2010Prop54
  1
strokes_ogs.tif
102
RTVSPost2010PropOp54
 70
     1
102
RTVSPost2010Prop55
280
     0
102
RTVSPost2010PropOp55
 70
     1
102
RTVSPost2010Prop56
140
1.0
102
RTVSPost2010PropOp56
 70
     1
102
RTVSPost2010Prop57
140
1.0
102
RTVSPost2010PropOp57
 70
     1
  0
XRECORD
  5
5FC
102
{ACAD_REACTORS
330
5FB
102
}
330
5FB
100
AcDbXrecord
280
     1
102
RTVSPropertyOp0
 70
     1
102
RTVSPropertyOp1
 70
     1
102
RTVSPropertyOp2
 70
     1
102
RTVSPropertyOp3
 70
     1
102
RTVSPropertyOp4
 70
     1
102
RTVSPropertyOp5
 70
     1
102
RTVSPropertyOp6
 70
     1
102
RTVSPropertyOp7
 70
     1
102
RTVSPropertyOp8
 70
     1
102
RTVSPropertyOp9
 70
     1
102
RTVSPropertyOp10
 70
     1
102
RTVSPropertyOp11
 70
     1
102
RTVSPropertyOp12
 70
     1
102
RTVSPropertyOp13
 70
     1
102
RTVSPropertyOp14
 70
     1
102
RTVSPropertyOp15
 70
     1
102
RTVSPropertyOp16
 70
     1
102
RTVSPropertyOp17
 70
     1
102
RTVSPropertyOp18
 70
     1
102
RTVSPropertyOp19
 70
     1
102
RTVSPropertyOp20
 70
     1
102
RTVSPropertyOp21
 70
     1
102
RTVSPropertyOp22
 70
     1
102
RTVSPropertyOp23
 70
     1
102
RTVSPropertyOp24
 70
     1
102
RTVSPropertyOp25
 70
     1
102
RTVSPropertyOp26
 70
     1
102
RTVSPropertyOp27
 70
     1
102
RTVSPropertyOp28
 70
     1
102
RTVSPropertyOp29
 70
     1
102
RTVSPropertyOp30
 70
     1
102
RTVSPropertyOp31
 70
     1
102
RTVSPropertyOp32
 70
     1
102
RTVSPropertyOp33
 70
     1
102
RTVSPropertyOp34
 70
     1
102
RTVSPropertyOp35
 70
     1
102
RTVSPropertyOp36
 70
     1
102
RTVSPropertyOp37
 70
     1
102
RTVSPropertyOp38
 70
     1
102
RTVSPropertyOp39
 70
     1
102
RTVSPropertyOp40
 70
     1
102
RTVSPropertyOp41
 70
     1
102
RTVSPropertyOp42
 70
     1
102
RTVSPropertyOp43
 70
     1
102
RTVSPropertyOp44
 70
     1
102
RTVSPropertyOp45
 70
     1
102
RTVSPropertyOp46
 70
     1
102
RTVSPropertyOp47
 70
     1
102
RTVSPropertyOp48
 70
     1
102
RTVSPropertyOp49
 70
     1
102
RTVSPropertyOp50
 70
     1
102
RTVSPropertyOp51
 70
     0
102
RTVSPropertyOp52
 70
     0
102
RTVSPropertyOp53
 70
     1
102
RTVSPropertyOp54
 70
     1
102
RTVSPropertyOp55
 70
     1
102
RTVSPropertyOp56
 70
     1
102
RTVSPropertyOp57
 70
     1
102
RTVSPost2010Prop28
280
     0
102
RTVSPost2010PropOp28
 70
     1
102
RTVSPost2010Prop29
280
     1
102
RTVSPost2010PropOp29
 70
     1
102
RTVSPost2010Prop30
280
     1
102
RTVSPost2010PropOp30
 70
     1
102
RTVSPost2010Prop31
280
     0
102
RTVSPost2010PropOp31
 70
     1
102
RTVSPost2010Prop32
280
     0
102
RTVSPost2010PropOp32
 70
     1
102
RTVSPost2010Prop33
280
     0
102
RTVSPost2010PropOp33
 70
     1
102
RTVSPost2010Prop34
280
     0
102
RTVSPost2010PropOp34
 70
     1
102
RTVSPost2010Prop35
280
     0
102
RTVSPost2010PropOp35
 70
     1
102
RTVSPost2010Prop36
280
     0
102
RTVSPost2010PropOp36
 70
     1
102
RTVSPost2010Prop37
 90
       50
102
RTVSPost2010PropOp37
 70
     1
102
RTVSPost2010Prop38
140
0.0
102
RTVSPost2010PropOp38
 70
     1
102
RTVSPost2010Prop39
140
1.0
102
RTVSPost2010PropOp39
 70
     1
102
RTVSPost2010Prop40
 90
        0
102
RTVSPost2010PropOp40
 70
     1
102
RTVSPost2010Prop41ColorIndex
 90
       18
102
RTVSPost2010Prop41ColorRGB
 90
        0
102
RTVSPost2010PropOp41
 70
     1
102
RTVSPost2010Prop42
 90
       50
102
RTVSPost2010PropOp42
 70
     1
102
RTVSPost2010Prop43
 90
        3
102
RTVSPost2010PropOp43
 70
     1
102
RTVSPost2010Prop44ColorIndex
 90
        5
102
RTVSPost2010Prop44ColorRGB
 90
      255
102
RTVSPost2010PropOp44
 70
     1
102
RTVSPost2010Prop45
280
     0
102
RTVSPost2010PropOp45
 70
     1
102
RTVSPost2010Prop46
 90
       50
102
RTVSPost2010PropOp46
 70
     1
102
RTVSPost2010Prop47
 90
       50
102
RTVSPost2010PropOp47
 70
     1
102
RTVSPost2010Prop48
 90
       50
102
RTVSPost2010PropOp48
 70
     1
102
RTVSPost2010Prop49
280
     0
102
RTVSPost2010PropOp49
 70
     1
102
RTVSPost2010Prop50
 90
       50
102
RTVSPost2010PropOp50
 70
     1
102
RTVSPost2010Prop51ColorIndex
 90
      256
102
RTVSPost2010Prop51ColorRGB
 90
-16777216
102
RTVSPost2010PropOp51
 70
     0
102
RTVSPost2010Prop52
140
1.0
102
RTVSPost2010PropOp52
 70
     0
102
RTVSPost2010Prop53
 90
        2
102
RTVSPost2010PropOp53
 70
     1
102
RTVSPost2010Prop54
  1
strokes_ogs.tif
102
RTVSPost2010PropOp54
 70
     1
102
RTVSPost2010Prop55
280
     0
102
RTVSPost2010PropOp55
 70
     1
102
RTVSPost2010Prop56
140
1.0
102
RTVSPost2010PropOp56
 70
     1
102
RTVSPost2010Prop57
140
1.0
102
RTVSPost2010PropOp57
 70
     1
  0
XRECORD
  5
5F6
102
{ACAD_REACTORS
330
5F5
102
}
330
5F5
100
AcDbXrecord
280
     1
102
RTVSPropertyOp0
 70
     1
102
RTVSPropertyOp1
 70
     1
102
RTVSPropertyOp2
 70
     1
102
RTVSPropertyOp3
 70
     1
102
RTVSPropertyOp4
 70
     1
102
RTVSPropertyOp5
 70
     1
102
RTVSPropertyOp6
 70
     1
102
RTVSPropertyOp7
 70
     1
102
RTVSPropertyOp8
 70
     1
102
RTVSPropertyOp9
 70
     1
102
RTVSPropertyOp10
 70
     1
102
RTVSPropertyOp11
 70
     1
102
RTVSPropertyOp12
 70
     1
102
RTVSPropertyOp13
 70
     1
102
RTVSPropertyOp14
 70
     1
102
RTVSPropertyOp15
 70
     1
102
RTVSPropertyOp16
 70
     1
102
RTVSPropertyOp17
 70
     1
102
RTVSPropertyOp18
 70
     1
102
RTVSPropertyOp19
 70
     1
102
RTVSPropertyOp20
 70
     1
102
RTVSPropertyOp21
 70
     1
102
RTVSPropertyOp22
 70
     1
102
RTVSPropertyOp23
 70
     1
102
RTVSPropertyOp24
 70
     1
102
RTVSPropertyOp25
 70
     1
102
RTVSPropertyOp26
 70
     1
102
RTVSPropertyOp27
 70
     1
102
RTVSPropertyOp28
 70
     1
102
RTVSPropertyOp29
 70
     1
102
RTVSPropertyOp30
 70
     1
102
RTVSPropertyOp31
 70
     1
102
RTVSPropertyOp32
 70
     1
102
RTVSPropertyOp33
 70
     1
102
RTVSPropertyOp34
 70
     1
102
RTVSPropertyOp35
 70
     1
102
RTVSPropertyOp36
 70
     1
102
RTVSPropertyOp37
 70
     1
102
RTVSPropertyOp38
 70
     1
102
RTVSPropertyOp39
 70
     1
102
RTVSPropertyOp40
 70
     1
102
RTVSPropertyOp41
 70
     1
102
RTVSPropertyOp42
 70
     1
102
RTVSPropertyOp43
 70
     1
102
RTVSPropertyOp44
 70
     1
102
RTVSPropertyOp45
 70
     1
102
RTVSPropertyOp46
 70
     1
102
RTVSPropertyOp47
 70
     1
102
RTVSPropertyOp48
 70
     1
102
RTVSPropertyOp49
 70
     1
102
RTVSPropertyOp50
 70
     1
102
RTVSPropertyOp51
 70
     0
102
RTVSPropertyOp52
 70
     0
102
RTVSPropertyOp53
 70
     1
102
RTVSPropertyOp54
 70
     1
102
RTVSPropertyOp55
 70
     1
102
RTVSPropertyOp56
 70
     1
102
RTVSPropertyOp57
 70
     1
102
RTVSPost2010Prop28
280
     0
102
RTVSPost2010PropOp28
 70
     1
102
RTVSPost2010Prop29
280
     1
102
RTVSPost2010PropOp29
 70
     1
102
RTVSPost2010Prop30
280
     1
102
RTVSPost2010PropOp30
 70
     1
102
RTVSPost2010Prop31
280
     0
102
RTVSPost2010PropOp31
 70
     1
102
RTVSPost2010Prop32
280
     0
102
RTVSPost2010PropOp32
 70
     1
102
RTVSPost2010Prop33
280
     0
102
RTVSPost2010PropOp33
 70
     1
102
RTVSPost2010Prop34
280
     0
102
RTVSPost2010PropOp34
 70
     1
102
RTVSPost2010Prop35
280
     0
102
RTVSPost2010PropOp35
 70
     1
102
RTVSPost2010Prop36
280
     0
102
RTVSPost2010PropOp36
 70
     1
102
RTVSPost2010Prop37
 90
       50
102
RTVSPost2010PropOp37
 70
     1
102
RTVSPost2010Prop38
140
0.0
102
RTVSPost2010PropOp38
 70
     1
102
RTVSPost2010Prop39
140
1.0
102
RTVSPost2010PropOp39
 70
     1
102
RTVSPost2010Prop40
 90
        0
102
RTVSPost2010PropOp40
 70
     1
102
RTVSPost2010Prop41ColorIndex
 90
       18
102
RTVSPost2010Prop41ColorRGB
 90
        0
102
RTVSPost2010PropOp41
 70
     1
102
RTVSPost2010Prop42
 90
       50
102
RTVSPost2010PropOp42
 70
     1
102
RTVSPost2010Prop43
 90
        3
102
RTVSPost2010PropOp43
 70
     1
102
RTVSPost2010Prop44ColorIndex
 90
        5
102
RTVSPost2010Prop44ColorRGB
 90
      255
102
RTVSPost2010PropOp44
 70
     1
102
RTVSPost2010Prop45
280
     0
102
RTVSPost2010PropOp45
 70
     1
102
RTVSPost2010Prop46
 90
       50
102
RTVSPost2010PropOp46
 70
     1
102
RTVSPost2010Prop47
 90
       50
102
RTVSPost2010PropOp47
 70
     1
102
RTVSPost2010Prop48
 90
       50
102
RTVSPost2010PropOp48
 70
     1
102
RTVSPost2010Prop49
280
     0
102
RTVSPost2010PropOp49
 70
     1
102
RTVSPost2010Prop50
 90
       50
102
RTVSPost2010PropOp50
 70
     1
102
RTVSPost2010Prop51ColorIndex
 90
      256
102
RTVSPost2010Prop51ColorRGB
 90
-16777216
102
RTVSPost2010PropOp51
 70
     0
102
RTVSPost2010Prop52
140
1.0
102
RTVSPost2010PropOp52
 70
     0
102
RTVSPost2010Prop53
 90
        2
102
RTVSPost2010PropOp53
 70
     1
102
RTVSPost2010Prop54
  1
strokes_ogs.tif
102
RTVSPost2010PropOp54
 70
     1
102
RTVSPost2010Prop55
280
     0
102
RTVSPost2010PropOp55
 70
     1
102
RTVSPost2010Prop56
140
1.0
102
RTVSPost2010PropOp56
 70
     1
102
RTVSPost2010Prop57
140
1.0
102
RTVSPost2010PropOp57
 70
     1
  0
XRECORD
  5
5F8
102
{ACAD_REACTORS
330
5F7
102
}
330
5F7
100
AcDbXrecord
280
     1
102
RTVSPropertyOp0
 70
     1
102
RTVSPropertyOp1
 70
     1
102
RTVSPropertyOp2
 70
     1
102
RTVSPropertyOp3
 70
     1
102
RTVSPropertyOp4
 70
     1
102
RTVSPropertyOp5
 70
     1
102
RTVSPropertyOp6
 70
     1
102
RTVSPropertyOp7
 70
     1
102
RTVSPropertyOp8
 70
     1
102
RTVSPropertyOp9
 70
     1
102
RTVSPropertyOp10
 70
     1
102
RTVSPropertyOp11
 70
     1
102
RTVSPropertyOp12
 70
     1
102
RTVSPropertyOp13
 70
     1
102
RTVSPropertyOp14
 70
     1
102
RTVSPropertyOp15
 70
     1
102
RTVSPropertyOp16
 70
     1
102
RTVSPropertyOp17
 70
     1
102
RTVSPropertyOp18
 70
     1
102
RTVSPropertyOp19
 70
     1
102
RTVSPropertyOp20
 70
     1
102
RTVSPropertyOp21
 70
     1
102
RTVSPropertyOp22
 70
     1
102
RTVSPropertyOp23
 70
     1
102
RTVSPropertyOp24
 70
     1
102
RTVSPropertyOp25
 70
     1
102
RTVSPropertyOp26
 70
     1
102
RTVSPropertyOp27
 70
     1
102
RTVSPropertyOp28
 70
     1
102
RTVSPropertyOp29
 70
     1
102
RTVSPropertyOp30
 70
     1
102
RTVSPropertyOp31
 70
     1
102
RTVSPropertyOp32
 70
     1
102
RTVSPropertyOp33
 70
     1
102
RTVSPropertyOp34
 70
     1
102
RTVSPropertyOp35
 70
     1
102
RTVSPropertyOp36
 70
     1
102
RTVSPropertyOp37
 70
     1
102
RTVSPropertyOp38
 70
     1
102
RTVSPropertyOp39
 70
     1
102
RTVSPropertyOp40
 70
     1
102
RTVSPropertyOp41
 70
     1
102
RTVSPropertyOp42
 70
     1
102
RTVSPropertyOp43
 70
     1
102
RTVSPropertyOp44
 70
     1
102
RTVSPropertyOp45
 70
     1
102
RTVSPropertyOp46
 70
     1
102
RTVSPropertyOp47
 70
     1
102
RTVSPropertyOp48
 70
     1
102
RTVSPropertyOp49
 70
     1
102
RTVSPropertyOp50
 70
     1
102
RTVSPropertyOp51
 70
     0
102
RTVSPropertyOp52
 70
     0
102
RTVSPropertyOp53
 70
     1
102
RTVSPropertyOp54
 70
     1
102
RTVSPropertyOp55
 70
     1
102
RTVSPropertyOp56
 70
     1
102
RTVSPropertyOp57
 70
     1
102
RTVSPost2010Prop28
280
     0
102
RTVSPost2010PropOp28
 70
     1
102
RTVSPost2010Prop29
280
     1
102
RTVSPost2010PropOp29
 70
     1
102
RTVSPost2010Prop30
280
     1
102
RTVSPost2010PropOp30
 70
     1
102
RTVSPost2010Prop31
280
     0
102
RTVSPost2010PropOp31
 70
     1
102
RTVSPost2010Prop32
280
     0
102
RTVSPost2010PropOp32
 70
     1
102
RTVSPost2010Prop33
280
     0
102
RTVSPost2010PropOp33
 70
     1
102
RTVSPost2010Prop34
280
     0
102
RTVSPost2010PropOp34
 70
     1
102
RTVSPost2010Prop35
280
     0
102
RTVSPost2010PropOp35
 70
     1
102
RTVSPost2010Prop36
280
     0
102
RTVSPost2010PropOp36
 70
     1
102
RTVSPost2010Prop37
 90
       50
102
RTVSPost2010PropOp37
 70
     1
102
RTVSPost2010Prop38
140
0.0
102
RTVSPost2010PropOp38
 70
     1
102
RTVSPost2010Prop39
140
1.0
102
RTVSPost2010PropOp39
 70
     1
102
RTVSPost2010Prop40
 90
        0
102
RTVSPost2010PropOp40
 70
     1
102
RTVSPost2010Prop41ColorIndex
 90
       18
102
RTVSPost2010Prop41ColorRGB
 90
        0
102
RTVSPost2010PropOp41
 70
     1
102
RTVSPost2010Prop42
 90
       50
102
RTVSPost2010PropOp42
 70
     1
102
RTVSPost2010Prop43
 90
        3
102
RTVSPost2010PropOp43
 70
     1
102
RTVSPost2010Prop44ColorIndex
 90
        5
102
RTVSPost2010Prop44ColorRGB
 90
      255
102
RTVSPost2010PropOp44
 70
     1
102
RTVSPost2010Prop45
280
     0
102
RTVSPost2010PropOp45
 70
     1
102
RTVSPost2010Prop46
 90
       50
102
RTVSPost2010PropOp46
 70
     1
102
RTVSPost2010Prop47
 90
       50
102
RTVSPost2010PropOp47
 70
     1
102
RTVSPost2010Prop48
 90
       50
102
RTVSPost2010PropOp48
 70
     1
102
RTVSPost2010Prop49
280
     0
102
RTVSPost2010PropOp49
 70
     1
102
RTVSPost2010Prop50
 90
       50
102
RTVSPost2010PropOp50
 70
     1
102
RTVSPost2010Prop51ColorIndex
 90
      256
102
RTVSPost2010Prop51ColorRGB
 90
-16777216
102
RTVSPost2010PropOp51
 70
     0
102
RTVSPost2010Prop52
140
1.0
102
RTVSPost2010PropOp52
 70
     0
102
RTVSPost2010Prop53
 90
        2
102
RTVSPost2010PropOp53
 70
     1
102
RTVSPost2010Prop54
  1
strokes_ogs.tif
102
RTVSPost2010PropOp54
 70
     1
102
RTVSPost2010Prop55
280
     0
102
RTVSPost2010PropOp55
 70
     1
102
RTVSPost2010Prop56
140
1.0
102
RTVSPost2010PropOp56
 70
     1
102
RTVSPost2010Prop57
140
1.0
102
RTVSPost2010PropOp57
 70
     1
  0
XRECORD
  5
5E8
102
{ACAD_REACTORS
330
5E7
102
}
330
5E7
100
AcDbXrecord
280
     1
102
RTVSPropertyOp0
 70
     1
102
RTVSPropertyOp1
 70
     1
102
RTVSPropertyOp2
 70
     1
102
RTVSPropertyOp3
 70
     1
102
RTVSPropertyOp4
 70
     1
102
RTVSPropertyOp5
 70
     1
102
RTVSPropertyOp6
 70
     1
102
RTVSPropertyOp7
 70
     1
102
RTVSPropertyOp8
 70
     1
102
RTVSPropertyOp9
 70
     1
102
RTVSPropertyOp10
 70
     1
102
RTVSPropertyOp11
 70
     1
102
RTVSPropertyOp12
 70
     1
102
RTVSPropertyOp13
 70
     1
102
RTVSPropertyOp14
 70
     1
102
RTVSPropertyOp15
 70
     1
102
RTVSPropertyOp16
 70
     1
102
RTVSPropertyOp17
 70
     1
102
RTVSPropertyOp18
 70
     1
102
RTVSPropertyOp19
 70
     1
102
RTVSPropertyOp20
 70
     1
102
RTVSPropertyOp21
 70
     1
102
RTVSPropertyOp22
 70
     1
102
RTVSPropertyOp23
 70
     1
102
RTVSPropertyOp24
 70
     1
102
RTVSPropertyOp25
 70
     1
102
RTVSPropertyOp26
 70
     1
102
RTVSPropertyOp27
 70
     1
102
RTVSPropertyOp28
 70
     1
102
RTVSPropertyOp29
 70
     1
102
RTVSPropertyOp30
 70
     1
102
RTVSPropertyOp31
 70
     1
102
RTVSPropertyOp32
 70
     1
102
RTVSPropertyOp33
 70
     1
102
RTVSPropertyOp34
 70
     1
102
RTVSPropertyOp35
 70
     1
102
RTVSPropertyOp36
 70
     1
102
RTVSPropertyOp37
 70
     1
102
RTVSPropertyOp38
 70
     1
102
RTVSPropertyOp39
 70
     1
102
RTVSPropertyOp40
 70
     1
102
RTVSPropertyOp41
 70
     1
102
RTVSPropertyOp42
 70
     1
102
RTVSPropertyOp43
 70
     1
102
RTVSPropertyOp44
 70
     1
102
RTVSPropertyOp45
 70
     1
102
RTVSPropertyOp46
 70
     1
102
RTVSPropertyOp47
 70
     1
102
RTVSPropertyOp48
 70
     1
102
RTVSPropertyOp49
 70
     1
102
RTVSPropertyOp50
 70
     1
102
RTVSPropertyOp51
 70
     0
102
RTVSPropertyOp52
 70
     0
102
RTVSPropertyOp53
 70
     1
102
RTVSPropertyOp54
 70
     1
102
RTVSPropertyOp55
 70
     1
102
RTVSPropertyOp56
 70
     1
102
RTVSPropertyOp57
 70
     1
102
RTVSPost2010Prop28
280
     0
102
RTVSPost2010PropOp28
 70
     1
102
RTVSPost2010Prop29
280
     1
102
RTVSPost2010PropOp29
 70
     1
102
RTVSPost2010Prop30
280
     1
102
RTVSPost2010PropOp30
 70
     1
102
RTVSPost2010Prop31
280
     0
102
RTVSPost2010PropOp31
 70
     1
102
RTVSPost2010Prop32
280
     0
102
RTVSPost2010PropOp32
 70
     1
102
RTVSPost2010Prop33
280
     0
102
RTVSPost2010PropOp33
 70
     1
102
RTVSPost2010Prop34
280
     0
102
RTVSPost2010PropOp34
 70
     1
102
RTVSPost2010Prop35
280
     0
102
RTVSPost2010PropOp35
 70
     1
102
RTVSPost2010Prop36
280
     0
102
RTVSPost2010PropOp36
 70
     1
102
RTVSPost2010Prop37
 90
       50
102
RTVSPost2010PropOp37
 70
     1
102
RTVSPost2010Prop38
140
0.0
102
RTVSPost2010PropOp38
 70
     1
102
RTVSPost2010Prop39
140
1.0
102
RTVSPost2010PropOp39
 70
     1
102
RTVSPost2010Prop40
 90
        0
102
RTVSPost2010PropOp40
 70
     1
102
RTVSPost2010Prop41ColorIndex
 90
       18
102
RTVSPost2010Prop41ColorRGB
 90
        0
102
RTVSPost2010PropOp41
 70
     1
102
RTVSPost2010Prop42
 90
       50
102
RTVSPost2010PropOp42
 70
     1
102
RTVSPost2010Prop43
 90
        3
102
RTVSPost2010PropOp43
 70
     1
102
RTVSPost2010Prop44ColorIndex
 90
        5
102
RTVSPost2010Prop44ColorRGB
 90
      255
102
RTVSPost2010PropOp44
 70
     1
102
RTVSPost2010Prop45
280
     0
102
RTVSPost2010PropOp45
 70
     1
102
RTVSPost2010Prop46
 90
       50
102
RTVSPost2010PropOp46
 70
     1
102
RTVSPost2010Prop47
 90
       50
102
RTVSPost2010PropOp47
 70
     1
102
RTVSPost2010Prop48
 90
       50
102
RTVSPost2010PropOp48
 70
     1
102
RTVSPost2010Prop49
280
     0
102
RTVSPost2010PropOp49
 70
     1
102
RTVSPost2010Prop50
 90
       50
102
RTVSPost2010PropOp50
 70
     1
102
RTVSPost2010Prop51ColorIndex
 90
      256
102
RTVSPost2010Prop51ColorRGB
 90
-16777216
102
RTVSPost2010PropOp51
 70
     0
102
RTVSPost2010Prop52
140
1.0
102
RTVSPost2010PropOp52
 70
     0
102
RTVSPost2010Prop53
 90
        2
102
RTVSPost2010PropOp53
 70
     1
102
RTVSPost2010Prop54
  1
strokes_ogs.tif
102
RTVSPost2010PropOp54
 70
     1
102
RTVSPost2010Prop55
280
     0
102
RTVSPost2010PropOp55
 70
     1
102
RTVSPost2010Prop56
140
1.0
102
RTVSPost2010PropOp56
 70
     1
102
RTVSPost2010Prop57
140
1.0
102
RTVSPost2010PropOp57
 70
     1
  0
XRECORD
  5
5DA
102
{ACAD_REACTORS
330
5D9
102
}
330
5D9
100
AcDbXrecord
280
     1
102
RTVSPropertyOp0
 70
     1
102
RTVSPropertyOp1
 70
     1
102
RTVSPropertyOp2
 70
     1
102
RTVSPropertyOp3
 70
     1
102
RTVSPropertyOp4
 70
     1
102
RTVSPropertyOp5
 70
     1
102
RTVSPropertyOp6
 70
     1
102
RTVSPropertyOp7
 70
     1
102
RTVSPropertyOp8
 70
     1
102
RTVSPropertyOp9
 70
     1
102
RTVSPropertyOp10
 70
     1
102
RTVSPropertyOp11
 70
     1
102
RTVSPropertyOp12
 70
     1
102
RTVSPropertyOp13
 70
     1
102
RTVSPropertyOp14
 70
     1
102
RTVSPropertyOp15
 70
     1
102
RTVSPropertyOp16
 70
     1
102
RTVSPropertyOp17
 70
     1
102
RTVSPropertyOp18
 70
     1
102
RTVSPropertyOp19
 70
     1
102
RTVSPropertyOp20
 70
     1
102
RTVSPropertyOp21
 70
     1
102
RTVSPropertyOp22
 70
     1
102
RTVSPropertyOp23
 70
     1
102
RTVSPropertyOp24
 70
     1
102
RTVSPropertyOp25
 70
     1
102
RTVSPropertyOp26
 70
     1
102
RTVSPropertyOp27
 70
     1
102
RTVSPropertyOp28
 70
     1
102
RTVSPropertyOp29
 70
     1
102
RTVSPropertyOp30
 70
     1
102
RTVSPropertyOp31
 70
     1
102
RTVSPropertyOp32
 70
     1
102
RTVSPropertyOp33
 70
     1
102
RTVSPropertyOp34
 70
     1
102
RTVSPropertyOp35
 70
     1
102
RTVSPropertyOp36
 70
     1
102
RTVSPropertyOp37
 70
     1
102
RTVSPropertyOp38
 70
     1
102
RTVSPropertyOp39
 70
     1
102
RTVSPropertyOp40
 70
     1
102
RTVSPropertyOp41
 70
     1
102
RTVSPropertyOp42
 70
     1
102
RTVSPropertyOp43
 70
     1
102
RTVSPropertyOp44
 70
     1
102
RTVSPropertyOp45
 70
     1
102
RTVSPropertyOp46
 70
     1
102
RTVSPropertyOp47
 70
     1
102
RTVSPropertyOp48
 70
     1
102
RTVSPropertyOp49
 70
     1
102
RTVSPropertyOp50
 70
     1
102
RTVSPropertyOp51
 70
     0
102
RTVSPropertyOp52
 70
     0
102
RTVSPropertyOp53
 70
     1
102
RTVSPropertyOp54
 70
     1
102
RTVSPropertyOp55
 70
     1
102
RTVSPropertyOp56
 70
     1
102
RTVSPropertyOp57
 70
     1
102
RTVSPost2010Prop28
280
     0
102
RTVSPost2010PropOp28
 70
     1
102
RTVSPost2010Prop29
280
     1
102
RTVSPost2010PropOp29
 70
     1
102
RTVSPost2010Prop30
280
     1
102
RTVSPost2010PropOp30
 70
     1
102
RTVSPost2010Prop31
280
     0
102
RTVSPost2010PropOp31
 70
     1
102
RTVSPost2010Prop32
280
     0
102
RTVSPost2010PropOp32
 70
     1
102
RTVSPost2010Prop33
280
     0
102
RTVSPost2010PropOp33
 70
     1
102
RTVSPost2010Prop34
280
     0
102
RTVSPost2010PropOp34
 70
     1
102
RTVSPost2010Prop35
280
     0
102
RTVSPost2010PropOp35
 70
     1
102
RTVSPost2010Prop36
280
     0
102
RTVSPost2010PropOp36
 70
     1
102
RTVSPost2010Prop37
 90
       50
102
RTVSPost2010PropOp37
 70
     1
102
RTVSPost2010Prop38
140
0.0
102
RTVSPost2010PropOp38
 70
     1
102
RTVSPost2010Prop39
140
1.0
102
RTVSPost2010PropOp39
 70
     1
102
RTVSPost2010Prop40
 90
        0
102
RTVSPost2010PropOp40
 70
     1
102
RTVSPost2010Prop41ColorIndex
 90
       18
102
RTVSPost2010Prop41ColorRGB
 90
        0
102
RTVSPost2010PropOp41
 70
     1
102
RTVSPost2010Prop42
 90
       50
102
RTVSPost2010PropOp42
 70
     1
102
RTVSPost2010Prop43
 90
        3
102
RTVSPost2010PropOp43
 70
     1
102
RTVSPost2010Prop44ColorIndex
 90
        5
102
RTVSPost2010Prop44ColorRGB
 90
      255
102
RTVSPost2010PropOp44
 70
     1
102
RTVSPost2010Prop45
280
     0
102
RTVSPost2010PropOp45
 70
     1
102
RTVSPost2010Prop46
 90
       50
102
RTVSPost2010PropOp46
 70
     1
102
RTVSPost2010Prop47
 90
       50
102
RTVSPost2010PropOp47
 70
     1
102
RTVSPost2010Prop48
 90
       50
102
RTVSPost2010PropOp48
 70
     1
102
RTVSPost2010Prop49
280
     0
102
RTVSPost2010PropOp49
 70
     1
102
RTVSPost2010Prop50
 90
       50
102
RTVSPost2010PropOp50
 70
     1
102
RTVSPost2010Prop51ColorIndex
 90
      256
102
RTVSPost2010Prop51ColorRGB
 90
-16777216
102
RTVSPost2010PropOp51
 70
     0
102
RTVSPost2010Prop52
140
1.0
102
RTVSPost2010PropOp52
 70
     0
102
RTVSPost2010Prop53
 90
        2
102
RTVSPost2010PropOp53
 70
     1
102
RTVSPost2010Prop54
  1
strokes_ogs.tif
102
RTVSPost2010PropOp54
 70
     1
102
RTVSPost2010Prop55
280
     0
102
RTVSPost2010PropOp55
 70
     1
102
RTVSPost2010Prop56
140
1.0
102
RTVSPost2010PropOp56
 70
     1
102
RTVSPost2010Prop57
140
1.0
102
RTVSPost2010PropOp57
 70
     1
  0
XRECORD
  5
5FA
102
{ACAD_REACTORS
330
5F9
102
}
330
5F9
100
AcDbXrecord
280
     1
102
RTVSPropertyOp0
 70
     1
102
RTVSPropertyOp1
 70
     1
102
RTVSPropertyOp2
 70
     1
102
RTVSPropertyOp3
 70
     1
102
RTVSPropertyOp4
 70
     1
102
RTVSPropertyOp5
 70
     1
102
RTVSPropertyOp6
 70
     1
102
RTVSPropertyOp7
 70
     1
102
RTVSPropertyOp8
 70
     1
102
RTVSPropertyOp9
 70
     1
102
RTVSPropertyOp10
 70
     1
102
RTVSPropertyOp11
 70
     1
102
RTVSPropertyOp12
 70
     1
102
RTVSPropertyOp13
 70
     1
102
RTVSPropertyOp14
 70
     1
102
RTVSPropertyOp15
 70
     1
102
RTVSPropertyOp16
 70
     1
102
RTVSPropertyOp17
 70
     1
102
RTVSPropertyOp18
 70
     1
102
RTVSPropertyOp19
 70
     1
102
RTVSPropertyOp20
 70
     1
102
RTVSPropertyOp21
 70
     1
102
RTVSPropertyOp22
 70
     1
102
RTVSPropertyOp23
 70
     1
102
RTVSPropertyOp24
 70
     1
102
RTVSPropertyOp25
 70
     1
102
RTVSPropertyOp26
 70
     1
102
RTVSPropertyOp27
 70
     1
102
RTVSPropertyOp28
 70
     1
102
RTVSPropertyOp29
 70
     1
102
RTVSPropertyOp30
 70
     1
102
RTVSPropertyOp31
 70
     1
102
RTVSPropertyOp32
 70
     1
102
RTVSPropertyOp33
 70
     1
102
RTVSPropertyOp34
 70
     1
102
RTVSPropertyOp35
 70
     1
102
RTVSPropertyOp36
 70
     1
102
RTVSPropertyOp37
 70
     1
102
RTVSPropertyOp38
 70
     1
102
RTVSPropertyOp39
 70
     1
102
RTVSPropertyOp40
 70
     1
102
RTVSPropertyOp41
 70
     1
102
RTVSPropertyOp42
 70
     1
102
RTVSPropertyOp43
 70
     1
102
RTVSPropertyOp44
 70
     1
102
RTVSPropertyOp45
 70
     1
102
RTVSPropertyOp46
 70
     1
102
RTVSPropertyOp47
 70
     1
102
RTVSPropertyOp48
 70
     1
102
RTVSPropertyOp49
 70
     1
102
RTVSPropertyOp50
 70
     1
102
RTVSPropertyOp51
 70
     0
102
RTVSPropertyOp52
 70
     0
102
RTVSPropertyOp53
 70
     1
102
RTVSPropertyOp54
 70
     1
102
RTVSPropertyOp55
 70
     1
102
RTVSPropertyOp56
 70
     1
102
RTVSPropertyOp57
 70
     1
102
RTVSPost2010Prop28
280
     0
102
RTVSPost2010PropOp28
 70
     1
102
RTVSPost2010Prop29
280
     1
102
RTVSPost2010PropOp29
 70
     1
102
RTVSPost2010Prop30
280
     1
102
RTVSPost2010PropOp30
 70
     1
102
RTVSPost2010Prop31
280
     0
102
RTVSPost2010PropOp31
 70
     1
102
RTVSPost2010Prop32
280
     0
102
RTVSPost2010PropOp32
 70
     1
102
RTVSPost2010Prop33
280
     0
102
RTVSPost2010PropOp33
 70
     1
102
RTVSPost2010Prop34
280
     0
102
RTVSPost2010PropOp34
 70
     1
102
RTVSPost2010Prop35
280
     0
102
RTVSPost2010PropOp35
 70
     1
102
RTVSPost2010Prop36
280
     0
102
RTVSPost2010PropOp36
 70
     1
102
RTVSPost2010Prop37
 90
       50
102
RTVSPost2010PropOp37
 70
     1
102
RTVSPost2010Prop38
140
0.0
102
RTVSPost2010PropOp38
 70
     1
102
RTVSPost2010Prop39
140
1.0
102
RTVSPost2010PropOp39
 70
     1
102
RTVSPost2010Prop40
 90
        0
102
RTVSPost2010PropOp40
 70
     1
102
RTVSPost2010Prop41ColorIndex
 90
       18
102
RTVSPost2010Prop41ColorRGB
 90
        0
102
RTVSPost2010PropOp41
 70
     1
102
RTVSPost2010Prop42
 90
       50
102
RTVSPost2010PropOp42
 70
     1
102
RTVSPost2010Prop43
 90
        3
102
RTVSPost2010PropOp43
 70
     1
102
RTVSPost2010Prop44ColorIndex
 90
        5
102
RTVSPost2010Prop44ColorRGB
 90
      255
102
RTVSPost2010PropOp44
 70
     1
102
RTVSPost2010Prop45
280
     0
102
RTVSPost2010PropOp45
 70
     1
102
RTVSPost2010Prop46
 90
       50
102
RTVSPost2010PropOp46
 70
     1
102
RTVSPost2010Prop47
 90
       50
102
RTVSPost2010PropOp47
 70
     1
102
RTVSPost2010Prop48
 90
       50
102
RTVSPost2010PropOp48
 70
     1
102
RTVSPost2010Prop49
280
     0
102
RTVSPost2010PropOp49
 70
     1
102
RTVSPost2010Prop50
 90
       50
102
RTVSPost2010PropOp50
 70
     1
102
RTVSPost2010Prop51ColorIndex
 90
      256
102
RTVSPost2010Prop51ColorRGB
 90
-16777216
102
RTVSPost2010PropOp51
 70
     0
102
RTVSPost2010Prop52
140
1.0
102
RTVSPost2010PropOp52
 70
     0
102
RTVSPost2010Prop53
 90
        2
102
RTVSPost2010PropOp53
 70
     1
102
RTVSPost2010Prop54
  1
strokes_ogs.tif
102
RTVSPost2010PropOp54
 70
     1
102
RTVSPost2010Prop55
280
     0
102
RTVSPost2010PropOp55
 70
     1
102
RTVSPost2010Prop56
140
1.0
102
RTVSPost2010PropOp56
 70
     1
102
RTVSPost2010Prop57
140
1.0
102
RTVSPost2010PropOp57
 70
     1
  0
ENDSEC
  0
EOF
